  0
SECTION
  2
HEADER
  9
$ACADVER
  1
AC1014
  9
$ACADMAINTVER
 70
           0
  9
$DWGCODEPAGE
  3
DOS932
  9
$INSBASE
 10
0.0
 20
0.0
 30
0.0
  9
$EXTMIN
 10
1.000000000000E+20
 20
1.000000000000E+20
 30
1.000000000000E+20
  9
$EXTMAX
 10
-1.000000000000E+20
 20
-1.000000000000E+20
 30
-1.000000000000E+20
  9
$LIMMIN
 10
0.0
 20
0.0
  9
$LIMMAX
 10
0.0
 20
0.0
  9
$ORTHOMODE
 70
           0
  9
$REGENMODE
 70
           1
  9
$FILLMODE
 70
           1
  9
$QTEXTMODE
 70
           0
  9
$MIRRTEXT
 70
           1
  9
$DRAGMODE
 70
           2
  9
$LTSCALE
 40
1.0
  9
$OSMODE
 70
           0
  9
$ATTMODE
 70
           1
  9
$TEXTSIZE
 40
0.2
  9
$TRACEWID
 40
0.05
  9
$TEXTSTYLE
  7
STANDARD
  9
$CLAYER
  8
0
  9
$CELTYPE
  6
CONTINUOUS
  9
$CECOLOR
 62
         256
  9
$CELTSCALE
 40
1.0
  9
$DELOBJ
 70
           1
  9
$DISPSILH
 70
           0
  9
$DIMSCALE
 40
1.0
  9
$DIMASZ
 40
0.18
  9
$DIMEXO
 40
0.0625
  9
$DIMDLI
 40
0.38
  9
$DIMRND
 40
0.0
  9
$DIMDLE
 40
0.0
  9
$DIMEXE
 40
0.18
  9
$DIMTP
 40
0.0
  9
$DIMTM
 40
0.0
  9
$DIMTXT
 40
0.18
  9
$DIMCEN
 40
0.09
  9
$DIMTSZ
 40
0.0
  9
$DIMTOL
 70
           0
  9
$DIMLIM
 70
           0
  9
$DIMTIH
 70
           1
  9
$DIMTOH
 70
           1
  9
$DIMSE1
 70
           0
  9
$DIMSE2
 70
           0
  9
$DIMTAD
 70
           0
  9
$DIMZIN
 70
           0
  9
$DIMBLK
  1

  9
$DIMASO
 70
           1
  9
$DIMSHO
 70
           1
  9
$DIMPOST
  1

  9
$DIMAPOST
  1

  9
$DIMALT
 70
           0
  9
$DIMALTD
 70
           2
  9
$DIMALTF
 40
25.4
  9
$DIMLFAC
 40
1.0
  9
$DIMTOFL
 70
           0
  9
$DIMTVP
 40
0.0
  9
$DIMTIX
 70
           0
  9
$DIMSOXD
 70
           0
  9
$DIMSAH
 70
           0
  9
$DIMBLK1
  1

  9
$DIMBLK2
  1

  9
$DIMSTYLE
  2
STANDARD
  9
$DIMCLRD
 70
           0
  9
$DIMCLRE
 70
           0
  9
$DIMCLRT
 70
           0
  9
$DIMTFAC
 40
1.0
  9
$DIMGAP
 40
0.09
  9
$DIMJUST
 70
           0
  9
$DIMSD1
 70
           0
  9
$DIMSD2
 70
           0
  9
$DIMTOLJ
 70
           1
  9
$DIMTZIN
 70
           0
  9
$DIMALTZ
 70
           0
  9
$DIMALTTZ
 70
           0
  9
$DIMFIT
 70
           3
  9
$DIMUPT
 70
           0
  9
$DIMUNIT
 70
           2
  9
$DIMDEC
 70
           4
  9
$DIMTDEC
 70
           4
  9
$DIMALTU
 70
           2
  9
$DIMALTTD
 70
           2
  9
$DIMTXSTY
  7
STANDARD
  9
$DIMAUNIT
 70
           0
  9
$LUNITS
 70
           2
  9
$LUPREC
 70
           4
  9
$SKETCHINC
 40
0.1
  9
$FILLETRAD
 40
0.0
  9
$AUNITS
 70
           0
  9
$AUPREC
 70
           0
  9
$MENU
  1
acad
  9
$ELEVATION
 40
0.0
  9
$PELEVATION
 40
0.0
  9
$THICKNESS
 40
0.0
  9
$LIMCHECK
 70
           0
  9
$BLIPMODE
 70
           1
  9
$CHAMFERA
 40
0.0
  9
$CHAMFERB
 40
0.0
  9
$CHAMFERC
 40
0.0
  9
$CHAMFERD
 40
0.0
  9
$SKPOLY
 70
           0
  9
$TDCREATE
 40
0.000000000
  9
$TDUPDATE
 40
0.000000000
  9
$TDINDWG
 40
0.0000000000
  9
$TDUSRTIMER
 40
0.0000000000
  9
$USRTIMER
 70
           1
  9
$ANGBASE
 50
0.0
  9
$ANGDIR
 70
           0
  9
$PDMODE
 70
           0
  9
$PDSIZE
 40
0.0
  9
$PLINEWID
 40
0.0
  9
$COORDS
 70
           0
  9
$SPLFRAME
 70
           0
  9
$SPLINETYPE
 70
           6
  9
$SPLINESEGS
 70
           8
  9
$ATTDIA
 70
           0
  9
$ATTREQ
 70
           1
  9
$HANDLING
 70
           1
  9
$HANDSEED
  5
4BD
  9
$SURFTAB1
 70
           6
  9
$SURFTAB2
 70
           6
  9
$SURFTYPE
 70
           6
  9
$SURFU
 70
           6
  9
$SURFV
 70
           6
  9
$UCSNAME
  2

  9
$UCSORG
 10
0.0
 20
0.0
 30
0.0
  9
$UCSXDIR
 10
1.0
 20
0.0
 30
0.0
  9
$UCSYDIR
 10
0.0
 20
1.0
 30
0.0
  9
$PUCSNAME
  2

  9
$PUCSORG
 10
0.0
 20
0.0
 30
0.0
  9
$PUCSXDIR
 10
1.0
 20
0.0
 30
0.0
  9
$PUCSYDIR
 10
0.0
 20
1.0
 30
0.0
  9
$USERI1
 70
           0
  9
$USERI2
 70
           0
  9
$USERI3
 70
           0
  9
$USERI4
 70
           0
  9
$USERI5
 70
           0
  9
$USERR1
 40
0.0
  9
$USERR2
 40
0.0
  9
$USERR3
 40
0.0
  9
$USERR4
 40
0.0
  9
$USERR5
 40
0.0
  9
$WORLDVIEW
 70
           1
  9
$SHADEDGE
 70
           3
  9
$SHADEDIF
 70
          70
  9
$TILEMODE
 70
           1
  9
$MAXACTVP
 70
          16
  9
$PINSBASE
 10
0.0
 20
0.0
 30
0.0
  9
$PLIMCHECK
 70
           0
  9
$PEXTMIN
 10
1.000000000000E+20
 20
1.000000000000E+20
 30
1.000000000000E+20
  9
$PEXTMAX
 10
-1.000000000000E+20
 20
-1.000000000000E+20
 30
-1.000000000000E+20
  9
$PLIMMIN
 10
0.0
 20
0.0
  9
$PLIMMAX
 10
12.0
 20
9.0
  9
$UNITMODE
 70
           0
  9
$VISRETAIN
 70
           0
  9
$PLINEGEN
 70
           1
  9
$PSLTSCALE
 70
           0
  9
$TREEDEPTH
 70
        3020
  9
$PICKSTYLE
 70
           1
  9
$CMLSTYLE
  2
STANDARD
  9
$CMLJUST
 70
           0
  9
$CMLSCALE
 40
1.0
  9
$PROXYGRAPHICS
 70
           0
  9
$MEASUREMENT
 70
           0
  0
ENDSEC
  0
SECTION
  2
CLASSES
  0
CLASS
  1
LWPOLYLINE
  2
AcDbPolyline
  3
"AutoCAD"
 90
        0
280
           0
281
           1
  0
CLASS
  1
IMAGE
  2
AcDbRasterImage
  3
ISM
 90
      127
280
           0
281
           1
  0
CLASS
  1
OLE2FRAME
  2
AcDbOle2Frame
  3
""
 90
        0
280
           0
281
           1
  0
CLASS
  1
HATCH
  2
AcDbHatch
  3
"ACAD_SEDONA"
 90
        0
280
           0
281
           1
  0
CLASS
  1
DICTIONARYVAR
  2
AcDbDictionaryVar
  3
"AutoCAD"
 90
        0
280
           0
281
           0
  0
CLASS
  1
RASTERVARIABLES
  2
AcDbRasterVariables
  3
ISM
 90
        0
280
           0
281
           0
  0
CLASS
  1
IMAGEDEF
  2
AcDbRasterImageDef
  3
ISM
 90
        0
280
           0
281
           0
  0
CLASS
  1
IMAGEDEF_REACTOR
  2
AcDbRasterImageDefReactor
  3
ISM
 90
        1
280
           0
281
           0
  0
CLASS
  1
IDBUFFER
  2
AcDbIdBuffer
  3
"Acad"
 90
        0
280
           0
281
           0
  0
CLASS
  1
SPATIAL_FILTER
  2
AcDbSpatialFilter
  3
"Acad"
 90
        0
280
           0
281
           0
  0
CLASS
  1
XRECORD
  2
AcDbXrecord
  3
"<Built In>"
 90
        0
280
           0
281
           0
  0
CLASS
  1
SORTENTSTABLE
  2
AcDbSortentsTable
  3
"AutoCAD"
 90
        0
280
           0
281
           0
  0
CLASS
  1
LAYER_INDEX
  2
AcDbLayerIndex
  3
"Acad"
 90
        0
280
           0
281
           0
  0
CLASS
  1
SPATIAL_INDEX
  2
AcDbSpatialIndex
  3
"Acad"
 90
        0
280
           0
281
           0
  0
CLASS
  1
OBJECT_PTR
  2
CAseDLPNTableRecord
  3
"ASE-LPNTableRecord"
 90
        1
280
           0
281
           0
  0
CLASS
  1
LAYOUT
  2
AcDbLayout
  3
"AutoCAD 2000"
 90
        1
280
           0
281
           0
  0
CLASS
  1
PLOTSETTINGS
  2
AcDbPlotSettings
  3
"AutoCAD 2000"
 90
        1
280
           0
281
           0
  0
CLASS
  1
ACDBDICTIONARYWDFLT
  2
AcDbDictionaryWithDefault
  3
"AutoCAD 2000"
 90
        1
280
           0
281
           0
  0
CLASS
  1
ACDBPLACEHOLDER
  2
AcDbPlaceHolder
  3
"AutoCAD 2000"
 90
        1
280
           0
281
           0
  0
CLASS
  1
VBA_PROJECT
  2
AcDbVbaProject
  3
"acadvba"
 90
        1
280
           0
281
           0
  0
CLASS
  1
WIPEOUT
  2
AcDbWipeout
  3
WipeOut|AutoCAD Express Tool|expresstools@autodesk.com
 90
      127
280
           0
281
           1
  0
CLASS
  1
WIPEOUTVARIABLES
  2
AcDbWipeoutVariables
  3
WipeOut|AutoCAD Express Tool|expresstools@autodesk.com
 90
        0
280
           0
281
           0
  0
CLASS
  1
RTEXT
  2
RText
  3
RText|AutoCAD Express Tool|expresstools@autodesk.com
 90
        0
280
           0
281
           1
  0
CLASS
  1
ARCALIGNEDTEXT
  2
AcDbArcAlignedText
  3
ATEXT|AutoCAD Express Tool|expresstools@autodesk.com
 90
        0
280
           0
281
           1
  0
ENDSEC
  0
SECTION
  2
TABLES
  0
TABLE
  2
VPORT
  5
7
100
AcDbSymbolTable
 70
           1
  0
VPORT
  5
15
100
AcDbSymbolTableRecord
100
AcDbViewportTableRecord
  2
*ACTIVE
 70
           0
 10
0.0
 20
0.0
 11
1.0
 21
1.0
 12
6.591288
 22
4.579184
 13
0.0
 23
0.0
 14
1.0
 24
1.0
 15
0.0
 25
0.0
 16
0.0
 26
0.0
 36
1.0
 17
0.0
 27
0.0
 37
0.0
 40
9.158369
 41
0.688564
 42
50.0
 43
0.0
 44
0.0
 50
0.0
 51
0.0
 71
           0
 72
         100
 73
           1
 74
           1
 75
           0
 76
           0
 77
           0
 78
           0
  0
ENDTAB
  0
TABLE
  2
LTYPE
  5
4
100
AcDbSymbolTable
 70
          10
  0
LTYPE
  5
11
100
AcDbSymbolTableRecord
100
AcDbLinetypeTableRecord
  2
BYBLOCK
 70
          64
  3

 72
          65
 73
           0
 40
0.0
  0
LTYPE
  5
12
100
AcDbSymbolTableRecord
100
AcDbLinetypeTableRecord
  2
BYLAYER
 70
          64
  3

 72
          65
 73
           0
 40
0.0
  0
LTYPE
  5
13
100
AcDbSymbolTableRecord
100
AcDbLinetypeTableRecord
  2
CONTINUOUS
 70
          64
  3
Solid line
 72
          65
 73
           0
 40
0.0
  0
LTYPE
  5
1D
100
AcDbSymbolTableRecord
100
AcDbLinetypeTableRecord
  2
DASHED
 70
          64
  3
Dashed
 72
          65
 73
           2
 40
15.0
 49
12.0
 74
           0
 49
-3.0
 74
           0
  0
LTYPE
  5
1E
100
AcDbSymbolTableRecord
100
AcDbLinetypeTableRecord
  2
DOTTED
 70
          64
  3
Dotted
 72
          65
 73
           2
 40
3.5
 49
0.5
 74
           0
 49
-3.0
 74
           0
  0
LTYPE
  5
1F
100
AcDbSymbolTableRecord
100
AcDbLinetypeTableRecord
  2
DOT_CENTER
 70
          64
  3
Dot_Center
 72
          65
 73
           4
 40
2.0
 49
1.25
 74
           0
 49
-0.25
 74
           0
 49
0.25
 74
           0
 49
-0.25
 74
           0
  0
LTYPE
  5
20
100
AcDbSymbolTableRecord
100
AcDbLinetypeTableRecord
  2
LONG_DASHED
 70
          64
  3
Long_Dashed
 72
          65
 73
           2
 40
2.0
 49
1.5
 74
           0
 49
-0.5
 74
           0
  0
LTYPE
  5
21
100
AcDbSymbolTableRecord
100
AcDbLinetypeTableRecord
  2
DASH_CENTER
 70
          64
  3
Dash_Center
 72
          65
 73
           4
 40
36.0
 49
24.0
 74
           0
 49
-3.0
 74
           0
 49
6.0
 74
           0
 49
-3.0
 74
           0
  0
LTYPE
  5
22
100
AcDbSymbolTableRecord
100
AcDbLinetypeTableRecord
  2
PHANTOM
 70
          64
  3
Phantom
 72
          65
 73
           6
 40
2.5
 49
1.25
 74
           0
 49
-0.25
 74
           0
 49
0.25
 74
           0
 49
-0.25
 74
           0
 49
0.25
 74
           0
 49
-0.25
 74
           0
  0
LTYPE
  5
23
100
AcDbSymbolTableRecord
100
AcDbLinetypeTableRecord
  2
CENTER_DASH_DASH
 70
          64
  3
Center_Dash_Dash
 72
          65
 73
           6
 40
22.0
 49
12.0
 74
           0
 49
-3.0
 74
           0
 49
0.5
 74
           0
 49
-3.0
 74
           0
 49
0.5
 74
           0
 49
-3.0
 74
           0
  0
ENDTAB
  0
TABLE
  2
LAYER
  5
2
100
AcDbSymbolTable
 70
           2
  0
LAYER
  5
14
100
AcDbSymbolTableRecord
100
AcDbLayerTableRecord
  2
0
 70
           0
 62
           7
  6
CONTINUOUS
  0
LAYER
  5
24
100
AcDbSymbolTableRecord
100
AcDbLayerTableRecord
  2
1
 70
           0
 62
           7
  6
CONTINUOUS
  0
ENDTAB
  0
TABLE
  2
STYLE
  5
3
100
AcDbSymbolTable
 70
           1
  0
STYLE
  5
17
100
AcDbSymbolTableRecord
100
AcDbTextStyleTableRecord
  2
STANDARD
 70
           0
 40
0.0
 41
1.0
 50
0.0
 71
           0
 42
0.0
  3
txt
  4

  0
ENDTAB
  0
TABLE
  2
VIEW
  5
5
100
AcDbSymbolTable
 70
           0
  0
ENDTAB
  0
TABLE
  2
UCS
  5
6
100
AcDbSymbolTable
 70
           0
  0
ENDTAB
  0
TABLE
  2
APPID
  5
8
100
AcDbSymbolTable
 70
           1
  0
APPID
  5
16
100
AcDbSymbolTableRecord
100
AcDbRegAppTableRecord
  2
ACAD
 70
           0
  0
ENDTAB
  0
TABLE
  2
DIMSTYLE
  5
9
100
AcDbSymbolTable
 70
           1
  0
DIMSTYLE
105
18
100
AcDbSymbolTableRecord
100
AcDbDimStyleTableRecord
  2
STANDARD
 70
           0
  3

  4

  5

  6

  7

 40
1.0
 41
0.18
 42
0.0625
 43
0.38
 44
0.18
 45
0.0
 46
0.0
 47
0.0
 48
0.0
 71
           0
 72
           0
 73
           1
 74
           1
 75
           0
 76
           0
 77
           0
 78
           0
140
0.18
141
0.09
142
0.0
143
25.4
144
1.0
145
0.0
146
1.0
147
0.09
170
           0
171
           2
172
           0
173
           0
174
           0
175
           0
176
           0
177
           0
178
           0
270
           2
271
           4
272
           4
273
           2
274
           2
275
           0
280
           0
281
           0
282
           0
283
           1
284
           0
285
           0
286
           0
287
           0
288
           0
340
17
  0
ENDTAB
  0
TABLE
  2
BLOCK_RECORD
  5
1
100
AcDbSymbolTable
 70
           5
  0
BLOCK_RECORD
  5
A
100
AcDbSymbolTableRecord
100
AcDbBlockTableRecord
  2
*MODEL_SPACE
  0
BLOCK_RECORD
  5
B
100
AcDbSymbolTableRecord
100
AcDbBlockTableRecord
  2
*PAPER_SPACE
  0
BLOCK_RECORD
  5
25
100
AcDbSymbolTableRecord
100
AcDbBlockTableRecord
  2
02795700
  0
BLOCK_RECORD
  5
27
100
AcDbSymbolTableRecord
100
AcDbBlockTableRecord
  2
02510700
  0
BLOCK_RECORD
  5
29
100
AcDbSymbolTableRecord
100
AcDbBlockTableRecord
  2
02950700
  0
BLOCK_RECORD
  5
2D
100
AcDbSymbolTableRecord
100
AcDbBlockTableRecord
  2
06680302
  0
BLOCK_RECORD
  5
2F
100
AcDbSymbolTableRecord
100
AcDbBlockTableRecord
  2
COYO1_40
  0
ENDTAB
  0
ENDSEC
  0
SECTION
  2
BLOCKS
  0
BLOCK
  5
D
100
AcDbEntity
  8
0
100
AcDbBlockBegin
  2
*MODEL_SPACE
 70
           0
 10
0.0
 20
0.0
 30
0.0
  3
*MODEL_SPACE
  1

  0
ENDBLK
  5
E
100
AcDbEntity
  8
0
100
AcDbBlockEnd
  0
BLOCK
  5
F
100
AcDbEntity
 67
           1
  8
0
100
AcDbBlockBegin
  2
*PAPER_SPACE
 70
           0
 10
0.0
 20
0.0
 30
0.0
  3
*PAPER_SPACE
  1

  0
ENDBLK
  5
10
100
AcDbEntity
 67
           1
  8
0
100
AcDbBlockEnd
  0
BLOCK
  5
26
100
AcDbEntity
  8
0
100
AcDbBlockBegin
  2
02795700
 70
           0
 10
0.0
 20
0.0
 30
0.0
  3
02795700
  1

  0
ARC
  5
57
100
AcDbEntity
  8
1
  6
CONTINUOUS
 62
           7
100
AcDbCircle
 10
269.570740554244
 20
-3510.040400782804
 40
51.700000000001
100
AcDbArc
 50
90.0
 51
180.0
  0
ARC
  5
56
100
AcDbEntity
  8
1
  6
CONTINUOUS
 62
           7
100
AcDbCircle
 10
366.170740554245
 20
-3510.040400782804
 40
51.700000000001
100
AcDbArc
 50
0.0
 51
90.0
  0
ARC
  5
55
100
AcDbEntity
  8
1
  6
CONTINUOUS
 62
           7
100
AcDbCircle
 10
366.170740554245
 20
-3510.040400782804
 40
30.0
100
AcDbArc
 50
0.0
 51
90.0
  0
ARC
  5
54
100
AcDbEntity
  8
1
  6
CONTINUOUS
 62
           7
100
AcDbCircle
 10
269.570740554244
 20
-3510.040400782804
 40
30.0
100
AcDbArc
 50
90.0
 51
180.0
  0
ARC
  5
53
100
AcDbEntity
  8
1
  6
CONTINUOUS
 62
           7
100
AcDbCircle
 10
-286.111480303259
 20
-3469.190400782804
 40
10.85
100
AcDbArc
 50
0.0
 51
90.0
  0
ARC
  5
52
100
AcDbEntity
  8
1
  6
CONTINUOUS
 62
           7
100
AcDbCircle
 10
-286.111480303259
 20
-3469.190400782804
 40
10.850000000001
100
AcDbArc
 50
90.0
 51
180.0
  0
LINE
  5
51
100
AcDbEntity
  8
1
  6
DOT_CENTER
 62
           2
100
AcDbLine
 10
-364.111480303257
 20
-3579.070333127381
 11
-364.111480303257
 21
-3555.339963219678
  0
LINE
  5
50
100
AcDbEntity
  8
1
  6
CONTINUOUS
 62
           7
100
AcDbLine
 10
-375.611480303257
 20
-3584.754936611472
 11
-375.611480303257
 21
-3561.447769868163
  0
LINE
  5
4F
100
AcDbEntity
  8
1
  6
CONTINUOUS
 62
           7
100
AcDbLine
 10
-375.611480303257
 20
-3561.447769868163
 11
-352.611480303257
 21
-3561.447769868163
  0
LINE
  5
4E
100
AcDbEntity
  8
1
  6
CONTINUOUS
 62
           7
100
AcDbLine
 10
-352.611480303257
 20
-3561.447769868163
 11
-352.611480303257
 21
-3569.008838861419
  0
LINE
  5
4D
100
AcDbEntity
  8
1
  6
DOT_CENTER
 62
           2
100
AcDbLine
 10
-336.111480303257
 20
-3574.009530988721
 11
-336.111480303257
 21
-3537.654760304247
  0
LINE
  5
4C
100
AcDbEntity
  8
1
  6
CONTINUOUS
 62
           7
100
AcDbLine
 10
-347.611480303257
 20
-3567.219134163581
 11
-347.611480303257
 21
-3547.353069040944
  0
LINE
  5
4B
100
AcDbEntity
  8
1
  6
CONTINUOUS
 62
           7
100
AcDbLine
 10
-347.611480303257
 20
-3547.353069040944
 11
-324.611480303257
 21
-3547.353069040944
  0
LINE
  5
4A
100
AcDbEntity
  8
1
  6
CONTINUOUS
 62
           7
100
AcDbLine
 10
-324.611480303257
 20
-3547.353069040944
 11
-324.611480303257
 21
-3557.856869924108
  0
LINE
  5
49
100
AcDbEntity
  8
1
  6
DOT_CENTER
 62
           2
100
AcDbLine
 10
-208.111480303257
 20
-3582.215324715142
 11
-208.111480303257
 21
-3555.339963219678
  0
LINE
  5
48
100
AcDbEntity
  8
1
  6
CONTINUOUS
 62
           7
100
AcDbLine
 10
-217.611480303257
 20
-3570.786712964116
 11
-217.611480303257
 21
-3561.447769868163
  0
LINE
  5
47
100
AcDbEntity
  8
1
  6
CONTINUOUS
 62
           7
100
AcDbLine
 10
-217.611480303257
 20
-3561.447769868163
 11
-198.611480303257
 21
-3561.447769868163
  0
LINE
  5
46
100
AcDbEntity
  8
1
  6
CONTINUOUS
 62
           7
100
AcDbLine
 10
-198.611480303257
 20
-3561.447769868163
 11
-198.611480303257
 21
-3583.182604403374
  0
LINE
  5
45
100
AcDbEntity
  8
1
  6
DOT_CENTER
 62
           2
100
AcDbLine
 10
-236.111480303257
 20
-3571.405055880559
 11
-236.111480303257
 21
-3540.150783377195
  0
LINE
  5
44
100
AcDbEntity
  8
1
  6
CONTINUOUS
 62
           7
100
AcDbLine
 10
-224.611480303257
 20
-3567.219134163581
 11
-224.611480303257
 21
-3547.353069040944
  0
LINE
  5
43
100
AcDbEntity
  8
1
  6
CONTINUOUS
 62
           7
100
AcDbLine
 10
-224.611480303257
 20
-3547.353069040944
 11
-247.611480303257
 21
-3547.353069040944
  0
LINE
  5
42
100
AcDbEntity
  8
1
  6
CONTINUOUS
 62
           7
100
AcDbLine
 10
-247.611480303257
 20
-3547.353069040944
 11
-247.611480303257
 21
-3558.612919837198
  0
LINE
  5
41
100
AcDbEntity
  8
1
  6
CONTINUOUS
 62
           7
100
AcDbLine
 10
-275.261480303259
 20
-3553.340400782803
 11
-275.261480303259
 21
-3469.190400782804
  0
LINE
  5
40
100
AcDbEntity
  8
1
  6
CONTINUOUS
 62
           7
100
AcDbLine
 10
-296.961480303259
 20
-3469.190400782804
 11
-296.961480303259
 21
-3553.340400782803
  0
LINE
  5
3F
100
AcDbEntity
  8
1
  6
CONTINUOUS
 62
           7
100
AcDbLine
 10
-296.961480303259
 20
-3553.340400782803
 11
-275.261480303259
 21
-3553.340400782803
  0
LINE
  5
3E
100
AcDbEntity
  8
1
  6
DOT_CENTER
 62
           2
100
AcDbLine
 10
-286.111480303259
 20
-3562.349684370361
 11
-286.111480303259
 21
-3458.340400782803
  0
LINE
  5
3D
100
AcDbEntity
  8
1
  6
CONTINUOUS
 62
           7
100
AcDbLine
 10
239.570740554244
 20
-3553.340400782803
 11
217.870740554245
 21
-3553.340400782803
  0
LINE
  5
3C
100
AcDbEntity
  8
1
  6
CONTINUOUS
 62
           7
100
AcDbLine
 10
239.570740554244
 20
-3510.040400782804
 11
239.570740554244
 21
-3553.340400782803
  0
LINE
  5
3B
100
AcDbEntity
  8
1
  6
CONTINUOUS
 62
           7
100
AcDbLine
 10
366.170740554245
 20
-3480.040400782804
 11
269.570740554244
 21
-3480.040400782804
  0
LINE
  5
3A
100
AcDbEntity
  8
1
  6
CONTINUOUS
 62
           7
100
AcDbLine
 10
396.170740554245
 20
-3553.340400782803
 11
396.170740554245
 21
-3510.040400782804
  0
LINE
  5
39
100
AcDbEntity
  8
1
  6
CONTINUOUS
 62
           7
100
AcDbLine
 10
417.870740554246
 20
-3553.340400782803
 11
396.170740554245
 21
-3553.340400782803
  0
LINE
  5
38
100
AcDbEntity
  8
1
  6
CONTINUOUS
 62
           7
100
AcDbLine
 10
417.870740554246
 20
-3510.040400782804
 11
417.870740554246
 21
-3553.340400782803
  0
LINE
  5
37
100
AcDbEntity
  8
1
  6
CONTINUOUS
 62
           7
100
AcDbLine
 10
269.570740554244
 20
-3458.340400782803
 11
366.170740554245
 21
-3458.340400782803
  0
LINE
  5
36
100
AcDbEntity
  8
1
  6
CONTINUOUS
 62
           7
100
AcDbLine
 10
217.870740554245
 20
-3553.340400782803
 11
217.870740554245
 21
-3510.040400782804
  0
ENDBLK
  5
58
100
AcDbEntity
  8
0
100
AcDbBlockEnd
  0
BLOCK
  5
28
100
AcDbEntity
  8
0
100
AcDbBlockBegin
  2
02510700
 70
           0
 10
0.0
 20
0.0
 30
0.0
  3
02510700
  1

  0
ARC
  5
7A
100
AcDbEntity
  8
1
  6
CONTINUOUS
 62
           7
100
AcDbCircle
 10
-209.111480303257
 20
-3850.683852275449
 40
2.0
100
AcDbArc
 50
180.0
 51
-90.0
  0
ARC
  5
79
100
AcDbEntity
  8
1
  6
CONTINUOUS
 62
           7
100
AcDbCircle
 10
-363.111480303257
 20
-3850.683852275449
 40
2.0
100
AcDbArc
 50
-90.0
 51
0.0
  0
LINE
  5
78
100
AcDbEntity
  8
1
  6
CONTINUOUS
 62
           7
100
AcDbLine
 10
97.870740554244
 20
-3852.683852275449
 11
157.870740554244
 21
-3852.683852275449
  0
LINE
  5
77
100
AcDbEntity
  8
1
  6
CONTINUOUS
 62
           7
100
AcDbLine
 10
97.870740554244
 20
-3841.183852275449
 11
97.870740554244
 21
-3857.183852275449
  0
LINE
  5
76
100
AcDbEntity
  8
1
  6
CONTINUOUS
 62
           7
100
AcDbLine
 10
97.870740554244
 20
-3841.183852275449
 11
117.870740554244
 21
-3821.183852275449
  0
LINE
  5
75
100
AcDbEntity
  8
1
  6
CONTINUOUS
 62
           7
100
AcDbLine
 10
157.870740554244
 20
-3857.183852275449
 11
157.870740554244
 21
-3821.183852275449
  0
LINE
  5
74
100
AcDbEntity
  8
1
  6
CONTINUOUS
 62
           7
100
AcDbLine
 10
157.870740554244
 20
-3821.183852275449
 11
117.870740554244
 21
-3821.183852275449
  0
LINE
  5
73
100
AcDbEntity
  8
1
  6
CONTINUOUS
 62
           7
100
AcDbLine
 10
477.870740554244
 20
-3852.683852275449
 11
537.870740554244
 21
-3852.683852275449
  0
LINE
  5
72
100
AcDbEntity
  8
1
  6
CONTINUOUS
 62
           7
100
AcDbLine
 10
517.870740554244
 20
-3821.183852275449
 11
477.870740554244
 21
-3821.183852275449
  0
LINE
  5
71
100
AcDbEntity
  8
1
  6
CONTINUOUS
 62
           7
100
AcDbLine
 10
517.870740554244
 20
-3821.183852275449
 11
537.870740554244
 21
-3841.183852275449
  0
LINE
  5
70
100
AcDbEntity
  8
1
  6
CONTINUOUS
 62
           7
100
AcDbLine
 10
537.870740554244
 20
-3857.183852275449
 11
537.870740554244
 21
-3841.183852275449
  0
LINE
  5
6F
100
AcDbEntity
  8
1
  6
CONTINUOUS
 62
           7
100
AcDbLine
 10
477.870740554244
 20
-3821.183852275449
 11
477.870740554244
 21
-3857.183852275449
  0
LINE
  5
6E
100
AcDbEntity
  8
1
  6
CONTINUOUS
 62
           7
100
AcDbLine
 10
477.870740554244
 20
-3857.183852275449
 11
537.870740554244
 21
-3857.183852275449
  0
LINE
  5
6D
100
AcDbEntity
  8
1
  6
DOT_CENTER
 62
           2
100
AcDbLine
 10
517.870740554244
 20
-3846.114256278672
 11
517.870740554244
 21
-3863.130803063081
  0
LINE
  5
6C
100
AcDbEntity
  8
1
  6
CONTINUOUS
 62
           7
100
AcDbLine
 10
-211.111480303257
 20
-3850.683852275449
 11
-211.111480303257
 21
-3821.183852275449
  0
LINE
  5
6B
100
AcDbEntity
  8
1
  6
CONTINUOUS
 62
           7
100
AcDbLine
 10
-215.611480303259
 20
-3821.183852275449
 11
-215.611480303257
 21
-3857.183852275449
  0
LINE
  5
6A
100
AcDbEntity
  8
1
  6
CONTINUOUS
 62
           7
100
AcDbLine
 10
-215.611480303257
 20
-3857.183852275449
 11
-171.111480303257
 21
-3857.183852275449
  0
LINE
  5
69
100
AcDbEntity
  8
1
  6
CONTINUOUS
 62
           7
100
AcDbLine
 10
-171.111480303257
 20
-3852.683852275449
 11
-209.111480303257
 21
-3852.683852275449
  0
LINE
  5
68
100
AcDbEntity
  8
1
  6
DOT_CENTER
 62
           2
100
AcDbLine
 10
-191.111480303257
 20
-3866.643730378799
 11
-191.111480303257
 21
-3811.791415813316
  0
LINE
  5
67
100
AcDbEntity
  8
1
  6
CONTINUOUS
 62
           6
100
AcDbLine
 10
525.370740554244
 20
-3852.683852275449
 11
525.370740554244
 21
-3857.183852275449
  0
LINE
  5
66
100
AcDbEntity
  8
1
  6
CONTINUOUS
 62
           6
100
AcDbLine
 10
510.370740554244
 20
-3852.683852275449
 11
510.370740554244
 21
-3857.183852275449
  0
LINE
  5
65
100
AcDbEntity
  8
1
  6
CONTINUOUS
 62
           7
100
AcDbLine
 10
-171.111480303257
 20
-3857.183852275449
 11
-171.111480303257
 21
-3852.683852275449
  0
LINE
  5
64
100
AcDbEntity
  8
1
  6
CONTINUOUS
 62
           7
100
AcDbLine
 10
-211.111480303257
 20
-3821.183852275449
 11
-215.611480303259
 21
-3821.183852275449
  0
LINE
  5
63
100
AcDbEntity
  8
1
  6
CONTINUOUS
 62
           6
100
AcDbLine
 10
125.370740554244
 20
-3857.183852275449
 11
125.370740554244
 21
-3852.683852275449
  0
LINE
  5
62
100
AcDbEntity
  8
1
  6
CONTINUOUS
 62
           6
100
AcDbLine
 10
110.370740554244
 20
-3857.183852275449
 11
110.370740554244
 21
-3852.683852275449
  0
LINE
  5
61
100
AcDbEntity
  8
1
  6
DOT_CENTER
 62
           2
100
AcDbLine
 10
117.870740554244
 20
-3862.510588692311
 11
117.870740554244
 21
-3846.114256278672
  0
LINE
  5
60
100
AcDbEntity
  8
1
  6
CONTINUOUS
 62
           7
100
AcDbLine
 10
97.870740554244
 20
-3857.183852275449
 11
157.870740554244
 21
-3857.183852275449
  0
LINE
  5
5F
100
AcDbEntity
  8
1
  6
CONTINUOUS
 62
           7
100
AcDbLine
 10
-356.611480303257
 20
-3821.183852275449
 11
-361.111480303257
 21
-3821.183852275449
  0
LINE
  5
5E
100
AcDbEntity
  8
1
  6
CONTINUOUS
 62
           7
100
AcDbLine
 10
-401.111480303257
 20
-3852.683852275449
 11
-401.111480303257
 21
-3857.183852275449
  0
LINE
  5
5D
100
AcDbEntity
  8
1
  6
DOT_CENTER
 62
           2
100
AcDbLine
 10
-381.111480303257
 20
-3811.791415813316
 11
-381.111480303257
 21
-3866.643730378799
  0
LINE
  5
5C
100
AcDbEntity
  8
1
  6
CONTINUOUS
 62
           7
100
AcDbLine
 10
-363.111480303257
 20
-3852.683852275449
 11
-401.111480303257
 21
-3852.683852275449
  0
LINE
  5
5B
100
AcDbEntity
  8
1
  6
CONTINUOUS
 62
           7
100
AcDbLine
 10
-401.111480303257
 20
-3857.183852275449
 11
-356.611480303257
 21
-3857.183852275449
  0
LINE
  5
5A
100
AcDbEntity
  8
1
  6
CONTINUOUS
 62
           7
100
AcDbLine
 10
-356.611480303257
 20
-3857.183852275449
 11
-356.611480303257
 21
-3821.183852275449
  0
LINE
  5
59
100
AcDbEntity
  8
1
  6
CONTINUOUS
 62
           7
100
AcDbLine
 10
-361.111480303257
 20
-3821.183852275449
 11
-361.111480303257
 21
-3850.683852275449
  0
ENDBLK
  5
7B
100
AcDbEntity
  8
0
100
AcDbBlockEnd
  0
BLOCK
  5
2A
100
AcDbEntity
  8
0
100
AcDbBlockBegin
  2
02950700
 70
           0
 10
0.0
 20
0.0
 30
0.0
  3
02950700
  1

  0
LINE
  5
7C
100
AcDbEntity
  8
1
  6
DASH_CENTER
 62
           2
100
AcDbLine
 10
138.870740554244
 20
-3555.015384876716
 11
138.870740554244
 21
-3589.413014516704
  0
INSERT
  5
2B
100
AcDbEntity
  8
0
100
AcDbBlockReference
  2
02795700
 10
0.0
 20
0.0
  0
INSERT
  5
2C
100
AcDbEntity
  8
0
100
AcDbBlockReference
  2
02510700
 10
0.0
 20
0.0
  0
ENDBLK
  5
7D
100
AcDbEntity
  8
0
100
AcDbBlockEnd
  0
BLOCK
  5
2E
100
AcDbEntity
  8
0
100
AcDbBlockBegin
  2
06680302
 70
           0
 10
0.0
 20
0.0
 30
0.0
  3
06680302
  1

  0
LINE
  5
8C
100
AcDbEntity
  8
1
  6
CONTINUOUS
 62
           7
100
AcDbLine
 10
-245.650292803257
 20
-3540.311632875796
 11
-226.572667803257
 21
-3540.311632875796
  0
LINE
  5
8B
100
AcDbEntity
  8
1
  6
CONTINUOUS
 62
           7
100
AcDbLine
 10
-246.611480303257
 20
-3540.311632875796
 11
-246.611480303257
 21
-3535.311632875796
  0
LINE
  5
8A
100
AcDbEntity
  8
1
  6
CONTINUOUS
 62
           7
100
AcDbLine
 10
-246.611480303257
 20
-3535.311632875796
 11
-225.611480303257
 21
-3535.311632875796
  0
LINE
  5
89
100
AcDbEntity
  8
1
  6
CONTINUOUS
 62
           7
100
AcDbLine
 10
-225.611480303257
 20
-3535.311632875796
 11
-225.611480303257
 21
-3540.311632875796
  0
LINE
  5
88
100
AcDbEntity
  8
1
  6
CONTINUOUS
 62
           7
100
AcDbLine
 10
-246.611480303257
 20
-3540.311632875796
 11
-245.650292803257
 21
-3540.311632875796
  0
LINE
  5
87
100
AcDbEntity
  8
1
  6
CONTINUOUS
 62
           7
100
AcDbLine
 10
-225.611480303257
 20
-3540.311632875796
 11
-226.572667803257
 21
-3540.311632875796
  0
LINE
  5
86
100
AcDbEntity
  8
1
  6
DOT_CENTER
 62
           2
100
AcDbLine
 10
-236.111480303257
 20
-3555.110968178603
 11
-236.111480303257
 21
-3533.068722979194
  0
LINE
  5
85
100
AcDbEntity
  8
1
  6
CONTINUOUS
 62
           7
100
AcDbLine
 10
-226.572667803257
 20
-3540.311632875796
 11
-227.603902555635
 21
-3541.311144951884
  0
LINE
  5
84
100
AcDbEntity
  8
1
  6
CONTINUOUS
 62
           7
100
AcDbLine
 10
-245.650292803257
 20
-3540.311632875796
 11
-244.619058050879
 21
-3541.311144951884
  0
LINE
  5
83
100
AcDbEntity
  8
1
  6
CONTINUOUS
 62
           7
100
AcDbLine
 10
-227.780480303257
 20
-3546.961632875796
 11
-227.603902555635
 21
-3541.311144951884
  0
LINE
  5
82
100
AcDbEntity
  8
1
  6
CONTINUOUS
 62
           7
100
AcDbLine
 10
-244.442480303257
 20
-3546.961632875796
 11
-244.619058050879
 21
-3541.311144951884
  0
LINE
  5
81
100
AcDbEntity
  8
1
  6
CONTINUOUS
 62
           7
100
AcDbLine
 10
-236.111480303257
 20
-3543.261632875797
 11
-227.664855303257
 21
-3543.261632875797
  0
LINE
  5
80
100
AcDbEntity
  8
1
  6
CONTINUOUS
 62
           2
100
AcDbLine
 10
-243.586480303257
 20
-3546.961632875796
 11
-243.702105303257
 21
-3543.261632875797
  0
LINE
  5
7F
100
AcDbEntity
  8
1
  6
CONTINUOUS
 62
           2
100
AcDbLine
 10
-228.636480303257
 20
-3546.961632875796
 11
-228.520855303257
 21
-3543.261632875797
  0
LINE
  5
7E
100
AcDbEntity
  8
1
  6
CONTINUOUS
 62
           7
100
AcDbLine
 10
-236.111480303257
 20
-3543.261632875797
 11
-244.558105303257
 21
-3543.261632875797
  0
ENDBLK
  5
8D
100
AcDbEntity
  8
0
100
AcDbBlockEnd
  0
BLOCK
  5
30
100
AcDbEntity
  8
0
100
AcDbBlockBegin
  2
COYO1_40
 70
           0
 10
0.0
 20
0.0
 30
0.0
  3
COYO1_40
  1

  0
HATCH
  5
11D
100
AcDbEntity
  8
0
  6
CONTINUOUS
 62
           4
100
AcDbHatch
 10
0.0
 20
0.0
 30
0.0
210
0.0
220
0.0
230
1.0
  2
USER
 70
           0
 71
           1
 91
        1
 92
        1
 93
        4
 72
           1
 10
203.86331729515479
 20
-3597.9216083745341
 11
185.56289095065739
 21
-3597.9212986559801
 72
           1
 10
185.56289095065739
 20
-3597.9212986559801
 11
185.56289095065739
 21
-3637.921707723654
 72
           1
 10
185.56289095065739
 20
-3637.921707723654
 11
203.86331729515479
 21
-3637.9216645194638
 72
           1
 10
203.86331729515479
 20
-3637.9216645194638
 11
203.86331729515479
 21
-3597.9216083745341
 97
        4
330
DD
330
E0
330
DF
330
DE
 75
           1
 76
           0
 52
45.0
 41
0.1
 77
           0
 78
           2
 53
60.0
 43
0.0
 44
0.0
 45
-0.0866025403784439
 46
0.05
 79
           0
 53
120.0
 43
0.0
 44
0.0
 45
-0.0866025403784439
 46
-0.05
 79
           0
 98
        1
 10
0.0
 20
0.0
  0
HATCH
  5
11C
100
AcDbEntity
  8
0
  6
CONTINUOUS
 62
           4
100
AcDbHatch
 10
0.0
 20
0.0
 30
0.0
210
0.0
220
0.0
230
1.0
  2
USER
 70
           0
 71
           1
 91
        1
 92
        1
 93
        4
 72
           1
 10
268.14883181882448
 20
-3605.1870693892788
 11
259.63378050402667
 21
-3605.1870896647961
 72
           1
 10
259.63378050402667
 20
-3605.1870896647961
 11
260.75064801232111
 21
-3608.6788163248989
 72
           1
 10
260.75064801232111
 20
-3608.6788163248989
 11
268.14883181882448
 21
-3608.6817741734621
 72
           1
 10
268.14883181882448
 20
-3608.6817741734621
 11
268.14883181882448
 21
-3605.1870693892788
 97
        4
330
A4
330
A5
330
A6
330
A3
 75
           1
 76
           0
 52
45.0
 41
0.1
 77
           0
 78
           2
 53
60.0
 43
0.0
 44
0.0
 45
-0.0866025403784439
 46
0.05
 79
           0
 53
120.0
 43
0.0
 44
0.0
 45
-0.0866025403784439
 46
-0.05
 79
           0
 98
        1
 10
0.0
 20
0.0
  0
SPLINE
  5
11B
100
AcDbEntity
  8
1
  6
CONTINUOUS
 62
           2
100
AcDbSpline
210
0.0
220
0.0
230
1.0
 70
           0
 71
           4
 72
           8
 73
           4
 74
           3
 42
0.00000000001
 43
0.00000000001
 44
0.00000000001
 40
0.0
 40
0.0
 40
0.0
 40
0.0
 40
2.1619734105069162
 40
2.1619734105069162
 40
2.1619734105069162
 40
2.1619734105069162
 10
178.7953086562257
 20
-3615.4383198901478
 30
0.0
 10
178.19635627154861
 20
-3615.8353123611669
 30
0.0
 10
177.6783080558223
 20
-3616.3424326566542
 30
0.0
 10
177.2687232485375
 20
-3616.9327028829521
 30
0.0
 11
178.7953086562257
 21
-3615.4383198901478
 31
0.0
 11
177.96100311085948
 21
-3616.1130322283207
 31
0.0
 11
177.2687232485375
 21
-3616.9327028829521
 31
0.0
  0
SPLINE
  5
11A
100
AcDbEntity
  8
1
  6
CONTINUOUS
 62
           2
100
AcDbSpline
210
0.0
220
0.0
230
1.0
 70
           0
 71
           4
 72
           8
 73
           4
 74
           3
 42
0.00000000001
 43
0.00000000001
 44
0.00000000001
 40
0.0
 40
0.0
 40
0.0
 40
0.0
 40
6.022509570385715
 40
6.022509570385715
 40
6.022509570385715
 40
6.022509570385715
 10
175.4408178395251
 20
-3597.9674702228672
 30
0.0
 10
173.40535132703761
 20
-3598.309105887678
 30
0.0
 10
171.65555715321059
 20
-3599.0400238467769
 30
0.0
 10
169.90313975055739
 20
-3600.1271878655002
 30
0.0
 11
175.4408178395251
 21
-3597.9674702228672
 31
0.0
 11
172.56583537885336
 21
-3598.7677559114663
 31
0.0
 11
169.90313975055739
 21
-3600.1271878655002
 31
0.0
  0
SPLINE
  5
119
100
AcDbEntity
  8
1
  6
CONTINUOUS
 62
           2
100
AcDbSpline
210
0.0
220
0.0
230
1.0
 70
           0
 71
           4
 72
           8
 73
           4
 74
           3
 42
0.00000000001
 43
0.00000000001
 44
0.00000000001
 40
0.0
 40
0.0
 40
0.0
 40
0.0
 40
8.8979972887550058
 40
8.8979972887550058
 40
8.8979972887550058
 40
8.8979972887550058
 10
169.90313975055739
 20
-3600.1271878655002
 30
0.0
 10
167.59203868869849
 20
-3601.7827453608902
 30
0.0
 10
165.30355417880639
 20
-3603.8815792663158
 30
0.0
 10
163.64481793849009
 20
-3606.320946482499
 30
0.0
 11
169.90313975055739
 21
-3600.1271878655002
 31
0.0
 11
166.52934203644526
 21
-3602.9301385287022
 31
0.0
 11
163.64481793849009
 21
-3606.320946482499
 31
0.0
  0
SPLINE
  5
118
100
AcDbEntity
  8
1
  6
CONTINUOUS
 62
           2
100
AcDbSpline
210
0.0
220
0.0
230
1.0
 70
           0
 71
           4
 72
          14
 73
          10
 74
          15
 42
0.00000000001
 43
0.00000000001
 44
0.00000000001
 40
0.0
 40
0.0
 40
0.0
 40
0.0
 40
0.5632162170224853
 40
1.1238012411446867
 40
1.4066705908484247
 40
1.9671686054456641
 40
2.2499910857570367
 40
2.8104039859368513
 40
3.3734218941495153
 40
3.3734218941495153
 40
3.3734218941495153
 40
3.3734218941495153
 10
299.71417679174039
 20
-3601.3499097476051
 30
0.0
 10
299.99447804250701
 20
-3601.3474136795062
 30
0.0
 10
300.271654052244
 20
-3601.2907740330202
 30
0.0
 10
300.78923379712847
 20
-3601.0754445716002
 30
0.0
 10
301.02475988470241
 20
-3600.9187840115542
 30
0.0
 10
301.42334906234311
 20
-3600.5247222247299
 30
0.0
 10
301.58265586643768
 20
-3600.291034618001
 30
0.0
 10
301.80375151675759
 20
-3599.7760789576791
 30
0.0
 10
301.86345676780161
 20
-3599.4996638224052
 30
0.0
 10
301.87074055424358
 20
-3599.2195303438339
 30
0.0
 11
299.71417679174039
 21
-3601.3499097476051
 31
0.0
 11
300.05054075226894
 21
-3601.3263615486039
 31
0.0
 11
300.30654351476755
 21
-3601.261658952325
 31
0.0
 11
300.57693717190534
 21
-3601.1599952758406
 31
0.0
 11
300.81683223238474
 21
-3601.0483917400456
 31
0.0
 11
300.90683812047183
 21
-3600.9947750921224
 31
0.0
 11
300.99584789592365
 21
-3600.9271523744487
 31
0.0
 11
301.22153510484316
 21
-3600.7191895288156
 31
0.0
 11
301.43205633663172
 21
-3600.4958943470183
 31
0.0
 11
301.50067518663337
 21
-3600.4076780460073
 31
0.0
 11
301.55530139171435
 21
-3600.3183020013134
 31
0.0
 11
301.66957627361961
 21
-3600.0797596139064
 31
0.0
 11
301.77424631799369
 21
-3599.8106200300249
 31
0.0
 11
301.84199524199278
 21
-3599.5554646796368
 31
0.0
 11
301.87074055424358
 21
-3599.2195303438339
 31
0.0
  0
SPLINE
  5
117
100
AcDbEntity
  8
1
  6
CONTINUOUS
 62
           2
100
AcDbSpline
210
0.0
220
0.0
230
1.0
 70
           0
 71
           4
 72
           8
 73
           4
 74
           3
 42
0.00000000001
 43
0.00000000001
 44
0.00000000001
 40
0.0
 40
0.0
 40
0.0
 40
0.0
 40
2.7990127023072229
 40
2.7990127023072229
 40
2.7990127023072229
 40
2.7990127023072229
 10
277.50724806050818
 20
-3597.923973399118
 30
0.0
 10
276.57503871943362
 20
-3597.9098691908312
 30
0.0
 10
275.6433799162445
 20
-3597.9809476265091
 30
0.0
 10
274.72438562018039
 20
-3598.1380766028192
 30
0.0
 11
277.50724806050818
 21
-3597.923973399118
 31
0.0
 11
276.11086119846533
 21
-3597.9668125567446
 31
0.0
 11
274.72438562018039
 21
-3598.1380766028192
 31
0.0
  0
SPLINE
  5
116
100
AcDbEntity
  8
1
  6
CONTINUOUS
 62
           2
100
AcDbSpline
210
0.0
220
0.0
230
1.0
 70
           0
 71
           4
 72
           8
 73
           4
 74
           3
 42
0.00000000001
 43
0.00000000001
 44
0.00000000001
 40
0.0
 40
0.0
 40
0.0
 40
0.0
 40
2.1183182497839952
 40
2.1183182497839952
 40
2.1183182497839952
 40
2.1183182497839952
 10
274.72438562018039
 20
-3598.1380766028192
 30
0.0
 10
273.95427204056688
 20
-3598.291662711646
 30
0.0
 10
273.48634100139429
 20
-3598.576567037137
 30
0.0
 10
272.81290034714073
 20
-3598.9803159955159
 30
0.0
 11
274.72438562018039
 21
-3598.1380766028192
 31
0.0
 11
273.73239063665056
 21
-3598.4653852305855
 31
0.0
 11
272.81290034714073
 21
-3598.9803159955159
 31
0.0
  0
SPLINE
  5
115
100
AcDbEntity
  8
1
  6
CONTINUOUS
 62
           2
100
AcDbSpline
210
0.0
220
0.0
230
1.0
 70
           0
 71
           4
 72
           8
 73
           4
 74
           3
 42
0.00000000001
 43
0.00000000001
 44
0.00000000001
 40
0.0
 40
0.0
 40
0.0
 40
0.0
 40
3.7038730978239096
 40
3.7038730978239096
 40
3.7038730978239096
 40
3.7038730978239096
 10
273.06464171610543
 20
-3607.1413395326508
 30
0.0
 10
274.12613571248079
 20
-3607.6572653173798
 30
0.0
 10
275.27930101585338
 20
-3608.0711414600842
 30
0.0
 10
276.54085029062708
 20
-3608.378508452221
 30
0.0
 11
273.06464171610543
 21
-3607.1413395326508
 31
0.0
 11
274.72772527396683
 21
-3607.838133539658
 31
0.0
 11
276.54085029062708
 21
-3608.378508452221
 31
0.0
  0
SPLINE
  5
114
100
AcDbEntity
  8
1
  6
CONTINUOUS
 62
           2
100
AcDbSpline
210
0.0
220
0.0
230
1.0
 70
           0
 71
           4
 72
           8
 73
           4
 74
           3
 42
0.00000000001
 43
0.00000000001
 44
0.00000000001
 40
0.0
 40
0.0
 40
0.0
 40
0.0
 40
2.7256527472468877
 40
2.7256527472468877
 40
2.7256527472468877
 40
2.7256527472468877
 10
279.17106702366578
 20
-3609.072401494092
 30
0.0
 10
278.30391001648343
 20
-3608.7746612710221
 30
0.0
 10
277.45453347293602
 20
-3608.5426430869702
 30
0.0
 10
276.54085029062708
 20
-3608.378508452221
 30
0.0
 11
279.17106702366578
 21
-3609.072401494092
 31
0.0
 11
277.87340597281889
 21
-3608.6753528775362
 31
0.0
 11
276.54085029062708
 21
-3608.378508452221
 31
0.0
  0
SPLINE
  5
113
100
AcDbEntity
  8
1
  6
CONTINUOUS
 62
           2
100
AcDbSpline
210
0.0
220
0.0
230
1.0
 70
           0
 71
           4
 72
          10
 73
           6
 74
           7
 42
0.00000000001
 43
0.00000000001
 44
0.00000000001
 40
0.0
 40
0.0
 40
0.0
 40
0.0
 40
0.4834825887001654
 40
1.0080289480167002
 40
1.4915890187626253
 40
1.4915890187626253
 40
1.4915890187626253
 40
1.4915890187626253
 10
280.40281719488547
 20
-3609.8715156076669
 30
0.0
 10
280.24740352292088
 20
-3609.687110823043
 30
0.0
 10
280.06724185914447
 20
-3609.5250564445068
 30
0.0
 10
279.61764750374658
 20
-3609.2548457884131
 30
0.0
 10
279.40013078159478
 20
-3609.1479851131612
 30
0.0
 10
279.17106702366578
 20
-3609.072401494092
 30
0.0
 11
280.40281719488547
 21
-3609.8715156076669
 31
0.0
 11
280.20926674332793
 21
-3609.6609913006891
 31
0.0
 11
280.04612932300245
 21
-3609.5269290870265
 31
0.0
 11
279.84119230964598
 21
-3609.3918264066288
 31
0.0
 11
279.62867100164084
 21
-3609.2679333581741
 31
0.0
 11
279.43919156592221
 21
-3609.1727524549042
 31
0.0
 11
279.17106702366578
 21
-3609.072401494092
 31
0.0
  0
SPLINE
  5
112
100
AcDbEntity
  8
1
  6
CONTINUOUS
 62
           2
100
AcDbSpline
210
0.0
220
0.0
230
1.0
 70
           0
 71
           4
 72
           8
 73
           4
 74
           3
 42
0.00000000001
 43
0.00000000001
 44
0.00000000001
 40
0.0
 40
0.0
 40
0.0
 40
0.0
 40
1.8119715906329077
 40
1.8119715906329077
 40
1.8119715906329077
 40
1.8119715906329077
 10
278.39659439031971
 20
-3612.5395904407542
 30
0.0
 10
279.0087325001976
 20
-3612.5107281180121
 30
0.0
 10
279.56368818904411
 20
-3612.3396970887611
 30
0.0
 10
280.11501666492558
 20
-3612.0595085004329
 30
0.0
 11
278.39659439031971
 21
-3612.5395904407542
 31
0.0
 11
279.27860914037132
 21
-3612.3937968201881
 31
0.0
 11
280.11501666492558
 21
-3612.0595085004329
 31
0.0
  0
SPLINE
  5
111
100
AcDbEntity
  8
1
  6
CONTINUOUS
 62
           2
100
AcDbSpline
210
0.0
220
0.0
230
1.0
 70
           0
 71
           4
 72
           8
 73
           4
 74
           3
 42
0.00000000001
 43
0.00000000001
 44
0.00000000001
 40
0.0
 40
0.0
 40
0.0
 40
0.0
 40
2.5856929942935603
 40
2.5856929942935603
 40
2.5856929942935603
 40
2.5856929942935603
 10
278.93270917439651
 20
-3616.0955851644362
 30
0.0
 10
279.79234319236332
 20
-3616.0419676723159
 30
0.0
 10
280.6452355697561
 20
-3615.9095701948709
 30
0.0
 10
281.48064591682362
 20
-3615.7000600005008
 30
0.0
 11
278.93270917439651
 21
-3616.0955851644362
 31
0.0
 11
280.21576142219732
 21
-3615.9562823458123
 31
0.0
 11
281.48064591682362
 21
-3615.7000600005008
 31
0.0
  0
SPLINE
  5
110
100
AcDbEntity
  8
1
  6
CONTINUOUS
 62
           2
100
AcDbSpline
210
0.0
220
0.0
230
1.0
 70
           0
 71
           4
 72
           8
 73
           4
 74
           3
 42
0.00000000001
 43
0.00000000001
 44
0.00000000001
 40
0.0
 40
0.0
 40
0.0
 40
0.0
 40
2.9757340753821624
 40
2.9757340753821624
 40
2.9757340753821624
 40
2.9757340753821624
 10
281.48064591682362
 20
-3615.7000600005008
 30
0.0
 10
282.44165627248969
 20
-3615.4688039075631
 30
0.0
 10
283.34399066712581
 20
-3615.0401210959349
 30
0.0
 10
284.13021711004438
 20
-3614.4412964695171
 30
0.0
 11
281.48064591682362
 21
-3615.7000600005008
 31
0.0
 11
282.87097548071432
 21
-3615.2085164350642
 31
0.0
 11
284.13021711004438
 21
-3614.4412964695171
 31
0.0
  0
SPLINE
  5
10F
100
AcDbEntity
  8
1
  6
CONTINUOUS
 62
           2
100
AcDbSpline
210
0.0
220
0.0
230
1.0
 70
           0
 71
           4
 72
          10
 73
           6
 74
           7
 42
0.00000000001
 43
0.00000000001
 44
0.00000000001
 40
0.0
 40
0.0
 40
0.0
 40
0.0
 40
0.8328171048319804
 40
1.6637195186947447
 40
2.4964048018453524
 40
2.4964048018453524
 40
2.4964048018453524
 40
2.4964048018453524
 10
284.13021711004438
 20
-3614.4412964695171
 30
0.0
 10
284.45171255818451
 20
-3614.1780850558089
 30
0.0
 10
284.73662109041351
 20
-3613.8731565793819
 30
0.0
 10
285.21816840853683
 20
-3613.1960221748718
 30
0.0
 10
285.41265358252377
 20
-3612.8268445778822
 30
0.0
 10
285.55569786070032
 20
-3612.4368370469292
 30
0.0
 11
284.13021711004438
 21
-3614.4412964695171
 31
0.0
 11
284.50179012690296
 21
-3614.111002849711
 31
0.0
 11
284.74597392741634
 21
-3613.8361350981859
 31
0.0
 11
284.97458840187261
 21
-3613.5325676235411
 31
0.0
 11
285.18628850695899
 21
-3613.2169768948361
 31
0.0
 11
285.36573343209591
 21
-3612.8961551595967
 31
0.0
 11
285.55569786070032
 21
-3612.4368370469292
 31
0.0
  0
SPLINE
  5
10E
100
AcDbEntity
  8
1
  6
CONTINUOUS
 62
           2
100
AcDbSpline
210
0.0
220
0.0
230
1.0
 70
           0
 71
           4
 72
          10
 73
           6
 74
           7
 42
0.00000000001
 43
0.00000000001
 44
0.00000000001
 40
0.0
 40
0.0
 40
0.0
 40
0.0
 40
0.9131661506342221
 40
1.8248159682882126
 40
2.7379709908423497
 40
2.7379709908423497
 40
2.7379709908423497
 40
2.7379709908423497
 10
285.55569786070032
 20
-3612.4368370469292
 30
0.0
 10
285.68602146785071
 20
-3612.0000248491378
 30
0.0
 10
285.76573820745642
 20
-3611.5496989454691
 30
0.0
 10
285.8208255319314
 20
-3610.6397150023631
 30
0.0
 10
285.79601401263011
 20
-3610.1830651299192
 30
0.0
 10
285.71933478839071
 20
-3609.7337292427842
 30
0.0
 11
285.55569786070032
 21
-3612.4368370469292
 31
0.0
 11
285.69331715545235
 21
-3611.9088943363859
 31
0.0
 11
285.75503610532735
 21
-3611.510218703098
 31
0.0
 11
285.79002088348619
 21
-3611.0945077705674
 31
0.0
 11
285.80543907271573
 21
-3610.6776127134326
 31
0.0
 11
285.7922632393512
 21
-3610.2744090689202
 31
0.0
 11
285.71933478839071
 21
-3609.7337292427842
 31
0.0
  0
SPLINE
  5
10D
100
AcDbEntity
  8
1
  6
CONTINUOUS
 62
           2
100
AcDbSpline
210
0.0
220
0.0
230
1.0
 70
           0
 71
           4
 72
          10
 73
           6
 74
           7
 42
0.00000000001
 43
0.00000000001
 44
0.00000000001
 40
0.0
 40
0.0
 40
0.0
 40
0.0
 40
1.2475918472475693
 40
2.4893514577423907
 40
3.7372078426732553
 40
3.7372078426732553
 40
3.7372078426732553
 40
3.7372078426732553
 10
285.71933478839071
 20
-3609.7337292427842
 30
0.0
 10
285.63704331172642
 20
-3609.118394665531
 30
0.0
 10
285.43459188358861
 20
-3608.5252122341521
 30
0.0
 10
284.81238385941231
 20
-3607.4505848080612
 30
0.0
 10
284.39868589361669
 20
-3606.9796037899778
 30
0.0
 10
283.90590862441661
 20
-3606.6017260938711
 30
0.0
 11
285.71933478839071
 21
-3609.7337292427842
 31
0.0
 11
285.57725934321081
 21
-3609.005657636952
 31
0.0
 11
285.38086870641825
 21
-3608.4930221342383
 31
0.0
 11
285.11694069978552
 21
-3607.9917382232607
 31
0.0
 11
284.81359753416484
 21
-3607.5132643231982
 31
0.0
 11
284.46671101436101
 21
-3607.0876018436352
 31
0.0
 11
283.90590862441661
 21
-3606.6017260938711
 31
0.0
  0
SPLINE
  5
10C
100
AcDbEntity
  8
1
  6
CONTINUOUS
 62
           2
100
AcDbSpline
210
0.0
220
0.0
230
1.0
 70
           0
 71
           4
 72
           8
 73
           4
 74
           3
 42
0.00000000001
 43
0.00000000001
 44
0.00000000001
 40
0.0
 40
0.0
 40
0.0
 40
0.0
 40
4.0524978957319124
 40
4.0524978957319124
 40
4.0524978957319124
 40
4.0524978957319124
 10
283.90590862441661
 20
-3606.6017260938711
 30
0.0
 10
282.78049934941652
 20
-3605.8627200439751
 30
0.0
 10
281.51935020919922
 20
-3605.3546815554182
 30
0.0
 10
280.19578896560557
 20
-3605.1071498191691
 30
0.0
 11
283.90590862441661
 21
-3606.6017260938711
 31
0.0
 11
282.12515578323371
 21
-3605.670135088903
 31
0.0
 11
280.19578896560557
 21
-3605.1071498191691
 31
0.0
  0
SPLINE
  5
10B
100
AcDbEntity
  8
1
  6
CONTINUOUS
 62
           2
100
AcDbSpline
210
0.0
220
0.0
230
1.0
 70
           0
 71
           4
 72
           8
 73
           4
 74
           3
 42
0.00000000001
 43
0.00000000001
 44
0.00000000001
 40
0.0
 40
0.0
 40
0.0
 40
0.0
 40
3.7690334875617038
 40
3.7690334875617038
 40
3.7690334875617038
 40
3.7690334875617038
 10
276.57519206587278
 20
-3604.0811164669781
 30
0.0
 10
277.7078962916338
 20
-3604.4941797203078
 30
0.0
 10
278.94349331632492
 20
-3604.8367633065641
 30
0.0
 10
280.19578896560557
 20
-3605.1071498191691
 30
0.0
 11
276.57519206587278
 21
-3604.0811164669781
 31
0.0
 11
278.34064373191933
 21
-3604.6476369208453
 31
0.0
 11
280.19578896560557
 21
-3605.1071498191691
 31
0.0
  0
SPLINE
  5
10A
100
AcDbEntity
  8
1
  6
CONTINUOUS
 62
           2
100
AcDbSpline
210
0.0
220
0.0
230
1.0
 70
           0
 71
           4
 72
          10
 73
           6
 74
           7
 42
0.00000000001
 43
0.00000000001
 44
0.00000000001
 40
0.0
 40
0.0
 40
0.0
 40
0.0
 40
0.3887959396372267
 40
0.7759369964786351
 40
1.1648219686284005
 40
1.1648219686284005
 40
1.1648219686284005
 40
1.1648219686284005
 10
275.73983734577871
 20
-3603.318652747037
 30
0.0
 10
275.8249831770737
 20
-3603.4924572065252
 30
0.0
 10
275.94210098880188
 20
-3603.6486885362392
 30
0.0
 10
276.2280418991599
 20
-3603.9096789454038
 30
0.0
 10
276.39431126541768
 20
-3604.0121071248932
 30
0.0
 10
276.57519206587278
 20
-3604.0811164669781
 30
0.0
 11
275.73983734577871
 21
-3603.318652747037
 31
0.0
 11
275.85331959437883
 21
-3603.5202112105894
 31
0.0
 11
275.96076895398096
 21
-3603.6534468994437
 31
0.0
 11
276.08658945032818
 21
-3603.7774994715801
 31
0.0
 11
276.22158355195722
 21
-3603.8915062742349
 31
0.0
 11
276.36408483633136
 21
-3603.9864097438203
 31
0.0
 11
276.57519206587278
 21
-3604.0811164669781
 31
0.0
  0
SPLINE
  5
109
100
AcDbEntity
  8
1
  6
CONTINUOUS
 62
           2
100
AcDbSpline
210
0.0
220
0.0
230
1.0
 70
           0
 71
           4
 72
          14
 73
          10
 74
          15
 42
0.00000000001
 43
0.00000000001
 44
0.00000000001
 40
0.0
 40
0.0
 40
0.0
 40
0.0
 40
0.3009257082383422
 40
0.6004213227693285
 40
0.7515506109429947
 40
1.0510085152950779
 40
1.2021263400532609
 40
1.5015798712038473
 40
1.8024475597803886
 40
1.8024475597803886
 40
1.8024475597803886
 40
1.8024475597803886
 10
276.15017563878479
 20
-3601.7532345843688
 30
0.0
 10
276.02186463375961
 20
-3601.8304882299722
 30
0.0
 10
275.90973713346511
 20
-3601.9318523147099
 30
0.0
 10
275.7302406558307
 20
-3602.171599343138
 30
0.0
 10
275.66456948630719
 20
-3602.307714585625
 30
0.0
 10
275.5886387845087
 20
-3602.597386063343
 30
0.0
 10
275.5790974598591
 20
-3602.7482023757352
 30
0.0
 10
275.6179173006671
 20
-3603.0451290287629
 30
0.0
 10
275.665911279927
 20
-3603.1884308218519
 30
0.0
 10
275.73983734577871
 20
-3603.318652747037
 30
0.0
 11
276.15017563878479
 21
-3601.7532345843688
 31
0.0
 11
276.00179823230314
 21
-3601.8554145691096
 31
0.0
 11
275.90161426830252
 21
-3601.9547443155261
 31
0.0
 11
275.80489206823245
 21
-3602.0750009689195
 31
0.0
 11
275.72491872634112
 21
-3602.1915518630522
 31
0.0
 11
275.69811706336509
 21
-3602.2406895491317
 31
0.0
 11
275.67559725895774
 21
-3602.2960022142556
 31
0.0
 11
275.62846506558975
 21
-3602.4530408396654
 31
0.0
 11
275.59250279310663
 21
-3602.6130060000919
 31
0.0
 11
275.58499486857784
 21
-3602.6722480931594
 31
0.0
 11
275.58424758931062
 21
-3602.7282107898504
 31
0.0
 11
275.59676910647278
 21
-3602.8689861919174
 31
0.0
 11
275.62206951357621
 21
-3603.0212028264505
 31
0.0
 11
275.66065174790162
 21
-3603.156872682227
 31
0.0
 11
275.73983734577871
 21
-3603.318652747037
 31
0.0
  0
SPLINE
  5
108
100
AcDbEntity
  8
1
  6
CONTINUOUS
 62
           2
100
AcDbSpline
210
0.0
220
0.0
230
1.0
 70
           0
 71
           4
 72
          10
 73
           6
 74
           7
 42
0.00000000001
 43
0.00000000001
 44
0.00000000001
 40
0.0
 40
0.0
 40
0.0
 40
0.0
 40
0.4187099905451783
 40
0.9154975832501204
 40
1.4132817138797549
 40
1.4132817138797549
 40
1.4132817138797549
 40
1.4132817138797549
 10
277.49592736080751
 20
-3601.3872879382488
 30
0.0
 10
277.24752988914219
 20
-3601.3858570443599
 30
0.0
 10
277.07998169365788
 20
-3601.4163947665511
 30
0.0
 10
276.59879150326429
 20
-3601.5399014988961
 30
0.0
 10
276.3671506517353
 20
-3601.6323568770472
 30
0.0
 10
276.15017563878479
 20
-3601.7532345843688
 30
0.0
 11
277.49592736080751
 21
-3601.3872879382488
 31
0.0
 11
277.22691684965525
 21
-3601.3960585041514
 31
0.0
 11
277.06411654027522
 21
-3601.4241378294964
 31
0.0
 11
276.85087865220527
 21
-3601.4766865399874
 31
0.0
 11
276.62582426291488
 21
-3601.5411965686503
 31
0.0
 11
276.41583915469874
 21
-3601.6187187988548
 31
0.0
 11
276.15017563878479
 21
-3601.7532345843688
 31
0.0
  0
SPLINE
  5
107
100
AcDbEntity
  8
1
  6
CONTINUOUS
 62
           2
100
AcDbSpline
210
0.0
220
0.0
230
1.0
 70
           0
 71
           4
 72
          12
 73
           8
 74
          11
 42
0.00000000001
 43
0.00000000001
 44
0.00000000001
 40
0.0
 40
0.0
 40
0.0
 40
0.0
 40
0.7496810114747955
 40
1.495563921103805
 40
1.8724310789282854
 40
2.6184301901277229
 40
3.268567180610368
 40
3.268567180610368
 40
3.268567180610368
 40
3.268567180610368
 10
226.62705547695381
 20
-3599.6062010113742
 30
0.0
 10
226.48486556582691
 20
-3599.2614962459002
 30
0.0
 10
226.27338547005041
 20
-3598.9496383918531
 30
0.0
 10
225.738048843483
 20
-3598.4302579810442
 30
0.0
 10
225.41988810518239
 20
-3598.2282614482751
 30
0.0
 10
224.72200422654711
 20
-3597.9646845793141
 30
0.0
 10
224.34970632401209
 20
-3597.9059086078469
 30
0.0
 10
224.07711767803031
 20
-3597.9245902030798
 30
0.0
 11
226.62705547695381
 21
-3599.6062010113742
 31
0.0
 11
226.42959620513909
 21
-3599.203646585222
 31
0.0
 11
226.21854651829076
 21
-3598.9229689572812
 31
0.0
 11
225.95286682074325
 21
-3598.645525917872
 31
0.0
 11
225.68985267499968
 21
-3598.4117858593877
 31
0.0
 11
225.57727552053277
 21
-3598.3313014867877
 31
0.0
 11
225.4544812921593
 21
-3598.2630300656288
 31
0.0
 11
225.11721568561259
 21
-3598.1195815594715
 31
0.0
 11
224.73487640207856
 21
-3597.9929104281255
 31
0.0
 11
224.42879181882881
 21
-3597.9293828353093
 31
0.0
 11
224.07711767803031
 21
-3597.9245902030798
 31
0.0
  0
SPLINE
  5
106
100
AcDbEntity
  8
1
  6
CONTINUOUS
 62
           2
100
AcDbSpline
210
0.0
220
0.0
230
1.0
 70
           0
 71
           4
 72
          14
 73
          10
 74
          15
 42
0.00000000001
 43
0.00000000001
 44
0.00000000001
 40
0.0
 40
0.0
 40
0.0
 40
0.0
 40
0.0506058224967669
 40
0.1010403469755778
 40
0.126435465676906
 40
0.1768772718835359
 40
0.2022757705363203
 40
0.2527229772850395
 40
0.3033474325331909
 40
0.3033474325331909
 40
0.3033474325331909
 40
0.3033474325331909
 10
221.85667384698979
 20
-3612.3675853495861
 30
0.0
 10
221.8641028832987
 20
-3612.3916803247148
 30
0.0
 10
221.87551990733729
 20
-3612.4143603492312
 30
0.0
 10
221.9053806982071
 20
-3612.4550048375172
 30
0.0
 10
221.92361337726129
 20
-3612.4726819828852
 30
0.0
 10
221.96516740367349
 20
-3612.5012763652412
 30
0.0
 10
221.98819500304941
 20
-3612.5119914667712
 30
0.0
 10
222.03683681659049
 20
-3612.5253666170202
 30
0.0
 10
222.06210717876769
 20
-3612.5279321159742
 30
0.0
 10
222.08727648383621
 20
-3612.5262688885732
 30
0.0
 11
221.85667384698979
 21
-3612.3675853495861
 31
0.0
 11
221.86713838283671
 21
-3612.3960752918488
 31
0.0
 11
221.87866134620043
 21
-3612.4168573245165
 31
0.0
 11
221.89343014275417
 21
-3612.4382790908339
 31
0.0
 11
221.90821562824399
 21
-3612.4569668182744
 31
0.0
 11
221.91468177682191
 21
-3612.4638014147013
 31
0.0
 11
221.92225951421182
 21
-3612.4703870963085
 31
0.0
 11
221.94454889484123
 21
-3612.4867474594757
 31
0.0
 11
221.96779346381197
 21
-3612.5017203991638
 31
0.0
 11
221.97665320249075
 21
-3612.506445816322
 31
0.0
 11
221.98534789019257
 21
-3612.5100440100332
 31
0.0
 11
222.00808958042833
 21
-3612.517179858125
 31
0.0
 11
222.03337983464291
 21
-3612.5233240952757
 31
0.0
 11
222.05691592164951
 21
-3612.5266663353277
 31
0.0
 11
222.08727648383621
 21
-3612.5262688885732
 31
0.0
  0
SPLINE
  5
105
100
AcDbEntity
  8
1
  6
CONTINUOUS
 62
           2
100
AcDbSpline
210
0.0
220
0.0
230
1.0
 70
           0
 71
           4
 72
          14
 73
          10
 74
          15
 42
0.00000000001
 43
0.00000000001
 44
0.00000000001
 40
0.0
 40
0.0
 40
0.0
 40
0.0
 40
0.4131983356110133
 40
0.8243152235560349
 40
1.031890191196589
 40
1.4429661892950716
 40
1.6505333045920747
 40
2.0616215224062597
 40
2.4747809664109961
 40
2.4747809664109961
 40
2.4747809664109961
 40
2.4747809664109961
 10
280.11501666492558
 20
-3612.0595085004329
 30
0.0
 10
280.2794436292653
 20
-3611.936089219193
 30
0.0
 10
280.41756774964682
 20
-3611.781100064145
 30
0.0
 10
280.62501216726849
 20
-3611.4261579432982
 30
0.0
 10
280.6922468742244
 20
-3611.2297734699519
 30
0.0
 10
280.74585651475883
 20
-3610.8222081590452
 30
0.0
 10
280.73169247145398
 20
-3610.6151248733122
 30
0.0
 10
280.62308770783648
 20
-3610.2186421774159
 30
0.0
 10
280.52973887055629
 20
-3610.0332288974482
 30
0.0
 10
280.40281719488547
 20
-3609.8715156076669
 30
0.0
 11
280.11501666492558
 21
-3612.0595085004329
 31
0.0
 11
280.30302960960734
 21
-3611.8989226299109
 31
0.0
 11
280.42484909766188
 21
-3611.7484079922806
 31
0.0
 11
280.53818106843937
 21
-3611.5695012841302
 31
0.0
 11
280.62884819037652
 21
-3611.3980147728835
 31
0.0
 11
280.65744564258409
 21
-3611.3266617746699
 31
0.0
 11
280.67893181658457
 21
-3611.2475085787282
 31
0.0
 11
280.71635299744202
 21
-3611.0256340252354
 31
0.0
 11
280.73758046749032
 21
-3610.8016303566123
 31
0.0
 11
280.73729344793412
 21
-3610.7196169449289
 31
0.0
 11
280.72811965309438
 21
-3610.6432987334397
 31
0.0
 11
280.68488071944091
 21
-3610.4542127468026
 31
0.0
 11
280.62166604579897
 21
-3610.2521008288368
 31
0.0
 11
280.54291144750084
 21
-3610.0752260775007
 31
0.0
 11
280.40281719488547
 21
-3609.8715156076669
 31
0.0
  0
SPLINE
  5
104
100
AcDbEntity
  8
1
  6
CONTINUOUS
 62
           2
100
AcDbSpline
210
0.0
220
0.0
230
1.0
 70
           0
 71
           4
 72
          12
 73
           8
 74
          11
 42
0.00000000001
 43
0.00000000001
 44
0.00000000001
 40
0.0
 40
0.0
 40
0.0
 40
0.0
 40
0.6861307487532058
 40
1.3688542503889525
 40
1.7137373360317247
 40
2.3965704666819203
 40
3.0843933964728389
 40
3.0843933964728389
 40
3.0843933964728389
 40
3.0843933964728389
 10
291.16954050805072
 20
-3621.3054250268192
 30
0.0
 10
291.05106359186021
 20
-3620.9853405447789
 30
0.0
 10
290.8687510528556
 20
-3620.6926544248922
 30
0.0
 10
290.39859158314079
 20
-3620.197617605329
 30
0.0
 10
290.11564371692242
 20
-3620.0004251922778
 30
0.0
 10
289.4883679740343
 20
-3619.7306359658478
 30
0.0
 10
289.15057631436378
 20
-3619.6547767418679
 30
0.0
 10
288.8091386293105
 20
-3619.6436775973971
 30
0.0
 11
291.16954050805072
 21
-3621.3054250268192
 31
0.0
 11
291.00269021735636
 21
-3620.9304328242761
 31
0.0
 11
290.81974918575094
 21
-3620.6661162763462
 31
0.0
 11
290.58702852902957
 21
-3620.4024962591843
 31
0.0
 11
290.35531241803369
 21
-3620.1787600805023
 31
0.0
 11
290.25580609937043
 21
-3620.1009318789006
 31
0.0
 11
290.14837607091306
 21
-3620.0345286413035
 31
0.0
 11
289.85841661159611
 21
-3619.8944495631381
 31
0.0
 11
289.53074057119966
 21
-3619.766090106602
 31
0.0
 11
289.21898364306963
 21
-3619.6815789041589
 31
0.0
 11
288.8091386293105
 21
-3619.6436775973971
 31
0.0
  0
SPLINE
  5
103
100
AcDbEntity
  8
1
  6
CONTINUOUS
 62
           2
100
AcDbSpline
210
0.0
220
0.0
230
1.0
 70
           0
 71
           4
 72
           8
 73
           4
 74
           3
 42
0.00000000001
 43
0.00000000001
 44
0.00000000001
 40
0.0
 40
0.0
 40
0.0
 40
0.0
 40
0.6131278206647756
 40
0.6131278206647756
 40
0.6131278206647756
 40
0.6131278206647756
 10
176.05111654906349
 20
-3597.9216740443112
 30
0.0
 10
175.8466774336851
 20
-3597.9213157817398
 30
0.0
 10
175.6425751542024
 20
-3597.9378891778711
 30
0.0
 10
175.4408178395251
 20
-3597.9674702228672
 30
0.0
 11
176.05111654906349
 21
-3597.9216740443112
 31
0.0
 11
175.74496151903139
 21
-3597.9333448932512
 31
0.0
 11
175.4408178395251
 21
-3597.9674702228672
 31
0.0
  0
SPLINE
  5
102
100
AcDbEntity
  8
1
  6
CONTINUOUS
 62
           2
100
AcDbSpline
210
0.0
220
0.0
230
1.0
 70
           0
 71
           4
 72
          10
 73
           6
 74
           7
 42
0.00000000001
 43
0.00000000001
 44
0.00000000001
 40
0.0
 40
0.0
 40
0.0
 40
0.0
 40
0.7943770196447624
 40
1.5869579788488828
 40
2.3812614857889178
 40
2.3812614857889178
 40
2.3812614857889178
 40
2.3812614857889178
 10
181.05781638238651
 20
-3614.8182026568152
 30
0.0
 10
180.66151199347831
 20
-3614.8181959705371
 30
0.0
 10
180.2669944412273
 20
-3614.8712781734162
 30
0.0
 10
179.5026048770757
 20
-3615.0807851449208
 30
0.0
 10
179.13617930516361
 20
-3615.2362652993852
 30
0.0
 10
178.7953086562257
 20
-3615.4383198901478
 30
0.0
 11
181.05781638238651
 21
-3614.8182026568152
 31
0.0
 11
180.58402504854971
 21
-3614.8375142919958
 31
0.0
 11
180.23775812411441
 21
-3614.8930224368996
 31
0.0
 11
179.88566342595897
 21
-3614.979227837483
 31
0.0
 11
179.53882212181139
 21
-3615.0845909046739
 31
0.0
 11
179.21268019925085
 21
-3615.2133786501413
 31
0.0
 11
178.7953086562257
 21
-3615.4383198901478
 31
0.0
  0
SPLINE
  5
101
100
AcDbEntity
  8
1
  6
CONTINUOUS
 62
           2
100
AcDbSpline
210
0.0
220
0.0
230
1.0
 70
           0
 71
           4
 72
          14
 73
          10
 74
          15
 42
0.00000000001
 43
0.00000000001
 44
0.00000000001
 40
0.0
 40
0.0
 40
0.0
 40
0.0
 40
0.6113103278214705
 40
1.1786263487115587
 40
1.4659436635757355
 40
2.0350576564397316
 40
2.3223265337679093
 40
2.8772234771910545
 40
3.4489558708621728
 40
3.4489558708621728
 40
3.4489558708621728
 40
3.4489558708621728
 10
278.59493342298822
 20
-3623.158796081816
 30
0.0
 10
278.87955510096492
 20
-3623.1577696354739
 30
0.0
 10
279.20146312288171
 20
-3623.1020965714501
 30
0.0
 10
279.72765246995198
 20
-3622.8900299814641
 30
0.0
 10
279.96678515378039
 20
-3622.7307604019902
 30
0.0
 10
280.36981293379472
 20
-3622.3289403609142
 30
0.0
 10
280.5297644961654
 20
-3622.0903216156812
 30
0.0
 10
280.7082733830722
 20
-3621.5649215822632
 30
0.0
 10
280.76469264857838
 20
-3621.2832812121492
 30
0.0
 10
280.7650546468567
 20
-3620.9987848954302
 30
0.0
 11
278.59493342298822
 21
-3623.158796081816
 31
0.0
 11
278.95172992964535
 21
-3623.1359893913636
 31
0.0
 11
279.24068969862242
 21
-3623.0691279752223
 31
0.0
 11
279.51664432046783
 21
-3622.9708467970031
 31
0.0
 11
279.75623359089224
 21
-3622.8618753380247
 31
0.0
 11
279.84698402128379
 21
-3622.8080064650339
 31
0.0
 11
279.93723167061222
 21
-3622.739201833585
 31
0.0
 11
280.16572477128966
 21
-3622.5271377016525
 31
0.0
 11
280.37872103036239
 21
-3622.2988485440901
 31
0.0
 11
280.44787311655233
 21
-3622.2081438207624
 31
0.0
 11
280.50069761841689
 21
-3622.115727534911
 31
0.0
 11
280.59904964530551
 21
-3621.8753735897026
 31
0.0
 11
280.68532902067022
 21
-3621.6044144029261
 31
0.0
 11
280.74408075424748
 21
-3621.3414575050015
 31
0.0
 11
280.7650546468567
 21
-3620.9987848954302
 31
0.0
  0
SPLINE
  5
100
100
AcDbEntity
  8
1
  6
CONTINUOUS
 62
           2
100
AcDbSpline
210
0.0
220
0.0
230
1.0
 70
           0
 71
           4
 72
          12
 73
           8
 74
          11
 42
0.00000000001
 43
0.00000000001
 44
0.00000000001
 40
0.0
 40
0.0
 40
0.0
 40
0.0
 40
0.6871153916671349
 40
1.3708088725078018
 40
1.7161918563264282
 40
2.4504322846357742
 40
3.1377805593054555
 40
3.1377805593054555
 40
3.1377805593054555
 40
3.1377805593054555
 10
260.77212053819142
 20
-3621.402785785152
 30
0.0
 10
260.65402545900088
 20
-3621.0820434441189
 30
0.0
 10
260.47186793416608
 20
-3620.7886724301852
 30
0.0
 10
260.0016076804315
 20
-3620.2923942123462
 30
0.0
 10
259.71841912876238
 20
-3620.0946730710511
 30
0.0
 10
259.09040650458849
 20
-3619.7142665116412
 30
0.0
 10
258.75214510735572
 20
-3619.6442830657388
 30
0.0
 10
258.41022215246659
 20
-3619.643842611144
 30
0.0
 11
260.77212053819142
 21
-3621.402785785152
 31
0.0
 11
260.60564507836915
 21
-3621.0269931148632
 31
0.0
 11
260.42280569390687
 21
-3620.7620534903972
 31
0.0
 11
260.19034202538967
 21
-3620.4979718809686
 31
0.0
 11
259.96042185337882
 21
-3620.2749821036664
 31
0.0
 11
259.86302495894853
 21
-3620.1975081536207
 31
0.0
 11
259.75934388349225
 21
-3620.1268777514915
 31
0.0
 11
259.45859137650206
 21
-3619.9427130425674
 31
0.0
 11
259.11828890269419
 21
-3619.7671454909396
 31
0.0
 11
258.81650463650004
 21
-3619.6722748727334
 31
0.0
 11
258.41022215246659
 21
-3619.643842611144
 31
0.0
  0
SPLINE
  5
FF
100
AcDbEntity
  8
1
  6
CONTINUOUS
 62
           2
100
AcDbSpline
210
0.0
220
0.0
230
1.0
 70
           0
 71
           4
 72
          14
 73
          10
 74
          15
 42
0.00000000001
 43
0.00000000001
 44
0.00000000001
 40
0.0
 40
0.0
 40
0.0
 40
0.0
 40
0.5812698956492595
 40
1.1604499745922383
 40
1.4278589019694803
 40
2.0071245457321583
 40
2.298915509975707
 40
2.8782534327697524
 40
3.4885291657668418
 40
3.4885291657668418
 40
3.4885291657668418
 40
3.4885291657668418
 10
246.7690753888337
 20
-3621.769939000776
 30
0.0
 10
246.71334488818999
 20
-3621.4857926475311
 30
0.0
 10
246.60902077538989
 20
-3621.2133755092882
 30
0.0
 10
246.31235471154841
 20
-3620.7159432923891
 30
0.0
 10
246.16223231021459
 20
-3620.4946498242098
 30
0.0
 10
245.71511924583029
 20
-3620.1263583720952
 30
0.0
 10
245.46147372330029
 20
-3619.9821158134841
 30
0.0
 10
244.9162984287
 20
-3619.786114979443
 30
0.0
 10
244.62884746379069
 20
-3619.6441562873729
 30
0.0
 10
244.3391656820597
 20
-3619.6437831282442
 30
0.0
 11
246.7690753888337
 21
-3621.769939000776
 31
0.0
 11
246.68336134462231
 21
-3621.4318919186926
 31
0.0
 11
246.5745140190698
 21
-3621.179802051719
 31
0.0
 11
246.42889923465998
 21
-3620.9154507731096
 31
0.0
 11
246.28818595868481
 21
-3620.6838729070078
 31
0.0
 11
246.235345446672
 21
-3620.6055660463039
 31
0.0
 11
246.17078952309282
 21
-3620.528836274495
 31
0.0
 11
245.93971385058728
 21
-3620.3168990012791
 31
0.0
 11
245.68613971692332
 21
-3620.1196685180889
 31
0.0
 11
245.5886050423837
 21
-3620.0565767266671
 31
0.0
 11
245.492883794205
 21
-3620.0075011739364
 31
0.0
 11
245.24264488958471
 21
-3619.9040595541983
 31
0.0
 11
244.96333981800382
 21
-3619.7938691797226
 31
0.0
 11
244.68974752061371
 21
-3619.690133233169
 31
0.0
 11
244.3391656820597
 21
-3619.6437831282442
 31
0.0
  0
SPLINE
  5
FE
100
AcDbEntity
  8
1
  6
CONTINUOUS
 62
           2
100
AcDbSpline
210
0.0
220
0.0
230
1.0
 70
           0
 71
           4
 72
          12
 73
           8
 74
          11
 42
0.00000000001
 43
0.00000000001
 44
0.00000000001
 40
0.0
 40
0.0
 40
0.0
 40
0.0
 40
0.7716667690926897
 40
1.5391455328559756
 40
1.926991948678678
 40
2.6943402072353662
 40
3.4657331559507574
 40
3.4657331559507574
 40
3.4657331559507574
 40
3.4657331559507574
 10
249.81097798771111
 20
-3637.9218059466461
 30
0.0
 10
250.194732464362
 20
-3637.9250651732618
 30
0.0
 10
250.574945991509
 20
-3637.8482349504452
 30
0.0
 10
251.27964582965001
 20
-3637.5442254260029
 30
0.0
 10
251.59638265871911
 20
-3637.3203892730298
 30
0.0
 10
252.1181061617693
 20
-3636.757692253067
 30
0.0
 10
252.31735551804729
 20
-3636.4250192836062
 30
0.0
 10
252.44224628853641
 20
-3636.0623032938402
 30
0.0
 11
249.81097798771111
 21
-3637.9218059466461
 31
0.0
 11
250.27164213280022
 21
-3637.8953675039502
 31
0.0
 11
250.62189215986874
 21
-3637.806301961436
 31
0.0
 11
250.99034704810163
 21
-3637.6634295354047
 31
0.0
 11
251.31602011964353
 21
-3637.5054120361492
 31
0.0
 11
251.43648071545852
 21
-3637.4301135862934
 31
0.0
 11
251.54767564152843
 21
-3637.3416981370437
 31
0.0
 11
251.80531023388971
 21
-3637.0874895032689
 31
0.0
 11
252.06293510641748
 21
-3636.7879068555608
 31
0.0
 11
252.26370685715872
 21
-3636.4875808733614
 31
0.0
 11
252.44224628853641
 21
-3636.0623032938402
 31
0.0
  0
SPLINE
  5
FD
100
AcDbEntity
  8
1
  6
CONTINUOUS
 62
           2
100
AcDbSpline
210
0.0
220
0.0
230
1.0
 70
           0
 71
           4
 72
          12
 73
           8
 74
          11
 42
0.00000000001
 43
0.00000000001
 44
0.00000000001
 40
0.0
 40
0.0
 40
0.0
 40
0.0
 40
0.5747753702794545
 40
1.1464220181618443
 40
1.4354714231371659
 40
2.00721593715169
 40
2.5821952183953281
 40
2.5821952183953281
 40
2.5821952183953281
 40
2.5821952183953281
 10
234.1584177490958
 20
-3621.0672269898082
 30
0.0
 10
234.0744515511681
 20
-3620.7940625087631
 30
0.0
 10
233.933323514536
 20
-3620.5418676129648
 30
0.0
 10
233.55548013515991
 20
-3620.11289876713
 30
0.0
 10
233.3230814396704
 20
-3619.9410255439352
 30
0.0
 10
232.80218363890751
 20
-3619.7053196456932
 30
0.0
 10
232.51963549687531
 20
-3619.6441797774369
 30
0.0
 10
232.2337438722345
 20
-3619.6438115006722
 30
0.0
 11
234.1584177490958
 21
-3621.0672269898082
 31
0.0
 11
234.03567726574832
 21
-3620.746341767142
 31
0.0
 11
233.8925608576929
 21
-3620.5184568433669
 31
0.0
 11
233.7065975258468
 21
-3620.2903691942429
 31
0.0
 11
233.51943392461089
 21
-3620.0963521734129
 31
0.0
 11
233.43808069237801
 21
-3620.0286021542656
 31
0.0
 11
233.34947925661331
 21
-3619.9706568997353
 31
0.0
 11
233.10912750233678
 21
-3619.8484953641396
 31
0.0
 11
232.83653987695291
 21
-3619.7374501011909
 31
0.0
 11
232.57663931174829
 21
-3619.6672885963717
 31
0.0
 11
232.2337438722345
 21
-3619.6438115006722
 31
0.0
  0
SPLINE
  5
FC
100
AcDbEntity
  8
1
  6
CONTINUOUS
 62
           2
100
AcDbSpline
210
0.0
220
0.0
230
1.0
 70
           0
 71
           4
 72
          14
 73
          10
 74
          15
 42
0.00000000001
 43
0.00000000001
 44
0.00000000001
 40
0.0
 40
0.0
 40
0.0
 40
0.0
 40
0.6391395232419073
 40
1.2758911898795777
 40
1.596606117658351
 40
2.2332749363373812
 40
2.5539427450942487
 40
3.19051831665463
 40
3.8294020718120252
 40
3.8294020718120252
 40
3.8294020718120252
 40
3.8294020718120252
 10
238.22371128017431
 20
-3637.9216104512961
 30
0.0
 10
238.54210145141079
 20
-3637.9229893359939
 30
0.0
 10
238.85833874923711
 20
-3637.8693963991268
 30
0.0
 10
239.4586199259742
 20
-3637.6569930238688
 30
0.0
 10
239.7381574425396
 20
-3637.4997771158551
 30
0.0
 10
240.2313750633673
 20
-3637.0971810860892
 30
0.0
 10
240.44135254059239
 20
-3636.8548232873059
 30
0.0
 10
240.7695277749462
 20
-3636.3093606635962
 30
0.0
 10
240.88526189240659
 20
-3636.0103506734322
 30
0.0
 10
240.94753945124481
 20
-3635.6982462381511
 30
0.0
 11
238.22371128017431
 21
-3637.9216104512961
 31
0.0
 11
238.6064391642594
 21
-3637.9023947296482
 31
0.0
 11
238.8999496117857
 21
-3637.8401512256514
 31
0.0
 11
239.21280864136392
 21
-3637.7402196535963
 31
0.0
 11
239.49248611193195
 21
-3637.6295219124268
 31
0.0
 11
239.5985296775562
 21
-3637.5759371194331
 31
0.0
 11
239.70537561989204
 21
-3637.5076891356234
 31
0.0
 11
239.98246633044332
 21
-3637.295644345671
 31
0.0
 11
240.24570295430374
 21
-3637.0666355524691
 31
0.0
 11
240.3339491929087
 21
-3636.975635915237
 31
0.0
 11
240.40767092475343
 21
-3636.8824811845234
 31
0.0
 11
240.57207345848084
 21
-3636.6306897747986
 31
0.0
 11
240.73255826758682
 21
-3636.3442425307862
 31
0.0
 11
240.85221921663668
 21
-3636.0692399333775
 31
0.0
 11
240.94753945124481
 21
-3635.6982462381511
 31
0.0
  0
SPLINE
  5
FB
100
AcDbEntity
  8
1
  6
CONTINUOUS
 62
           2
100
AcDbSpline
210
0.0
220
0.0
230
1.0
 70
           0
 71
           4
 72
          14
 73
          10
 74
          15
 42
0.00000000001
 43
0.00000000001
 44
0.00000000001
 40
0.0
 40
0.0
 40
0.0
 40
0.0
 40
0.5893816878498405
 40
1.1759597295675523
 40
1.4720858443796319
 40
2.0587437110612052
 40
2.3549183599245906
 40
2.9416740500457301
 40
3.5312985178789598
 40
3.5312985178789598
 40
3.5312985178789598
 40
3.5312985178789598
 10
227.17620272322881
 20
-3622.165364726261
 30
0.0
 10
227.21690436092189
 20
-3621.8749212519579
 30
0.0
 10
227.1999748947616
 20
-3621.5793054242072
 30
0.0
 10
227.05278742937381
 20
-3621.0114941447682
 30
0.0
 10
226.92396962552661
 20
-3620.744854595403
 30
0.0
 10
226.5705993767132
 20
-3620.2765631052039
 30
0.0
 10
226.34950457807881
 20
-3620.0794932885242
 30
0.0
 10
225.843748962912
 20
-3619.7820147218731
 30
0.0
 10
225.5640368483534
 20
-3619.6845167310239
 30
0.0
 10
225.27346471145461
 20
-3619.643828117034
 30
0.0
 11
227.17620272322881
 21
-3622.165364726261
 31
0.0
 11
227.20335326822428
 21
-3621.8136662381194
 31
0.0
 11
227.17465199946014
 21
-3621.5389185904
 31
0.0
 11
227.10919027700524
 21
-3621.2438815914306
 31
0.0
 11
227.02854729465082
 21
-3620.9790780535013
 31
0.0
 11
226.98590184846535
 21
-3620.8780391873865
 31
0.0
 11
226.92837533379671
 21
-3620.7761457684792
 31
0.0
 11
226.74423202015663
 21
-3620.5130261585391
 31
0.0
 11
226.54173017928258
 21
-3620.2637525637138
 31
0.0
 11
226.45951654595027
 21
-3620.1804591724026
 31
0.0
 11
226.37404617228211
 21
-3620.1117122803462
 31
0.0
 11
226.14147873760965
 21
-3619.9614426405019
 31
0.0
 11
225.87566309900058
 21
-3619.8174607734113
 31
0.0
 11
225.61924253146353
 21
-3619.7143741134823
 31
0.0
 11
225.27346471145461
 21
-3619.643828117034
 31
0.0
  0
SPLINE
  5
FA
100
AcDbEntity
  8
1
  6
CONTINUOUS
 62
           2
100
AcDbSpline
210
0.0
220
0.0
230
1.0
 70
           0
 71
           4
 72
          14
 73
          10
 74
          15
 42
0.00000000001
 43
0.00000000001
 44
0.00000000001
 40
0.0
 40
0.0
 40
0.0
 40
0.0
 40
0.7248214923548727
 40
1.4462179025693649
 40
1.8104110544029421
 40
2.5319222629189149
 40
2.8961767714719806
 40
3.6177977678144595
 40
4.3429240652730803
 40
4.3429240652730803
 40
4.3429240652730803
 40
4.3429240652730803
 10
253.88938786872291
 20
-3613.3721851360792
 30
0.0
 10
253.88635660923211
 20
-3613.7328464594871
 30
0.0
 10
253.96016663872001
 20
-3614.0894350611652
 30
0.0
 10
254.2414406456906
 20
-3614.7537374875292
 30
0.0
 10
254.44615242192879
 20
-3615.0549512662842
 30
0.0
 10
254.96034344947759
 20
-3615.5610994769918
 30
0.0
 10
255.26479146025099
 20
-3615.7610813655151
 30
0.0
 10
255.9336185855862
 20
-3616.0320188837331
 30
0.0
 10
256.29145338108259
 20
-3616.1003234523382
 30
0.0
 10
256.65227355919438
 20
-3616.0975629746558
 30
0.0
 11
253.88938786872291
 21
-3613.3721851360792
 31
0.0
 11
253.91459317483836
 21
-3613.8049274001937
 31
0.0
 11
253.9982406235923
 21
-3614.1340056412691
 31
0.0
 11
254.13098911109904
 21
-3614.481164389384
 31
0.0
 11
254.2767636482705
 21
-3614.7888107978456
 31
0.0
 11
254.34683282209303
 21
-3614.9040617960104
 31
0.0
 11
254.4351587393183
 21
-3615.0176747137239
 31
0.0
 11
254.70654401095013
 21
-3615.3046568932764
 31
0.0
 11
254.99777100986262
 21
-3615.5714924574286
 31
0.0
 11
255.11278227037619
 21
-3615.6580373468087
 31
0.0
 11
255.22913790409456
 21
-3615.7263002325899
 31
0.0
 11
255.53912052839163
 21
-3615.867284242051
 31
0.0
 11
255.88842048311923
 21
-3615.9946391784497
 31
0.0
 11
256.2189202058965
 21
-3616.0739297216423
 31
0.0
 11
256.65227355919438
 21
-3616.0975629746558
 31
0.0
  0
SPLINE
  5
F9
100
AcDbEntity
  8
1
  6
CONTINUOUS
 62
           2
100
AcDbSpline
210
0.0
220
0.0
230
1.0
 70
           0
 71
           4
 72
          14
 73
          10
 74
          15
 42
0.00000000001
 43
0.00000000001
 44
0.00000000001
 40
0.0
 40
0.0
 40
0.0
 40
0.0
 40
0.0797768547532764
 40
0.1591768068346732
 40
0.199261419633488
 40
0.2786739252647292
 40
0.3187652966913152
 40
0.4015737079684217
 40
0.4813843726458139
 40
0.4813843726458139
 40
0.4813843726458139
 40
0.4813843726458139
 10
258.91579148177328
 20
-3612.2335082592408
 30
0.0
 10
258.91574097038568
 20
-3612.2732054197122
 30
0.0
 10
258.92351339174701
 20
-3612.3125242292558
 30
0.0
 10
258.9538163381248
 20
-3612.3859141729222
 30
0.0
 10
258.97605035580432
 20
-3612.4192672033851
 30
0.0
 10
259.03214392244598
 20
-3612.4754798161339
 30
0.0
 10
259.06545460880409
 20
-3612.4977893709752
 30
0.0
 10
259.13879905867771
 20
-3612.5362318559492
 30
0.0
 10
259.1781151636784
 20
-3612.5441015076822
 30
0.0
 10
259.21782981641923
 20
-3612.544152666871
 30
0.0
 11
258.91579148177328
 21
-3612.2335082592408
 31
0.0
 11
258.91869793354465
 21
-3612.2811657188468
 31
0.0
 11
258.92765992663846
 21
-3612.3174671089068
 31
0.0
 11
258.94192841665529
 21
-3612.355806069445
 31
0.0
 11
258.95766946495132
 21
-3612.3898091090214
 31
0.0
 11
258.96526780442986
 21
-3612.402562581658
 31
0.0
 11
258.97487709865436
 21
-3612.4151537306293
 31
0.0
 11
259.0044447472352
 21
-3612.4469936435403
 31
0.0
 11
259.03610517122229
 21
-3612.4765615010056
 31
0.0
 11
259.04852790564536
 21
-3612.4861703113711
 31
0.0
 11
259.06099988617711
 21
-3612.4941168573282
 31
0.0
 11
259.09568359940693
 21
-3612.5130534243626
 31
0.0
 11
259.13482146714023
 21
-3612.5308442367618
 31
0.0
 11
259.17043190592221
 21
-3612.5410023847244
 31
0.0
 11
259.21782981641923
 21
-3612.544152666871
 31
0.0
  0
SPLINE
  5
F8
100
AcDbEntity
  8
1
  6
CONTINUOUS
 62
           2
100
AcDbSpline
210
0.0
220
0.0
230
1.0
 70
           0
 71
           4
 72
          12
 73
           8
 74
          11
 42
0.00000000001
 43
0.00000000001
 44
0.00000000001
 40
0.0
 40
0.0
 40
0.0
 40
0.0
 40
0.7047264889103448
 40
1.4063549209174568
 40
1.760380350935981
 40
2.4621105834821742
 40
3.1670569075102337
 40
3.1670569075102337
 40
3.1670569075102337
 40
3.1670569075102337
 10
243.5033645519969
 20
-3614.511554809289
 30
0.0
 10
243.6518943580291
 20
-3614.8293136117759
 30
0.0
 10
243.8598644473542
 20
-3615.115742560135
 30
0.0
 10
244.37225677431951
 20
-3615.5950509784502
 30
0.0
 10
244.67195250801211
 20
-3615.7835091231568
 30
0.0
 10
245.3260225965968
 20
-3616.0377091201831
 30
0.0
 10
245.6743635573628
 20
-3616.1011061339368
 30
0.0
 10
246.02522711630331
 20
-3616.0973816551382
 30
0.0
 11
243.5033645519969
 21
-3614.511554809289
 31
0.0
 11
243.70478272094033
 21
-3614.8823285057133
 31
0.0
 11
243.91088872792071
 21
-3615.140601682443
 31
0.0
 11
244.1663389814872
 21
-3615.3965221333183
 31
0.0
 11
244.41722473268339
 21
-3615.6127328629677
 31
0.0
 11
244.52328907365256
 21
-3615.6873763819303
 31
0.0
 11
244.63651209124816
 21
-3615.750630638277
 31
0.0
 11
244.94010343905006
 21
-3615.8830968951279
 31
0.0
 11
245.28147308782798
 21
-3616.0024815963857
 31
0.0
 11
245.60364693583733
 21
-3616.0763983896441
 31
0.0
 11
246.02522711630331
 21
-3616.0973816551382
 31
0.0
  0
SPLINE
  5
F7
100
AcDbEntity
  8
1
  6
CONTINUOUS
 62
           2
100
AcDbSpline
210
0.0
220
0.0
230
1.0
 70
           0
 71
           4
 72
          12
 73
           8
 74
          11
 42
0.00000000001
 43
0.00000000001
 44
0.00000000001
 40
0.0
 40
0.0
 40
0.0
 40
0.0
 40
0.7104711660046309
 40
1.4178152372990462
 40
1.7747282269631499
 40
2.482176274039019
 40
3.192887473217505
 40
3.192887473217505
 40
3.192887473217505
 40
3.192887473217505
 10
241.33656954925399
 20
-3599.55397525648
 30
0.0
 10
241.19084947769349
 20
-3599.2317791201272
 30
0.0
 10
240.984782889531
 20
-3598.9404343881092
 30
0.0
 10
240.47420287255289
 20
-3598.4509002407221
 30
0.0
 10
240.17440424439619
 20
-3598.257231284133
 30
0.0
 10
239.51815490832141
 20
-3597.992997394912
 30
0.0
 10
239.1677641414496
 20
-3597.924872452239
 30
0.0
 10
238.8140207263358
 20
-3597.9215258191812
 30
0.0
 11
241.33656954925399
 21
-3599.55397525648
 31
0.0
 11
241.1381915631809
 21
-3599.1776769648554
 31
0.0
 11
240.93364771456621
 21
-3598.9147467126495
 31
0.0
 11
240.67931759950773
 21
-3598.6535880359829
 31
0.0
 11
240.4290863026898
 21
-3598.4325260349183
 31
0.0
 11
240.32308564718124
 21
-3598.3559713417649
 31
0.0
 11
240.20972474120714
 21
-3598.2908160271754
 31
0.0
 11
239.90530512750891
 21
-3598.1535703725758
 31
0.0
 11
239.5626381588111
 21
-3598.0290637232692
 31
0.0
 11
239.23875490573812
 21
-3597.9502808501006
 31
0.0
 11
238.8140207263358
 21
-3597.9215258191812
 31
0.0
  0
SPLINE
  5
F6
100
AcDbEntity
  8
1
  6
CONTINUOUS
 62
           2
100
AcDbSpline
210
0.0
220
0.0
230
1.0
 70
           0
 71
           4
 72
          12
 73
           8
 74
          11
 42
0.00000000001
 43
0.00000000001
 44
0.00000000001
 40
0.0
 40
0.0
 40
0.0
 40
0.0
 40
0.0393917444507232
 40
0.0785818271272258
 40
0.0983853186411256
 40
0.1375812596149976
 40
0.1769853440367745
 40
0.1769853440367745
 40
0.1769853440367745
 40
0.1769853440367745
 10
227.5878971353917
 20
-3616.0144689279819
 30
0.0
 10
227.59603916550839
 20
-3616.0322886446088
 30
0.0
 10
227.60777381488771
 20
-3616.0482366700471
 30
0.0
 10
227.63695872857039
 20
-3616.0743920403088
 30
0.0
 10
227.65409503982301
 20
-3616.0843180220131
 30
0.0
 10
227.69130925441249
 20
-3616.0966234688281
 30
0.0
 10
227.7109868305007
 20
-3616.0988705596369
 30
0.0
 10
227.7305026855953
 20
-3616.0970713073061
 30
0.0
 11
227.5878971353917
 21
-3616.0144689279819
 31
0.0
 11
227.59906150247468
 21
-3616.0352129795374
 31
0.0
 11
227.61071274596105
 21
-3616.0495196122324
 31
0.0
 11
227.62523407706576
 21
-3616.063535587276
 31
0.0
 11
227.6395303261898
 21
-3616.0752565628018
 31
0.0
 11
227.64559411470213
 21
-3616.0792377353914
 31
0.0
 11
227.65206435346693
 21
-3616.0825169100112
 31
0.0
 11
227.66934644756708
 21
-3616.0890875195137
 31
0.0
 11
227.68873198464672
 21
-3616.0947119880052
 31
0.0
 11
227.70694514072602
 21
-3616.0977033863778
 31
0.0
 11
227.7305026855953
 21
-3616.0970713073061
 31
0.0
  0
ARC
  5
F5
100
AcDbEntity
  8
1
  6
CONTINUOUS
 62
           2
100
AcDbCircle
 10
274.72054131489
 20
-3603.482712774249
 40
4.015912503845
100
AcDbArc
 50
-176.098346382259
 51
-114.351574126796
  0
ARC
  5
F4
100
AcDbEntity
  8
1
  6
CONTINUOUS
 62
           2
100
AcDbCircle
 10
277.205206285143
 20
-3603.114452085115
 40
6.522892913988
100
AcDbArc
 50
164.37393496737
 51
-174.355895421886
  0
ARC
  5
F3
100
AcDbEntity
  8
1
  6
CONTINUOUS
 62
           2
100
AcDbCircle
 10
274.455918472752
 20
-3602.22580787917
 40
3.637681421998
100
AcDbArc
 50
116.850642689893
 51
166.1896170636
  0
LINE
  5
F2
100
AcDbEntity
  8
1
  6
CONTINUOUS
 62
           2
100
AcDbLine
 10
225.133505695379
 20
-3609.039232249794
 11
222.738620763524
 21
-3601.306236642838
  0
LINE
  5
F1
100
AcDbEntity
  8
1
  6
CONTINUOUS
 62
           2
100
AcDbLine
 10
287.234648234422
 20
-3623.155820062353
 11
282.231537431539
 21
-3637.921478759595
  0
LINE
  5
F0
100
AcDbEntity
  8
1
  6
CONTINUOUS
 62
           2
100
AcDbLine
 10
289.612755957641
 20
-3630.769443677783
 11
287.234648234422
 21
-3623.155820062353
  0
LINE
  5
EF
100
AcDbEntity
  8
1
  6
CONTINUOUS
 62
           2
100
AcDbLine
 10
285.274809409676
 20
-3630.763855668972
 11
289.612755957641
 21
-3630.769443677783
  0
LINE
  5
EE
100
AcDbEntity
  8
1
  6
CONTINUOUS
 62
           2
100
AcDbLine
 10
285.274809409676
 20
-3630.763855668972
 11
286.406954221258
 21
-3634.346865992388
  0
LINE
  5
ED
100
AcDbEntity
  8
1
  6
CONTINUOUS
 62
           2
100
AcDbLine
 10
286.406954221258
 20
-3634.346865992388
 11
290.840173815113
 21
-3634.345881369027
  0
LINE
  5
EC
100
AcDbEntity
  8
1
  6
CONTINUOUS
 62
           2
100
AcDbLine
 10
290.840173815113
 20
-3634.345881369027
 11
292.053086674228
 21
-3637.921354394691
  0
LINE
  5
EB
100
AcDbEntity
  8
1
  6
CONTINUOUS
 62
           2
100
AcDbLine
 10
292.053086674228
 20
-3637.921354394691
 11
297.319642819636
 21
-3637.921443249749
  0
LINE
  5
EA
100
AcDbEntity
  8
1
  6
CONTINUOUS
 62
           2
100
AcDbLine
 10
297.319642819636
 20
-3637.921443249749
 11
291.169540508051
 21
-3621.305425026819
  0
LINE
  5
E9
100
AcDbEntity
  8
1
  6
CONTINUOUS
 62
           2
100
AcDbLine
 10
288.809138629311
 20
-3619.643677597397
 11
284.10281590134
 21
-3619.643688673725
  0
LINE
  5
E8
100
AcDbEntity
  8
1
  6
CONTINUOUS
 62
           2
100
AcDbLine
 10
284.10281590134
 20
-3619.643688673725
 11
277.319508689655
 21
-3637.921490320051
  0
LINE
  5
E7
100
AcDbEntity
  8
1
  6
CONTINUOUS
 62
           2
100
AcDbLine
 10
277.319508689655
 20
-3637.921490320051
 11
282.231537431539
 21
-3637.921478759595
  0
LINE
  5
E6
100
AcDbEntity
  8
1
  6
CONTINUOUS
 62
           2
100
AcDbLine
 10
141.470740554244
 20
-3637.921393293986
 11
162.7848269586
 21
-3637.921341954547
  0
LINE
  5
E5
100
AcDbEntity
  8
1
  6
CONTINUOUS
 62
           2
100
AcDbLine
 10
162.7848269586
 20
-3637.921341954547
 11
177.268723248538
 21
-3616.932702882952
  0
LINE
  5
E4
100
AcDbEntity
  8
1
  6
CONTINUOUS
 62
           2
100
AcDbLine
 10
181.057816382387
 20
-3614.818202656815
 11
184.964617314306
 21
-3614.81826857067
  0
LINE
  5
E3
100
AcDbEntity
  8
1
  6
CONTINUOUS
 62
           2
100
AcDbLine
 10
184.964617314306
 20
-3614.81826857067
 11
179.590154179593
 21
-3597.921665635557
  0
LINE
  5
E2
100
AcDbEntity
  8
1
  6
CONTINUOUS
 62
           2
100
AcDbLine
 10
141.470740554244
 20
-3637.921393293986
 11
163.64481793849
 21
-3606.320946482499
  0
LINE
  5
E1
100
AcDbEntity
  8
1
  6
CONTINUOUS
 62
           2
100
AcDbLine
 10
176.051116549063
 20
-3597.921674044311
 11
179.590154179593
 21
-3597.921665635557
  0
LINE
  5
E0
100
AcDbEntity
  8
1
  6
CONTINUOUS
 62
           2
100
AcDbLine
 10
185.562890950657
 20
-3597.92129865598
 11
185.562890950657
 21
-3637.921707723654
  0
LINE
  5
DF
100
AcDbEntity
  8
1
  6
CONTINUOUS
 62
           2
100
AcDbLine
 10
185.562890950657
 20
-3637.921707723654
 11
203.863317295155
 21
-3637.921664519464
  0
LINE
  5
DE
100
AcDbEntity
  8
1
  6
CONTINUOUS
 62
           2
100
AcDbLine
 10
203.863317295155
 20
-3637.921664519464
 11
203.863317295155
 21
-3597.921608374534
  0
LINE
  5
DD
100
AcDbEntity
  8
1
  6
CONTINUOUS
 62
           2
100
AcDbLine
 10
203.863317295155
 20
-3597.921608374534
 11
185.562890950657
 21
-3597.92129865598
  0
LINE
  5
DC
100
AcDbEntity
  8
1
  6
CONTINUOUS
 62
           2
100
AcDbLine
 10
269.456497724798
 20
-3637.921412190004
 11
274.430682012364
 21
-3637.921497354252
  0
LINE
  5
DB
100
AcDbEntity
  8
1
  6
CONTINUOUS
 62
           2
100
AcDbLine
 10
269.456497724798
 20
-3623.145603858235
 11
269.456497724798
 21
-3637.921412190004
  0
LINE
  5
DA
100
AcDbEntity
  8
1
  6
CONTINUOUS
 62
           2
100
AcDbLine
 10
263.845716714159
 20
-3623.145617063205
 11
269.456497724798
 21
-3623.145603858235
  0
LINE
  5
D9
100
AcDbEntity
  8
1
  6
CONTINUOUS
 62
           2
100
AcDbLine
 10
263.845716714159
 20
-3619.643696901672
 11
263.845716714159
 21
-3623.145617063205
  0
LINE
  5
D8
100
AcDbEntity
  8
1
  6
CONTINUOUS
 62
           2
100
AcDbLine
 10
280.765054646857
 20
-3619.643696901672
 11
263.845716714159
 21
-3619.643696901672
  0
LINE
  5
D7
100
AcDbEntity
  8
1
  6
CONTINUOUS
 62
           2
100
AcDbLine
 10
280.765054646857
 20
-3620.99878489543
 11
280.765054646857
 21
-3619.643696901672
  0
LINE
  5
D6
100
AcDbEntity
  8
1
  6
CONTINUOUS
 62
           2
100
AcDbLine
 10
274.430682012364
 20
-3623.158805741169
 11
278.594933422988
 21
-3623.158796081816
  0
LINE
  5
D5
100
AcDbEntity
  8
1
  6
CONTINUOUS
 62
           2
100
AcDbLine
 10
274.430682012364
 20
-3637.921497354252
 11
274.430682012364
 21
-3623.158805741169
  0
LINE
  5
D4
100
AcDbEntity
  8
1
  6
CONTINUOUS
 62
           2
100
AcDbLine
 10
260.480526903161
 20
-3634.339816469654
 11
256.088219624046
 21
-3634.340724978083
  0
LINE
  5
D3
100
AcDbEntity
  8
1
  6
CONTINUOUS
 62
           2
100
AcDbLine
 10
261.704422636471
 20
-3637.921427553182
 11
260.480526903161
 21
-3634.339816469654
  0
LINE
  5
D2
100
AcDbEntity
  8
1
  6
CONTINUOUS
 62
           2
100
AcDbLine
 10
266.860013573205
 20
-3637.921515548376
 11
261.704422636471
 21
-3637.921427553182
  0
LINE
  5
D1
100
AcDbEntity
  8
1
  6
CONTINUOUS
 62
           2
100
AcDbLine
 10
260.772120538191
 20
-3621.402785785152
 11
266.860013573205
 21
-3637.921515548376
  0
LINE
  5
D0
100
AcDbEntity
  8
1
  6
CONTINUOUS
 62
           2
100
AcDbLine
 10
253.640173515051
 20
-3619.643761120655
 11
258.410222152467
 21
-3619.643842611144
  0
LINE
  5
CF
100
AcDbEntity
  8
1
  6
CONTINUOUS
 62
           2
100
AcDbLine
 10
248.879995654844
 20
-3632.578618263524
 11
246.769075388834
 21
-3621.769939000776
  0
LINE
  5
CE
100
AcDbEntity
  8
1
  6
CONTINUOUS
 62
           2
100
AcDbLine
 10
253.640173515051
 20
-3619.643761120655
 11
248.879995654844
 21
-3632.578618263524
  0
LINE
  5
CD
100
AcDbEntity
  8
1
  6
CONTINUOUS
 62
           2
100
AcDbLine
 10
249.810977987711
 20
-3637.921805946646
 11
245.941633583446
 21
-3637.921738977584
  0
LINE
  5
CC
100
AcDbEntity
  8
1
  6
CONTINUOUS
 62
           2
100
AcDbLine
 10
256.840415870578
 20
-3622.983244850501
 11
252.442246288536
 21
-3636.06230329384
  0
LINE
  5
CB
100
AcDbEntity
  8
1
  6
CONTINUOUS
 62
           2
100
AcDbLine
 10
259.23717035731
 20
-3630.781750780434
 11
256.840415870578
 21
-3622.983244850501
  0
LINE
  5
CA
100
AcDbEntity
  8
1
  6
CONTINUOUS
 62
           2
100
AcDbLine
 10
254.960645956088
 20
-3630.78280843679
 11
259.23717035731
 21
-3630.781750780434
  0
LINE
  5
C9
100
AcDbEntity
  8
1
  6
CONTINUOUS
 62
           2
100
AcDbLine
 10
256.088219624046
 20
-3634.340724978083
 11
254.960645956088
 21
-3630.78280843679
  0
LINE
  5
C8
100
AcDbEntity
  8
1
  6
CONTINUOUS
 62
           2
100
AcDbLine
 10
243.368971712028
 20
-3623.978740690559
 11
245.941633583446
 21
-3637.921738977584
  0
LINE
  5
C7
100
AcDbEntity
  8
1
  6
CONTINUOUS
 62
           2
100
AcDbLine
 10
240.947539451245
 20
-3635.698246238151
 11
243.368971712028
 21
-3623.978740690559
  0
LINE
  5
C6
100
AcDbEntity
  8
1
  6
CONTINUOUS
 62
           2
100
AcDbLine
 10
234.922044048296
 20
-3637.921553059838
 11
238.223711280174
 21
-3637.921610451296
  0
LINE
  5
C5
100
AcDbEntity
  8
1
  6
CONTINUOUS
 62
           2
100
AcDbLine
 10
228.731529065028
 20
-3619.643819978482
 11
234.922044048296
 21
-3637.921553059838
  0
LINE
  5
C4
100
AcDbEntity
  8
1
  6
CONTINUOUS
 62
           2
100
AcDbLine
 10
232.233743872235
 20
-3619.643811500672
 11
228.731529065028
 21
-3619.643819978482
  0
LINE
  5
C3
100
AcDbEntity
  8
1
  6
CONTINUOUS
 62
           2
100
AcDbLine
 10
237.785950335442
 20
-3632.614342223929
 11
234.158417749096
 21
-3621.067226989808
  0
LINE
  5
C2
100
AcDbEntity
  8
1
  6
CONTINUOUS
 62
           2
100
AcDbLine
 10
240.075910839661
 20
-3619.643793279488
 11
237.785950335442
 21
-3632.614342223929
  0
LINE
  5
C1
100
AcDbEntity
  8
1
  6
CONTINUOUS
 62
           2
100
AcDbLine
 10
244.33916568206
 20
-3619.643783128244
 11
240.075910839661
 21
-3619.643793279488
  0
LINE
  5
C0
100
AcDbEntity
  8
1
  6
CONTINUOUS
 62
           2
100
AcDbLine
 10
227.176202723229
 20
-3637.921609320759
 11
222.163571747658
 21
-3637.921622294354
  0
LINE
  5
BF
100
AcDbEntity
  8
1
  6
CONTINUOUS
 62
           2
100
AcDbLine
 10
227.176202723229
 20
-3622.165364726261
 11
227.176202723229
 21
-3637.921609320759
  0
LINE
  5
BE
100
AcDbEntity
  8
1
  6
CONTINUOUS
 62
           2
100
AcDbLine
 10
222.163571747658
 20
-3619.643835428623
 11
225.273464711455
 21
-3619.643828117034
  0
LINE
  5
BD
100
AcDbEntity
  8
1
  6
CONTINUOUS
 62
           2
100
AcDbLine
 10
222.163571747658
 20
-3637.921622294354
 11
222.163571747658
 21
-3619.643835428623
  0
LINE
  5
BC
100
AcDbEntity
  8
1
  6
CONTINUOUS
 62
           2
100
AcDbLine
 10
301.870740554244
 20
-3597.921376200826
 11
285.931162654226
 21
-3597.921414020568
  0
LINE
  5
BB
100
AcDbEntity
  8
1
  6
CONTINUOUS
 62
           2
100
AcDbLine
 10
301.870740554244
 20
-3597.921376200826
 11
301.870740554244
 21
-3599.219530343834
  0
LINE
  5
BA
100
AcDbEntity
  8
1
  6
CONTINUOUS
 62
           2
100
AcDbLine
 10
295.92999366123
 20
-3601.345035079732
 11
299.71417679174
 21
-3601.349909747605
  0
LINE
  5
B9
100
AcDbEntity
  8
1
  6
CONTINUOUS
 62
           2
100
AcDbLine
 10
285.931162654226
 20
-3601.338502697125
 11
285.931162654226
 21
-3597.921414020568
  0
LINE
  5
B8
100
AcDbEntity
  8
1
  6
CONTINUOUS
 62
           2
100
AcDbLine
 10
290.979710155534
 20
-3601.338490815372
 11
285.931162654226
 21
-3601.338502697125
  0
LINE
  5
B7
100
AcDbEntity
  8
1
  6
CONTINUOUS
 62
           2
100
AcDbLine
 10
290.979710155534
 20
-3616.09814662015
 11
290.979710155534
 21
-3601.338490815372
  0
LINE
  5
B6
100
AcDbEntity
  8
1
  6
CONTINUOUS
 62
           2
100
AcDbLine
 10
295.92999366123
 20
-3616.098232332494
 11
290.979710155534
 21
-3616.09814662015
  0
LINE
  5
B5
100
AcDbEntity
  8
1
  6
CONTINUOUS
 62
           2
100
AcDbLine
 10
295.92999366123
 20
-3601.345035079732
 11
295.92999366123
 21
-3616.098232332494
  0
LINE
  5
B4
100
AcDbEntity
  8
1
  6
CONTINUOUS
 62
           2
100
AcDbLine
 10
283.548139097756
 20
-3597.922406941292
 11
277.507248060508
 21
-3597.923973399118
  0
LINE
  5
B3
100
AcDbEntity
  8
1
  6
CONTINUOUS
 62
           2
100
AcDbLine
 10
270.896967459446
 20
-3612.539590440754
 11
278.39659439032
 21
-3612.539590440754
  0
LINE
  5
B2
100
AcDbEntity
  8
1
  6
CONTINUOUS
 62
           2
100
AcDbLine
 10
270.896967459446
 20
-3616.091678575662
 11
278.932709174397
 21
-3616.095585164436
  0
LINE
  5
B1
100
AcDbEntity
  8
1
  6
CONTINUOUS
 62
           2
100
AcDbLine
 10
283.548139097756
 20
-3601.387388612181
 11
277.495927360808
 21
-3601.387287938249
  0
LINE
  5
B0
100
AcDbEntity
  8
1
  6
CONTINUOUS
 62
           2
100
AcDbLine
 10
270.896967459446
 20
-3612.539590440754
 11
270.896967459446
 21
-3616.091678575662
  0
LINE
  5
AF
100
AcDbEntity
  8
1
  6
CONTINUOUS
 62
           2
100
AcDbLine
 10
283.548139097756
 20
-3597.922406941292
 11
283.548139097756
 21
-3601.387388612181
  0
LINE
  5
AE
100
AcDbEntity
  8
1
  6
CONTINUOUS
 62
           2
100
AcDbLine
 10
259.217829816419
 20
-3612.544152666871
 11
268.803256171727
 21
-3612.544129872226
  0
LINE
  5
AD
100
AcDbEntity
  8
1
  6
CONTINUOUS
 62
           2
100
AcDbLine
 10
258.915791481773
 20
-3601.376221120337
 11
258.915791481773
 21
-3612.233508259241
  0
LINE
  5
AC
100
AcDbEntity
  8
1
  6
CONTINUOUS
 62
           2
100
AcDbLine
 10
268.817472858612
 20
-3601.375696406985
 11
258.915791481773
 21
-3601.376221120337
  0
LINE
  5
AB
100
AcDbEntity
  8
1
  6
CONTINUOUS
 62
           2
100
AcDbLine
 10
268.821814783407
 20
-3597.921454678088
 11
268.817472858612
 21
-3601.375696406985
  0
LINE
  5
AA
100
AcDbEntity
  8
1
  6
CONTINUOUS
 62
           2
100
AcDbLine
 10
253.889387868723
 20
-3597.921490056895
 11
268.821814783407
 21
-3597.921454678088
  0
LINE
  5
A9
100
AcDbEntity
  8
1
  6
CONTINUOUS
 62
           2
100
AcDbLine
 10
253.889387868723
 20
-3613.372185136079
 11
253.889387868723
 21
-3597.921490056895
  0
LINE
  5
A8
100
AcDbEntity
  8
1
  6
CONTINUOUS
 62
           2
100
AcDbLine
 10
268.803256171727
 20
-3616.097769579529
 11
256.652273559194
 21
-3616.097562974656
  0
LINE
  5
A7
100
AcDbEntity
  8
1
  6
CONTINUOUS
 62
           2
100
AcDbLine
 10
268.803256171727
 20
-3612.544129872226
 11
268.803256171727
 21
-3616.097769579529
  0
LINE
  5
A6
100
AcDbEntity
  8
1
  6
CONTINUOUS
 62
           2
100
AcDbLine
 10
260.750648012321
 20
-3608.678816324899
 11
268.148831818824
 21
-3608.681774173462
  0
LINE
  5
A5
100
AcDbEntity
  8
1
  6
CONTINUOUS
 62
           2
100
AcDbLine
 10
259.633780504027
 20
-3605.187089664796
 11
260.750648012321
 21
-3608.678816324899
  0
LINE
  5
A4
100
AcDbEntity
  8
1
  6
CONTINUOUS
 62
           2
100
AcDbLine
 10
268.148831818824
 20
-3605.187069389279
 11
259.633780504027
 21
-3605.187089664796
  0
LINE
  5
A3
100
AcDbEntity
  8
1
  6
CONTINUOUS
 62
           2
100
AcDbLine
 10
268.148831818824
 20
-3608.681774173462
 11
268.148831818824
 21
-3605.187069389279
  0
LINE
  5
A2
100
AcDbEntity
  8
1
  6
CONTINUOUS
 62
           2
100
AcDbLine
 10
237.976079243142
 20
-3616.097245408204
 11
233.462820928727
 21
-3616.097169262462
  0
LINE
  5
A1
100
AcDbEntity
  8
1
  6
CONTINUOUS
 62
           2
100
AcDbLine
 10
237.976079243142
 20
-3602.290946396274
 11
237.976079243142
 21
-3616.097245408204
  0
LINE
  5
A0
100
AcDbEntity
  8
1
  6
CONTINUOUS
 62
           2
100
AcDbLine
 10
243.503364551997
 20
-3614.511554809289
 11
237.976079243142
 21
-3602.290946396274
  0
LINE
  5
9F
100
AcDbEntity
  8
1
  6
CONTINUOUS
 62
           2
100
AcDbLine
 10
251.187257994137
 20
-3616.097469145074
 11
246.025227116303
 21
-3616.097381655138
  0
LINE
  5
9E
100
AcDbEntity
  8
1
  6
CONTINUOUS
 62
           2
100
AcDbLine
 10
251.187257994137
 20
-3597.921496581101
 11
251.187257994137
 21
-3616.097469145074
  0
LINE
  5
9D
100
AcDbEntity
  8
1
  6
CONTINUOUS
 62
           2
100
AcDbLine
 10
246.723999679723
 20
-3597.921507203051
 11
251.187257994137
 21
-3597.921496581101
  0
LINE
  5
9C
100
AcDbEntity
  8
1
  6
CONTINUOUS
 62
           2
100
AcDbLine
 10
246.723999679723
 20
-3611.427955977945
 11
246.723999679723
 21
-3597.921507203051
  0
LINE
  5
9B
100
AcDbEntity
  8
1
  6
CONTINUOUS
 62
           2
100
AcDbLine
 10
241.336569549254
 20
-3599.55397525648
 11
246.723999679723
 21
-3611.427955977945
  0
LINE
  5
9A
100
AcDbEntity
  8
1
  6
CONTINUOUS
 62
           2
100
AcDbLine
 10
233.462820928727
 20
-3597.921538413227
 11
238.814020726336
 21
-3597.921525819181
  0
LINE
  5
99
100
AcDbEntity
  8
1
  6
CONTINUOUS
 62
           2
100
AcDbLine
 10
233.462820928727
 20
-3616.097169262462
 11
233.462820928727
 21
-3597.921538413227
  0
LINE
  5
98
100
AcDbEntity
  8
1
  6
CONTINUOUS
 62
           2
100
AcDbLine
 10
226.374353217574
 20
-3612.525096008492
 11
222.087276483836
 21
-3612.526268888573
  0
LINE
  5
97
100
AcDbEntity
  8
1
  6
CONTINUOUS
 62
           2
100
AcDbLine
 10
227.587897135392
 20
-3616.014468927982
 11
226.374353217574
 21
-3612.525096008492
  0
LINE
  5
96
100
AcDbEntity
  8
1
  6
CONTINUOUS
 62
           2
100
AcDbLine
 10
232.751059075766
 20
-3616.097157699119
 11
227.730502685595
 21
-3616.097071307306
  0
LINE
  5
95
100
AcDbEntity
  8
1
  6
CONTINUOUS
 62
           2
100
AcDbLine
 10
226.627055476954
 20
-3599.606201011374
 11
226.686087034598
 21
-3599.76534322466
  0
LINE
  5
94
100
AcDbEntity
  8
1
  6
CONTINUOUS
 62
           2
100
AcDbLine
 10
224.07711767803
 20
-3597.92459020308
 11
219.649676493286
 21
-3597.921571157803
  0
LINE
  5
93
100
AcDbEntity
  8
1
  6
CONTINUOUS
 62
           2
100
AcDbLine
 10
212.918609183473
 20
-3616.096821407449
 11
219.649676493286
 21
-3597.921571157803
  0
LINE
  5
92
100
AcDbEntity
  8
1
  6
CONTINUOUS
 62
           2
100
AcDbLine
 10
217.7765653078
 20
-3616.096383916574
 11
212.918609183473
 21
-3616.096821407449
  0
LINE
  5
91
100
AcDbEntity
  8
1
  6
CONTINUOUS
 62
           2
100
AcDbLine
 10
222.738620763524
 20
-3601.306236642838
 11
217.7765653078
 21
-3616.096383916574
  0
LINE
  5
90
100
AcDbEntity
  8
1
  6
CONTINUOUS
 62
           2
100
AcDbLine
 10
220.783434238108
 20
-3609.039232249794
 11
225.133505695379
 21
-3609.039232249794
  0
LINE
  5
8F
100
AcDbEntity
  8
1
  6
CONTINUOUS
 62
           2
100
AcDbLine
 10
221.85667384699
 20
-3612.367585349586
 11
220.783434238108
 21
-3609.039232249794
  0
LINE
  5
8E
100
AcDbEntity
  8
1
  6
CONTINUOUS
 62
           2
100
AcDbLine
 10
226.686087034598
 20
-3599.76534322466
 11
232.751059075766
 21
-3616.097157699119
  0
ENDBLK
  5
11E
100
AcDbEntity
  8
0
100
AcDbBlockEnd
  0
ENDSEC
  0
SECTION
  2
ENTITIES
  0
ARC
  5
4BB
100
AcDbEntity
  8
1
  6
CONTINUOUS
 62
           7
100
AcDbCircle
 10
125.347399030694
 20
-3528.583277266466
 40
0.100000000001
100
AcDbArc
 50
137.782165417145
 51
-47.78216541753
  0
ARC
  5
4BA
100
AcDbEntity
  8
1
  6
CONTINUOUS
 62
           7
100
AcDbCircle
 10
487.870740554244
 20
-3525.585251183757
 40
3.0
100
AcDbArc
 50
0.0
 51
19.999999999998
  0
ARC
  5
4B9
100
AcDbEntity
  8
1
  6
CONTINUOUS
 62
           7
100
AcDbCircle
 10
505.870740554244
 20
-3525.585251183757
 40
3.0
100
AcDbArc
 50
160.000000000001
 51
180.0
  0
ARC
  5
4B8
100
AcDbEntity
  8
1
  6
CONTINUOUS
 62
           7
100
AcDbCircle
 10
-216.711480303257
 20
-3489.457769868164
 40
1.0
100
AcDbArc
 50
90.0
 51
180.0
  0
ARC
  5
4B7
100
AcDbEntity
  8
1
  6
CONTINUOUS
 62
           7
100
AcDbCircle
 10
-216.711480303257
 20
-3539.457769868164
 40
1.0
100
AcDbArc
 50
180.0
 51
-90.0
  0
ARC
  5
4B6
100
AcDbEntity
  8
1
  6
CONTINUOUS
 62
           7
100
AcDbCircle
 10
-192.011480303257
 20
-3540.457769868164
 40
1.0
100
AcDbArc
 50
-90.0
 51
0.0
  0
ARC
  5
4B5
100
AcDbEntity
  8
1
  6
CONTINUOUS
 62
           7
100
AcDbCircle
 10
-192.011480303257
 20
-3488.457769868164
 40
1.0
100
AcDbArc
 50
0.0
 51
90.0
  0
ARC
  5
4B4
100
AcDbEntity
  8
1
  6
CONTINUOUS
 62
           7
100
AcDbCircle
 10
-225.111480303257
 20
-3525.821632875797
 40
5.0
100
AcDbArc
 50
90.0
 51
180.0
  0
ARC
  5
4B3
100
AcDbEntity
  8
1
  6
CONTINUOUS
 62
           7
100
AcDbCircle
 10
-227.111480303257
 20
-3516.821632875797
 40
15.0
100
AcDbArc
 50
90.0
 51
180.0
  0
ARC
  5
4B2
100
AcDbEntity
  8
1
  6
CONTINUOUS
 62
           7
100
AcDbCircle
 10
-154.054898696518
 20
-3485.344105007637
 40
3.000000000006
100
AcDbArc
 50
-80.000044519478
 51
9.999239532825
  0
ARC
  5
4B1
100
AcDbEntity
  8
1
  6
CONTINUOUS
 62
           7
100
AcDbCircle
 10
-373.111480303257
 20
-3542.957769868164
 40
15.0
100
AcDbArc
 50
0.0
 51
90.0
  0
ARC
  5
4B0
100
AcDbEntity
  8
1
  6
CONTINUOUS
 62
           7
100
AcDbCircle
 10
-375.111480303257
 20
-3551.957769868164
 40
5.0
100
AcDbArc
 50
0.0
 51
90.0
  0
ARC
  5
4AF
100
AcDbEntity
  8
1
  6
CONTINUOUS
 62
           7
100
AcDbCircle
 10
112.870740554244
 20
-3241.757578505931
 40
1.0
100
AcDbArc
 50
180.0
 51
-90.0
  0
ARC
  5
4AE
100
AcDbEntity
  8
1
  6
CONTINUOUS
 62
           7
100
AcDbCircle
 10
164.870740554244
 20
-3241.757578505931
 40
1.0
100
AcDbArc
 50
-90.0
 51
0.0
  0
ARC
  5
4AD
100
AcDbEntity
  8
1
  6
CONTINUOUS
 62
           7
100
AcDbCircle
 10
163.870740554244
 20
-3217.057578505933
 40
1.0
100
AcDbArc
 50
0.0
 51
90.0
  0
ARC
  5
4AC
100
AcDbEntity
  8
1
  6
CONTINUOUS
 62
           7
100
AcDbCircle
 10
113.870740554244
 20
-3217.057578505933
 40
1.0
100
AcDbArc
 50
90.0
 51
180.0
  0
ARC
  5
4AB
100
AcDbEntity
  8
1
  6
CONTINUOUS
 62
           7
100
AcDbCircle
 10
133.370740554244
 20
-3066.327578505932
 40
15.0
100
AcDbArc
 50
-56.632987030767
 51
0.0
  0
ARC
  5
4AA
100
AcDbEntity
  8
1
  6
CONTINUOUS
 62
           7
100
AcDbCircle
 10
144.370740554244
 20
-3066.327578505932
 40
15.0
100
AcDbArc
 50
180.0
 51
-123.367012969232
  0
ARC
  5
4A9
100
AcDbEntity
  8
1
  6
CONTINUOUS
 62
           7
100
AcDbCircle
 10
138.870740554244
 20
-3074.679225050177
 40
4.999999999999
100
AcDbArc
 50
-123.367012969236
 51
-56.632987030763
  0
ARC
  5
4A8
100
AcDbEntity
  8
1
  6
CONTINUOUS
 62
           7
100
AcDbCircle
 10
502.370740554244
 20
-3201.29740584356
 40
15.0
100
AcDbArc
 50
123.367012969231
 51
180.0
  0
ARC
  5
4A7
100
AcDbEntity
  8
1
  6
CONTINUOUS
 62
           7
100
AcDbCircle
 10
491.370740554244
 20
-3201.29740584356
 40
15.0
100
AcDbArc
 50
0.0
 51
56.632987030769
  0
ARC
  5
4A6
100
AcDbEntity
  8
1
  6
CONTINUOUS
 62
           7
100
AcDbCircle
 10
496.870740554244
 20
-3192.945759299315
 40
5.0
100
AcDbArc
 50
56.632987030769
 51
123.367012969231
  0
CIRCLE
  5
4A5
100
AcDbEntity
  8
1
  6
CONTINUOUS
 62
           7
100
AcDbCircle
 10
-286.111480303257
 20
-3696.540400782803
 40
143.2
  0
CIRCLE
  5
4A4
100
AcDbEntity
  8
1
  6
CONTINUOUS
 62
           2
100
AcDbCircle
 10
138.870740554244
 20
-3522.653115444555
 40
1.555703350688
  0
CIRCLE
  5
4A3
100
AcDbEntity
  8
1
  6
CONTINUOUS
 62
           7
100
AcDbCircle
 10
127.870217318942
 20
-3527.123111617718
 40
0.5
  0
CIRCLE
  5
4A2
100
AcDbEntity
  8
1
  6
CONTINUOUS
 62
           7
100
AcDbCircle
 10
134.370740554244
 20
-3529.489046587313
 40
1.4
  0
CIRCLE
  5
4A1
100
AcDbEntity
  8
1
  6
CONTINUOUS
 62
           7
100
AcDbCircle
 10
134.370740554244
 20
-3529.489046587313
 40
1.1
  0
CIRCLE
  5
4A0
100
AcDbEntity
  8
1
  6
CONTINUOUS
 62
           7
100
AcDbCircle
 10
143.370740554244
 20
-3529.489046587313
 40
1.4
  0
CIRCLE
  5
49F
100
AcDbEntity
  8
1
  6
CONTINUOUS
 62
           7
100
AcDbCircle
 10
143.370740554244
 20
-3529.489046587313
 40
1.1
  0
CIRCLE
  5
49E
100
AcDbEntity
  8
1
  6
CONTINUOUS
 62
           7
100
AcDbCircle
 10
138.870740554244
 20
-3515.059935742915
 40
2.0
  0
CIRCLE
  5
49D
100
AcDbEntity
  8
1
  6
CONTINUOUS
 62
           7
100
AcDbCircle
 10
138.870740554244
 20
-3515.059935742915
 40
25.0
  0
CIRCLE
  5
49C
100
AcDbEntity
  8
0
  6
CONTINUOUS
 62
           2
100
AcDbCircle
 10
496.870740554244
 20
-3513.028161443702
 40
5.5
  0
CIRCLE
  5
49B
100
AcDbEntity
  8
1
  6
CONTINUOUS
 62
           7
100
AcDbCircle
 10
496.870740554244
 20
-3513.028118627682
 40
4.0
  0
CIRCLE
  5
49A
100
AcDbEntity
  8
1
  6
CONTINUOUS
 62
           7
100
AcDbCircle
 10
496.870740554244
 20
-3513.028118627682
 40
3.0
  0
CIRCLE
  5
499
100
AcDbEntity
  8
0
  6
CONTINUOUS
 62
           7
100
AcDbCircle
 10
-336.111480303257
 20
-3529.311659401004
 40
2.5
  0
CIRCLE
  5
498
100
AcDbEntity
  8
1
  6
CONTINUOUS
 62
           7
100
AcDbCircle
 10
496.870740554244
 20
-3097.657578505932
 40
11.5
  0
CIRCLE
  5
497
100
AcDbEntity
  8
1
  6
CONTINUOUS
 62
           2
100
AcDbCircle
 10
496.870740554244
 20
-3097.657578505932
 40
8.33
  0
CIRCLE
  5
496
100
AcDbEntity
  8
1
  6
CONTINUOUS
 62
           2
100
AcDbCircle
 10
496.870740554244
 20
-3097.657578505932
 40
8.000000000039
  0
CIRCLE
  5
495
100
AcDbEntity
  8
1
  6
CONTINUOUS
 62
           2
100
AcDbCircle
 10
496.870740554244
 20
-3097.657578505932
 40
2.250000000011
  0
CIRCLE
  5
494
100
AcDbEntity
  8
0
  6
CONTINUOUS
 62
           2
100
AcDbCircle
 10
496.870740554244
 20
-3097.657531797552
 40
9.5
  0
CIRCLE
  5
493
100
AcDbEntity
  8
1
  6
CONTINUOUS
 62
           7
100
AcDbCircle
 10
496.870740554244
 20
-3236.787555843558
 40
5.718850000002
  0
CIRCLE
  5
492
100
AcDbEntity
  8
0
  6
CONTINUOUS
 62
           7
100
AcDbCircle
 10
496.870740554244
 20
-3236.787405843559
 40
2.0
  0
CIRCLE
  5
491
100
AcDbEntity
  8
0
  6
CONTINUOUS
 62
           7
100
AcDbCircle
 10
496.870740554244
 20
-3236.787405843559
 40
4.0
  0
ARC
  5
490
100
AcDbEntity
  8
1
  6
CONTINUOUS
 62
           7
100
AcDbCircle
 10
96.796880187219
 20
-3785.141351812905
 40
53.599999999999
100
AcDbArc
 50
-156.351071388267
 51
-89.523759272766
  0
ARC
  5
48F
100
AcDbEntity
  8
1
  6
CONTINUOUS
 62
           7
100
AcDbCircle
 10
314.470740554242
 20
-3696.540400782804
 40
288.599999999998
100
AcDbArc
 50
179.999999999999
 51
-157.573223502651
  0
ARC
  5
48E
100
AcDbEntity
  8
1
  6
CONTINUOUS
 62
           7
100
AcDbCircle
 10
96.796881008787
 20
-3607.9394497527
 40
53.600000000001
100
AcDbArc
 50
89.137703983827
 51
156.351109449248
  0
ARC
  5
48D
100
AcDbEntity
  8
1
  6
CONTINUOUS
 62
           7
100
AcDbCircle
 10
314.470740554242
 20
-3696.540400782804
 40
288.599999999999
100
AcDbArc
 50
157.573230507661
 51
179.999999999999
  0
ARC
  5
48C
100
AcDbEntity
  8
1
  6
CONTINUOUS
 62
           7
100
AcDbCircle
 10
538.944600921269
 20
-3607.9394497527
 40
53.6
100
AcDbArc
 50
21.692166977153
 51
90.476240727234
  0
ARC
  5
48B
100
AcDbEntity
  8
1
  6
CONTINUOUS
 62
           7
100
AcDbCircle
 10
321.270740554242
 20
-3696.540400782803
 40
288.600000000002
100
AcDbArc
 50
0.0
 51
22.207845719206
  0
ARC
  5
48A
100
AcDbEntity
  8
1
  6
CONTINUOUS
 62
           7
100
AcDbCircle
 10
538.944600921269
 20
-3785.141351812905
 40
53.6
100
AcDbArc
 50
-90.476240727234
 51
-21.692166977153
  0
ARC
  5
489
100
AcDbEntity
  8
1
  6
CONTINUOUS
 62
           7
100
AcDbCircle
 10
321.270740554242
 20
-3696.540400782803
 40
288.6
100
AcDbArc
 50
-22.207845719206
 51
0.0
  0
ARC
  5
488
100
AcDbEntity
  8
1
  6
CONTINUOUS
 62
           7
100
AcDbCircle
 10
138.870740554244
 20
-3534.976602409582
 40
17.083333333333
100
AcDbArc
 50
-114.189514154025
 51
-65.810485845975
  0
ARC
  5
487
100
AcDbEntity
  8
1
  6
CONTINUOUS
 62
           7
100
AcDbCircle
 10
138.870740554244
 20
-3515.059935742915
 40
27.000000000002
100
AcDbArc
 50
-105.026113759119
 51
-74.973886240881
  0
ARC
  5
486
100
AcDbEntity
  8
1
  6
CONTINUOUS
 62
           7
100
AcDbCircle
 10
138.870740554244
 20
-3515.059935742915
 40
27.0
100
AcDbArc
 50
0.0
 51
-105.026113759119
  0
ARC
  5
485
100
AcDbEntity
  8
1
  6
CONTINUOUS
 62
           7
100
AcDbCircle
 10
138.870740554244
 20
-3515.059935742915
 40
27.000000000001
100
AcDbArc
 50
-74.973886240881
 51
0.0
  0
ARC
  5
484
100
AcDbEntity
  8
1
  6
CONTINUOUS
 62
           7
100
AcDbCircle
 10
138.870740554244
 20
-3515.059935742915
 40
18.5
100
AcDbArc
 50
180.0
 51
-135.413684388793
  0
ARC
  5
483
100
AcDbEntity
  8
1
  6
CONTINUOUS
 62
           7
100
AcDbCircle
 10
145.870740554244
 20
-3508.059935742915
 40
1.65167135663
100
AcDbArc
 50
-44.999999999999
 51
135.000000000023
  0
ARC
  5
482
100
AcDbEntity
  8
1
  6
CONTINUOUS
 62
           7
100
AcDbCircle
 10
138.870740554244
 20
-3515.059935742915
 40
2.5
100
AcDbArc
 50
0.0
 51
15.302031714341
  0
ARC
  5
481
100
AcDbEntity
  8
1
  6
CONTINUOUS
 62
           7
100
AcDbCircle
 10
138.870740554244
 20
-3515.059935742915
 40
2.5
100
AcDbArc
 50
-111.421821521794
 51
0.0
  0
ARC
  5
480
100
AcDbEntity
  8
1
  6
CONTINUOUS
 62
           7
100
AcDbCircle
 10
138.870740554244
 20
-3515.059935742915
 40
2.499999999999
100
AcDbArc
 50
74.697968285614
 51
-158.578178478188
  0
ARC
  5
47F
100
AcDbEntity
  8
1
  6
CONTINUOUS
 62
           7
100
AcDbCircle
 10
138.870740554244
 20
-3515.059935742915
 40
20.5
100
AcDbArc
 50
180.0
 51
-134.999999999997
  0
ARC
  5
47E
100
AcDbEntity
  8
1
  6
CONTINUOUS
 62
           7
100
AcDbCircle
 10
138.870740554244
 20
-3515.059935742915
 40
20.500000000001
100
AcDbArc
 50
-45.000000000003
 51
180.0
  0
ARC
  5
47D
100
AcDbEntity
  8
1
  6
CONTINUOUS
 62
           7
100
AcDbCircle
 10
138.870740554244
 20
-3515.059935742915
 40
18.500000000001
100
AcDbArc
 50
-45.000000000002
 51
180.0
  0
ARC
  5
47C
100
AcDbEntity
  8
1
  6
CONTINUOUS
 62
           7
100
AcDbCircle
 10
485.870740554244
 20
-3529.128283108487
 40
5.0
100
AcDbArc
 50
-22.33164500921
 51
0.0
  0
ARC
  5
47B
100
AcDbEntity
  8
1
  6
CONTINUOUS
 62
           7
100
AcDbCircle
 10
507.870740554244
 20
-3529.128283108487
 40
5.0
100
AcDbArc
 50
180.0
 51
-157.66835499079
  0
ARC
  5
47A
100
AcDbEntity
  8
0
  6
CONTINUOUS
 62
           7
100
AcDbCircle
 10
496.870740554244
 20
-3513.028161443702
 40
10.000014367991
100
AcDbArc
 50
-138.590284545978
 51
-41.409715454022
  0
ARC
  5
479
100
AcDbEntity
  8
0
  6
CONTINUOUS
 62
           7
100
AcDbCircle
 10
496.870740554244
 20
-3513.028161443702
 40
10.000014367988
100
AcDbArc
 50
138.590284545997
 51
-138.590284545978
  0
ARC
  5
478
100
AcDbEntity
  8
0
  6
CONTINUOUS
 62
           7
100
AcDbCircle
 10
496.870724639856
 20
-3513.028168627685
 40
10.000007183995
100
AcDbArc
 50
89.999908817338
 51
138.590193363399
  0
ARC
  5
477
100
AcDbEntity
  8
0
  6
CONTINUOUS
 62
           7
100
AcDbCircle
 10
496.870756468632
 20
-3513.028168627685
 40
10.000007183994
100
AcDbArc
 50
41.409806636601
 51
90.000091182663
  0
ARC
  5
476
100
AcDbEntity
  8
0
  6
CONTINUOUS
 62
           7
100
AcDbCircle
 10
496.870740554292
 20
-3513.028154748414
 40
10.000018796481
100
AcDbArc
 50
-41.40974422499
 51
41.408877990543
  0
ARC
  5
475
100
AcDbEntity
  8
0
  6
CONTINUOUS
 62
           7
100
AcDbCircle
 10
496.870740554052
 20
-3513.028211443702
 40
6.500000000384
100
AcDbArc
 50
0.000440736762
 51
-0.000440736786
  0
ARC
  5
474
100
AcDbEntity
  8
0
  6
CONTINUOUS
 62
           7
100
AcDbCircle
 10
492.870740554244
 20
-3489.933161443701
 40
2.0
100
AcDbArc
 50
-90.0
 51
0.0
  0
ARC
  5
473
100
AcDbEntity
  8
0
  6
CONTINUOUS
 62
           7
100
AcDbCircle
 10
500.870740554244
 20
-3489.933161443701
 40
2.0
100
AcDbArc
 50
180.0
 51
-90.0
  0
ARC
  5
472
100
AcDbEntity
  8
0
  6
CONTINUOUS
 62
           7
100
AcDbCircle
 10
495.870740554244
 20
-3488.484061443703
 40
1.0
100
AcDbArc
 50
180.0
 51
-90.0
  0
ARC
  5
471
100
AcDbEntity
  8
0
  6
CONTINUOUS
 62
           7
100
AcDbCircle
 10
497.870740554244
 20
-3488.484061443703
 40
1.0
100
AcDbArc
 50
-90.0
 51
0.0
  0
ARC
  5
470
100
AcDbEntity
  8
0
  6
CONTINUOUS
 62
           7
100
AcDbCircle
 10
497.870740554244
 20
-3484.575261443703
 40
1.0
100
AcDbArc
 50
0.0
 51
90.0
  0
ARC
  5
46F
100
AcDbEntity
  8
0
  6
CONTINUOUS
 62
           7
100
AcDbCircle
 10
495.870740554244
 20
-3484.575261443703
 40
1.0
100
AcDbArc
 50
90.0
 51
180.0
  0
ARC
  5
46E
100
AcDbEntity
  8
0
  6
CONTINUOUS
 62
           7
100
AcDbCircle
 10
503.870735030449
 20
-3503.281350676402
 40
1.999994476235
100
AcDbArc
 50
-179.999691538726
 51
-125.682902195164
  0
ARC
  5
46D
100
AcDbEntity
  8
0
  6
CONTINUOUS
 62
           7
100
AcDbCircle
 10
489.87075752341
 20
-3503.281428364042
 40
1.999983031111
100
AcDbArc
 50
-54.313738975088
 51
-0.000947670498
  0
ARC
  5
46C
100
AcDbEntity
  8
1
  6
CONTINUOUS
 62
           7
100
AcDbCircle
 10
496.870740554244
 20
-3513.028118627682
 40
11.0
100
AcDbArc
 50
0.0
 51
47.014113919811
  0
ARC
  5
46B
100
AcDbEntity
  8
1
  6
CONTINUOUS
 62
           7
100
AcDbCircle
 10
496.870740554244
 20
-3513.028118627682
 40
11.0
100
AcDbArc
 50
132.985886080189
 51
0.0
  0
ARC
  5
46A
100
AcDbEntity
  8
1
  6
CONTINUOUS
 62
           7
100
AcDbCircle
 10
488.681637730308
 20
-3511.886633928701
 40
4.868533289231
100
AcDbArc
 50
103.126569455596
 51
114.02067708103
  0
ARC
  5
469
100
AcDbEntity
  8
1
  6
CONTINUOUS
 62
           7
100
AcDbCircle
 10
505.05984337818
 20
-3511.886633928701
 40
4.868533289232
100
AcDbArc
 50
65.979322918971
 51
76.87343054441
  0
ARC
  5
468
100
AcDbEntity
  8
1
  6
CONTINUOUS
 62
           7
100
AcDbCircle
 10
-208.111480303257
 20
-3534.374436534831
 40
17.083333333333
100
AcDbArc
 50
-114.189514154024
 51
-65.810485845975
  0
ARC
  5
467
100
AcDbEntity
  8
1
  6
CONTINUOUS
 62
           7
100
AcDbCircle
 10
-247.111480303257
 20
-3527.421797356599
 40
5.000000000001
100
AcDbArc
 50
-22.331645009239
 51
0.0
  0
ARC
  5
466
100
AcDbEntity
  8
1
  6
CONTINUOUS
 62
           7
100
AcDbCircle
 10
-225.111480303257
 20
-3527.421797356599
 40
5.0
100
AcDbArc
 50
180.0
 51
-157.668354990761
  0
ARC
  5
465
100
AcDbEntity
  8
1
  6
CONTINUOUS
 62
           7
100
AcDbCircle
 10
-224.90490026461
 20
-3524.159978175738
 40
3.344055699641
100
AcDbArc
 50
33.348851989586
 51
93.348851989587
  0
ARC
  5
464
100
AcDbEntity
  8
1
  6
CONTINUOUS
 62
           7
100
AcDbCircle
 10
-224.90490026461
 20
-3498.483287575856
 40
3.344055699641
100
AcDbArc
 50
-93.348851989587
 51
-33.348851989586
  0
ARC
  5
463
100
AcDbEntity
  8
1
  6
CONTINUOUS
 62
           7
100
AcDbCircle
 10
-188.151645174281
 20
-3490.884414596087
 40
2.062789341864
100
AcDbArc
 50
65.979322918771
 51
124.228495803085
  0
ARC
  5
462
100
AcDbEntity
  8
1
  6
CONTINUOUS
 62
           7
100
AcDbCircle
 10
-188.151645174281
 20
-3494.027149006175
 40
2.062789341859
100
AcDbArc
 50
65.979322918714
 51
124.228495803106
  0
ARC
  5
461
100
AcDbEntity
  8
0
  6
CONTINUOUS
 62
           7
100
AcDbCircle
 10
-173.548768360107
 20
-3496.065703380715
 40
5.822282406354
100
AcDbArc
 50
55.794289915322
 51
87.167772869263
  0
ARC
  5
460
100
AcDbEntity
  8
0
  6
CONTINUOUS
 62
           7
100
AcDbCircle
 10
-175.247476117619
 20
-3500.250489719988
 40
8.999956844795
100
AcDbArc
 50
90.000663269544
 51
135.000663272729
  0
ARC
  5
45F
100
AcDbEntity
  8
0
  6
CONTINUOUS
 62
           7
100
AcDbCircle
 10
-176.661664541439
 20
-3500.250484924897
 40
9.999952049771
100
AcDbArc
 50
90.000663269534
 51
135.000663272716
  0
ARC
  5
45E
100
AcDbEntity
  8
0
  6
CONTINUOUS
 62
           7
100
AcDbCircle
 10
-167.191773298029
 20
-3504.922770214206
 40
20.000007458081
100
AcDbArc
 50
100.000413531837
 51
140.705866888642
  0
ARC
  5
45D
100
AcDbEntity
  8
0
  6
CONTINUOUS
 62
           7
100
AcDbCircle
 10
-182.12142525096
 20
-3497.225041375406
 40
1.999955055245
100
AcDbArc
 50
134.994865772699
 51
179.99689164534
  0
ARC
  5
45C
100
AcDbEntity
  8
0
  6
CONTINUOUS
 62
           7
100
AcDbCircle
 10
-186.117715031803
 20
-3491.321647261066
 40
2.999985614932
100
AcDbArc
 50
-89.999336730435
 51
-44.999336727239
  0
ARC
  5
45B
100
AcDbEntity
  8
0
  6
CONTINUOUS
 62
           7
100
AcDbCircle
 10
-190.621380303255
 20
-3496.785632875796
 40
6.829882575861
100
AcDbArc
 50
-93.274324838624
 51
-50.633445142555
  0
ARC
  5
45A
100
AcDbEntity
  8
0
  6
CONTINUOUS
 62
           7
100
AcDbCircle
 10
-185.621380303255
 20
-3501.321632875797
 40
1.0
100
AcDbArc
 50
180.0
 51
-90.0
  0
ARC
  5
459
100
AcDbEntity
  8
1
  6
CONTINUOUS
 62
           7
100
AcDbCircle
 10
-191.6213542265
 20
-3499.607101695988
 40
7.642734410099
100
AcDbArc
 50
72.412046226018
 51
85.423052631854
  0
ARC
  5
458
100
AcDbEntity
  8
1
  6
CONTINUOUS
 62
           7
100
AcDbCircle
 10
-191.6213542265
 20
-3496.464367285895
 40
7.642734410096
100
AcDbArc
 50
72.412046226009
 51
85.423052631852
  0
ARC
  5
457
100
AcDbEntity
  8
1
  6
CONTINUOUS
 62
           7
100
AcDbCircle
 10
-327.87092130423
 20
-3515.210739461497
 40
4.899124686941
100
AcDbArc
 50
65.979322918977
 51
124.228495803064
  0
ARC
  5
456
100
AcDbEntity
  8
1
  6
CONTINUOUS
 62
           7
100
AcDbCircle
 10
-336.111480303257
 20
-3528.463127099765
 40
18.151494223969
100
AcDbArc
 50
72.412046226008
 51
107.587953773994
  0
ARC
  5
455
100
AcDbEntity
  8
1
  6
CONTINUOUS
 62
           7
100
AcDbCircle
 10
-344.352039302284
 20
-3515.210739461496
 40
4.899124686941
100
AcDbArc
 50
55.77150419694
 51
114.02067708103
  0
ARC
  5
454
100
AcDbEntity
  8
1
  6
CONTINUOUS
 62
           7
100
AcDbCircle
 10
-327.87092130423
 20
-3534.421052815305
 40
4.89912468694
100
AcDbArc
 50
-124.228495803079
 51
-65.979322918969
  0
ARC
  5
453
100
AcDbEntity
  8
1
  6
CONTINUOUS
 62
           7
100
AcDbCircle
 10
-336.111480303257
 20
-3521.168665177034
 40
18.151494223969
100
AcDbArc
 50
-107.587953773994
 51
-72.412046226008
  0
ARC
  5
452
100
AcDbEntity
  8
1
  6
CONTINUOUS
 62
           7
100
AcDbCircle
 10
-344.352039302284
 20
-3534.421052815303
 40
4.899124686941
100
AcDbArc
 50
-114.020677081025
 51
-55.771504196943
  0
ARC
  5
451
100
AcDbEntity
  8
1
  6
CONTINUOUS
 62
           7
100
AcDbCircle
 10
-327.922377479321
 20
-3510.180148176816
 40
4.868533289231
100
AcDbArc
 50
65.979322918973
 51
124.228495803064
  0
ARC
  5
450
100
AcDbEntity
  8
1
  6
CONTINUOUS
 62
           7
100
AcDbCircle
 10
-336.111480303257
 20
-3523.349784489746
 40
18.03815161395
100
AcDbArc
 50
72.412046226006
 51
107.587953773992
  0
ARC
  5
44F
100
AcDbEntity
  8
1
  6
CONTINUOUS
 62
           7
100
AcDbCircle
 10
-344.300583127193
 20
-3510.180148176816
 40
4.868533289233
100
AcDbArc
 50
55.771504196936
 51
114.02067708103
  0
ARC
  5
44E
100
AcDbEntity
  8
1
  6
CONTINUOUS
 62
           7
100
AcDbCircle
 10
-327.922377479321
 20
-3505.443117574777
 40
4.868533289233
100
AcDbArc
 50
-124.228495803064
 51
-65.979322918976
  0
ARC
  5
44D
100
AcDbEntity
  8
1
  6
CONTINUOUS
 62
           7
100
AcDbCircle
 10
-336.111480303257
 20
-3492.273481261847
 40
18.03815161395
100
AcDbArc
 50
-107.587953773992
 51
-72.412046226006
  0
ARC
  5
44C
100
AcDbEntity
  8
1
  6
CONTINUOUS
 62
           7
100
AcDbCircle
 10
-344.300583127193
 20
-3505.443117574777
 40
4.868533289232
100
AcDbArc
 50
-114.020677081028
 51
-55.771504196936
  0
ARC
  5
44B
100
AcDbEntity
  8
1
  6
CONTINUOUS
 62
           7
100
AcDbCircle
 10
-375.111480303257
 20
-3553.557934348967
 40
5.0
100
AcDbArc
 50
-22.331645009229
 51
0.0
  0
ARC
  5
44A
100
AcDbEntity
  8
1
  6
CONTINUOUS
 62
           7
100
AcDbCircle
 10
-353.111480303257
 20
-3553.557934348967
 40
5.0
100
AcDbArc
 50
180.0
 51
-157.668354990771
  0
ARC
  5
449
100
AcDbEntity
  8
1
  6
CONTINUOUS
 62
           7
100
AcDbCircle
 10
-375.318060341904
 20
-3524.619424568223
 40
3.344055699641
100
AcDbArc
 50
-146.651148010415
 51
-86.651148010413
  0
ARC
  5
448
100
AcDbEntity
  8
1
  6
CONTINUOUS
 62
           7
100
AcDbCircle
 10
-375.318060341904
 20
-3550.296115168105
 40
3.344055699641
100
AcDbArc
 50
86.651148010413
 51
146.651148010415
  0
ARC
  5
447
100
AcDbEntity
  8
1
  6
CONTINUOUS
 62
           7
100
AcDbCircle
 10
380.709153268146
 20
-3821.32163938589
 40
41.268838817895
100
AcDbArc
 50
4.131638900522
 51
4.217724128344
  0
ARC
  5
446
100
AcDbEntity
  8
1
  6
CONTINUOUS
 62
           7
100
AcDbCircle
 10
408.158996534268
 20
-3819.297311460595
 40
13.744453286447
100
AcDbArc
 50
4.217724128344
 51
4.476107104897
  0
ARC
  5
445
100
AcDbEntity
  8
1
  6
CONTINUOUS
 62
           7
100
AcDbCircle
 10
413.658416692252
 20
-3818.866805148178
 40
8.228208389865
100
AcDbArc
 50
4.476107104895
 51
4.907406325798
  0
ARC
  5
444
100
AcDbEntity
  8
1
  6
CONTINUOUS
 62
           7
100
AcDbCircle
 10
416.017943174042
 20
-3818.664215123678
 40
5.860000642158
100
AcDbArc
 50
4.907406325799
 51
5.512404899904
  0
ARC
  5
443
100
AcDbEntity
  8
1
  6
CONTINUOUS
 62
           7
100
AcDbCircle
 10
417.330824215951
 20
-3818.537512169273
 40
4.541019873209
100
AcDbArc
 50
5.512404899909
 51
6.292194564825
  0
ARC
  5
442
100
AcDbEntity
  8
1
  6
CONTINUOUS
 62
           7
100
AcDbCircle
 10
418.165848684188
 20
-3818.445439750333
 40
3.700934643673
100
AcDbArc
 50
6.292194564804
 51
7.247751819392
  0
ARC
  5
441
100
AcDbEntity
  8
1
  6
CONTINUOUS
 62
           7
100
AcDbCircle
 10
418.742600090088
 20
-3818.37209070106
 40
3.119537819433
100
AcDbArc
 50
7.247751819411
 51
8.379979147874
  0
ARC
  5
440
100
AcDbEntity
  8
1
  6
CONTINUOUS
 62
           7
100
AcDbCircle
 10
419.16255663692
 20
-3818.310226851035
 40
2.69504914212
100
AcDbArc
 50
8.379979147868
 51
9.689173972998
  0
ARC
  5
43F
100
AcDbEntity
  8
1
  6
CONTINUOUS
 62
           7
100
AcDbCircle
 10
419.479795430472
 20
-3818.256061922605
 40
2.373219541855
100
AcDbArc
 50
9.689173972991
 51
11.174962237843
  0
ARC
  5
43E
100
AcDbEntity
  8
1
  6
CONTINUOUS
 62
           7
100
AcDbCircle
 10
419.725027101873
 20
-3818.207616100079
 40
2.123248402764
100
AcDbArc
 50
11.17496223784
 51
12.835666830581
  0
ARC
  5
43D
100
AcDbEntity
  8
1
  6
CONTINUOUS
 62
           7
100
AcDbCircle
 10
419.830662815216
 20
-3818.183547092154
 40
2.01490533157
100
AcDbArc
 50
12.835666830572
 51
14.637494438
  0
ARC
  5
43C
100
AcDbEntity
  8
1
  6
CONTINUOUS
 62
           7
100
AcDbCircle
 10
419.647170364507
 20
-3818.231471542379
 40
2.204552984855
100
AcDbArc
 50
14.63749443801
 51
16.286141450565
  0
ARC
  5
43B
100
AcDbEntity
  8
1
  6
CONTINUOUS
 62
           7
100
AcDbCircle
 10
419.658463832097
 20
-3818.228172066351
 40
2.192787401474
100
AcDbArc
 50
16.286141450584
 51
17.945692524228
  0
ARC
  5
43A
100
AcDbEntity
  8
1
  6
CONTINUOUS
 62
           7
100
AcDbCircle
 10
419.447264598558
 20
-3818.296573607264
 40
2.414787147076
100
AcDbArc
 50
17.945692524236
 51
19.454572751986
  0
ARC
  5
439
100
AcDbEntity
  8
1
  6
CONTINUOUS
 62
           7
100
AcDbCircle
 10
419.46560475581
 20
-3818.290095376906
 40
2.395336470054
100
AcDbArc
 50
19.454572751986
 51
20.97751919962
  0
ARC
  5
438
100
AcDbEntity
  8
1
  6
CONTINUOUS
 62
           7
100
AcDbCircle
 10
419.224118722434
 20
-3818.382684484399
 40
2.653964092596
100
AcDbArc
 50
20.977519199616
 51
22.353460659134
  0
ARC
  5
437
100
AcDbEntity
  8
1
  6
CONTINUOUS
 62
           7
100
AcDbCircle
 10
419.254103533626
 20
-3818.370354120771
 40
2.621543007337
100
AcDbArc
 50
22.353460659118
 51
23.747505712607
  0
ARC
  5
436
100
AcDbEntity
  8
1
  6
CONTINUOUS
 62
           7
100
AcDbCircle
 10
418.979238912105
 20
-3818.491283166563
 40
2.921833523804
100
AcDbArc
 50
23.747505712623
 51
24.998839340257
  0
ARC
  5
435
100
AcDbEntity
  8
1
  6
CONTINUOUS
 62
           7
100
AcDbCircle
 10
419.025980851165
 20
-3818.469488195168
 40
2.870259987516
100
AcDbArc
 50
24.998839340269
 51
26.272727356651
  0
ARC
  5
434
100
AcDbEntity
  8
1
  6
CONTINUOUS
 62
           7
100
AcDbCircle
 10
418.714021031628
 20
-3818.62348362127
 40
3.218158708793
100
AcDbArc
 50
26.272727356617
 51
27.408428357621
  0
ARC
  5
433
100
AcDbEntity
  8
1
  6
CONTINUOUS
 62
           7
100
AcDbCircle
 10
418.732055102164
 20
-3818.614132281092
 40
3.197844298557
100
AcDbArc
 50
27.40842835763
 51
33.399118829024
  0
ARC
  5
432
100
AcDbEntity
  8
1
  6
CONTINUOUS
 62
           7
100
AcDbCircle
 10
418.571491459673
 20
-3818.720000953469
 40
3.390169177553
100
AcDbArc
 50
33.399118829016
 51
39.039734449294
  0
ARC
  5
431
100
AcDbEntity
  8
1
  6
CONTINUOUS
 62
           7
100
AcDbCircle
 10
418.551385293719
 20
-3818.736305705664
 40
3.416055522477
100
AcDbArc
 50
39.039734449293
 51
41.416746313122
  0
ARC
  5
430
100
AcDbEntity
  8
1
  6
CONTINUOUS
 62
           7
100
AcDbCircle
 10
418.325346135228
 20
-3818.935703477154
 40
3.717474122511
100
AcDbArc
 50
41.416746313142
 51
43.601820872262
  0
ARC
  5
42F
100
AcDbEntity
  8
1
  6
CONTINUOUS
 62
           7
100
AcDbCircle
 10
418.325833016677
 20
-3818.935239796709
 40
3.716801773569
100
AcDbArc
 50
43.601820872245
 51
45.788189043327
  0
ARC
  5
42E
100
AcDbEntity
  8
1
  6
CONTINUOUS
 62
           7
100
AcDbCircle
 10
418.086092364919
 20
-3819.181668861131
 40
4.060608207332
100
AcDbArc
 50
45.788189043326
 51
47.789944644869
  0
ARC
  5
42D
100
AcDbEntity
  8
1
  6
CONTINUOUS
 62
           7
100
AcDbCircle
 10
418.099765044963
 20
-3819.166595312934
 40
4.040257432535
100
AcDbArc
 50
47.789944644871
 51
49.801668297509
  0
ARC
  5
42C
100
AcDbEntity
  8
1
  6
CONTINUOUS
 62
           7
100
AcDbCircle
 10
417.880289802042
 20
-3819.426324530231
 40
4.38029956018
100
AcDbArc
 50
49.801668297517
 51
52.756563031228
  0
ARC
  5
42B
100
AcDbEntity
  8
1
  6
CONTINUOUS
 62
           7
100
AcDbCircle
 10
417.812945819347
 20
-3819.514907421046
 40
4.491574627245
100
AcDbArc
 50
52.756563031228
 51
55.637531580366
  0
ARC
  5
42A
100
AcDbEntity
  8
1
  6
CONTINUOUS
 62
           7
100
AcDbCircle
 10
417.609923463664
 20
-3819.811831142861
 40
4.851271407163
100
AcDbArc
 50
55.637531580372
 51
58.30479701868
  0
ARC
  5
429
100
AcDbEntity
  8
1
  6
CONTINUOUS
 62
           7
100
AcDbCircle
 10
417.550244997888
 20
-3819.908476911425
 40
4.964858043079
100
AcDbArc
 50
58.304797018675
 51
61.006892595312
  0
ARC
  5
428
100
AcDbEntity
  8
1
  6
CONTINUOUS
 62
           7
100
AcDbCircle
 10
417.373629288815
 20
-3820.227190500089
 40
5.329236226139
100
AcDbArc
 50
61.006892595311
 51
63.568912296043
  0
ARC
  5
427
100
AcDbEntity
  8
1
  6
CONTINUOUS
 62
           7
100
AcDbCircle
 10
417.331317393224
 20
-3820.312311264119
 40
5.424293266791
100
AcDbArc
 50
63.568912296041
 51
66.086251831495
  0
ARC
  5
426
100
AcDbEntity
  8
1
  6
CONTINUOUS
 62
           7
100
AcDbCircle
 10
416.252769623529
 20
-3819.992987733091
 40
5.06547465983
100
AcDbArc
 50
115.960577472396
 51
118.662269950878
  0
ARC
  5
425
100
AcDbEntity
  8
1
  6
CONTINUOUS
 62
           7
100
AcDbCircle
 10
416.405996083058
 20
-3820.273299648235
 40
5.384932196401
100
AcDbArc
 50
118.66226995088
 51
121.160725092746
  0
ARC
  5
424
100
AcDbEntity
  8
1
  6
CONTINUOUS
 62
           7
100
AcDbCircle
 10
415.956194359922
 20
-3819.529438452981
 40
4.515650269786
100
AcDbArc
 50
121.160725092735
 51
123.077607567803
  0
ARC
  5
423
100
AcDbEntity
  8
1
  6
CONTINUOUS
 62
           7
100
AcDbCircle
 10
416.247405994513
 20
-3819.976538055047
 40
5.049225260099
100
AcDbArc
 50
123.077607567812
 51
124.79162051232
  0
ARC
  5
422
100
AcDbEntity
  8
1
  6
CONTINUOUS
 62
           7
100
AcDbCircle
 10
415.741797091475
 20
-3819.248835109582
 40
4.163114691564
100
AcDbArc
 50
124.791620512318
 51
126.869509885849
  0
ARC
  5
421
100
AcDbEntity
  8
1
  6
CONTINUOUS
 62
           7
100
AcDbCircle
 10
415.999887590015
 20
-3819.592960626225
 40
4.593269404013
100
AcDbArc
 50
126.869509885845
 51
128.751586738313
  0
ARC
  5
420
100
AcDbEntity
  8
1
  6
CONTINUOUS
 62
           7
100
AcDbCircle
 10
415.620566328052
 20
-3819.120362941245
 40
3.987271721157
100
AcDbArc
 50
128.751586738316
 51
134.935905842582
  0
ARC
  5
41F
100
AcDbEntity
  8
1
  6
CONTINUOUS
 62
           7
100
AcDbCircle
 10
415.649464760595
 20
-3819.149326100922
 40
4.028186070986
100
AcDbArc
 50
134.935905842579
 51
142.872045314049
  0
ARC
  5
41E
100
AcDbEntity
  8
1
  6
CONTINUOUS
 62
           7
100
AcDbCircle
 10
414.072667703732
 20
-3817.955594048113
 40
2.050489134538
100
AcDbArc
 50
142.872045314052
 51
144.752180559178
  0
ARC
  5
41D
100
AcDbEntity
  8
1
  6
CONTINUOUS
 62
           7
100
AcDbCircle
 10
416.909839150485
 20
-3819.960546681669
 40
5.5245900083
100
AcDbArc
 50
144.752180559175
 51
145.449079608318
  0
ARC
  5
41C
100
AcDbEntity
  8
1
  6
CONTINUOUS
 62
           7
100
AcDbCircle
 10
413.8974718714
 20
-3817.886259845576
 40
1.867128798323
100
AcDbArc
 50
145.449079608336
 51
147.507626537733
  0
ARC
  5
41B
100
AcDbEntity
  8
1
  6
CONTINUOUS
 62
           7
100
AcDbCircle
 10
415.994218925148
 20
-3819.221642704247
 40
4.353008036466
100
AcDbArc
 50
147.507626537707
 51
148.388721313786
  0
ARC
  5
41A
100
AcDbEntity
  8
1
  6
CONTINUOUS
 62
           7
100
AcDbCircle
 10
413.736640197265
 20
-3817.832158328505
 40
1.702097147164
100
AcDbArc
 50
148.388721313806
 51
150.637005398748
  0
ARC
  5
419
100
AcDbEntity
  8
1
  6
CONTINUOUS
 62
           7
100
AcDbCircle
 10
415.345532197092
 20
-3818.737353825659
 40
3.548150330357
100
AcDbArc
 50
150.637005398736
 51
151.712907281801
  0
ARC
  5
418
100
AcDbEntity
  8
1
  6
CONTINUOUS
 62
           7
100
AcDbCircle
 10
413.867860940311
 20
-3817.942139169528
 40
1.870092318117
100
AcDbArc
 50
151.712907281787
 51
157.531203893246
  0
ARC
  5
417
100
AcDbEntity
  8
1
  6
CONTINUOUS
 62
           7
100
AcDbCircle
 10
415.025812021923
 20
-3818.421039546696
 40
3.123167047995
100
AcDbArc
 50
157.531203893284
 51
159.793994895781
  0
ARC
  5
416
100
AcDbEntity
  8
1
  6
CONTINUOUS
 62
           7
100
AcDbCircle
 10
414.110598039273
 20
-3818.084197454884
 40
2.147934137939
100
AcDbArc
 50
159.793994895772
 51
163.09120680381
  0
ARC
  5
415
100
AcDbEntity
  8
1
  6
CONTINUOUS
 62
           7
100
AcDbCircle
 10
416.473532157671
 20
-3818.802507864252
 40
4.617636041428
100
AcDbArc
 50
163.091206803797
 51
164.630482247134
  0
ARC
  5
414
100
AcDbEntity
  8
1
  6
CONTINUOUS
 62
           7
100
AcDbCircle
 10
414.698431682615
 20
-3818.314579615483
 40
2.776697239488
100
AcDbArc
 50
164.630482247138
 51
167.202175370071
  0
ARC
  5
413
100
AcDbEntity
  8
1
  6
CONTINUOUS
 62
           7
100
AcDbCircle
 10
420.501791723666
 20
-3819.632838958121
 40
8.727898417445
100
AcDbArc
 50
167.202175370078
 51
168.024184316562
  0
ARC
  5
412
100
AcDbEntity
  8
1
  6
CONTINUOUS
 62
           7
100
AcDbCircle
 10
415.737809599633
 20
-3818.622324818254
 40
3.857922595638
100
AcDbArc
 50
168.024184316581
 51
169.892149903889
  0
ARC
  5
411
100
AcDbEntity
  8
1
  6
CONTINUOUS
 62
           7
100
AcDbCircle
 10
465.399832800048
 20
-3827.475498747898
 40
54.302894961446
100
AcDbArc
 50
169.892149903888
 51
170.025339547944
  0
ARC
  5
410
100
AcDbEntity
  8
1
  6
CONTINUOUS
 62
           7
100
AcDbCircle
 10
417.906572153218
 20
-3819.122811155922
 40
6.080729965701
100
AcDbArc
 50
170.025339547952
 51
171.217886023213
  0
ARC
  5
40F
100
AcDbEntity
  8
1
  6
CONTINUOUS
 62
           7
100
AcDbCircle
 10
455.389618765882
 20
-3825.184680694327
 40
44.050654008718
100
AcDbArc
 50
170.869315938234
 51
171.034153616216
  0
ARC
  5
40E
100
AcDbEntity
  8
1
  6
CONTINUOUS
 62
           7
100
AcDbCircle
 10
417.165242147364
 20
-3820.68683870878
 40
5.833990464844
100
AcDbArc
 50
66.086251831497
 51
67.787494876976
  0
ARC
  5
40D
100
AcDbEntity
  8
1
  6
CONTINUOUS
 62
           7
100
AcDbCircle
 10
538.944600921269
 20
-3059.05662747583
 40
53.6
100
AcDbArc
 50
21.692166977154
 51
90.476240727234
  0
ARC
  5
40C
100
AcDbEntity
  8
1
  6
CONTINUOUS
 62
           7
100
AcDbCircle
 10
538.944600921269
 20
-3236.258529536034
 40
53.599999999999
100
AcDbArc
 50
-90.476240727234
 51
-21.692166977152
  0
ARC
  5
40B
100
AcDbEntity
  8
1
  6
CONTINUOUS
 62
           7
100
AcDbCircle
 10
321.270740554242
 20
-3147.657578505932
 40
288.6
100
AcDbArc
 50
-22.207845719206
 51
0.0
  0
ARC
  5
40A
100
AcDbEntity
  8
1
  6
CONTINUOUS
 62
           7
100
AcDbCircle
 10
321.270740554242
 20
-3147.657578505932
 40
288.600000000002
100
AcDbArc
 50
0.0
 51
22.207845719206
  0
ARC
  5
409
100
AcDbEntity
  8
1
  6
CONTINUOUS
 62
           7
100
AcDbCircle
 10
96.796880187218
 20
-3059.05662747583
 40
53.600000000001
100
AcDbArc
 50
89.523759272765
 51
158.307833022846
  0
ARC
  5
408
100
AcDbEntity
  8
1
  6
CONTINUOUS
 62
           7
100
AcDbCircle
 10
314.470740554246
 20
-3147.657578505932
 40
288.600000000001
100
AcDbArc
 50
157.792154280793
 51
180.0
  0
ARC
  5
407
100
AcDbEntity
  8
1
  6
CONTINUOUS
 62
           7
100
AcDbCircle
 10
314.470740554246
 20
-3147.657578505932
 40
288.600000000002
100
AcDbArc
 50
180.0
 51
-157.792154280793
  0
ARC
  5
406
100
AcDbEntity
  8
1
  6
CONTINUOUS
 62
           7
100
AcDbCircle
 10
96.796880187218
 20
-3236.258529536034
 40
53.599999999999
100
AcDbArc
 50
-158.307833022848
 51
-89.523759272765
  0
ARC
  5
405
100
AcDbEntity
  8
1
  6
CONTINUOUS
 62
           7
100
AcDbCircle
 10
397.798989402171
 20
-3147.657578505932
 40
10.849999999999
100
AcDbArc
 50
-90.0
 51
90.0
  0
ARC
  5
404
100
AcDbEntity
  8
1
  6
CONTINUOUS
 62
           7
100
AcDbCircle
 10
219.498989402171
 20
-3147.657578505932
 40
10.849999999999
100
AcDbArc
 50
90.0
 51
-90.0
  0
ARC
  5
403
100
AcDbEntity
  8
1
  6
CONTINUOUS
 62
           7
100
AcDbCircle
 10
138.870740554244
 20
-3069.657578505932
 40
11.5
100
AcDbArc
 50
0.0
 51
33.471408254256
  0
ARC
  5
402
100
AcDbEntity
  8
1
  6
CONTINUOUS
 62
           7
100
AcDbCircle
 10
138.870740554244
 20
-3069.657578505932
 40
11.500000000001
100
AcDbArc
 50
146.528591745743
 51
0.0
  0
ARC
  5
401
100
AcDbEntity
  8
1
  6
CONTINUOUS
 62
           7
100
AcDbCircle
 10
151.709085854185
 20
-3064.120998467285
 40
3.344055699641
100
AcDbArc
 50
123.348851989588
 51
-176.651148010412
  0
ARC
  5
400
100
AcDbEntity
  8
1
  6
CONTINUOUS
 62
           7
100
AcDbCircle
 10
126.032395254303
 20
-3064.120998467285
 40
3.344055699641
100
AcDbArc
 50
-3.348851989588
 51
56.651148010413
  0
ARC
  5
3FF
100
AcDbEntity
  8
1
  6
CONTINUOUS
 62
           7
100
AcDbCircle
 10
496.870740554244
 20
-3197.657578505932
 40
11.5
100
AcDbArc
 50
-33.91647459779
 51
0.0
  0
ARC
  5
3FE
100
AcDbEntity
  8
1
  6
CONTINUOUS
 62
           7
100
AcDbCircle
 10
496.870740554244
 20
-3197.657578505932
 40
11.5
100
AcDbArc
 50
0.0
 51
-146.08352540221
  0
ARC
  5
3FD
100
AcDbEntity
  8
1
  6
CONTINUOUS
 62
           7
100
AcDbCircle
 10
484.032395254303
 20
-3203.503985882205
 40
3.344055699643
100
AcDbArc
 50
-56.651148010439
 51
3.348851989588
  0
ARC
  5
3FC
100
AcDbEntity
  8
1
  6
CONTINUOUS
 62
           7
100
AcDbCircle
 10
509.709085854185
 20
-3203.503985882205
 40
3.344055699641
100
AcDbArc
 50
176.651148010412
 51
-123.348851989562
  0
ARC
  5
3FB
100
AcDbEntity
  8
1
  6
CONTINUOUS
 62
           7
100
AcDbCircle
 10
501.120740554244
 20
-3228.563112481961
 40
12.275506638402
100
AcDbArc
 50
69.743841999582
 51
110.256158000418
  0
ARC
  5
3FA
100
AcDbEntity
  8
1
  6
CONTINUOUS
 62
           7
100
AcDbCircle
 10
492.620740554244
 20
-3228.563112481961
 40
12.275506638402
100
AcDbArc
 50
69.743841999582
 51
110.256158000418
  0
ARC
  5
3F9
100
AcDbEntity
  8
0
  6
CONTINUOUS
 62
           7
100
AcDbCircle
 10
495.370739854871
 20
-3254.181804632205
 40
3.999999300628
100
AcDbArc
 50
-179.999982648613
 51
-119.999994216228
  0
ARC
  5
3F8
100
AcDbEntity
  8
0
  6
CONTINUOUS
 62
           7
100
AcDbCircle
 10
498.370741253612
 20
-3254.181804632205
 40
3.99999930063
100
AcDbArc
 50
-60.000005783728
 51
-0.000017351386
  0
ARC
  5
3F7
100
AcDbEntity
  8
0
  6
CONTINUOUS
 62
           7
100
AcDbCircle
 10
501.870750854992
 20
-3260.244088002104
 40
3.000010300799
100
AcDbArc
 50
120.000113581113
 51
-179.999659254457
  0
ARC
  5
3F6
100
AcDbEntity
  8
0
  6
CONTINUOUS
 62
           7
100
AcDbCircle
 10
491.870730253492
 20
-3260.244088002104
 40
3.000010300804
100
AcDbArc
 50
-0.000340745543
 51
59.99988641883
  0
ARC
  5
3F5
100
AcDbEntity
  8
0
  6
CONTINUOUS
 62
           7
100
AcDbCircle
 10
496.870740554244
 20
-3274.787505843561
 40
2.0
100
AcDbArc
 50
-90.0
 51
0.0
  0
ARC
  5
3F4
100
AcDbEntity
  8
0
  6
CONTINUOUS
 62
           7
100
AcDbCircle
 10
496.870740554244
 20
-3274.787505843561
 40
2.0
100
AcDbArc
 50
180.0
 51
-90.0
  0
LINE
  5
3F3
100
AcDbEntity
  8
1
  6
CONTINUOUS
 62
           7
100
AcDbLine
 10
98.870740554244
 20
-3839.340400782802
 11
98.870740554244
 21
-3553.340400782803
  0
LINE
  5
3F2
100
AcDbEntity
  8
1
  6
CONTINUOUS
 62
           7
100
AcDbLine
 10
536.870740554244
 20
-3553.740400782802
 11
536.870740554244
 21
-3839.340400782802
  0
LINE
  5
3F1
100
AcDbEntity
  8
1
  6
CONTINUOUS
 62
           7
100
AcDbLine
 10
98.870740554244
 20
-3839.740400782802
 11
98.870740554244
 21
-3836.540400782803
  0
LINE
  5
3F0
100
AcDbEntity
  8
1
  6
CONTINUOUS
 62
           7
100
AcDbLine
 10
98.870740554244
 20
-3836.540400782803
 11
97.600569962026
 21
-3838.740400782802
  0
LINE
  5
3EF
100
AcDbEntity
  8
1
  6
CONTINUOUS
 62
           7
100
AcDbLine
 10
97.24239658066
 20
-3838.739500243081
 11
97.600569962026
 21
-3838.739500243081
  0
LINE
  5
3EE
100
AcDbEntity
  8
1
  6
CONTINUOUS
 62
           7
100
AcDbLine
 10
536.870740554244
 20
-3839.340400782802
 11
536.870740554244
 21
-3696.540400782803
  0
LINE
  5
3ED
100
AcDbEntity
  8
1
  6
CONTINUOUS
 62
           7
100
AcDbLine
 10
536.870740554244
 20
-3553.340400782803
 11
536.870740554244
 21
-3556.540400782803
  0
LINE
  5
3EC
100
AcDbEntity
  8
1
  6
CONTINUOUS
 62
           7
100
AcDbLine
 10
536.870740554244
 20
-3556.540400782803
 11
538.140911146461
 21
-3554.340400782803
  0
LINE
  5
3EB
100
AcDbEntity
  8
1
  6
CONTINUOUS
 62
           7
100
AcDbLine
 10
538.499084527827
 20
-3554.341301322524
 11
538.140911146461
 21
-3554.341301322524
  0
LINE
  5
3EA
100
AcDbEntity
  8
1
  6
CONTINUOUS
 62
           7
100
AcDbLine
 10
536.870740554244
 20
-3836.540400782803
 11
536.870740554244
 21
-3839.740400782802
  0
LINE
  5
3E9
100
AcDbEntity
  8
1
  6
CONTINUOUS
 62
           7
100
AcDbLine
 10
538.140911146461
 20
-3838.740400782802
 11
536.870740554244
 21
-3836.540400782803
  0
LINE
  5
3E8
100
AcDbEntity
  8
1
  6
CONTINUOUS
 62
           7
100
AcDbLine
 10
538.140911146461
 20
-3838.739500243081
 11
538.499084527827
 21
-3838.739500243081
  0
LINE
  5
3E7
100
AcDbEntity
  8
1
  6
CONTINUOUS
 62
           7
100
AcDbLine
 10
536.802857851797
 20
-3553.340400782803
 11
98.870740554244
 21
-3553.340400782803
  0
LINE
  5
3E6
100
AcDbEntity
  8
1
  6
CONTINUOUS
 62
           7
100
AcDbLine
 10
536.870740554244
 20
-3839.740400782802
 11
535.427289061598
 21
-3839.740400782802
  0
LINE
  5
3E5
100
AcDbEntity
  8
1
  6
CONTINUOUS
 62
           7
100
AcDbLine
 10
476.870740554244
 20
-3839.740400782802
 11
158.870740554245
 21
-3839.740400782803
  0
LINE
  5
3E4
100
AcDbEntity
  8
1
  6
CONTINUOUS
 62
           7
100
AcDbLine
 10
100.314192046891
 20
-3839.740400782803
 11
98.938623256691
 21
-3839.740400782803
  0
LINE
  5
3E3
100
AcDbEntity
  8
1
  6
CONTINUOUS
 62
           7
100
AcDbLine
 10
97.603525444249
 20
-3554.345519828176
 11
98.870740554244
 21
-3556.540400782803
  0
LINE
  5
3E2
100
AcDbEntity
  8
1
  6
CONTINUOUS
 62
           7
100
AcDbLine
 10
98.870740554244
 20
-3556.540400782803
 11
98.870740554244
 21
-3553.340400782803
  0
LINE
  5
3E1
100
AcDbEntity
  8
1
  6
CONTINUOUS
 62
           2
100
AcDbLine
 10
140.204238596046
 20
-3523.454361903426
 11
138.870740554244
 21
-3522.653115444555
  0
LINE
  5
3E0
100
AcDbEntity
  8
1
  6
CONTINUOUS
 62
           2
100
AcDbLine
 10
138.870740554244
 20
-3522.653115444555
 11
140.231389363218
 21
-3523.407335395218
  0
LINE
  5
3DF
100
AcDbEntity
  8
1
  6
CONTINUOUS
 62
           2
100
AcDbLine
 10
137.510091745269
 20
-3523.407335395218
 11
138.870740554244
 21
-3522.653115444555
  0
LINE
  5
3DE
100
AcDbEntity
  8
1
  6
CONTINUOUS
 62
           2
100
AcDbLine
 10
138.870740554244
 20
-3522.653115444555
 11
137.537242512441
 21
-3523.454361903426
  0
LINE
  5
3DD
100
AcDbEntity
  8
1
  6
DOT_CENTER
 62
           2
100
AcDbLine
 10
138.870740554244
 20
-3522.653115444555
 11
138.870740554244
 21
-3572.856317430976
  0
LINE
  5
3DC
100
AcDbEntity
  8
1
  6
CONTINUOUS
 62
           2
100
AcDbLine
 10
138.870740554244
 20
-3522.653115444555
 11
138.843589787072
 21
-3521.097649035023
  0
LINE
  5
3DB
100
AcDbEntity
  8
1
  6
CONTINUOUS
 62
           2
100
AcDbLine
 10
138.897891321416
 20
-3521.097649035023
 11
138.870740554244
 21
-3522.653115444555
  0
LINE
  5
3DA
100
AcDbEntity
  8
1
  6
CONTINUOUS
 62
           7
100
AcDbLine
 10
131.870740554244
 20
-3541.136745363727
 11
131.870740554244
 21
-3552.059935742915
  0
LINE
  5
3D9
100
AcDbEntity
  8
1
  6
CONTINUOUS
 62
           7
100
AcDbLine
 10
145.870740554244
 20
-3552.059935742915
 11
145.870740554244
 21
-3541.136745363727
  0
LINE
  5
3D8
100
AcDbEntity
  8
1
  6
CONTINUOUS
 62
           7
100
AcDbLine
 10
131.870740554244
 20
-3552.059935742915
 11
145.870740554244
 21
-3552.059935742915
  0
LINE
  5
3D7
100
AcDbEntity
  8
1
  6
DOT_CENTER
 62
           2
100
AcDbLine
 10
138.870740554244
 20
-3483.099666277189
 11
138.870740554244
 21
-3521.097412093867
  0
LINE
  5
3D6
100
AcDbEntity
  8
1
  6
DOT_CENTER
 62
           2
100
AcDbLine
 10
107.275760479107
 20
-3515.059935742915
 11
171.948903061297
 21
-3515.059935742915
  0
LINE
  5
3D5
100
AcDbEntity
  8
1
  6
DOT_CENTER
 62
           2
100
AcDbLine
 10
134.370740554244
 20
-3527.401108709776
 11
134.370740554244
 21
-3531.663534818799
  0
LINE
  5
3D4
100
AcDbEntity
  8
1
  6
DOT_CENTER
 62
           2
100
AcDbLine
 10
143.370740554244
 20
-3527.44331094848
 11
143.370740554244
 21
-3531.55802922204
  0
LINE
  5
3D3
100
AcDbEntity
  8
1
  6
DOT_CENTER
 62
           2
100
AcDbLine
 10
132.36481256511
 20
-3529.489046587313
 11
145.426405443749
 21
-3529.489046587313
  0
LINE
  5
3D2
100
AcDbEntity
  8
1
  6
CONTINUOUS
 62
           7
100
AcDbLine
 10
125.276688352575
 20
-3528.653987944584
 11
122.605668436378
 21
-3531.325007860781
  0
LINE
  5
3D1
100
AcDbEntity
  8
1
  6
CONTINUOUS
 62
           7
100
AcDbLine
 10
141.282110706457
 20
-3514.400167610149
 11
147.038648570809
 21
-3509.22784375948
  0
LINE
  5
3D0
100
AcDbEntity
  8
1
  6
CONTINUOUS
 62
           7
100
AcDbLine
 10
144.702832537679
 20
-3506.892027726351
 11
139.530508687012
 21
-3512.648565590703
  0
LINE
  5
3CF
100
AcDbEntity
  8
1
  6
CONTINUOUS
 62
           7
100
AcDbLine
 10
137.957662160828
 20
-3517.387227698704
 11
125.414594145558
 21
-3528.657336813713
  0
LINE
  5
3CE
100
AcDbEntity
  8
1
  6
CONTINUOUS
 62
           7
100
AcDbLine
 10
136.543448598455
 20
-3515.973014136331
 11
125.273339483448
 21
-3528.516082151601
  0
LINE
  5
3CD
100
AcDbEntity
  8
1
  6
CONTINUOUS
 62
           7
100
AcDbLine
 10
151.952216006195
 20
-3528.141411194867
 11
155.135812672109
 21
-3531.325007860781
  0
LINE
  5
3CC
100
AcDbEntity
  8
1
  6
CONTINUOUS
 62
           2
100
AcDbLine
 10
138.870740554244
 20
-3558.349935742915
 11
144.708865554244
 21
-3558.349935742915
  0
LINE
  5
3CB
100
AcDbEntity
  8
1
  6
CONTINUOUS
 62
           2
100
AcDbLine
 10
138.870740554244
 20
-3555.676335742917
 11
145.648415554244
 21
-3555.676335742917
  0
LINE
  5
3CA
100
AcDbEntity
  8
1
  6
CONTINUOUS
 62
           7
100
AcDbLine
 10
145.648415554244
 20
-3555.676335742917
 11
145.761428054244
 21
-3552.059935742915
  0
LINE
  5
3C9
100
AcDbEntity
  8
1
  6
CONTINUOUS
 62
           2
100
AcDbLine
 10
144.708865554244
 20
-3558.349935742915
 11
145.648415554244
 21
-3555.676335742917
  0
LINE
  5
3C8
100
AcDbEntity
  8
1
  6
CONTINUOUS
 62
           2
100
AcDbLine
 10
133.032615554244
 20
-3558.349935742915
 11
132.093065554244
 21
-3555.676335742917
  0
LINE
  5
3C7
100
AcDbEntity
  8
1
  6
CONTINUOUS
 62
           2
100
AcDbLine
 10
144.593240554244
 20
-3562.049935742916
 11
144.708865554244
 21
-3558.349935742915
  0
LINE
  5
3C6
100
AcDbEntity
  8
1
  6
CONTINUOUS
 62
           7
100
AcDbLine
 10
145.449240554244
 20
-3562.049935742916
 11
145.648415554244
 21
-3555.676335742917
  0
LINE
  5
3C5
100
AcDbEntity
  8
1
  6
CONTINUOUS
 62
           2
100
AcDbLine
 10
133.148240554244
 20
-3562.049935742916
 11
133.032615554244
 21
-3558.349935742915
  0
LINE
  5
3C4
100
AcDbEntity
  8
1
  6
CONTINUOUS
 62
           7
100
AcDbLine
 10
132.292240554244
 20
-3562.049935742916
 11
131.980053054244
 21
-3552.059935742915
  0
LINE
  5
3C3
100
AcDbEntity
  8
1
  6
CONTINUOUS
 62
           2
100
AcDbLine
 10
133.032615554244
 20
-3558.349935742915
 11
138.870740554244
 21
-3558.349935742915
  0
LINE
  5
3C2
100
AcDbEntity
  8
1
  6
CONTINUOUS
 62
           2
100
AcDbLine
 10
132.093065554244
 20
-3555.676335742917
 11
138.870740554244
 21
-3555.676335742917
  0
LINE
  5
3C1
100
AcDbEntity
  8
1
  6
CONTINUOUS
 62
           7
100
AcDbLine
 10
129.370740554244
 20
-3576.621640512737
 11
129.370740554244
 21
-3562.049935742916
  0
LINE
  5
3C0
100
AcDbEntity
  8
1
  6
CONTINUOUS
 62
           7
100
AcDbLine
 10
129.370740554244
 20
-3562.049935742916
 11
148.370740554244
 21
-3562.049935742916
  0
LINE
  5
3BF
100
AcDbEntity
  8
1
  6
CONTINUOUS
 62
           7
100
AcDbLine
 10
148.370740554244
 20
-3562.049935742916
 11
148.370740554244
 21
-3576.621640512737
  0
LINE
  5
3BE
100
AcDbEntity
  8
1
  6
CONTINUOUS
 62
           7
100
AcDbLine
 10
485.370740554244
 20
-3558.321651352177
 11
485.370740554244
 21
-3548.668118627683
  0
LINE
  5
3BD
100
AcDbEntity
  8
1
  6
CONTINUOUS
 62
           7
100
AcDbLine
 10
485.370740554244
 20
-3548.668118627683
 11
508.370740554244
 21
-3548.668118627683
  0
LINE
  5
3BC
100
AcDbEntity
  8
1
  6
CONTINUOUS
 62
           7
100
AcDbLine
 10
508.370740554244
 20
-3548.668118627683
 11
508.370740554244
 21
-3558.321651352177
  0
LINE
  5
3BB
100
AcDbEntity
  8
1
  6
CONTINUOUS
 62
           7
100
AcDbLine
 10
496.870740554244
 20
-3544.968118627682
 11
488.424115554244
 21
-3544.968118627682
  0
LINE
  5
3BA
100
AcDbEntity
  8
1
  6
CONTINUOUS
 62
           2
100
AcDbLine
 10
504.345740554244
 20
-3548.668118627683
 11
504.461365554244
 21
-3544.968118627682
  0
LINE
  5
3B9
100
AcDbEntity
  8
1
  6
CONTINUOUS
 62
           2
100
AcDbLine
 10
489.395740554244
 20
-3548.668118627683
 11
489.280115554244
 21
-3544.968118627682
  0
LINE
  5
3B8
100
AcDbEntity
  8
1
  6
CONTINUOUS
 62
           7
100
AcDbLine
 10
496.870740554244
 20
-3544.968118627682
 11
505.317365554244
 21
-3544.968118627682
  0
LINE
  5
3B7
100
AcDbEntity
  8
1
  6
CONTINUOUS
 62
           7
100
AcDbLine
 10
488.539740554244
 20
-3548.668118627683
 11
488.363162806621
 21
-3543.017630703769
  0
LINE
  5
3B6
100
AcDbEntity
  8
1
  6
CONTINUOUS
 62
           7
100
AcDbLine
 10
505.201740554244
 20
-3548.668118627683
 11
505.378318301866
 21
-3543.017630703769
  0
LINE
  5
3B5
100
AcDbEntity
  8
1
  6
CONTINUOUS
 62
           7
100
AcDbLine
 10
487.331928054244
 20
-3542.018118627683
 11
488.363162806621
 21
-3543.017630703769
  0
LINE
  5
3B4
100
AcDbEntity
  8
1
  6
CONTINUOUS
 62
           7
100
AcDbLine
 10
506.409553054244
 20
-3542.018118627683
 11
505.378318301866
 21
-3543.017630703769
  0
LINE
  5
3B3
100
AcDbEntity
  8
1
  6
DOT_CENTER
 62
           2
100
AcDbLine
 10
496.870740554244
 20
-3567.921520251264
 11
496.870740554244
 21
-3534.86720873108
  0
LINE
  5
3B2
100
AcDbEntity
  8
1
  6
CONTINUOUS
 62
           7
100
AcDbLine
 10
507.370740554244
 20
-3542.018118627683
 11
506.409553054244
 21
-3542.018118627683
  0
LINE
  5
3B1
100
AcDbEntity
  8
1
  6
CONTINUOUS
 62
           7
100
AcDbLine
 10
486.370740554244
 20
-3542.018118627683
 11
487.331928054244
 21
-3542.018118627683
  0
LINE
  5
3B0
100
AcDbEntity
  8
1
  6
CONTINUOUS
 62
           7
100
AcDbLine
 10
507.370740554244
 20
-3537.018118627683
 11
507.370740554244
 21
-3542.018118627683
  0
LINE
  5
3AF
100
AcDbEntity
  8
1
  6
CONTINUOUS
 62
           7
100
AcDbLine
 10
486.370740554244
 20
-3537.018118627683
 11
507.370740554244
 21
-3537.018118627683
  0
LINE
  5
3AE
100
AcDbEntity
  8
1
  6
CONTINUOUS
 62
           7
100
AcDbLine
 10
486.370740554244
 20
-3542.018118627683
 11
486.370740554244
 21
-3537.018118627683
  0
LINE
  5
3AD
100
AcDbEntity
  8
1
  6
CONTINUOUS
 62
           7
100
AcDbLine
 10
487.331928054244
 20
-3542.018118627683
 11
506.409553054244
 21
-3542.018118627683
  0
LINE
  5
3AC
100
AcDbEntity
  8
1
  6
CONTINUOUS
 62
           7
100
AcDbLine
 10
490.689818416602
 20
-3524.55919075378
 11
489.447376692734
 21
-3521.145610172466
  0
LINE
  5
3AB
100
AcDbEntity
  8
1
  6
CONTINUOUS
 62
           7
100
AcDbLine
 10
490.870740554244
 20
-3529.128283108487
 11
490.870740554244
 21
-3525.585251183757
  0
LINE
  5
3AA
100
AcDbEntity
  8
1
  6
CONTINUOUS
 62
           7
100
AcDbLine
 10
490.682928054244
 20
-3537.018118627683
 11
490.495740554244
 21
-3531.028118627682
  0
LINE
  5
3A9
100
AcDbEntity
  8
1
  6
CONTINUOUS
 62
           7
100
AcDbLine
 10
490.870740554244
 20
-3531.028118627682
 11
502.870740554244
 21
-3531.028118627682
  0
LINE
  5
3A8
100
AcDbEntity
  8
1
  6
CONTINUOUS
 62
           7
100
AcDbLine
 10
503.058553054244
 20
-3537.018118627683
 11
503.245740554244
 21
-3531.028118627682
  0
LINE
  5
3A7
100
AcDbEntity
  8
1
  6
CONTINUOUS
 62
           7
100
AcDbLine
 10
503.245740554244
 20
-3531.028118627682
 11
502.870740554244
 21
-3531.028118627682
  0
LINE
  5
3A6
100
AcDbEntity
  8
1
  6
CONTINUOUS
 62
           7
100
AcDbLine
 10
490.495740554244
 20
-3531.028118627682
 11
490.870740554244
 21
-3531.028118627682
  0
LINE
  5
3A5
100
AcDbEntity
  8
1
  6
CONTINUOUS
 62
           7
100
AcDbLine
 10
502.870740554244
 20
-3525.585251183757
 11
502.870740554244
 21
-3529.128283108487
  0
LINE
  5
3A4
100
AcDbEntity
  8
1
  6
CONTINUOUS
 62
           7
100
AcDbLine
 10
504.294104415754
 20
-3521.145610172466
 11
503.051662691886
 21
-3524.55919075378
  0
LINE
  5
3A3
100
AcDbEntity
  8
0
  6
DOT_CENTER
 62
           2
100
AcDbLine
 10
496.870740554244
 20
-3568.067149584176
 11
496.870740554244
 21
-3484.462545152889
  0
LINE
  5
3A2
100
AcDbEntity
  8
1
  6
DOT_CENTER
 62
           2
100
AcDbLine
 10
481.470740554244
 20
-3513.028118627682
 11
512.270740554244
 21
-3513.028118627682
  0
LINE
  5
3A1
100
AcDbEntity
  8
0
  6
CONTINUOUS
 62
           7
100
AcDbLine
 10
492.870740554244
 20
-3491.933161443701
 11
491.370740554244
 21
-3491.933161443701
  0
LINE
  5
3A0
100
AcDbEntity
  8
0
  6
CONTINUOUS
 62
           7
100
AcDbLine
 10
491.370740554244
 20
-3491.933161443701
 11
491.370740554244
 21
-3498.028161443702
  0
LINE
  5
39F
100
AcDbEntity
  8
0
  6
CONTINUOUS
 62
           7
100
AcDbLine
 10
502.370740554244
 20
-3491.933161443701
 11
502.370740554244
 21
-3498.028161443702
  0
LINE
  5
39E
100
AcDbEntity
  8
0
  6
CONTINUOUS
 62
           7
100
AcDbLine
 10
502.370740554244
 20
-3491.933161443701
 11
500.870740554244
 21
-3491.933161443701
  0
LINE
  5
39D
100
AcDbEntity
  8
0
  6
CONTINUOUS
 62
           7
100
AcDbLine
 10
494.870740554244
 20
-3484.575261443703
 11
494.870740554244
 21
-3492.929161443705
  0
LINE
  5
39C
100
AcDbEntity
  8
0
  6
CONTINUOUS
 62
           7
100
AcDbLine
 10
497.870740554244
 20
-3489.484061443703
 11
495.870740554244
 21
-3489.484061443703
  0
LINE
  5
39B
100
AcDbEntity
  8
0
  6
CONTINUOUS
 62
           7
100
AcDbLine
 10
498.870740554244
 20
-3484.575261443703
 11
498.870740554244
 21
-3492.929161443705
  0
LINE
  5
39A
100
AcDbEntity
  8
0
  6
CONTINUOUS
 62
           7
100
AcDbLine
 10
497.870740554244
 20
-3483.575261443703
 11
495.870740554244
 21
-3483.575261443703
  0
LINE
  5
399
100
AcDbEntity
  8
0
  6
CONTINUOUS
 62
           7
100
AcDbLine
 10
495.120740554244
 20
-3498.028161443702
 11
495.120740554244
 21
-3500.528161443702
  0
LINE
  5
398
100
AcDbEntity
  8
0
  6
CONTINUOUS
 62
           7
100
AcDbLine
 10
498.620740554244
 20
-3498.028161443702
 11
498.620740554244
 21
-3500.528161443702
  0
LINE
  5
397
100
AcDbEntity
  8
0
  6
CONTINUOUS
 62
           7
100
AcDbLine
 10
498.620740554244
 20
-3498.028161443702
 11
502.374540554244
 21
-3498.028161443702
  0
LINE
  5
396
100
AcDbEntity
  8
0
  6
CONTINUOUS
 62
           7
100
AcDbLine
 10
491.370740554244
 20
-3498.028161443702
 11
495.120740554244
 21
-3498.028161443702
  0
LINE
  5
395
100
AcDbEntity
  8
0
  6
CONTINUOUS
 62
           7
100
AcDbLine
 10
491.870740554244
 20
-3503.281461443702
 11
491.870740554244
 21
-3499.202761443705
  0
LINE
  5
394
100
AcDbEntity
  8
0
  6
CONTINUOUS
 62
           7
100
AcDbLine
 10
489.370740554244
 20
-3506.413761443704
 11
489.370740554244
 21
-3499.290061443703
  0
LINE
  5
393
100
AcDbEntity
  8
0
  6
CONTINUOUS
 62
           7
100
AcDbLine
 10
495.120740554244
 20
-3499.089261443701
 11
489.370740554244
 21
-3499.290061443703
  0
LINE
  5
392
100
AcDbEntity
  8
0
  6
CONTINUOUS
 62
           7
100
AcDbLine
 10
498.620740554244
 20
-3499.089261443701
 11
504.370740554244
 21
-3499.290061443703
  0
LINE
  5
391
100
AcDbEntity
  8
0
  6
CONTINUOUS
 62
           7
100
AcDbLine
 10
504.370740554244
 20
-3506.413761443704
 11
504.370740554244
 21
-3499.290061443703
  0
LINE
  5
390
100
AcDbEntity
  8
0
  6
CONTINUOUS
 62
           7
100
AcDbLine
 10
501.870740554244
 20
-3503.281361443702
 11
501.870740554244
 21
-3499.202761443705
  0
LINE
  5
38F
100
AcDbEntity
  8
0
  6
CONTINUOUS
 62
           7
100
AcDbLine
 10
498.620740554244
 20
-3500.528061443701
 11
495.120740554244
 21
-3500.528061443701
  0
LINE
  5
38E
100
AcDbEntity
  8
1
  6
CONTINUOUS
 62
           7
100
AcDbLine
 10
489.370740554244
 20
-3500.518118627683
 11
488.870740554244
 21
-3500.018118627683
  0
LINE
  5
38D
100
AcDbEntity
  8
1
  6
CONTINUOUS
 62
           7
100
AcDbLine
 10
489.370740554244
 20
-3495.518118627683
 11
488.870740554244
 21
-3496.018118627683
  0
LINE
  5
38C
100
AcDbEntity
  8
1
  6
CONTINUOUS
 62
           7
100
AcDbLine
 10
504.370740554244
 20
-3500.518118627683
 11
504.870740554244
 21
-3500.018118627683
  0
LINE
  5
38B
100
AcDbEntity
  8
1
  6
CONTINUOUS
 62
           7
100
AcDbLine
 10
504.370740554244
 20
-3495.518118627683
 11
504.870740554244
 21
-3496.018118627683
  0
LINE
  5
38A
100
AcDbEntity
  8
1
  6
CONTINUOUS
 62
           7
100
AcDbLine
 10
485.901085439641
 20
-3540.178139376858
 11
485.901085439641
 21
-3513.844615208608
  0
LINE
  5
389
100
AcDbEntity
  8
1
  6
CONTINUOUS
 62
           7
100
AcDbLine
 10
507.840395668847
 20
-3512.866624403714
 11
507.840395668847
 21
-3513.844615208608
  0
LINE
  5
388
100
AcDbEntity
  8
1
  6
CONTINUOUS
 62
           2
100
AcDbLine
 10
502.870740554244
 20
-3495.518118627683
 11
502.870740554244
 21
-3499.237678835007
  0
LINE
  5
387
100
AcDbEntity
  8
1
  6
CONTINUOUS
 62
           7
100
AcDbLine
 10
507.840395668847
 20
-3540.178139376858
 11
507.370740554244
 21
-3540.449294883699
  0
LINE
  5
386
100
AcDbEntity
  8
1
  6
CONTINUOUS
 62
           7
100
AcDbLine
 10
507.771898313955
 20
-3507.861326114875
 11
507.771898313955
 21
-3511.17491114049
  0
LINE
  5
385
100
AcDbEntity
  8
1
  6
CONTINUOUS
 62
           7
100
AcDbLine
 10
487.430061003673
 20
-3507.018118627683
 11
487.657711736314
 21
-3507.018118627683
  0
LINE
  5
384
100
AcDbEntity
  8
1
  6
CONTINUOUS
 62
           7
100
AcDbLine
 10
485.969582794533
 20
-3511.17491114049
 11
485.969582794533
 21
-3507.861326114875
  0
LINE
  5
383
100
AcDbEntity
  8
1
  6
CONTINUOUS
 62
           7
100
AcDbLine
 10
507.771898313955
 20
-3511.17491114049
 11
507.718712334862
 21
-3511.205618079837
  0
LINE
  5
382
100
AcDbEntity
  8
1
  6
CONTINUOUS
 62
           7
100
AcDbLine
 10
506.311420104815
 20
-3507.018118627683
 11
507.771898313955
 21
-3507.861326114875
  0
LINE
  5
381
100
AcDbEntity
  8
1
  6
CONTINUOUS
 62
           7
100
AcDbLine
 10
485.969582794533
 20
-3507.861326114875
 11
487.430061003673
 21
-3507.018118627683
  0
LINE
  5
380
100
AcDbEntity
  8
0
  6
CONTINUOUS
 62
           7
100
AcDbLine
 10
488.870740554244
 20
-3500.018118627683
 11
488.870740554244
 21
-3496.018118627683
  0
LINE
  5
37F
100
AcDbEntity
  8
0
  6
CONTINUOUS
 62
           7
100
AcDbLine
 10
504.870740554244
 20
-3500.018118627683
 11
504.870740554244
 21
-3496.018118627683
  0
LINE
  5
37E
100
AcDbEntity
  8
0
  6
CONTINUOUS
 62
           7
100
AcDbLine
 10
494.620740554244
 20
-3488.018118627683
 11
494.870740554244
 21
-3488.018118627683
  0
LINE
  5
37D
100
AcDbEntity
  8
0
  6
CONTINUOUS
 62
           7
100
AcDbLine
 10
502.370740554244
 20
-3495.518118627683
 11
504.370740554244
 21
-3495.518118627683
  0
LINE
  5
37C
100
AcDbEntity
  8
0
  6
CONTINUOUS
 62
           7
100
AcDbLine
 10
491.370740554244
 20
-3495.518118627683
 11
489.370740554244
 21
-3495.518118627683
  0
LINE
  5
37B
100
AcDbEntity
  8
0
  6
CONTINUOUS
 62
           2
100
AcDbLine
 10
491.870740554244
 20
-3499.202761443705
 11
491.870740554244
 21
-3498.028161443702
  0
LINE
  5
37A
100
AcDbEntity
  8
1
  6
CONTINUOUS
 62
           2
100
AcDbLine
 10
492.870740554243
 20
-3498.028161443702
 11
492.870740554243
 21
-3499.167835356746
  0
LINE
  5
379
100
AcDbEntity
  8
0
  6
CONTINUOUS
 62
           2
100
AcDbLine
 10
493.870740554244
 20
-3499.132961443703
 11
493.870740554244
 21
-3498.028161443702
  0
LINE
  5
378
100
AcDbEntity
  8
1
  6
CONTINUOUS
 62
           2
100
AcDbLine
 10
494.870740554243
 20
-3499.097991878484
 11
494.870740554243
 21
-3498.028161443702
  0
LINE
  5
377
100
AcDbEntity
  8
1
  6
CONTINUOUS
 62
           2
100
AcDbLine
 10
498.870740554244
 20
-3498.028161443702
 11
498.870740554244
 21
-3499.097991878484
  0
LINE
  5
376
100
AcDbEntity
  8
1
  6
CONTINUOUS
 62
           2
100
AcDbLine
 10
500.870740554244
 20
-3499.167835356746
 11
500.870740554244
 21
-3498.028161443702
  0
LINE
  5
375
100
AcDbEntity
  8
0
  6
CONTINUOUS
 62
           2
100
AcDbLine
 10
501.870740554244
 20
-3499.202761443705
 11
501.870740554244
 21
-3498.028161443702
  0
LINE
  5
374
100
AcDbEntity
  8
0
  6
CONTINUOUS
 62
           2
100
AcDbLine
 10
503.870740554244
 20
-3499.272600574139
 11
503.870740554244
 21
-3495.518118627683
  0
LINE
  5
373
100
AcDbEntity
  8
1
  6
CONTINUOUS
 62
           2
100
AcDbLine
 10
490.870740554243
 20
-3499.237678835007
 11
490.870740554243
 21
-3495.518118627683
  0
LINE
  5
372
100
AcDbEntity
  8
0
  6
CONTINUOUS
 62
           2
100
AcDbLine
 10
489.870740554244
 20
-3499.272600574139
 11
489.870740554244
 21
-3495.518118627683
  0
LINE
  5
371
100
AcDbEntity
  8
0
  6
CONTINUOUS
 62
           7
100
AcDbLine
 10
499.120740554244
 20
-3490.901407280254
 11
499.120740554244
 21
-3488.018118627683
  0
LINE
  5
370
100
AcDbEntity
  8
0
  6
CONTINUOUS
 62
           7
100
AcDbLine
 10
494.620740554244
 20
-3490.901407280254
 11
494.620740554244
 21
-3488.018118627683
  0
LINE
  5
36F
100
AcDbEntity
  8
0
  6
CONTINUOUS
 62
           7
100
AcDbLine
 10
498.870740554244
 20
-3488.018118627683
 11
499.120740554244
 21
-3488.018118627683
  0
LINE
  5
36E
100
AcDbEntity
  8
1
  6
CONTINUOUS
 62
           7
100
AcDbLine
 10
506.083769372173
 20
-3507.018118627683
 11
506.311420104815
 21
-3507.018118627683
  0
LINE
  5
36D
100
AcDbEntity
  8
1
  6
CONTINUOUS
 62
           7
100
AcDbLine
 10
507.840395668847
 20
-3513.844615208608
 11
507.840395668847
 21
-3540.178139376858
  0
LINE
  5
36C
100
AcDbEntity
  8
1
  6
CONTINUOUS
 62
           7
100
AcDbLine
 10
486.022768773625
 20
-3511.205618079837
 11
485.969582794533
 21
-3511.17491114049
  0
LINE
  5
36B
100
AcDbEntity
  8
1
  6
CONTINUOUS
 62
           7
100
AcDbLine
 10
485.901085439641
 20
-3513.844615208608
 11
485.901085439641
 21
-3512.866624403714
  0
LINE
  5
36A
100
AcDbEntity
  8
1
  6
CONTINUOUS
 62
           7
100
AcDbLine
 10
486.370740554244
 20
-3540.449294883699
 11
485.901085439641
 21
-3540.178139376858
  0
LINE
  5
369
100
AcDbEntity
  8
0
  6
CONTINUOUS
 62
           2
100
AcDbLine
 10
499.870740554244
 20
-3499.132961443703
 11
499.870740554244
 21
-3498.028161443702
  0
LINE
  5
368
100
AcDbEntity
  8
1
  6
DOT_CENTER
 62
           2
100
AcDbLine
 10
496.870740554244
 20
-3498.550732052533
 11
496.870740554244
 21
-3548.272883446655
  0
LINE
  5
367
100
AcDbEntity
  8
1
  6
DOT_CENTER
 62
           2
100
AcDbLine
 10
496.870740554244
 20
-3528.428118627682
 11
496.870740554244
 21
-3497.628118627683
  0
LINE
  5
366
100
AcDbEntity
  8
0
  6
CONTINUOUS
 62
           7
100
AcDbLine
 10
498.870740554244
 20
-3484.575261443703
 11
498.870740554244
 21
-3484.933161443701
  0
LINE
  5
365
100
AcDbEntity
  8
0
  6
CONTINUOUS
 62
           7
100
AcDbLine
 10
494.870740554244
 20
-3484.575261443703
 11
494.870740554244
 21
-3484.933161443701
  0
LINE
  5
364
100
AcDbEntity
  8
0
  6
CONTINUOUS
 62
           7
100
AcDbLine
 10
499.870740554244
 20
-3499.132961443703
 11
499.870740554244
 21
-3498.028161443702
  0
LINE
  5
363
100
AcDbEntity
  8
0
  6
CONTINUOUS
 62
           7
100
AcDbLine
 10
493.870740554244
 20
-3499.132961443703
 11
493.870740554244
 21
-3498.028161443702
  0
LINE
  5
362
100
AcDbEntity
  8
1
  6
CONTINUOUS
 62
           7
100
AcDbLine
 10
-215.111480303257
 20
-3539.457769868164
 11
-215.111480303257
 21
-3551.457769868164
  0
LINE
  5
361
100
AcDbEntity
  8
1
  6
CONTINUOUS
 62
           7
100
AcDbLine
 10
-201.111480303257
 20
-3551.457769868164
 11
-201.111480303257
 21
-3541.457769868164
  0
LINE
  5
360
100
AcDbEntity
  8
1
  6
CONTINUOUS
 62
           2
100
AcDbLine
 10
-208.111480303257
 20
-3555.074169868164
 11
-201.333805303257
 21
-3555.074169868164
  0
LINE
  5
35F
100
AcDbEntity
  8
1
  6
CONTINUOUS
 62
           2
100
AcDbLine
 10
-208.111480303257
 20
-3557.747769868164
 11
-202.273355303257
 21
-3557.747769868164
  0
LINE
  5
35E
100
AcDbEntity
  8
1
  6
CONTINUOUS
 62
           7
100
AcDbLine
 10
-201.220792803257
 20
-3551.457769868164
 11
-201.532980303257
 21
-3561.447769868163
  0
LINE
  5
35D
100
AcDbEntity
  8
1
  6
CONTINUOUS
 62
           2
100
AcDbLine
 10
-202.273355303257
 20
-3557.747769868164
 11
-202.388980303257
 21
-3561.447769868163
  0
LINE
  5
35C
100
AcDbEntity
  8
1
  6
CONTINUOUS
 62
           7
100
AcDbLine
 10
-214.889155303257
 20
-3555.074169868164
 11
-214.689980303257
 21
-3561.447769868163
  0
LINE
  5
35B
100
AcDbEntity
  8
1
  6
CONTINUOUS
 62
           2
100
AcDbLine
 10
-213.949605303257
 20
-3557.747769868164
 11
-213.833980303257
 21
-3561.447769868163
  0
LINE
  5
35A
100
AcDbEntity
  8
1
  6
CONTINUOUS
 62
           2
100
AcDbLine
 10
-201.333805303257
 20
-3555.074169868164
 11
-202.273355303257
 21
-3557.747769868164
  0
LINE
  5
359
100
AcDbEntity
  8
1
  6
CONTINUOUS
 62
           2
100
AcDbLine
 10
-214.889155303257
 20
-3555.074169868164
 11
-213.949605303257
 21
-3557.747769868164
  0
LINE
  5
358
100
AcDbEntity
  8
1
  6
CONTINUOUS
 62
           7
100
AcDbLine
 10
-215.002167803257
 20
-3551.457769868164
 11
-214.889155303257
 21
-3555.074169868164
  0
LINE
  5
357
100
AcDbEntity
  8
1
  6
CONTINUOUS
 62
           2
100
AcDbLine
 10
-214.889155303257
 20
-3555.074169868164
 11
-208.111480303257
 21
-3555.074169868164
  0
LINE
  5
356
100
AcDbEntity
  8
1
  6
CONTINUOUS
 62
           2
100
AcDbLine
 10
-213.949605303257
 20
-3557.747769868164
 11
-208.111480303257
 21
-3557.747769868164
  0
LINE
  5
355
100
AcDbEntity
  8
1
  6
CONTINUOUS
 62
           7
100
AcDbLine
 10
-215.111480303257
 20
-3551.457769868164
 11
-201.111480303257
 21
-3551.457769868164
  0
LINE
  5
354
100
AcDbEntity
  8
1
  6
DOT_CENTER
 62
           2
100
AcDbLine
 10
-208.111480303257
 20
-3572.556362502871
 11
-208.111480303257
 21
-3536.442154378703
  0
LINE
  5
353
100
AcDbEntity
  8
1
  6
CONTINUOUS
 62
           7
100
AcDbLine
 10
-216.711480303257
 20
-3540.457769868164
 11
-215.111480303257
 21
-3540.457769868164
  0
LINE
  5
352
100
AcDbEntity
  8
1
  6
CONTINUOUS
 62
           7
100
AcDbLine
 10
-215.111480303257
 20
-3539.457769868164
 11
-201.111480303257
 21
-3539.457769868164
  0
LINE
  5
351
100
AcDbEntity
  8
1
  6
CONTINUOUS
 62
           7
100
AcDbLine
 10
-217.711480303257
 20
-3489.457769868164
 11
-217.711480303257
 21
-3539.457769868164
  0
LINE
  5
350
100
AcDbEntity
  8
1
  6
CONTINUOUS
 62
           7
100
AcDbLine
 10
-216.711480303257
 20
-3488.457769868164
 11
-201.111480303257
 21
-3488.457769868164
  0
LINE
  5
34F
100
AcDbEntity
  8
1
  6
CONTINUOUS
 62
           7
100
AcDbLine
 10
-191.011480303257
 20
-3540.457769868164
 11
-191.011480303257
 21
-3488.457769868164
  0
LINE
  5
34E
100
AcDbEntity
  8
1
  6
CONTINUOUS
 62
           7
100
AcDbLine
 10
-192.011480303257
 20
-3541.457769868164
 11
-201.111480303257
 21
-3541.457769868164
  0
LINE
  5
34D
100
AcDbEntity
  8
1
  6
CONTINUOUS
 62
           7
100
AcDbLine
 10
-201.111480303257
 20
-3541.457769868164
 11
-201.111480303257
 21
-3487.457769868164
  0
LINE
  5
34C
100
AcDbEntity
  8
1
  6
CONTINUOUS
 62
           7
100
AcDbLine
 10
-192.011480303257
 20
-3487.457769868164
 11
-201.111480303257
 21
-3487.457769868164
  0
LINE
  5
34B
100
AcDbEntity
  8
1
  6
CONTINUOUS
 62
           7
100
AcDbLine
 10
-247.611480303257
 20
-3556.906434085313
 11
-247.611480303257
 21
-3546.961632875796
  0
LINE
  5
34A
100
AcDbEntity
  8
1
  6
CONTINUOUS
 62
           7
100
AcDbLine
 10
-247.611480303257
 20
-3546.961632875796
 11
-224.611480303257
 21
-3546.961632875796
  0
LINE
  5
349
100
AcDbEntity
  8
1
  6
CONTINUOUS
 62
           7
100
AcDbLine
 10
-224.611480303257
 20
-3546.961632875796
 11
-224.611480303257
 21
-3566.268698324786
  0
LINE
  5
348
100
AcDbEntity
  8
1
  6
CONTINUOUS
 62
           7
100
AcDbLine
 10
-219.611480303257
 20
-3569.008838861421
 11
-219.611480303257
 21
-3561.447769868163
  0
LINE
  5
347
100
AcDbEntity
  8
1
  6
CONTINUOUS
 62
           7
100
AcDbLine
 10
-219.611480303257
 20
-3561.447769868163
 11
-196.611480303257
 21
-3561.447769868163
  0
LINE
  5
346
100
AcDbEntity
  8
1
  6
CONTINUOUS
 62
           7
100
AcDbLine
 10
-196.611480303257
 20
-3561.447769868163
 11
-196.611480303257
 21
-3585.770250951184
  0
LINE
  5
345
100
AcDbEntity
  8
1
  6
CONTINUOUS
 62
           7
100
AcDbLine
 10
-242.111480303257
 20
-3516.821632875797
 11
-242.111480303257
 21
-3527.421797356599
  0
LINE
  5
344
100
AcDbEntity
  8
1
  6
CONTINUOUS
 62
           7
100
AcDbLine
 10
-242.486480303257
 20
-3529.321632875797
 11
-242.299292803257
 21
-3535.311632875796
  0
LINE
  5
343
100
AcDbEntity
  8
1
  6
CONTINUOUS
 62
           7
100
AcDbLine
 10
-242.111480303257
 20
-3529.321632875797
 11
-230.111480303257
 21
-3529.321632875797
  0
LINE
  5
342
100
AcDbEntity
  8
1
  6
CONTINUOUS
 62
           7
100
AcDbLine
 10
-242.111480303257
 20
-3529.321632875797
 11
-242.486480303257
 21
-3529.321632875797
  0
LINE
  5
341
100
AcDbEntity
  8
1
  6
CONTINUOUS
 62
           7
100
AcDbLine
 10
-230.111480303257
 20
-3529.321632875797
 11
-229.736480303257
 21
-3529.321632875797
  0
LINE
  5
340
100
AcDbEntity
  8
1
  6
CONTINUOUS
 62
           7
100
AcDbLine
 10
-229.736480303257
 20
-3529.321632875797
 11
-229.923667803257
 21
-3535.311632875796
  0
LINE
  5
33F
100
AcDbEntity
  8
1
  6
CONTINUOUS
 62
           7
100
AcDbLine
 10
-230.111480303257
 20
-3525.821632875797
 11
-230.111480303257
 21
-3527.421797356599
  0
LINE
  5
33E
100
AcDbEntity
  8
1
  6
CONTINUOUS
 62
           7
100
AcDbLine
 10
-222.111480303257
 20
-3520.821632875797
 11
-222.111480303257
 21
-3501.821632875797
  0
LINE
  5
33D
100
AcDbEntity
  8
1
  6
CONTINUOUS
 62
           7
100
AcDbLine
 10
-222.111480303257
 20
-3500.321632875797
 11
-222.111480303257
 21
-3501.821632875797
  0
LINE
  5
33C
100
AcDbEntity
  8
1
  6
CONTINUOUS
 62
           7
100
AcDbLine
 10
-222.111480303257
 20
-3522.321632875797
 11
-222.111480303257
 21
-3520.821632875797
  0
LINE
  5
33B
100
AcDbEntity
  8
1
  6
CONTINUOUS
 62
           7
100
AcDbLine
 10
-227.111480303257
 20
-3501.821632875797
 11
-225.10024401461
 21
-3501.821632875797
  0
LINE
  5
33A
100
AcDbEntity
  8
1
  6
DOT_CENTER
 62
           2
100
AcDbLine
 10
-212.952134730157
 20
-3522.971632875797
 11
-245.407460496684
 21
-3522.971632875797
  0
LINE
  5
339
100
AcDbEntity
  8
1
  6
CONTINUOUS
 62
           7
100
AcDbLine
 10
-217.711480303257
 20
-3500.321632875797
 11
-222.111480303257
 21
-3500.321632875797
  0
LINE
  5
338
100
AcDbEntity
  8
1
  6
CONTINUOUS
 62
           7
100
AcDbLine
 10
-217.711480303257
 20
-3522.321632875797
 11
-222.111480303257
 21
-3522.321632875797
  0
LINE
  5
337
100
AcDbEntity
  8
0
  6
CONTINUOUS
 62
           7
100
AcDbLine
 10
-189.621404226502
 20
-3488.321632875797
 11
-189.621404226502
 21
-3488.821632875797
  0
LINE
  5
336
100
AcDbEntity
  8
0
  6
CONTINUOUS
 62
           7
100
AcDbLine
 10
-185.902504226498
 20
-3493.321632875797
 11
-191.011480303257
 21
-3493.321632875797
  0
LINE
  5
335
100
AcDbEntity
  8
0
  6
CONTINUOUS
 62
           7
100
AcDbLine
 10
-189.621404226502
 20
-3488.321632875797
 11
-191.011480303257
 21
-3488.321632875797
  0
LINE
  5
334
100
AcDbEntity
  8
1
  6
CONTINUOUS
 62
           7
100
AcDbLine
 10
-187.6213542265
 20
-3488.821632875797
 11
-187.002552072981
 21
-3489.178898465708
  0
LINE
  5
333
100
AcDbEntity
  8
0
  6
CONTINUOUS
 62
           7
100
AcDbLine
 10
-185.902504226497
 20
-3494.321632875797
 11
-185.902504226498
 21
-3493.321632875797
  0
LINE
  5
332
100
AcDbEntity
  8
1
  6
CONTINUOUS
 62
           7
100
AcDbLine
 10
-185.902504226498
 20
-3493.321632875797
 11
-187.002552072981
 21
-3492.321632875797
  0
LINE
  5
331
100
AcDbEntity
  8
1
  6
CONTINUOUS
 62
           7
100
AcDbLine
 10
-187.002552072981
 20
-3489.178898465708
 11
-187.002552072981
 21
-3492.321632875797
  0
LINE
  5
330
100
AcDbEntity
  8
1
  6
CONTINUOUS
 62
           7
100
AcDbLine
 10
-187.002552072981
 20
-3492.321632875797
 11
-187.31195314974
 21
-3492.143000080848
  0
LINE
  5
32F
100
AcDbEntity
  8
1
  6
CONTINUOUS
 62
           7
100
AcDbLine
 10
-189.31195314974
 20
-3489.178898465708
 11
-189.31195314974
 21
-3492.321632875797
  0
LINE
  5
32E
100
AcDbEntity
  8
0
  6
CONTINUOUS
 62
           7
100
AcDbLine
 10
-185.621280303257
 20
-3502.321632875797
 11
-184.121280303257
 21
-3502.321632875797
  0
LINE
  5
32D
100
AcDbEntity
  8
0
  6
CONTINUOUS
 62
           7
100
AcDbLine
 10
-182.121480303256
 20
-3516.821632875797
 11
-179.121380303255
 21
-3516.821632875797
  0
LINE
  5
32C
100
AcDbEntity
  8
0
  6
CONTINUOUS
 62
           7
100
AcDbLine
 10
-182.121480303256
 20
-3505.821632875797
 11
-179.121380303255
 21
-3505.821632875797
  0
LINE
  5
32B
100
AcDbEntity
  8
0
  6
CONTINUOUS
 62
           7
100
AcDbLine
 10
-176.661780303256
 20
-3490.250532875796
 11
-173.261080303258
 21
-3490.250532875796
  0
LINE
  5
32A
100
AcDbEntity
  8
0
  6
CONTINUOUS
 62
           7
100
AcDbLine
 10
-175.247580303256
 20
-3491.250532875796
 11
-170.275680303256
 21
-3491.250532875796
  0
LINE
  5
329
100
AcDbEntity
  8
0
  6
CONTINUOUS
 62
           7
100
AcDbLine
 10
-151.100468523425
 20
-3484.823199687726
 11
-151.621380303255
 21
-3481.868732875796
  0
LINE
  5
328
100
AcDbEntity
  8
0
  6
CONTINUOUS
 62
           7
100
AcDbLine
 10
-153.533956459137
 20
-3488.298528671459
 11
-170.275680303256
 21
-3491.250532875796
  0
LINE
  5
327
100
AcDbEntity
  8
0
  6
CONTINUOUS
 62
           7
100
AcDbLine
 10
-151.621380303255
 20
-3481.868732875796
 11
-170.664780303256
 21
-3485.226632875795
  0
LINE
  5
326
100
AcDbEntity
  8
0
  6
CONTINUOUS
 62
           7
100
AcDbLine
 10
-183.732780303257
 20
-3493.179532875796
 11
-183.996380303255
 21
-3493.443032875797
  0
LINE
  5
325
100
AcDbEntity
  8
0
  6
CONTINUOUS
 62
           7
100
AcDbLine
 10
-181.611580303256
 20
-3493.886632875798
 11
-183.535480303257
 21
-3495.810732875795
  0
LINE
  5
324
100
AcDbEntity
  8
0
  6
CONTINUOUS
 62
           7
100
AcDbLine
 10
-185.621380303255
 20
-3496.321632875797
 11
-185.621380303255
 21
-3498.821632875797
  0
LINE
  5
323
100
AcDbEntity
  8
0
  6
CONTINUOUS
 62
           7
100
AcDbLine
 10
-185.621380303255
 20
-3498.821632875797
 11
-184.121480303256
 21
-3498.821632875797
  0
LINE
  5
322
100
AcDbEntity
  8
0
  6
CONTINUOUS
 62
           7
100
AcDbLine
 10
-184.121380303255
 20
-3497.224932875798
 11
-184.121380303255
 21
-3498.821632875797
  0
LINE
  5
321
100
AcDbEntity
  8
0
  6
CONTINUOUS
 62
           7
100
AcDbLine
 10
-185.621380303255
 20
-3496.321632875797
 11
-191.011480303257
 21
-3496.321632875797
  0
LINE
  5
320
100
AcDbEntity
  8
0
  6
CONTINUOUS
 62
           7
100
AcDbLine
 10
-186.117680303256
 20
-3494.321632875797
 11
-191.011480303257
 21
-3494.321632875797
  0
LINE
  5
31F
100
AcDbEntity
  8
0
  6
CONTINUOUS
 62
           7
100
AcDbLine
 10
-188.621480303256
 20
-3496.321632875797
 11
-188.621480303256
 21
-3497.321632875797
  0
LINE
  5
31E
100
AcDbEntity
  8
0
  6
CONTINUOUS
 62
           7
100
AcDbLine
 10
-186.621380303255
 20
-3497.321632875797
 11
-191.011480303257
 21
-3497.321632875797
  0
LINE
  5
31D
100
AcDbEntity
  8
0
  6
CONTINUOUS
 62
           7
100
AcDbLine
 10
-186.621380303255
 20
-3497.321632875797
 11
-186.621380303255
 21
-3501.321632875797
  0
LINE
  5
31C
100
AcDbEntity
  8
0
  6
CONTINUOUS
 62
           2
100
AcDbLine
 10
-173.121380303255
 20
-3517.821632875797
 11
-173.121380303255
 21
-3504.821632875797
  0
LINE
  5
31B
100
AcDbEntity
  8
0
  6
CONTINUOUS
 62
           7
100
AcDbLine
 10
-173.121380303255
 20
-3517.821632875797
 11
-172.121380303255
 21
-3516.821632875797
  0
LINE
  5
31A
100
AcDbEntity
  8
0
  6
CONTINUOUS
 62
           7
100
AcDbLine
 10
-172.121380303255
 20
-3505.821632875797
 11
-173.121380303255
 21
-3504.821632875797
  0
LINE
  5
319
100
AcDbEntity
  8
0
  6
CONTINUOUS
 62
           7
100
AcDbLine
 10
-179.121380303255
 20
-3504.821632875797
 11
-179.121380303255
 21
-3517.821632875797
  0
LINE
  5
318
100
AcDbEntity
  8
0
  6
CONTINUOUS
 62
           7
100
AcDbLine
 10
-173.121380303255
 20
-3517.821632875797
 11
-179.121380303255
 21
-3517.821632875797
  0
LINE
  5
317
100
AcDbEntity
  8
0
  6
CONTINUOUS
 62
           7
100
AcDbLine
 10
-173.121380303255
 20
-3504.821632875797
 11
-179.121380303255
 21
-3504.821632875797
  0
LINE
  5
316
100
AcDbEntity
  8
0
  6
CONTINUOUS
 62
           2
100
AcDbLine
 10
-179.121380303255
 20
-3516.821632875797
 11
-172.121380303255
 21
-3516.821632875797
  0
LINE
  5
315
100
AcDbEntity
  8
0
  6
CONTINUOUS
 62
           2
100
AcDbLine
 10
-179.121380303255
 20
-3505.821632875797
 11
-172.121380303255
 21
-3505.821632875797
  0
LINE
  5
314
100
AcDbEntity
  8
0
  6
CONTINUOUS
 62
           7
100
AcDbLine
 10
-182.121480303256
 20
-3521.321632875797
 11
-184.121380303255
 21
-3521.321632875797
  0
LINE
  5
313
100
AcDbEntity
  8
0
  6
CONTINUOUS
 62
           7
100
AcDbLine
 10
-184.121380303255
 20
-3520.321632875797
 11
-191.011480303257
 21
-3520.321632875797
  0
LINE
  5
312
100
AcDbEntity
  8
0
  6
CONTINUOUS
 62
           7
100
AcDbLine
 10
-184.121380303255
 20
-3501.321632875797
 11
-184.121380303255
 21
-3521.321632875797
  0
LINE
  5
311
100
AcDbEntity
  8
0
  6
CONTINUOUS
 62
           7
100
AcDbLine
 10
-182.121380303255
 20
-3521.321632875797
 11
-182.121480303256
 21
-3501.321632875797
  0
LINE
  5
310
100
AcDbEntity
  8
0
  6
CONTINUOUS
 62
           7
100
AcDbLine
 10
-172.121380303255
 20
-3505.821632875797
 11
-172.121380303255
 21
-3516.821632875797
  0
LINE
  5
30F
100
AcDbEntity
  8
0
  6
CONTINUOUS
 62
           7
100
AcDbLine
 10
-191.011480303257
 20
-3494.321632875797
 11
-185.902504226497
 21
-3494.321632875797
  0
LINE
  5
30E
100
AcDbEntity
  8
1
  6
CONTINUOUS
 62
           7
100
AcDbLine
 10
-191.011480303257
 20
-3488.821632875797
 11
-187.6213542265
 21
-3488.821632875797
  0
LINE
  5
30D
100
AcDbEntity
  8
1
  6
CONTINUOUS
 62
           7
100
AcDbLine
 10
-225.111480303257
 20
-3520.821632875797
 11
-225.10024401461
 21
-3520.821632875797
  0
LINE
  5
30C
100
AcDbEntity
  8
1
  6
CONTINUOUS
 62
           7
100
AcDbLine
 10
-184.121380303255
 20
-3501.321632875797
 11
-182.121480303256
 21
-3501.321632875797
  0
LINE
  5
30B
100
AcDbEntity
  8
1
  6
DOT_CENTER
 62
           2
100
AcDbLine
 10
-191.011480303257
 20
-3511.321632875797
 11
-164.086088618684
 21
-3511.321632875797
  0
LINE
  5
30A
100
AcDbEntity
  8
1
  6
CONTINUOUS
 62
           2
100
AcDbLine
 10
-336.111480303257
 20
-3493.811632875796
 11
-336.111480303257
 21
-3498.811632875796
  0
LINE
  5
309
100
AcDbEntity
  8
1
  6
CONTINUOUS
 62
           7
100
AcDbLine
 10
-343.611480303257
 20
-3498.811632875796
 11
-344.111480303257
 21
-3498.311632875796
  0
LINE
  5
308
100
AcDbEntity
  8
1
  6
CONTINUOUS
 62
           7
100
AcDbLine
 10
-343.611480303257
 20
-3493.811632875796
 11
-344.111480303257
 21
-3494.311632875796
  0
LINE
  5
307
100
AcDbEntity
  8
1
  6
CONTINUOUS
 62
           7
100
AcDbLine
 10
-328.611480303257
 20
-3498.811632875796
 11
-328.111480303257
 21
-3498.311632875796
  0
LINE
  5
306
100
AcDbEntity
  8
1
  6
CONTINUOUS
 62
           7
100
AcDbLine
 10
-328.611480303257
 20
-3493.811632875796
 11
-328.111480303257
 21
-3494.311632875796
  0
LINE
  5
305
100
AcDbEntity
  8
0
  6
DOT_CENTER
 62
           2
100
AcDbLine
 10
-336.111480303257
 20
-3555.256597511513
 11
-336.111480303257
 21
-3482.664059401004
  0
LINE
  5
304
100
AcDbEntity
  8
1
  6
CONTINUOUS
 62
           7
100
AcDbLine
 10
-336.111480303257
 20
-3543.261632875797
 11
-344.558105303257
 21
-3543.261632875797
  0
LINE
  5
303
100
AcDbEntity
  8
1
  6
CONTINUOUS
 62
           7
100
AcDbLine
 10
-327.780480303257
 20
-3546.961632875796
 11
-327.664855303257
 21
-3543.261632875797
  0
LINE
  5
302
100
AcDbEntity
  8
1
  6
CONTINUOUS
 62
           2
100
AcDbLine
 10
-328.636480303257
 20
-3546.961632875796
 11
-328.520855303257
 21
-3543.261632875797
  0
LINE
  5
301
100
AcDbEntity
  8
1
  6
CONTINUOUS
 62
           2
100
AcDbLine
 10
-343.586480303257
 20
-3546.961632875796
 11
-343.702105303257
 21
-3543.261632875797
  0
LINE
  5
300
100
AcDbEntity
  8
1
  6
CONTINUOUS
 62
           7
100
AcDbLine
 10
-344.442480303257
 20
-3546.961632875796
 11
-344.558105303257
 21
-3543.261632875797
  0
LINE
  5
2FF
100
AcDbEntity
  8
1
  6
CONTINUOUS
 62
           2
100
AcDbLine
 10
-343.702105303257
 20
-3543.261632875797
 11
-344.641655303257
 21
-3540.588032875796
  0
LINE
  5
2FE
100
AcDbEntity
  8
1
  6
CONTINUOUS
 62
           7
100
AcDbLine
 10
-344.641655303257
 20
-3540.588032875796
 11
-344.681276349344
 21
-3539.320159401004
  0
LINE
  5
2FD
100
AcDbEntity
  8
1
  6
CONTINUOUS
 62
           7
100
AcDbLine
 10
-327.581305303257
 20
-3540.588032875796
 11
-327.54168425717
 21
-3539.320159401004
  0
LINE
  5
2FC
100
AcDbEntity
  8
1
  6
CONTINUOUS
 62
           2
100
AcDbLine
 10
-327.581305303257
 20
-3540.588032875796
 11
-328.520855303257
 21
-3543.261632875797
  0
LINE
  5
2FB
100
AcDbEntity
  8
1
  6
CONTINUOUS
 62
           7
100
AcDbLine
 10
-336.111480303257
 20
-3543.261632875797
 11
-327.664855303257
 21
-3543.261632875797
  0
LINE
  5
2FA
100
AcDbEntity
  8
1
  6
CONTINUOUS
 62
           7
100
AcDbLine
 10
-327.664855303257
 20
-3543.261632875797
 11
-327.581305303257
 21
-3540.588032875796
  0
LINE
  5
2F9
100
AcDbEntity
  8
1
  6
CONTINUOUS
 62
           7
100
AcDbLine
 10
-344.558105303257
 20
-3543.261632875797
 11
-344.641655303257
 21
-3540.588032875796
  0
LINE
  5
2F8
100
AcDbEntity
  8
1
  6
CONTINUOUS
 62
           7
100
AcDbLine
 10
-347.08113541786
 20
-3538.471653624971
 11
-347.08113541786
 21
-3511.160138651828
  0
LINE
  5
2F7
100
AcDbEntity
  8
1
  6
CONTINUOUS
 62
           7
100
AcDbLine
 10
-325.141825188654
 20
-3511.160138651828
 11
-325.141825188654
 21
-3538.471653624971
  0
LINE
  5
2F6
100
AcDbEntity
  8
1
  6
CONTINUOUS
 62
           2
100
AcDbLine
 10
-342.111480303258
 20
-3498.811632875796
 11
-342.111480303258
 21
-3493.811632875796
  0
LINE
  5
2F5
100
AcDbEntity
  8
1
  6
CONTINUOUS
 62
           2
100
AcDbLine
 10
-340.111480303258
 20
-3493.811632875796
 11
-340.111480303258
 21
-3498.811632875796
  0
LINE
  5
2F4
100
AcDbEntity
  8
1
  6
CONTINUOUS
 62
           2
100
AcDbLine
 10
-338.111480303258
 20
-3498.811632875796
 11
-338.111480303258
 21
-3493.811632875796
  0
LINE
  5
2F3
100
AcDbEntity
  8
1
  6
CONTINUOUS
 62
           2
100
AcDbLine
 10
-334.111480303257
 20
-3493.811632875796
 11
-334.111480303257
 21
-3498.811632875796
  0
LINE
  5
2F2
100
AcDbEntity
  8
1
  6
CONTINUOUS
 62
           2
100
AcDbLine
 10
-332.111480303257
 20
-3498.811632875796
 11
-332.111480303257
 21
-3493.811632875796
  0
LINE
  5
2F1
100
AcDbEntity
  8
1
  6
CONTINUOUS
 62
           2
100
AcDbLine
 10
-330.111480303257
 20
-3493.811632875796
 11
-330.111480303257
 21
-3498.811632875796
  0
LINE
  5
2F0
100
AcDbEntity
  8
1
  6
CONTINUOUS
 62
           7
100
AcDbLine
 10
-345.611480303257
 20
-3510.311632875796
 11
-326.611480303257
 21
-3510.311632875796
  0
LINE
  5
2EF
100
AcDbEntity
  8
1
  6
CONTINUOUS
 62
           7
100
AcDbLine
 10
-325.141825188654
 20
-3538.471653624971
 11
-326.611480303257
 21
-3539.320159401004
  0
LINE
  5
2EE
100
AcDbEntity
  8
1
  6
CONTINUOUS
 62
           7
100
AcDbLine
 10
-326.611480303257
 20
-3510.311632875796
 11
-325.141825188654
 21
-3511.160138651828
  0
LINE
  5
2ED
100
AcDbEntity
  8
1
  6
CONTINUOUS
 62
           7
100
AcDbLine
 10
-347.08113541786
 20
-3511.160138651828
 11
-345.611480303257
 21
-3510.311632875796
  0
LINE
  5
2EC
100
AcDbEntity
  8
1
  6
CONTINUOUS
 62
           7
100
AcDbLine
 10
-345.611480303257
 20
-3539.320159401004
 11
-347.08113541786
 21
-3538.471653624971
  0
LINE
  5
2EB
100
AcDbEntity
  8
1
  6
CONTINUOUS
 62
           7
100
AcDbLine
 10
-345.611480303257
 20
-3539.320159401004
 11
-326.611480303257
 21
-3539.320159401004
  0
LINE
  5
2EA
100
AcDbEntity
  8
1
  6
CONTINUOUS
 62
           7
100
AcDbLine
 10
-330.660901423402
 20
-3509.468425388605
 11
-330.660901423402
 21
-3506.154840362988
  0
LINE
  5
2E9
100
AcDbEntity
  8
1
  6
CONTINUOUS
 62
           7
100
AcDbLine
 10
-341.562059183112
 20
-3509.468425388605
 11
-341.562059183112
 21
-3506.154840362988
  0
LINE
  5
2E8
100
AcDbEntity
  8
1
  6
CONTINUOUS
 62
           7
100
AcDbLine
 10
-325.210322543546
 20
-3506.154840362988
 11
-325.210322543546
 21
-3509.468425388605
  0
LINE
  5
2E7
100
AcDbEntity
  8
1
  6
CONTINUOUS
 62
           7
100
AcDbLine
 10
-345.552159853828
 20
-3505.311632875796
 11
-326.670800752686
 21
-3505.311632875796
  0
LINE
  5
2E6
100
AcDbEntity
  8
1
  6
CONTINUOUS
 62
           7
100
AcDbLine
 10
-347.012638062968
 20
-3509.468425388605
 11
-347.012638062968
 21
-3506.154840362988
  0
LINE
  5
2E5
100
AcDbEntity
  8
1
  6
CONTINUOUS
 62
           7
100
AcDbLine
 10
-325.210322543546
 20
-3509.468425388605
 11
-326.670800752686
 21
-3510.311632875796
  0
LINE
  5
2E4
100
AcDbEntity
  8
1
  6
CONTINUOUS
 62
           7
100
AcDbLine
 10
-326.670800752686
 20
-3505.311632875796
 11
-325.210322543546
 21
-3506.154840362988
  0
LINE
  5
2E3
100
AcDbEntity
  8
1
  6
CONTINUOUS
 62
           7
100
AcDbLine
 10
-347.012638062968
 20
-3506.154840362988
 11
-345.552159853828
 21
-3505.311632875796
  0
LINE
  5
2E2
100
AcDbEntity
  8
1
  6
CONTINUOUS
 62
           7
100
AcDbLine
 10
-345.552159853828
 20
-3510.311632875796
 11
-347.012638062968
 21
-3509.468425388605
  0
LINE
  5
2E1
100
AcDbEntity
  8
0
  6
CONTINUOUS
 62
           2
100
AcDbLine
 10
-337.111480303257
 20
-3498.811632875796
 11
-337.111480303257
 21
-3493.811632875796
  0
LINE
  5
2E0
100
AcDbEntity
  8
0
  6
CONTINUOUS
 62
           2
100
AcDbLine
 10
-339.111480303257
 20
-3498.811632875796
 11
-339.111480303257
 21
-3493.811632875796
  0
LINE
  5
2DF
100
AcDbEntity
  8
0
  6
CONTINUOUS
 62
           2
100
AcDbLine
 10
-341.111480303257
 20
-3498.811632875796
 11
-341.111480303257
 21
-3493.811632875796
  0
LINE
  5
2DE
100
AcDbEntity
  8
0
  6
CONTINUOUS
 62
           2
100
AcDbLine
 10
-343.111480303257
 20
-3498.811632875796
 11
-343.111480303257
 21
-3493.811632875796
  0
LINE
  5
2DD
100
AcDbEntity
  8
0
  6
CONTINUOUS
 62
           7
100
AcDbLine
 10
-336.111480303257
 20
-3500.811632875796
 11
-343.361480303257
 21
-3500.811632875796
  0
LINE
  5
2DC
100
AcDbEntity
  8
0
  6
CONTINUOUS
 62
           7
100
AcDbLine
 10
-336.111480303257
 20
-3498.811632875796
 11
-343.611480303257
 21
-3498.811632875796
  0
LINE
  5
2DB
100
AcDbEntity
  8
0
  6
CONTINUOUS
 62
           7
100
AcDbLine
 10
-336.111480303257
 20
-3493.811632875796
 11
-343.611480303257
 21
-3493.811632875796
  0
LINE
  5
2DA
100
AcDbEntity
  8
0
  6
CONTINUOUS
 62
           7
100
AcDbLine
 10
-343.361480303257
 20
-3498.811632875796
 11
-343.361480303257
 21
-3505.311632875796
  0
LINE
  5
2D9
100
AcDbEntity
  8
0
  6
CONTINUOUS
 62
           7
100
AcDbLine
 10
-344.111480303257
 20
-3498.311632875796
 11
-344.111480303257
 21
-3494.311632875796
  0
LINE
  5
2D8
100
AcDbEntity
  8
0
  6
CONTINUOUS
 62
           7
100
AcDbLine
 10
-338.361480303257
 20
-3493.811632875796
 11
-338.361480303257
 21
-3486.311632875796
  0
LINE
  5
2D7
100
AcDbEntity
  8
0
  6
CONTINUOUS
 62
           7
100
AcDbLine
 10
-343.361480303257
 20
-3498.811632875796
 11
-342.361480303257
 21
-3500.811632875796
  0
LINE
  5
2D6
100
AcDbEntity
  8
0
  6
CONTINUOUS
 62
           7
100
AcDbLine
 10
-342.361480303257
 20
-3500.811632875796
 11
-342.361480303257
 21
-3505.311632875796
  0
LINE
  5
2D5
100
AcDbEntity
  8
0
  6
CONTINUOUS
 62
           7
100
AcDbLine
 10
-341.595480303257
 20
-3511.160138651828
 11
-341.595480303257
 21
-3538.471653624971
  0
LINE
  5
2D4
100
AcDbEntity
  8
0
  6
CONTINUOUS
 62
           2
100
AcDbLine
 10
-335.111480303257
 20
-3498.811632875796
 11
-335.111480303257
 21
-3493.811632875796
  0
LINE
  5
2D3
100
AcDbEntity
  8
0
  6
CONTINUOUS
 62
           2
100
AcDbLine
 10
-333.111480303257
 20
-3498.811632875796
 11
-333.111480303257
 21
-3493.811632875796
  0
LINE
  5
2D2
100
AcDbEntity
  8
0
  6
CONTINUOUS
 62
           2
100
AcDbLine
 10
-331.111480303257
 20
-3498.811632875796
 11
-331.111480303257
 21
-3493.811632875796
  0
LINE
  5
2D1
100
AcDbEntity
  8
0
  6
CONTINUOUS
 62
           2
100
AcDbLine
 10
-329.111480303257
 20
-3498.811632875796
 11
-329.111480303257
 21
-3493.811632875796
  0
LINE
  5
2D0
100
AcDbEntity
  8
0
  6
CONTINUOUS
 62
           7
100
AcDbLine
 10
-336.111480303257
 20
-3500.811632875796
 11
-328.861480303257
 21
-3500.811632875796
  0
LINE
  5
2CF
100
AcDbEntity
  8
0
  6
CONTINUOUS
 62
           7
100
AcDbLine
 10
-336.111480303257
 20
-3498.811632875796
 11
-328.611480303257
 21
-3498.811632875796
  0
LINE
  5
2CE
100
AcDbEntity
  8
0
  6
CONTINUOUS
 62
           7
100
AcDbLine
 10
-336.111480303257
 20
-3493.811632875796
 11
-328.611480303257
 21
-3493.811632875796
  0
LINE
  5
2CD
100
AcDbEntity
  8
0
  6
CONTINUOUS
 62
           7
100
AcDbLine
 10
-328.861480303257
 20
-3498.811632875796
 11
-328.861480303257
 21
-3505.311632875796
  0
LINE
  5
2CC
100
AcDbEntity
  8
0
  6
CONTINUOUS
 62
           7
100
AcDbLine
 10
-328.111480303257
 20
-3498.311632875796
 11
-328.111480303257
 21
-3494.311632875796
  0
LINE
  5
2CB
100
AcDbEntity
  8
0
  6
CONTINUOUS
 62
           7
100
AcDbLine
 10
-333.861480303257
 20
-3493.811632875796
 11
-333.861480303257
 21
-3486.311632875796
  0
LINE
  5
2CA
100
AcDbEntity
  8
0
  6
CONTINUOUS
 62
           7
100
AcDbLine
 10
-338.361480303257
 20
-3486.311632875796
 11
-333.861480303257
 21
-3486.311632875796
  0
LINE
  5
2C9
100
AcDbEntity
  8
0
  6
CONTINUOUS
 62
           7
100
AcDbLine
 10
-328.861480303257
 20
-3498.811632875796
 11
-329.861480303257
 21
-3500.811632875796
  0
LINE
  5
2C8
100
AcDbEntity
  8
0
  6
CONTINUOUS
 62
           7
100
AcDbLine
 10
-329.861480303257
 20
-3500.811632875796
 11
-329.861480303257
 21
-3505.311632875796
  0
LINE
  5
2C7
100
AcDbEntity
  8
0
  6
CONTINUOUS
 62
           7
100
AcDbLine
 10
-330.626480303257
 20
-3511.160138651828
 11
-330.626480303257
 21
-3538.471653624971
  0
LINE
  5
2C6
100
AcDbEntity
  8
1
  6
CONTINUOUS
 62
           7
100
AcDbLine
 10
-357.923667803257
 20
-3561.447769868163
 11
-357.736480303257
 21
-3555.457769868164
  0
LINE
  5
2C5
100
AcDbEntity
  8
1
  6
CONTINUOUS
 62
           7
100
AcDbLine
 10
-370.299292803257
 20
-3561.447769868163
 11
-370.486480303257
 21
-3555.457769868164
  0
LINE
  5
2C4
100
AcDbEntity
  8
1
  6
CONTINUOUS
 62
           7
100
AcDbLine
 10
-383.111480303257
 20
-3537.457769868164
 11
-383.111480303257
 21
-3548.457769868164
  0
LINE
  5
2C3
100
AcDbEntity
  8
1
  6
CONTINUOUS
 62
           7
100
AcDbLine
 10
-358.111480303257
 20
-3553.557934348967
 11
-358.111480303257
 21
-3542.957769868164
  0
LINE
  5
2C2
100
AcDbEntity
  8
1
  6
CONTINUOUS
 62
           7
100
AcDbLine
 10
-378.111480303257
 20
-3527.957769868164
 11
-378.111480303257
 21
-3526.457769868164
  0
LINE
  5
2C1
100
AcDbEntity
  8
1
  6
CONTINUOUS
 62
           7
100
AcDbLine
 10
-378.111480303257
 20
-3546.957769868164
 11
-378.111480303257
 21
-3548.457769868164
  0
LINE
  5
2C0
100
AcDbEntity
  8
1
  6
CONTINUOUS
 62
           7
100
AcDbLine
 10
-370.111480303257
 20
-3553.557934348967
 11
-370.111480303257
 21
-3551.957769868164
  0
LINE
  5
2BF
100
AcDbEntity
  8
1
  6
CONTINUOUS
 62
           7
100
AcDbLine
 10
-378.111480303257
 20
-3527.957769868164
 11
-378.111480303257
 21
-3546.957769868164
  0
LINE
  5
2BE
100
AcDbEntity
  8
1
  6
CONTINUOUS
 62
           7
100
AcDbLine
 10
-370.111480303257
 20
-3555.457769868164
 11
-358.111480303257
 21
-3555.457769868164
  0
LINE
  5
2BD
100
AcDbEntity
  8
1
  6
CONTINUOUS
 62
           7
100
AcDbLine
 10
-375.122716591904
 20
-3546.957769868164
 11
-375.111480303257
 21
-3546.957769868164
  0
LINE
  5
2BC
100
AcDbEntity
  8
1
  6
CONTINUOUS
 62
           7
100
AcDbLine
 10
-370.486480303257
 20
-3555.457769868164
 11
-370.111480303257
 21
-3555.457769868164
  0
LINE
  5
2BB
100
AcDbEntity
  8
1
  6
CONTINUOUS
 62
           7
100
AcDbLine
 10
-357.736480303257
 20
-3555.457769868164
 11
-358.111480303257
 21
-3555.457769868164
  0
LINE
  5
2BA
100
AcDbEntity
  8
1
  6
CONTINUOUS
 62
           7
100
AcDbLine
 10
-375.122716591904
 20
-3527.957769868164
 11
-373.111480303257
 21
-3527.957769868164
  0
LINE
  5
2B9
100
AcDbEntity
  8
1
  6
CONTINUOUS
 62
           7
100
AcDbLine
 10
-378.111480303257
 20
-3548.457769868164
 11
-383.111480303257
 21
-3548.457769868164
  0
LINE
  5
2B8
100
AcDbEntity
  8
1
  6
CONTINUOUS
 62
           7
100
AcDbLine
 10
-378.111480303257
 20
-3526.457769868164
 11
-383.111480303257
 21
-3526.457769868164
  0
LINE
  5
2B7
100
AcDbEntity
  8
1
  6
CONTINUOUS
 62
           7
100
AcDbLine
 10
-383.111480303257
 20
-3526.457769868164
 11
-383.111480303257
 21
-3537.457769868164
  0
LINE
  5
2B6
100
AcDbEntity
  8
1
  6
DOT_CENTER
 62
           2
100
AcDbLine
 10
-364.111480303257
 20
-3522.980383293015
 11
-364.111480303257
 21
-3572.702534687136
  0
LINE
  5
2B5
100
AcDbEntity
  8
1
  6
DOT_CENTER
 62
           2
100
AcDbLine
 10
-354.81550010983
 20
-3537.457769868164
 11
-387.270825876357
 21
-3537.457769868164
  0
LINE
  5
2B4
100
AcDbEntity
  8
1
  6
CONTINUOUS
 62
           7
100
AcDbLine
 10
-347.611480303257
 20
-3566.268698324786
 11
-347.611480303257
 21
-3546.961632875796
  0
LINE
  5
2B3
100
AcDbEntity
  8
1
  6
CONTINUOUS
 62
           7
100
AcDbLine
 10
-347.611480303257
 20
-3546.961632875796
 11
-324.611480303257
 21
-3546.961632875796
  0
LINE
  5
2B2
100
AcDbEntity
  8
1
  6
CONTINUOUS
 62
           7
100
AcDbLine
 10
-324.611480303257
 20
-3546.961632875796
 11
-324.611480303257
 21
-3556.906434085313
  0
LINE
  5
2B1
100
AcDbEntity
  8
1
  6
CONTINUOUS
 62
           7
100
AcDbLine
 10
-375.611480303257
 20
-3585.770250951184
 11
-375.611480303257
 21
-3561.447769868163
  0
LINE
  5
2B0
100
AcDbEntity
  8
1
  6
CONTINUOUS
 62
           7
100
AcDbLine
 10
-375.611480303257
 20
-3561.447769868163
 11
-352.611480303257
 21
-3561.447769868163
  0
LINE
  5
2AF
100
AcDbEntity
  8
1
  6
CONTINUOUS
 62
           7
100
AcDbLine
 10
-352.611480303257
 20
-3561.447769868163
 11
-352.611480303257
 21
-3569.008838861421
  0
LINE
  5
2AE
100
AcDbEntity
  8
1
  6
CONTINUOUS
 62
           7
100
AcDbLine
 10
407.371466213938
 20
-3791.080946353857
 11
407.370740554244
 21
-3797.798091851261
  0
LINE
  5
2AD
100
AcDbEntity
  8
1
  6
CONTINUOUS
 62
           7
100
AcDbLine
 10
426.370740547245
 20
-3791.080228438492
 11
426.370740554244
 21
-3797.798091846172
  0
LINE
  5
2AC
100
AcDbEntity
  8
1
  6
DOT_CENTER
 62
           2
100
AcDbLine
 10
416.870740554244
 20
-3819.569838034325
 11
416.870740554244
 21
-3839.223411438619
  0
LINE
  5
2AB
100
AcDbEntity
  8
1
  6
CONTINUOUS
 62
           7
100
AcDbLine
 10
408.602877508244
 20
-3819.569838034325
 11
411.877201434585
 21
-3823.651592928001
  0
LINE
  5
2AA
100
AcDbEntity
  8
1
  6
CONTINUOUS
 62
           7
100
AcDbLine
 10
421.870740554244
 20
-3824.712238835365
 11
421.870740554244
 21
-3818.348292876259
  0
LINE
  5
2A9
100
AcDbEntity
  8
1
  6
CONTINUOUS
 62
           7
100
AcDbLine
 10
411.877201434585
 20
-3824.712234171011
 11
411.877201434585
 21
-3818.31957642834
  0
LINE
  5
2A8
100
AcDbEntity
  8
1
  6
CONTINUOUS
 62
           7
100
AcDbLine
 10
414.120740554244
 20
-3820.347588543902
 11
414.120740554244
 21
-3809.155903913677
  0
LINE
  5
2A7
100
AcDbEntity
  8
1
  6
CONTINUOUS
 62
           7
100
AcDbLine
 10
419.370740554244
 20
-3820.235534240623
 11
419.370740554244
 21
-3809.155903913677
  0
LINE
  5
2A6
100
AcDbEntity
  8
1
  6
CONTINUOUS
 62
           7
100
AcDbLine
 10
414.120740554244
 20
-3827.662741981146
 11
414.120740554244
 21
-3833.904641255205
  0
LINE
  5
2A5
100
AcDbEntity
  8
1
  6
CONTINUOUS
 62
           7
100
AcDbLine
 10
419.370740554244
 20
-3827.774758609349
 11
419.370740554244
 21
-3833.904641255205
  0
LINE
  5
2A4
100
AcDbEntity
  8
1
  6
CONTINUOUS
 62
           7
100
AcDbLine
 10
414.120740554244
 20
-3833.904641255205
 11
419.370740554244
 21
-3833.904641255205
  0
LINE
  5
2A3
100
AcDbEntity
  8
1
  6
CONTINUOUS
 62
           7
100
AcDbLine
 10
411.963340554244
 20
-3811.63077764783
 11
414.120740554244
 21
-3811.63077764783
  0
LINE
  5
2A2
100
AcDbEntity
  8
1
  6
CONTINUOUS
 62
           7
100
AcDbLine
 10
421.778240554244
 20
-3811.63077764783
 11
426.685740554244
 21
-3817.641185287915
  0
LINE
  5
2A1
100
AcDbEntity
  8
1
  6
CONTINUOUS
 62
           7
100
AcDbLine
 10
426.685740554244
 20
-3817.641185287915
 11
421.870740554244
 21
-3823.651592928001
  0
LINE
  5
2A0
100
AcDbEntity
  8
1
  6
CONTINUOUS
 62
           7
100
AcDbLine
 10
411.963340554244
 20
-3811.63077764783
 11
407.055740554244
 21
-3817.641185287915
  0
LINE
  5
29F
100
AcDbEntity
  8
1
  6
CONTINUOUS
 62
           7
100
AcDbLine
 10
407.055740554244
 20
-3817.641185287915
 11
408.602877508244
 21
-3819.569838034325
  0
LINE
  5
29E
100
AcDbEntity
  8
1
  6
CONTINUOUS
 62
           7
100
AcDbLine
 10
414.120740554244
 20
-3809.155903913677
 11
419.370740554244
 21
-3809.155903913677
  0
LINE
  5
29D
100
AcDbEntity
  8
1
  6
CONTINUOUS
 62
           7
100
AcDbLine
 10
419.370740554244
 20
-3811.63077764783
 11
421.778240554244
 21
-3811.63077764783
  0
LINE
  5
29C
100
AcDbEntity
  8
1
  6
CONTINUOUS
 62
           7
100
AcDbLine
 10
414.120740554244
 20
-3812.69143781961
 11
419.370740554244
 21
-3812.69143781961
  0
LINE
  5
29B
100
AcDbEntity
  8
1
  6
CONTINUOUS
 62
           7
100
AcDbLine
 10
414.035344793223
 20
-3815.438642483626
 11
414.120740554244
 21
-3815.403913486029
  0
LINE
  5
29A
100
AcDbEntity
  8
1
  6
CONTINUOUS
 62
           7
100
AcDbLine
 10
421.778240554244
 20
-3793.953108118166
 11
411.963340554244
 21
-3793.953108118166
  0
LINE
  5
299
100
AcDbEntity
  8
1
  6
CONTINUOUS
 62
           7
100
AcDbLine
 10
421.778240554244
 20
-3793.953108118166
 11
426.685740554244
 21
-3799.963515758251
  0
LINE
  5
298
100
AcDbEntity
  8
1
  6
CONTINUOUS
 62
           7
100
AcDbLine
 10
411.963340554244
 20
-3793.953108118166
 11
407.055740554244
 21
-3799.963515758251
  0
LINE
  5
297
100
AcDbEntity
  8
1
  6
CONTINUOUS
 62
           7
100
AcDbLine
 10
407.055740554244
 20
-3799.963515758251
 11
407.055740554244
 21
-3817.641185287915
  0
LINE
  5
296
100
AcDbEntity
  8
1
  6
CONTINUOUS
 62
           7
100
AcDbLine
 10
411.963340554244
 20
-3793.953108118166
 11
411.963340554244
 21
-3811.63077764783
  0
LINE
  5
295
100
AcDbEntity
  8
1
  6
CONTINUOUS
 62
           7
100
AcDbLine
 10
421.778240554244
 20
-3793.953108118166
 11
421.778240554244
 21
-3811.63077764783
  0
LINE
  5
294
100
AcDbEntity
  8
1
  6
CONTINUOUS
 62
           7
100
AcDbLine
 10
426.685740554244
 20
-3799.963515758251
 11
426.685740554244
 21
-3817.641185287915
  0
LINE
  5
293
100
AcDbEntity
  8
1
  6
DOT_CENTER
 62
           2
100
AcDbLine
 10
416.870740554244
 20
-3775.619180195092
 11
416.870740554244
 21
-3819.569838034325
  0
LINE
  5
292
100
AcDbEntity
  8
1
  6
DOT_CENTER
 62
           2
100
AcDbLine
 10
403.499831785344
 20
-3797.798091848716
 11
430.318322691098
 21
-3797.798091848716
  0
LINE
  5
291
100
AcDbEntity
  8
1
  6
CONTINUOUS
 62
           7
100
AcDbLine
 10
407.34448012252
 20
-3817.287561824887
 11
407.055740554244
 21
-3817.287561824887
  0
LINE
  5
290
100
AcDbEntity
  8
1
  6
CONTINUOUS
 62
           7
100
AcDbLine
 10
516.870740554244
 20
-3737.921608374534
 11
356.870740554244
 21
-3737.921608374534
  0
LINE
  5
28F
100
AcDbEntity
  8
1
  6
CONTINUOUS
 62
           7
100
AcDbLine
 10
516.870740554244
 20
-3597.921608374534
 11
516.870740554244
 21
-3737.921608374534
  0
LINE
  5
28E
100
AcDbEntity
  8
1
  6
CONTINUOUS
 62
           7
100
AcDbLine
 10
356.870740554244
 20
-3597.921608374534
 11
516.870740554244
 21
-3597.921608374534
  0
LINE
  5
28D
100
AcDbEntity
  8
1
  6
CONTINUOUS
 62
           7
100
AcDbLine
 10
356.870740554244
 20
-3737.921608374534
 11
356.870740554244
 21
-3597.921608374534
  0
LINE
  5
28C
100
AcDbEntity
  8
1
  6
CONTINUOUS
 62
           7
100
AcDbLine
 10
-178.376131228467
 20
-3790.840721015048
 11
-171.065207004207
 21
-3798.151645239308
  0
LINE
  5
28B
100
AcDbEntity
  8
1
  6
CONTINUOUS
 62
           7
100
AcDbLine
 10
-171.065207004207
 20
-3798.151645239308
 11
-184.500235846751
 21
-3811.586674081853
  0
LINE
  5
28A
100
AcDbEntity
  8
1
  6
CONTINUOUS
 62
           7
100
AcDbLine
 10
-184.500235846751
 20
-3811.586674081853
 11
-191.811160071011
 21
-3804.275749857592
  0
LINE
  5
289
100
AcDbEntity
  8
0
  6
CONTINUOUS
 62
           7
100
AcDbLine
 10
-164.465972409166
 20
-3830.369107349273
 11
-168.355059705692
 21
-3826.480020052745
  0
LINE
  5
288
100
AcDbEntity
  8
0
  6
CONTINUOUS
 62
           7
100
AcDbLine
 10
-168.355059705692
 20
-3826.480020052745
 11
-173.304807173998
 21
-3821.530272584439
  0
LINE
  5
287
100
AcDbEntity
  8
0
  6
CONTINUOUS
 62
           7
100
AcDbLine
 10
-178.961661423491
 20
-3815.873418334947
 11
-181.790088548237
 21
-3813.044991210202
  0
LINE
  5
286
100
AcDbEntity
  8
0
  6
CONTINUOUS
 62
           7
100
AcDbLine
 10
-173.304807173998
 20
-3821.530272584439
 11
-178.961661423491
 21
-3815.873418334947
  0
LINE
  5
285
100
AcDbEntity
  8
0
  6
CONTINUOUS
 62
           7
100
AcDbLine
 10
-180.301628773839
 20
-3810.142317873431
 11
-180.375874985864
 21
-3811.630777647829
  0
LINE
  5
284
100
AcDbEntity
  8
0
  6
CONTINUOUS
 62
           7
100
AcDbLine
 10
-181.012271088932
 20
-3810.852960188524
 11
-173.521766269406
 21
-3803.362455368998
  0
LINE
  5
283
100
AcDbEntity
  8
0
  6
CONTINUOUS
 62
           7
100
AcDbLine
 10
-164.81952579976
 20
-3830.722660739865
 11
-164.465972409166
 21
-3830.369107349273
  0
LINE
  5
282
100
AcDbEntity
  8
0
  6
CONTINUOUS
 62
           7
100
AcDbLine
 10
-166.233739362133
 20
-3830.015553958678
 11
-165.88018597154
 21
-3829.662000568085
  0
LINE
  5
281
100
AcDbEntity
  8
0
  6
CONTINUOUS
 62
           7
100
AcDbLine
 10
-168.001506315099
 20
-3828.247787005713
 11
-167.647952924506
 21
-3827.894233615119
  0
LINE
  5
280
100
AcDbEntity
  8
0
  6
CONTINUOUS
 62
           7
100
AcDbLine
 10
-168.708613096286
 20
-3826.833573443339
 11
-168.355059705692
 21
-3826.480020052745
  0
LINE
  5
27F
100
AcDbEntity
  8
0
  6
CONTINUOUS
 62
           7
100
AcDbLine
 10
-170.476380049252
 20
-3828.601340396305
 11
-169.062166486879
 21
-3827.187126833933
  0
LINE
  5
27E
100
AcDbEntity
  8
0
  6
CONTINUOUS
 62
           7
100
AcDbLine
 10
-166.587292752726
 20
-3832.490427692832
 11
-165.173079190353
 21
-3831.076214130458
  0
LINE
  5
27D
100
AcDbEntity
  8
0
  6
CONTINUOUS
 62
           7
100
AcDbLine
 10
-165.173079190353
 20
-3831.076214130458
 11
-169.062166486879
 21
-3827.187126833933
  0
LINE
  5
27C
100
AcDbEntity
  8
0
  6
CONTINUOUS
 62
           7
100
AcDbLine
 10
-164.81952579976
 20
-3830.722660739865
 11
-168.708613096286
 21
-3826.833573443339
  0
LINE
  5
27B
100
AcDbEntity
  8
0
  6
CONTINUOUS
 62
           7
100
AcDbLine
 10
-176.133234298744
 20
-3824.358699709186
 11
-179.668768204677
 21
-3826.480020052745
  0
LINE
  5
27A
100
AcDbEntity
  8
0
  6
CONTINUOUS
 62
           7
100
AcDbLine
 10
-173.304807173998
 20
-3821.530272584439
 11
-176.840341079931
 21
-3823.651592927999
  0
LINE
  5
279
100
AcDbEntity
  8
0
  6
CONTINUOUS
 62
           7
100
AcDbLine
 10
-181.08298176705
 20
-3819.408952240881
 11
-178.961661423491
 21
-3815.873418334947
  0
LINE
  5
278
100
AcDbEntity
  8
0
  6
CONTINUOUS
 62
           7
100
AcDbLine
 10
-183.749025499589
 20
-3822.237379365626
 11
-181.62770515603
 21
-3818.701845459694
  0
LINE
  5
277
100
AcDbEntity
  8
0
  6
CONTINUOUS
 62
           7
100
AcDbLine
 10
-181.790088548237
 20
-3818.701845459694
 11
-176.133234298744
 21
-3824.358699709186
  0
LINE
  5
276
100
AcDbEntity
  8
0
  6
CONTINUOUS
 62
           7
100
AcDbLine
 10
-166.587292752726
 20
-3832.490427692832
 11
-170.476380049252
 21
-3828.601340396305
  0
LINE
  5
275
100
AcDbEntity
  8
0
  6
CONTINUOUS
 62
           7
100
AcDbLine
 10
-160.223331722047
 20
-3826.833573443339
 11
-159.516224940861
 21
-3827.540680224525
  0
LINE
  5
274
100
AcDbEntity
  8
0
  6
CONTINUOUS
 62
           7
100
AcDbLine
 10
-155.980691034928
 20
-3822.590932756219
 11
-155.273584253741
 21
-3823.298039537406
  0
LINE
  5
273
100
AcDbEntity
  8
0
  6
CONTINUOUS
 62
           7
100
AcDbLine
 10
-159.516224940861
 20
-3830.369107349273
 11
-166.587292752726
 21
-3837.440175161137
  0
LINE
  5
272
100
AcDbEntity
  8
0
  6
CONTINUOUS
 62
           7
100
AcDbLine
 10
-145.37408931713
 20
-3816.226971725541
 11
-152.360233052531
 21
-3823.213115460941
  0
LINE
  5
271
100
AcDbEntity
  8
0
  6
CONTINUOUS
 62
           7
100
AcDbLine
 10
-145.37408931713
 20
-3816.226971725541
 11
-141.838555411197
 21
-3819.762505631474
  0
LINE
  5
270
100
AcDbEntity
  8
0
  6
CONTINUOUS
 62
           7
100
AcDbLine
 10
-183.749025499589
 20
-3822.237379365626
 11
-179.50638481247
 21
-3826.480020052745
  0
LINE
  5
26F
100
AcDbEntity
  8
0
  6
CONTINUOUS
 62
           7
100
AcDbLine
 10
-169.769343978744
 20
-3801.024246640708
 11
-170.661565594981
 21
-3801.916468256945
  0
LINE
  5
26E
100
AcDbEntity
  8
0
  6
CONTINUOUS
 62
           7
100
AcDbLine
 10
-164.112419018573
 20
-3830.722660739865
 11
-160.063175924075
 21
-3826.673417645368
  0
LINE
  5
26D
100
AcDbEntity
  8
0
  6
CONTINUOUS
 62
           7
100
AcDbLine
 10
-164.112419018573
 20
-3830.722660739865
 11
-164.465972409166
 21
-3830.369107349273
  0
LINE
  5
26C
100
AcDbEntity
  8
0
  6
CONTINUOUS
 62
           7
100
AcDbLine
 10
-152.091603738402
 20
-3818.701845459694
 11
-155.354163038933
 21
-3815.439286159163
  0
LINE
  5
26B
100
AcDbEntity
  8
0
  6
CONTINUOUS
 62
           7
100
AcDbLine
 10
-181.614104358443
 20
-3808.538159201338
 11
-180.301628773839
 21
-3810.142317873431
  0
LINE
  5
26A
100
AcDbEntity
  8
0
  6
CONTINUOUS
 62
           7
100
AcDbLine
 10
-182.324754099728
 20
-3809.248808942623
 11
-180.375874985864
 21
-3811.630777647829
  0
LINE
  5
269
100
AcDbEntity
  8
0
  6
CONTINUOUS
 62
           7
100
AcDbLine
 10
-181.790088548237
 20
-3813.044991210202
 11
-170.661565594981
 21
-3801.916468256945
  0
LINE
  5
268
100
AcDbEntity
  8
0
  6
CENTER_DASH_DASH
 62
           2
100
AcDbLine
 10
-175.779680908151
 20
-3807.034583570115
 11
-151.300371386754
 21
-3831.513893091513
  0
LINE
  5
267
100
AcDbEntity
  8
0
  6
CONTINUOUS
 62
           7
100
AcDbLine
 10
-160.063175924075
 20
-3826.673417645368
 11
-157.720613339855
 21
-3824.330855061147
  0
LINE
  5
266
100
AcDbEntity
  8
0
  6
CONTINUOUS
 62
           7
100
AcDbLine
 10
-155.308366452458
 20
-3821.918608173751
 11
-152.091603738402
 21
-3818.701845459694
  0
LINE
  5
265
100
AcDbEntity
  8
0
  6
CONTINUOUS
 62
           7
100
AcDbLine
 10
-157.720613339855
 20
-3824.330855061147
 11
-155.308366452458
 21
-3821.918608173751
  0
LINE
  5
264
100
AcDbEntity
  8
0
  6
CONTINUOUS
 62
           7
100
AcDbLine
 10
-160.930438503234
 20
-3828.954893786898
 11
-154.710298726005
 21
-3835.175033564128
  0
LINE
  5
263
100
AcDbEntity
  8
0
  6
CONTINUOUS
 62
           7
100
AcDbLine
 10
-141.838555411197
 20
-3819.762505631474
 11
-148.824699146598
 21
-3826.748649366875
  0
LINE
  5
262
100
AcDbEntity
  8
1
  6
DOT_CENTER
 62
           2
100
AcDbLine
 10
-189.924516259773
 20
-3792.727364826287
 11
-174.162429696994
 21
-3808.489451389064
  0
LINE
  5
261
100
AcDbEntity
  8
0
  6
CONTINUOUS
 62
           7
100
AcDbLine
 10
-171.021103438231
 20
-3802.276006100195
 11
-173.403072143437
 21
-3800.327126986331
  0
LINE
  5
260
100
AcDbEntity
  8
0
  6
CONTINUOUS
 62
           7
100
AcDbLine
 10
-172.509563212629
 20
-3802.35025231222
 11
-174.113721884722
 21
-3801.037776727617
  0
LINE
  5
25F
100
AcDbEntity
  8
0
  6
CONTINUOUS
 62
           7
100
AcDbLine
 10
-179.289425717062
 20
-3809.130114816653
 11
-171.798920897537
 21
-3801.639609997128
  0
LINE
  5
25E
100
AcDbEntity
  8
0
  6
CONTINUOUS
 62
           7
100
AcDbLine
 10
-171.021103438231
 20
-3802.276006100195
 11
-172.509563212629
 21
-3802.35025231222
  0
LINE
  5
25D
100
AcDbEntity
  8
1
  6
CONTINUOUS
 62
           7
100
AcDbLine
 10
-154.710298726005
 20
-3835.175033564128
 11
-147.554306837675
 21
-3828.019041675798
  0
LINE
  5
25C
100
AcDbEntity
  8
1
  6
CONTINUOUS
 62
           7
100
AcDbLine
 10
-160.930438503234
 20
-3828.954893786898
 11
-153.774446614904
 21
-3821.798901898568
  0
LINE
  5
25B
100
AcDbEntity
  8
0
  6
CONTINUOUS
 62
           7
100
AcDbLine
 10
-155.354163038933
 20
-3815.439286159163
 11
-169.769273268066
 21
-3801.02417593003
  0
LINE
  5
25A
100
AcDbEntity
  8
1
  6
CONTINUOUS
 62
           7
100
AcDbLine
 10
-166.587292752726
 20
-3837.440175161137
 11
-163.051758846793
 21
-3840.97570906707
  0
LINE
  5
259
100
AcDbEntity
  8
0
  6
CONTINUOUS
 62
           7
100
AcDbLine
 10
-155.980691034928
 20
-3833.904641255205
 11
-163.051758846793
 21
-3840.97570906707
  0
LINE
  5
258
100
AcDbEntity
  8
0
  6
CONTINUOUS
 62
           7
100
AcDbLine
 10
-153.774446614904
 20
-3821.798901898568
 11
-147.554306837675
 21
-3828.019041675798
  0
LINE
  5
257
100
AcDbEntity
  8
1
  6
CONTINUOUS
 62
           7
100
AcDbLine
 10
536.870740554244
 20
-3290.857578505931
 11
98.870740554244
 21
-3290.857578505931
  0
LINE
  5
256
100
AcDbEntity
  8
1
  6
CONTINUOUS
 62
           7
100
AcDbLine
 10
98.870740554244
 20
-3290.457578505932
 11
98.870740554244
 21
-3004.457578505933
  0
LINE
  5
255
100
AcDbEntity
  8
1
  6
CONTINUOUS
 62
           7
100
AcDbLine
 10
536.870740554244
 20
-3004.857578505931
 11
536.870740554244
 21
-3290.457578505932
  0
LINE
  5
254
100
AcDbEntity
  8
1
  6
CONTINUOUS
 62
           7
100
AcDbLine
 10
538.499084527827
 20
-3005.458479045653
 11
538.140911146461
 21
-3005.458479045653
  0
LINE
  5
253
100
AcDbEntity
  8
1
  6
CONTINUOUS
 62
           7
100
AcDbLine
 10
536.870740554244
 20
-3007.657578505932
 11
538.140911146461
 21
-3005.457578505933
  0
LINE
  5
252
100
AcDbEntity
  8
1
  6
CONTINUOUS
 62
           7
100
AcDbLine
 10
536.870740554244
 20
-3004.457578505933
 11
536.870740554244
 21
-3007.657578505932
  0
LINE
  5
251
100
AcDbEntity
  8
1
  6
CONTINUOUS
 62
           7
100
AcDbLine
 10
538.140911146461
 20
-3289.856677966209
 11
538.499084527827
 21
-3289.856677966209
  0
LINE
  5
250
100
AcDbEntity
  8
1
  6
CONTINUOUS
 62
           7
100
AcDbLine
 10
538.140911146461
 20
-3289.857578505931
 11
536.870740554244
 21
-3287.657578505932
  0
LINE
  5
24F
100
AcDbEntity
  8
1
  6
CONTINUOUS
 62
           7
100
AcDbLine
 10
536.870740554244
 20
-3287.657578505932
 11
536.870740554244
 21
-3290.857578505931
  0
LINE
  5
24E
100
AcDbEntity
  8
1
  6
CONTINUOUS
 62
           7
100
AcDbLine
 10
536.802857851797
 20
-3004.457578505933
 11
98.870740554244
 21
-3004.457578505933
  0
LINE
  5
24D
100
AcDbEntity
  8
1
  6
CONTINUOUS
 62
           7
100
AcDbLine
 10
98.870740554244
 20
-3007.657578505932
 11
98.870740554244
 21
-3004.457578505933
  0
LINE
  5
24C
100
AcDbEntity
  8
1
  6
CONTINUOUS
 62
           7
100
AcDbLine
 10
97.600569962026
 20
-3005.457578505933
 11
98.870740554244
 21
-3007.657578505932
  0
LINE
  5
24B
100
AcDbEntity
  8
1
  6
CONTINUOUS
 62
           7
100
AcDbLine
 10
97.600569962026
 20
-3005.458479045653
 11
97.24239658066
 21
-3005.458479045653
  0
LINE
  5
24A
100
AcDbEntity
  8
1
  6
CONTINUOUS
 62
           7
100
AcDbLine
 10
98.870740554244
 20
-3290.857578505931
 11
98.870740554244
 21
-3287.657578505932
  0
LINE
  5
249
100
AcDbEntity
  8
1
  6
CONTINUOUS
 62
           7
100
AcDbLine
 10
98.870740554244
 20
-3287.657578505932
 11
97.600569962026
 21
-3289.857578505931
  0
LINE
  5
248
100
AcDbEntity
  8
1
  6
CONTINUOUS
 62
           7
100
AcDbLine
 10
97.24239658066
 20
-3289.856677966209
 11
97.600569962026
 21
-3289.856677966209
  0
LINE
  5
247
100
AcDbEntity
  8
1
  6
CONTINUOUS
 62
           7
100
AcDbLine
 10
219.498989402171
 20
-3136.807578505933
 11
397.798989402171
 21
-3136.807578505933
  0
LINE
  5
246
100
AcDbEntity
  8
1
  6
CONTINUOUS
 62
           7
100
AcDbLine
 10
397.798989402171
 20
-3158.507578505931
 11
219.498989402171
 21
-3158.507578505931
  0
LINE
  5
245
100
AcDbEntity
  8
1
  6
CONTINUOUS
 62
           7
100
AcDbLine
 10
111.870740554244
 20
-3232.657578505932
 11
111.870740554244
 21
-3241.757578505931
  0
LINE
  5
244
100
AcDbEntity
  8
1
  6
CONTINUOUS
 62
           7
100
AcDbLine
 10
111.870740554244
 20
-3232.657578505932
 11
165.870740554244
 21
-3232.657578505932
  0
LINE
  5
243
100
AcDbEntity
  8
1
  6
CONTINUOUS
 62
           7
100
AcDbLine
 10
165.870740554244
 20
-3232.657578505932
 11
165.870740554244
 21
-3241.757578505931
  0
LINE
  5
242
100
AcDbEntity
  8
1
  6
CONTINUOUS
 62
           7
100
AcDbLine
 10
112.870740554244
 20
-3242.757578505931
 11
164.870740554244
 21
-3242.757578505931
  0
LINE
  5
241
100
AcDbEntity
  8
1
  6
CONTINUOUS
 62
           7
100
AcDbLine
 10
112.870740554244
 20
-3232.657578505932
 11
112.870740554244
 21
-3217.057578505933
  0
LINE
  5
240
100
AcDbEntity
  8
1
  6
CONTINUOUS
 62
           7
100
AcDbLine
 10
163.870740554244
 20
-3216.057578505933
 11
113.870740554244
 21
-3216.057578505933
  0
LINE
  5
23F
100
AcDbEntity
  8
1
  6
CONTINUOUS
 62
           7
100
AcDbLine
 10
164.870740554244
 20
-3232.657578505932
 11
164.870740554244
 21
-3217.057578505933
  0
LINE
  5
23E
100
AcDbEntity
  8
1
  6
DOT_CENTER
 62
           2
100
AcDbLine
 10
138.870740554244
 20
-3248.634544868223
 11
138.870740554244
 21
-3211.160387484151
  0
LINE
  5
23D
100
AcDbEntity
  8
1
  6
DOT_CENTER
 62
           2
100
AcDbLine
 10
122.770740554244
 20
-3069.657578505932
 11
154.970740554244
 21
-3069.657578505932
  0
LINE
  5
23C
100
AcDbEntity
  8
1
  6
DOT_CENTER
 62
           2
100
AcDbLine
 10
138.870740554244
 20
-3085.757578505931
 11
138.870740554244
 21
-3053.557578505931
  0
LINE
  5
23B
100
AcDbEntity
  8
1
  6
DOT_CENTER
 62
           2
100
AcDbLine
 10
138.870740554244
 20
-3075.931386036986
 11
138.870740554244
 21
-3043.476060270459
  0
LINE
  5
23A
100
AcDbEntity
  8
1
  6
CONTINUOUS
 62
           7
100
AcDbLine
 10
149.870740554244
 20
-3056.327578505932
 11
138.870740554244
 21
-3056.327578505932
  0
LINE
  5
239
100
AcDbEntity
  8
1
  6
CONTINUOUS
 62
           7
100
AcDbLine
 10
149.870740554244
 20
-3061.327578505932
 11
149.870740554244
 21
-3056.327578505932
  0
LINE
  5
238
100
AcDbEntity
  8
1
  6
CONTINUOUS
 62
           7
100
AcDbLine
 10
127.870740554244
 20
-3061.327578505932
 11
127.870740554244
 21
-3056.327578505932
  0
LINE
  5
237
100
AcDbEntity
  8
1
  6
CONTINUOUS
 62
           7
100
AcDbLine
 10
148.370740554244
 20
-3064.316342217285
 11
148.370740554244
 21
-3066.327578505932
  0
LINE
  5
236
100
AcDbEntity
  8
1
  6
CONTINUOUS
 62
           7
100
AcDbLine
 10
148.370740554244
 20
-3061.327578505932
 11
129.370740554244
 21
-3061.327578505932
  0
LINE
  5
235
100
AcDbEntity
  8
1
  6
CONTINUOUS
 62
           7
100
AcDbLine
 10
129.370740554244
 20
-3061.327578505932
 11
127.870740554244
 21
-3061.327578505932
  0
LINE
  5
234
100
AcDbEntity
  8
1
  6
CONTINUOUS
 62
           7
100
AcDbLine
 10
148.370740554244
 20
-3061.327578505932
 11
149.870740554244
 21
-3061.327578505932
  0
LINE
  5
233
100
AcDbEntity
  8
1
  6
CONTINUOUS
 62
           7
100
AcDbLine
 10
138.870740554244
 20
-3056.327578505932
 11
127.870740554244
 21
-3056.327578505932
  0
LINE
  5
232
100
AcDbEntity
  8
1
  6
CONTINUOUS
 62
           7
100
AcDbLine
 10
138.870740554244
 20
-3056.327578505932
 11
127.870740554244
 21
-3056.327578505932
  0
LINE
  5
231
100
AcDbEntity
  8
1
  6
CONTINUOUS
 62
           7
100
AcDbLine
 10
127.870740554244
 20
-3056.327578505932
 11
127.870740554244
 21
-3061.327578505932
  0
LINE
  5
230
100
AcDbEntity
  8
1
  6
CONTINUOUS
 62
           7
100
AcDbLine
 10
129.370740554244
 20
-3066.327578505932
 11
129.370740554244
 21
-3064.316342217285
  0
LINE
  5
22F
100
AcDbEntity
  8
1
  6
CONTINUOUS
 62
           7
100
AcDbLine
 10
127.870740554244
 20
-3061.327578505932
 11
129.370740554244
 21
-3061.327578505932
  0
LINE
  5
22E
100
AcDbEntity
  8
1
  6
DOT_CENTER
 62
           2
100
AcDbLine
 10
485.208740554244
 20
-3097.657578505932
 11
508.532740554244
 21
-3097.657578505932
  0
LINE
  5
22D
100
AcDbEntity
  8
1
  6
DOT_CENTER
 62
           2
100
AcDbLine
 10
496.870740554244
 20
-3109.319578505932
 11
496.870740554244
 21
-3085.995578505931
  0
LINE
  5
22C
100
AcDbEntity
  8
0
  6
DOT_CENTER
 62
           2
100
AcDbLine
 10
496.870740554244
 20
-3108.793594612499
 11
496.870740554244
 21
-3086.157578505932
  0
LINE
  5
22B
100
AcDbEntity
  8
0
  6
DOT_CENTER
 62
           2
100
AcDbLine
 10
509.607115899994
 20
-3097.657618054366
 11
484.625133094993
 21
-3097.657540481409
  0
LINE
  5
22A
100
AcDbEntity
  8
0
  6
CONTINUOUS
 62
           2
100
AcDbLine
 10
491.385940554244
 20
-3088.157531797552
 11
485.901040554244
 21
-3097.657531797552
  0
LINE
  5
229
100
AcDbEntity
  8
0
  6
CONTINUOUS
 62
           2
100
AcDbLine
 10
502.355640554244
 20
-3088.157531797552
 11
491.385940554244
 21
-3088.157531797552
  0
LINE
  5
228
100
AcDbEntity
  8
0
  6
CONTINUOUS
 62
           2
100
AcDbLine
 10
507.840440554244
 20
-3097.657531797552
 11
502.355640554244
 21
-3088.157531797552
  0
LINE
  5
227
100
AcDbEntity
  8
0
  6
CONTINUOUS
 62
           2
100
AcDbLine
 10
502.355640554244
 20
-3107.157531797551
 11
507.840440554244
 21
-3097.657531797552
  0
LINE
  5
226
100
AcDbEntity
  8
0
  6
CONTINUOUS
 62
           2
100
AcDbLine
 10
491.385940554244
 20
-3107.157531797551
 11
502.355640554244
 21
-3107.157531797551
  0
LINE
  5
225
100
AcDbEntity
  8
0
  6
CONTINUOUS
 62
           2
100
AcDbLine
 10
485.901040554244
 20
-3097.657531797552
 11
491.385940554244
 21
-3107.157531797551
  0
LINE
  5
224
100
AcDbEntity
  8
1
  6
DOT_CENTER
 62
           2
100
AcDbLine
 10
496.870740554244
 20
-3188.361598312504
 11
496.870740554244
 21
-3220.816924079031
  0
LINE
  5
223
100
AcDbEntity
  8
1
  6
CONTINUOUS
 62
           7
100
AcDbLine
 10
485.870740554244
 20
-3211.297405843561
 11
496.870740554244
 21
-3211.297405843561
  0
LINE
  5
222
100
AcDbEntity
  8
1
  6
CONTINUOUS
 62
           7
100
AcDbLine
 10
485.870740554244
 20
-3206.297405843561
 11
485.870740554244
 21
-3211.297405843561
  0
LINE
  5
221
100
AcDbEntity
  8
1
  6
CONTINUOUS
 62
           7
100
AcDbLine
 10
507.870740554244
 20
-3206.297405843561
 11
507.870740554244
 21
-3211.297405843561
  0
LINE
  5
220
100
AcDbEntity
  8
1
  6
CONTINUOUS
 62
           7
100
AcDbLine
 10
487.370740554244
 20
-3203.308642132205
 11
487.370740554244
 21
-3201.29740584356
  0
LINE
  5
21F
100
AcDbEntity
  8
1
  6
CONTINUOUS
 62
           7
100
AcDbLine
 10
487.370740554244
 20
-3206.297405843561
 11
506.370740554244
 21
-3206.297405843561
  0
LINE
  5
21E
100
AcDbEntity
  8
1
  6
CONTINUOUS
 62
           7
100
AcDbLine
 10
506.370740554244
 20
-3206.297405843561
 11
507.870740554244
 21
-3206.297405843561
  0
LINE
  5
21D
100
AcDbEntity
  8
1
  6
CONTINUOUS
 62
           7
100
AcDbLine
 10
487.370740554244
 20
-3206.297405843561
 11
485.870740554244
 21
-3206.297405843561
  0
LINE
  5
21C
100
AcDbEntity
  8
1
  6
CONTINUOUS
 62
           7
100
AcDbLine
 10
496.870740554244
 20
-3211.297405843561
 11
507.870740554244
 21
-3211.297405843561
  0
LINE
  5
21B
100
AcDbEntity
  8
1
  6
CONTINUOUS
 62
           7
100
AcDbLine
 10
496.870740554244
 20
-3211.297405843561
 11
507.870740554244
 21
-3211.297405843561
  0
LINE
  5
21A
100
AcDbEntity
  8
1
  6
CONTINUOUS
 62
           7
100
AcDbLine
 10
507.870740554244
 20
-3211.297405843561
 11
507.870740554244
 21
-3206.297405843561
  0
LINE
  5
219
100
AcDbEntity
  8
1
  6
CONTINUOUS
 62
           7
100
AcDbLine
 10
506.370740554244
 20
-3201.29740584356
 11
506.370740554244
 21
-3203.308642132205
  0
LINE
  5
218
100
AcDbEntity
  8
1
  6
CONTINUOUS
 62
           7
100
AcDbLine
 10
507.870740554244
 20
-3206.297405843561
 11
506.370740554244
 21
-3206.297405843561
  0
LINE
  5
217
100
AcDbEntity
  8
1
  6
CONTINUOUS
 62
           7
100
AcDbLine
 10
496.870740554244
 20
-3227.287505843561
 11
496.870740554244
 21
-3217.046795222114
  0
LINE
  5
216
100
AcDbEntity
  8
0
  6
CONTINUOUS
 62
           7
100
AcDbLine
 10
501.739451400043
 20
-3233.787405843559
 11
504.370740554244
 21
-3233.787405843559
  0
LINE
  5
215
100
AcDbEntity
  8
0
  6
CONTINUOUS
 62
           7
100
AcDbLine
 10
499.646302713521
 20
-3231.787405843559
 11
504.370740554244
 21
-3231.787405843559
  0
LINE
  5
214
100
AcDbEntity
  8
0
  6
CONTINUOUS
 62
           7
100
AcDbLine
 10
502.370740554244
 20
-3238.354478088764
 11
502.370740554244
 21
-3254.18180584356
  0
LINE
  5
213
100
AcDbEntity
  8
0
  6
CONTINUOUS
 62
           7
100
AcDbLine
 10
491.370740554244
 20
-3238.354478088764
 11
491.370740554244
 21
-3254.18180584356
  0
LINE
  5
212
100
AcDbEntity
  8
1
  6
DOT_CENTER
 62
           2
100
AcDbLine
 10
496.870740554244
 20
-3279.2963698426
 11
496.870740554244
 21
-3202.516555490921
  0
LINE
  5
211
100
AcDbEntity
  8
1
  6
DOT_CENTER
 62
           2
100
AcDbLine
 10
484.017633198443
 20
-3236.787555843558
 11
509.876686738643
 21
-3236.787555843558
  0
LINE
  5
210
100
AcDbEntity
  8
0
  6
CONTINUOUS
 62
           7
100
AcDbLine
 10
502.370740554244
 20
-3246.287405843559
 11
506.870740554244
 21
-3246.287405843559
  0
LINE
  5
20F
100
AcDbEntity
  8
0
  6
CONTINUOUS
 62
           7
100
AcDbLine
 10
486.870740554244
 20
-3246.287405843559
 11
491.370740554244
 21
-3246.287405843559
  0
LINE
  5
20E
100
AcDbEntity
  8
0
  6
CONTINUOUS
 62
           7
100
AcDbLine
 10
502.370740554244
 20
-3244.287505843561
 11
506.870740554244
 21
-3244.287505843561
  0
LINE
  5
20D
100
AcDbEntity
  8
0
  6
CONTINUOUS
 62
           7
100
AcDbLine
 10
486.870740554244
 20
-3244.287505843561
 11
491.370740554244
 21
-3244.287505843561
  0
LINE
  5
20C
100
AcDbEntity
  8
0
  6
CONTINUOUS
 62
           7
100
AcDbLine
 10
489.370740554244
 20
-3231.787405843559
 11
494.095178394963
 21
-3231.787405843559
  0
LINE
  5
20B
100
AcDbEntity
  8
0
  6
CONTINUOUS
 62
           7
100
AcDbLine
 10
494.870740554244
 20
-3274.787505843561
 11
494.870740554244
 21
-3249.301605843561
  0
LINE
  5
20A
100
AcDbEntity
  8
0
  6
CONTINUOUS
 62
           7
100
AcDbLine
 10
498.870740554244
 20
-3274.787505843561
 11
498.870740554244
 21
-3249.342405843562
  0
LINE
  5
209
100
AcDbEntity
  8
0
  6
CONTINUOUS
 62
           7
100
AcDbLine
 10
488.370740554244
 20
-3216.287505843561
 11
505.370740554244
 21
-3216.287505843561
  0
LINE
  5
208
100
AcDbEntity
  8
0
  6
CONTINUOUS
 62
           7
100
AcDbLine
 10
486.870740554244
 20
-3227.287505843561
 11
506.870740554244
 21
-3227.287505843561
  0
LINE
  5
207
100
AcDbEntity
  8
0
  6
CONTINUOUS
 62
           7
100
AcDbLine
 10
506.870740554244
 20
-3229.287505843561
 11
486.870740554244
 21
-3229.287505843561
  0
LINE
  5
206
100
AcDbEntity
  8
0
  6
CONTINUOUS
 62
           7
100
AcDbLine
 10
506.870740554244
 20
-3244.287505843561
 11
506.870740554244
 21
-3246.287405843559
  0
LINE
  5
205
100
AcDbEntity
  8
0
  6
CONTINUOUS
 62
           7
100
AcDbLine
 10
506.870740554244
 20
-3227.287505843561
 11
506.870740554244
 21
-3229.287505843561
  0
LINE
  5
204
100
AcDbEntity
  8
0
  6
CONTINUOUS
 62
           7
100
AcDbLine
 10
486.870740554244
 20
-3244.287505843561
 11
486.870740554244
 21
-3246.287405843559
  0
LINE
  5
203
100
AcDbEntity
  8
0
  6
CONTINUOUS
 62
           7
100
AcDbLine
 10
486.870740554244
 20
-3227.287505843561
 11
486.870740554244
 21
-3229.287505843561
  0
LINE
  5
202
100
AcDbEntity
  8
0
  6
CONTINUOUS
 62
           7
100
AcDbLine
 10
505.870740554244
 20
-3229.287505843561
 11
505.870740554244
 21
-3244.287505843561
  0
LINE
  5
201
100
AcDbEntity
  8
0
  6
CONTINUOUS
 62
           7
100
AcDbLine
 10
487.870740554244
 20
-3229.287505843561
 11
487.870740554244
 21
-3244.287505843561
  0
LINE
  5
200
100
AcDbEntity
  8
0
  6
CONTINUOUS
 62
           7
100
AcDbLine
 10
505.370740554244
 20
-3216.287505843561
 11
505.370740554244
 21
-3227.287505843561
  0
LINE
  5
1FF
100
AcDbEntity
  8
0
  6
CONTINUOUS
 62
           7
100
AcDbLine
 10
488.370740554244
 20
-3216.287505843561
 11
488.370740554244
 21
-3227.287505843561
  0
LINE
  5
1FE
100
AcDbEntity
  8
0
  6
CONTINUOUS
 62
           7
100
AcDbLine
 10
489.370740554244
 20
-3233.787405843559
 11
492.002029708444
 21
-3233.787405843559
  0
LINE
  5
1FD
100
AcDbEntity
  8
0
  6
CONTINUOUS
 62
           7
100
AcDbLine
 10
504.370740554244
 20
-3231.787405843559
 11
504.370740554244
 21
-3233.787405843559
  0
LINE
  5
1FC
100
AcDbEntity
  8
0
  6
CONTINUOUS
 62
           7
100
AcDbLine
 10
489.370740554244
 20
-3231.787405843559
 11
489.370740554244
 21
-3233.787405843559
  0
LINE
  5
1FB
100
AcDbEntity
  8
0
  6
CONTINUOUS
 62
           7
100
AcDbLine
 10
500.870740554244
 20
-3234.47810584356
 11
496.870740554244
 21
-3232.168605843561
  0
LINE
  5
1FA
100
AcDbEntity
  8
0
  6
CONTINUOUS
 62
           7
100
AcDbLine
 10
500.870740554244
 20
-3239.096905843562
 11
500.870740554244
 21
-3234.47810584356
  0
LINE
  5
1F9
100
AcDbEntity
  8
0
  6
CONTINUOUS
 62
           7
100
AcDbLine
 10
496.870740554244
 20
-3241.406305843561
 11
500.870740554244
 21
-3239.096905843562
  0
LINE
  5
1F8
100
AcDbEntity
  8
0
  6
CONTINUOUS
 62
           7
100
AcDbLine
 10
492.870740554244
 20
-3239.096905843562
 11
496.870740554244
 21
-3241.406305843561
  0
LINE
  5
1F7
100
AcDbEntity
  8
0
  6
CONTINUOUS
 62
           7
100
AcDbLine
 10
492.870740554244
 20
-3234.47810584356
 11
492.870740554244
 21
-3239.096905843562
  0
LINE
  5
1F6
100
AcDbEntity
  8
0
  6
CONTINUOUS
 62
           7
100
AcDbLine
 10
496.870740554244
 20
-3232.168605843561
 11
492.870740554244
 21
-3234.47810584356
  0
LINE
  5
1F5
100
AcDbEntity
  8
1
  6
CONTINUOUS
 62
           2
100
AcDbLine
 10
490.176615554242
 20
-3214.997405843559
 11
503.564865554242
 21
-3214.997405843559
  0
LINE
  5
1F4
100
AcDbEntity
  8
1
  6
CONTINUOUS
 62
           2
100
AcDbLine
 10
491.148240554244
 20
-3211.297405843561
 11
491.032615554242
 21
-3214.997405843559
  0
LINE
  5
1F3
100
AcDbEntity
  8
1
  6
CONTINUOUS
 62
           7
100
AcDbLine
 10
490.292240554244
 20
-3211.297405843561
 11
490.136054028061
 21
-3216.295374681418
  0
LINE
  5
1F2
100
AcDbEntity
  8
1
  6
CONTINUOUS
 62
           2
100
AcDbLine
 10
502.593240554243
 20
-3211.297405843561
 11
502.708865554242
 21
-3214.997405843559
  0
LINE
  5
1F1
100
AcDbEntity
  8
1
  6
CONTINUOUS
 62
           7
100
AcDbLine
 10
503.449240554243
 20
-3211.297405843561
 11
503.605304867781
 21
-3216.291463876702
  0
LINE
  5
1F0
100
AcDbEntity
  8
1
  6
CONTINUOUS
 62
           7
100
AcDbLine
 10
490.136054028061
 20
-3216.295374681418
 11
491.032615554242
 21
-3214.997405843559
  0
LINE
  5
1EF
100
AcDbEntity
  8
1
  6
CONTINUOUS
 62
           7
100
AcDbLine
 10
503.605304867781
 20
-3216.291463876702
 11
502.708865554242
 21
-3214.997405843559
  0
LINE
  5
1EE
100
AcDbEntity
  8
0
  6
CONTINUOUS
 62
           7
100
AcDbLine
 10
490.370740554244
 20
-3249.287505843561
 11
490.370740554244
 21
-3255.287505843561
  0
LINE
  5
1ED
100
AcDbEntity
  8
0
  6
CONTINUOUS
 62
           7
100
AcDbLine
 10
503.370740554244
 20
-3249.287505843561
 11
502.370740554244
 21
-3249.287505843561
  0
LINE
  5
1EC
100
AcDbEntity
  8
0
  6
CONTINUOUS
 62
           7
100
AcDbLine
 10
503.370740554244
 20
-3249.287505843561
 11
503.370740554244
 21
-3255.287505843561
  0
LINE
  5
1EB
100
AcDbEntity
  8
0
  6
CONTINUOUS
 62
           2
100
AcDbLine
 10
490.370740554244
 20
-3255.287505843561
 11
491.526598957843
 21
-3255.287505843561
  0
LINE
  5
1EA
100
AcDbEntity
  8
0
  6
CONTINUOUS
 62
           7
100
AcDbLine
 10
490.370740554244
 20
-3255.287505843561
 11
491.370740554244
 21
-3256.287505843561
  0
LINE
  5
1E9
100
AcDbEntity
  8
0
  6
CONTINUOUS
 62
           7
100
AcDbLine
 10
502.370740554244
 20
-3256.287505843561
 11
503.370740554244
 21
-3255.287505843561
  0
LINE
  5
1E8
100
AcDbEntity
  8
0
  6
CONTINUOUS
 62
           7
100
AcDbLine
 10
491.969855144463
 20
-3256.287505843561
 11
491.370740554244
 21
-3256.287505843561
  0
LINE
  5
1E7
100
AcDbEntity
  8
0
  6
CONTINUOUS
 62
           2
100
AcDbLine
 10
502.214882150652
 20
-3255.287505843561
 11
503.370740554244
 21
-3255.287505843561
  0
LINE
  5
1E6
100
AcDbEntity
  8
0
  6
CONTINUOUS
 62
           7
100
AcDbLine
 10
491.370740554244
 20
-3249.287505843561
 11
490.370740554244
 21
-3249.287505843561
  0
LINE
  5
1E5
100
AcDbEntity
  8
1
  6
CONTINUOUS
 62
           7
100
AcDbLine
 10
502.370740554244
 20
-3256.287505843561
 11
501.771595005382
 21
-3256.287505843561
  0
LINE
  5
1E4
100
AcDbEntity
  8
1
  6
CONTINUOUS
 62
           7
100
AcDbLine
 10
391.871063340849
 20
-3021.995420026791
 11
511.871063340849
 21
-3021.995420026791
  0
LINE
  5
1E3
100
AcDbEntity
  8
1
  6
CONTINUOUS
 62
           7
100
AcDbLine
 10
511.871063340849
 20
-3021.995420026791
 11
511.871063340849
 21
-3075.995420026791
  0
LINE
  5
1E2
100
AcDbEntity
  8
1
  6
CONTINUOUS
 62
           7
100
AcDbLine
 10
511.871063340849
 20
-3075.995420026791
 11
391.871063340849
 21
-3075.995420026791
  0
LINE
  5
1E1
100
AcDbEntity
  8
1
  6
CONTINUOUS
 62
           7
100
AcDbLine
 10
391.871063340849
 20
-3075.995420026791
 11
391.871063340849
 21
-3021.995420026791
  0
LINE
  5
1E0
100
AcDbEntity
  8
1
  6
CONTINUOUS
 62
           2
100
AcDbLine
 10
730.038673551032
 20
-3759.77418787753
 11
728.988673551032
 21
-3759.074187877529
  0
LINE
  5
1DF
100
AcDbEntity
  8
1
  6
CONTINUOUS
 62
           2
100
AcDbLine
 10
728.988673551032
 20
-3759.074187877529
 11
727.938673551032
 21
-3758.724187877529
  0
LINE
  5
1DE
100
AcDbEntity
  8
1
  6
CONTINUOUS
 62
           2
100
AcDbLine
 10
727.938673551032
 20
-3758.724187877529
 11
726.188673551032
 21
-3758.37418787753
  0
LINE
  5
1DD
100
AcDbEntity
  8
1
  6
CONTINUOUS
 62
           2
100
AcDbLine
 10
726.188673551032
 20
-3758.37418787753
 11
724.788673551032
 21
-3758.37418787753
  0
LINE
  5
1DC
100
AcDbEntity
  8
1
  6
CONTINUOUS
 62
           2
100
AcDbLine
 10
724.788673551032
 20
-3758.37418787753
 11
723.388673551032
 21
-3758.724187877529
  0
LINE
  5
1DB
100
AcDbEntity
  8
1
  6
CONTINUOUS
 62
           2
100
AcDbLine
 10
723.388673551032
 20
-3758.724187877529
 11
722.338673551032
 21
-3759.074187877529
  0
LINE
  5
1DA
100
AcDbEntity
  8
1
  6
CONTINUOUS
 62
           2
100
AcDbLine
 10
722.338673551032
 20
-3759.074187877529
 11
721.288673551032
 21
-3759.77418787753
  0
LINE
  5
1D9
100
AcDbEntity
  8
1
  6
CONTINUOUS
 62
           2
100
AcDbLine
 10
721.288673551032
 20
-3759.77418787753
 11
720.938673551032
 21
-3760.824187877529
  0
LINE
  5
1D8
100
AcDbEntity
  8
1
  6
CONTINUOUS
 62
           2
100
AcDbLine
 10
720.938673551032
 20
-3760.824187877529
 11
720.938673551032
 21
-3761.52418787753
  0
LINE
  5
1D7
100
AcDbEntity
  8
1
  6
CONTINUOUS
 62
           2
100
AcDbLine
 10
720.938673551032
 20
-3761.52418787753
 11
721.288673551032
 21
-3762.574187877529
  0
LINE
  5
1D6
100
AcDbEntity
  8
1
  6
CONTINUOUS
 62
           2
100
AcDbLine
 10
721.288673551032
 20
-3762.574187877529
 11
722.338673551032
 21
-3763.27418787753
  0
LINE
  5
1D5
100
AcDbEntity
  8
1
  6
CONTINUOUS
 62
           2
100
AcDbLine
 10
722.338673551032
 20
-3763.27418787753
 11
728.288673551032
 21
-3765.724187877529
  0
LINE
  5
1D4
100
AcDbEntity
  8
1
  6
CONTINUOUS
 62
           2
100
AcDbLine
 10
728.288673551032
 20
-3765.724187877529
 11
729.338673551032
 21
-3766.42418787753
  0
LINE
  5
1D3
100
AcDbEntity
  8
1
  6
CONTINUOUS
 62
           2
100
AcDbLine
 10
729.338673551032
 20
-3766.42418787753
 11
730.038673551032
 21
-3767.474187877529
  0
LINE
  5
1D2
100
AcDbEntity
  8
1
  6
CONTINUOUS
 62
           2
100
AcDbLine
 10
730.038673551032
 20
-3767.474187877529
 11
730.388673551032
 21
-3768.52418787753
  0
LINE
  5
1D1
100
AcDbEntity
  8
1
  6
CONTINUOUS
 62
           2
100
AcDbLine
 10
730.388673551032
 20
-3768.52418787753
 11
730.388673551032
 21
-3769.224187877529
  0
LINE
  5
1D0
100
AcDbEntity
  8
1
  6
CONTINUOUS
 62
           2
100
AcDbLine
 10
730.388673551032
 20
-3769.224187877529
 11
730.038673551032
 21
-3770.27418787753
  0
LINE
  5
1CF
100
AcDbEntity
  8
1
  6
CONTINUOUS
 62
           2
100
AcDbLine
 10
730.038673551032
 20
-3770.27418787753
 11
729.338673551032
 21
-3771.324187877529
  0
LINE
  5
1CE
100
AcDbEntity
  8
1
  6
CONTINUOUS
 62
           2
100
AcDbLine
 10
729.338673551032
 20
-3771.324187877529
 11
728.288673551032
 21
-3772.02418787753
  0
LINE
  5
1CD
100
AcDbEntity
  8
1
  6
CONTINUOUS
 62
           2
100
AcDbLine
 10
728.288673551032
 20
-3772.02418787753
 11
726.538673551032
 21
-3772.37418787753
  0
LINE
  5
1CC
100
AcDbEntity
  8
1
  6
CONTINUOUS
 62
           2
100
AcDbLine
 10
726.538673551032
 20
-3772.37418787753
 11
724.438673551032
 21
-3772.37418787753
  0
LINE
  5
1CB
100
AcDbEntity
  8
1
  6
CONTINUOUS
 62
           2
100
AcDbLine
 10
724.438673551032
 20
-3772.37418787753
 11
722.688673551032
 21
-3772.02418787753
  0
LINE
  5
1CA
100
AcDbEntity
  8
1
  6
CONTINUOUS
 62
           2
100
AcDbLine
 10
722.688673551032
 20
-3772.02418787753
 11
721.288673551032
 21
-3771.324187877529
  0
LINE
  5
1C9
100
AcDbEntity
  8
1
  6
CONTINUOUS
 62
           2
100
AcDbLine
 10
721.288673551032
 20
-3771.324187877529
 11
720.588673551032
 21
-3770.62418787753
  0
LINE
  5
1C8
100
AcDbEntity
  8
1
  6
CONTINUOUS
 62
           2
100
AcDbLine
 10
736.338673551032
 20
-3768.17418787753
 11
744.038673551032
 21
-3768.17418787753
  0
LINE
  5
1C7
100
AcDbEntity
  8
1
  6
CONTINUOUS
 62
           2
100
AcDbLine
 10
734.588673551032
 20
-3772.37418787753
 11
740.188673551032
 21
-3758.37418787753
  0
LINE
  5
1C6
100
AcDbEntity
  8
1
  6
CONTINUOUS
 62
           2
100
AcDbLine
 10
740.188673551032
 20
-3758.37418787753
 11
745.788673551032
 21
-3772.37418787753
  0
LINE
  5
1C5
100
AcDbEntity
  8
1
  6
CONTINUOUS
 62
           2
100
AcDbLine
 10
754.888673551032
 20
-3758.37418787753
 11
759.788673551032
 21
-3758.37418787753
  0
LINE
  5
1C4
100
AcDbEntity
  8
1
  6
CONTINUOUS
 62
           2
100
AcDbLine
 10
749.988673551032
 20
-3758.37418787753
 11
754.888673551032
 21
-3758.37418787753
  0
LINE
  5
1C3
100
AcDbEntity
  8
1
  6
CONTINUOUS
 62
           2
100
AcDbLine
 10
754.888673551032
 20
-3758.37418787753
 11
754.888673551032
 21
-3772.37418787753
  0
LINE
  5
1C2
100
AcDbEntity
  8
1
  6
CONTINUOUS
 62
           2
100
AcDbLine
 10
763.988673551032
 20
-3767.474187877529
 11
770.988673551032
 21
-3767.474187877529
  0
LINE
  5
1C1
100
AcDbEntity
  8
1
  6
CONTINUOUS
 62
           2
100
AcDbLine
 10
777.288673551032
 20
-3763.974187877529
 11
780.788673551032
 21
-3763.974187877529
  0
LINE
  5
1C0
100
AcDbEntity
  8
1
  6
CONTINUOUS
 62
           2
100
AcDbLine
 10
775.188673551032
 20
-3758.37418787753
 11
780.438673551032
 21
-3758.37418787753
  0
LINE
  5
1BF
100
AcDbEntity
  8
1
  6
CONTINUOUS
 62
           2
100
AcDbLine
 10
780.438673551032
 20
-3758.37418787753
 11
782.188673551032
 21
-3758.724187877529
  0
LINE
  5
1BE
100
AcDbEntity
  8
1
  6
CONTINUOUS
 62
           2
100
AcDbLine
 10
782.188673551032
 20
-3758.724187877529
 11
783.238673551032
 21
-3759.42418787753
  0
LINE
  5
1BD
100
AcDbEntity
  8
1
  6
CONTINUOUS
 62
           2
100
AcDbLine
 10
783.238673551032
 20
-3759.42418787753
 11
783.588673551032
 21
-3760.474187877529
  0
LINE
  5
1BC
100
AcDbEntity
  8
1
  6
CONTINUOUS
 62
           2
100
AcDbLine
 10
783.588673551032
 20
-3760.474187877529
 11
783.588673551032
 21
-3761.52418787753
  0
LINE
  5
1BB
100
AcDbEntity
  8
1
  6
CONTINUOUS
 62
           2
100
AcDbLine
 10
783.588673551032
 20
-3761.52418787753
 11
783.238673551032
 21
-3762.574187877529
  0
LINE
  5
1BA
100
AcDbEntity
  8
1
  6
CONTINUOUS
 62
           2
100
AcDbLine
 10
783.238673551032
 20
-3762.574187877529
 11
782.538673551032
 21
-3763.27418787753
  0
LINE
  5
1B9
100
AcDbEntity
  8
1
  6
CONTINUOUS
 62
           2
100
AcDbLine
 10
782.538673551032
 20
-3763.27418787753
 11
781.838673551032
 21
-3763.62418787753
  0
LINE
  5
1B8
100
AcDbEntity
  8
1
  6
CONTINUOUS
 62
           2
100
AcDbLine
 10
781.838673551032
 20
-3763.62418787753
 11
780.788673551032
 21
-3763.974187877529
  0
LINE
  5
1B7
100
AcDbEntity
  8
1
  6
CONTINUOUS
 62
           2
100
AcDbLine
 10
780.788673551032
 20
-3763.974187877529
 11
782.188673551032
 21
-3764.324187877529
  0
LINE
  5
1B6
100
AcDbEntity
  8
1
  6
CONTINUOUS
 62
           2
100
AcDbLine
 10
782.188673551032
 20
-3764.324187877529
 11
782.888673551032
 21
-3765.02418787753
  0
LINE
  5
1B5
100
AcDbEntity
  8
1
  6
CONTINUOUS
 62
           2
100
AcDbLine
 10
782.888673551032
 20
-3765.02418787753
 11
783.238673551032
 21
-3765.724187877529
  0
LINE
  5
1B4
100
AcDbEntity
  8
1
  6
CONTINUOUS
 62
           2
100
AcDbLine
 10
783.238673551032
 20
-3765.724187877529
 11
783.588673551032
 21
-3767.12418787753
  0
LINE
  5
1B3
100
AcDbEntity
  8
1
  6
CONTINUOUS
 62
           2
100
AcDbLine
 10
783.588673551032
 20
-3767.12418787753
 11
783.588673551032
 21
-3768.87418787753
  0
LINE
  5
1B2
100
AcDbEntity
  8
1
  6
CONTINUOUS
 62
           2
100
AcDbLine
 10
783.588673551032
 20
-3768.87418787753
 11
783.238673551032
 21
-3770.27418787753
  0
LINE
  5
1B1
100
AcDbEntity
  8
1
  6
CONTINUOUS
 62
           2
100
AcDbLine
 10
783.238673551032
 20
-3770.27418787753
 11
782.538673551032
 21
-3771.324187877529
  0
LINE
  5
1B0
100
AcDbEntity
  8
1
  6
CONTINUOUS
 62
           2
100
AcDbLine
 10
782.538673551032
 20
-3771.324187877529
 11
781.488673551032
 21
-3772.02418787753
  0
LINE
  5
1AF
100
AcDbEntity
  8
1
  6
CONTINUOUS
 62
           2
100
AcDbLine
 10
781.488673551032
 20
-3772.02418787753
 11
780.438673551032
 21
-3772.37418787753
  0
LINE
  5
1AE
100
AcDbEntity
  8
1
  6
CONTINUOUS
 62
           2
100
AcDbLine
 10
780.438673551032
 20
-3772.37418787753
 11
775.188673551032
 21
-3772.37418787753
  0
LINE
  5
1AD
100
AcDbEntity
  8
1
  6
CONTINUOUS
 62
           2
100
AcDbLine
 10
789.888673551032
 20
-3763.974187877529
 11
793.388673551032
 21
-3763.974187877529
  0
LINE
  5
1AC
100
AcDbEntity
  8
1
  6
CONTINUOUS
 62
           2
100
AcDbLine
 10
787.788673551032
 20
-3758.37418787753
 11
793.038673551032
 21
-3758.37418787753
  0
LINE
  5
1AB
100
AcDbEntity
  8
1
  6
CONTINUOUS
 62
           2
100
AcDbLine
 10
793.038673551032
 20
-3758.37418787753
 11
794.788673551032
 21
-3758.724187877529
  0
LINE
  5
1AA
100
AcDbEntity
  8
1
  6
CONTINUOUS
 62
           2
100
AcDbLine
 10
794.788673551032
 20
-3758.724187877529
 11
795.838673551032
 21
-3759.42418787753
  0
LINE
  5
1A9
100
AcDbEntity
  8
1
  6
CONTINUOUS
 62
           2
100
AcDbLine
 10
795.838673551032
 20
-3759.42418787753
 11
796.188673551032
 21
-3760.474187877529
  0
LINE
  5
1A8
100
AcDbEntity
  8
1
  6
CONTINUOUS
 62
           2
100
AcDbLine
 10
796.188673551032
 20
-3760.474187877529
 11
796.188673551032
 21
-3761.52418787753
  0
LINE
  5
1A7
100
AcDbEntity
  8
1
  6
CONTINUOUS
 62
           2
100
AcDbLine
 10
796.188673551032
 20
-3761.52418787753
 11
795.838673551032
 21
-3762.574187877529
  0
LINE
  5
1A6
100
AcDbEntity
  8
1
  6
CONTINUOUS
 62
           2
100
AcDbLine
 10
795.838673551032
 20
-3762.574187877529
 11
795.138673551032
 21
-3763.27418787753
  0
LINE
  5
1A5
100
AcDbEntity
  8
1
  6
CONTINUOUS
 62
           2
100
AcDbLine
 10
795.138673551032
 20
-3763.27418787753
 11
794.438673551032
 21
-3763.62418787753
  0
LINE
  5
1A4
100
AcDbEntity
  8
1
  6
CONTINUOUS
 62
           2
100
AcDbLine
 10
794.438673551032
 20
-3763.62418787753
 11
793.388673551032
 21
-3763.974187877529
  0
LINE
  5
1A3
100
AcDbEntity
  8
1
  6
CONTINUOUS
 62
           2
100
AcDbLine
 10
793.388673551032
 20
-3763.974187877529
 11
794.788673551032
 21
-3764.324187877529
  0
LINE
  5
1A2
100
AcDbEntity
  8
1
  6
CONTINUOUS
 62
           2
100
AcDbLine
 10
794.788673551032
 20
-3764.324187877529
 11
795.488673551032
 21
-3765.02418787753
  0
LINE
  5
1A1
100
AcDbEntity
  8
1
  6
CONTINUOUS
 62
           2
100
AcDbLine
 10
795.488673551032
 20
-3765.02418787753
 11
795.838673551032
 21
-3765.724187877529
  0
LINE
  5
1A0
100
AcDbEntity
  8
1
  6
CONTINUOUS
 62
           2
100
AcDbLine
 10
795.838673551032
 20
-3765.724187877529
 11
796.188673551032
 21
-3767.12418787753
  0
LINE
  5
19F
100
AcDbEntity
  8
1
  6
CONTINUOUS
 62
           2
100
AcDbLine
 10
796.188673551032
 20
-3767.12418787753
 11
796.188673551032
 21
-3768.87418787753
  0
LINE
  5
19E
100
AcDbEntity
  8
1
  6
CONTINUOUS
 62
           2
100
AcDbLine
 10
796.188673551032
 20
-3768.87418787753
 11
795.838673551032
 21
-3770.27418787753
  0
LINE
  5
19D
100
AcDbEntity
  8
1
  6
CONTINUOUS
 62
           2
100
AcDbLine
 10
795.838673551032
 20
-3770.27418787753
 11
795.138673551032
 21
-3771.324187877529
  0
LINE
  5
19C
100
AcDbEntity
  8
1
  6
CONTINUOUS
 62
           2
100
AcDbLine
 10
795.138673551032
 20
-3771.324187877529
 11
794.088673551032
 21
-3772.02418787753
  0
LINE
  5
19B
100
AcDbEntity
  8
1
  6
CONTINUOUS
 62
           2
100
AcDbLine
 10
794.088673551032
 20
-3772.02418787753
 11
793.038673551032
 21
-3772.37418787753
  0
LINE
  5
19A
100
AcDbEntity
  8
1
  6
CONTINUOUS
 62
           2
100
AcDbLine
 10
793.038673551032
 20
-3772.37418787753
 11
787.788673551032
 21
-3772.37418787753
  0
LINE
  5
199
100
AcDbEntity
  8
1
  6
CONTINUOUS
 62
           2
100
AcDbLine
 10
810.188673551032
 20
-3758.37418787753
 11
810.188673551032
 21
-3764.67418787753
  0
LINE
  5
198
100
AcDbEntity
  8
1
  6
CONTINUOUS
 62
           2
100
AcDbLine
 10
800.388673551032
 20
-3764.67418787753
 11
810.188673551032
 21
-3764.67418787753
  0
LINE
  5
197
100
AcDbEntity
  8
1
  6
CONTINUOUS
 62
           2
100
AcDbLine
 10
800.388673551032
 20
-3758.37418787753
 11
800.388673551032
 21
-3764.67418787753
  0
LINE
  5
196
100
AcDbEntity
  8
1
  6
CONTINUOUS
 62
           2
100
AcDbLine
 10
800.388673551032
 20
-3765.37418787753
 11
800.388673551032
 21
-3772.37418787753
  0
LINE
  5
195
100
AcDbEntity
  8
1
  6
CONTINUOUS
 62
           2
100
AcDbLine
 10
810.188673551032
 20
-3764.67418787753
 11
810.188673551032
 21
-3772.37418787753
  0
LINE
  5
194
100
AcDbEntity
  8
1
  6
CONTINUOUS
 62
           2
100
AcDbLine
 10
800.388673551032
 20
-3764.67418787753
 11
800.388673551032
 21
-3765.37418787753
  0
LINE
  5
193
100
AcDbEntity
  8
1
  6
CONTINUOUS
 62
           2
100
AcDbLine
 10
814.388673551032
 20
-3764.67418787753
 11
819.988673551032
 21
-3764.67418787753
  0
LINE
  5
192
100
AcDbEntity
  8
1
  6
CONTINUOUS
 62
           2
100
AcDbLine
 10
819.988673551032
 20
-3764.67418787753
 11
820.688673551032
 21
-3764.67418787753
  0
LINE
  5
191
100
AcDbEntity
  8
1
  6
CONTINUOUS
 62
           2
100
AcDbLine
 10
820.688673551032
 20
-3764.67418787753
 11
822.088673551032
 21
-3765.37418787753
  0
LINE
  5
190
100
AcDbEntity
  8
1
  6
CONTINUOUS
 62
           2
100
AcDbLine
 10
822.088673551032
 20
-3765.37418787753
 11
822.788673551032
 21
-3766.074187877529
  0
LINE
  5
18F
100
AcDbEntity
  8
1
  6
CONTINUOUS
 62
           2
100
AcDbLine
 10
822.788673551032
 20
-3766.074187877529
 11
823.488673551032
 21
-3767.824187877529
  0
LINE
  5
18E
100
AcDbEntity
  8
1
  6
CONTINUOUS
 62
           2
100
AcDbLine
 10
823.488673551032
 20
-3767.824187877529
 11
823.488673551032
 21
-3769.574187877529
  0
LINE
  5
18D
100
AcDbEntity
  8
1
  6
CONTINUOUS
 62
           2
100
AcDbLine
 10
823.488673551032
 20
-3769.574187877529
 11
822.788673551032
 21
-3770.974187877529
  0
LINE
  5
18C
100
AcDbEntity
  8
1
  6
CONTINUOUS
 62
           2
100
AcDbLine
 10
822.788673551032
 20
-3770.974187877529
 11
822.088673551032
 21
-3771.67418787753
  0
LINE
  5
18B
100
AcDbEntity
  8
1
  6
CONTINUOUS
 62
           2
100
AcDbLine
 10
822.088673551032
 20
-3771.67418787753
 11
820.688673551032
 21
-3772.37418787753
  0
LINE
  5
18A
100
AcDbEntity
  8
1
  6
CONTINUOUS
 62
           2
100
AcDbLine
 10
820.688673551032
 20
-3772.37418787753
 11
814.388673551032
 21
-3772.37418787753
  0
LINE
  5
189
100
AcDbEntity
  8
1
  6
CONTINUOUS
 62
           2
100
AcDbLine
 10
814.388673551032
 20
-3772.37418787753
 11
814.388673551032
 21
-3764.67418787753
  0
LINE
  5
188
100
AcDbEntity
  8
1
  6
CONTINUOUS
 62
           2
100
AcDbLine
 10
814.388673551032
 20
-3758.37418787753
 11
819.638673551032
 21
-3758.37418787753
  0
LINE
  5
187
100
AcDbEntity
  8
1
  6
CONTINUOUS
 62
           2
100
AcDbLine
 10
819.638673551032
 20
-3758.37418787753
 11
821.388673551032
 21
-3758.724187877529
  0
LINE
  5
186
100
AcDbEntity
  8
1
  6
CONTINUOUS
 62
           2
100
AcDbLine
 10
821.388673551032
 20
-3758.724187877529
 11
822.438673551032
 21
-3759.77418787753
  0
LINE
  5
185
100
AcDbEntity
  8
1
  6
CONTINUOUS
 62
           2
100
AcDbLine
 10
822.438673551032
 20
-3759.77418787753
 11
822.788673551032
 21
-3761.17418787753
  0
LINE
  5
184
100
AcDbEntity
  8
1
  6
CONTINUOUS
 62
           2
100
AcDbLine
 10
822.788673551032
 20
-3761.17418787753
 11
822.788673551032
 21
-3762.224187877529
  0
LINE
  5
183
100
AcDbEntity
  8
1
  6
CONTINUOUS
 62
           2
100
AcDbLine
 10
822.788673551032
 20
-3762.224187877529
 11
822.088673551032
 21
-3763.62418787753
  0
LINE
  5
182
100
AcDbEntity
  8
1
  6
CONTINUOUS
 62
           2
100
AcDbLine
 10
822.088673551032
 20
-3763.62418787753
 11
821.038673551032
 21
-3764.324187877529
  0
LINE
  5
181
100
AcDbEntity
  8
1
  6
CONTINUOUS
 62
           2
100
AcDbLine
 10
821.038673551032
 20
-3764.324187877529
 11
819.988673551032
 21
-3764.67418787753
  0
LINE
  5
180
100
AcDbEntity
  8
1
  6
CONTINUOUS
 62
           2
100
AcDbLine
 10
814.388673551032
 20
-3764.67418787753
 11
814.388673551032
 21
-3758.37418787753
  0
LINE
  5
17F
100
AcDbEntity
  8
1
  6
CONTINUOUS
 62
           2
100
AcDbLine
 10
827.688673551032
 20
-3767.474187877529
 11
834.688673551032
 21
-3767.474187877529
  0
LINE
  5
17E
100
AcDbEntity
  8
1
  6
CONTINUOUS
 62
           2
100
AcDbLine
 10
838.888673551032
 20
-3762.574187877529
 11
843.088673551032
 21
-3758.37418787753
  0
LINE
  5
17D
100
AcDbEntity
  8
1
  6
CONTINUOUS
 62
           2
100
AcDbLine
 10
843.088673551032
 20
-3758.37418787753
 11
843.088673551032
 21
-3772.37418787753
  0
LINE
  5
17C
100
AcDbEntity
  8
1
  6
CONTINUOUS
 62
           2
100
AcDbLine
 10
855.688673551032
 20
-3767.12418787753
 11
855.338673551032
 21
-3769.224187877529
  0
LINE
  5
17B
100
AcDbEntity
  8
1
  6
CONTINUOUS
 62
           2
100
AcDbLine
 10
855.338673551032
 20
-3769.224187877529
 11
854.638673551032
 21
-3770.62418787753
  0
LINE
  5
17A
100
AcDbEntity
  8
1
  6
CONTINUOUS
 62
           2
100
AcDbLine
 10
854.638673551032
 20
-3770.62418787753
 11
853.938673551032
 21
-3771.324187877529
  0
LINE
  5
179
100
AcDbEntity
  8
1
  6
CONTINUOUS
 62
           2
100
AcDbLine
 10
853.938673551032
 20
-3771.324187877529
 11
852.888673551032
 21
-3772.02418787753
  0
LINE
  5
178
100
AcDbEntity
  8
1
  6
CONTINUOUS
 62
           2
100
AcDbLine
 10
852.888673551032
 20
-3772.02418787753
 11
851.838673551032
 21
-3772.37418787753
  0
LINE
  5
177
100
AcDbEntity
  8
1
  6
CONTINUOUS
 62
           2
100
AcDbLine
 10
851.838673551032
 20
-3772.37418787753
 11
851.138673551032
 21
-3772.37418787753
  0
LINE
  5
176
100
AcDbEntity
  8
1
  6
CONTINUOUS
 62
           2
100
AcDbLine
 10
851.138673551032
 20
-3772.37418787753
 11
850.088673551032
 21
-3772.02418787753
  0
LINE
  5
175
100
AcDbEntity
  8
1
  6
CONTINUOUS
 62
           2
100
AcDbLine
 10
850.088673551032
 20
-3772.02418787753
 11
849.038673551032
 21
-3771.324187877529
  0
LINE
  5
174
100
AcDbEntity
  8
1
  6
CONTINUOUS
 62
           2
100
AcDbLine
 10
849.038673551032
 20
-3771.324187877529
 11
848.338673551032
 21
-3770.62418787753
  0
LINE
  5
173
100
AcDbEntity
  8
1
  6
CONTINUOUS
 62
           2
100
AcDbLine
 10
848.338673551032
 20
-3770.62418787753
 11
847.638673551032
 21
-3769.224187877529
  0
LINE
  5
172
100
AcDbEntity
  8
1
  6
CONTINUOUS
 62
           2
100
AcDbLine
 10
847.638673551032
 20
-3769.224187877529
 11
847.288673551032
 21
-3767.12418787753
  0
LINE
  5
171
100
AcDbEntity
  8
1
  6
CONTINUOUS
 62
           2
100
AcDbLine
 10
847.288673551032
 20
-3767.12418787753
 11
847.288673551032
 21
-3763.62418787753
  0
LINE
  5
170
100
AcDbEntity
  8
1
  6
CONTINUOUS
 62
           2
100
AcDbLine
 10
847.288673551032
 20
-3763.62418787753
 11
847.638673551032
 21
-3761.52418787753
  0
LINE
  5
16F
100
AcDbEntity
  8
1
  6
CONTINUOUS
 62
           2
100
AcDbLine
 10
847.638673551032
 20
-3761.52418787753
 11
848.338673551032
 21
-3760.12418787753
  0
LINE
  5
16E
100
AcDbEntity
  8
1
  6
CONTINUOUS
 62
           2
100
AcDbLine
 10
848.338673551032
 20
-3760.12418787753
 11
849.038673551032
 21
-3759.42418787753
  0
LINE
  5
16D
100
AcDbEntity
  8
1
  6
CONTINUOUS
 62
           2
100
AcDbLine
 10
849.038673551032
 20
-3759.42418787753
 11
850.088673551032
 21
-3758.724187877529
  0
LINE
  5
16C
100
AcDbEntity
  8
1
  6
CONTINUOUS
 62
           2
100
AcDbLine
 10
850.088673551032
 20
-3758.724187877529
 11
851.138673551032
 21
-3758.37418787753
  0
LINE
  5
16B
100
AcDbEntity
  8
1
  6
CONTINUOUS
 62
           2
100
AcDbLine
 10
851.138673551032
 20
-3758.37418787753
 11
851.838673551032
 21
-3758.37418787753
  0
LINE
  5
16A
100
AcDbEntity
  8
1
  6
CONTINUOUS
 62
           2
100
AcDbLine
 10
851.838673551032
 20
-3758.37418787753
 11
852.888673551032
 21
-3758.724187877529
  0
LINE
  5
169
100
AcDbEntity
  8
1
  6
CONTINUOUS
 62
           2
100
AcDbLine
 10
852.888673551032
 20
-3758.724187877529
 11
853.938673551032
 21
-3759.42418787753
  0
LINE
  5
168
100
AcDbEntity
  8
1
  6
CONTINUOUS
 62
           2
100
AcDbLine
 10
853.938673551032
 20
-3759.42418787753
 11
854.638673551032
 21
-3760.12418787753
  0
LINE
  5
167
100
AcDbEntity
  8
1
  6
CONTINUOUS
 62
           2
100
AcDbLine
 10
854.638673551032
 20
-3760.12418787753
 11
855.338673551032
 21
-3761.52418787753
  0
LINE
  5
166
100
AcDbEntity
  8
1
  6
CONTINUOUS
 62
           2
100
AcDbLine
 10
855.338673551032
 20
-3761.52418787753
 11
855.688673551032
 21
-3763.62418787753
  0
LINE
  5
165
100
AcDbEntity
  8
1
  6
CONTINUOUS
 62
           2
100
AcDbLine
 10
855.688673551032
 20
-3763.62418787753
 11
855.688673551032
 21
-3767.12418787753
  0
LINE
  5
164
100
AcDbEntity
  8
1
  6
CONTINUOUS
 62
           2
100
AcDbLine
 10
868.288673551032
 20
-3767.12418787753
 11
867.938673551032
 21
-3769.224187877529
  0
LINE
  5
163
100
AcDbEntity
  8
1
  6
CONTINUOUS
 62
           2
100
AcDbLine
 10
867.938673551032
 20
-3769.224187877529
 11
867.238673551032
 21
-3770.62418787753
  0
LINE
  5
162
100
AcDbEntity
  8
1
  6
CONTINUOUS
 62
           2
100
AcDbLine
 10
867.238673551032
 20
-3770.62418787753
 11
866.538673551032
 21
-3771.324187877529
  0
LINE
  5
161
100
AcDbEntity
  8
1
  6
CONTINUOUS
 62
           2
100
AcDbLine
 10
866.538673551032
 20
-3771.324187877529
 11
865.488673551032
 21
-3772.02418787753
  0
LINE
  5
160
100
AcDbEntity
  8
1
  6
CONTINUOUS
 62
           2
100
AcDbLine
 10
865.488673551032
 20
-3772.02418787753
 11
864.438673551032
 21
-3772.37418787753
  0
LINE
  5
15F
100
AcDbEntity
  8
1
  6
CONTINUOUS
 62
           2
100
AcDbLine
 10
864.438673551032
 20
-3772.37418787753
 11
863.738673551032
 21
-3772.37418787753
  0
LINE
  5
15E
100
AcDbEntity
  8
1
  6
CONTINUOUS
 62
           2
100
AcDbLine
 10
863.738673551032
 20
-3772.37418787753
 11
862.688673551032
 21
-3772.02418787753
  0
LINE
  5
15D
100
AcDbEntity
  8
1
  6
CONTINUOUS
 62
           2
100
AcDbLine
 10
862.688673551032
 20
-3772.02418787753
 11
861.638673551032
 21
-3771.324187877529
  0
LINE
  5
15C
100
AcDbEntity
  8
1
  6
CONTINUOUS
 62
           2
100
AcDbLine
 10
861.638673551032
 20
-3771.324187877529
 11
860.938673551032
 21
-3770.62418787753
  0
LINE
  5
15B
100
AcDbEntity
  8
1
  6
CONTINUOUS
 62
           2
100
AcDbLine
 10
860.938673551032
 20
-3770.62418787753
 11
860.238673551032
 21
-3769.224187877529
  0
LINE
  5
15A
100
AcDbEntity
  8
1
  6
CONTINUOUS
 62
           2
100
AcDbLine
 10
860.238673551032
 20
-3769.224187877529
 11
859.888673551032
 21
-3767.12418787753
  0
LINE
  5
159
100
AcDbEntity
  8
1
  6
CONTINUOUS
 62
           2
100
AcDbLine
 10
859.888673551032
 20
-3767.12418787753
 11
859.888673551032
 21
-3763.62418787753
  0
LINE
  5
158
100
AcDbEntity
  8
1
  6
CONTINUOUS
 62
           2
100
AcDbLine
 10
859.888673551032
 20
-3763.62418787753
 11
860.238673551032
 21
-3761.52418787753
  0
LINE
  5
157
100
AcDbEntity
  8
1
  6
CONTINUOUS
 62
           2
100
AcDbLine
 10
860.238673551032
 20
-3761.52418787753
 11
860.938673551032
 21
-3760.12418787753
  0
LINE
  5
156
100
AcDbEntity
  8
1
  6
CONTINUOUS
 62
           2
100
AcDbLine
 10
860.938673551032
 20
-3760.12418787753
 11
861.638673551032
 21
-3759.42418787753
  0
LINE
  5
155
100
AcDbEntity
  8
1
  6
CONTINUOUS
 62
           2
100
AcDbLine
 10
861.638673551032
 20
-3759.42418787753
 11
862.688673551032
 21
-3758.724187877529
  0
LINE
  5
154
100
AcDbEntity
  8
1
  6
CONTINUOUS
 62
           2
100
AcDbLine
 10
862.688673551032
 20
-3758.724187877529
 11
863.738673551032
 21
-3758.37418787753
  0
LINE
  5
153
100
AcDbEntity
  8
1
  6
CONTINUOUS
 62
           2
100
AcDbLine
 10
863.738673551032
 20
-3758.37418787753
 11
864.438673551032
 21
-3758.37418787753
  0
LINE
  5
152
100
AcDbEntity
  8
1
  6
CONTINUOUS
 62
           2
100
AcDbLine
 10
864.438673551032
 20
-3758.37418787753
 11
865.488673551032
 21
-3758.724187877529
  0
LINE
  5
151
100
AcDbEntity
  8
1
  6
CONTINUOUS
 62
           2
100
AcDbLine
 10
865.488673551032
 20
-3758.724187877529
 11
866.538673551032
 21
-3759.42418787753
  0
LINE
  5
150
100
AcDbEntity
  8
1
  6
CONTINUOUS
 62
           2
100
AcDbLine
 10
866.538673551032
 20
-3759.42418787753
 11
867.238673551032
 21
-3760.12418787753
  0
LINE
  5
14F
100
AcDbEntity
  8
1
  6
CONTINUOUS
 62
           2
100
AcDbLine
 10
867.238673551032
 20
-3760.12418787753
 11
867.938673551032
 21
-3761.52418787753
  0
LINE
  5
14E
100
AcDbEntity
  8
1
  6
CONTINUOUS
 62
           2
100
AcDbLine
 10
867.938673551032
 20
-3761.52418787753
 11
868.288673551032
 21
-3763.62418787753
  0
LINE
  5
14D
100
AcDbEntity
  8
1
  6
CONTINUOUS
 62
           2
100
AcDbLine
 10
868.288673551032
 20
-3763.62418787753
 11
868.288673551032
 21
-3767.12418787753
  0
LINE
  5
14C
100
AcDbEntity
  8
1
  6
CONTINUOUS
 62
           2
100
AcDbLine
 10
726.810895773255
 20
-3799.73668787753
 11
726.810895773255
 21
-3795.36168787753
  0
LINE
  5
14B
100
AcDbEntity
  8
1
  6
CONTINUOUS
 62
           2
100
AcDbLine
 10
726.422006884366
 20
-3788.79918787753
 11
726.422006884366
 21
-3787.04918787753
  0
LINE
  5
14A
100
AcDbEntity
  8
1
  6
CONTINUOUS
 62
           2
100
AcDbLine
 10
724.86645132881
 20
-3790.11168787753
 11
723.699784662143
 21
-3792.73668787753
  0
LINE
  5
149
100
AcDbEntity
  8
1
  6
CONTINUOUS
 62
           2
100
AcDbLine
 10
723.699784662143
 20
-3792.73668787753
 11
721.36645132881
 21
-3794.04918787753
  0
LINE
  5
148
100
AcDbEntity
  8
1
  6
CONTINUOUS
 62
           2
100
AcDbLine
 10
721.755340217699
 20
-3790.98668787753
 11
721.755340217699
 21
-3788.79918787753
  0
LINE
  5
147
100
AcDbEntity
  8
1
  6
CONTINUOUS
 62
           2
100
AcDbLine
 10
721.755340217699
 20
-3788.79918787753
 11
726.422006884366
 21
-3788.79918787753
  0
LINE
  5
146
100
AcDbEntity
  8
1
  6
CONTINUOUS
 62
           2
100
AcDbLine
 10
731.86645132881
 20
-3788.79918787753
 11
731.86645132881
 21
-3790.54918787753
  0
LINE
  5
145
100
AcDbEntity
  8
1
  6
CONTINUOUS
 62
           2
100
AcDbLine
 10
727.977562439921
 20
-3790.11168787753
 11
727.977562439921
 21
-3793.17418787753
  0
LINE
  5
144
100
AcDbEntity
  8
1
  6
CONTINUOUS
 62
           2
100
AcDbLine
 10
727.977562439921
 20
-3793.17418787753
 11
731.477562439921
 21
-3793.17418787753
  0
LINE
  5
143
100
AcDbEntity
  8
1
  6
CONTINUOUS
 62
           2
100
AcDbLine
 10
731.477562439921
 20
-3793.17418787753
 11
731.86645132881
 21
-3791.86168787753
  0
LINE
  5
142
100
AcDbEntity
  8
1
  6
CONTINUOUS
 62
           2
100
AcDbLine
 10
730.699784662143
 20
-3795.36168787753
 11
726.810895773255
 21
-3795.36168787753
  0
LINE
  5
141
100
AcDbEntity
  8
1
  6
CONTINUOUS
 62
           2
100
AcDbLine
 10
721.36645132881
 20
-3799.73668787753
 11
726.810895773255
 21
-3799.73668787753
  0
LINE
  5
140
100
AcDbEntity
  8
1
  6
CONTINUOUS
 62
           2
100
AcDbLine
 10
726.422006884366
 20
-3788.79918787753
 11
731.86645132881
 21
-3788.79918787753
  0
LINE
  5
13F
100
AcDbEntity
  8
1
  6
CONTINUOUS
 62
           2
100
AcDbLine
 10
726.810895773255
 20
-3795.36168787753
 11
722.533117995477
 21
-3795.36168787753
  0
LINE
  5
13E
100
AcDbEntity
  8
1
  6
CONTINUOUS
 62
           2
100
AcDbLine
 10
726.810895773255
 20
-3799.73668787753
 11
732.255340217699
 21
-3799.73668787753
  0
LINE
  5
13D
100
AcDbEntity
  8
1
  6
CONTINUOUS
 62
           2
100
AcDbLine
 10
734.588673551032
 20
-3799.73668787753
 11
737.310895773255
 21
-3798.42418787753
  0
LINE
  5
13C
100
AcDbEntity
  8
1
  6
CONTINUOUS
 62
           2
100
AcDbLine
 10
737.310895773255
 20
-3798.42418787753
 11
740.033117995477
 21
-3795.79918787753
  0
LINE
  5
13B
100
AcDbEntity
  8
1
  6
CONTINUOUS
 62
           2
100
AcDbLine
 10
740.033117995477
 20
-3795.79918787753
 11
741.588673551032
 21
-3793.61168787753
  0
LINE
  5
13A
100
AcDbEntity
  8
1
  6
CONTINUOUS
 62
           2
100
AcDbLine
 10
741.588673551032
 20
-3798.86168787753
 11
737.699784662143
 21
-3794.48668787753
  0
LINE
  5
139
100
AcDbEntity
  8
1
  6
CONTINUOUS
 62
           2
100
AcDbLine
 10
735.36645132881
 20
-3790.11168787753
 11
737.310895773255
 21
-3786.61168787753
  0
LINE
  5
138
100
AcDbEntity
  8
1
  6
CONTINUOUS
 62
           2
100
AcDbLine
 10
736.533117995477
 20
-3788.36168787753
 11
745.088673551032
 21
-3788.36168787753
  0
LINE
  5
137
100
AcDbEntity
  8
1
  6
CONTINUOUS
 62
           2
100
AcDbLine
 10
744.310895773255
 20
-3790.11168787753
 11
736.922006884366
 21
-3790.11168787753
  0
LINE
  5
136
100
AcDbEntity
  8
1
  6
CONTINUOUS
 62
           2
100
AcDbLine
 10
735.36645132881
 20
-3791.86168787753
 11
743.922006884366
 21
-3791.86168787753
  0
LINE
  5
135
100
AcDbEntity
  8
1
  6
CONTINUOUS
 62
           2
100
AcDbLine
 10
743.922006884366
 20
-3791.86168787753
 11
743.922006884366
 21
-3794.48668787753
  0
LINE
  5
134
100
AcDbEntity
  8
1
  6
CONTINUOUS
 62
           2
100
AcDbLine
 10
743.922006884366
 20
-3794.48668787753
 11
744.310895773255
 21
-3797.54918787753
  0
LINE
  5
133
100
AcDbEntity
  8
1
  6
CONTINUOUS
 62
           2
100
AcDbLine
 10
744.310895773255
 20
-3797.54918787753
 11
745.088673551032
 21
-3798.86168787753
  0
LINE
  5
132
100
AcDbEntity
  8
1
  6
CONTINUOUS
 62
           2
100
AcDbLine
 10
745.088673551032
 20
-3798.86168787753
 11
746.255340217699
 21
-3799.73668787753
  0
LINE
  5
131
100
AcDbEntity
  8
1
  6
CONTINUOUS
 62
           2
100
AcDbLine
 10
746.255340217699
 20
-3799.73668787753
 11
746.644229106588
 21
-3798.86168787753
  0
LINE
  5
130
100
AcDbEntity
  8
1
  6
CONTINUOUS
 62
           2
100
AcDbLine
 10
750.922006884366
 20
-3798.42418787753
 11
754.422006884366
 21
-3795.79918787753
  0
LINE
  5
12F
100
AcDbEntity
  8
1
  6
CONTINUOUS
 62
           2
100
AcDbLine
 10
754.422006884366
 20
-3795.79918787753
 11
757.533117995477
 21
-3792.29918787753
  0
LINE
  5
12E
100
AcDbEntity
  8
1
  6
CONTINUOUS
 62
           2
100
AcDbLine
 10
757.533117995477
 20
-3792.29918787753
 11
759.088673551032
 21
-3789.23668787753
  0
LINE
  5
12D
100
AcDbEntity
  8
1
  6
CONTINUOUS
 62
           2
100
AcDbLine
 10
759.088673551032
 20
-3789.23668787753
 11
754.033117995477
 21
-3789.23668787753
  0
LINE
  5
12C
100
AcDbEntity
  8
1
  6
CONTINUOUS
 62
           2
100
AcDbLine
 10
755.199784662143
 20
-3787.48668787753
 11
753.255340217699
 21
-3790.11168787753
  0
LINE
  5
12B
100
AcDbEntity
  8
1
  6
CONTINUOUS
 62
           2
100
AcDbLine
 10
753.255340217699
 20
-3790.11168787753
 11
751.310895773255
 21
-3792.29918787753
  0
LINE
  5
12A
100
AcDbEntity
  8
1
  6
CONTINUOUS
 62
           2
100
AcDbLine
 10
754.422006884366
 20
-3791.86168787753
 11
757.533117995477
 21
-3795.36168787753
  0
LINE
  5
129
100
AcDbEntity
  8
1
  6
CONTINUOUS
 62
           2
100
AcDbLine
 10
764.922006884366
 20
-3789.67418787753
 11
766.86645132881
 21
-3791.86168787753
  0
LINE
  5
128
100
AcDbEntity
  8
1
  6
CONTINUOUS
 62
           2
100
AcDbLine
 10
765.310895773255
 20
-3797.54918787753
 11
768.033117995477
 21
-3796.23668787753
  0
LINE
  5
127
100
AcDbEntity
  8
1
  6
CONTINUOUS
 62
           2
100
AcDbLine
 10
768.033117995477
 20
-3796.23668787753
 11
771.144229106588
 21
-3793.17418787753
  0
LINE
  5
126
100
AcDbEntity
  8
1
  6
CONTINUOUS
 62
           2
100
AcDbLine
 10
771.144229106588
 20
-3793.17418787753
 11
773.088673551032
 21
-3790.54918787753
  0
LINE
  5
125
100
AcDbEntity
  8
1
  6
CONTINUOUS
 62
           2
100
AcDbLine
 10
779.699784662143
 20
-3793.17418787753
 11
782.033117995477
 21
-3790.54918787753
  0
LINE
  5
124
100
AcDbEntity
  8
1
  6
CONTINUOUS
 62
           2
100
AcDbLine
 10
782.033117995477
 20
-3790.54918787753
 11
783.588673551032
 21
-3788.36168787753
  0
LINE
  5
123
100
AcDbEntity
  8
1
  6
CONTINUOUS
 62
           2
100
AcDbLine
 10
782.422006884366
 20
-3790.11168787753
 11
786.699784662143
 21
-3790.11168787753
  0
LINE
  5
122
100
AcDbEntity
  8
1
  6
CONTINUOUS
 62
           2
100
AcDbLine
 10
786.699784662143
 20
-3790.11168787753
 11
784.755340217699
 21
-3793.61168787753
  0
LINE
  5
121
100
AcDbEntity
  8
1
  6
CONTINUOUS
 62
           2
100
AcDbLine
 10
784.755340217699
 20
-3793.61168787753
 11
782.033117995477
 21
-3796.67418787753
  0
LINE
  5
120
100
AcDbEntity
  8
1
  6
CONTINUOUS
 62
           2
100
AcDbLine
 10
782.033117995477
 20
-3796.67418787753
 11
779.310895773255
 21
-3798.86168787753
  0
INSERT
  5
33
100
AcDbEntity
  8
0
100
AcDbBlockReference
  2
02950700
 10
0.0
 20
0.0
  0
INSERT
  5
34
100
AcDbEntity
  8
0
100
AcDbBlockReference
  2
06680302
 10
0.0
 20
0.0
  0
INSERT
  5
35
100
AcDbEntity
  8
0
100
AcDbBlockReference
  2
COYO1_40
 10
0.0
 20
0.0
  0
ENDSEC
  0
SECTION
  2
OBJECTS
  0
DICTIONARY
  5
19
100
AcDbDictionary
  3
ACAD_GROUP
350
1A
  3
ACAD_MLINESTYLE
350
1B
  0
DICTIONARY
  5
1A
102
{ACAD_REACTORS
330
19
102
}
100
AcDbDictionary
  0
DICTIONARY
  5
1B
102
{ACAD_REACTORS
330
19
102
}
100
AcDbDictionary
  3
STANDARD
350
1C
  0
MLINESTYLE
  5
1C
102
{ACAD_REACTORS
330
1B
102
}
100
AcDbMlineStyle
  2
STANDARD
 70
           0
  3

 62
           0
 51
90.0
 52
90.0
 71
           2
 49
0.5
 62
         256
  6
BYLAYER
 49
-0.5
 62
         256
  6
BYLAYER
  0
ENDSEC
  0
EOF
