  0
SECTION
  2
HEADER
  9
$ACADVER
  1
AC1014
  9
$ACADMAINTVER
 70
           0
  9
$DWGCODEPAGE
  3
DOS932
  9
$INSBASE
 10
0.0
 20
0.0
 30
0.0
  9
$EXTMIN
 10
1.000000000000E+20
 20
1.000000000000E+20
 30
1.000000000000E+20
  9
$EXTMAX
 10
-1.000000000000E+20
 20
-1.000000000000E+20
 30
-1.000000000000E+20
  9
$LIMMIN
 10
0.0
 20
0.0
  9
$LIMMAX
 10
0.0
 20
0.0
  9
$ORTHOMODE
 70
           0
  9
$REGENMODE
 70
           1
  9
$FILLMODE
 70
           1
  9
$QTEXTMODE
 70
           0
  9
$MIRRTEXT
 70
           1
  9
$DRAGMODE
 70
           2
  9
$LTSCALE
 40
1.0
  9
$OSMODE
 70
           0
  9
$ATTMODE
 70
           1
  9
$TEXTSIZE
 40
0.2
  9
$TRACEWID
 40
0.05
  9
$TEXTSTYLE
  7
STANDARD
  9
$CLAYER
  8
0
  9
$CELTYPE
  6
CONTINUOUS
  9
$CECOLOR
 62
         256
  9
$CELTSCALE
 40
1.0
  9
$DELOBJ
 70
           1
  9
$DISPSILH
 70
           0
  9
$DIMSCALE
 40
1.0
  9
$DIMASZ
 40
0.18
  9
$DIMEXO
 40
0.0625
  9
$DIMDLI
 40
0.38
  9
$DIMRND
 40
0.0
  9
$DIMDLE
 40
0.0
  9
$DIMEXE
 40
0.18
  9
$DIMTP
 40
0.0
  9
$DIMTM
 40
0.0
  9
$DIMTXT
 40
0.18
  9
$DIMCEN
 40
0.09
  9
$DIMTSZ
 40
0.0
  9
$DIMTOL
 70
           0
  9
$DIMLIM
 70
           0
  9
$DIMTIH
 70
           1
  9
$DIMTOH
 70
           1
  9
$DIMSE1
 70
           0
  9
$DIMSE2
 70
           0
  9
$DIMTAD
 70
           0
  9
$DIMZIN
 70
           0
  9
$DIMBLK
  1

  9
$DIMASO
 70
           1
  9
$DIMSHO
 70
           1
  9
$DIMPOST
  1

  9
$DIMAPOST
  1

  9
$DIMALT
 70
           0
  9
$DIMALTD
 70
           2
  9
$DIMALTF
 40
25.4
  9
$DIMLFAC
 40
1.0
  9
$DIMTOFL
 70
           0
  9
$DIMTVP
 40
0.0
  9
$DIMTIX
 70
           0
  9
$DIMSOXD
 70
           0
  9
$DIMSAH
 70
           0
  9
$DIMBLK1
  1

  9
$DIMBLK2
  1

  9
$DIMSTYLE
  2
STANDARD
  9
$DIMCLRD
 70
           0
  9
$DIMCLRE
 70
           0
  9
$DIMCLRT
 70
           0
  9
$DIMTFAC
 40
1.0
  9
$DIMGAP
 40
0.09
  9
$DIMJUST
 70
           0
  9
$DIMSD1
 70
           0
  9
$DIMSD2
 70
           0
  9
$DIMTOLJ
 70
           1
  9
$DIMTZIN
 70
           0
  9
$DIMALTZ
 70
           0
  9
$DIMALTTZ
 70
           0
  9
$DIMFIT
 70
           3
  9
$DIMUPT
 70
           0
  9
$DIMUNIT
 70
           2
  9
$DIMDEC
 70
           4
  9
$DIMTDEC
 70
           4
  9
$DIMALTU
 70
           2
  9
$DIMALTTD
 70
           2
  9
$DIMTXSTY
  7
STANDARD
  9
$DIMAUNIT
 70
           0
  9
$LUNITS
 70
           2
  9
$LUPREC
 70
           4
  9
$SKETCHINC
 40
0.1
  9
$FILLETRAD
 40
0.0
  9
$AUNITS
 70
           0
  9
$AUPREC
 70
           0
  9
$MENU
  1
acad
  9
$ELEVATION
 40
0.0
  9
$PELEVATION
 40
0.0
  9
$THICKNESS
 40
0.0
  9
$LIMCHECK
 70
           0
  9
$BLIPMODE
 70
           1
  9
$CHAMFERA
 40
0.0
  9
$CHAMFERB
 40
0.0
  9
$CHAMFERC
 40
0.0
  9
$CHAMFERD
 40
0.0
  9
$SKPOLY
 70
           0
  9
$TDCREATE
 40
0.000000000
  9
$TDUPDATE
 40
0.000000000
  9
$TDINDWG
 40
0.0000000000
  9
$TDUSRTIMER
 40
0.0000000000
  9
$USRTIMER
 70
           1
  9
$ANGBASE
 50
0.0
  9
$ANGDIR
 70
           0
  9
$PDMODE
 70
           0
  9
$PDSIZE
 40
0.0
  9
$PLINEWID
 40
0.0
  9
$COORDS
 70
           0
  9
$SPLFRAME
 70
           0
  9
$SPLINETYPE
 70
           6
  9
$SPLINESEGS
 70
           8
  9
$ATTDIA
 70
           0
  9
$ATTREQ
 70
           1
  9
$HANDLING
 70
           1
  9
$HANDSEED
  5
547
  9
$SURFTAB1
 70
           6
  9
$SURFTAB2
 70
           6
  9
$SURFTYPE
 70
           6
  9
$SURFU
 70
           6
  9
$SURFV
 70
           6
  9
$UCSNAME
  2

  9
$UCSORG
 10
0.0
 20
0.0
 30
0.0
  9
$UCSXDIR
 10
1.0
 20
0.0
 30
0.0
  9
$UCSYDIR
 10
0.0
 20
1.0
 30
0.0
  9
$PUCSNAME
  2

  9
$PUCSORG
 10
0.0
 20
0.0
 30
0.0
  9
$PUCSXDIR
 10
1.0
 20
0.0
 30
0.0
  9
$PUCSYDIR
 10
0.0
 20
1.0
 30
0.0
  9
$USERI1
 70
           0
  9
$USERI2
 70
           0
  9
$USERI3
 70
           0
  9
$USERI4
 70
           0
  9
$USERI5
 70
           0
  9
$USERR1
 40
0.0
  9
$USERR2
 40
0.0
  9
$USERR3
 40
0.0
  9
$USERR4
 40
0.0
  9
$USERR5
 40
0.0
  9
$WORLDVIEW
 70
           1
  9
$SHADEDGE
 70
           3
  9
$SHADEDIF
 70
          70
  9
$TILEMODE
 70
           1
  9
$MAXACTVP
 70
          16
  9
$PINSBASE
 10
0.0
 20
0.0
 30
0.0
  9
$PLIMCHECK
 70
           0
  9
$PEXTMIN
 10
1.000000000000E+20
 20
1.000000000000E+20
 30
1.000000000000E+20
  9
$PEXTMAX
 10
-1.000000000000E+20
 20
-1.000000000000E+20
 30
-1.000000000000E+20
  9
$PLIMMIN
 10
0.0
 20
0.0
  9
$PLIMMAX
 10
12.0
 20
9.0
  9
$UNITMODE
 70
           0
  9
$VISRETAIN
 70
           0
  9
$PLINEGEN
 70
           1
  9
$PSLTSCALE
 70
           0
  9
$TREEDEPTH
 70
        3020
  9
$PICKSTYLE
 70
           1
  9
$CMLSTYLE
  2
STANDARD
  9
$CMLJUST
 70
           0
  9
$CMLSCALE
 40
1.0
  9
$PROXYGRAPHICS
 70
           0
  9
$MEASUREMENT
 70
           0
  0
ENDSEC
  0
SECTION
  2
CLASSES
  0
CLASS
  1
LWPOLYLINE
  2
AcDbPolyline
  3
"AutoCAD"
 90
        0
280
           0
281
           1
  0
CLASS
  1
IMAGE
  2
AcDbRasterImage
  3
ISM
 90
      127
280
           0
281
           1
  0
CLASS
  1
OLE2FRAME
  2
AcDbOle2Frame
  3
""
 90
        0
280
           0
281
           1
  0
CLASS
  1
HATCH
  2
AcDbHatch
  3
"ACAD_SEDONA"
 90
        0
280
           0
281
           1
  0
CLASS
  1
DICTIONARYVAR
  2
AcDbDictionaryVar
  3
"AutoCAD"
 90
        0
280
           0
281
           0
  0
CLASS
  1
RASTERVARIABLES
  2
AcDbRasterVariables
  3
ISM
 90
        0
280
           0
281
           0
  0
CLASS
  1
IMAGEDEF
  2
AcDbRasterImageDef
  3
ISM
 90
        0
280
           0
281
           0
  0
CLASS
  1
IMAGEDEF_REACTOR
  2
AcDbRasterImageDefReactor
  3
ISM
 90
        1
280
           0
281
           0
  0
CLASS
  1
IDBUFFER
  2
AcDbIdBuffer
  3
"Acad"
 90
        0
280
           0
281
           0
  0
CLASS
  1
SPATIAL_FILTER
  2
AcDbSpatialFilter
  3
"Acad"
 90
        0
280
           0
281
           0
  0
CLASS
  1
XRECORD
  2
AcDbXrecord
  3
"<Built In>"
 90
        0
280
           0
281
           0
  0
CLASS
  1
SORTENTSTABLE
  2
AcDbSortentsTable
  3
"AutoCAD"
 90
        0
280
           0
281
           0
  0
CLASS
  1
LAYER_INDEX
  2
AcDbLayerIndex
  3
"Acad"
 90
        0
280
           0
281
           0
  0
CLASS
  1
SPATIAL_INDEX
  2
AcDbSpatialIndex
  3
"Acad"
 90
        0
280
           0
281
           0
  0
CLASS
  1
OBJECT_PTR
  2
CAseDLPNTableRecord
  3
"ASE-LPNTableRecord"
 90
        1
280
           0
281
           0
  0
CLASS
  1
LAYOUT
  2
AcDbLayout
  3
"AutoCAD 2000"
 90
        1
280
           0
281
           0
  0
CLASS
  1
PLOTSETTINGS
  2
AcDbPlotSettings
  3
"AutoCAD 2000"
 90
        1
280
           0
281
           0
  0
CLASS
  1
ACDBDICTIONARYWDFLT
  2
AcDbDictionaryWithDefault
  3
"AutoCAD 2000"
 90
        1
280
           0
281
           0
  0
CLASS
  1
ACDBPLACEHOLDER
  2
AcDbPlaceHolder
  3
"AutoCAD 2000"
 90
        1
280
           0
281
           0
  0
CLASS
  1
VBA_PROJECT
  2
AcDbVbaProject
  3
"acadvba"
 90
        1
280
           0
281
           0
  0
CLASS
  1
WIPEOUT
  2
AcDbWipeout
  3
WipeOut|AutoCAD Express Tool|expresstools@autodesk.com
 90
      127
280
           0
281
           1
  0
CLASS
  1
WIPEOUTVARIABLES
  2
AcDbWipeoutVariables
  3
WipeOut|AutoCAD Express Tool|expresstools@autodesk.com
 90
        0
280
           0
281
           0
  0
CLASS
  1
RTEXT
  2
RText
  3
RText|AutoCAD Express Tool|expresstools@autodesk.com
 90
        0
280
           0
281
           1
  0
CLASS
  1
ARCALIGNEDTEXT
  2
AcDbArcAlignedText
  3
ATEXT|AutoCAD Express Tool|expresstools@autodesk.com
 90
        0
280
           0
281
           1
  0
ENDSEC
  0
SECTION
  2
TABLES
  0
TABLE
  2
VPORT
  5
7
100
AcDbSymbolTable
 70
           1
  0
VPORT
  5
15
100
AcDbSymbolTableRecord
100
AcDbViewportTableRecord
  2
*ACTIVE
 70
           0
 10
0.0
 20
0.0
 11
1.0
 21
1.0
 12
6.591288
 22
4.579184
 13
0.0
 23
0.0
 14
1.0
 24
1.0
 15
0.0
 25
0.0
 16
0.0
 26
0.0
 36
1.0
 17
0.0
 27
0.0
 37
0.0
 40
9.158369
 41
0.688564
 42
50.0
 43
0.0
 44
0.0
 50
0.0
 51
0.0
 71
           0
 72
         100
 73
           1
 74
           1
 75
           0
 76
           0
 77
           0
 78
           0
  0
ENDTAB
  0
TABLE
  2
LTYPE
  5
4
100
AcDbSymbolTable
 70
          10
  0
LTYPE
  5
11
100
AcDbSymbolTableRecord
100
AcDbLinetypeTableRecord
  2
BYBLOCK
 70
          64
  3

 72
          65
 73
           0
 40
0.0
  0
LTYPE
  5
12
100
AcDbSymbolTableRecord
100
AcDbLinetypeTableRecord
  2
BYLAYER
 70
          64
  3

 72
          65
 73
           0
 40
0.0
  0
LTYPE
  5
13
100
AcDbSymbolTableRecord
100
AcDbLinetypeTableRecord
  2
CONTINUOUS
 70
          64
  3
Solid line
 72
          65
 73
           0
 40
0.0
  0
LTYPE
  5
1D
100
AcDbSymbolTableRecord
100
AcDbLinetypeTableRecord
  2
DASHED
 70
          64
  3
Dashed
 72
          65
 73
           2
 40
15.0
 49
12.0
 74
           0
 49
-3.0
 74
           0
  0
LTYPE
  5
1E
100
AcDbSymbolTableRecord
100
AcDbLinetypeTableRecord
  2
DOTTED
 70
          64
  3
Dotted
 72
          65
 73
           2
 40
3.5
 49
0.5
 74
           0
 49
-3.0
 74
           0
  0
LTYPE
  5
1F
100
AcDbSymbolTableRecord
100
AcDbLinetypeTableRecord
  2
DOT_CENTER
 70
          64
  3
Dot_Center
 72
          65
 73
           4
 40
2.0
 49
1.25
 74
           0
 49
-0.25
 74
           0
 49
0.25
 74
           0
 49
-0.25
 74
           0
  0
LTYPE
  5
20
100
AcDbSymbolTableRecord
100
AcDbLinetypeTableRecord
  2
LONG_DASHED
 70
          64
  3
Long_Dashed
 72
          65
 73
           2
 40
2.0
 49
1.5
 74
           0
 49
-0.5
 74
           0
  0
LTYPE
  5
21
100
AcDbSymbolTableRecord
100
AcDbLinetypeTableRecord
  2
DASH_CENTER
 70
          64
  3
Dash_Center
 72
          65
 73
           4
 40
36.0
 49
24.0
 74
           0
 49
-3.0
 74
           0
 49
6.0
 74
           0
 49
-3.0
 74
           0
  0
LTYPE
  5
22
100
AcDbSymbolTableRecord
100
AcDbLinetypeTableRecord
  2
PHANTOM
 70
          64
  3
Phantom
 72
          65
 73
           6
 40
2.5
 49
1.25
 74
           0
 49
-0.25
 74
           0
 49
0.25
 74
           0
 49
-0.25
 74
           0
 49
0.25
 74
           0
 49
-0.25
 74
           0
  0
LTYPE
  5
23
100
AcDbSymbolTableRecord
100
AcDbLinetypeTableRecord
  2
CENTER_DASH_DASH
 70
          64
  3
Center_Dash_Dash
 72
          65
 73
           6
 40
22.0
 49
12.0
 74
           0
 49
-3.0
 74
           0
 49
0.5
 74
           0
 49
-3.0
 74
           0
 49
0.5
 74
           0
 49
-3.0
 74
           0
  0
ENDTAB
  0
TABLE
  2
LAYER
  5
2
100
AcDbSymbolTable
 70
           2
  0
LAYER
  5
14
100
AcDbSymbolTableRecord
100
AcDbLayerTableRecord
  2
0
 70
           0
 62
           7
  6
CONTINUOUS
  0
LAYER
  5
24
100
AcDbSymbolTableRecord
100
AcDbLayerTableRecord
  2
1
 70
           0
 62
           7
  6
CONTINUOUS
  0
ENDTAB
  0
TABLE
  2
STYLE
  5
3
100
AcDbSymbolTable
 70
           1
  0
STYLE
  5
17
100
AcDbSymbolTableRecord
100
AcDbTextStyleTableRecord
  2
STANDARD
 70
           0
 40
0.0
 41
1.0
 50
0.0
 71
           0
 42
0.0
  3
txt
  4

  0
ENDTAB
  0
TABLE
  2
VIEW
  5
5
100
AcDbSymbolTable
 70
           0
  0
ENDTAB
  0
TABLE
  2
UCS
  5
6
100
AcDbSymbolTable
 70
           0
  0
ENDTAB
  0
TABLE
  2
APPID
  5
8
100
AcDbSymbolTable
 70
           1
  0
APPID
  5
16
100
AcDbSymbolTableRecord
100
AcDbRegAppTableRecord
  2
ACAD
 70
           0
  0
ENDTAB
  0
TABLE
  2
DIMSTYLE
  5
9
100
AcDbSymbolTable
 70
           1
  0
DIMSTYLE
105
18
100
AcDbSymbolTableRecord
100
AcDbDimStyleTableRecord
  2
STANDARD
 70
           0
  3

  4

  5

  6

  7

 40
1.0
 41
0.18
 42
0.0625
 43
0.38
 44
0.18
 45
0.0
 46
0.0
 47
0.0
 48
0.0
 71
           0
 72
           0
 73
           1
 74
           1
 75
           0
 76
           0
 77
           0
 78
           0
140
0.18
141
0.09
142
0.0
143
25.4
144
1.0
145
0.0
146
1.0
147
0.09
170
           0
171
           2
172
           0
173
           0
174
           0
175
           0
176
           0
177
           0
178
           0
270
           2
271
           4
272
           4
273
           2
274
           2
275
           0
280
           0
281
           0
282
           0
283
           1
284
           0
285
           0
286
           0
287
           0
288
           0
340
17
  0
ENDTAB
  0
TABLE
  2
BLOCK_RECORD
  5
1
100
AcDbSymbolTable
 70
           0
  0
BLOCK_RECORD
  5
A
100
AcDbSymbolTableRecord
100
AcDbBlockTableRecord
  2
*MODEL_SPACE
  0
BLOCK_RECORD
  5
B
100
AcDbSymbolTableRecord
100
AcDbBlockTableRecord
  2
*PAPER_SPACE
  0
ENDTAB
  0
ENDSEC
  0
SECTION
  2
BLOCKS
  0
BLOCK
  5
D
100
AcDbEntity
  8
0
100
AcDbBlockBegin
  2
*MODEL_SPACE
 70
           0
 10
0.0
 20
0.0
 30
0.0
  3
*MODEL_SPACE
  1

  0
ENDBLK
  5
E
100
AcDbEntity
  8
0
100
AcDbBlockEnd
  0
BLOCK
  5
F
100
AcDbEntity
 67
           1
  8
0
100
AcDbBlockBegin
  2
*PAPER_SPACE
 70
           0
 10
0.0
 20
0.0
 30
0.0
  3
*PAPER_SPACE
  1

  0
ENDBLK
  5
10
100
AcDbEntity
 67
           1
  8
0
100
AcDbBlockEnd
  0
ENDSEC
  0
SECTION
  2
ENTITIES
  0
HATCH
  5
545
100
AcDbEntity
  8
0
  6
CONTINUOUS
 62
           4
100
AcDbHatch
 10
0.0
 20
0.0
 30
0.0
210
0.0
220
0.0
230
1.0
  2
USER
 70
           0
 71
           1
 91
        1
 92
        1
 93
        4
 72
           1
 10
322.0891805858181
 20
2047.678599019996
 11
307.1506803365408
 21
2047.678558926395
 72
           1
 10
307.1506803365408
 20
2047.678558926395
 11
309.11007258612977
 21
2041.5680489991189
 72
           1
 10
309.11007258612977
 20
2041.5680489991189
 11
322.0891805858181
 21
2041.5628767801991
 72
           1
 10
322.0891805858181
 20
2041.5628767801991
 11
322.0891805858181
 21
2047.678599019996
 97
        4
330
411
330
410
330
40F
330
412
 75
           1
 76
           0
 52
45.0
 41
0.1
 77
           0
 78
           2
 53
60.0
 43
0.0
 44
0.0
 45
-0.0866025403784439
 46
0.05
 79
           0
 53
120.0
 43
0.0
 44
0.0
 45
-0.0866025403784439
 46
-0.05
 79
           0
 98
        1
 10
0.0
 20
0.0
  0
HATCH
  5
544
100
AcDbEntity
  8
0
  6
CONTINUOUS
 62
           4
100
AcDbHatch
 10
0.0
 20
0.0
 30
0.0
210
0.0
220
0.0
230
1.0
  2
USER
 70
           0
 71
           1
 91
        1
 92
        1
 93
        4
 72
           1
 10
209.30898241274679
 20
2060.3930978361659
 11
177.203371606378
 21
2060.3936299316579
 72
           1
 10
177.203371606378
 20
2060.3936299316579
 11
177.203371606378
 21
1990.3930414861791
 72
           1
 10
177.203371606378
 20
1990.3930414861791
 11
209.30898241274679
 21
1990.393127004367
 72
           1
 10
209.30898241274679
 20
1990.393127004367
 11
209.30898241274679
 21
2060.3930978361659
 97
        4
330
3D8
330
3D5
330
3D6
330
3D7
 75
           1
 76
           0
 52
45.0
 41
0.1
 77
           0
 78
           2
 53
60.0
 43
0.0
 44
0.0
 45
-0.0866025403784439
 46
0.05
 79
           0
 53
120.0
 43
0.0
 44
0.0
 45
-0.0866025403784439
 46
-0.05
 79
           0
 98
        1
 10
0.0
 20
0.0
  0
ARC
  5
543
100
AcDbEntity
  8
1
  6
CONTINUOUS
 62
           7
100
AcDbCircle
 10
439.985676683923
 20
1240.115039402967
 40
10.0
100
AcDbArc
 50
-169.58409513195
 51
-90.0
  0
ARC
  5
542
100
AcDbEntity
  8
1
  6
CONTINUOUS
 62
           7
100
AcDbCircle
 10
377.293345002539
 20
1581.165455953037
 40
10.0
100
AcDbArc
 50
180.0
 51
-169.584095131944
  0
ARC
  5
541
100
AcDbEntity
  8
1
  6
CONTINUOUS
 62
           7
100
AcDbCircle
 10
439.985676683923
 20
1240.115039402967
 40
31.7
100
AcDbArc
 50
-169.584095131946
 51
-90.0
  0
ARC
  5
540
100
AcDbEntity
  8
1
  6
CONTINUOUS
 62
           7
100
AcDbCircle
 10
377.293345002539
 20
1581.165455953037
 40
31.7
100
AcDbArc
 50
180.0
 51
-169.584095131948
  0
ARC
  5
53F
100
AcDbEntity
  8
1
  6
DOT_CENTER
 62
           2
100
AcDbCircle
 10
439.985676683923
 20
1240.115039402967
 40
20.85
100
AcDbArc
 50
-169.584095131947
 51
-90.0
  0
ARC
  5
53E
100
AcDbEntity
  8
1
  6
DOT_CENTER
 62
           2
100
AcDbCircle
 10
377.293345002539
 20
1581.165455953037
 40
20.85
100
AcDbArc
 50
180.0
 51
-169.584095131947
  0
ARC
  5
53D
100
AcDbEntity
  8
1
  6
CONTINUOUS
 62
           7
100
AcDbCircle
 10
40.333592988899
 20
1240.115039402967
 40
10.0
100
AcDbArc
 50
-90.0
 51
-10.41590486805
  0
ARC
  5
53C
100
AcDbEntity
  8
1
  6
CONTINUOUS
 62
           7
100
AcDbCircle
 10
103.025924670283
 20
1581.165455953037
 40
10.0
100
AcDbArc
 50
-10.415904868055
 51
0.0
  0
ARC
  5
53B
100
AcDbEntity
  8
1
  6
CONTINUOUS
 62
           7
100
AcDbCircle
 10
40.333592988899
 20
1240.115039402967
 40
31.7
100
AcDbArc
 50
-90.0
 51
-10.415904868054
  0
ARC
  5
53A
100
AcDbEntity
  8
1
  6
CONTINUOUS
 62
           7
100
AcDbCircle
 10
103.025924670283
 20
1581.165455953037
 40
31.7
100
AcDbArc
 50
-10.415904868052
 51
0.0
  0
ARC
  5
539
100
AcDbEntity
  8
1
  6
DOT_CENTER
 62
           2
100
AcDbCircle
 10
40.333592988899
 20
1240.115039402967
 40
20.85
100
AcDbArc
 50
-90.0
 51
-10.415904868053
  0
ARC
  5
538
100
AcDbEntity
  8
1
  6
DOT_CENTER
 62
           2
100
AcDbCircle
 10
103.025924670283
 20
1581.165455953037
 40
20.85
100
AcDbArc
 50
-10.415904868053
 51
0.0
  0
ARC
  5
537
100
AcDbEntity
  8
1
  6
CONTINUOUS
 62
           7
100
AcDbCircle
 10
263.159634836411
 20
1441.115039402967
 40
3.0
100
AcDbArc
 50
-35.051136747437
 51
0.0
  0
ARC
  5
536
100
AcDbEntity
  8
1
  6
CONTINUOUS
 62
           7
100
AcDbCircle
 10
263.159634836411
 20
1422.115039402967
 40
3.0
100
AcDbArc
 50
0.0
 51
35.051136747447
  0
ARC
  5
535
100
AcDbEntity
  8
1
  6
CONTINUOUS
 62
           7
100
AcDbCircle
 10
448.939634836411
 20
2169.851575230016
 40
2.0
100
AcDbArc
 50
-75.916565006814
 51
0.0
  0
ARC
  5
534
100
AcDbEntity
  8
1
  6
CONTINUOUS
 62
           7
100
AcDbCircle
 10
450.439634836411
 20
2174.080846940276
 40
0.5
100
AcDbArc
 50
90.0
 51
180.0
  0
ARC
  5
533
100
AcDbEntity
  8
1
  6
CONTINUOUS
 62
           7
100
AcDbCircle
 10
450.439634836411
 20
2172.080846940276
 40
0.5
100
AcDbArc
 50
180.0
 51
-90.0
  0
ARC
  5
532
100
AcDbEntity
  8
1
  6
CONTINUOUS
 62
           7
100
AcDbCircle
 10
450.439634836411
 20
2171.080846940276
 40
0.5
100
AcDbArc
 50
0.0
 51
90.0
  0
ARC
  5
531
100
AcDbEntity
  8
1
  6
CONTINUOUS
 62
           7
100
AcDbCircle
 10
475.439634836411
 20
2174.080846940276
 40
0.5
100
AcDbArc
 50
0.0
 51
90.0
  0
ARC
  5
530
100
AcDbEntity
  8
1
  6
CONTINUOUS
 62
           7
100
AcDbCircle
 10
475.439634836411
 20
2172.080846940276
 40
0.5
100
AcDbArc
 50
-90.0
 51
0.0
  0
ARC
  5
52F
100
AcDbEntity
  8
1
  6
CONTINUOUS
 62
           7
100
AcDbCircle
 10
475.439634836411
 20
2171.080846940276
 40
0.5
100
AcDbArc
 50
90.0
 51
180.0
  0
ARC
  5
52E
100
AcDbEntity
  8
1
  6
CONTINUOUS
 62
           7
100
AcDbCircle
 10
476.939634836411
 20
2169.851330477022
 40
2.0
100
AcDbArc
 50
180.0
 51
-104.084436658443
  0
ARC
  5
52D
100
AcDbEntity
  8
1
  6
CONTINUOUS
 62
           7
100
AcDbCircle
 10
479.439634836411
 20
2169.163859881794
 40
2.0
100
AcDbArc
 50
-106.666812782121
 51
0.0
  0
ARC
  5
52C
100
AcDbEntity
  8
1
  6
CONTINUOUS
 62
           7
100
AcDbCircle
 10
446.439634836411
 20
2169.164151938609
 40
2.0
100
AcDbArc
 50
180.0
 51
-73.334201376842
  0
ARC
  5
52B
100
AcDbEntity
  8
1
  6
CONTINUOUS
 62
           7
100
AcDbCircle
 10
446.439634836411
 20
2137.665896930103
 40
2.000000000001
100
AcDbArc
 50
73.334305332912
 51
180.0
  0
ARC
  5
52A
100
AcDbEntity
  8
1
  6
CONTINUOUS
 62
           7
100
AcDbCircle
 10
479.439634836411
 20
2137.666248861615
 40
2.0
100
AcDbArc
 50
0.0
 51
106.666916739226
  0
ARC
  5
529
100
AcDbEntity
  8
1
  6
CONTINUOUS
 62
           2
100
AcDbCircle
 10
1297.133644667199
 20
1922.435598434889
 40
0.500000000001
100
AcDbArc
 50
29.999999999958
 51
149.999999999989
  0
ARC
  5
528
100
AcDbEntity
  8
1
  6
CONTINUOUS
 62
           2
100
AcDbCircle
 10
1296.319982298578
 20
1921.026293872231
 40
0.5
100
AcDbArc
 50
149.999999999989
 51
-133.835223613937
  0
ARC
  5
527
100
AcDbEntity
  8
1
  6
CONTINUOUS
 62
           2
100
AcDbCircle
 10
1304.35052303207
 20
1909.935598434889
 40
0.5
100
AcDbArc
 50
-90.0
 51
30.00000000001
  0
ARC
  5
526
100
AcDbEntity
  8
1
  6
CONTINUOUS
 62
           2
100
AcDbCircle
 10
1302.723198294827
 20
1909.935598434889
 40
0.499999999999
100
AcDbArc
 50
-166.16477638597
 51
-90.0
  0
ARC
  5
525
100
AcDbEntity
  8
1
  6
CONTINUOUS
 62
           2
100
AcDbCircle
 10
1304.35052303207
 20
1898.935598434889
 40
0.5
100
AcDbArc
 50
-30.00000000001
 51
90.0
  0
ARC
  5
524
100
AcDbEntity
  8
1
  6
CONTINUOUS
 62
           2
100
AcDbCircle
 10
1302.723198294827
 20
1898.935598434889
 40
0.5
100
AcDbArc
 50
90.0
 51
166.164776385869
  0
ARC
  5
523
100
AcDbEntity
  8
1
  6
CONTINUOUS
 62
           2
100
AcDbCircle
 10
1296.319982298579
 20
1887.844902997548
 40
0.5
100
AcDbArc
 50
133.835223614009
 51
-150.000000000041
  0
ARC
  5
522
100
AcDbEntity
  8
1
  6
CONTINUOUS
 62
           2
100
AcDbCircle
 10
1297.133644667199
 20
1886.435598434889
 40
0.499999999999
100
AcDbArc
 50
-150.00000000008
 51
-29.999999999958
  0
ARC
  5
521
100
AcDbEntity
  8
1
  6
CONTINUOUS
 62
           2
100
AcDbCircle
 10
1287.60736522557
 20
1880.935598434889
 40
0.5
100
AcDbArc
 50
-90.0
 51
30.00000000001
  0
ARC
  5
520
100
AcDbEntity
  8
1
  6
CONTINUOUS
 62
           2
100
AcDbCircle
 10
1286.793702856949
 20
1882.344902997548
 40
0.5
100
AcDbArc
 50
30.00000000001
 51
106.164776385916
  0
ARC
  5
51F
100
AcDbEntity
  8
1
  6
CONTINUOUS
 62
           2
100
AcDbCircle
 10
1273.987270864451
 20
1882.344902997548
 40
0.5
100
AcDbArc
 50
73.835223613959
 51
149.999999999976
  0
ARC
  5
51E
100
AcDbEntity
  8
1
  6
CONTINUOUS
 62
           2
100
AcDbCircle
 10
1273.17360849583
 20
1880.935598434889
 40
0.5
100
AcDbArc
 50
149.999999999989
 51
-90.0
  0
ARC
  5
51D
100
AcDbEntity
  8
1
  6
CONTINUOUS
 62
           2
100
AcDbCircle
 10
1264.460991422822
 20
1887.844902997548
 40
0.5
100
AcDbArc
 50
-30.00000000001
 51
46.164776385972
  0
ARC
  5
51C
100
AcDbEntity
  8
1
  6
CONTINUOUS
 62
           2
100
AcDbCircle
 10
1263.647329054201
 20
1886.435598434889
 40
0.5
100
AcDbArc
 50
-149.999999999989
 51
-30.00000000001
  0
ARC
  5
51B
100
AcDbEntity
  8
1
  6
CONTINUOUS
 62
           2
100
AcDbCircle
 10
1258.057775426573
 20
1898.935598434889
 40
0.5
100
AcDbArc
 50
13.835223614105
 51
90.0
  0
ARC
  5
51A
100
AcDbEntity
  8
1
  6
CONTINUOUS
 62
           2
100
AcDbCircle
 10
1256.430450689331
 20
1898.935598434889
 40
0.5
100
AcDbArc
 50
90.0
 51
-150.000000000055
  0
ARC
  5
519
100
AcDbEntity
  8
1
  6
CONTINUOUS
 62
           2
100
AcDbCircle
 10
1258.057775426573
 20
1909.935598434889
 40
0.5
100
AcDbArc
 50
-90.0
 51
-13.835223614004
  0
ARC
  5
518
100
AcDbEntity
  8
1
  6
CONTINUOUS
 62
           2
100
AcDbCircle
 10
1256.430450689331
 20
1909.935598434889
 40
0.500000000001
100
AcDbArc
 50
150.000000000055
 51
-90.0
  0
ARC
  5
517
100
AcDbEntity
  8
1
  6
CONTINUOUS
 62
           2
100
AcDbCircle
 10
1264.460991422822
 20
1921.026293872231
 40
0.500000000001
100
AcDbArc
 50
-46.164776386062
 51
29.999999999868
  0
ARC
  5
516
100
AcDbEntity
  8
1
  6
CONTINUOUS
 62
           2
100
AcDbCircle
 10
1263.647329054201
 20
1922.435598434889
 40
0.5
100
AcDbArc
 50
30.00000000001
 51
149.999999999989
  0
ARC
  5
515
100
AcDbEntity
  8
1
  6
CONTINUOUS
 62
           2
100
AcDbCircle
 10
1273.987270864451
 20
1926.526293872231
 40
0.5
100
AcDbArc
 50
-149.999999999976
 51
-73.835223614113
  0
ARC
  5
514
100
AcDbEntity
  8
1
  6
CONTINUOUS
 62
           2
100
AcDbCircle
 10
1273.17360849583
 20
1927.935598434889
 40
0.5
100
AcDbArc
 50
90.0
 51
-150.000000000041
  0
ARC
  5
513
100
AcDbEntity
  8
1
  6
CONTINUOUS
 62
           2
100
AcDbCircle
 10
1287.607365225571
 20
1927.935598434889
 40
0.5
100
AcDbArc
 50
-30.00000000001
 51
90.0
  0
ARC
  5
512
100
AcDbEntity
  8
1
  6
CONTINUOUS
 62
           2
100
AcDbCircle
 10
1286.793702856949
 20
1926.526293872231
 40
0.5
100
AcDbArc
 50
-106.164776385887
 51
-30.00000000001
  0
ARC
  5
511
100
AcDbEntity
  8
1
  6
CONTINUOUS
 62
           7
100
AcDbCircle
 10
1294.863626941047
 20
1917.503812399111
 40
0.999999999999
100
AcDbArc
 50
42.07978686059
 51
150.000000000015
  0
ARC
  5
510
100
AcDbEntity
  8
1
  6
CONTINUOUS
 62
           7
100
AcDbCircle
 10
1294.863626941047
 20
1891.367384470668
 40
1.0
100
AcDbArc
 50
-150.000000000015
 51
-42.079786860585
  0
ARC
  5
50F
100
AcDbEntity
  8
1
  6
CONTINUOUS
 62
           7
100
AcDbCircle
 10
1284.471322095633
 20
1885.367384470668
 40
1.000000000001
100
AcDbArc
 50
-77.920213139374
 51
29.999999999984
  0
ARC
  5
50E
100
AcDbEntity
  8
1
  6
CONTINUOUS
 62
           7
100
AcDbCircle
 10
1261.836511545421
 20
1898.435598434889
 40
1.0
100
AcDbArc
 50
90.0
 51
-162.079786860628
  0
ARC
  5
50D
100
AcDbEntity
  8
1
  6
CONTINUOUS
 62
           7
100
AcDbCircle
 10
1261.836511545421
 20
1910.435598434889
 40
1.000000000001
100
AcDbArc
 50
162.079786860644
 51
-90.0
  0
ARC
  5
50C
100
AcDbEntity
  8
1
  6
CONTINUOUS
 62
           7
100
AcDbCircle
 10
1284.471322095633
 20
1923.503812399111
 40
1.0
100
AcDbArc
 50
-29.999999999984
 51
77.920213139415
  0
ARC
  5
50B
100
AcDbEntity
  8
1
  6
CONTINUOUS
 62
           7
100
AcDbCircle
 10
1298.856771224655
 20
1925.451055689504
 40
0.999999999999
100
AcDbArc
 50
173.923111587147
 51
-149.999999999983
  0
ARC
  5
50A
100
AcDbEntity
  8
1
  6
CONTINUOUS
 62
           7
100
AcDbCircle
 10
1307.82354889732
 20
1909.920141180274
 40
1.0
100
AcDbArc
 50
-149.999999999989
 51
-113.923111587193
  0
ARC
  5
509
100
AcDbEntity
  8
1
  6
CONTINUOUS
 62
           7
100
AcDbCircle
 10
1307.82354889732
 20
1898.951055689504
 40
1.0
100
AcDbArc
 50
113.923111587198
 51
149.999999999989
  0
ARC
  5
508
100
AcDbEntity
  8
1
  6
CONTINUOUS
 62
           7
100
AcDbCircle
 10
1298.856771224655
 20
1883.420141180275
 40
0.999999999999
100
AcDbArc
 50
149.999999999983
 51
-173.923111587134
  0
ARC
  5
507
100
AcDbEntity
  8
1
  6
CONTINUOUS
 62
           7
100
AcDbCircle
 10
1289.357264533365
 20
1877.935598434889
 40
1.0
100
AcDbArc
 50
53.923111587189
 51
90.0
  0
ARC
  5
506
100
AcDbEntity
  8
1
  6
CONTINUOUS
 62
           7
100
AcDbCircle
 10
1271.423709188035
 20
1877.935598434889
 40
1.0
100
AcDbArc
 50
90.0
 51
126.07688841281
  0
ARC
  5
505
100
AcDbEntity
  8
1
  6
CONTINUOUS
 62
           7
100
AcDbCircle
 10
1261.924202496745
 20
1883.420141180274
 40
0.999999999999
100
AcDbArc
 50
-6.076888412801
 51
30.00000000001
  0
ARC
  5
504
100
AcDbEntity
  8
1
  6
CONTINUOUS
 62
           7
100
AcDbCircle
 10
1252.95742482408
 20
1898.951055689504
 40
1.0
100
AcDbArc
 50
29.999999999984
 51
66.076888412801
  0
ARC
  5
503
100
AcDbEntity
  8
1
  6
CONTINUOUS
 62
           7
100
AcDbCircle
 10
1252.95742482408
 20
1909.920141180274
 40
1.0
100
AcDbArc
 50
-66.076888412807
 51
-29.999999999984
  0
ARC
  5
502
100
AcDbEntity
  8
1
  6
CONTINUOUS
 62
           7
100
AcDbCircle
 10
1261.924202496745
 20
1925.451055689504
 40
1.0
100
AcDbArc
 50
-30.00000000001
 51
6.076888412852
  0
ARC
  5
501
100
AcDbEntity
  8
1
  6
CONTINUOUS
 62
           7
100
AcDbCircle
 10
1271.423709188035
 20
1930.935598434889
 40
1.0
100
AcDbArc
 50
-126.076888412841
 51
-90.0
  0
ARC
  5
500
100
AcDbEntity
  8
1
  6
CONTINUOUS
 62
           7
100
AcDbCircle
 10
1289.357264533365
 20
1930.935598434889
 40
1.0
100
AcDbArc
 50
-90.0
 51
-53.923111587159
  0
ARC
  5
4FF
100
AcDbEntity
  8
1
  6
CONTINUOUS
 62
           7
100
AcDbCircle
 10
1267.8904868607
 20
1926.0862335295
 40
5.0
100
AcDbArc
 50
53.92311158717
 51
-173.923111587171
  0
ARC
  5
4FE
100
AcDbEntity
  8
1
  6
CONTINUOUS
 62
           7
100
AcDbCircle
 10
1292.8904868607
 20
1926.0862335295
 40
5.0
100
AcDbArc
 50
-6.076888412829
 51
126.076888412832
  0
ARC
  5
4FD
100
AcDbEntity
  8
1
  6
CONTINUOUS
 62
           7
100
AcDbCircle
 10
1305.3904868607
 20
1904.435598434889
 40
5.0
100
AcDbArc
 50
-66.076888412839
 51
66.076888412838
  0
ARC
  5
4FC
100
AcDbEntity
  8
1
  6
CONTINUOUS
 62
           7
100
AcDbCircle
 10
1292.8904868607
 20
1882.784963340278
 40
4.999999999999
100
AcDbArc
 50
-126.076888412838
 51
6.076888412839
  0
ARC
  5
4FB
100
AcDbEntity
  8
1
  6
CONTINUOUS
 62
           7
100
AcDbCircle
 10
1267.8904868607
 20
1882.784963340278
 40
5.000000000001
100
AcDbArc
 50
173.923111587161
 51
-53.923111587164
  0
ARC
  5
4FA
100
AcDbEntity
  8
1
  6
CONTINUOUS
 62
           7
100
AcDbCircle
 10
1255.3904868607
 20
1904.435598434889
 40
5.0
100
AcDbArc
 50
113.923111587164
 51
-113.923111587162
  0
ARC
  5
4F9
100
AcDbEntity
  8
1
  6
CONTINUOUS
 62
           7
100
AcDbCircle
 10
420.90657198128
 20
1915.415039402967
 40
5.0
100
AcDbArc
 50
-90.0
 51
0.0
  0
ARC
  5
4F8
100
AcDbEntity
  8
1
  6
CONTINUOUS
 62
           7
100
AcDbCircle
 10
429.90657198128
 20
1915.415039402967
 40
19.0
100
AcDbArc
 50
-90.0
 51
0.0
  0
ARC
  5
4F7
100
AcDbEntity
  8
1
  6
CONTINUOUS
 62
           2
100
AcDbCircle
 10
226.636293312861
 20
2205.881697879417
 40
0.1
100
AcDbArc
 50
137.782165417294
 51
-47.782165417306
  0
ARC
  5
4F6
100
AcDbEntity
  8
1
  6
CONTINUOUS
 62
           7
100
AcDbCircle
 10
1031.6104868607
 20
1690.745598434889
 40
1.0
100
AcDbArc
 50
180.0
 51
-90.0
  0
ARC
  5
4F5
100
AcDbEntity
  8
1
  6
CONTINUOUS
 62
           7
100
AcDbCircle
 10
1083.6104868607
 20
1690.745598434889
 40
1.0
100
AcDbArc
 50
-90.0
 51
0.0
  0
ARC
  5
4F4
100
AcDbEntity
  8
1
  6
CONTINUOUS
 62
           7
100
AcDbCircle
 10
1082.6104868607
 20
1715.445598434889
 40
1.0
100
AcDbArc
 50
0.0
 51
90.0
  0
ARC
  5
4F3
100
AcDbEntity
  8
1
  6
CONTINUOUS
 62
           7
100
AcDbCircle
 10
1032.6104868607
 20
1715.445598434889
 40
1.0
100
AcDbArc
 50
90.0
 51
180.0
  0
ARC
  5
4F2
100
AcDbEntity
  8
1
  6
CONTINUOUS
 62
           7
100
AcDbCircle
 10
224.775081575402
 20
2369.305320612959
 40
8.0
100
AcDbArc
 50
-9.999999999995
 51
50.72011289168
  0
ARC
  5
4F1
100
AcDbEntity
  8
1
  6
CONTINUOUS
 62
           7
100
AcDbCircle
 10
255.54418809742
 20
2369.305320612959
 40
8.0
100
AcDbArc
 50
129.279887108319
 51
-170.000000000004
  0
ARC
  5
4F0
100
AcDbEntity
  8
1
  6
CONTINUOUS
 62
           7
100
AcDbCircle
 10
128.159634836411
 20
1548.160653756427
 40
41.6
100
AcDbArc
 50
180.0
 51
-130.350508901548
  0
ARC
  5
4EF
100
AcDbEntity
  8
1
  6
CONTINUOUS
 62
           6
100
AcDbCircle
 10
128.159634836411
 20
1548.160653756427
 40
41.6
100
AcDbArc
 50
-130.350508901548
 51
-115.307798650647
  0
ARC
  5
4EE
100
AcDbEntity
  8
1
  6
CONTINUOUS
 62
           6
100
AcDbCircle
 10
352.159634836411
 20
1548.160653756427
 40
41.600000000001
100
AcDbArc
 50
-64.692201349352
 51
-49.649491098452
  0
ARC
  5
4ED
100
AcDbEntity
  8
1
  6
CONTINUOUS
 62
           7
100
AcDbCircle
 10
352.159634836411
 20
1548.160653756427
 40
41.600000000001
100
AcDbArc
 50
-49.649491098452
 51
0.0
  0
ARC
  5
4EC
100
AcDbEntity
  8
1
  6
CONTINUOUS
 62
           7
100
AcDbCircle
 10
352.159634836411
 20
2298.669425049507
 40
41.6
100
AcDbArc
 50
0.0
 51
64.692201349352
  0
ARC
  5
4EB
100
AcDbEntity
  8
1
  6
CONTINUOUS
 62
           7
100
AcDbCircle
 10
128.159634836411
 20
2298.669425049507
 40
41.6
100
AcDbArc
 50
115.307798650647
 51
180.0
  0
SPLINE
  5
4EA
100
AcDbEntity
  8
1
  6
CONTINUOUS
 62
           2
100
AcDbSpline
210
0.0
220
0.0
230
1.0
 70
           0
 71
           4
 72
          10
 73
           6
 74
           7
 42
0.00000000001
 43
0.00000000001
 44
0.00000000001
 40
0.0
 40
0.0
 40
0.0
 40
0.0
 40
1.8481867335637832
 40
3.6843373258639418
 40
5.5298904086362963
 40
5.5298904086362963
 40
5.5298904086362963
 40
5.5298904086362963
 10
330.27165492414861
 20
2058.5404002131399
 30
0.0
 10
329.45130938943231
 20
2058.1261369324861
 30
0.0
 10
328.73038406074892
 20
2057.5399334061071
 30
0.0
 10
327.58611376254231
 20
2056.103933934573
 30
0.0
 10
327.17626887222548
 20
2055.2710798838611
 30
0.0
 10
326.95678099128492
 20
2054.380406526986
 30
0.0
 11
330.27165492414861
 21
2058.5404002131399
 31
0.0
 11
329.32652349639272
 21
2057.9824775266702
 31
0.0
 11
328.71759742518537
 21
2057.4447762447376
 31
0.0
 11
328.16763300063928
 21
2056.8139184089359
 31
0.0
 11
327.67560801137586
 21
2056.1370207204955
 31
0.0
 11
327.2882924487871
 21
2055.4245472616922
 31
0.0
 11
326.95678099128492
 21
2054.380406526986
 31
0.0
  0
SPLINE
  5
4E9
100
AcDbEntity
  8
1
  6
CONTINUOUS
 62
           2
100
AcDbSpline
210
0.0
220
0.0
230
1.0
 70
           0
 71
           4
 72
           8
 73
           4
 74
           3
 42
0.00000000001
 43
0.00000000001
 44
0.00000000001
 40
0.0
 40
0.0
 40
0.0
 40
0.0
 40
4.2623513205867951
 40
4.2623513205867951
 40
4.2623513205867951
 40
4.2623513205867951
 10
326.95678099128492
 20
2054.380406526986
 30
0.0
 10
326.57425105330748
 20
2053.016145180251
 30
0.0
 10
326.44963726379729
 20
2051.5927679811639
 30
0.0
 10
326.589308001316
 20
2050.183016516944
 30
0.0
 11
326.95678099128492
 21
2054.380406526986
 31
0.0
 11
326.57721924298943
 21
2052.298770316022
 31
0.0
 11
326.589308001316
 21
2050.183016516944
 31
0.0
  0
SPLINE
  5
4E8
100
AcDbEntity
  8
1
  6
CONTINUOUS
 62
           2
100
AcDbSpline
210
0.0
220
0.0
230
1.0
 70
           0
 71
           4
 72
          12
 73
           8
 74
          11
 42
0.00000000001
 43
0.00000000001
 44
0.00000000001
 40
0.0
 40
0.0
 40
0.0
 40
0.0
 40
1.6945294819713506
 40
3.3828538782169693
 40
4.2341366757681378
 40
5.9238488449057405
 40
7.6214261520979178
 40
7.6214261520979178
 40
7.6214261520979178
 40
7.6214261520979178
 10
326.589308001316
 20
2050.183016516944
 30
0.0
 10
326.6468669021296
 20
2049.341171960381
 30
0.0
 10
326.85593993726059
 20
2048.5165434774458
 30
0.0
 10
327.55709063264408
 20
2046.9806961642921
 30
0.0
 10
328.04344130301121
 20
2046.2820221152249
 30
0.0
 10
329.2411138129803
 20
2045.0900876483199
 30
0.0
 10
329.9426530788852
 20
2044.606562935918
 30
0.0
 10
330.71330094177131
 20
2044.2586351567661
 30
0.0
 11
326.589308001316
 21
2050.183016516944
 31
0.0
 11
326.71613967365005
 21
2049.175611225995
 31
0.0
 11
326.94442317611549
 21
2048.414053146771
 31
0.0
 11
327.28016675087468
 21
2047.6108681331223
 31
0.0
 11
327.6389075145504
 21
2046.8987849553105
 31
0.0
 11
327.80435512789427
 21
2046.6343837108977
 31
0.0
 11
327.99481646255811
 21
2046.3874421224371
 31
0.0
 11
328.53829652025945
 21
2045.8033430693772
 31
0.0
 11
329.1752901767959
 21
2045.2090103757027
 31
0.0
 11
329.81121965972125
 21
2044.72924928768
 31
0.0
 11
330.71330094177131
 21
2044.2586351567661
 31
0.0
  0
SPLINE
  5
4E7
100
AcDbEntity
  8
1
  6
CONTINUOUS
 62
           2
100
AcDbSpline
210
0.0
220
0.0
230
1.0
 70
           0
 71
           4
 72
          12
 73
           8
 74
          11
 42
0.00000000001
 43
0.00000000001
 44
0.00000000001
 40
0.0
 40
0.0
 40
0.0
 40
0.0
 40
0.0689806083862148
 40
0.1376580889531176
 40
0.172378911137916
 40
0.2411260031593773
 40
0.3102532810509106
 40
0.3102532810509106
 40
0.3102532810509106
 40
0.3102532810509106
 10
250.9305333294717
 20
2028.7306623517441
 30
0.0
 10
250.94481741472629
 20
2028.699477908822
 30
0.0
 10
250.96540426220361
 20
2028.671568921462
 30
0.0
 10
251.0166052267316
 20
2028.6257971226289
 30
0.0
 10
251.04666855582451
 20
2028.6084266955461
 30
0.0
 10
251.11195583752931
 20
2028.5868922229729
 30
0.0
 10
251.1464774703924
 20
2028.5829598318739
 30
0.0
 10
251.18071538575151
 20
2028.5861085282891
 30
0.0
 11
250.9305333294717
 21
2028.7306623517441
 31
0.0
 11
250.95011666817041
 21
2028.6943639037736
 31
0.0
 11
250.97054725690475
 21
2028.6693370913715
 31
0.0
 11
250.99602653762136
 21
2028.6448042866671
 31
0.0
 11
251.02110846764771
 21
2028.6242900886166
 31
0.0
 11
251.03174901550017
 21
2028.6173205893429
 31
0.0
 11
251.04309877934551
 21
2028.6115820990542
 31
0.0
 11
251.07341946066032
 21
2028.6000820360027
 31
0.0
 11
251.10742833550034
 21
2028.5902388902532
 31
0.0
 11
251.13938541315292
 21
2028.5850026577089
 31
0.0
 11
251.18071538575151
 21
2028.5861085282891
 31
0.0
  0
SPLINE
  5
4E6
100
AcDbEntity
  8
1
  6
CONTINUOUS
 62
           2
100
AcDbSpline
210
0.0
220
0.0
230
1.0
 70
           0
 71
           4
 72
          12
 73
           8
 74
          11
 42
0.00000000001
 43
0.00000000001
 44
0.00000000001
 40
0.0
 40
0.0
 40
0.0
 40
0.0
 40
1.2441047466514963
 40
2.4835649488753209
 40
3.1092616434891993
 40
4.3499524063359587
 40
5.5967417221350244
 40
5.5967417221350244
 40
5.5967417221350244
 40
5.5967417221350244
 10
275.05071049443978
 20
2057.5364812871808
 30
0.0
 10
274.79506443373418
 20
2058.1003234205132
 30
0.0
 10
274.43354861135941
 20
2058.6101756618532
 30
0.0
 10
273.53780536461608
 20
2059.4668585838322
 30
0.0
 10
273.01184941721391
 20
2059.805778478561
 30
0.0
 10
271.86054914806527
 20
2060.2681865875638
 30
0.0
 10
271.24583616927657
 20
2060.3874048304651
 30
0.0
 10
270.6252414248064
 20
2060.3932612360768
 30
0.0
 11
275.05071049443978
 21
2057.5364812871808
 31
0.0
 11
274.70273221005812
 21
2058.1949414391383
 31
0.0
 11
274.34404842975863
 21
2058.6549011197076
 31
0.0
 11
273.89780426046127
 21
2059.1120091318999
 31
0.0
 11
273.45879290215606
 21
2059.4989064102192
 31
0.0
 11
273.27279075352635
 21
2059.6329187141478
 31
0.0
 11
273.07394361724431
 21
2059.7469349637531
 31
0.0
 11
272.53986718666721
 21
2059.987137062787
 31
0.0
 11
271.93872959788803
 21
2060.2050237671237
 31
0.0
 11
271.37041476794082
 21
2060.3429310238412
 31
0.0
 11
270.6252414248064
 21
2060.3932612360768
 31
0.0
  0
SPLINE
  5
4E5
100
AcDbEntity
  8
1
  6
CONTINUOUS
 62
           2
100
AcDbSpline
210
0.0
220
0.0
230
1.0
 70
           0
 71
           4
 72
          12
 73
           8
 74
          11
 42
0.00000000001
 43
0.00000000001
 44
0.00000000001
 40
0.0
 40
0.0
 40
0.0
 40
0.0
 40
1.234077985369521
 40
2.4635604802326458
 40
3.0842121533893572
 40
4.3149006279102515
 40
5.5515834240506354
 40
5.5515834240506354
 40
5.5515834240506354
 40
5.5515834240506354
 10
278.85205783715702
 20
2031.360765891224
 30
0.0
 10
279.1126331951213
 20
2030.8046890795481
 30
0.0
 10
279.4774884515806
 20
2030.3034394449789
 30
0.0
 10
280.3764111498848
 20
2029.4646515172831
 30
0.0
 10
280.90218658293401
 20
2029.1348505266931
 30
0.0
 10
282.04966365854341
 20
2028.6900016958871
 30
0.0
 10
282.66078053110942
 20
2028.5790573124241
 30
0.0
 10
283.27632295932523
 20
2028.5855753284759
 30
0.0
 11
278.85205783715702
 21
2031.360765891224
 31
0.0
 11
279.20536908851193
 21
2030.7119730104125
 31
0.0
 11
279.56679192185089
 21
2030.2601607024949
 31
0.0
 11
280.0150026309621
 21
2029.8122200046978
 31
0.0
 11
280.45516368222985
 21
2029.4338120436087
 31
0.0
 11
280.64127799719188
 21
2029.3031450342662
 31
0.0
 11
280.83988453694531
 21
2029.1924547994854
 31
0.0
 11
281.37250963681794
 21
2028.9606166597594
 31
0.0
 11
281.97137402817862
 21
2028.7516925148414
 31
0.0
 11
282.53668473261666
 21
2028.622304073943
 31
0.0
 11
283.27632295932523
 21
2028.5855753284759
 31
0.0
  0
SPLINE
  5
4E4
100
AcDbEntity
  8
1
  6
CONTINUOUS
 62
           2
100
AcDbSpline
210
0.0
220
0.0
230
1.0
 70
           0
 71
           4
 72
          14
 73
          10
 74
          15
 42
0.00000000001
 43
0.00000000001
 44
0.00000000001
 40
0.0
 40
0.0
 40
0.0
 40
0.0
 40
0.1396158283948181
 40
0.2786160382529943
 40
0.3488178797421672
 40
0.4879626387088122
 40
0.5582433199042998
 40
0.7034415409686876
 40
0.8434517630460899
 40
0.8434517630460899
 40
0.8434517630460899
 40
0.8434517630460899
 10
305.8910661790465
 20
2035.347348443931
 30
0.0
 10
305.8909775636821
 20
2035.277878539534
 30
0.0
 10
305.90461322060872
 20
2035.2090707522959
 30
0.0
 10
305.95777562154831
 20
2035.0806386010761
 30
0.0
 10
305.99678218373668
 20
2035.022270916055
 30
0.0
 10
306.09519072272059
 20
2034.9238990531931
 30
0.0
 10
306.15362979467261
 20
2034.884857421328
 30
0.0
 10
306.2823026637152
 20
2034.8175832348029
 30
0.0
 10
306.35127742647848
 20
2034.803811390633
 30
0.0
 10
306.42095138708481
 20
2034.803721883723
 30
0.0
 11
305.8910661790465
 21
2035.347348443931
 31
0.0
 11
305.89616404244003
 21
2035.2639521458304
 31
0.0
 11
305.91188209981135
 21
2035.2004372186516
 31
0.0
 11
305.93691414634179
 21
2035.1333412064071
 31
0.0
 11
305.96452694368401
 21
2035.0738375149604
 31
0.0
 11
305.97785784890988
 21
2035.0515155251123
 31
0.0
 11
305.99471098993212
 21
2035.0294854742258
 31
0.0
 11
306.04658397081522
 21
2034.973762104592
 31
0.0
 11
306.10212529480725
 21
2034.9220182481959
 31
0.0
 11
306.12392472577716
 21
2034.9051972470791
 31
0.0
 11
306.14580364200191
 21
2034.8912909709525
 31
0.0
 11
306.2066480435243
 21
2034.8581526967455
 31
0.0
 11
306.27530125994519
 21
2034.8270209413386
 31
0.0
 11
306.33779213237284
 21
2034.8092366457738
 31
0.0
 11
306.42095138708481
 21
2034.803721883723
 31
0.0
  0
SPLINE
  5
4E3
100
AcDbEntity
  8
1
  6
CONTINUOUS
 62
           2
100
AcDbSpline
210
0.0
220
0.0
230
1.0
 70
           0
 71
           4
 72
          14
 73
          10
 74
          15
 42
0.00000000001
 43
0.00000000001
 44
0.00000000001
 40
0.0
 40
0.0
 40
0.0
 40
0.0
 40
1.2685007924825109
 40
2.5314215348849229
 40
3.1692612602591579
 40
4.4335047186674883
 40
5.0720605767088038
 40
6.3376026160462375
 40
7.6096821616972532
 40
7.6096821616972532
 40
7.6096821616972532
 40
7.6096821616972532
 10
297.0729241795928
 20
2033.35466481461
 30
0.0
 10
297.06760624679498
 20
2032.7235086459041
 30
0.0
 10
297.19709591199398
 20
2032.0994797688679
 30
0.0
 10
297.6905529292107
 20
2030.936952791224
 30
0.0
 10
298.04969191819691
 20
2030.409829748799
 30
0.0
 10
298.95177019221359
 20
2029.5240722708879
 30
0.0
 10
299.48588284951791
 20
2029.174104767902
 30
0.0
 10
300.65924914047372
 20
2028.6999653363221
 30
0.0
 10
301.28702165576487
 20
2028.5804327526409
 30
0.0
 10
301.9200316191106
 20
2028.5852637752041
 30
0.0
 11
297.0729241795928
 21
2033.35466481461
 31
0.0
 11
297.11713268087391
 21
2032.5974057164117
 31
0.0
 11
297.26383713484267
 21
2032.0216356909953
 31
0.0
 11
297.4967263234206
 21
2031.4140801346771
 31
0.0
 11
297.7524433302454
 21
2030.875712186109
 31
0.0
 11
297.87537673340648
 21
2030.6739911460791
 31
0.0
 11
298.03028626805326
 21
2030.4752084778847
 31
0.0
 11
298.50639946760555
 21
2029.9729579199079
 31
0.0
 11
299.01728595088809
 21
2029.5059998140714
 31
0.0
 11
299.21909825199856
 21
2029.3545009778336
 31
0.0
 11
299.42319767644398
 21
2029.2350465776822
 31
0.0
 11
299.96703499682565
 21
2028.9883003073476
 31
0.0
 11
300.57980894529089
 21
2028.7654285218941
 31
0.0
 11
301.15973572412042
 21
2028.6266312005341
 31
0.0
 11
301.9200316191106
 21
2028.5852637752041
 31
0.0
  0
SPLINE
  5
4E2
100
AcDbEntity
  8
1
  6
CONTINUOUS
 62
           2
100
AcDbSpline
210
0.0
220
0.0
230
1.0
 70
           0
 71
           4
 72
          14
 73
          10
 74
          15
 42
0.00000000001
 43
0.00000000001
 44
0.00000000001
 40
0.0
 40
0.0
 40
0.0
 40
0.0
 40
1.0314450205054699
 40
2.0581161334085833
 40
2.5765808048033065
 40
3.6041603660340029
 40
4.1231861843954292
 40
5.151911102448449
 40
6.1861624174147227
 40
6.1861624174147227
 40
6.1861624174147227
 40
6.1861624174147227
 10
250.20827143681191
 20
2017.966614075724
 30
0.0
 10
250.27967692837581
 20
2018.474889252579
 30
0.0
 10
250.24997648088521
 20
2018.9922160002759
 30
0.0
 10
249.99175607714361
 20
2019.985883850798
 30
0.0
 10
249.76576274795039
 20
2020.4525021430291
 30
0.0
 10
249.145822673037
 20
2021.272010567742
 30
0.0
 10
248.757941897877
 20
2021.6168819994191
 30
0.0
 10
247.87066240842549
 20
2022.1374682695241
 30
0.0
 10
247.3799455191689
 20
2022.3080892914429
 30
0.0
 10
246.87017619670459
 20
2022.3792940789419
 30
0.0
 11
250.20827143681191
 21
2017.966614075724
 31
0.0
 11
250.25590518688875
 21
2018.5820718599384
 31
0.0
 11
250.20556249688229
 21
2019.0628352172466
 31
0.0
 11
250.09072465753817
 21
2019.5791440726323
 31
0.0
 11
249.94926705869622
 21
2020.0425195435346
 31
0.0
 11
249.87445313606622
 21
2020.2193511827622
 31
0.0
 11
249.77356215387834
 21
2020.3976262381029
 31
0.0
 11
249.45051332036383
 21
2020.8581015016189
 31
0.0
 11
249.09528277218374
 21
2021.2943157041354
 31
0.0
 11
248.95102591237503
 21
2021.4401180365919
 31
0.0
 11
248.80111329378687
 21
2021.5604110232564
 31
0.0
 11
248.39311292675228
 21
2021.8233966553348
 31
0.0
 11
247.92682075007053
 21
2022.0753525122534
 31
0.0
 11
247.47683965357442
 21
2022.2558206507067
 31
0.0
 11
246.87017619670459
 21
2022.3792940789419
 31
0.0
  0
SPLINE
  5
4E1
100
AcDbEntity
  8
1
  6
CONTINUOUS
 62
           2
100
AcDbSpline
210
0.0
220
0.0
230
1.0
 70
           0
 71
           4
 72
          14
 73
          10
 74
          15
 42
0.00000000001
 43
0.00000000001
 44
0.00000000001
 40
0.0
 40
0.0
 40
0.0
 40
0.0
 40
1.1212443691580447
 40
2.2380296471648311
 40
2.8003442150875704
 40
3.916182303856043
 40
4.4779509439672225
 40
5.5926958721399691
 40
6.7109764301240009
 40
6.7109764301240009
 40
6.7109764301240009
 40
6.7109764301240009
 10
269.58962373060541
 20
1990.3932402320991
 30
0.0
 10
270.14819601355993
 20
1990.3908273607019
 30
0.0
 10
270.70299137271411
 20
1990.4846150007611
 30
0.0
 10
271.75610311294997
 20
1990.856320555939
 30
0.0
 10
272.24651369375732
 20
1991.131448045533
 30
0.0
 10
273.11179697618201
 20
1991.8359900822511
 30
0.0
 10
273.4801739218874
 20
1992.2601155718
 30
0.0
 10
274.05591276819138
 20
1993.2146736034269
 30
0.0
 10
274.25895254782603
 20
1993.7379401963849
 30
0.0
 10
274.3682100606502
 20
1994.284121997631
 30
0.0
 11
269.58962373060541
 21
1990.3932402320991
 31
0.0
 11
270.26109326309512
 21
1990.4268738008254
 31
0.0
 11
270.77609517745293
 21
1990.5358242538955
 31
0.0
 11
271.32494716419239
 21
1990.7107054175221
 31
0.0
 11
271.81561669655321
 21
1990.9044426574842
 31
0.0
 11
272.00163524250848
 21
1990.998213295097
 31
0.0
 11
272.18911623097068
 21
1991.1176781812524
 31
0.0
 11
272.67521504772225
 21
1991.4887571697043
 31
0.0
 11
273.1370394640162
 21
1991.8895496466821
 31
0.0
 11
273.29181911324565
 21
1992.0487738760833
 31
0.0
 11
273.42116810685877
 21
1992.2118262849835
 31
0.0
 11
273.70958020770297
 21
1992.6524708217887
 31
0.0
 11
273.99114457398451
 21
1993.1538003692231
 31
0.0
 11
274.20100350397837
 21
1993.634927611927
 31
0.0
 11
274.3682100606502
 21
1994.284121997631
 31
0.0
  0
SPLINE
  5
4E0
100
AcDbEntity
  8
1
  6
CONTINUOUS
 62
           2
100
AcDbSpline
210
0.0
220
0.0
230
1.0
 70
           0
 71
           4
 72
          12
 73
           8
 74
          11
 42
0.00000000001
 43
0.00000000001
 44
0.00000000001
 40
0.0
 40
0.0
 40
0.0
 40
0.0
 40
1.0062640929822524
 40
2.007735221021834
 40
2.5143870731754645
 40
3.5170110649763262
 40
4.525677629317153
 40
4.525677629317153
 40
4.525677629317153
 40
4.525677629317153
 10
262.45761874528421
 20
2019.8883553977221
 30
0.0
 10
262.3103114628849
 20
2020.366392323901
 30
0.0
 10
262.06272150335741
 20
2020.8077325117411
 30
0.0
 10
261.39984664702018
 20
2021.558426420823
 30
0.0
 10
260.99213472114258
 20
2021.859203888044
 30
0.0
 10
260.07829032504111
 20
2022.2716881770159
 30
0.0
 10
259.58259801102719
 20
2022.3786825986799
 30
0.0
 10
259.08104001118983
 20
2022.3793269270129
 30
0.0
 11
262.45761874528421
 21
2019.8883553977221
 31
0.0
 11
262.24232263261331
 21
2020.4498496302438
 31
0.0
 11
261.99136506612189
 21
2020.8484970353338
 31
0.0
 11
261.66508182409547
 21
2021.2477177863082
 31
0.0
 11
261.33672756875916
 21
2021.5872766570369
 31
0.0
 11
261.19397482432942
 21
2021.7058786098296
 31
0.0
 11
261.03856529214738
 21
2021.8072756204306
 31
0.0
 11
260.61689167371298
 21
2022.0210804868482
 31
0.0
 11
260.13869983997938
 21
2022.2154092172584
 31
0.0
 11
259.68263752754058
 21
2022.3382322418336
 31
0.0
 11
259.08104001118983
 21
2022.3793269270129
 31
0.0
  0
SPLINE
  5
4DF
100
AcDbEntity
  8
1
  6
CONTINUOUS
 62
           2
100
AcDbSpline
210
0.0
220
0.0
230
1.0
 70
           0
 71
           4
 72
          12
 73
           8
 74
          11
 42
0.00000000001
 43
0.00000000001
 44
0.00000000001
 40
0.0
 40
0.0
 40
0.0
 40
0.0
 40
1.3537180072011812
 40
2.6996299743153838
 40
3.3794901944863551
 40
4.7238976169842903
 40
6.0744582745013176
 40
6.0744582745013176
 40
6.0744582745013176
 40
6.0744582745013176
 10
289.91790834095951
 20
1990.392904391194
 30
0.0
 10
290.5911534140867
 20
1990.387200962829
 30
0.0
 10
291.2581863725602
 20
1990.5216538139259
 30
0.0
 10
292.49448646266552
 20
1991.0536698949111
 30
0.0
 10
293.05015818149371
 20
1991.445382621109
 30
0.0
 10
293.96545116003671
 20
1992.4301008960981
 30
0.0
 10
294.3150070756019
 20
1993.0122776408209
 30
0.0
 10
294.53411095849248
 20
1993.6470295351021
 30
0.0
 11
289.91790834095951
 21
1990.392904391194
 31
0.0
 11
290.72612375248343
 21
1990.4391837390572
 31
0.0
 11
291.3407186457348
 21
1990.5950973075321
 31
0.0
 11
291.98709172284589
 21
1990.8451249389932
 31
0.0
 11
292.55845569925003
 21
1991.1216849889661
 31
0.0
 11
292.76975019845622
 21
1991.2534493938881
 31
0.0
 11
292.96486775265413
 21
1991.4082279987697
 31
0.0
 11
293.41685872047032
 21
1991.8531346272587
 31
0.0
 11
293.86887943853236
 21
1992.3774958714173
 31
0.0
 11
294.22093772523317
 21
1992.9028665335325
 31
0.0
 11
294.53411095849248
 21
1993.6470295351021
 31
0.0
  0
SPLINE
  5
4DE
100
AcDbEntity
  8
1
  6
CONTINUOUS
 62
           2
100
AcDbSpline
210
0.0
220
0.0
230
1.0
 70
           0
 71
           4
 72
          14
 73
          10
 74
          15
 42
0.00000000001
 43
0.00000000001
 44
0.00000000001
 40
0.0
 40
0.0
 40
0.0
 40
0.0
 40
1.0174304017686449
 40
2.0316578076566989
 40
2.4999908917514753
 40
3.5152117167461565
 40
4.026808126433373
 40
5.0428883963877862
 40
6.1132599074454719
 40
6.1132599074454719
 40
6.1132599074454719
 40
6.1132599074454719
 10
284.58130365689448
 20
2018.6586184466209
 30
0.0
 10
284.48353206785981
 20
2019.1558736294569
 30
0.0
 10
284.30050959066568
 20
2019.6326026970869
 30
0.0
 10
283.78004930160711
 20
2020.503107331404
 30
0.0
 10
283.51667995163598
 20
2020.890370114477
 30
0.0
 10
282.73228084741078
 20
2021.5348787403259
 30
0.0
 10
282.28729425115188
 20
2021.78730262104
 30
0.0
 10
281.33085829167209
 20
2022.130303160988
 30
0.0
 10
280.82656464126387
 20
2022.378730264222
 30
0.0
 10
280.31835732593282
 20
2022.3793831346229
 30
0.0
 11
284.58130365689448
 21
2018.6586184466209
 31
0.0
 11
284.4309471012067
 21
2019.2501615763372
 31
0.0
 11
284.24004727559748
 21
2019.6912114100846
 31
0.0
 11
283.98455905744862
 21
2020.1538876307268
 31
0.0
 11
283.73768977502442
 21
2020.5591673488175
 31
0.0
 11
283.64499995052336
 21
2020.6961942460302
 31
0.0
 11
283.53180782717851
 21
2020.8304163489524
 31
0.0
 11
283.1264082321926
 21
2021.2013435065005
 31
0.0
 11
282.68154832938251
 21
2021.5465121848392
 31
0.0
 11
282.51040112549754
 21
2021.6569545893237
 31
0.0
 11
282.34248419105791
 21
2021.7428363872677
 31
0.0
 11
281.90343333317168
 21
2021.9238832568858
 31
0.0
 11
281.41340857895642
 21
2022.1167248002703
 31
0.0
 11
280.93340968117934
 21
2022.2982690550214
 31
0.0
 11
280.31835732593282
 21
2022.3793831346229
 31
0.0
  0
SPLINE
  5
4DD
100
AcDbEntity
  8
1
  6
CONTINUOUS
 62
           2
100
AcDbSpline
210
0.0
220
0.0
230
1.0
 70
           0
 71
           4
 72
          12
 73
           8
 74
          11
 42
0.00000000001
 43
0.00000000001
 44
0.00000000001
 40
0.0
 40
0.0
 40
0.0
 40
0.0
 40
1.2030480203258573
 40
2.4009227979340695
 40
3.0063562995668858
 40
4.293621216021041
 40
5.4994184581030199
 40
5.4994184581030199
 40
5.4994184581030199
 40
5.4994184581030199
 10
309.14774321443321
 20
2019.301142988031
 30
0.0
 10
308.9405614483224
 20
2019.8624409991471
 30
0.0
 10
308.62099082806958
 20
2020.375839240334
 30
0.0
 10
307.79598312606868
 20
2021.2443242859561
 30
0.0
 10
307.29916730038508
 20
2021.590335500008
 30
0.0
 10
306.19740450460881
 20
2022.2560454270611
 30
0.0
 10
305.60397085634611
 20
2022.3785160512621
 30
0.0
 10
305.00411350281888
 20
2022.3792866602221
 30
0.0
 11
309.14774321443321
 21
2019.301142988031
 31
0.0
 11
308.85572951253926
 21
2019.9587165376297
 31
0.0
 11
308.53511298943101
 21
2020.4221866357809
 31
0.0
 11
308.12723658378184
 21
2020.8844110581376
 31
0.0
 11
307.72385197840276
 21
2021.2746893335391
 31
0.0
 11
307.55293173474166
 21
2021.41032144265
 31
0.0
 11
307.37104168908087
 21
2021.5339263973513
 31
0.0
 11
306.84346922554306
 21
2021.8561878808487
 31
0.0
 11
306.24656485298618
 21
2022.1633972327397
 31
0.0
 11
305.71694573090519
 21
2022.3295096702261
 31
0.0
 11
305.00411350281888
 21
2022.3792866602221
 31
0.0
  0
SPLINE
  5
4DC
100
AcDbEntity
  8
1
  6
CONTINUOUS
 62
           2
100
AcDbSpline
210
0.0
220
0.0
230
1.0
 70
           0
 71
           4
 72
          14
 73
          10
 74
          15
 42
0.00000000001
 43
0.00000000001
 44
0.00000000001
 40
0.0
 40
0.0
 40
0.0
 40
0.0
 40
1.0724195157844927
 40
2.0673526451507138
 40
2.5710266491462099
 40
3.5682217203993818
 40
4.0713307017747074
 40
5.0426497515645714
 40
6.0432281073642535
 40
6.0432281073642535
 40
6.0432281073642535
 40
6.0432281073642535
 10
340.41544611830989
 20
2016.2281402150411
 30
0.0
 10
340.91477616932377
 20
2016.229936647014
 30
0.0
 10
341.47952004318512
 20
2016.3273645060431
 30
0.0
 10
342.40264773810821
 20
2016.69848064794
 30
0.0
 10
342.82217353130812
 20
2016.9772020341679
 30
0.0
 10
343.52923099574741
 20
2017.6803860443049
 30
0.0
 10
343.8098442728741
 20
2018.0979681749579
 30
0.0
 10
344.12301385376918
 20
2019.0174166564329
 30
0.0
 10
344.2219937871447
 20
2019.5102864375101
 30
0.0
 10
344.2226288639244
 20
2020.00815408569
 30
0.0
 11
340.41544611830989
 21
2016.2281402150411
 31
0.0
 11
341.04142891014408
 21
2016.2680598834256
 31
0.0
 11
341.5484616122003
 21
2016.3850996454664
 31
0.0
 11
342.0325610724542
 21
2016.5570918583592
 31
0.0
 11
342.45289901291022
 21
2016.747812183879
 31
0.0
 11
342.61208294944765
 21
2016.8420780340834
 31
0.0
 11
342.77044142126022
 21
2016.9625218568203
 31
0.0
 11
343.1712760188571
 21
2017.3336308849459
 31
0.0
 11
343.5449550828082
 21
2017.7331661980743
 31
0.0
 11
343.66623904523072
 21
2017.8918723744232
 31
0.0
 11
343.75891804788847
 21
2018.0536348338399
 31
0.0
 11
343.9314301788026
 21
2018.474220292489
 31
0.0
 11
344.08278763710086
 21
2018.9483927458891
 31
0.0
 11
344.18583828818061
 21
2019.4084988590896
 31
0.0
 11
344.2226288639244
 21
2020.00815408569
 31
0.0
  0
SPLINE
  5
4DB
100
AcDbEntity
  8
1
  6
CONTINUOUS
 62
           2
100
AcDbSpline
210
0.0
220
0.0
230
1.0
 70
           0
 71
           4
 72
          10
 73
           6
 74
           7
 42
0.00000000001
 43
0.00000000001
 44
0.00000000001
 40
0.0
 40
0.0
 40
0.0
 40
0.0
 40
1.3935956698661671
 40
2.7838297722472456
 40
4.1766129971216914
 40
4.1766129971216914
 40
4.1766129971216914
 40
4.1766129971216914
 10
169.29983056204259
 20
2030.824099316163
 30
0.0
 10
168.60456837352149
 20
2030.824110802497
 30
0.0
 10
167.9124409470661
 20
2030.7312169028951
 30
0.0
 10
166.57142334511931
 20
2030.3645799561859
 30
0.0
 10
165.92857948018141
 20
2030.092489982713
 30
0.0
 10
165.3305682544264
 20
2029.7388949079279
 30
0.0
 11
169.29983056204259
 21
2030.824099316163
 31
0.0
 11
168.46860684138315
 21
2030.7902997826327
 31
0.0
 11
167.86105871807405
 21
2030.6931432380497
 31
0.0
 11
167.24333454319324
 21
2030.5422736793935
 31
0.0
 11
166.63480732500281
 21
2030.3578695772087
 31
0.0
 11
166.06275018541743
 21
2030.1325266469307
 31
0.0
 11
165.3305682544264
 21
2029.7388949079279
 31
0.0
  0
SPLINE
  5
4DA
100
AcDbEntity
  8
1
  6
CONTINUOUS
 62
           2
100
AcDbSpline
210
0.0
220
0.0
230
1.0
 70
           0
 71
           4
 72
           8
 73
           4
 74
           3
 42
0.00000000001
 43
0.00000000001
 44
0.00000000001
 40
0.0
 40
0.0
 40
0.0
 40
0.0
 40
1.0756248839015956
 40
1.0756248839015956
 40
1.0756248839015956
 40
1.0756248839015956
 10
160.51625616617531
 20
2060.3929678519671
 30
0.0
 10
160.15759552360981
 20
2060.3935946996089
 30
0.0
 10
159.79952581384401
 20
2060.3645911986368
 30
0.0
 10
159.44557002612481
 20
2060.3128243548622
 30
0.0
 11
160.51625616617531
 21
2060.3929678519671
 31
0.0
 11
159.9791487755827
 21
2060.3725437376957
 31
0.0
 11
159.44557002612481
 21
2060.3128243548622
 31
0.0
  0
SPLINE
  5
4D9
100
AcDbEntity
  8
1
  6
CONTINUOUS
 62
           2
100
AcDbSpline
210
0.0
220
0.0
230
1.0
 70
           0
 71
           4
 72
          12
 73
           8
 74
          11
 42
0.00000000001
 43
0.00000000001
 44
0.00000000001
 40
0.0
 40
0.0
 40
0.0
 40
0.0
 40
1.2013276327910769
 40
2.3975063497188982
 40
3.0020647745616373
 40
4.1995375261758046
 40
5.406155248540907
 40
5.406155248540907
 40
5.406155248540907
 40
5.406155248540907
 10
362.47588523138091
 20
2019.471540467345
 30
0.0
 10
362.26803358414901
 20
2020.031687227113
 30
0.0
 10
361.94819101260327
 20
2020.543886905813
 30
0.0
 10
361.12336012246823
 20
2021.4101995084629
 30
0.0
 10
360.62696654669588
 20
2021.755285449904
 30
0.0
 10
359.52649650898547
 20
2022.2274153970161
 30
0.0
 10
358.9338869514342
 20
2022.36016861439
 30
0.0
 10
358.33488093788031
 20
2022.379591896942
 30
0.0
 11
362.47588523138091
 21
2019.471540467345
 31
0.0
 11
362.18321394652577
 21
2020.1277133656904
 31
0.0
 11
361.86241904035836
 21
2020.5900935674003
 31
0.0
 11
361.45409363463671
 21
2021.0515086987721
 31
0.0
 11
361.04757175767043
 21
2021.4430836711965
 31
0.0
 11
360.87296498726738
 21
2021.5793272157289
 31
0.0
 11
360.68452539894997
 21
2021.6955259993274
 31
0.0
 11
360.17581728377047
 21
2021.9406891521062
 31
0.0
 11
359.60098009955254
 21
2022.1653177730007
 31
0.0
 11
359.05393480530819
 21
2022.313254257007
 31
0.0
 11
358.33488093788031
 21
2022.379591896942
 31
0.0
  0
SPLINE
  5
4D8
100
AcDbEntity
  8
1
  6
CONTINUOUS
 62
           2
100
AcDbSpline
210
0.0
220
0.0
230
1.0
 70
           0
 71
           4
 72
          14
 73
          10
 74
          15
 42
0.00000000001
 43
0.00000000001
 44
0.00000000001
 40
0.0
 40
0.0
 40
0.0
 40
0.0
 40
0.7240720680632211
 40
1.4439829736942595
 40
1.8073337556881275
 40
2.5267460424279564
 40
2.8899920516805722
 40
3.6095205184331332
 40
4.3330741331696867
 40
4.3330741331696867
 40
4.3330741331696867
 40
4.3330741331696867
 10
343.08222557143438
 20
2035.6518589484599
 30
0.0
 10
343.37069033306301
 20
2035.867842386519
 30
0.0
 10
343.61301032979208
 20
2036.1390729889331
 30
0.0
 10
343.97694336669218
 20
2036.7602206820779
 30
0.0
 10
344.09489752216177
 20
2037.103892921258
 30
0.0
 10
344.18894835038151
 20
2037.8171309460599
 30
0.0
 10
344.16409946144171
 20
2038.1795260287479
 30
0.0
 10
343.97356716417221
 20
2038.8733694247419
 30
0.0
 10
343.80979931622568
 20
2039.1978420234859
 30
0.0
 10
343.5871324862145
 20
2039.480839696723
 30
0.0
 11
343.08222557143438
 21
2035.6518589484599
 31
0.0
 11
343.41209816424811
 21
2035.9329213650867
 31
0.0
 11
343.62589029953915
 21
2036.1964393313169
 31
0.0
 11
343.82467102079227
 21
2036.5094732860018
 31
0.0
 11
343.98370728602976
 21
2036.8095459360775
 31
0.0
 11
344.03385993989889
 21
2036.9343849918923
 31
0.0
 11
344.07155168838494
 21
2037.0729080102483
 31
0.0
 11
344.13719249014883
 21
2037.4611598954157
 31
0.0
 11
344.17443017139738
 21
2037.8531445149549
 31
0.0
 11
344.17392708494884
 21
2037.9966540308196
 31
0.0
 11
344.15783826698816
 21
2038.1301868938071
 31
0.0
 11
344.08199680839124
 21
2038.4610442779679
 31
0.0
 11
343.97112009975513
 21
2038.8146830369205
 31
0.0
 11
343.83292318059677
 21
2039.1243135516368
 31
0.0
 11
343.5871324862145
 21
2039.480839696723
 31
0.0
  0
SPLINE
  5
4D7
100
AcDbEntity
  8
1
  6
CONTINUOUS
 62
           2
100
AcDbSpline
210
0.0
220
0.0
230
1.0
 70
           0
 71
           4
 72
          14
 73
          10
 74
          15
 42
0.00000000001
 43
0.00000000001
 44
0.00000000001
 40
0.0
 40
0.0
 40
0.0
 40
0.0
 40
0.0885920309170492
 40
0.1769295496692615
 40
0.2214281232468585
 40
0.3098506722446068
 40
0.3543891589944317
 40
0.4428764507759287
 40
0.5316885680155661
 40
0.5316885680155661
 40
0.5316885680155661
 40
0.5316885680155661
 10
240.87588100181421
 20
2035.11269389277
 30
0.0
 10
240.88891423633601
 20
2035.070527767075
 30
0.0
 10
240.9089438533216
 20
2035.0308378026009
 30
0.0
 10
240.96133055251599
 20
2034.9597100937469
 30
0.0
 10
240.9933173099088
 20
2034.9287751555389
 30
0.0
 10
241.0662182016319
 20
2034.878735100011
 30
0.0
 10
241.10661699505081
 20
2034.8599837189349
 30
0.0
 10
241.1919524459889
 20
2034.8365772749501
 30
0.0
 10
241.23628586192811
 20
2034.83208767364
 30
0.0
 10
241.2804419869048
 20
2034.8349983299261
 30
0.0
 11
240.87588100181421
 21
2035.11269389277
 31
0.0
 11
240.8942374727863
 21
2035.0628402909351
 31
0.0
 11
240.91444571824468
 21
2035.0264824196597
 31
0.0
 11
240.94035764002365
 21
2034.9889899580876
 31
0.0
 11
240.96629655695381
 21
2034.9562849958843
 31
0.0
 11
240.97764208887963
 21
2034.9443218595643
 31
0.0
 11
240.99093344457992
 21
2034.9327984676513
 31
0.0
 11
241.03003845102344
 21
2034.9041657237178
 31
0.0
 11
241.07081681830539
 21
2034.8779627912936
 31
0.0
 11
241.08636278320517
 21
2034.869691266312
 31
0.0
 11
241.10161529034428
 21
2034.8633944358642
 31
0.0
 11
241.14151410007014
 21
2034.8509055577679
 31
0.0
 11
241.18588203860571
 21
2034.8401529162172
 31
0.0
 11
241.22717715501119
 21
2034.834303003483
 31
0.0
 11
241.2804419869048
 21
2034.8349983299261
 31
0.0
  0
SPLINE
  5
4D6
100
AcDbEntity
  8
1
  6
CONTINUOUS
 62
           2
100
AcDbSpline
210
0.0
220
0.0
230
1.0
 70
           0
 71
           4
 72
          12
 73
           8
 74
          11
 42
0.00000000001
 43
0.00000000001
 44
0.00000000001
 40
0.0
 40
0.0
 40
0.0
 40
0.0
 40
1.3126950767992933
 40
2.6196666121600756
 40
3.2803563124929807
 40
4.5887039622370249
 40
5.7292353786477337
 40
5.7292353786477337
 40
5.7292353786477337
 40
5.7292353786477337
 10
249.24486722794791
 20
2057.4450784162309
 30
0.0
 10
248.9954143539384
 20
2058.048310580732
 30
0.0
 10
248.6244012682057
 20
2058.5940607173461
 30
0.0
 10
247.68522591461451
 20
2059.502974491832
 30
0.0
 10
247.12705614056341
 20
2059.8564676084011
 30
0.0
 10
245.90271372505239
 20
2060.3177259114932
 30
0.0
 10
245.2495676541462
 20
2060.420583472704
 30
0.0
 10
244.7713479223552
 20
2060.3878905929309
 30
0.0
 11
249.24486722794791
 21
2057.4450784162309
 31
0.0
 11
248.89850534613979
 21
2058.1494788779833
 31
0.0
 11
248.52842495015577
 21
2058.6404753566567
 31
0.0
 11
248.06226520555452
 21
2059.1260912688049
 31
0.0
 11
247.60082813372725
 21
2059.5351806013282
 31
0.0
 11
247.40328349345566
 21
2059.6760759495901
 31
0.0
 11
247.18789025701886
 21
2059.7955461577349
 31
0.0
 11
246.59617710543887
 21
2060.0466107839743
 31
0.0
 11
245.92542724176366
 21
2060.2682917117263
 31
0.0
 11
245.38834527812469
 21
2060.3794962123457
 31
0.0
 11
244.7713479223552
 21
2060.3878905929309
 31
0.0
  0
SPLINE
  5
4D5
100
AcDbEntity
  8
1
  6
CONTINUOUS
 62
           2
100
AcDbSpline
210
0.0
220
0.0
230
1.0
 70
           0
 71
           4
 72
          10
 73
           6
 74
           7
 42
0.00000000001
 43
0.00000000001
 44
0.00000000001
 40
0.0
 40
0.0
 40
0.0
 40
0.0
 40
0.7345458660036289
 40
1.6059583025174926
 40
2.4788468157527848
 40
2.4788468157527848
 40
2.4788468157527848
 40
2.4788468157527848
 10
338.48738934837451
 20
2054.3282095170589
 30
0.0
 10
338.05160974409398
 20
2054.3307134422821
 30
0.0
 10
337.75766920662932
 20
2054.2772724349852
 30
0.0
 10
336.91348641625041
 20
2054.0611357862208
 30
0.0
 10
336.50710402460311
 20
2053.8993390435248
 30
0.0
 10
336.12645085350431
 20
2053.6878033232661
 30
0.0
 11
338.48738934837451
 21
2054.3282095170589
 31
0.0
 11
338.01543873072939
 21
2054.3128591347981
 31
0.0
 11
337.7297965521808
 21
2054.263712714996
 31
0.0
 11
337.35567808748812
 21
2054.1717458164717
 31
0.0
 11
336.96082158690274
 21
2054.0588418632115
 31
0.0
 11
336.59249825173498
 21
2053.9231974921413
 31
0.0
 11
336.12645085350431
 21
2053.6878033232661
 31
0.0
  0
SPLINE
  5
4D4
100
AcDbEntity
  8
1
  6
CONTINUOUS
 62
           2
100
AcDbSpline
210
0.0
220
0.0
230
1.0
 70
           0
 71
           4
 72
          14
 73
          10
 74
          15
 42
0.00000000001
 43
0.00000000001
 44
0.00000000001
 40
0.0
 40
0.0
 40
0.0
 40
0.0
 40
0.5274628016362607
 40
1.052049446589181
 40
1.3166500043650531
 40
1.8407846042494169
 40
2.1052429555568097
 40
2.629307665290078
 40
3.1560512824833862
 40
3.1560512824833862
 40
3.1560512824833862
 40
3.1560512824833862
 10
336.12645085350431
 20
2053.6878033232661
 30
0.0
 10
335.90134663396481
 20
2053.5526096200651
 30
0.0
 10
335.70463417397201
 20
2053.3752227339492
 30
0.0
 10
335.3897319993693
 20
2052.9556661007118
 30
0.0
 10
335.2745208578234
 20
2052.7174648243949
 30
0.0
 10
335.1413107612766
 20
2052.2105406200271
 30
0.0
 10
335.12457180394227
 20
2051.9466125486069
 30
0.0
 10
335.19267593862691
 20
2051.4269918727032
 30
0.0
 10
335.27687485236578
 20
2051.1762142172838
 30
0.0
 10
335.40656808759451
 20
2050.9483263030729
 30
0.0
 11
336.12645085350431
 21
2053.6878033232661
 31
0.0
 11
335.86611877190649
 21
2053.5089639516436
 31
0.0
 11
335.69029488465634
 21
2053.3350583252359
 31
0.0
 11
335.52064349433903
 21
2053.1246410842641
 31
0.0
 11
335.38036023553275
 21
2052.9206906660092
 31
0.0
 11
335.33335599737904
 21
2052.8347186746037
 31
0.0
 11
335.29384813886821
 21
2052.7379119219763
 31
0.0
 11
335.21117185488009
 21
2052.463113409799
 31
0.0
 11
335.14808580257858
 21
2052.1831843640502
 31
0.0
 11
335.13491709610145
 21
2052.0795255542093
 31
0.0
 11
335.13360594428576
 21
2051.9816027208858
 31
0.0
 11
335.15556904936022
 21
2051.7352762501023
 31
0.0
 11
335.19994639239798
 21
2051.4689319313916
 31
0.0
 11
335.26764290516405
 21
2051.2314586264743
 31
0.0
 11
335.40656808759451
 21
2050.9483263030729
 31
0.0
  0
SPLINE
  5
4D3
100
AcDbEntity
  8
1
  6
CONTINUOUS
 62
           2
100
AcDbSpline
210
0.0
220
0.0
230
1.0
 70
           0
 71
           4
 72
          10
 73
           6
 74
           7
 42
0.00000000001
 43
0.00000000001
 44
0.00000000001
 40
0.0
 40
0.0
 40
0.0
 40
0.0
 40
0.6808623647866758
 40
1.3592807452261644
 40
2.0411847660783065
 40
2.0411847660783065
 40
2.0411847660783065
 40
2.0411847660783065
 10
335.40656808759451
 20
2050.9483263030729
 30
0.0
 10
335.55594487641281
 20
2050.644169098744
 30
0.0
 10
335.76141215958148
 20
2050.3707648328518
 30
0.0
 10
336.26305662451131
 20
2049.9140326030679
 30
0.0
 10
336.55475362990438
 20
2049.7347837052971
 30
0.0
 10
336.87208441075228
 20
2049.6140176744402
 30
0.0
 11
335.40656808759451
 21
2050.9483263030729
 31
0.0
 11
335.60562969786764
 21
2050.5956320199361
 31
0.0
 11
335.79404516740573
 21
2050.3625590333622
 31
0.0
 11
336.01478545039464
 21
2050.1454483342277
 31
0.0
 11
336.25160008009203
 21
2049.9459360948285
 31
0.0
 11
336.50169245144497
 21
2049.7797772873682
 31
0.0
 11
336.87208441075228
 21
2049.6140176744402
 31
0.0
  0
SPLINE
  5
4D2
100
AcDbEntity
  8
1
  6
CONTINUOUS
 62
           2
100
AcDbSpline
210
0.0
220
0.0
230
1.0
 70
           0
 71
           4
 72
           8
 73
           4
 74
           3
 42
0.00000000001
 43
0.00000000001
 44
0.00000000001
 40
0.0
 40
0.0
 40
0.0
 40
0.0
 40
6.6109909081472971
 40
6.6109909081472971
 40
6.6109909081472971
 40
6.6109909081472971
 10
336.87208441075228
 20
2049.6140176744402
 30
0.0
 10
338.85926002876408
 20
2048.8911589103832
 30
0.0
 10
341.0269470783158
 20
2048.2916393949131
 30
0.0
 10
343.22392959519601
 20
2047.818464537389
 30
0.0
 11
336.87208441075228
 21
2049.6140176744402
 31
0.0
 11
339.96932941589847
 21
2048.622609640965
 31
0.0
 11
343.22392959519601
 21
2047.818464537389
 31
0.0
  0
SPLINE
  5
4D1
100
AcDbEntity
  8
1
  6
CONTINUOUS
 62
           2
100
AcDbSpline
210
0.0
220
0.0
230
1.0
 70
           0
 71
           4
 72
           8
 73
           4
 74
           3
 42
0.00000000001
 43
0.00000000001
 44
0.00000000001
 40
0.0
 40
0.0
 40
0.0
 40
0.0
 40
7.1067594265442438
 40
7.1067594265442438
 40
7.1067594265442438
 40
7.1067594265442438
 10
349.73283029338432
 20
2045.20296282699
 30
0.0
 10
347.7584526750241
 20
2046.4962204506839
 30
0.0
 10
345.54593791157538
 20
2047.385285504279
 30
0.0
 10
343.22392959519601
 20
2047.818464537389
 30
0.0
 11
349.73283029338432
 21
2045.20296282699
 31
0.0
 11
346.60874145604731
 21
2046.8332431536585
 31
0.0
 11
343.22392959519601
 21
2047.818464537389
 31
0.0
  0
SPLINE
  5
4D0
100
AcDbEntity
  8
1
  6
CONTINUOUS
 62
           2
100
AcDbSpline
210
0.0
220
0.0
230
1.0
 70
           0
 71
           4
 72
          10
 73
           6
 74
           7
 42
0.00000000001
 43
0.00000000001
 44
0.00000000001
 40
0.0
 40
0.0
 40
0.0
 40
0.0
 40
2.1836152132508788
 40
4.3580531395514104
 40
6.5446992477010237
 40
6.5446992477010237
 40
6.5446992477010237
 40
6.5446992477010237
 10
352.91424003492011
 20
2039.721968275617
 30
0.0
 10
352.76987082336581
 20
2040.798801781069
 30
0.0
 10
352.4146973079167
 20
2041.8368690367331
 30
0.0
 10
351.32311789393162
 20
2043.717463272154
 30
0.0
 10
350.59734103872682
 20
2044.541678329424
 30
0.0
 10
349.73283029338432
 20
2045.20296282699
 30
0.0
 11
352.91424003492011
 21
2039.721968275617
 31
0.0
 11
352.66502696070569
 21
2040.9959987838774
 31
0.0
 11
352.32063288234713
 21
2041.8928314472055
 31
0.0
 11
351.85764339243838
 21
2042.7700673761669
 31
0.0
 11
351.32555209797988
 21
2043.6073233835534
 31
0.0
 11
350.71676768212666
 21
2044.3525715883582
 31
0.0
 11
349.73283029338432
 21
2045.20296282699
 31
0.0
  0
SPLINE
  5
4CF
100
AcDbEntity
  8
1
  6
CONTINUOUS
 62
           2
100
AcDbSpline
210
0.0
220
0.0
230
1.0
 70
           0
 71
           4
 72
          10
 73
           6
 74
           7
 42
0.00000000001
 43
0.00000000001
 44
0.00000000001
 40
0.0
 40
0.0
 40
0.0
 40
0.0
 40
1.5982616314531546
 40
3.1936604934731636
 40
4.7917411070107923
 40
4.7917411070107923
 40
4.7917411070107923
 40
4.7917411070107923
 10
352.62716128521862
 20
2034.9915381406049
 30
0.0
 10
352.8557963416535
 20
2035.7559581658361
 30
0.0
 10
352.99564852697148
 20
2036.544027105896
 30
0.0
 10
353.09229175083249
 20
2038.136496137374
 30
0.0
 10
353.04876331235761
 20
2038.935631946036
 30
0.0
 10
352.91424003492011
 20
2039.721968275617
 30
0.0
 11
352.62716128521862
 21
2034.9915381406049
 31
0.0
 11
352.86859820915919
 21
2035.9154539071162
 31
0.0
 11
352.97688001673686
 21
2036.6131810840252
 31
0.0
 11
353.03825132122216
 21
2037.3406378703694
 31
0.0
 11
353.06529876693645
 21
2038.0701716727026
 31
0.0
 11
353.04218327047226
 21
2038.7757776612393
 31
0.0
 11
352.91424003492011
 21
2039.721968275617
 31
0.0
  0
SPLINE
  5
4CE
100
AcDbEntity
  8
1
  6
CONTINUOUS
 62
           2
100
AcDbSpline
210
0.0
220
0.0
230
1.0
 70
           0
 71
           4
 72
          10
 73
           6
 74
           7
 42
0.00000000001
 43
0.00000000001
 44
0.00000000001
 40
0.0
 40
0.0
 40
0.0
 40
0.0
 40
1.4593644949512954
 40
2.9146611108218661
 40
4.3724694882032216
 40
4.3724694882032216
 40
4.3724694882032216
 40
4.3724694882032216
 10
350.1263490456019
 20
2031.4837397643621
 30
0.0
 10
350.690369114845
 20
2031.9443590739961
 30
0.0
 10
351.19020241265821
 20
2032.47798309068
 30
0.0
 10
352.03501173510148
 20
2033.6629664023251
 30
0.0
 10
352.37620954033792
 20
2034.3090261263519
 30
0.0
 10
352.62716128521862
 20
2034.9915381406049
 30
0.0
 11
350.1263490456019
 21
2031.4837397643621
 31
0.0
 11
350.7782665178417
 21
2032.0618029769398
 31
0.0
 11
351.20677206451955
 21
2032.5429764447442
 31
0.0
 11
351.60781586035023
 21
2033.0741977892453
 31
0.0
 11
351.97921039777958
 21
2033.6264922195555
 31
0.0
 11
352.29392386644702
 21
2034.187782744473
 31
0.0
 11
352.62716128521862
 21
2034.9915381406049
 31
0.0
  0
SPLINE
  5
4CD
100
AcDbEntity
  8
1
  6
CONTINUOUS
 62
           2
100
AcDbSpline
210
0.0
220
0.0
230
1.0
 70
           0
 71
           4
 72
           8
 73
           4
 74
           3
 42
0.00000000001
 43
0.00000000001
 44
0.00000000001
 40
0.0
 40
0.0
 40
0.0
 40
0.0
 40
5.2178996614245046
 40
5.2178996614245046
 40
5.2178996614245046
 40
5.2178996614245046
 10
345.47803649091128
 20
2029.280906160054
 30
0.0
 10
347.16399854879438
 20
2029.6856041064741
 30
0.0
 10
348.74702160771341
 20
2030.4357981499149
 30
0.0
 10
350.1263490456019
 20
2031.4837397643621
 30
0.0
 11
345.47803649091128
 21
2029.280906160054
 31
0.0
 11
347.91718075075454
 21
2030.141106586698
 31
0.0
 11
350.1263490456019
 21
2031.4837397643621
 31
0.0
  0
SPLINE
  5
4CC
100
AcDbEntity
  8
1
  6
CONTINUOUS
 62
           2
100
AcDbSpline
210
0.0
220
0.0
230
1.0
 70
           0
 71
           4
 72
           8
 73
           4
 74
           3
 42
0.00000000001
 43
0.00000000001
 44
0.00000000001
 40
0.0
 40
0.0
 40
0.0
 40
0.0
 40
4.5359216843340606
 40
4.5359216843340606
 40
4.5359216843340606
 40
4.5359216843340606
 10
341.0080277669777
 20
2028.5887370032381
 30
0.0
 10
342.51613881844781
 20
2028.682567909201
 30
0.0
 10
344.01242257778938
 20
2028.914263534874
 30
0.0
 10
345.47803649091128
 20
2029.280906160054
 30
0.0
 11
341.0080277669777
 21
2028.5887370032381
 31
0.0
 11
343.25896855582505
 21
2028.8325171869396
 31
0.0
 11
345.47803649091128
 21
2029.280906160054
 31
0.0
  0
SPLINE
  5
4CB
100
AcDbEntity
  8
1
  6
CONTINUOUS
 62
           2
100
AcDbSpline
210
0.0
220
0.0
230
1.0
 70
           0
 71
           4
 72
           8
 73
           4
 74
           3
 42
0.00000000001
 43
0.00000000001
 44
0.00000000001
 40
0.0
 40
0.0
 40
0.0
 40
0.0
 40
3.1780786231712503
 40
3.1780786231712503
 40
3.1780786231712503
 40
3.1780786231712503
 10
340.06748724179562
 20
2034.81171615157
 30
0.0
 10
341.1414003597481
 20
2034.862225455943
 30
0.0
 10
342.11499469167751
 20
2035.161529512852
 30
0.0
 10
343.08222557143438
 20
2035.6518589484599
 30
0.0
 11
340.06748724179562
 21
2034.81171615157
 31
0.0
 11
341.61486224593824
 21
2035.0668550008015
 31
0.0
 11
343.08222557143438
 21
2035.6518589484599
 31
0.0
  0
SPLINE
  5
4CA
100
AcDbEntity
  8
1
  6
CONTINUOUS
 62
           2
100
AcDbSpline
210
0.0
220
0.0
230
1.0
 70
           0
 71
           4
 72
          10
 73
           6
 74
           7
 42
0.00000000001
 43
0.00000000001
 44
0.00000000001
 40
0.0
 40
0.0
 40
0.0
 40
0.0
 40
0.8471158914600967
 40
1.766753719404309
 40
2.6147851582133876
 40
2.6147851582133876
 40
2.6147851582133876
 40
2.6147851582133876
 10
343.5871324862145
 20
2039.480839696723
 30
0.0
 10
343.3144803210597
 20
2039.803547398217
 30
0.0
 10
342.99841116777628
 20
2040.0871419468549
 30
0.0
 10
342.20965897570051
 20
2040.5600094907629
 30
0.0
 10
341.82805544943159
 20
2040.7470152142439
 30
0.0
 10
341.42619421825191
 20
2040.879286182786
 30
0.0
 11
343.5871324862145
 21
2039.480839696723
 31
0.0
 11
343.24761229205086
 21
2039.849226414407
 31
0.0
 11
342.96152658218489
 21
2040.0837569451578
 31
0.0
 11
342.60195766650622
 21
2040.3202206928368
 31
0.0
 11
342.22909579249853
 21
2040.5370509977199
 31
0.0
 11
341.89660505892681
 21
2040.7036603728948
 31
0.0
 11
341.42619421825191
 21
2040.879286182786
 31
0.0
  0
SPLINE
  5
4C9
100
AcDbEntity
  8
1
  6
CONTINUOUS
 62
           2
100
AcDbSpline
210
0.0
220
0.0
230
1.0
 70
           0
 71
           4
 72
           8
 73
           4
 74
           3
 42
0.00000000001
 43
0.00000000001
 44
0.00000000001
 40
0.0
 40
0.0
 40
0.0
 40
0.0
 40
4.7809718537323018
 40
4.7809718537323018
 40
4.7809718537323018
 40
4.7809718537323018
 10
341.42619421825191
 20
2040.879286182786
 30
0.0
 10
339.90488510465377
 20
2041.4003301550681
 30
0.0
 10
338.4147693979566
 20
2041.8063607780559
 30
0.0
 10
336.81183643348197
 20
2042.0935953711851
 30
0.0
 11
341.42619421825191
 21
2040.879286182786
 31
0.0
 11
339.1496242699456
 21
2041.5741192941678
 31
0.0
 11
336.81183643348197
 21
2042.0935953711851
 31
0.0
  0
SPLINE
  5
4C8
100
AcDbEntity
  8
1
  6
CONTINUOUS
 62
           2
100
AcDbSpline
210
0.0
220
0.0
230
1.0
 70
           0
 71
           4
 72
           8
 73
           4
 74
           3
 42
0.00000000001
 43
0.00000000001
 44
0.00000000001
 40
0.0
 40
0.0
 40
0.0
 40
0.0
 40
6.4960300663991806
 40
6.4960300663991806
 40
6.4960300663991806
 40
6.4960300663991806
 10
330.71330094177131
 20
2044.2586351567661
 30
0.0
 10
332.57554789052489
 20
2043.355767251868
 30
0.0
 10
334.59861968833633
 20
2042.631485945077
 30
0.0
 10
336.81183643348197
 20
2042.0935953711851
 30
0.0
 11
330.71330094177131
 21
2044.2586351567661
 31
0.0
 11
333.63095501397964
 21
2043.0392487648483
 31
0.0
 11
336.81183643348197
 21
2042.0935953711851
 31
0.0
  0
SPLINE
  5
4C7
100
AcDbEntity
  8
1
  6
CONTINUOUS
 62
           2
100
AcDbSpline
210
0.0
220
0.0
230
1.0
 70
           0
 71
           4
 72
           8
 73
           4
 74
           3
 42
0.00000000001
 43
0.00000000001
 44
0.00000000001
 40
0.0
 40
0.0
 40
0.0
 40
0.0
 40
3.714618502421879
 40
3.714618502421879
 40
3.714618502421879
 40
3.714618502421879
 10
333.62509604530442
 20
2060.014317502576
 30
0.0
 10
332.27403643618158
 20
2059.745541884311
 30
0.0
 10
331.4531150245661
 20
2059.2469599688579
 30
0.0
 10
330.27165492414861
 20
2058.5404002131399
 30
0.0
 11
333.62509604530442
 21
2060.014317502576
 31
0.0
 11
331.88477566896199
 21
2059.4415279094028
 31
0.0
 11
330.27165492414861
 21
2058.5404002131399
 31
0.0
  0
SPLINE
  5
4C6
100
AcDbEntity
  8
1
  6
CONTINUOUS
 62
           2
100
AcDbSpline
210
0.0
220
0.0
230
1.0
 70
           0
 71
           4
 72
           8
 73
           4
 74
           3
 42
0.00000000001
 43
0.00000000001
 44
0.00000000001
 40
0.0
 40
0.0
 40
0.0
 40
0.0
 40
4.9103474584933675
 40
4.9103474584933675
 40
4.9103474584933675
 40
4.9103474584933675
 10
338.50724997740031
 20
2060.3889989341369
 30
0.0
 10
336.8718153852659
 20
2060.4136807488512
 30
0.0
 10
335.23734663702788
 20
2060.2892932082782
 30
0.0
 10
333.62509604530442
 20
2060.014317502576
 30
0.0
 11
338.50724997740031
 21
2060.3889989341369
 31
0.0
 11
336.05747901119827
 21
2060.3140297885129
 31
0.0
 11
333.62509604530442
 21
2060.014317502576
 31
0.0
  0
SPLINE
  5
4C5
100
AcDbEntity
  8
1
  6
CONTINUOUS
 62
           2
100
AcDbSpline
210
0.0
220
0.0
230
1.0
 70
           0
 71
           4
 72
          14
 73
          10
 74
          15
 42
0.00000000001
 43
0.00000000001
 44
0.00000000001
 40
0.0
 40
0.0
 40
0.0
 40
0.0
 40
0.9880367758167425
 40
1.9711462787642222
 40
2.4670235887801941
 40
3.4491321484675423
 40
3.9444628838900524
 40
4.9255651306689598
 40
5.9109006574051248
 40
5.9109006574051248
 40
5.9109006574051248
 40
5.9109006574051248
 10
377.46628828767967
 20
2054.393633264388
 30
0.0
 10
377.9580387363435
 20
2054.3980015274119
 30
0.0
 10
378.4443063743733
 20
2054.4971208784468
 30
0.0
 10
379.35232969239422
 20
2054.8739470302939
 30
0.0
 10
379.7655282026389
 20
2055.1481026388819
 30
0.0
 10
380.46479874246478
 20
2055.837709726391
 30
0.0
 10
380.74428087882541
 20
2056.2466623800192
 30
0.0
 10
381.13216314815247
 20
2057.1478332649108
 30
0.0
 10
381.2369078965549
 20
2057.6315589034421
 30
0.0
 10
381.24968630992669
 20
2058.1217916025112
 30
0.0
 11
377.46628828767967
 21
2054.393633264388
 31
0.0
 11
378.05642212113344
 21
2054.4348506835863
 31
0.0
 11
378.50563152200914
 21
2054.5481123604291
 31
0.0
 11
378.97997881243862
 21
2054.7260236355341
 31
0.0
 11
379.40085178476454
 21
2054.9213479255045
 31
0.0
 11
379.55873085383189
 21
2055.0151722509249
 31
0.0
 11
379.71491720934438
 21
2055.1335465718344
 31
0.0
 11
380.11083052040323
 21
2055.497478215405
 31
0.0
 11
380.48016506100919
 21
2055.8882690278547
 31
0.0
 11
380.60051239101028
 21
2056.0426171702252
 31
0.0
 11
380.69635201622322
 21
2056.1990498458567
 31
0.0
 11
380.8968135872899
 21
2056.6164901236089
 31
0.0
 11
381.08044366251494
 21
2057.0875071671294
 31
0.0
 11
381.19926524910022
 21
2057.5339377138116
 31
0.0
 11
381.24968630992669
 21
2058.1217916025112
 31
0.0
  0
SPLINE
  5
4C4
100
AcDbEntity
  8
1
  6
CONTINUOUS
 62
           2
100
AcDbSpline
210
0.0
220
0.0
230
1.0
 70
           0
 71
           4
 72
           8
 73
           4
 74
           3
 42
0.00000000001
 43
0.00000000001
 44
0.00000000001
 40
0.0
 40
0.0
 40
0.0
 40
0.0
 40
15.59112467350797
 40
15.59112467350797
 40
15.59112467350797
 40
15.59112467350797
 10
149.73046644610281
 20
2056.5333223610728
 30
0.0
 10
145.6759537353355
 20
2053.6361007663609
 30
0.0
 10
141.6611186911731
 20
2049.96314687841
 30
0.0
 10
138.75109139675291
 20
2045.6942611224681
 30
0.0
 11
149.73046644610281
 21
2056.5333223610728
 31
0.0
 11
143.81159689029769
 21
2051.6281658022317
 31
0.0
 11
138.75109139675291
 21
2045.6942611224681
 31
0.0
  0
SPLINE
  5
4C3
100
AcDbEntity
  8
1
  6
CONTINUOUS
 62
           2
100
AcDbSpline
210
0.0
220
0.0
230
1.0
 70
           0
 71
           4
 72
           8
 73
           4
 74
           3
 42
0.00000000001
 43
0.00000000001
 44
0.00000000001
 40
0.0
 40
0.0
 40
0.0
 40
0.0
 40
10.561699093866991
 40
10.561699093866991
 40
10.561699093866991
 40
10.561699093866991
 10
159.44557002612481
 20
2060.3128243548622
 30
0.0
 10
155.87462067067591
 20
2059.714961927385
 30
0.0
 10
152.80484460761531
 20
2058.4358568796929
 30
0.0
 10
149.73046644610281
 20
2056.5333223610728
 30
0.0
 11
159.44557002612481
 21
2060.3128243548622
 31
0.0
 11
154.40180403838767
 21
2058.9123253921462
 31
0.0
 11
149.73046644610281
 21
2056.5333223610728
 31
0.0
  0
SPLINE
  5
4C2
100
AcDbEntity
  8
1
  6
CONTINUOUS
 62
           2
100
AcDbSpline
210
0.0
220
0.0
230
1.0
 70
           0
 71
           4
 72
           8
 73
           4
 74
           3
 42
0.00000000001
 43
0.00000000001
 44
0.00000000001
 40
0.0
 40
0.0
 40
0.0
 40
0.0
 40
3.7882666743329803
 40
3.7882666743329803
 40
3.7882666743329803
 40
3.7882666743329803
 10
165.3305682544264
 20
2029.7388949079279
 30
0.0
 10
164.27978769926321
 20
2029.0441590239041
 30
0.0
 10
163.37094251282051
 20
2028.1566998416929
 30
0.0
 10
162.65238163520249
 20
2027.123728604183
 30
0.0
 11
165.3305682544264
 21
2029.7388949079279
 31
0.0
 11
163.86689256573501
 21
2028.5581500136127
 31
0.0
 11
162.65238163520249
 21
2027.123728604183
 31
0.0
  0
CIRCLE
  5
4C1
100
AcDbEntity
  8
1
  6
CONTINUOUS
 62
           7
100
AcDbCircle
 10
1269.353612487012
 20
1692.692472808577
 40
5.0
  0
CIRCLE
  5
4C0
100
AcDbEntity
  8
1
  6
CONTINUOUS
 62
           7
100
AcDbCircle
 10
1173.894197026828
 20
1788.151888268761
 40
8.05
  0
CIRCLE
  5
4BF
100
AcDbEntity
  8
1
  6
CONTINUOUS
 62
           7
100
AcDbCircle
 10
1173.894197026828
 20
1788.151888268761
 40
10.85
  0
CIRCLE
  5
4BE
100
AcDbEntity
  8
1
  6
CONTINUOUS
 62
           7
100
AcDbCircle
 10
1269.353612487012
 20
2116.1787240612
 40
5.0
  0
CIRCLE
  5
4BD
100
AcDbEntity
  8
1
  6
CONTINUOUS
 62
           7
100
AcDbCircle
 10
1173.894197026828
 20
2020.719308601017
 40
8.05
  0
CIRCLE
  5
4BC
100
AcDbEntity
  8
1
  6
CONTINUOUS
 62
           7
100
AcDbCircle
 10
1173.894197026828
 20
2020.719308601017
 40
10.85
  0
CIRCLE
  5
4BB
100
AcDbEntity
  8
1
  6
CONTINUOUS
 62
           7
100
AcDbCircle
 10
845.867361234388
 20
2116.178724061201
 40
5.0
  0
CIRCLE
  5
4BA
100
AcDbEntity
  8
1
  6
CONTINUOUS
 62
           7
100
AcDbCircle
 10
941.326776694572
 20
2020.719308601017
 40
8.05
  0
CIRCLE
  5
4B9
100
AcDbEntity
  8
1
  6
CONTINUOUS
 62
           7
100
AcDbCircle
 10
941.326776694572
 20
2020.719308601017
 40
10.85
  0
CIRCLE
  5
4B8
100
AcDbEntity
  8
1
  6
CONTINUOUS
 62
           7
100
AcDbCircle
 10
845.867361234388
 20
1692.692472808577
 40
5.0
  0
CIRCLE
  5
4B7
100
AcDbEntity
  8
1
  6
CONTINUOUS
 62
           7
100
AcDbCircle
 10
941.326776694572
 20
1788.151888268761
 40
8.05
  0
CIRCLE
  5
4B6
100
AcDbEntity
  8
1
  6
CONTINUOUS
 62
           7
100
AcDbCircle
 10
941.326776694572
 20
1788.151888268761
 40
10.85
  0
CIRCLE
  5
4B5
100
AcDbEntity
  8
1
  6
CONTINUOUS
 62
           7
100
AcDbCircle
 10
1280.3904868607
 20
1904.435598434889
 40
10.0
  0
CIRCLE
  5
4B4
100
AcDbEntity
  8
1
  6
CONTINUOUS
 62
           2
100
AcDbCircle
 10
240.159634836411
 20
2219.405039402967
 40
25.0
  0
CIRCLE
  5
4B3
100
AcDbEntity
  8
1
  6
CONTINUOUS
 62
           2
100
AcDbCircle
 10
240.159634836411
 20
2219.405039402967
 40
2.0
  0
CIRCLE
  5
4B2
100
AcDbEntity
  8
1
  6
CONTINUOUS
 62
           2
100
AcDbCircle
 10
244.659634836411
 20
2204.975928558571
 40
1.1
  0
CIRCLE
  5
4B1
100
AcDbEntity
  8
1
  6
CONTINUOUS
 62
           2
100
AcDbCircle
 10
244.659634836411
 20
2204.975928558571
 40
1.4
  0
CIRCLE
  5
4B0
100
AcDbEntity
  8
1
  6
CONTINUOUS
 62
           2
100
AcDbCircle
 10
235.659634836411
 20
2204.975928558571
 40
1.1
  0
CIRCLE
  5
4AF
100
AcDbEntity
  8
1
  6
CONTINUOUS
 62
           2
100
AcDbCircle
 10
235.659634836411
 20
2204.975928558571
 40
1.4
  0
CIRCLE
  5
4AE
100
AcDbEntity
  8
1
  6
CONTINUOUS
 62
           2
100
AcDbCircle
 10
229.159111601109
 20
2207.341863528165
 40
0.5
  0
CIRCLE
  5
4AD
100
AcDbEntity
  8
1
  6
CONTINUOUS
 62
           2
100
AcDbCircle
 10
240.159634836411
 20
2211.811859701327
 40
1.555703350688
  0
CIRCLE
  5
4AC
100
AcDbEntity
  8
1
  6
CONTINUOUS
 62
           7
100
AcDbCircle
 10
1057.6104868607
 20
1904.435598434889
 40
153.6
  0
ARC
  5
4AB
100
AcDbEntity
  8
1
  6
DOT_CENTER
 62
           2
100
AcDbCircle
 10
1057.6104868607
 20
1904.435598434889
 40
299.45
100
AcDbArc
 50
-140.029140705163
 51
-135.0
  0
ARC
  5
4AA
100
AcDbEntity
  8
1
  6
DOT_CENTER
 62
           2
100
AcDbCircle
 10
1057.6104868607
 20
1904.435598434889
 40
299.45
100
AcDbArc
 50
-48.997415560464
 51
-42.090021235356
  0
ARC
  5
4A9
100
AcDbEntity
  8
1
  6
DOT_CENTER
 62
           2
100
AcDbCircle
 10
1057.6104868607
 20
1904.435598434889
 40
299.45
100
AcDbArc
 50
40.89240181544
 51
48.755875219827
  0
ARC
  5
4A8
100
AcDbEntity
  8
1
  6
DOT_CENTER
 62
           2
100
AcDbCircle
 10
1057.6104868607
 20
1904.435598434889
 40
299.45
100
AcDbArc
 50
131.644826543455
 51
139.226772350588
  0
ARC
  5
4A7
100
AcDbEntity
  8
1
  6
DOT_CENTER
 62
           2
100
AcDbCircle
 10
1057.6104868607
 20
1904.435598434889
 40
299.45
100
AcDbArc
 50
-135.0
 51
-131.587098067179
  0
ARC
  5
4A6
100
AcDbEntity
  8
1
  6
CONTINUOUS
 62
           7
100
AcDbCircle
 10
245.409634836411
 20
1458.896289402967
 40
14.28125
100
AcDbArc
 50
-111.568595735125
 51
-68.431404264875
  0
ARC
  5
4A5
100
AcDbEntity
  8
1
  6
CONTINUOUS
 62
           7
100
AcDbCircle
 10
245.409634836411
 20
1404.333789402967
 40
14.28125
100
AcDbArc
 50
68.431404264875
 51
111.568595735125
  0
ARC
  5
4A4
100
AcDbEntity
  8
1
  6
CONTINUOUS
 62
           7
100
AcDbCircle
 10
234.909634836411
 20
1404.333789402967
 40
14.28125
100
AcDbArc
 50
68.431404264875
 51
111.568595735125
  0
ARC
  5
4A3
100
AcDbEntity
  8
1
  6
CONTINUOUS
 62
           7
100
AcDbCircle
 10
234.909634836411
 20
1458.896289402967
 40
14.28125
100
AcDbArc
 50
-111.568595735125
 51
-68.431404264875
  0
ARC
  5
4A2
100
AcDbEntity
  8
1
  6
CONTINUOUS
 62
           7
100
AcDbCircle
 10
276.701301503078
 20
1431.615039402967
 40
13.541666666667
100
AcDbArc
 50
144.948863252552
 51
-144.948863252554
  0
ARC
  5
4A1
100
AcDbEntity
  8
1
  6
CONTINUOUS
 62
           7
100
AcDbCircle
 10
416.490891516881
 20
2220.415724154011
 40
34.999998133571
100
AcDbArc
 50
-0.001063666539
 51
17.589884566413
  0
ARC
  5
4A0
100
AcDbEntity
  8
1
  6
CONTINUOUS
 62
           7
100
AcDbCircle
 10
447.939662237801
 20
2230.415036519847
 40
2.000031627079
100
AcDbArc
 50
16.790137763571
 51
163.209862236429
  0
ARC
  5
49F
100
AcDbEntity
  8
1
  6
CONTINUOUS
 62
           7
100
AcDbCircle
 10
479.38843295872
 20
2220.415724154011
 40
34.999998133571
100
AcDbArc
 50
162.410115433586
 51
-179.99893633346
  0
ARC
  5
49E
100
AcDbEntity
  8
1
  6
CONTINUOUS
 62
           7
100
AcDbCircle
 10
509.388378155941
 20
2220.415724154011
 40
34.999998133571
100
AcDbArc
 50
162.410115433586
 51
-179.99893633346
  0
ARC
  5
49D
100
AcDbEntity
  8
1
  6
CONTINUOUS
 62
           7
100
AcDbCircle
 10
477.939607435022
 20
2230.415036519847
 40
2.000031627079
100
AcDbArc
 50
16.79013776357
 51
163.209862236428
  0
ARC
  5
49C
100
AcDbEntity
  8
1
  6
CONTINUOUS
 62
           7
100
AcDbCircle
 10
446.490836714103
 20
2220.415724154011
 40
34.999998133571
100
AcDbArc
 50
-0.001063666539
 51
17.589884566413
  0
ARC
  5
49B
100
AcDbEntity
  8
0
  6
CONTINUOUS
 62
           7
100
AcDbCircle
 10
462.939147056377
 20
2114.048903979022
 40
55.531942963397
100
AcDbArc
 50
75.150635157686
 51
75.915563341555
  0
ARC
  5
49A
100
AcDbEntity
  8
0
  6
CONTINUOUS
 62
           7
100
AcDbCircle
 10
462.939147056377
 20
2114.048903979022
 40
55.531942963397
100
AcDbArc
 50
73.333187217878
 51
75.150635157686
  0
ARC
  5
499
100
AcDbEntity
  8
0
  6
CONTINUOUS
 62
           7
100
AcDbCircle
 10
462.939047056377
 20
2192.781174825216
 40
55.53194296267
100
AcDbArc
 50
-106.665694667092
 51
-73.333083260769
  0
ARC
  5
498
100
AcDbEntity
  8
0
  6
CONTINUOUS
 62
           7
100
AcDbCircle
 10
462.939147056377
 20
2114.048903979022
 40
55.531942963396
100
AcDbArc
 50
104.083434993186
 51
106.66579862316
  0
ARC
  5
497
100
AcDbEntity
  8
0
  6
CONTINUOUS
 62
           7
100
AcDbCircle
 10
489.439637592657
 20
2230.415036646721
 40
2.000002756246
100
AcDbArc
 50
17.040607032484
 51
-179.999988170647
  0
ARC
  5
496
100
AcDbEntity
  8
0
  6
CONTINUOUS
 62
           7
100
AcDbCircle
 10
457.990836714103
 20
2220.415724154011
 40
34.999998133571
100
AcDbArc
 50
-0.001453545242
 51
17.672259986294
  0
ARC
  5
495
100
AcDbEntity
  8
0
  6
CONTINUOUS
 62
           7
100
AcDbCircle
 10
436.439632080165
 20
2230.415036646721
 40
2.000002756246
100
AcDbArc
 50
-0.000011829353
 51
162.959392967515
  0
ARC
  5
494
100
AcDbEntity
  8
0
  6
CONTINUOUS
 62
           7
100
AcDbCircle
 10
467.888348137519
 20
2220.415821802467
 40
35.000013309924
100
AcDbArc
 50
162.327743888998
 51
-179.998714007082
  0
ARC
  5
493
100
AcDbEntity
  8
1
  6
CONTINUOUS
 62
           2
100
AcDbCircle
 10
1280.3904868607
 20
1904.435598434889
 40
20.5
100
AcDbArc
 50
170.169635220036
 51
-170.169635220036
  0
ARC
  5
492
100
AcDbEntity
  8
1
  6
CONTINUOUS
 62
           2
100
AcDbCircle
 10
1280.3904868607
 20
1904.435598434889
 40
20.5
100
AcDbArc
 50
50.169635220035
 51
69.830364779963
  0
ARC
  5
491
100
AcDbEntity
  8
1
  6
CONTINUOUS
 62
           2
100
AcDbCircle
 10
1280.3904868607
 20
1904.435598434889
 40
20.5
100
AcDbArc
 50
-69.830364779963
 51
-50.169635220035
  0
ARC
  5
490
100
AcDbEntity
  8
1
  6
CONTINUOUS
 62
           7
100
AcDbCircle
 10
1280.3904868607
 20
1904.435598434889
 40
20.5
100
AcDbArc
 50
0.0
 51
42.079786860607
  0
ARC
  5
48F
100
AcDbEntity
  8
1
  6
CONTINUOUS
 62
           7
100
AcDbCircle
 10
1280.3904868607
 20
1904.435598434889
 40
20.5
100
AcDbArc
 50
-162.079786860608
 51
-77.920213139392
  0
ARC
  5
48E
100
AcDbEntity
  8
1
  6
CONTINUOUS
 62
           7
100
AcDbCircle
 10
1280.3904868607
 20
1904.435598434889
 40
20.5
100
AcDbArc
 50
-42.079786860605
 51
0.0
  0
ARC
  5
48D
100
AcDbEntity
  8
1
  6
CONTINUOUS
 62
           7
100
AcDbCircle
 10
1280.3904868607
 20
1904.435598434889
 40
20.5
100
AcDbArc
 50
77.920213139394
 51
162.079786860609
  0
ARC
  5
48C
100
AcDbEntity
  8
1
  6
CONTINUOUS
 62
           2
100
AcDbCircle
 10
1280.3904868607
 20
1904.435598434889
 40
22.5
100
AcDbArc
 50
13.835223614038
 51
46.164776385961
  0
ARC
  5
48B
100
AcDbEntity
  8
1
  6
CONTINUOUS
 62
           2
100
AcDbCircle
 10
1280.3904868607
 20
1904.435598434889
 40
22.500000000001
100
AcDbArc
 50
-46.164776385959
 51
-13.835223614036
  0
ARC
  5
48A
100
AcDbEntity
  8
1
  6
CONTINUOUS
 62
           2
100
AcDbCircle
 10
1280.3904868607
 20
1904.435598434889
 40
22.5
100
AcDbArc
 50
-106.16477638596
 51
-73.835223614037
  0
ARC
  5
489
100
AcDbEntity
  8
1
  6
CONTINUOUS
 62
           2
100
AcDbCircle
 10
1280.3904868607
 20
1904.435598434889
 40
22.5
100
AcDbArc
 50
-166.164776385963
 51
-133.835223614039
  0
ARC
  5
488
100
AcDbEntity
  8
1
  6
CONTINUOUS
 62
           2
100
AcDbCircle
 10
1280.3904868607
 20
1904.435598434889
 40
22.5
100
AcDbArc
 50
133.835223614039
 51
166.164776385961
  0
ARC
  5
487
100
AcDbEntity
  8
1
  6
CONTINUOUS
 62
           2
100
AcDbCircle
 10
1280.3904868607
 20
1904.435598434889
 40
22.5
100
AcDbArc
 50
73.835223614037
 51
106.164776385963
  0
ARC
  5
486
100
AcDbEntity
  8
1
  6
CONTINUOUS
 62
           7
100
AcDbCircle
 10
445.63381331983
 20
1966.826632560428
 40
4.187133700955
100
AcDbArc
 50
49.083225612591
 51
130.916774387408
  0
ARC
  5
485
100
AcDbEntity
  8
1
  6
CONTINUOUS
 62
           7
100
AcDbCircle
 10
437.40657198128
 20
1955.799846842661
 40
15.213919418721
100
AcDbArc
 50
68.868247799202
 51
111.131752200798
  0
ARC
  5
484
100
AcDbEntity
  8
1
  6
CONTINUOUS
 62
           7
100
AcDbCircle
 10
429.17933064273
 20
1966.826632560428
 40
4.187133700955
100
AcDbArc
 50
49.08322561259
 51
130.916774387409
  0
ARC
  5
483
100
AcDbEntity
  8
1
  6
CONTINUOUS
 62
           7
100
AcDbCircle
 10
445.63381331983
 20
1940.200899962337
 40
4.187133700955
100
AcDbArc
 50
-130.91677438741
 51
-49.083225612589
  0
ARC
  5
482
100
AcDbEntity
  8
1
  6
CONTINUOUS
 62
           7
100
AcDbCircle
 10
437.40657198128
 20
1951.227685680105
 40
15.213919418722
100
AcDbArc
 50
-111.131752200797
 51
-68.868247799203
  0
ARC
  5
481
100
AcDbEntity
  8
1
  6
CONTINUOUS
 62
           7
100
AcDbCircle
 10
429.17933064273
 20
1940.200899962337
 40
4.187133700955
100
AcDbArc
 50
-130.916774387411
 51
-49.083225612588
  0
ARC
  5
480
100
AcDbEntity
  8
1
  6
CONTINUOUS
 62
           7
100
AcDbCircle
 10
429.17933064273
 20
1970.200899962337
 40
4.187133700955
100
AcDbArc
 50
-130.916774387411
 51
-49.083225612588
  0
ARC
  5
47F
100
AcDbEntity
  8
1
  6
CONTINUOUS
 62
           7
100
AcDbCircle
 10
437.40657198128
 20
1981.227685680105
 40
15.213919418722
100
AcDbArc
 50
-111.131752200797
 51
-68.868247799203
  0
ARC
  5
47E
100
AcDbEntity
  8
1
  6
CONTINUOUS
 62
           7
100
AcDbCircle
 10
445.63381331983
 20
1970.200899962337
 40
4.187133700955
100
AcDbArc
 50
-130.91677438741
 51
-49.083225612589
  0
ARC
  5
47D
100
AcDbEntity
  8
1
  6
CONTINUOUS
 62
           7
100
AcDbCircle
 10
429.17933064273
 20
1961.826632560428
 40
4.187133700955
100
AcDbArc
 50
49.08322561259
 51
130.916774387409
  0
ARC
  5
47C
100
AcDbEntity
  8
1
  6
CONTINUOUS
 62
           7
100
AcDbCircle
 10
437.40657198128
 20
1950.799846842661
 40
15.213919418721
100
AcDbArc
 50
68.868247799202
 51
111.131752200798
  0
ARC
  5
47B
100
AcDbEntity
  8
1
  6
CONTINUOUS
 62
           7
100
AcDbCircle
 10
445.63381331983
 20
1961.826632560428
 40
4.187133700955
100
AcDbArc
 50
49.083225612591
 51
130.916774387408
  0
ARC
  5
47A
100
AcDbEntity
  8
1
  6
CONTINUOUS
 62
           7
100
AcDbCircle
 10
417.647544096008
 20
1916.74238140329
 40
6.32989481196
100
AcDbArc
 50
-110.704360965693
 51
-91.627284043515
  0
ARC
  5
479
100
AcDbEntity
  8
1
  6
CONTINUOUS
 62
           7
100
AcDbCircle
 10
422.293301695415
 20
1918.458795427922
 40
3.630576947708
100
AcDbArc
 50
5.596662690013
 51
54.403337310002
  0
ARC
  5
478
100
AcDbEntity
  8
1
  6
CONTINUOUS
 62
           7
100
AcDbCircle
 10
452.519842267145
 20
1918.458795427922
 40
3.630576947708
100
AcDbArc
 50
125.596662689997
 51
-174.403337310001
  0
ARC
  5
477
100
AcDbEntity
  8
1
  6
CONTINUOUS
 62
           7
100
AcDbCircle
 10
417.647544096008
 20
1890.087697402644
 40
6.32989481196
100
AcDbArc
 50
91.627284043515
 51
110.704360965693
  0
ARC
  5
476
100
AcDbEntity
  8
1
  6
CONTINUOUS
 62
           7
100
AcDbCircle
 10
1057.6104868607
 20
1706.845598434889
 40
11.0
100
AcDbArc
 50
60.777129705697
 51
119.222870294301
  0
ARC
  5
475
100
AcDbEntity
  8
1
  6
CONTINUOUS
 62
           7
100
AcDbCircle
 10
1068.6104868607
 20
1722.945762915693
 40
5.0
100
AcDbArc
 50
157.66835499078
 51
-167.615994109476
  0
ARC
  5
474
100
AcDbEntity
  8
1
  6
CONTINUOUS
 62
           7
100
AcDbCircle
 10
1046.6104868607
 20
1722.945762915693
 40
5.0
100
AcDbArc
 50
-12.384005890521
 51
22.331645009219
  0
ARC
  5
473
100
AcDbEntity
  8
1
  6
CONTINUOUS
 62
           7
100
AcDbCircle
 10
252.997980136352
 20
2164.621619441613
 40
3.344055699642
100
AcDbArc
 50
123.348851989577
 51
164.369092103032
  0
ARC
  5
472
100
AcDbEntity
  8
1
  6
CONTINUOUS
 62
           7
100
AcDbCircle
 10
240.159634836411
 20
2153.415039402967
 40
6.0
100
AcDbArc
 50
-164.369092103046
 51
-15.630907896963
  0
ARC
  5
471
100
AcDbEntity
  8
1
  6
CONTINUOUS
 62
           7
100
AcDbCircle
 10
227.32128953647
 20
2164.621619441613
 40
3.344055699641
100
AcDbArc
 50
15.630907896968
 51
56.651148010421
  0
ARC
  5
470
100
AcDbEntity
  8
1
  6
CONTINUOUS
 62
           2
100
AcDbCircle
 10
240.159634836411
 20
2219.405039402967
 40
18.5
100
AcDbArc
 50
-45.0
 51
-135.413684388795
  0
ARC
  5
46F
100
AcDbEntity
  8
1
  6
CONTINUOUS
 62
           2
100
AcDbCircle
 10
240.159634836411
 20
2219.405039402967
 40
20.5
100
AcDbArc
 50
-45.0
 51
-135.0
  0
ARC
  5
46E
100
AcDbEntity
  8
1
  6
CONTINUOUS
 62
           2
100
AcDbCircle
 10
240.159634836411
 20
2219.405039402967
 40
2.5
100
AcDbArc
 50
74.697968285621
 51
-158.578178478217
  0
ARC
  5
46D
100
AcDbEntity
  8
1
  6
CONTINUOUS
 62
           2
100
AcDbCircle
 10
240.159634836411
 20
2219.405039402967
 40
2.5
100
AcDbArc
 50
-111.421821521794
 51
0.0
  0
ARC
  5
46C
100
AcDbEntity
  8
1
  6
CONTINUOUS
 62
           2
100
AcDbCircle
 10
240.159634836411
 20
2219.405039402967
 40
2.5
100
AcDbArc
 50
0.0
 51
15.302031714382
  0
ARC
  5
46B
100
AcDbEntity
  8
1
  6
CONTINUOUS
 62
           2
100
AcDbCircle
 10
247.159634836411
 20
2226.405039402967
 40
1.65167135663
100
AcDbArc
 50
-44.999999999999
 51
135.0
  0
ARC
  5
46A
100
AcDbEntity
  8
1
  6
CONTINUOUS
 62
           7
100
AcDbCircle
 10
240.159634836411
 20
2219.405039402967
 40
26.999999999999
100
AcDbArc
 50
-74.97388624088
 51
0.0
  0
ARC
  5
469
100
AcDbEntity
  8
1
  6
CONTINUOUS
 62
           7
100
AcDbCircle
 10
240.159634836411
 20
2219.405039402967
 40
27.0
100
AcDbArc
 50
0.0
 51
-105.02611375912
  0
ARC
  5
468
100
AcDbEntity
  8
1
  6
CONTINUOUS
 62
           7
100
AcDbCircle
 10
240.159634836411
 20
2219.405039402967
 40
26.999999999999
100
AcDbArc
 50
-105.02611375912
 51
-74.97388624088
  0
ARC
  5
467
100
AcDbEntity
  8
1
  6
CONTINUOUS
 62
           2
100
AcDbCircle
 10
240.159634836411
 20
2199.4883727363
 40
17.083333333333
100
AcDbArc
 50
-114.189514154024
 51
-65.810485845975
  0
ARC
  5
466
100
AcDbEntity
  8
1
  6
CONTINUOUS
 62
           2
100
AcDbCircle
 10
249.29179984686
 20
2219.545866475663
 40
2.588393985349
100
AcDbArc
 50
94.808203634755
 51
-111.755931701102
  0
ARC
  5
465
100
AcDbEntity
  8
1
  6
CONTINUOUS
 62
           2
100
AcDbCircle
 10
249.29179984686
 20
2219.545866475663
 40
2.58839398535
100
AcDbArc
 50
-72.334262629043
 51
69.95173618969
  0
ARC
  5
464
100
AcDbEntity
  8
1
  6
CONTINUOUS
 62
           7
100
AcDbCircle
 10
1057.6104868607
 20
1904.435598434889
 40
8.0
100
AcDbArc
 50
23.188037542166
 51
156.811962457833
  0
ARC
  5
463
100
AcDbEntity
  8
1
  6
CONTINUOUS
 62
           7
100
AcDbCircle
 10
1057.6104868607
 20
1904.435598434889
 40
5.884076231499
100
AcDbArc
 50
32.367187092417
 51
147.632812907582
  0
ARC
  5
462
100
AcDbEntity
  8
1
  6
CONTINUOUS
 62
           7
100
AcDbCircle
 10
1057.6104868607
 20
1904.435598434889
 40
5.884076231499
100
AcDbArc
 50
-147.632812907582
 51
-32.367187092417
  0
ARC
  5
461
100
AcDbEntity
  8
1
  6
CONTINUOUS
 62
           7
100
AcDbCircle
 10
1057.6104868607
 20
1904.435598434889
 40
8.0
100
AcDbArc
 50
-156.811962457833
 51
-23.188037542166
  0
ARC
  5
460
100
AcDbEntity
  8
1
  6
CONTINUOUS
 62
           7
100
AcDbCircle
 10
1044.4604868607
 20
1904.435598434889
 40
3.15
100
AcDbArc
 50
90.0
 51
-90.0
  0
ARC
  5
45F
100
AcDbEntity
  8
1
  6
CONTINUOUS
 62
           7
100
AcDbCircle
 10
1070.7604868607
 20
1904.435598434889
 40
3.15
100
AcDbArc
 50
-90.0
 51
90.0
  0
ARC
  5
45E
100
AcDbEntity
  8
1
  6
CONTINUOUS
 62
           7
100
AcDbCircle
 10
240.159634836411
 20
2388.115039402967
 40
9.999999999999
100
AcDbArc
 50
-71.639186206073
 51
-108.360813793927
  0
ARC
  5
45D
100
AcDbEntity
  8
1
  6
CONTINUOUS
 62
           7
100
AcDbCircle
 10
240.159634836411
 20
2388.115039402967
 40
16.3
100
AcDbArc
 50
90.0
 51
-129.279887108316
  0
ARC
  5
45C
100
AcDbEntity
  8
1
  6
CONTINUOUS
 62
           7
100
AcDbCircle
 10
240.159634836411
 20
2388.115039402967
 40
16.3
100
AcDbArc
 50
-50.720112891684
 51
90.0
  0
ARC
  5
45B
100
AcDbEntity
  8
1
  6
CONTINUOUS
 62
           7
100
AcDbCircle
 10
240.159634836411
 20
2153.415039402967
 40
9.5
100
AcDbArc
 50
-90.0
 51
35.202381386925
  0
ARC
  5
45A
100
AcDbEntity
  8
1
  6
CONTINUOUS
 62
           7
100
AcDbCircle
 10
240.159634836411
 20
2153.415039402967
 40
9.5
100
AcDbArc
 50
144.797618613075
 51
-90.0
  0
ARC
  5
459
100
AcDbEntity
  8
1
  6
CONTINUOUS
 62
           6
100
AcDbCircle
 10
240.159634836411
 20
1785.015039402967
 40
303.6
100
AcDbArc
 50
-115.307798650647
 51
-113.04753350755
  0
ARC
  5
458
100
AcDbEntity
  8
1
  6
CONTINUOUS
 62
           6
100
AcDbCircle
 10
240.159634836411
 20
1785.015039402967
 40
303.6
100
AcDbArc
 50
-66.952466492449
 51
-64.692201349352
  0
ARC
  5
457
100
AcDbEntity
  8
1
  6
CONTINUOUS
 62
           7
100
AcDbCircle
 10
240.159634836411
 20
1785.015039402967
 40
303.6
100
AcDbArc
 50
-90.0
 51
-66.952466492449
  0
ARC
  5
456
100
AcDbEntity
  8
1
  6
CONTINUOUS
 62
           7
100
AcDbCircle
 10
240.159634836411
 20
2061.815039402967
 40
303.6
100
AcDbArc
 50
90.0
 51
115.307798650647
  0
ARC
  5
455
100
AcDbEntity
  8
1
  6
CONTINUOUS
 62
           7
100
AcDbCircle
 10
240.159634836411
 20
2061.815039402967
 40
303.6
100
AcDbArc
 50
64.692201349352
 51
90.0
  0
ARC
  5
454
100
AcDbEntity
  8
1
  6
CONTINUOUS
 62
           7
100
AcDbCircle
 10
240.159634836411
 20
1785.015039402967
 40
303.6
100
AcDbArc
 50
-113.04753350755
 51
-90.0
  0
ARC
  5
453
100
AcDbEntity
  8
1
  6
DASH_CENTER
 62
           2
100
AcDbCircle
 10
1057.6104868607
 20
1904.435598434889
 40
299.45
100
AcDbArc
 50
135.0
 51
132.923542123835
  0
LINE
  5
452
100
AcDbEntity
  8
1
  6
CONTINUOUS
 62
           7
100
AcDbLine
 10
1246.327760827366
 20
1728.234114495225
 11
1233.811970800364
 21
1715.718324468224
  0
LINE
  5
451
100
AcDbEntity
  8
1
  6
CONTINUOUS
 62
           7
100
AcDbLine
 10
1272.288105628936
 20
1674.413762514905
 11
1166.222088450954
 21
1780.479779692887
  0
LINE
  5
450
100
AcDbEntity
  8
1
  6
CONTINUOUS
 62
           7
100
AcDbLine
 10
1287.632322780684
 20
1689.757979666654
 11
1272.288105628936
 21
1674.413762514905
  0
LINE
  5
44F
100
AcDbEntity
  8
1
  6
CONTINUOUS
 62
           7
100
AcDbLine
 10
1181.566305602702
 20
1795.823996844635
 11
1287.632322780684
 21
1689.757979666654
  0
LINE
  5
44E
100
AcDbEntity
  8
1
  6
DOT_CENTER
 62
           2
100
AcDbLine
 10
1163.153245020604
 20
1777.410936262537
 11
1184.635149033051
 21
1798.892840274985
  0
LINE
  5
44D
100
AcDbEntity
  8
1
  6
CONTINUOUS
 62
           7
100
AcDbLine
 10
1233.811970800364
 20
2093.152872401554
 11
1246.327760827366
 21
2080.637082374552
  0
LINE
  5
44C
100
AcDbEntity
  8
1
  6
CONTINUOUS
 62
           7
100
AcDbLine
 10
1287.632322780684
 20
2119.113217203125
 11
1181.566305602702
 21
2013.047200025143
  0
LINE
  5
44B
100
AcDbEntity
  8
1
  6
CONTINUOUS
 62
           7
100
AcDbLine
 10
1272.288105628936
 20
2134.457434354873
 11
1287.632322780684
 21
2119.113217203125
  0
LINE
  5
44A
100
AcDbEntity
  8
1
  6
CONTINUOUS
 62
           7
100
AcDbLine
 10
1166.222088450954
 20
2028.391417176891
 11
1272.288105628936
 21
2134.457434354873
  0
LINE
  5
449
100
AcDbEntity
  8
1
  6
DOT_CENTER
 62
           2
100
AcDbLine
 10
1184.635149033052
 20
2009.978356594793
 11
1163.153245020604
 21
2031.46026060724
  0
LINE
  5
448
100
AcDbEntity
  8
1
  6
CONTINUOUS
 62
           7
100
AcDbLine
 10
868.893212894035
 20
2080.637082374552
 11
881.409002921037
 21
2093.152872401554
  0
LINE
  5
447
100
AcDbEntity
  8
1
  6
CONTINUOUS
 62
           7
100
AcDbLine
 10
842.932868092464
 20
2134.457434354873
 11
948.998885270446
 21
2028.391417176891
  0
LINE
  5
446
100
AcDbEntity
  8
1
  6
CONTINUOUS
 62
           7
100
AcDbLine
 10
827.588650940716
 20
2119.113217203125
 11
842.932868092464
 21
2134.457434354873
  0
LINE
  5
445
100
AcDbEntity
  8
1
  6
CONTINUOUS
 62
           7
100
AcDbLine
 10
933.654668118698
 20
2013.047200025143
 11
827.588650940716
 21
2119.113217203125
  0
LINE
  5
444
100
AcDbEntity
  8
1
  6
DOT_CENTER
 62
           2
100
AcDbLine
 10
952.067728700796
 20
2031.46026060724
 11
930.585824688349
 21
2009.978356594793
  0
LINE
  5
443
100
AcDbEntity
  8
1
  6
CONTINUOUS
 62
           7
100
AcDbLine
 10
881.409002921037
 20
1715.718324468224
 11
868.893212894035
 21
1728.234114495225
  0
LINE
  5
442
100
AcDbEntity
  8
1
  6
CONTINUOUS
 62
           7
100
AcDbLine
 10
827.588650940716
 20
1689.757979666653
 11
933.654668118698
 21
1795.823996844635
  0
LINE
  5
441
100
AcDbEntity
  8
1
  6
CONTINUOUS
 62
           7
100
AcDbLine
 10
842.932868092464
 20
1674.413762514905
 11
827.588650940716
 21
1689.757979666653
  0
LINE
  5
440
100
AcDbEntity
  8
1
  6
CONTINUOUS
 62
           7
100
AcDbLine
 10
948.998885270446
 20
1780.479779692887
 11
842.932868092464
 21
1674.413762514905
  0
LINE
  5
43F
100
AcDbEntity
  8
1
  6
DOT_CENTER
 62
           2
100
AcDbLine
 10
930.585824688349
 20
1798.892840274985
 11
952.067728700796
 21
1777.410936262537
  0
LINE
  5
43E
100
AcDbEntity
  8
1
  6
DOT_CENTER
 62
           2
100
AcDbLine
 10
462.509362180521
 20
1235.115039402967
 11
462.509362180521
 21
1203.415039402967
  0
LINE
  5
43D
100
AcDbEntity
  8
1
  6
DOT_CENTER
 62
           2
100
AcDbLine
 10
475.181470756395
 20
1219.265039402967
 11
439.985676683923
 21
1219.265039402967
  0
LINE
  5
43C
100
AcDbEntity
  8
1
  6
DOT_CENTER
 62
           2
100
AcDbLine
 10
356.443345002539
 20
1581.165455953037
 11
356.443345002539
 21
1634.265039402967
  0
LINE
  5
43B
100
AcDbEntity
  8
1
  6
DOT_CENTER
 62
           2
100
AcDbLine
 10
356.786925434859
 20
1577.395939204929
 11
419.479257116243
 21
1236.345522654859
  0
LINE
  5
43A
100
AcDbEntity
  8
1
  6
CONTINUOUS
 62
           7
100
AcDbLine
 10
367.293345002539
 20
1581.165455953037
 11
367.293345002539
 21
1629.265039402967
  0
LINE
  5
439
100
AcDbEntity
  8
1
  6
CONTINUOUS
 62
           7
100
AcDbLine
 10
367.293345002539
 20
1629.265039402967
 11
345.593345002539
 21
1629.265039402967
  0
LINE
  5
438
100
AcDbEntity
  8
1
  6
CONTINUOUS
 62
           7
100
AcDbLine
 10
345.593345002539
 20
1629.265039402967
 11
345.593345002539
 21
1581.165455953037
  0
LINE
  5
437
100
AcDbEntity
  8
1
  6
CONTINUOUS
 62
           7
100
AcDbLine
 10
367.45813178063
 20
1579.357534251306
 11
430.150463462014
 21
1238.307117701237
  0
LINE
  5
436
100
AcDbEntity
  8
1
  6
CONTINUOUS
 62
           7
100
AcDbLine
 10
408.808050770472
 20
1234.383927608481
 11
346.115719089088
 21
1575.434344158552
  0
LINE
  5
435
100
AcDbEntity
  8
1
  6
CONTINUOUS
 62
           7
100
AcDbLine
 10
462.509042055301
 20
1208.415039402967
 11
439.985676683923
 21
1208.415039402967
  0
LINE
  5
434
100
AcDbEntity
  8
1
  6
CONTINUOUS
 62
           7
100
AcDbLine
 10
439.985676683923
 20
1230.115039402967
 11
462.509042058354
 21
1230.115039402967
  0
LINE
  5
433
100
AcDbEntity
  8
1
  6
DOT_CENTER
 62
           2
100
AcDbLine
 10
17.809907492301
 20
1203.415039402967
 11
17.809907492301
 21
1235.115039402967
  0
LINE
  5
432
100
AcDbEntity
  8
1
  6
DOT_CENTER
 62
           2
100
AcDbLine
 10
40.333592988899
 20
1219.265039402967
 11
5.137798916427
 21
1219.265039402967
  0
LINE
  5
431
100
AcDbEntity
  8
1
  6
DOT_CENTER
 62
           2
100
AcDbLine
 10
123.875924670283
 20
1634.265039402967
 11
123.875924670283
 21
1581.165455953037
  0
LINE
  5
430
100
AcDbEntity
  8
1
  6
DOT_CENTER
 62
           2
100
AcDbLine
 10
60.840012556579
 20
1236.345522654859
 11
123.532344237963
 21
1577.395939204929
  0
LINE
  5
42F
100
AcDbEntity
  8
1
  6
CONTINUOUS
 62
           7
100
AcDbLine
 10
113.025924670283
 20
1629.265039402967
 11
113.025924670283
 21
1581.165455953037
  0
LINE
  5
42E
100
AcDbEntity
  8
1
  6
CONTINUOUS
 62
           7
100
AcDbLine
 10
134.725924670283
 20
1629.265039402967
 11
113.025924670283
 21
1629.265039402967
  0
LINE
  5
42D
100
AcDbEntity
  8
1
  6
CONTINUOUS
 62
           7
100
AcDbLine
 10
134.725924670283
 20
1581.165455953037
 11
134.725924670283
 21
1629.265039402967
  0
LINE
  5
42C
100
AcDbEntity
  8
1
  6
CONTINUOUS
 62
           7
100
AcDbLine
 10
50.168806210808
 20
1238.307117701237
 11
112.861137892192
 21
1579.357534251306
  0
LINE
  5
42B
100
AcDbEntity
  8
1
  6
CONTINUOUS
 62
           7
100
AcDbLine
 10
134.203550583735
 20
1575.434344158552
 11
71.51121890235
 21
1234.383927608481
  0
LINE
  5
42A
100
AcDbEntity
  8
1
  6
CONTINUOUS
 62
           7
100
AcDbLine
 10
40.333592988899
 20
1208.415039402967
 11
17.810227617521
 21
1208.415039402967
  0
LINE
  5
429
100
AcDbEntity
  8
1
  6
CONTINUOUS
 62
           7
100
AcDbLine
 10
17.810227614468
 20
1230.115039402967
 11
40.333592988899
 21
1230.115039402967
  0
LINE
  5
428
100
AcDbEntity
  8
1
  6
DOT_CENTER
 62
           2
100
AcDbLine
 10
1057.6104868607
 20
2119.475598434889
 11
1057.6104868607
 21
1689.395598434889
  0
LINE
  5
427
100
AcDbEntity
  8
1
  6
CONTINUOUS
 62
           2
100
AcDbLine
 10
249.348430072843
 20
2057.166580081904
 11
259.988599227361
 21
2028.585960061884
  0
LINE
  5
426
100
AcDbEntity
  8
1
  6
CONTINUOUS
 62
           2
100
AcDbLine
 10
240.875881001814
 20
2035.11269389277
 11
238.993027972268
 21
2040.937300633566
  0
LINE
  5
425
100
AcDbEntity
  8
1
  6
CONTINUOUS
 62
           2
100
AcDbLine
 10
238.993027972268
 20
2040.937300633566
 11
246.624637124861
 21
2040.937302989441
  0
LINE
  5
424
100
AcDbEntity
  8
1
  6
CONTINUOUS
 62
           2
100
AcDbLine
 10
242.423137001269
 20
2054.470019370834
 11
233.717885098273
 21
2028.587306069113
  0
LINE
  5
423
100
AcDbEntity
  8
1
  6
CONTINUOUS
 62
           2
100
AcDbLine
 10
233.717885098273
 20
2028.587306069113
 11
225.195261324048
 21
2028.586537830544
  0
LINE
  5
422
100
AcDbEntity
  8
1
  6
CONTINUOUS
 62
           2
100
AcDbLine
 10
225.195261324048
 20
2028.586537830544
 11
237.004004098246
 21
2060.393171514769
  0
LINE
  5
421
100
AcDbEntity
  8
1
  6
CONTINUOUS
 62
           2
100
AcDbLine
 10
244.771347922355
 20
2060.387890592931
 11
237.004004098246
 21
2060.393171514769
  0
LINE
  5
420
100
AcDbEntity
  8
1
  6
CONTINUOUS
 62
           2
100
AcDbLine
 10
249.244867227948
 20
2057.445078416231
 11
249.348430072843
 21
2057.166580081904
  0
LINE
  5
41F
100
AcDbEntity
  8
1
  6
CONTINUOUS
 62
           2
100
AcDbLine
 10
259.988599227361
 20
2028.585960061884
 11
251.180715385752
 21
2028.586108528289
  0
LINE
  5
41E
100
AcDbEntity
  8
1
  6
CONTINUOUS
 62
           2
100
AcDbLine
 10
250.930533329472
 20
2028.730662351744
 11
248.801535458687
 21
2034.837053188089
  0
LINE
  5
41D
100
AcDbEntity
  8
1
  6
CONTINUOUS
 62
           2
100
AcDbLine
 10
248.801535458687
 20
2034.837053188089
 11
241.280441986905
 21
2034.834998329926
  0
LINE
  5
41C
100
AcDbEntity
  8
1
  6
CONTINUOUS
 62
           2
100
AcDbLine
 10
261.237288662666
 20
2028.585940211539
 11
261.237288662667
 21
2060.39323629848
  0
LINE
  5
41B
100
AcDbEntity
  8
1
  6
CONTINUOUS
 62
           2
100
AcDbLine
 10
261.237288662667
 20
2060.39323629848
 11
270.625241424806
 21
2060.393261236077
  0
LINE
  5
41A
100
AcDbEntity
  8
1
  6
CONTINUOUS
 62
           2
100
AcDbLine
 10
275.05071049444
 20
2057.536481287181
 11
284.502224451509
 21
2036.757055767348
  0
LINE
  5
419
100
AcDbEntity
  8
1
  6
CONTINUOUS
 62
           2
100
AcDbLine
 10
284.502224451509
 20
2036.757055767348
 11
284.502224451509
 21
2060.393298098065
  0
LINE
  5
418
100
AcDbEntity
  8
1
  6
CONTINUOUS
 62
           2
100
AcDbLine
 10
284.502224451509
 20
2060.393298098065
 11
292.33240456171
 21
2060.393319103619
  0
LINE
  5
417
100
AcDbEntity
  8
1
  6
CONTINUOUS
 62
           2
100
AcDbLine
 10
292.33240456171
 20
2060.393319103619
 11
292.33240456171
 21
2028.585425016976
  0
LINE
  5
416
100
AcDbEntity
  8
1
  6
CONTINUOUS
 62
           2
100
AcDbLine
 10
292.33240456171
 20
2028.585425016976
 11
283.276322959325
 21
2028.585575328476
  0
LINE
  5
415
100
AcDbEntity
  8
1
  6
CONTINUOUS
 62
           2
100
AcDbLine
 10
278.852057837157
 20
2031.360765891224
 11
269.155186977357
 21
2052.74678869133
  0
LINE
  5
414
100
AcDbEntity
  8
1
  6
CONTINUOUS
 62
           2
100
AcDbLine
 10
269.155186977357
 20
2052.74678869133
 11
269.155186977357
 21
2028.585809400986
  0
LINE
  5
413
100
AcDbEntity
  8
1
  6
CONTINUOUS
 62
           2
100
AcDbLine
 10
269.155186977357
 20
2028.585809400986
 11
261.237288662666
 21
2028.585940211539
  0
LINE
  5
412
100
AcDbEntity
  8
1
  6
CONTINUOUS
 62
           2
100
AcDbLine
 10
322.089180585818
 20
2041.562876780199
 11
322.089180585818
 21
2047.678599019996
  0
LINE
  5
411
100
AcDbEntity
  8
1
  6
CONTINUOUS
 62
           2
100
AcDbLine
 10
322.089180585818
 20
2047.678599019996
 11
307.150680336541
 21
2047.678558926395
  0
LINE
  5
410
100
AcDbEntity
  8
1
  6
CONTINUOUS
 62
           2
100
AcDbLine
 10
307.150680336541
 20
2047.678558926395
 11
309.11007258613
 21
2041.568048999119
  0
LINE
  5
40F
100
AcDbEntity
  8
1
  6
CONTINUOUS
 62
           2
100
AcDbLine
 10
309.11007258613
 20
2041.568048999119
 11
322.089180585818
 21
2041.562876780199
  0
LINE
  5
40E
100
AcDbEntity
  8
1
  6
CONTINUOUS
 62
           2
100
AcDbLine
 10
323.237279170025
 20
2034.803766965473
 11
323.237279170025
 21
2028.584908797959
  0
LINE
  5
40D
100
AcDbEntity
  8
1
  6
CONTINUOUS
 62
           2
100
AcDbLine
 10
323.237279170025
 20
2028.584908797959
 11
301.920031619111
 21
2028.585263775204
  0
LINE
  5
40C
100
AcDbEntity
  8
1
  6
CONTINUOUS
 62
           2
100
AcDbLine
 10
297.072924179593
 20
2033.35466481461
 11
297.072924179593
 21
2060.393331984355
  0
LINE
  5
40B
100
AcDbEntity
  8
1
  6
CONTINUOUS
 62
           2
100
AcDbLine
 10
297.072924179593
 20
2060.393331984355
 11
323.269837731911
 21
2060.393401984133
  0
LINE
  5
40A
100
AcDbEntity
  8
1
  6
CONTINUOUS
 62
           2
100
AcDbLine
 10
323.269837731911
 20
2060.393401984133
 11
323.262220414972
 21
2054.348489959843
  0
LINE
  5
409
100
AcDbEntity
  8
1
  6
CONTINUOUS
 62
           2
100
AcDbLine
 10
323.262220414972
 20
2054.348489959843
 11
305.891066179047
 21
2054.347566350676
  0
LINE
  5
408
100
AcDbEntity
  8
1
  6
CONTINUOUS
 62
           2
100
AcDbLine
 10
305.891066179047
 20
2054.347566350676
 11
305.891066179047
 21
2035.347348443931
  0
LINE
  5
407
100
AcDbEntity
  8
1
  6
CONTINUOUS
 62
           2
100
AcDbLine
 10
306.420951387085
 20
2034.803721883723
 11
323.237279170025
 21
2034.803766965473
  0
LINE
  5
406
100
AcDbEntity
  8
1
  6
CONTINUOUS
 62
           2
100
AcDbLine
 10
349.105172283396
 20
2060.391743501919
 11
349.105172283396
 21
2054.328036615703
  0
LINE
  5
405
100
AcDbEntity
  8
1
  6
CONTINUOUS
 62
           2
100
AcDbLine
 10
326.910411067557
 20
2034.811712089986
 11
326.910411067557
 21
2028.595569169218
  0
LINE
  5
404
100
AcDbEntity
  8
1
  6
CONTINUOUS
 62
           2
100
AcDbLine
 10
349.105172283396
 20
2054.328036615703
 11
338.487389348375
 21
2054.328209517059
  0
LINE
  5
403
100
AcDbEntity
  8
1
  6
CONTINUOUS
 62
           2
100
AcDbLine
 10
326.910411067557
 20
2028.595569169218
 11
341.008027766978
 21
2028.588737003238
  0
LINE
  5
402
100
AcDbEntity
  8
1
  6
CONTINUOUS
 62
           2
100
AcDbLine
 10
326.910411067557
 20
2034.811712089986
 11
340.067487241796
 21
2034.81171615157
  0
LINE
  5
401
100
AcDbEntity
  8
1
  6
CONTINUOUS
 62
           2
100
AcDbLine
 10
349.105172283396
 20
2060.391743501919
 11
338.5072499774
 21
2060.388998934137
  0
LINE
  5
400
100
AcDbEntity
  8
1
  6
CONTINUOUS
 62
           2
100
AcDbLine
 10
370.827453294377
 20
2054.402161868231
 11
370.827453294377
 21
2028.584113672815
  0
LINE
  5
3FF
100
AcDbEntity
  8
1
  6
CONTINUOUS
 62
           2
100
AcDbLine
 10
370.827453294377
 20
2028.584113672815
 11
362.142853677777
 21
2028.584260988213
  0
LINE
  5
3FE
100
AcDbEntity
  8
1
  6
CONTINUOUS
 62
           2
100
AcDbLine
 10
362.142853677777
 20
2028.584260988213
 11
362.142853677777
 21
2054.41361162908
  0
LINE
  5
3FD
100
AcDbEntity
  8
1
  6
CONTINUOUS
 62
           2
100
AcDbLine
 10
362.142853677777
 20
2054.41361162908
 11
353.285863235956
 21
2054.4135881019
  0
LINE
  5
3FC
100
AcDbEntity
  8
1
  6
CONTINUOUS
 62
           2
100
AcDbLine
 10
353.285863235956
 20
2054.4135881019
 11
353.285863235956
 21
2060.3934824006
  0
LINE
  5
3FB
100
AcDbEntity
  8
1
  6
CONTINUOUS
 62
           2
100
AcDbLine
 10
370.827453294377
 20
2054.402161868231
 11
377.46628828768
 21
2054.393633264388
  0
LINE
  5
3FA
100
AcDbEntity
  8
1
  6
CONTINUOUS
 62
           2
100
AcDbLine
 10
381.249686309927
 20
2060.393557217448
 11
381.249686309927
 21
2058.121791602511
  0
LINE
  5
3F9
100
AcDbEntity
  8
1
  6
CONTINUOUS
 62
           2
100
AcDbLine
 10
381.249686309927
 20
2060.393557217448
 11
353.285863235956
 21
2060.3934824006
  0
LINE
  5
3F8
100
AcDbEntity
  8
1
  6
CONTINUOUS
 62
           2
100
AcDbLine
 10
241.414291657975
 20
1990.39321080907
 11
241.414291657975
 21
2022.379279599458
  0
LINE
  5
3F7
100
AcDbEntity
  8
1
  6
CONTINUOUS
 62
           2
100
AcDbLine
 10
241.414291657975
 20
2022.379279599458
 11
246.870176196705
 21
2022.379294078942
  0
LINE
  5
3F6
100
AcDbEntity
  8
1
  6
CONTINUOUS
 62
           2
100
AcDbLine
 10
250.208271436812
 20
2017.966614075724
 11
250.208271436812
 21
1990.393236227519
  0
LINE
  5
3F5
100
AcDbEntity
  8
1
  6
CONTINUOUS
 62
           2
100
AcDbLine
 10
250.208271436812
 20
1990.393236227519
 11
241.414291657975
 21
1990.39321080907
  0
LINE
  5
3F4
100
AcDbEntity
  8
1
  6
CONTINUOUS
 62
           2
100
AcDbLine
 10
280.318357325933
 20
2022.379383134623
 11
272.839056124868
 21
2022.379363061124
  0
LINE
  5
3F3
100
AcDbEntity
  8
1
  6
CONTINUOUS
 62
           2
100
AcDbLine
 10
272.839056124868
 20
2022.379363061124
 11
268.82163164926
 21
1999.680942486391
  0
LINE
  5
3F2
100
AcDbEntity
  8
1
  6
CONTINUOUS
 62
           2
100
AcDbLine
 10
268.82163164926
 20
1999.680942486391
 11
262.457618745284
 21
2019.888355397722
  0
LINE
  5
3F1
100
AcDbEntity
  8
1
  6
CONTINUOUS
 62
           2
100
AcDbLine
 10
259.08104001119
 20
2022.379326927013
 11
252.936880118746
 21
2022.379310194172
  0
LINE
  5
3F0
100
AcDbEntity
  8
1
  6
CONTINUOUS
 62
           2
100
AcDbLine
 10
252.936880118746
 20
2022.379310194172
 11
263.797297302609
 21
1990.393338878879
  0
LINE
  5
3EF
100
AcDbEntity
  8
1
  6
CONTINUOUS
 62
           2
100
AcDbLine
 10
263.797297302609
 20
1990.393338878879
 11
269.589623730605
 21
1990.393240232099
  0
LINE
  5
3EE
100
AcDbEntity
  8
1
  6
CONTINUOUS
 62
           2
100
AcDbLine
 10
274.36821006065
 20
1994.284121997631
 11
278.616283864793
 21
2014.793220684331
  0
LINE
  5
3ED
100
AcDbEntity
  8
1
  6
CONTINUOUS
 62
           2
100
AcDbLine
 10
278.616283864793
 20
2014.793220684331
 11
283.129669467143
 21
1990.393019491311
  0
LINE
  5
3EC
100
AcDbEntity
  8
1
  6
CONTINUOUS
 62
           2
100
AcDbLine
 10
300.930475650589
 20
1996.659788078074
 11
298.952300898948
 21
2002.886130080786
  0
LINE
  5
3EB
100
AcDbEntity
  8
1
  6
CONTINUOUS
 62
           2
100
AcDbLine
 10
298.952300898948
 20
2002.886130080786
 11
306.4548817375
 21
2002.887983292085
  0
LINE
  5
3EA
100
AcDbEntity
  8
1
  6
CONTINUOUS
 62
           2
100
AcDbLine
 10
306.4548817375
 20
2002.887983292085
 11
302.250101733969
 21
2016.53534252899
  0
LINE
  5
3E9
100
AcDbEntity
  8
1
  6
CONTINUOUS
 62
           2
100
AcDbLine
 10
302.250101733969
 20
2016.53534252899
 11
294.534110958492
 21
1993.647029535102
  0
LINE
  5
3E8
100
AcDbEntity
  8
1
  6
CONTINUOUS
 62
           2
100
AcDbLine
 10
289.91790834096
 20
1990.392904391194
 11
283.129669467143
 21
1990.393019491311
  0
LINE
  5
3E7
100
AcDbEntity
  8
1
  6
CONTINUOUS
 62
           2
100
AcDbLine
 10
296.635711466853
 20
2022.379426684998
 11
288.284626367962
 21
1999.743465311519
  0
LINE
  5
3E6
100
AcDbEntity
  8
1
  6
CONTINUOUS
 62
           2
100
AcDbLine
 10
288.284626367962
 20
1999.743465311519
 11
284.581303656894
 21
2018.658618446621
  0
LINE
  5
3E5
100
AcDbEntity
  8
1
  6
CONTINUOUS
 62
           2
100
AcDbLine
 10
296.635711466853
 20
2022.379426684998
 11
305.004113502819
 21
2022.379286660222
  0
LINE
  5
3E4
100
AcDbEntity
  8
1
  6
CONTINUOUS
 62
           2
100
AcDbLine
 10
309.147743214433
 20
2019.301142988031
 11
319.828124137455
 21
1990.393421820514
  0
LINE
  5
3E3
100
AcDbEntity
  8
1
  6
CONTINUOUS
 62
           2
100
AcDbLine
 10
319.828124137455
 20
1990.393421820514
 11
310.783340536478
 21
1990.393573019701
  0
LINE
  5
3E2
100
AcDbEntity
  8
1
  6
CONTINUOUS
 62
           2
100
AcDbLine
 10
310.783340536478
 20
1990.393573019701
 11
308.636181812329
 21
1996.661380343678
  0
LINE
  5
3E1
100
AcDbEntity
  8
1
  6
CONTINUOUS
 62
           2
100
AcDbLine
 10
308.636181812329
 20
1996.661380343678
 11
300.930475650589
 21
1996.659788078074
  0
LINE
  5
3E0
100
AcDbEntity
  8
1
  6
CONTINUOUS
 62
           2
100
AcDbLine
 10
333.109832982714
 20
1990.393457760231
 11
333.109832982714
 21
2016.228121055964
  0
LINE
  5
3DF
100
AcDbEntity
  8
1
  6
CONTINUOUS
 62
           2
100
AcDbLine
 10
333.109832982714
 20
2016.228121055964
 11
340.41544611831
 21
2016.228140215041
  0
LINE
  5
3DE
100
AcDbEntity
  8
1
  6
CONTINUOUS
 62
           2
100
AcDbLine
 10
344.222628863924
 20
2020.00815408569
 11
344.222628863924
 21
2022.379553758078
  0
LINE
  5
3DD
100
AcDbEntity
  8
1
  6
CONTINUOUS
 62
           2
100
AcDbLine
 10
344.222628863924
 20
2022.379553758078
 11
314.539949972023
 21
2022.379544595045
  0
LINE
  5
3DC
100
AcDbEntity
  8
1
  6
CONTINUOUS
 62
           2
100
AcDbLine
 10
314.539949972023
 20
2022.379544595045
 11
314.539949972023
 21
2016.251195467873
  0
LINE
  5
3DB
100
AcDbEntity
  8
1
  6
CONTINUOUS
 62
           2
100
AcDbLine
 10
314.539949972023
 20
2016.251195467873
 11
324.383302692683
 21
2016.251221615167
  0
LINE
  5
3DA
100
AcDbEntity
  8
1
  6
CONTINUOUS
 62
           2
100
AcDbLine
 10
324.383302692683
 20
2016.251221615167
 11
324.383302692683
 21
1990.393604103516
  0
LINE
  5
3D9
100
AcDbEntity
  8
1
  6
CONTINUOUS
 62
           2
100
AcDbLine
 10
324.383302692683
 20
1990.393604103516
 11
333.109832982714
 21
1990.393457760231
  0
LINE
  5
3D8
100
AcDbEntity
  8
1
  6
CONTINUOUS
 62
           2
100
AcDbLine
 10
209.308982412747
 20
2060.393097836166
 11
177.203371606378
 21
2060.393629931658
  0
LINE
  5
3D7
100
AcDbEntity
  8
1
  6
CONTINUOUS
 62
           2
100
AcDbLine
 10
209.308982412747
 20
1990.393127004367
 11
209.308982412747
 21
2060.393097836166
  0
LINE
  5
3D6
100
AcDbEntity
  8
1
  6
CONTINUOUS
 62
           2
100
AcDbLine
 10
177.203371606378
 20
1990.393041486179
 11
209.308982412747
 21
1990.393127004367
  0
LINE
  5
3D5
100
AcDbEntity
  8
1
  6
CONTINUOUS
 62
           2
100
AcDbLine
 10
177.203371606378
 20
2060.393629931658
 11
177.203371606378
 21
1990.393041486179
  0
LINE
  5
3D4
100
AcDbEntity
  8
1
  6
CONTINUOUS
 62
           2
100
AcDbLine
 10
160.516256166175
 20
2060.392967851967
 11
166.725016697541
 21
2060.392984483903
  0
LINE
  5
3D3
100
AcDbEntity
  8
1
  6
CONTINUOUS
 62
           2
100
AcDbLine
 10
99.849686309927
 20
1990.393567858042
 11
138.751091396753
 21
2045.694261122468
  0
LINE
  5
3D2
100
AcDbEntity
  8
1
  6
CONTINUOUS
 62
           2
100
AcDbLine
 10
176.153781822904
 20
2030.823986082939
 11
166.725016697541
 21
2060.392984483903
  0
LINE
  5
3D1
100
AcDbEntity
  8
1
  6
CONTINUOUS
 62
           2
100
AcDbLine
 10
169.299830562043
 20
2030.824099316163
 11
176.153781822904
 21
2030.823986082939
  0
LINE
  5
3D0
100
AcDbEntity
  8
1
  6
CONTINUOUS
 62
           2
100
AcDbLine
 10
137.242354104102
 20
1990.393669244998
 11
162.652381635202
 21
2027.123728604183
  0
LINE
  5
3CF
100
AcDbEntity
  8
1
  6
CONTINUOUS
 62
           2
100
AcDbLine
 10
99.849686309927
 20
1990.393567858042
 11
137.242354104102
 21
1990.393669244998
  0
LINE
  5
3CE
100
AcDbEntity
  8
1
  6
CONTINUOUS
 62
           2
100
AcDbLine
 10
338.177886766939
 20
1990.393471634568
 11
346.795373599645
 21
1990.393494525545
  0
LINE
  5
3CD
100
AcDbEntity
  8
1
  6
CONTINUOUS
 62
           2
100
AcDbLine
 10
350.078277349035
 20
2022.379569964594
 11
338.177886766939
 21
1990.393471634568
  0
LINE
  5
3CC
100
AcDbEntity
  8
1
  6
CONTINUOUS
 62
           2
100
AcDbLine
 10
358.33488093788
 20
2022.379591896942
 11
350.078277349035
 21
2022.379569964594
  0
LINE
  5
3CB
100
AcDbEntity
  8
1
  6
CONTINUOUS
 62
           2
100
AcDbLine
 10
373.265403875273
 20
1990.393564838952
 11
362.475885231381
 21
2019.471540467345
  0
LINE
  5
3CA
100
AcDbEntity
  8
1
  6
CONTINUOUS
 62
           2
100
AcDbLine
 10
364.025946896981
 20
1990.3937174828
 11
373.265403875273
 21
1990.393564838952
  0
LINE
  5
3C9
100
AcDbEntity
  8
1
  6
CONTINUOUS
 62
           2
100
AcDbLine
 10
361.898056132922
 20
1996.650783231016
 11
364.025946896981
 21
1990.3937174828
  0
LINE
  5
3C8
100
AcDbEntity
  8
1
  6
CONTINUOUS
 62
           2
100
AcDbLine
 10
354.120574875375
 20
1996.649057742367
 11
361.898056132922
 21
1996.650783231016
  0
LINE
  5
3C7
100
AcDbEntity
  8
1
  6
CONTINUOUS
 62
           2
100
AcDbLine
 10
352.134380673509
 20
2002.91931378138
 11
354.120574875375
 21
1996.649057742367
  0
LINE
  5
3C6
100
AcDbEntity
  8
1
  6
CONTINUOUS
 62
           2
100
AcDbLine
 10
352.134380673509
 20
2002.91931378138
 11
359.744718320625
 21
2002.909537133071
  0
LINE
  5
3C5
100
AcDbEntity
  8
1
  6
CONTINUOUS
 62
           2
100
AcDbLine
 10
359.744718320625
 20
2002.909537133071
 11
355.572651529391
 21
2016.233352918646
  0
LINE
  5
3C4
100
AcDbEntity
  8
1
  6
CONTINUOUS
 62
           2
100
AcDbLine
 10
355.572651529391
 20
2016.233352918646
 11
346.795373599645
 21
1990.393494525545
  0
LINE
  5
3C3
100
AcDbEntity
  8
1
  6
CONTINUOUS
 62
           2
100
AcDbLine
 10
246.624637124861
 20
2040.937302989441
 11
242.423137001269
 21
2054.470019370834
  0
LINE
  5
3C2
100
AcDbEntity
  8
1
  6
CONTINUOUS
 62
           7
100
AcDbLine
 10
229.659634836411
 20
1409.615039402967
 11
250.659634836411
 21
1409.615039402967
  0
LINE
  5
3C1
100
AcDbEntity
  8
1
  6
CONTINUOUS
 62
           7
100
AcDbLine
 10
250.659634836411
 20
1453.615039402967
 11
229.659634836411
 21
1453.615039402967
  0
LINE
  5
3C0
100
AcDbEntity
  8
1
  6
CONTINUOUS
 62
           7
100
AcDbLine
 10
250.659634836411
 20
1417.615039402967
 11
248.927584028842
 21
1418.615039402967
  0
LINE
  5
3BF
100
AcDbEntity
  8
1
  6
CONTINUOUS
 62
           7
100
AcDbLine
 10
248.927584028842
 20
1418.615039402967
 11
240.159634836411
 21
1418.615039402967
  0
LINE
  5
3BE
100
AcDbEntity
  8
1
  6
CONTINUOUS
 62
           7
100
AcDbLine
 10
250.659634836411
 20
1445.615039402967
 11
248.927584028842
 21
1444.615039402967
  0
LINE
  5
3BD
100
AcDbEntity
  8
1
  6
CONTINUOUS
 62
           7
100
AcDbLine
 10
250.659634836411
 20
1453.615039402967
 11
250.659634836411
 21
1409.615039402967
  0
LINE
  5
3BC
100
AcDbEntity
  8
1
  6
CONTINUOUS
 62
           7
100
AcDbLine
 10
240.159634836411
 20
1444.615039402967
 11
248.927584028842
 21
1444.615039402967
  0
LINE
  5
3BB
100
AcDbEntity
  8
1
  6
CONTINUOUS
 62
           7
100
AcDbLine
 10
231.39168564398
 20
1418.615039402967
 11
229.659634836411
 21
1417.615039402967
  0
LINE
  5
3BA
100
AcDbEntity
  8
1
  6
CONTINUOUS
 62
           7
100
AcDbLine
 10
240.159634836411
 20
1418.615039402967
 11
231.39168564398
 21
1418.615039402967
  0
LINE
  5
3B9
100
AcDbEntity
  8
1
  6
CONTINUOUS
 62
           7
100
AcDbLine
 10
231.39168564398
 20
1444.615039402967
 11
229.659634836411
 21
1445.615039402967
  0
LINE
  5
3B8
100
AcDbEntity
  8
1
  6
CONTINUOUS
 62
           7
100
AcDbLine
 10
231.39168564398
 20
1444.615039402967
 11
240.159634836411
 21
1444.615039402967
  0
LINE
  5
3B7
100
AcDbEntity
  8
1
  6
CONTINUOUS
 62
           7
100
AcDbLine
 10
229.659634836411
 20
1453.615039402967
 11
229.659634836411
 21
1409.615039402967
  0
LINE
  5
3B6
100
AcDbEntity
  8
1
  6
CONTINUOUS
 62
           7
100
AcDbLine
 10
240.159634836411
 20
1409.615039402967
 11
240.159634836411
 21
1417.615039402967
  0
LINE
  5
3B5
100
AcDbEntity
  8
1
  6
CONTINUOUS
 62
           7
100
AcDbLine
 10
240.159634836411
 20
1445.615039402967
 11
240.159634836411
 21
1453.615039402967
  0
LINE
  5
3B4
100
AcDbEntity
  8
1
  6
CONTINUOUS
 62
           7
100
AcDbLine
 10
256.159634836411
 20
1441.615039402967
 11
252.659634836411
 21
1441.615039402967
  0
LINE
  5
3B3
100
AcDbEntity
  8
1
  6
CONTINUOUS
 62
           7
100
AcDbLine
 10
252.659634836411
 20
1441.615039402967
 11
252.659634836411
 21
1419.615039402967
  0
LINE
  5
3B2
100
AcDbEntity
  8
1
  6
CONTINUOUS
 62
           7
100
AcDbLine
 10
252.659634836411
 20
1421.615039402967
 11
256.159634836411
 21
1421.615039402967
  0
LINE
  5
3B1
100
AcDbEntity
  8
1
  6
CONTINUOUS
 62
           7
100
AcDbLine
 10
256.159634836411
 20
1421.615039402967
 11
256.159634836411
 21
1441.615039402967
  0
LINE
  5
3B0
100
AcDbEntity
  8
1
  6
CONTINUOUS
 62
           7
100
AcDbLine
 10
256.159634836411
 20
1441.615039402967
 11
259.159634836411
 21
1451.615039402967
  0
LINE
  5
3AF
100
AcDbEntity
  8
1
  6
CONTINUOUS
 62
           7
100
AcDbLine
 10
259.159634836411
 20
1451.615039402967
 11
266.159634836411
 21
1451.615039402967
  0
LINE
  5
3AE
100
AcDbEntity
  8
1
  6
CONTINUOUS
 62
           7
100
AcDbLine
 10
266.159634836411
 20
1451.615039402967
 11
266.159634836411
 21
1441.115039402967
  0
LINE
  5
3AD
100
AcDbEntity
  8
1
  6
CONTINUOUS
 62
           7
100
AcDbLine
 10
266.159634836411
 20
1411.615039402967
 11
259.159634836411
 21
1411.615039402967
  0
LINE
  5
3AC
100
AcDbEntity
  8
1
  6
CONTINUOUS
 62
           7
100
AcDbLine
 10
259.159634836411
 20
1411.615039402967
 11
256.159634836411
 21
1421.615039402967
  0
LINE
  5
3AB
100
AcDbEntity
  8
1
  6
CONTINUOUS
 62
           7
100
AcDbLine
 10
252.659634836411
 20
1419.615039402967
 11
256.759634836411
 21
1419.615039402967
  0
LINE
  5
3AA
100
AcDbEntity
  8
1
  6
CONTINUOUS
 62
           7
100
AcDbLine
 10
250.659634836411
 20
1436.615039402967
 11
252.659634836411
 21
1436.615039402967
  0
LINE
  5
3A9
100
AcDbEntity
  8
1
  6
CONTINUOUS
 62
           7
100
AcDbLine
 10
250.659634836411
 20
1426.615039402967
 11
252.659634836411
 21
1426.615039402967
  0
LINE
  5
3A8
100
AcDbEntity
  8
1
  6
CONTINUOUS
 62
           7
100
AcDbLine
 10
266.159634836411
 20
1422.115039402967
 11
266.159634836411
 21
1411.615039402967
  0
LINE
  5
3A7
100
AcDbEntity
  8
1
  6
CONTINUOUS
 62
           7
100
AcDbLine
 10
231.509634836411
 20
1462.515039402967
 11
231.828634836412
 21
1468.915039402967
  0
LINE
  5
3A6
100
AcDbEntity
  8
1
  6
CONTINUOUS
 62
           7
100
AcDbLine
 10
248.809634836411
 20
1460.015039402967
 11
248.490634836411
 21
1453.615039402967
  0
LINE
  5
3A5
100
AcDbEntity
  8
1
  6
CONTINUOUS
 62
           7
100
AcDbLine
 10
248.809634836411
 20
1460.015039402967
 11
248.809634836411
 21
1462.515039402967
  0
LINE
  5
3A4
100
AcDbEntity
  8
1
  6
CONTINUOUS
 62
           7
100
AcDbLine
 10
231.509634836411
 20
1462.515039402967
 11
231.509634836411
 21
1460.015039402967
  0
LINE
  5
3A3
100
AcDbEntity
  8
1
  6
CONTINUOUS
 62
           7
100
AcDbLine
 10
231.509634836411
 20
1460.015039402967
 11
248.809634836411
 21
1460.015039402967
  0
LINE
  5
3A2
100
AcDbEntity
  8
1
  6
CONTINUOUS
 62
           7
100
AcDbLine
 10
248.809634836411
 20
1462.515039402967
 11
231.509634836411
 21
1462.515039402967
  0
LINE
  5
3A1
100
AcDbEntity
  8
1
  6
CONTINUOUS
 62
           7
100
AcDbLine
 10
231.828634836412
 20
1453.615039402967
 11
231.509634836411
 21
1460.015039402967
  0
LINE
  5
3A0
100
AcDbEntity
  8
1
  6
CONTINUOUS
 62
           7
100
AcDbLine
 10
248.490634836411
 20
1468.915039402967
 11
248.809634836411
 21
1462.515039402967
  0
LINE
  5
39F
100
AcDbEntity
  8
1
  6
CONTINUOUS
 62
           7
100
AcDbLine
 10
429.099634836411
 20
2142.565039402967
 11
426.099634836411
 21
2142.565039402967
  0
LINE
  5
39E
100
AcDbEntity
  8
1
  6
CONTINUOUS
 62
           7
100
AcDbLine
 10
429.099634836411
 20
2164.265039402967
 11
429.099634836411
 21
2142.565039402967
  0
LINE
  5
39D
100
AcDbEntity
  8
1
  6
CONTINUOUS
 62
           7
100
AcDbLine
 10
426.099634836411
 20
2142.565039402967
 11
426.099634836411
 21
2164.265039402967
  0
LINE
  5
39C
100
AcDbEntity
  8
1
  6
CONTINUOUS
 62
           7
100
AcDbLine
 10
429.099634836411
 20
2164.265039402967
 11
426.099634836411
 21
2164.265039402967
  0
LINE
  5
39B
100
AcDbEntity
  8
1
  6
CONTINUOUS
 62
           7
100
AcDbLine
 10
429.099634836411
 20
2164.265039402967
 11
436.439634836411
 21
2163.892539402967
  0
LINE
  5
39A
100
AcDbEntity
  8
1
  6
CONTINUOUS
 62
           7
100
AcDbLine
 10
429.099634836411
 20
2142.565039402967
 11
436.439634836411
 21
2142.937539402967
  0
LINE
  5
399
100
AcDbEntity
  8
1
  6
CONTINUOUS
 62
           7
100
AcDbLine
 10
1246.5504868607
 20
1893.585598434889
 11
1243.5504868607
 21
1893.585598434889
  0
LINE
  5
398
100
AcDbEntity
  8
1
  6
CONTINUOUS
 62
           7
100
AcDbLine
 10
1246.5504868607
 20
1915.285598434889
 11
1246.5504868607
 21
1893.585598434889
  0
LINE
  5
397
100
AcDbEntity
  8
1
  6
CONTINUOUS
 62
           7
100
AcDbLine
 10
1243.5504868607
 20
1893.585598434889
 11
1243.5504868607
 21
1915.285598434889
  0
LINE
  5
396
100
AcDbEntity
  8
1
  6
CONTINUOUS
 62
           7
100
AcDbLine
 10
1246.5504868607
 20
1915.285598434889
 11
1243.5504868607
 21
1915.285598434889
  0
LINE
  5
395
100
AcDbEntity
  8
1
  6
CONTINUOUS
 62
           7
100
AcDbLine
 10
1246.5504868607
 20
1915.285598434889
 11
1254.388144416738
 21
1914.887842652924
  0
LINE
  5
394
100
AcDbEntity
  8
1
  6
CONTINUOUS
 62
           7
100
AcDbLine
 10
1246.5504868607
 20
1893.585598434889
 11
1254.388144416738
 21
1893.983354216854
  0
LINE
  5
393
100
AcDbEntity
  8
1
  6
CONTINUOUS
 62
           7
100
AcDbLine
 10
1236.2104868607
 20
1914.913098434889
 11
1243.5504868607
 21
1915.285598434889
  0
LINE
  5
392
100
AcDbEntity
  8
1
  6
CONTINUOUS
 62
           7
100
AcDbLine
 10
1236.2104868607
 20
1893.958098434889
 11
1243.5504868607
 21
1893.585598434889
  0
LINE
  5
391
100
AcDbEntity
  8
1
  6
CONTINUOUS
 62
           7
100
AcDbLine
 10
418.759634836411
 20
2163.892539402967
 11
426.099634836411
 21
2164.265039402967
  0
LINE
  5
390
100
AcDbEntity
  8
1
  6
CONTINUOUS
 62
           7
100
AcDbLine
 10
418.759634836411
 20
2142.937539402967
 11
426.099634836411
 21
2142.565039402967
  0
LINE
  5
38F
100
AcDbEntity
  8
1
  6
CONTINUOUS
 62
           7
100
AcDbLine
 10
450.939634836411
 20
2171.080846940276
 11
450.939634836411
 21
2169.851575230016
  0
LINE
  5
38E
100
AcDbEntity
  8
1
  6
CONTINUOUS
 62
           7
100
AcDbLine
 10
449.939634836411
 20
2172.080846940276
 11
449.939634836411
 21
2174.080846940276
  0
LINE
  5
38D
100
AcDbEntity
  8
1
  6
CONTINUOUS
 62
           7
100
AcDbLine
 10
462.939634836411
 20
2174.580846940276
 11
450.439634836411
 21
2174.580846940276
  0
LINE
  5
38C
100
AcDbEntity
  8
1
  6
CONTINUOUS
 62
           7
100
AcDbLine
 10
474.939634836411
 20
2171.080846940276
 11
474.939634836411
 21
2169.851330477022
  0
LINE
  5
38B
100
AcDbEntity
  8
1
  6
CONTINUOUS
 62
           7
100
AcDbLine
 10
475.939634836411
 20
2174.080846940276
 11
475.939634836411
 21
2172.080846940276
  0
LINE
  5
38A
100
AcDbEntity
  8
1
  6
CONTINUOUS
 62
           7
100
AcDbLine
 10
475.439634836411
 20
2174.580846940276
 11
462.939634836411
 21
2174.580846940276
  0
LINE
  5
389
100
AcDbEntity
  8
1
  6
CONTINUOUS
 62
           7
100
AcDbLine
 10
481.439634836411
 20
2137.249231865657
 11
481.439634836411
 21
2169.163859881794
  0
LINE
  5
388
100
AcDbEntity
  8
1
  6
CONTINUOUS
 62
           7
100
AcDbLine
 10
444.439634836411
 20
2137.665896930103
 11
444.439634836411
 21
2169.164151938609
  0
LINE
  5
387
100
AcDbEntity
  8
1
  6
CONTINUOUS
 62
           7
100
AcDbLine
 10
444.439634836411
 20
2169.164151938609
 11
444.439634836411
 21
2169.580846940276
  0
LINE
  5
386
100
AcDbEntity
  8
1
  6
CONTINUOUS
 62
           7
100
AcDbLine
 10
436.439634836411
 20
2161.497943171622
 11
444.439634836411
 21
2161.497943171622
  0
LINE
  5
385
100
AcDbEntity
  8
1
  6
CONTINUOUS
 62
           7
100
AcDbLine
 10
436.439634836411
 20
2145.332135634312
 11
444.439634836411
 21
2145.332135634312
  0
LINE
  5
384
100
AcDbEntity
  8
1
  6
CONTINUOUS
 62
           7
100
AcDbLine
 10
481.439634836411
 20
2145.332135634312
 11
489.439634836411
 21
2145.332135634312
  0
LINE
  5
383
100
AcDbEntity
  8
1
  6
CONTINUOUS
 62
           7
100
AcDbLine
 10
481.439634836411
 20
2161.497943171622
 11
489.439634836411
 21
2161.497943171622
  0
LINE
  5
382
100
AcDbEntity
  8
1
  6
CONTINUOUS
 62
           7
100
AcDbLine
 10
481.439634836411
 20
2169.163859881794
 11
481.439634836411
 21
2169.580846940276
  0
LINE
  5
381
100
AcDbEntity
  8
1
  6
CONTINUOUS
 62
           7
100
AcDbLine
 10
489.439634836411
 20
2169.580846940276
 11
481.439634836411
 21
2169.580846940276
  0
LINE
  5
380
100
AcDbEntity
  8
1
  6
CONTINUOUS
 62
           7
100
AcDbLine
 10
489.439634836411
 20
2137.249231865657
 11
489.439634836411
 21
2169.580846940276
  0
LINE
  5
37F
100
AcDbEntity
  8
1
  6
CONTINUOUS
 62
           7
100
AcDbLine
 10
481.439634836411
 20
2137.249231865657
 11
489.439634836411
 21
2137.249231865657
  0
LINE
  5
37E
100
AcDbEntity
  8
1
  6
CONTINUOUS
 62
           7
100
AcDbLine
 10
436.439634836411
 20
2169.580846940276
 11
436.439634836411
 21
2137.249231865657
  0
LINE
  5
37D
100
AcDbEntity
  8
1
  6
CONTINUOUS
 62
           7
100
AcDbLine
 10
444.439634836411
 20
2169.580846940276
 11
436.439634836411
 21
2169.580846940276
  0
LINE
  5
37C
100
AcDbEntity
  8
1
  6
CONTINUOUS
 62
           7
100
AcDbLine
 10
444.439634836411
 20
2137.249231865657
 11
444.439634836411
 21
2137.665896930103
  0
LINE
  5
37B
100
AcDbEntity
  8
1
  6
CONTINUOUS
 62
           7
100
AcDbLine
 10
436.439634836411
 20
2137.249231865657
 11
444.439634836411
 21
2137.249231865657
  0
LINE
  5
37A
100
AcDbEntity
  8
0
  6
CONTINUOUS
 62
           7
100
AcDbLine
 10
453.439634836411
 20
2181.415236233798
 11
472.439634836411
 21
2181.415036233798
  0
LINE
  5
379
100
AcDbEntity
  8
0
  6
CONTINUOUS
 62
           7
100
AcDbLine
 10
472.439634836411
 20
2181.415036233798
 11
472.439634836411
 21
2174.580846940276
  0
LINE
  5
378
100
AcDbEntity
  8
0
  6
CONTINUOUS
 62
           7
100
AcDbLine
 10
453.439634836411
 20
2181.415236233798
 11
453.439634836411
 21
2174.580846940276
  0
LINE
  5
377
100
AcDbEntity
  8
0
  6
CONTINUOUS
 62
           7
100
AcDbLine
 10
472.439634836411
 20
2183.415036233798
 11
453.439634836411
 21
2183.415236233799
  0
LINE
  5
376
100
AcDbEntity
  8
0
  6
CONTINUOUS
 62
           7
100
AcDbLine
 10
472.439634836411
 20
2188.415036233798
 11
453.439634836411
 21
2188.415236233798
  0
LINE
  5
375
100
AcDbEntity
  8
0
  6
CONTINUOUS
 62
           7
100
AcDbLine
 10
452.939634836411
 20
2195.415236233798
 11
472.939634836411
 21
2195.415036233798
  0
LINE
  5
374
100
AcDbEntity
  8
0
  6
CONTINUOUS
 62
           7
100
AcDbLine
 10
452.939634836411
 20
2205.415236233798
 11
472.939634836411
 21
2205.415036233798
  0
LINE
  5
373
100
AcDbEntity
  8
0
  6
CONTINUOUS
 62
           7
100
AcDbLine
 10
472.439634836411
 20
2188.415036233798
 11
472.439634836411
 21
2181.415036233798
  0
LINE
  5
372
100
AcDbEntity
  8
0
  6
CONTINUOUS
 62
           7
100
AcDbLine
 10
453.439634836411
 20
2188.415236233798
 11
453.439634836411
 21
2181.415236233798
  0
LINE
  5
371
100
AcDbEntity
  8
0
  6
CONTINUOUS
 62
           7
100
AcDbLine
 10
470.939634836411
 20
2188.415036233798
 11
470.939634836411
 21
2195.415236233798
  0
LINE
  5
370
100
AcDbEntity
  8
0
  6
CONTINUOUS
 62
           7
100
AcDbLine
 10
454.939634836411
 20
2188.415036233798
 11
454.939634836411
 21
2195.415236233798
  0
LINE
  5
36F
100
AcDbEntity
  8
0
  6
CONTINUOUS
 62
           7
100
AcDbLine
 10
472.939634836411
 20
2195.415236233798
 11
472.939634836411
 21
2205.415236233798
  0
LINE
  5
36E
100
AcDbEntity
  8
0
  6
CONTINUOUS
 62
           7
100
AcDbLine
 10
452.939634836411
 20
2195.415236233798
 11
452.939634836411
 21
2205.415236233798
  0
LINE
  5
36D
100
AcDbEntity
  8
0
  6
CONTINUOUS
 62
           7
100
AcDbLine
 10
467.939634836411
 20
2195.415236233798
 11
467.939634836411
 21
2205.415236233798
  0
LINE
  5
36C
100
AcDbEntity
  8
0
  6
CONTINUOUS
 62
           7
100
AcDbLine
 10
457.939634836411
 20
2195.415236233798
 11
457.939634836411
 21
2205.415236233798
  0
LINE
  5
36B
100
AcDbEntity
  8
0
  6
CONTINUOUS
 62
           7
100
AcDbLine
 10
466.939634836411
 20
2205.415236233798
 11
466.939634836411
 21
2215.415036233798
  0
LINE
  5
36A
100
AcDbEntity
  8
0
  6
CONTINUOUS
 62
           7
100
AcDbLine
 10
458.939634836411
 20
2205.415236233798
 11
458.939634836411
 21
2215.415036233798
  0
LINE
  5
369
100
AcDbEntity
  8
0
  6
CONTINUOUS
 62
           7
100
AcDbLine
 10
469.939634836411
 20
2215.415036233798
 11
455.939634836411
 21
2215.415236233798
  0
LINE
  5
368
100
AcDbEntity
  8
0
  6
CONTINUOUS
 62
           7
100
AcDbLine
 10
469.939634836411
 20
2215.415036233798
 11
469.939634836411
 21
2220.415036233798
  0
LINE
  5
367
100
AcDbEntity
  8
0
  6
CONTINUOUS
 62
           7
100
AcDbLine
 10
455.939634836411
 20
2215.415036233798
 11
455.939634836411
 21
2220.415036233798
  0
LINE
  5
366
100
AcDbEntity
  8
0
  6
CONTINUOUS
 62
           7
100
AcDbLine
 10
492.939834836411
 20
2220.415036233798
 11
432.939834836411
 21
2220.415236233798
  0
LINE
  5
365
100
AcDbEntity
  8
0
  6
CONTINUOUS
 62
           7
100
AcDbLine
 10
475.847034836411
 20
2230.415036233798
 11
462.939834836411
 21
2230.415036233798
  0
LINE
  5
364
100
AcDbEntity
  8
0
  6
CONTINUOUS
 62
           7
100
AcDbLine
 10
487.439634836411
 20
2230.415036233798
 11
480.032134836411
 21
2230.415036233798
  0
LINE
  5
363
100
AcDbEntity
  8
0
  6
CONTINUOUS
 62
           7
100
AcDbLine
 10
450.032134836411
 20
2230.415036233798
 11
462.939334836411
 21
2230.415036233798
  0
LINE
  5
362
100
AcDbEntity
  8
0
  6
CONTINUOUS
 62
           7
100
AcDbLine
 10
438.439634836411
 20
2230.415036233798
 11
445.847034836411
 21
2230.415036233798
  0
LINE
  5
361
100
AcDbEntity
  8
1
  6
DOT_CENTER
 62
           2
100
AcDbLine
 10
462.939634836411
 20
2235.940050708117
 11
462.939634836411
 21
2133.403607981828
  0
LINE
  5
360
100
AcDbEntity
  8
1
  6
CONTINUOUS
 62
           7
100
AcDbLine
 10
1306.392829304662
 20
1898.472976663636
 11
1306.392829304662
 21
1887.935598434889
  0
LINE
  5
35F
100
AcDbEntity
  8
1
  6
CONTINUOUS
 62
           7
100
AcDbLine
 10
1306.392829304662
 20
1887.935598434889
 11
1300.309071147742
 21
1887.935598434889
  0
LINE
  5
35E
100
AcDbEntity
  8
1
  6
CONTINUOUS
 62
           7
100
AcDbLine
 10
1300.309071147742
 20
1920.935598434889
 11
1306.392829304662
 21
1920.935598434889
  0
LINE
  5
35D
100
AcDbEntity
  8
1
  6
CONTINUOUS
 62
           7
100
AcDbLine
 10
1306.392829304662
 20
1920.935598434889
 11
1306.392829304662
 21
1910.398220206142
  0
LINE
  5
35C
100
AcDbEntity
  8
1
  6
CONTINUOUS
 62
           7
100
AcDbLine
 10
1254.388144416738
 20
1920.935598434889
 11
1260.471902573658
 21
1920.935598434889
  0
LINE
  5
35B
100
AcDbEntity
  8
1
  6
CONTINUOUS
 62
           7
100
AcDbLine
 10
1254.388144416738
 20
1910.398220206142
 11
1254.388144416738
 21
1920.935598434889
  0
LINE
  5
35A
100
AcDbEntity
  8
1
  6
CONTINUOUS
 62
           7
100
AcDbLine
 10
1254.388144416738
 20
1887.935598434889
 11
1254.388144416738
 21
1898.472976663636
  0
LINE
  5
359
100
AcDbEntity
  8
1
  6
CONTINUOUS
 62
           7
100
AcDbLine
 10
1260.471902573658
 20
1887.935598434889
 11
1254.388144416738
 21
1887.935598434889
  0
LINE
  5
358
100
AcDbEntity
  8
1
  6
CONTINUOUS
 62
           2
100
AcDbLine
 10
1256.430450689331
 20
1899.435598434889
 11
1258.057775426573
 21
1899.435598434889
  0
LINE
  5
357
100
AcDbEntity
  8
1
  6
CONTINUOUS
 62
           2
100
AcDbLine
 10
1264.080341756093
 20
1922.685598434889
 11
1264.894004124715
 21
1921.27629387223
  0
LINE
  5
356
100
AcDbEntity
  8
1
  6
CONTINUOUS
 62
           2
100
AcDbLine
 10
1288.040377927463
 20
1927.685598434889
 11
1287.226715558841
 21
1926.276293872231
  0
LINE
  5
355
100
AcDbEntity
  8
1
  6
CONTINUOUS
 62
           2
100
AcDbLine
 10
1304.35052303207
 20
1909.435598434889
 11
1302.723198294827
 21
1909.435598434889
  0
LINE
  5
354
100
AcDbEntity
  8
1
  6
CONTINUOUS
 62
           2
100
AcDbLine
 10
1296.700631965307
 20
1886.18559843489
 11
1295.886969596686
 21
1887.594902997548
  0
LINE
  5
353
100
AcDbEntity
  8
1
  6
CONTINUOUS
 62
           2
100
AcDbLine
 10
1272.740595793938
 20
1881.185598434889
 11
1273.554258162559
 21
1882.594902997548
  0
LINE
  5
352
100
AcDbEntity
  8
1
  6
CONTINUOUS
 62
           2
100
AcDbLine
 10
1263.214316352309
 20
1886.185598434889
 11
1255.997437987438
 21
1898.685598434889
  0
LINE
  5
351
100
AcDbEntity
  8
1
  6
CONTINUOUS
 62
           2
100
AcDbLine
 10
1255.997437987438
 20
1910.185598434889
 11
1263.214316352309
 21
1922.685598434889
  0
LINE
  5
350
100
AcDbEntity
  8
1
  6
CONTINUOUS
 62
           2
100
AcDbLine
 10
1287.607365225571
 20
1928.435598434889
 11
1273.17360849583
 21
1928.435598434889
  0
LINE
  5
34F
100
AcDbEntity
  8
1
  6
CONTINUOUS
 62
           2
100
AcDbLine
 10
1297.566657369092
 20
1922.685598434889
 11
1304.783535733962
 21
1910.185598434889
  0
LINE
  5
34E
100
AcDbEntity
  8
1
  6
CONTINUOUS
 62
           2
100
AcDbLine
 10
1304.783535733962
 20
1898.685598434889
 11
1297.566657369092
 21
1886.185598434889
  0
LINE
  5
34D
100
AcDbEntity
  8
1
  6
CONTINUOUS
 62
           7
100
AcDbLine
 10
1253.823450227865
 20
1899.451055689504
 11
1262.790227900529
 21
1883.920141180274
  0
LINE
  5
34C
100
AcDbEntity
  8
1
  6
CONTINUOUS
 62
           7
100
AcDbLine
 10
1262.790227900529
 20
1924.951055689504
 11
1253.823450227865
 21
1909.420141180274
  0
LINE
  5
34B
100
AcDbEntity
  8
1
  6
CONTINUOUS
 62
           7
100
AcDbLine
 10
1289.357264533365
 20
1929.935598434889
 11
1271.423709188035
 21
1929.935598434889
  0
LINE
  5
34A
100
AcDbEntity
  8
1
  6
CONTINUOUS
 62
           7
100
AcDbLine
 10
1306.957523493536
 20
1909.420141180274
 11
1297.990745820871
 21
1924.951055689504
  0
LINE
  5
349
100
AcDbEntity
  8
1
  6
CONTINUOUS
 62
           7
100
AcDbLine
 10
1297.990745820871
 20
1883.920141180275
 11
1306.957523493536
 21
1899.451055689504
  0
LINE
  5
348
100
AcDbEntity
  8
1
  6
CONTINUOUS
 62
           2
100
AcDbLine
 10
1287.60736522557
 20
1880.435598434889
 11
1273.17360849583
 21
1880.435598434889
  0
LINE
  5
347
100
AcDbEntity
  8
1
  6
CONTINUOUS
 62
           7
100
AcDbLine
 10
1271.423709188035
 20
1878.935598434889
 11
1289.357264533365
 21
1878.935598434889
  0
LINE
  5
346
100
AcDbEntity
  8
1
  6
CONTINUOUS
 62
           2
100
AcDbLine
 10
1258.057775426573
 20
1909.435598434889
 11
1256.430450689331
 21
1909.435598434889
  0
LINE
  5
345
100
AcDbEntity
  8
1
  6
CONTINUOUS
 62
           7
100
AcDbLine
 10
1261.836511545421
 20
1899.435598434889
 11
1271.730232822856
 21
1899.435598434889
  0
LINE
  5
344
100
AcDbEntity
  8
1
  6
CONTINUOUS
 62
           2
100
AcDbLine
 10
1287.226715558841
 20
1882.594902997548
 11
1288.040377927462
 21
1881.185598434889
  0
LINE
  5
343
100
AcDbEntity
  8
1
  6
CONTINUOUS
 62
           7
100
AcDbLine
 10
1293.997601537262
 20
1890.867384470668
 11
1289.050740898548
 21
1899.435598434891
  0
LINE
  5
342
100
AcDbEntity
  8
1
  6
CONTINUOUS
 62
           2
100
AcDbLine
 10
1295.886969596686
 20
1921.276293872231
 11
1296.700631965307
 21
1922.685598434889
  0
LINE
  5
341
100
AcDbEntity
  8
1
  6
CONTINUOUS
 62
           7
100
AcDbLine
 10
1285.337347499418
 20
1923.003812399111
 11
1280.3904868607
 21
1914.435598434889
  0
LINE
  5
340
100
AcDbEntity
  8
1
  6
CONTINUOUS
 62
           2
100
AcDbLine
 10
1273.554258162559
 20
1926.276293872231
 11
1272.740595793937
 21
1927.685598434889
  0
LINE
  5
33F
100
AcDbEntity
  8
1
  6
CONTINUOUS
 62
           2
100
AcDbLine
 10
1302.723198294827
 20
1899.435598434889
 11
1304.35052303207
 21
1899.435598434889
  0
LINE
  5
33E
100
AcDbEntity
  8
1
  6
CONTINUOUS
 62
           2
100
AcDbLine
 10
1264.894004124714
 20
1887.594902997548
 11
1264.080341756093
 21
1886.185598434889
  0
LINE
  5
33D
100
AcDbEntity
  8
1
  6
CONTINUOUS
 62
           7
100
AcDbLine
 10
1289.050740898544
 20
1909.435598434889
 11
1293.997601537262
 21
1918.003812399111
  0
LINE
  5
33C
100
AcDbEntity
  8
1
  6
CONTINUOUS
 62
           7
100
AcDbLine
 10
1280.3904868607
 20
1894.435598434889
 11
1285.337347499418
 21
1885.867384470668
  0
LINE
  5
33B
100
AcDbEntity
  8
1
  6
CONTINUOUS
 62
           7
100
AcDbLine
 10
1271.730232822856
 20
1909.435598434889
 11
1261.836511545421
 21
1909.435598434889
  0
LINE
  5
33A
100
AcDbEntity
  8
1
  6
CONTINUOUS
 62
           2
100
AcDbLine
 10
444.90657198128
 20
1926.413766261384
 11
445.113985337166
 21
1933.013766261383
  0
LINE
  5
339
100
AcDbEntity
  8
1
  6
CONTINUOUS
 62
           7
100
AcDbLine
 10
445.70657198128
 20
1926.413766261384
 11
446.008792865989
 21
1936.030590744829
  0
LINE
  5
338
100
AcDbEntity
  8
1
  6
CONTINUOUS
 62
           2
100
AcDbLine
 10
444.90657198128
 20
1981.013766261383
 11
444.90657198128
 21
1976.013766261383
  0
LINE
  5
337
100
AcDbEntity
  8
1
  6
CONTINUOUS
 62
           2
100
AcDbLine
 10
443.40657198128
 20
1981.013766261383
 11
443.40657198128
 21
1976.013766261383
  0
LINE
  5
336
100
AcDbEntity
  8
1
  6
CONTINUOUS
 62
           2
100
AcDbLine
 10
441.90657198128
 20
1981.013766261383
 11
441.90657198128
 21
1976.013766261383
  0
LINE
  5
335
100
AcDbEntity
  8
1
  6
CONTINUOUS
 62
           2
100
AcDbLine
 10
440.40657198128
 20
1981.013766261383
 11
440.40657198128
 21
1976.013766261383
  0
LINE
  5
334
100
AcDbEntity
  8
1
  6
CONTINUOUS
 62
           2
100
AcDbLine
 10
438.90657198128
 20
1981.013766261383
 11
438.90657198128
 21
1976.013766261383
  0
LINE
  5
333
100
AcDbEntity
  8
1
  6
CONTINUOUS
 62
           2
100
AcDbLine
 10
437.40657198128
 20
1981.013766261383
 11
437.40657198128
 21
1976.013766261383
  0
LINE
  5
332
100
AcDbEntity
  8
1
  6
CONTINUOUS
 62
           2
100
AcDbLine
 10
429.90657198128
 20
1981.013766261383
 11
429.90657198128
 21
1976.013766261383
  0
LINE
  5
331
100
AcDbEntity
  8
1
  6
CONTINUOUS
 62
           2
100
AcDbLine
 10
431.40657198128
 20
1981.013766261383
 11
431.40657198128
 21
1976.013766261383
  0
LINE
  5
330
100
AcDbEntity
  8
1
  6
CONTINUOUS
 62
           2
100
AcDbLine
 10
432.90657198128
 20
1981.013766261383
 11
432.90657198128
 21
1976.013766261383
  0
LINE
  5
32F
100
AcDbEntity
  8
1
  6
CONTINUOUS
 62
           2
100
AcDbLine
 10
434.40657198128
 20
1981.013766261383
 11
434.40657198128
 21
1976.013766261383
  0
LINE
  5
32E
100
AcDbEntity
  8
1
  6
CONTINUOUS
 62
           2
100
AcDbLine
 10
435.90657198128
 20
1981.013766261383
 11
435.90657198128
 21
1976.013766261383
  0
LINE
  5
32D
100
AcDbEntity
  8
1
  6
CONTINUOUS
 62
           2
100
AcDbLine
 10
443.40657198128
 20
1974.013766261383
 11
431.40657198128
 21
1974.013766261383
  0
LINE
  5
32C
100
AcDbEntity
  8
1
  6
CONTINUOUS
 62
           2
100
AcDbLine
 10
432.40657198128
 20
1974.013766261383
 11
431.40657198128
 21
1976.013766261383
  0
LINE
  5
32B
100
AcDbEntity
  8
1
  6
CONTINUOUS
 62
           2
100
AcDbLine
 10
442.40657198128
 20
1974.013766261383
 11
443.40657198128
 21
1976.013766261383
  0
LINE
  5
32A
100
AcDbEntity
  8
1
  6
CONTINUOUS
 62
           2
100
AcDbLine
 10
442.40657198128
 20
1971.013766261383
 11
442.40657198128
 21
1974.013766261383
  0
LINE
  5
329
100
AcDbEntity
  8
1
  6
CONTINUOUS
 62
           2
100
AcDbLine
 10
432.40657198128
 20
1971.013766261383
 11
432.40657198128
 21
1974.013766261383
  0
LINE
  5
328
100
AcDbEntity
  8
1
  6
CONTINUOUS
 62
           7
100
AcDbLine
 10
431.40657198128
 20
1976.013766261383
 11
431.40657198128
 21
1971.013766261383
  0
LINE
  5
327
100
AcDbEntity
  8
1
  6
CONTINUOUS
 62
           7
100
AcDbLine
 10
443.40657198128
 20
1976.013766261383
 11
443.40657198128
 21
1971.013766261383
  0
LINE
  5
326
100
AcDbEntity
  8
1
  6
CONTINUOUS
 62
           7
100
AcDbLine
 10
439.40657198128
 20
1987.013766261383
 11
439.40657198128
 21
1981.013766261383
  0
LINE
  5
325
100
AcDbEntity
  8
1
  6
CONTINUOUS
 62
           7
100
AcDbLine
 10
435.40657198128
 20
1987.013766261383
 11
439.40657198128
 21
1987.013766261383
  0
LINE
  5
324
100
AcDbEntity
  8
1
  6
CONTINUOUS
 62
           7
100
AcDbLine
 10
435.40657198128
 20
1981.013766261383
 11
435.40657198128
 21
1987.013766261383
  0
LINE
  5
323
100
AcDbEntity
  8
1
  6
CONTINUOUS
 62
           7
100
AcDbLine
 10
428.90657198128
 20
1976.013766261383
 11
428.90657198128
 21
1981.013766261383
  0
LINE
  5
322
100
AcDbEntity
  8
1
  6
CONTINUOUS
 62
           7
100
AcDbLine
 10
445.90657198128
 20
1976.013766261383
 11
428.90657198128
 21
1976.013766261383
  0
LINE
  5
321
100
AcDbEntity
  8
1
  6
CONTINUOUS
 62
           7
100
AcDbLine
 10
445.90657198128
 20
1981.013766261383
 11
445.90657198128
 21
1976.013766261383
  0
LINE
  5
320
100
AcDbEntity
  8
1
  6
CONTINUOUS
 62
           7
100
AcDbLine
 10
428.90657198128
 20
1981.013766261383
 11
445.90657198128
 21
1981.013766261383
  0
LINE
  5
31F
100
AcDbEntity
  8
1
  6
CONTINUOUS
 62
           2
100
AcDbLine
 10
428.899158625394
 20
1933.013766261383
 11
445.913985337167
 21
1933.013766261383
  0
LINE
  5
31E
100
AcDbEntity
  8
1
  6
CONTINUOUS
 62
           2
100
AcDbLine
 10
429.699158625395
 20
1933.013766261383
 11
428.804351096571
 21
1936.030590744829
  0
LINE
  5
31D
100
AcDbEntity
  8
1
  6
CONTINUOUS
 62
           2
100
AcDbLine
 10
445.113985337166
 20
1933.013766261383
 11
446.008792865989
 21
1936.030590744829
  0
LINE
  5
31C
100
AcDbEntity
  8
1
  6
CONTINUOUS
 62
           2
100
AcDbLine
 10
429.699158625395
 20
1933.013766261383
 11
429.906571981281
 21
1926.413766261384
  0
LINE
  5
31B
100
AcDbEntity
  8
1
  6
CONTINUOUS
 62
           7
100
AcDbLine
 10
428.804351096571
 20
1936.030590744829
 11
429.10657198128
 21
1926.413766261384
  0
LINE
  5
31A
100
AcDbEntity
  8
1
  6
CONTINUOUS
 62
           7
100
AcDbLine
 10
426.436916863213
 20
1967.036843184783
 11
426.436916863213
 21
1969.990689337982
  0
LINE
  5
319
100
AcDbEntity
  8
1
  6
CONTINUOUS
 62
           7
100
AcDbLine
 10
426.436916863213
 20
1937.036843184783
 11
426.436916863213
 21
1964.990689337982
  0
LINE
  5
318
100
AcDbEntity
  8
1
  6
CONTINUOUS
 62
           7
100
AcDbLine
 10
431.921744422247
 20
1964.990689337982
 11
431.921744422247
 21
1937.036843184783
  0
LINE
  5
317
100
AcDbEntity
  8
1
  6
CONTINUOUS
 62
           7
100
AcDbLine
 10
431.921744422247
 20
1969.990689337982
 11
431.921744422247
 21
1967.036843184783
  0
LINE
  5
316
100
AcDbEntity
  8
1
  6
CONTINUOUS
 62
           7
100
AcDbLine
 10
442.891399540313
 20
1967.036843184783
 11
442.891399540313
 21
1969.990689337982
  0
LINE
  5
315
100
AcDbEntity
  8
1
  6
CONTINUOUS
 62
           7
100
AcDbLine
 10
442.891399540313
 20
1937.036843184783
 11
442.891399540313
 21
1964.990689337982
  0
LINE
  5
314
100
AcDbEntity
  8
1
  6
CONTINUOUS
 62
           7
100
AcDbLine
 10
448.376227099347
 20
1964.990689337982
 11
448.376227099347
 21
1937.036843184783
  0
LINE
  5
313
100
AcDbEntity
  8
1
  6
CONTINUOUS
 62
           7
100
AcDbLine
 10
448.376227099347
 20
1969.990689337982
 11
448.376227099347
 21
1967.036843184783
  0
LINE
  5
312
100
AcDbEntity
  8
1
  6
CONTINUOUS
 62
           7
100
AcDbLine
 10
429.17933064273
 20
1971.013766261383
 11
445.63381331983
 21
1971.013766261383
  0
LINE
  5
311
100
AcDbEntity
  8
1
  6
CONTINUOUS
 62
           7
100
AcDbLine
 10
429.17933064273
 20
1936.013766261383
 11
445.63381331983
 21
1936.013766261383
  0
LINE
  5
310
100
AcDbEntity
  8
1
  6
CONTINUOUS
 62
           7
100
AcDbLine
 10
445.63381331983
 20
1966.013766261383
 11
429.17933064273
 21
1966.013766261383
  0
LINE
  5
30F
100
AcDbEntity
  8
1
  6
CONTINUOUS
 62
           7
100
AcDbLine
 10
408.759634836411
 20
1896.216601902967
 11
415.409634836411
 21
1896.008789402967
  0
LINE
  5
30E
100
AcDbEntity
  8
1
  6
CONTINUOUS
 62
           7
100
AcDbLine
 10
408.759634836411
 20
1910.613476902967
 11
415.409634836411
 21
1910.821289402967
  0
LINE
  5
30D
100
AcDbEntity
  8
1
  6
DOT_CENTER
 62
           2
100
AcDbLine
 10
437.40657198128
 20
1891.585304351486
 11
437.40657198128
 21
1989.576283924105
  0
LINE
  5
30C
100
AcDbEntity
  8
1
  6
DOT_CENTER
 62
           2
100
AcDbLine
 10
454.464981224661
 20
1903.415039402967
 11
387.13969644962
 21
1903.415039402967
  0
LINE
  5
30B
100
AcDbEntity
  8
1
  6
CONTINUOUS
 62
           7
100
AcDbLine
 10
450.40657198128
 20
1926.413766261384
 11
437.40657198128
 21
1926.413766261384
  0
LINE
  5
30A
100
AcDbEntity
  8
1
  6
CONTINUOUS
 62
           7
100
AcDbLine
 10
450.40657198128
 20
1921.410943403906
 11
450.40657198128
 21
1926.413766261384
  0
LINE
  5
309
100
AcDbEntity
  8
1
  6
CONTINUOUS
 62
           7
100
AcDbLine
 10
424.40657198128
 20
1921.410943403906
 11
424.40657198128
 21
1926.413766261384
  0
LINE
  5
308
100
AcDbEntity
  8
1
  6
CONTINUOUS
 62
           7
100
AcDbLine
 10
448.90657198128
 20
1918.104723663292
 11
448.90657198128
 21
1915.415039402967
  0
LINE
  5
307
100
AcDbEntity
  8
1
  6
CONTINUOUS
 62
           7
100
AcDbLine
 10
415.409634836411
 20
1896.008789402967
 11
415.409634836411
 21
1896.415039402967
  0
LINE
  5
306
100
AcDbEntity
  8
1
  6
CONTINUOUS
 62
           7
100
AcDbLine
 10
415.409634836411
 20
1910.821289402967
 11
415.409634836411
 21
1910.415039402967
  0
LINE
  5
305
100
AcDbEntity
  8
1
  6
CONTINUOUS
 62
           7
100
AcDbLine
 10
425.90657198128
 20
1915.415039402967
 11
425.90657198128
 21
1918.812867192553
  0
LINE
  5
304
100
AcDbEntity
  8
1
  6
CONTINUOUS
 62
           7
100
AcDbLine
 10
415.409634836411
 20
1910.415039402967
 11
415.409634836411
 21
1896.415039402967
  0
LINE
  5
303
100
AcDbEntity
  8
1
  6
CONTINUOUS
 62
           7
100
AcDbLine
 10
448.90657198128
 20
1921.410943403906
 11
425.90657198128
 21
1921.410943403906
  0
LINE
  5
302
100
AcDbEntity
  8
1
  6
CONTINUOUS
 62
           7
100
AcDbLine
 10
420.90657198128
 20
1910.415039402967
 11
417.467789982208
 21
1910.415039402967
  0
LINE
  5
301
100
AcDbEntity
  8
1
  6
CONTINUOUS
 62
           7
100
AcDbLine
 10
425.90657198128
 20
1921.410943403906
 11
424.40657198128
 21
1921.410943403906
  0
LINE
  5
300
100
AcDbEntity
  8
1
  6
CONTINUOUS
 62
           7
100
AcDbLine
 10
448.90657198128
 20
1921.410943403906
 11
450.40657198128
 21
1921.410943403906
  0
LINE
  5
2FF
100
AcDbEntity
  8
1
  6
CONTINUOUS
 62
           7
100
AcDbLine
 10
417.467789982208
 20
1896.415039402967
 11
429.90657198128
 21
1896.415039402967
  0
LINE
  5
2FE
100
AcDbEntity
  8
1
  6
CONTINUOUS
 62
           7
100
AcDbLine
 10
437.40657198128
 20
1926.413766261384
 11
424.40657198128
 21
1926.413766261384
  0
LINE
  5
2FD
100
AcDbEntity
  8
1
  6
CONTINUOUS
 62
           7
100
AcDbLine
 10
1064.918628068831
 20
1716.445598434889
 11
1063.726825942606
 21
1721.873449511377
  0
LINE
  5
2FC
100
AcDbEntity
  8
1
  6
CONTINUOUS
 62
           7
100
AcDbLine
 10
1051.494147778795
 20
1721.873449511377
 11
1050.30234565257
 21
1716.445598434889
  0
LINE
  5
2FB
100
AcDbEntity
  8
1
  6
CONTINUOUS
 62
           7
100
AcDbLine
 10
234.381530680442
 20
2151.798403277313
 11
230.541673225785
 21
2165.522639649987
  0
LINE
  5
2FA
100
AcDbEntity
  8
1
  6
CONTINUOUS
 62
           7
100
AcDbLine
 10
249.777596447037
 20
2165.522639649987
 11
245.93773899238
 21
2151.798403277312
  0
LINE
  5
2F9
100
AcDbEntity
  8
1
  6
CONTINUOUS
 62
           7
100
AcDbLine
 10
251.159634836411
 20
2172.415039402967
 11
240.159634836411
 21
2172.415039402967
  0
LINE
  5
2F8
100
AcDbEntity
  8
1
  6
CONTINUOUS
 62
           7
100
AcDbLine
 10
229.159634836411
 20
2167.415039402967
 11
230.659634836411
 21
2167.415039402967
  0
LINE
  5
2F7
100
AcDbEntity
  8
1
  6
CONTINUOUS
 62
           7
100
AcDbLine
 10
251.159634836411
 20
2167.415039402967
 11
249.659634836411
 21
2167.415039402967
  0
LINE
  5
2F6
100
AcDbEntity
  8
1
  6
CONTINUOUS
 62
           7
100
AcDbLine
 10
249.659634836411
 20
2167.415039402967
 11
230.659634836411
 21
2167.415039402967
  0
LINE
  5
2F5
100
AcDbEntity
  8
1
  6
CONTINUOUS
 62
           7
100
AcDbLine
 10
251.159634836411
 20
2172.415039402967
 11
251.159634836411
 21
2167.415039402967
  0
LINE
  5
2F4
100
AcDbEntity
  8
1
  6
CONTINUOUS
 62
           7
100
AcDbLine
 10
229.159634836411
 20
2172.415039402967
 11
229.159634836411
 21
2167.415039402967
  0
LINE
  5
2F3
100
AcDbEntity
  8
1
  6
CONTINUOUS
 62
           7
100
AcDbLine
 10
240.159634836411
 20
2172.415039402967
 11
229.159634836411
 21
2172.415039402967
  0
LINE
  5
2F2
100
AcDbEntity
  8
1
  6
CONTINUOUS
 62
           7
100
AcDbLine
 10
1063.9854868607
 20
1724.845598434889
 11
1063.7982993607
 21
1730.835598434889
  0
LINE
  5
2F1
100
AcDbEntity
  8
1
  6
CONTINUOUS
 62
           7
100
AcDbLine
 10
1051.2354868607
 20
1724.845598434889
 11
1051.4226743607
 21
1730.835598434889
  0
LINE
  5
2F0
100
AcDbEntity
  8
1
  6
CONTINUOUS
 62
           7
100
AcDbLine
 10
1063.6104868607
 20
1724.845598434889
 11
1051.6104868607
 21
1724.845598434889
  0
LINE
  5
2EF
100
AcDbEntity
  8
1
  6
CONTINUOUS
 62
           7
100
AcDbLine
 10
1051.6104868607
 20
1724.845598434889
 11
1051.2354868607
 21
1724.845598434889
  0
LINE
  5
2EE
100
AcDbEntity
  8
1
  6
CONTINUOUS
 62
           7
100
AcDbLine
 10
1063.6104868607
 20
1724.845598434889
 11
1063.9854868607
 21
1724.845598434889
  0
LINE
  5
2ED
100
AcDbEntity
  8
1
  6
CONTINUOUS
 62
           2
100
AcDbLine
 10
233.381959836411
 20
2178.788639402967
 11
240.159634836411
 21
2178.788639402967
  0
LINE
  5
2EC
100
AcDbEntity
  8
1
  6
CONTINUOUS
 62
           2
100
AcDbLine
 10
234.321509836411
 20
2176.115039402967
 11
240.159634836411
 21
2176.115039402967
  0
LINE
  5
2EB
100
AcDbEntity
  8
1
  6
CONTINUOUS
 62
           7
100
AcDbLine
 10
233.581134836411
 20
2172.415039402967
 11
233.268947336411
 21
2182.405039402967
  0
LINE
  5
2EA
100
AcDbEntity
  8
1
  6
CONTINUOUS
 62
           2
100
AcDbLine
 10
234.437134836411
 20
2172.415039402967
 11
234.321509836411
 21
2176.115039402967
  0
LINE
  5
2E9
100
AcDbEntity
  8
1
  6
CONTINUOUS
 62
           7
100
AcDbLine
 10
246.738134836411
 20
2172.415039402967
 11
246.937309836411
 21
2178.788639402967
  0
LINE
  5
2E8
100
AcDbEntity
  8
1
  6
CONTINUOUS
 62
           2
100
AcDbLine
 10
245.882134836411
 20
2172.415039402967
 11
245.997759836411
 21
2176.115039402967
  0
LINE
  5
2E7
100
AcDbEntity
  8
1
  6
CONTINUOUS
 62
           2
100
AcDbLine
 10
234.321509836411
 20
2176.115039402967
 11
233.381959836411
 21
2178.788639402967
  0
LINE
  5
2E6
100
AcDbEntity
  8
1
  6
CONTINUOUS
 62
           2
100
AcDbLine
 10
245.997759836411
 20
2176.115039402967
 11
246.937309836411
 21
2178.788639402967
  0
LINE
  5
2E5
100
AcDbEntity
  8
1
  6
CONTINUOUS
 62
           7
100
AcDbLine
 10
246.937309836411
 20
2178.788639402967
 11
247.050322336411
 21
2182.405039402967
  0
LINE
  5
2E4
100
AcDbEntity
  8
1
  6
CONTINUOUS
 62
           2
100
AcDbLine
 10
240.159634836411
 20
2178.788639402967
 11
246.937309836411
 21
2178.788639402967
  0
LINE
  5
2E3
100
AcDbEntity
  8
1
  6
CONTINUOUS
 62
           2
100
AcDbLine
 10
240.159634836411
 20
2176.115039402967
 11
245.997759836411
 21
2176.115039402967
  0
LINE
  5
2E2
100
AcDbEntity
  8
1
  6
CONTINUOUS
 62
           2
100
AcDbLine
 10
253.241110288362
 20
2206.323563951016
 11
256.424706954276
 21
2203.139967285102
  0
LINE
  5
2E1
100
AcDbEntity
  8
1
  6
CONTINUOUS
 62
           2
100
AcDbLine
 10
237.832342880623
 20
2218.491961009552
 11
226.562233765615
 21
2205.948892994282
  0
LINE
  5
2E0
100
AcDbEntity
  8
1
  6
CONTINUOUS
 62
           2
100
AcDbLine
 10
239.246556442996
 20
2217.077747447178
 11
226.703488427726
 21
2205.807638332171
  0
LINE
  5
2DF
100
AcDbEntity
  8
1
  6
CONTINUOUS
 62
           2
100
AcDbLine
 10
245.991726819846
 20
2227.572947419532
 11
240.819402969179
 21
2221.81640955518
  0
LINE
  5
2DE
100
AcDbEntity
  8
1
  6
CONTINUOUS
 62
           2
100
AcDbLine
 10
242.571004988624
 20
2220.064807535735
 11
248.327542852976
 21
2225.237131386402
  0
LINE
  5
2DD
100
AcDbEntity
  8
1
  6
CONTINUOUS
 62
           2
100
AcDbLine
 10
226.565582634743
 20
2205.810987201299
 11
223.894562718546
 21
2203.139967285102
  0
LINE
  5
2DC
100
AcDbEntity
  8
1
  6
CONTINUOUS
 62
           7
100
AcDbLine
 10
1030.6104868607
 20
1699.845598434889
 11
1030.6104868607
 21
1690.745598434889
  0
LINE
  5
2DB
100
AcDbEntity
  8
1
  6
CONTINUOUS
 62
           7
100
AcDbLine
 10
1030.6104868607
 20
1699.845598434889
 11
1084.6104868607
 21
1699.845598434889
  0
LINE
  5
2DA
100
AcDbEntity
  8
1
  6
CONTINUOUS
 62
           7
100
AcDbLine
 10
1084.6104868607
 20
1699.845598434889
 11
1084.6104868607
 21
1690.745598434889
  0
LINE
  5
2D9
100
AcDbEntity
  8
1
  6
CONTINUOUS
 62
           7
100
AcDbLine
 10
1031.6104868607
 20
1689.745598434889
 11
1083.6104868607
 21
1689.745598434889
  0
LINE
  5
2D8
100
AcDbEntity
  8
1
  6
CONTINUOUS
 62
           7
100
AcDbLine
 10
1031.6104868607
 20
1699.845598434889
 11
1031.6104868607
 21
1715.445598434889
  0
LINE
  5
2D7
100
AcDbEntity
  8
1
  6
CONTINUOUS
 62
           7
100
AcDbLine
 10
1082.6104868607
 20
1716.445598434889
 11
1032.6104868607
 21
1716.445598434889
  0
LINE
  5
2D6
100
AcDbEntity
  8
1
  6
CONTINUOUS
 62
           7
100
AcDbLine
 10
1083.6104868607
 20
1715.445598434889
 11
1083.6104868607
 21
1699.845598434889
  0
LINE
  5
2D5
100
AcDbEntity
  8
1
  6
DOT_CENTER
 62
           2
100
AcDbLine
 10
233.653706847278
 20
2204.975928558571
 11
246.715299725916
 21
2204.975928558571
  0
LINE
  5
2D4
100
AcDbEntity
  8
1
  6
DOT_CENTER
 62
           2
100
AcDbLine
 10
244.659634836411
 20
2207.021664197404
 11
244.659634836411
 21
2202.906945923843
  0
LINE
  5
2D3
100
AcDbEntity
  8
1
  6
DOT_CENTER
 62
           2
100
AcDbLine
 10
235.659634836411
 20
2207.063866436107
 11
235.659634836411
 21
2202.801440327085
  0
LINE
  5
2D2
100
AcDbEntity
  8
1
  6
DOT_CENTER
 62
           2
100
AcDbLine
 10
208.564654761275
 20
2219.405039402967
 11
273.237797343465
 21
2219.405039402967
  0
LINE
  5
2D1
100
AcDbEntity
  8
1
  6
CONTINUOUS
 62
           7
100
AcDbLine
 10
233.159634836411
 20
2182.405039402967
 11
247.159634836411
 21
2182.405039402967
  0
LINE
  5
2D0
100
AcDbEntity
  8
1
  6
CONTINUOUS
 62
           7
100
AcDbLine
 10
247.159634836411
 20
2182.405039402967
 11
247.159634836411
 21
2193.328229782157
  0
LINE
  5
2CF
100
AcDbEntity
  8
1
  6
CONTINUOUS
 62
           7
100
AcDbLine
 10
233.159634836411
 20
2193.328229782157
 11
233.159634836411
 21
2182.405039402967
  0
LINE
  5
2CE
100
AcDbEntity
  8
1
  6
CONTINUOUS
 62
           2
100
AcDbLine
 10
240.186785603583
 20
2213.36732611086
 11
240.159634836411
 21
2211.811859701327
  0
LINE
  5
2CD
100
AcDbEntity
  8
1
  6
CONTINUOUS
 62
           2
100
AcDbLine
 10
240.159634836411
 20
2211.811859701327
 11
240.132484069239
 21
2213.36732611086
  0
LINE
  5
2CC
100
AcDbEntity
  8
1
  6
CONTINUOUS
 62
           2
100
AcDbLine
 10
240.159634836411
 20
2211.811859701327
 11
238.826136794608
 21
2211.010613242458
  0
LINE
  5
2CB
100
AcDbEntity
  8
1
  6
CONTINUOUS
 62
           2
100
AcDbLine
 10
238.798986027436
 20
2211.057639750664
 11
240.159634836411
 21
2211.811859701327
  0
LINE
  5
2CA
100
AcDbEntity
  8
1
  6
CONTINUOUS
 62
           2
100
AcDbLine
 10
240.159634836411
 20
2211.811859701327
 11
241.520283645386
 21
2211.057639750664
  0
LINE
  5
2C9
100
AcDbEntity
  8
1
  6
CONTINUOUS
 62
           2
100
AcDbLine
 10
241.493132878214
 20
2211.010613242458
 11
240.159634836411
 21
2211.811859701327
  0
LINE
  5
2C8
100
AcDbEntity
  8
1
  6
CONTINUOUS
 62
           7
100
AcDbLine
 10
1044.4604868607
 20
1901.285598434889
 11
1070.7604868607
 21
1901.285598434889
  0
LINE
  5
2C7
100
AcDbEntity
  8
1
  6
CONTINUOUS
 62
           7
100
AcDbLine
 10
1070.7604868607
 20
1907.585598434889
 11
1044.4604868607
 21
1907.585598434889
  0
LINE
  5
2C6
100
AcDbEntity
  8
1
  6
CONTINUOUS
 62
           7
100
AcDbLine
 10
234.275558604913
 20
2377.115039402967
 11
232.194104380342
 21
2365.310525900795
  0
LINE
  5
2C5
100
AcDbEntity
  8
1
  6
CONTINUOUS
 62
           7
100
AcDbLine
 10
246.04371106791
 20
2377.115039402967
 11
234.275558604913
 21
2377.115039402967
  0
LINE
  5
2C4
100
AcDbEntity
  8
1
  6
DOT_CENTER
 62
           2
100
AcDbLine
 10
261.459634836411
 20
2388.115039402967
 11
218.859634836411
 21
2388.115039402967
  0
LINE
  5
2C3
100
AcDbEntity
  8
1
  6
CONTINUOUS
 62
           7
100
AcDbLine
 10
243.309634836411
 20
2378.624122692765
 11
246.04371106791
 21
2377.115039402967
  0
LINE
  5
2C2
100
AcDbEntity
  8
1
  6
CONTINUOUS
 62
           7
100
AcDbLine
 10
237.009634836411
 20
2378.624122692765
 11
243.309634836411
 21
2378.624122692765
  0
LINE
  5
2C1
100
AcDbEntity
  8
1
  6
CONTINUOUS
 62
           7
100
AcDbLine
 10
234.275558604913
 20
2377.115039402967
 11
237.009634836411
 21
2378.624122692765
  0
LINE
  5
2C0
100
AcDbEntity
  8
1
  6
CONTINUOUS
 62
           7
100
AcDbLine
 10
248.12516529248
 20
2365.310525900795
 11
246.04371106791
 21
2377.115039402967
  0
LINE
  5
2BF
100
AcDbEntity
  8
1
  6
CONTINUOUS
 62
           7
100
AcDbLine
 10
71.559634836411
 20
1813.892539402967
 11
64.719146912498
 21
1814.106304650589
  0
LINE
  5
2BE
100
AcDbEntity
  8
1
  6
DOT_CENTER
 62
           2
100
AcDbLine
 10
82.172597664796
 20
1803.415039402967
 11
55.032798157782
 21
1803.415039402967
  0
LINE
  5
2BD
100
AcDbEntity
  8
1
  6
CONTINUOUS
 62
           7
100
AcDbLine
 10
63.719634836411
 20
1791.692539402967
 11
63.719634836411
 21
1815.137539402967
  0
LINE
  5
2BC
100
AcDbEntity
  8
1
  6
CONTINUOUS
 62
           7
100
AcDbLine
 10
63.719634836411
 20
1791.692539402967
 11
63.719634836411
 21
1790.415039402967
  0
LINE
  5
2BB
100
AcDbEntity
  8
1
  6
CONTINUOUS
 62
           7
100
AcDbLine
 10
63.719634836411
 20
1791.692539402967
 11
64.719146912498
 21
1792.723774155345
  0
LINE
  5
2BA
100
AcDbEntity
  8
1
  6
CONTINUOUS
 62
           7
100
AcDbLine
 10
64.719146912498
 20
1792.723774155345
 11
71.559634836411
 21
1792.937539402967
  0
LINE
  5
2B9
100
AcDbEntity
  8
1
  6
CONTINUOUS
 62
           7
100
AcDbLine
 10
64.719146912498
 20
1814.106304650589
 11
63.719634836411
 21
1815.137539402967
  0
LINE
  5
2B8
100
AcDbEntity
  8
1
  6
CONTINUOUS
 62
           7
100
AcDbLine
 10
63.719634836411
 20
1816.415039402967
 11
63.719634836411
 21
1815.137539402967
  0
LINE
  5
2B7
100
AcDbEntity
  8
1
  6
CONTINUOUS
 62
           7
100
AcDbLine
 10
58.719634836411
 20
1816.415039402967
 11
63.719634836411
 21
1816.415039402967
  0
LINE
  5
2B6
100
AcDbEntity
  8
1
  6
CONTINUOUS
 62
           7
100
AcDbLine
 10
58.719634836411
 20
1790.415039402967
 11
63.719634836411
 21
1790.415039402967
  0
LINE
  5
2B5
100
AcDbEntity
  8
1
  6
CONTINUOUS
 62
           7
100
AcDbLine
 10
58.719634836411
 20
1790.415039402967
 11
58.719634836411
 21
1816.415039402967
  0
LINE
  5
2B4
100
AcDbEntity
  8
1
  6
CONTINUOUS
 62
           7
100
AcDbLine
 10
58.719634836411
 20
1809.915039402967
 11
63.719634836411
 21
1809.915039402967
  0
LINE
  5
2B3
100
AcDbEntity
  8
1
  6
CONTINUOUS
 62
           7
100
AcDbLine
 10
58.719634836411
 20
1796.915039402967
 11
63.719634836411
 21
1796.915039402967
  0
LINE
  5
2B2
100
AcDbEntity
  8
1
  6
CONTINUOUS
 62
           7
100
AcDbLine
 10
71.559634836411
 20
1817.415039402967
 11
71.559634836411
 21
1789.415039402967
  0
LINE
  5
2B1
100
AcDbEntity
  8
1
  6
CONTINUOUS
 62
           7
100
AcDbLine
 10
1236.2104868607
 20
1918.435598434889
 11
1210.57113539489
 21
1918.435598434889
  0
LINE
  5
2B0
100
AcDbEntity
  8
1
  6
CONTINUOUS
 62
           7
100
AcDbLine
 10
1236.2104868607
 20
1890.435598434889
 11
1236.2104868607
 21
1918.435598434889
  0
LINE
  5
2AF
100
AcDbEntity
  8
1
  6
CONTINUOUS
 62
           7
100
AcDbLine
 10
1210.57113539489
 20
1890.435598434889
 11
1236.2104868607
 21
1890.435598434889
  0
LINE
  5
2AE
100
AcDbEntity
  8
1
  6
DOT_CENTER
 62
           2
100
AcDbLine
 10
1285.272497063162
 20
1676.773588232428
 11
1269.353612487012
 21
1692.692472808577
  0
LINE
  5
2AD
100
AcDbEntity
  8
1
  6
DOT_CENTER
 62
           2
100
AcDbLine
 10
829.948476658239
 20
1676.773588232427
 11
845.867361234388
 21
1692.692472808577
  0
LINE
  5
2AC
100
AcDbEntity
  8
1
  6
DOT_CENTER
 62
           2
100
AcDbLine
 10
842.5704868607
 20
1904.435598434889
 11
1317.307848729673
 21
1904.435598434889
  0
LINE
  5
2AB
100
AcDbEntity
  8
1
  6
CONTINUOUS
 62
           7
100
AcDbLine
 10
889.0104868607
 20
1890.435598434889
 11
904.64983832651
 21
1890.435598434889
  0
LINE
  5
2AA
100
AcDbEntity
  8
1
  6
CONTINUOUS
 62
           7
100
AcDbLine
 10
889.0104868607
 20
1918.435598434889
 11
889.0104868607
 21
1890.435598434889
  0
LINE
  5
2A9
100
AcDbEntity
  8
1
  6
CONTINUOUS
 62
           7
100
AcDbLine
 10
904.64983832651
 20
1918.435598434889
 11
889.0104868607
 21
1918.435598434889
  0
LINE
  5
2A8
100
AcDbEntity
  8
1
  6
CONTINUOUS
 62
           7
100
AcDbLine
 10
1067.1104868607
 20
1730.835598434889
 11
1067.1104868607
 21
1751.129662476753
  0
LINE
  5
2A7
100
AcDbEntity
  8
1
  6
CONTINUOUS
 62
           7
100
AcDbLine
 10
1048.1104868607
 20
1730.835598434889
 11
1067.1104868607
 21
1730.835598434889
  0
LINE
  5
2A6
100
AcDbEntity
  8
1
  6
CONTINUOUS
 62
           7
100
AcDbLine
 10
1048.1104868607
 20
1751.129662476753
 11
1048.1104868607
 21
1730.835598434889
  0
LINE
  5
2A5
100
AcDbEntity
  8
1
  6
CONTINUOUS
 62
           7
100
AcDbLine
 10
251.659634836411
 20
1468.915039402967
 11
228.659634836411
 21
1468.915039402967
  0
LINE
  5
2A4
100
AcDbEntity
  8
1
  6
CONTINUOUS
 62
           7
100
AcDbLine
 10
251.659634836411
 20
1481.632920615455
 11
251.659634836411
 21
1468.915039402967
  0
LINE
  5
2A3
100
AcDbEntity
  8
1
  6
CONTINUOUS
 62
           7
100
AcDbLine
 10
228.659634836411
 20
1468.915039402967
 11
228.659634836411
 21
1481.632920615455
  0
LINE
  5
2A2
100
AcDbEntity
  8
1
  6
CONTINUOUS
 62
           7
100
AcDbLine
 10
86.559634836411
 20
1548.160653756427
 11
86.559634836411
 21
1553.415039402967
  0
LINE
  5
2A1
100
AcDbEntity
  8
1
  6
CONTINUOUS
 62
           7
100
AcDbLine
 10
393.759634836411
 20
1553.415039402967
 11
393.759634836411
 21
1548.160653756427
  0
LINE
  5
2A0
100
AcDbEntity
  8
1
  6
CONTINUOUS
 62
           7
100
AcDbLine
 10
393.759634836411
 20
1553.415039402967
 11
372.226914965611
 21
1553.415039402967
  0
LINE
  5
29F
100
AcDbEntity
  8
1
  6
CONTINUOUS
 62
           6
100
AcDbLine
 10
372.226914965611
 20
1553.415039402967
 11
350.163336362494
 21
1553.415039402967
  0
LINE
  5
29E
100
AcDbEntity
  8
1
  6
CONTINUOUS
 62
           6
100
AcDbLine
 10
130.155933310328
 20
1553.415039402967
 11
108.092354707211
 21
1553.415039402967
  0
LINE
  5
29D
100
AcDbEntity
  8
1
  6
CONTINUOUS
 62
           7
100
AcDbLine
 10
108.092354707211
 20
1553.415039402967
 11
86.559634836411
 21
1553.415039402967
  0
LINE
  5
29C
100
AcDbEntity
  8
1
  6
CONTINUOUS
 62
           7
100
AcDbLine
 10
350.163336362494
 20
1553.415039402967
 11
130.155933310328
 21
1553.415039402967
  0
LINE
  5
29B
100
AcDbEntity
  8
1
  6
CONTINUOUS
 62
           2
100
AcDbLine
 10
83.858675146459
 20
1583.415039402967
 11
83.858675146459
 21
1703.415039402967
  0
LINE
  5
29A
100
AcDbEntity
  8
1
  6
CONTINUOUS
 62
           6
100
AcDbLine
 10
86.559634836411
 20
1703.415039402967
 11
86.559634836411
 21
1583.415039402967
  0
LINE
  5
299
100
AcDbEntity
  8
1
  6
CONTINUOUS
 62
           7
100
AcDbLine
 10
86.559634836411
 20
1583.415039402967
 11
86.559634836411
 21
1553.415039402967
  0
LINE
  5
298
100
AcDbEntity
  8
1
  6
CONTINUOUS
 62
           7
100
AcDbLine
 10
83.359634836411
 20
1583.415039402967
 11
87.048490650336
 21
1583.415039402967
  0
LINE
  5
297
100
AcDbEntity
  8
1
  6
CONTINUOUS
 62
           7
100
AcDbLine
 10
83.359634836411
 20
1703.415039402967
 11
83.359634836411
 21
1583.415039402967
  0
LINE
  5
296
100
AcDbEntity
  8
1
  6
CONTINUOUS
 62
           7
100
AcDbLine
 10
87.048490650336
 20
1703.415039402967
 11
83.359634836411
 21
1703.415039402967
  0
LINE
  5
295
100
AcDbEntity
  8
1
  6
CONTINUOUS
 62
           7
100
AcDbLine
 10
87.048490650336
 20
1583.415039402967
 11
87.048490650336
 21
1703.415039402967
  0
LINE
  5
294
100
AcDbEntity
  8
1
  6
DOT_CENTER
 62
           2
100
AcDbLine
 10
240.159634836411
 20
2365.415039402967
 11
240.159634836411
 21
1397.672762772717
  0
LINE
  5
293
100
AcDbEntity
  8
1
  6
CONTINUOUS
 62
           7
100
AcDbLine
 10
393.759634836411
 20
2167.415039402967
 11
393.759634836411
 21
2293.415039402967
  0
LINE
  5
292
100
AcDbEntity
  8
1
  6
CONTINUOUS
 62
           7
100
AcDbLine
 10
393.759634836411
 20
1914.915039402967
 11
393.759634836411
 21
2139.415039402967
  0
LINE
  5
291
100
AcDbEntity
  8
1
  6
CONTINUOUS
 62
           7
100
AcDbLine
 10
86.559634836411
 20
1789.415039402967
 11
86.559634836411
 21
1703.415039402967
  0
LINE
  5
290
100
AcDbEntity
  8
1
  6
CONTINUOUS
 62
           7
100
AcDbLine
 10
71.559634836411
 20
1817.415039402967
 11
86.559634836411
 21
1817.415039402967
  0
LINE
  5
28F
100
AcDbEntity
  8
1
  6
CONTINUOUS
 62
           7
100
AcDbLine
 10
86.559634836411
 20
1789.415039402967
 11
71.559634836411
 21
1789.415039402967
  0
LINE
  5
28E
100
AcDbEntity
  8
1
  6
DOT_CENTER
 62
           2
100
AcDbLine
 10
383.759634836411
 20
2153.415039402967
 11
493.319556377813
 21
2153.415039402967
  0
LINE
  5
28D
100
AcDbEntity
  8
1
  6
CONTINUOUS
 62
           7
100
AcDbLine
 10
408.759634836411
 20
1891.915039402967
 11
393.759634836411
 21
1891.915039402967
  0
LINE
  5
28C
100
AcDbEntity
  8
1
  6
CONTINUOUS
 62
           7
100
AcDbLine
 10
408.759634836411
 20
1914.915039402967
 11
408.759634836411
 21
1891.915039402967
  0
LINE
  5
28B
100
AcDbEntity
  8
1
  6
CONTINUOUS
 62
           7
100
AcDbLine
 10
393.759634836411
 20
1914.915039402967
 11
408.759634836411
 21
1914.915039402967
  0
LINE
  5
28A
100
AcDbEntity
  8
1
  6
CONTINUOUS
 62
           7
100
AcDbLine
 10
418.759634836411
 20
2139.415039402967
 11
393.759634836411
 21
2139.415039402967
  0
LINE
  5
289
100
AcDbEntity
  8
1
  6
CONTINUOUS
 62
           7
100
AcDbLine
 10
418.759634836411
 20
2167.415039402967
 11
418.759634836411
 21
2139.415039402967
  0
LINE
  5
288
100
AcDbEntity
  8
1
  6
CONTINUOUS
 62
           7
100
AcDbLine
 10
393.759634836411
 20
2167.415039402967
 11
418.759634836411
 21
2167.415039402967
  0
LINE
  5
287
100
AcDbEntity
  8
1
  6
DOT_CENTER
 62
           2
100
AcDbLine
 10
226.859634836411
 20
2153.415039402967
 11
253.459634836411
 21
2153.415039402967
  0
LINE
  5
286
100
AcDbEntity
  8
1
  6
CONTINUOUS
 62
           7
100
AcDbLine
 10
86.559634836411
 20
2293.415039402967
 11
86.559634836411
 21
2298.669425049507
  0
LINE
  5
285
100
AcDbEntity
  8
1
  6
CONTINUOUS
 62
           7
100
AcDbLine
 10
393.759634836411
 20
2298.669425049507
 11
393.759634836411
 21
2293.415039402967
  0
LINE
  5
284
100
AcDbEntity
  8
1
  6
CONTINUOUS
 62
           7
100
AcDbLine
 10
393.759634836411
 20
2293.415039402967
 11
86.559634836411
 21
2293.415039402967
  0
LINE
  5
283
100
AcDbEntity
  8
1
  6
DOT_CENTER
 62
           2
100
AcDbLine
 10
240.159634836411
 20
2414.415039402967
 11
240.159634836411
 21
2404.715039402967
  0
LINE
  5
282
100
AcDbEntity
  8
1
  6
CONTINUOUS
 62
           7
100
AcDbLine
 10
393.759634836411
 20
1553.415039402967
 11
393.759634836411
 21
1891.915039402967
  0
LINE
  5
281
100
AcDbEntity
  8
1
  6
CONTINUOUS
 62
           7
100
AcDbLine
 10
86.559634836411
 20
2293.415039402967
 11
86.559634836411
 21
1817.415039402967
  0
LINE
  5
280
100
AcDbEntity
  8
1
  6
DOT_CENTER
 62
           2
100
AcDbLine
 10
240.159634836411
 20
2404.715039402967
 11
240.159634836411
 21
2365.415039402967
  0
LINE
  5
27F
100
AcDbEntity
  8
1
  6
DOT_CENTER
 62
           2
100
AcDbLine
 10
1280.3904868607
 20
1936.162181322434
 11
1280.3904868607
 21
1871.448960970796
  0
LINE
  5
27E
100
AcDbEntity
  8
1
  6
CONTINUOUS
 62
           2
100
AcDbLine
 10
240.284406698868
 20
2423.305764526472
 11
230.284406698868
 21
2433.305764526472
  0
LINE
  5
27D
100
AcDbEntity
  8
1
  6
CONTINUOUS
 62
           2
100
AcDbLine
 10
230.284406698868
 20
2433.305764526472
 11
235.284406698868
 21
2433.305764526472
  0
LINE
  5
27C
100
AcDbEntity
  8
1
  6
CONTINUOUS
 62
           2
100
AcDbLine
 10
235.284406698868
 20
2433.305764526472
 11
235.284406698868
 21
2448.305764526472
  0
LINE
  5
27B
100
AcDbEntity
  8
1
  6
CONTINUOUS
 62
           2
100
AcDbLine
 10
235.284406698868
 20
2448.305764526472
 11
245.284406698868
 21
2448.305764526472
  0
LINE
  5
27A
100
AcDbEntity
  8
1
  6
CONTINUOUS
 62
           2
100
AcDbLine
 10
245.284406698868
 20
2448.305764526472
 11
245.284406698868
 21
2433.305764526472
  0
LINE
  5
279
100
AcDbEntity
  8
1
  6
CONTINUOUS
 62
           2
100
AcDbLine
 10
245.284406698868
 20
2433.305764526472
 11
250.284406698868
 21
2433.305764526472
  0
LINE
  5
278
100
AcDbEntity
  8
1
  6
CONTINUOUS
 62
           2
100
AcDbLine
 10
250.284406698868
 20
2433.305764526472
 11
240.284406698868
 21
2423.305764526472
  0
LINE
  5
277
100
AcDbEntity
  8
1
  6
DOT_CENTER
 62
           2
100
AcDbLine
 10
1269.353612487012
 20
1692.692472808577
 11
845.867361234388
 21
2116.178724061201
  0
LINE
  5
276
100
AcDbEntity
  8
1
  6
DOT_CENTER
 62
           2
100
AcDbLine
 10
845.867361234388
 20
1692.692472808577
 11
1269.353612487012
 21
2116.1787240612
  0
LINE
  5
275
100
AcDbEntity
  8
1
  6
DOT_CENTER
 62
           2
100
AcDbLine
 10
1269.353612487012
 20
2116.1787240612
 11
1285.272497063162
 21
2132.09760863735
  0
LINE
  5
274
100
AcDbEntity
  8
1
  6
DOT_CENTER
 62
           2
100
AcDbLine
 10
845.867361234388
 20
2116.178724061201
 11
829.948476658239
 21
2132.097608637351
  0
LINE
  5
273
100
AcDbEntity
  8
1
  6
CONTINUOUS
 62
           2
100
AcDbLine
 10
1025.728552118522
 20
1505.09579599977
 11
1101.152207154915
 21
1505.09579599977
  0
LINE
  5
272
100
AcDbEntity
  8
1
  6
CONTINUOUS
 62
           2
100
AcDbLine
 10
-21.981165234888
 20
1788.985427353404
 11
-31.981165234888
 21
1778.985427353404
  0
LINE
  5
271
100
AcDbEntity
  8
1
  6
CONTINUOUS
 62
           2
100
AcDbLine
 10
-31.981165234888
 20
1778.985427353404
 11
-31.981165234888
 21
1783.985427353404
  0
LINE
  5
270
100
AcDbEntity
  8
1
  6
CONTINUOUS
 62
           2
100
AcDbLine
 10
-31.981165234888
 20
1783.985427353404
 11
-46.981165234888
 21
1783.985427353404
  0
LINE
  5
26F
100
AcDbEntity
  8
1
  6
CONTINUOUS
 62
           2
100
AcDbLine
 10
-46.981165234888
 20
1783.985427353404
 11
-46.981165234888
 21
1793.985427353404
  0
LINE
  5
26E
100
AcDbEntity
  8
1
  6
CONTINUOUS
 62
           2
100
AcDbLine
 10
-46.981165234888
 20
1793.985427353404
 11
-31.981165234888
 21
1793.985427353404
  0
LINE
  5
26D
100
AcDbEntity
  8
1
  6
CONTINUOUS
 62
           2
100
AcDbLine
 10
-31.981165234888
 20
1793.985427353404
 11
-31.981165234888
 21
1798.985427353404
  0
LINE
  5
26C
100
AcDbEntity
  8
1
  6
CONTINUOUS
 62
           2
100
AcDbLine
 10
-31.981165234888
 20
1798.985427353404
 11
-21.981165234888
 21
1788.985427353404
  0
LINE
  5
26B
100
AcDbEntity
  8
1
  6
CONTINUOUS
 62
           2
100
AcDbLine
 10
580.433203281674
 20
2168.104638384111
 11
570.433203281674
 21
2158.104638384111
  0
LINE
  5
26A
100
AcDbEntity
  8
1
  6
CONTINUOUS
 62
           2
100
AcDbLine
 10
570.433203281674
 20
2158.104638384111
 11
570.433203281674
 21
2163.104638384111
  0
LINE
  5
269
100
AcDbEntity
  8
1
  6
CONTINUOUS
 62
           2
100
AcDbLine
 10
570.433203281674
 20
2163.104638384111
 11
555.433203281674
 21
2163.104638384111
  0
LINE
  5
268
100
AcDbEntity
  8
1
  6
CONTINUOUS
 62
           2
100
AcDbLine
 10
555.433203281674
 20
2163.104638384111
 11
555.433203281674
 21
2173.104638384111
  0
LINE
  5
267
100
AcDbEntity
  8
1
  6
CONTINUOUS
 62
           2
100
AcDbLine
 10
555.433203281674
 20
2173.104638384111
 11
570.433203281674
 21
2173.104638384111
  0
LINE
  5
266
100
AcDbEntity
  8
1
  6
CONTINUOUS
 62
           2
100
AcDbLine
 10
570.433203281674
 20
2173.104638384111
 11
570.433203281674
 21
2178.104638384111
  0
LINE
  5
265
100
AcDbEntity
  8
1
  6
CONTINUOUS
 62
           2
100
AcDbLine
 10
570.433203281674
 20
2178.104638384111
 11
580.433203281674
 21
2168.104638384111
  0
LINE
  5
264
100
AcDbEntity
  8
1
  6
DOT_CENTER
 62
           2
100
AcDbLine
 10
108.972367580439
 20
1803.415039402967
 11
-68.372191167256
 21
1803.415039402967
  0
LINE
  5
263
100
AcDbEntity
  8
1
  6
CONTINUOUS
 62
           2
100
AcDbLine
 10
1359.016978874712
 20
1330.924584595407
 11
1357.704478874712
 21
1331.799584595407
  0
LINE
  5
262
100
AcDbEntity
  8
1
  6
CONTINUOUS
 62
           2
100
AcDbLine
 10
1357.704478874712
 20
1331.799584595407
 11
1356.391978874712
 21
1332.237084595407
  0
LINE
  5
261
100
AcDbEntity
  8
1
  6
CONTINUOUS
 62
           2
100
AcDbLine
 10
1356.391978874712
 20
1332.237084595407
 11
1354.204478874712
 21
1332.674584595407
  0
LINE
  5
260
100
AcDbEntity
  8
1
  6
CONTINUOUS
 62
           2
100
AcDbLine
 10
1354.204478874712
 20
1332.674584595407
 11
1352.454478874712
 21
1332.674584595407
  0
LINE
  5
25F
100
AcDbEntity
  8
1
  6
CONTINUOUS
 62
           2
100
AcDbLine
 10
1352.454478874712
 20
1332.674584595407
 11
1350.704478874712
 21
1332.237084595407
  0
LINE
  5
25E
100
AcDbEntity
  8
1
  6
CONTINUOUS
 62
           2
100
AcDbLine
 10
1350.704478874712
 20
1332.237084595407
 11
1349.391978874712
 21
1331.799584595407
  0
LINE
  5
25D
100
AcDbEntity
  8
1
  6
CONTINUOUS
 62
           2
100
AcDbLine
 10
1349.391978874712
 20
1331.799584595407
 11
1348.079478874712
 21
1330.924584595407
  0
LINE
  5
25C
100
AcDbEntity
  8
1
  6
CONTINUOUS
 62
           2
100
AcDbLine
 10
1348.079478874712
 20
1330.924584595407
 11
1347.641978874712
 21
1329.612084595407
  0
LINE
  5
25B
100
AcDbEntity
  8
1
  6
CONTINUOUS
 62
           2
100
AcDbLine
 10
1347.641978874712
 20
1329.612084595407
 11
1347.641978874712
 21
1328.737084595407
  0
LINE
  5
25A
100
AcDbEntity
  8
1
  6
CONTINUOUS
 62
           2
100
AcDbLine
 10
1347.641978874712
 20
1328.737084595407
 11
1348.079478874712
 21
1327.424584595407
  0
LINE
  5
259
100
AcDbEntity
  8
1
  6
CONTINUOUS
 62
           2
100
AcDbLine
 10
1348.079478874712
 20
1327.424584595407
 11
1349.391978874712
 21
1326.549584595407
  0
LINE
  5
258
100
AcDbEntity
  8
1
  6
CONTINUOUS
 62
           2
100
AcDbLine
 10
1349.391978874712
 20
1326.549584595407
 11
1356.829478874712
 21
1323.487084595407
  0
LINE
  5
257
100
AcDbEntity
  8
1
  6
CONTINUOUS
 62
           2
100
AcDbLine
 10
1356.829478874712
 20
1323.487084595407
 11
1358.141978874712
 21
1322.612084595407
  0
LINE
  5
256
100
AcDbEntity
  8
1
  6
CONTINUOUS
 62
           2
100
AcDbLine
 10
1358.141978874712
 20
1322.612084595407
 11
1359.016978874712
 21
1321.299584595407
  0
LINE
  5
255
100
AcDbEntity
  8
1
  6
CONTINUOUS
 62
           2
100
AcDbLine
 10
1359.016978874712
 20
1321.299584595407
 11
1359.454478874712
 21
1319.987084595407
  0
LINE
  5
254
100
AcDbEntity
  8
1
  6
CONTINUOUS
 62
           2
100
AcDbLine
 10
1359.454478874712
 20
1319.987084595407
 11
1359.454478874712
 21
1319.112084595407
  0
LINE
  5
253
100
AcDbEntity
  8
1
  6
CONTINUOUS
 62
           2
100
AcDbLine
 10
1359.454478874712
 20
1319.112084595407
 11
1359.016978874712
 21
1317.799584595407
  0
LINE
  5
252
100
AcDbEntity
  8
1
  6
CONTINUOUS
 62
           2
100
AcDbLine
 10
1359.016978874712
 20
1317.799584595407
 11
1358.141978874712
 21
1316.487084595407
  0
LINE
  5
251
100
AcDbEntity
  8
1
  6
CONTINUOUS
 62
           2
100
AcDbLine
 10
1358.141978874712
 20
1316.487084595407
 11
1356.829478874712
 21
1315.612084595407
  0
LINE
  5
250
100
AcDbEntity
  8
1
  6
CONTINUOUS
 62
           2
100
AcDbLine
 10
1356.829478874712
 20
1315.612084595407
 11
1354.641978874712
 21
1315.174584595407
  0
LINE
  5
24F
100
AcDbEntity
  8
1
  6
CONTINUOUS
 62
           2
100
AcDbLine
 10
1354.641978874712
 20
1315.174584595407
 11
1352.016978874712
 21
1315.174584595407
  0
LINE
  5
24E
100
AcDbEntity
  8
1
  6
CONTINUOUS
 62
           2
100
AcDbLine
 10
1352.016978874712
 20
1315.174584595407
 11
1349.829478874712
 21
1315.612084595407
  0
LINE
  5
24D
100
AcDbEntity
  8
1
  6
CONTINUOUS
 62
           2
100
AcDbLine
 10
1349.829478874712
 20
1315.612084595407
 11
1348.079478874712
 21
1316.487084595407
  0
LINE
  5
24C
100
AcDbEntity
  8
1
  6
CONTINUOUS
 62
           2
100
AcDbLine
 10
1348.079478874712
 20
1316.487084595407
 11
1347.204478874712
 21
1317.362084595407
  0
LINE
  5
24B
100
AcDbEntity
  8
1
  6
CONTINUOUS
 62
           2
100
AcDbLine
 10
1366.891978874712
 20
1320.424584595407
 11
1376.516978874712
 21
1320.424584595407
  0
LINE
  5
24A
100
AcDbEntity
  8
1
  6
CONTINUOUS
 62
           2
100
AcDbLine
 10
1364.704478874712
 20
1315.174584595407
 11
1371.704478874712
 21
1332.674584595407
  0
LINE
  5
249
100
AcDbEntity
  8
1
  6
CONTINUOUS
 62
           2
100
AcDbLine
 10
1371.704478874712
 20
1332.674584595407
 11
1378.704478874712
 21
1315.174584595407
  0
LINE
  5
248
100
AcDbEntity
  8
1
  6
CONTINUOUS
 62
           2
100
AcDbLine
 10
1390.079478874712
 20
1332.674584595407
 11
1396.204478874712
 21
1332.674584595407
  0
LINE
  5
247
100
AcDbEntity
  8
1
  6
CONTINUOUS
 62
           2
100
AcDbLine
 10
1383.954478874712
 20
1332.674584595407
 11
1390.079478874712
 21
1332.674584595407
  0
LINE
  5
246
100
AcDbEntity
  8
1
  6
CONTINUOUS
 62
           2
100
AcDbLine
 10
1390.079478874712
 20
1332.674584595407
 11
1390.079478874712
 21
1315.174584595407
  0
LINE
  5
245
100
AcDbEntity
  8
1
  6
CONTINUOUS
 62
           2
100
AcDbLine
 10
1401.454478874712
 20
1321.299584595407
 11
1410.204478874712
 21
1321.299584595407
  0
LINE
  5
244
100
AcDbEntity
  8
1
  6
CONTINUOUS
 62
           2
100
AcDbLine
 10
1415.454478874712
 20
1321.299584595407
 11
1415.891978874712
 21
1323.049584595407
  0
LINE
  5
243
100
AcDbEntity
  8
1
  6
CONTINUOUS
 62
           2
100
AcDbLine
 10
1415.891978874712
 20
1323.049584595407
 11
1416.766978874712
 21
1324.362084595407
  0
LINE
  5
242
100
AcDbEntity
  8
1
  6
CONTINUOUS
 62
           2
100
AcDbLine
 10
1416.766978874712
 20
1324.362084595407
 11
1418.079478874712
 21
1325.237084595407
  0
LINE
  5
241
100
AcDbEntity
  8
1
  6
CONTINUOUS
 62
           2
100
AcDbLine
 10
1418.079478874712
 20
1325.237084595407
 11
1419.391978874712
 21
1325.674584595407
  0
LINE
  5
240
100
AcDbEntity
  8
1
  6
CONTINUOUS
 62
           2
100
AcDbLine
 10
1419.391978874712
 20
1325.674584595407
 11
1422.016978874712
 21
1325.674584595407
  0
LINE
  5
23F
100
AcDbEntity
  8
1
  6
CONTINUOUS
 62
           2
100
AcDbLine
 10
1422.016978874712
 20
1325.674584595407
 11
1423.329478874712
 21
1325.237084595407
  0
LINE
  5
23E
100
AcDbEntity
  8
1
  6
CONTINUOUS
 62
           2
100
AcDbLine
 10
1423.329478874712
 20
1325.237084595407
 11
1424.641978874712
 21
1324.362084595407
  0
LINE
  5
23D
100
AcDbEntity
  8
1
  6
CONTINUOUS
 62
           2
100
AcDbLine
 10
1424.641978874712
 20
1324.362084595407
 11
1425.516978874712
 21
1323.049584595407
  0
LINE
  5
23C
100
AcDbEntity
  8
1
  6
CONTINUOUS
 62
           2
100
AcDbLine
 10
1425.516978874712
 20
1323.049584595407
 11
1425.954478874712
 21
1321.299584595407
  0
LINE
  5
23B
100
AcDbEntity
  8
1
  6
CONTINUOUS
 62
           2
100
AcDbLine
 10
1425.954478874712
 20
1321.299584595407
 11
1425.954478874712
 21
1319.549584595407
  0
LINE
  5
23A
100
AcDbEntity
  8
1
  6
CONTINUOUS
 62
           2
100
AcDbLine
 10
1425.954478874712
 20
1319.549584595407
 11
1425.516978874712
 21
1317.799584595407
  0
LINE
  5
239
100
AcDbEntity
  8
1
  6
CONTINUOUS
 62
           2
100
AcDbLine
 10
1425.516978874712
 20
1317.799584595407
 11
1424.641978874712
 21
1316.487084595407
  0
LINE
  5
238
100
AcDbEntity
  8
1
  6
CONTINUOUS
 62
           2
100
AcDbLine
 10
1424.641978874712
 20
1316.487084595407
 11
1423.329478874712
 21
1315.612084595407
  0
LINE
  5
237
100
AcDbEntity
  8
1
  6
CONTINUOUS
 62
           2
100
AcDbLine
 10
1423.329478874712
 20
1315.612084595407
 11
1422.016978874712
 21
1315.174584595407
  0
LINE
  5
236
100
AcDbEntity
  8
1
  6
CONTINUOUS
 62
           2
100
AcDbLine
 10
1422.016978874712
 20
1315.174584595407
 11
1419.391978874712
 21
1315.174584595407
  0
LINE
  5
235
100
AcDbEntity
  8
1
  6
CONTINUOUS
 62
           2
100
AcDbLine
 10
1419.391978874712
 20
1315.174584595407
 11
1418.079478874712
 21
1315.612084595407
  0
LINE
  5
234
100
AcDbEntity
  8
1
  6
CONTINUOUS
 62
           2
100
AcDbLine
 10
1418.079478874712
 20
1315.612084595407
 11
1416.766978874712
 21
1316.487084595407
  0
LINE
  5
233
100
AcDbEntity
  8
1
  6
CONTINUOUS
 62
           2
100
AcDbLine
 10
1416.766978874712
 20
1316.487084595407
 11
1415.891978874712
 21
1317.799584595407
  0
LINE
  5
232
100
AcDbEntity
  8
1
  6
CONTINUOUS
 62
           2
100
AcDbLine
 10
1415.891978874712
 20
1317.799584595407
 11
1415.454478874712
 21
1319.549584595407
  0
LINE
  5
231
100
AcDbEntity
  8
1
  6
CONTINUOUS
 62
           2
100
AcDbLine
 10
1415.454478874712
 20
1319.549584595407
 11
1415.454478874712
 21
1321.299584595407
  0
LINE
  5
230
100
AcDbEntity
  8
1
  6
CONTINUOUS
 62
           2
100
AcDbLine
 10
1415.454478874712
 20
1321.299584595407
 11
1415.891978874712
 21
1324.799584595407
  0
LINE
  5
22F
100
AcDbEntity
  8
1
  6
CONTINUOUS
 62
           2
100
AcDbLine
 10
1415.891978874712
 20
1324.799584595407
 11
1416.766978874712
 21
1326.549584595407
  0
LINE
  5
22E
100
AcDbEntity
  8
1
  6
CONTINUOUS
 62
           2
100
AcDbLine
 10
1416.766978874712
 20
1326.549584595407
 11
1418.516978874712
 21
1328.737084595407
  0
LINE
  5
22D
100
AcDbEntity
  8
1
  6
CONTINUOUS
 62
           2
100
AcDbLine
 10
1418.516978874712
 20
1328.737084595407
 11
1423.329478874712
 21
1332.674584595407
  0
LINE
  5
22C
100
AcDbEntity
  8
1
  6
CONTINUOUS
 62
           2
100
AcDbLine
 10
1441.704478874712
 20
1321.737084595407
 11
1441.266978874712
 21
1319.112084595407
  0
LINE
  5
22B
100
AcDbEntity
  8
1
  6
CONTINUOUS
 62
           2
100
AcDbLine
 10
1441.266978874712
 20
1319.112084595407
 11
1440.391978874712
 21
1317.362084595407
  0
LINE
  5
22A
100
AcDbEntity
  8
1
  6
CONTINUOUS
 62
           2
100
AcDbLine
 10
1440.391978874712
 20
1317.362084595407
 11
1439.516978874712
 21
1316.487084595407
  0
LINE
  5
229
100
AcDbEntity
  8
1
  6
CONTINUOUS
 62
           2
100
AcDbLine
 10
1439.516978874712
 20
1316.487084595407
 11
1438.204478874712
 21
1315.612084595407
  0
LINE
  5
228
100
AcDbEntity
  8
1
  6
CONTINUOUS
 62
           2
100
AcDbLine
 10
1438.204478874712
 20
1315.612084595407
 11
1436.891978874712
 21
1315.174584595407
  0
LINE
  5
227
100
AcDbEntity
  8
1
  6
CONTINUOUS
 62
           2
100
AcDbLine
 10
1436.891978874712
 20
1315.174584595407
 11
1436.016978874712
 21
1315.174584595407
  0
LINE
  5
226
100
AcDbEntity
  8
1
  6
CONTINUOUS
 62
           2
100
AcDbLine
 10
1436.016978874712
 20
1315.174584595407
 11
1434.704478874712
 21
1315.612084595407
  0
LINE
  5
225
100
AcDbEntity
  8
1
  6
CONTINUOUS
 62
           2
100
AcDbLine
 10
1434.704478874712
 20
1315.612084595407
 11
1433.391978874712
 21
1316.487084595407
  0
LINE
  5
224
100
AcDbEntity
  8
1
  6
CONTINUOUS
 62
           2
100
AcDbLine
 10
1433.391978874712
 20
1316.487084595407
 11
1432.516978874712
 21
1317.362084595407
  0
LINE
  5
223
100
AcDbEntity
  8
1
  6
CONTINUOUS
 62
           2
100
AcDbLine
 10
1432.516978874712
 20
1317.362084595407
 11
1431.641978874712
 21
1319.112084595407
  0
LINE
  5
222
100
AcDbEntity
  8
1
  6
CONTINUOUS
 62
           2
100
AcDbLine
 10
1431.641978874712
 20
1319.112084595407
 11
1431.204478874712
 21
1321.737084595407
  0
LINE
  5
221
100
AcDbEntity
  8
1
  6
CONTINUOUS
 62
           2
100
AcDbLine
 10
1431.204478874712
 20
1321.737084595407
 11
1431.204478874712
 21
1326.112084595407
  0
LINE
  5
220
100
AcDbEntity
  8
1
  6
CONTINUOUS
 62
           2
100
AcDbLine
 10
1431.204478874712
 20
1326.112084595407
 11
1431.641978874712
 21
1328.737084595407
  0
LINE
  5
21F
100
AcDbEntity
  8
1
  6
CONTINUOUS
 62
           2
100
AcDbLine
 10
1431.641978874712
 20
1328.737084595407
 11
1432.516978874712
 21
1330.487084595407
  0
LINE
  5
21E
100
AcDbEntity
  8
1
  6
CONTINUOUS
 62
           2
100
AcDbLine
 10
1432.516978874712
 20
1330.487084595407
 11
1433.391978874712
 21
1331.362084595407
  0
LINE
  5
21D
100
AcDbEntity
  8
1
  6
CONTINUOUS
 62
           2
100
AcDbLine
 10
1433.391978874712
 20
1331.362084595407
 11
1434.704478874712
 21
1332.237084595407
  0
LINE
  5
21C
100
AcDbEntity
  8
1
  6
CONTINUOUS
 62
           2
100
AcDbLine
 10
1434.704478874712
 20
1332.237084595407
 11
1436.016978874712
 21
1332.674584595407
  0
LINE
  5
21B
100
AcDbEntity
  8
1
  6
CONTINUOUS
 62
           2
100
AcDbLine
 10
1436.016978874712
 20
1332.674584595407
 11
1436.891978874712
 21
1332.674584595407
  0
LINE
  5
21A
100
AcDbEntity
  8
1
  6
CONTINUOUS
 62
           2
100
AcDbLine
 10
1436.891978874712
 20
1332.674584595407
 11
1438.204478874712
 21
1332.237084595407
  0
LINE
  5
219
100
AcDbEntity
  8
1
  6
CONTINUOUS
 62
           2
100
AcDbLine
 10
1438.204478874712
 20
1332.237084595407
 11
1439.516978874712
 21
1331.362084595407
  0
LINE
  5
218
100
AcDbEntity
  8
1
  6
CONTINUOUS
 62
           2
100
AcDbLine
 10
1439.516978874712
 20
1331.362084595407
 11
1440.391978874712
 21
1330.487084595407
  0
LINE
  5
217
100
AcDbEntity
  8
1
  6
CONTINUOUS
 62
           2
100
AcDbLine
 10
1440.391978874712
 20
1330.487084595407
 11
1441.266978874712
 21
1328.737084595407
  0
LINE
  5
216
100
AcDbEntity
  8
1
  6
CONTINUOUS
 62
           2
100
AcDbLine
 10
1441.266978874712
 20
1328.737084595407
 11
1441.704478874712
 21
1326.112084595407
  0
LINE
  5
215
100
AcDbEntity
  8
1
  6
CONTINUOUS
 62
           2
100
AcDbLine
 10
1441.704478874712
 20
1326.112084595407
 11
1441.704478874712
 21
1321.737084595407
  0
LINE
  5
214
100
AcDbEntity
  8
1
  6
CONTINUOUS
 62
           2
100
AcDbLine
 10
1457.454478874712
 20
1315.174584595407
 11
1451.766978874712
 21
1315.174584595407
  0
LINE
  5
213
100
AcDbEntity
  8
1
  6
CONTINUOUS
 62
           2
100
AcDbLine
 10
1451.766978874712
 20
1315.174584595407
 11
1450.016978874712
 21
1315.612084595407
  0
LINE
  5
212
100
AcDbEntity
  8
1
  6
CONTINUOUS
 62
           2
100
AcDbLine
 10
1450.016978874712
 20
1315.612084595407
 11
1448.704478874712
 21
1316.487084595407
  0
LINE
  5
211
100
AcDbEntity
  8
1
  6
CONTINUOUS
 62
           2
100
AcDbLine
 10
1448.704478874712
 20
1316.487084595407
 11
1447.829478874712
 21
1317.362084595407
  0
LINE
  5
210
100
AcDbEntity
  8
1
  6
CONTINUOUS
 62
           2
100
AcDbLine
 10
1447.829478874712
 20
1317.362084595407
 11
1447.391978874712
 21
1318.674584595407
  0
LINE
  5
20F
100
AcDbEntity
  8
1
  6
CONTINUOUS
 62
           2
100
AcDbLine
 10
1447.391978874712
 20
1318.674584595407
 11
1446.954478874712
 21
1320.424584595407
  0
LINE
  5
20E
100
AcDbEntity
  8
1
  6
CONTINUOUS
 62
           2
100
AcDbLine
 10
1446.954478874712
 20
1320.424584595407
 11
1446.954478874712
 21
1327.424584595407
  0
LINE
  5
20D
100
AcDbEntity
  8
1
  6
CONTINUOUS
 62
           2
100
AcDbLine
 10
1446.954478874712
 20
1327.424584595407
 11
1447.391978874712
 21
1329.174584595407
  0
LINE
  5
20C
100
AcDbEntity
  8
1
  6
CONTINUOUS
 62
           2
100
AcDbLine
 10
1447.391978874712
 20
1329.174584595407
 11
1447.829478874712
 21
1330.487084595407
  0
LINE
  5
20B
100
AcDbEntity
  8
1
  6
CONTINUOUS
 62
           2
100
AcDbLine
 10
1447.829478874712
 20
1330.487084595407
 11
1448.704478874712
 21
1331.362084595407
  0
LINE
  5
20A
100
AcDbEntity
  8
1
  6
CONTINUOUS
 62
           2
100
AcDbLine
 10
1448.704478874712
 20
1331.362084595407
 11
1450.016978874712
 21
1332.237084595407
  0
LINE
  5
209
100
AcDbEntity
  8
1
  6
CONTINUOUS
 62
           2
100
AcDbLine
 10
1450.016978874712
 20
1332.237084595407
 11
1451.766978874712
 21
1332.674584595407
  0
LINE
  5
208
100
AcDbEntity
  8
1
  6
CONTINUOUS
 62
           2
100
AcDbLine
 10
1451.766978874712
 20
1332.674584595407
 11
1457.454478874712
 21
1332.674584595407
  0
LINE
  5
207
100
AcDbEntity
  8
1
  6
CONTINUOUS
 62
           2
100
AcDbLine
 10
1462.704478874712
 20
1321.299584595407
 11
1471.454478874712
 21
1321.299584595407
  0
LINE
  5
206
100
AcDbEntity
  8
1
  6
CONTINUOUS
 62
           2
100
AcDbLine
 10
1476.704478874712
 20
1327.424584595407
 11
1481.954478874712
 21
1332.674584595407
  0
LINE
  5
205
100
AcDbEntity
  8
1
  6
CONTINUOUS
 62
           2
100
AcDbLine
 10
1481.954478874712
 20
1332.674584595407
 11
1481.954478874712
 21
1315.174584595407
  0
LINE
  5
204
100
AcDbEntity
  8
1
  6
CONTINUOUS
 62
           2
100
AcDbLine
 10
1497.704478874712
 20
1321.737084595407
 11
1497.266978874712
 21
1319.112084595407
  0
LINE
  5
203
100
AcDbEntity
  8
1
  6
CONTINUOUS
 62
           2
100
AcDbLine
 10
1497.266978874712
 20
1319.112084595407
 11
1496.391978874712
 21
1317.362084595407
  0
LINE
  5
202
100
AcDbEntity
  8
1
  6
CONTINUOUS
 62
           2
100
AcDbLine
 10
1496.391978874712
 20
1317.362084595407
 11
1495.516978874712
 21
1316.487084595407
  0
LINE
  5
201
100
AcDbEntity
  8
1
  6
CONTINUOUS
 62
           2
100
AcDbLine
 10
1495.516978874712
 20
1316.487084595407
 11
1494.204478874712
 21
1315.612084595407
  0
LINE
  5
200
100
AcDbEntity
  8
1
  6
CONTINUOUS
 62
           2
100
AcDbLine
 10
1494.204478874712
 20
1315.612084595407
 11
1492.891978874712
 21
1315.174584595407
  0
LINE
  5
1FF
100
AcDbEntity
  8
1
  6
CONTINUOUS
 62
           2
100
AcDbLine
 10
1492.891978874712
 20
1315.174584595407
 11
1492.016978874712
 21
1315.174584595407
  0
LINE
  5
1FE
100
AcDbEntity
  8
1
  6
CONTINUOUS
 62
           2
100
AcDbLine
 10
1492.016978874712
 20
1315.174584595407
 11
1490.704478874712
 21
1315.612084595407
  0
LINE
  5
1FD
100
AcDbEntity
  8
1
  6
CONTINUOUS
 62
           2
100
AcDbLine
 10
1490.704478874712
 20
1315.612084595407
 11
1489.391978874712
 21
1316.487084595407
  0
LINE
  5
1FC
100
AcDbEntity
  8
1
  6
CONTINUOUS
 62
           2
100
AcDbLine
 10
1489.391978874712
 20
1316.487084595407
 11
1488.516978874712
 21
1317.362084595407
  0
LINE
  5
1FB
100
AcDbEntity
  8
1
  6
CONTINUOUS
 62
           2
100
AcDbLine
 10
1488.516978874712
 20
1317.362084595407
 11
1487.641978874712
 21
1319.112084595407
  0
LINE
  5
1FA
100
AcDbEntity
  8
1
  6
CONTINUOUS
 62
           2
100
AcDbLine
 10
1487.641978874712
 20
1319.112084595407
 11
1487.204478874712
 21
1321.737084595407
  0
LINE
  5
1F9
100
AcDbEntity
  8
1
  6
CONTINUOUS
 62
           2
100
AcDbLine
 10
1487.204478874712
 20
1321.737084595407
 11
1487.204478874712
 21
1326.112084595407
  0
LINE
  5
1F8
100
AcDbEntity
  8
1
  6
CONTINUOUS
 62
           2
100
AcDbLine
 10
1487.204478874712
 20
1326.112084595407
 11
1487.641978874712
 21
1328.737084595407
  0
LINE
  5
1F7
100
AcDbEntity
  8
1
  6
CONTINUOUS
 62
           2
100
AcDbLine
 10
1487.641978874712
 20
1328.737084595407
 11
1488.516978874712
 21
1330.487084595407
  0
LINE
  5
1F6
100
AcDbEntity
  8
1
  6
CONTINUOUS
 62
           2
100
AcDbLine
 10
1488.516978874712
 20
1330.487084595407
 11
1489.391978874712
 21
1331.362084595407
  0
LINE
  5
1F5
100
AcDbEntity
  8
1
  6
CONTINUOUS
 62
           2
100
AcDbLine
 10
1489.391978874712
 20
1331.362084595407
 11
1490.704478874712
 21
1332.237084595407
  0
LINE
  5
1F4
100
AcDbEntity
  8
1
  6
CONTINUOUS
 62
           2
100
AcDbLine
 10
1490.704478874712
 20
1332.237084595407
 11
1492.016978874712
 21
1332.674584595407
  0
LINE
  5
1F3
100
AcDbEntity
  8
1
  6
CONTINUOUS
 62
           2
100
AcDbLine
 10
1492.016978874712
 20
1332.674584595407
 11
1492.891978874712
 21
1332.674584595407
  0
LINE
  5
1F2
100
AcDbEntity
  8
1
  6
CONTINUOUS
 62
           2
100
AcDbLine
 10
1492.891978874712
 20
1332.674584595407
 11
1494.204478874712
 21
1332.237084595407
  0
LINE
  5
1F1
100
AcDbEntity
  8
1
  6
CONTINUOUS
 62
           2
100
AcDbLine
 10
1494.204478874712
 20
1332.237084595407
 11
1495.516978874712
 21
1331.362084595407
  0
LINE
  5
1F0
100
AcDbEntity
  8
1
  6
CONTINUOUS
 62
           2
100
AcDbLine
 10
1495.516978874712
 20
1331.362084595407
 11
1496.391978874712
 21
1330.487084595407
  0
LINE
  5
1EF
100
AcDbEntity
  8
1
  6
CONTINUOUS
 62
           2
100
AcDbLine
 10
1496.391978874712
 20
1330.487084595407
 11
1497.266978874712
 21
1328.737084595407
  0
LINE
  5
1EE
100
AcDbEntity
  8
1
  6
CONTINUOUS
 62
           2
100
AcDbLine
 10
1497.266978874712
 20
1328.737084595407
 11
1497.704478874712
 21
1326.112084595407
  0
LINE
  5
1ED
100
AcDbEntity
  8
1
  6
CONTINUOUS
 62
           2
100
AcDbLine
 10
1497.704478874712
 20
1326.112084595407
 11
1497.704478874712
 21
1321.737084595407
  0
LINE
  5
1EC
100
AcDbEntity
  8
1
  6
CONTINUOUS
 62
           2
100
AcDbLine
 10
1513.454478874712
 20
1321.737084595407
 11
1513.016978874712
 21
1319.112084595407
  0
LINE
  5
1EB
100
AcDbEntity
  8
1
  6
CONTINUOUS
 62
           2
100
AcDbLine
 10
1513.016978874712
 20
1319.112084595407
 11
1512.141978874712
 21
1317.362084595407
  0
LINE
  5
1EA
100
AcDbEntity
  8
1
  6
CONTINUOUS
 62
           2
100
AcDbLine
 10
1512.141978874712
 20
1317.362084595407
 11
1511.266978874712
 21
1316.487084595407
  0
LINE
  5
1E9
100
AcDbEntity
  8
1
  6
CONTINUOUS
 62
           2
100
AcDbLine
 10
1511.266978874712
 20
1316.487084595407
 11
1509.954478874712
 21
1315.612084595407
  0
LINE
  5
1E8
100
AcDbEntity
  8
1
  6
CONTINUOUS
 62
           2
100
AcDbLine
 10
1509.954478874712
 20
1315.612084595407
 11
1508.641978874712
 21
1315.174584595407
  0
LINE
  5
1E7
100
AcDbEntity
  8
1
  6
CONTINUOUS
 62
           2
100
AcDbLine
 10
1508.641978874712
 20
1315.174584595407
 11
1507.766978874712
 21
1315.174584595407
  0
LINE
  5
1E6
100
AcDbEntity
  8
1
  6
CONTINUOUS
 62
           2
100
AcDbLine
 10
1507.766978874712
 20
1315.174584595407
 11
1506.454478874712
 21
1315.612084595407
  0
LINE
  5
1E5
100
AcDbEntity
  8
1
  6
CONTINUOUS
 62
           2
100
AcDbLine
 10
1506.454478874712
 20
1315.612084595407
 11
1505.141978874712
 21
1316.487084595407
  0
LINE
  5
1E4
100
AcDbEntity
  8
1
  6
CONTINUOUS
 62
           2
100
AcDbLine
 10
1505.141978874712
 20
1316.487084595407
 11
1504.266978874712
 21
1317.362084595407
  0
LINE
  5
1E3
100
AcDbEntity
  8
1
  6
CONTINUOUS
 62
           2
100
AcDbLine
 10
1504.266978874712
 20
1317.362084595407
 11
1503.391978874712
 21
1319.112084595407
  0
LINE
  5
1E2
100
AcDbEntity
  8
1
  6
CONTINUOUS
 62
           2
100
AcDbLine
 10
1503.391978874712
 20
1319.112084595407
 11
1502.954478874712
 21
1321.737084595407
  0
LINE
  5
1E1
100
AcDbEntity
  8
1
  6
CONTINUOUS
 62
           2
100
AcDbLine
 10
1502.954478874712
 20
1321.737084595407
 11
1502.954478874712
 21
1326.112084595407
  0
LINE
  5
1E0
100
AcDbEntity
  8
1
  6
CONTINUOUS
 62
           2
100
AcDbLine
 10
1502.954478874712
 20
1326.112084595407
 11
1503.391978874712
 21
1328.737084595407
  0
LINE
  5
1DF
100
AcDbEntity
  8
1
  6
CONTINUOUS
 62
           2
100
AcDbLine
 10
1503.391978874712
 20
1328.737084595407
 11
1504.266978874712
 21
1330.487084595407
  0
LINE
  5
1DE
100
AcDbEntity
  8
1
  6
CONTINUOUS
 62
           2
100
AcDbLine
 10
1504.266978874712
 20
1330.487084595407
 11
1505.141978874712
 21
1331.362084595407
  0
LINE
  5
1DD
100
AcDbEntity
  8
1
  6
CONTINUOUS
 62
           2
100
AcDbLine
 10
1505.141978874712
 20
1331.362084595407
 11
1506.454478874712
 21
1332.237084595407
  0
LINE
  5
1DC
100
AcDbEntity
  8
1
  6
CONTINUOUS
 62
           2
100
AcDbLine
 10
1506.454478874712
 20
1332.237084595407
 11
1507.766978874712
 21
1332.674584595407
  0
LINE
  5
1DB
100
AcDbEntity
  8
1
  6
CONTINUOUS
 62
           2
100
AcDbLine
 10
1507.766978874712
 20
1332.674584595407
 11
1508.641978874712
 21
1332.674584595407
  0
LINE
  5
1DA
100
AcDbEntity
  8
1
  6
CONTINUOUS
 62
           2
100
AcDbLine
 10
1508.641978874712
 20
1332.674584595407
 11
1509.954478874712
 21
1332.237084595407
  0
LINE
  5
1D9
100
AcDbEntity
  8
1
  6
CONTINUOUS
 62
           2
100
AcDbLine
 10
1509.954478874712
 20
1332.237084595407
 11
1511.266978874712
 21
1331.362084595407
  0
LINE
  5
1D8
100
AcDbEntity
  8
1
  6
CONTINUOUS
 62
           2
100
AcDbLine
 10
1511.266978874712
 20
1331.362084595407
 11
1512.141978874712
 21
1330.487084595407
  0
LINE
  5
1D7
100
AcDbEntity
  8
1
  6
CONTINUOUS
 62
           2
100
AcDbLine
 10
1512.141978874712
 20
1330.487084595407
 11
1513.016978874712
 21
1328.737084595407
  0
LINE
  5
1D6
100
AcDbEntity
  8
1
  6
CONTINUOUS
 62
           2
100
AcDbLine
 10
1513.016978874712
 20
1328.737084595407
 11
1513.454478874712
 21
1326.112084595407
  0
LINE
  5
1D5
100
AcDbEntity
  8
1
  6
CONTINUOUS
 62
           2
100
AcDbLine
 10
1513.454478874712
 20
1326.112084595407
 11
1513.454478874712
 21
1321.737084595407
  0
LINE
  5
1D4
100
AcDbEntity
  8
1
  6
CONTINUOUS
 62
           2
100
AcDbLine
 10
238.582335909884
 20
2215.199829055724
 11
238.827335909883
 21
2215.199829055724
  0
LINE
  5
1D3
100
AcDbEntity
  8
1
  6
CONTINUOUS
 62
           2
100
AcDbLine
 10
238.337335909884
 20
2215.199829055724
 11
238.582335909884
 21
2215.199829055724
  0
LINE
  5
1D2
100
AcDbEntity
  8
1
  6
CONTINUOUS
 62
           2
100
AcDbLine
 10
238.582335909884
 20
2215.199829055724
 11
238.582335909884
 21
2214.199829055724
  0
LINE
  5
1D1
100
AcDbEntity
  8
1
  6
CONTINUOUS
 62
           2
100
AcDbLine
 10
239.387335909883
 20
2215.174829055724
 11
239.334835909884
 21
2215.199829055724
  0
LINE
  5
1D0
100
AcDbEntity
  8
1
  6
CONTINUOUS
 62
           2
100
AcDbLine
 10
239.334835909884
 20
2215.199829055724
 11
239.229835909883
 21
2215.199829055724
  0
LINE
  5
1CF
100
AcDbEntity
  8
1
  6
CONTINUOUS
 62
           2
100
AcDbLine
 10
239.229835909883
 20
2215.199829055724
 11
239.177335909884
 21
2215.174829055724
  0
LINE
  5
1CE
100
AcDbEntity
  8
1
  6
CONTINUOUS
 62
           2
100
AcDbLine
 10
239.177335909884
 20
2215.174829055724
 11
239.124835909884
 21
2215.124829055724
  0
LINE
  5
1CD
100
AcDbEntity
  8
1
  6
CONTINUOUS
 62
           2
100
AcDbLine
 10
239.124835909884
 20
2215.124829055724
 11
239.089835909884
 21
2215.074829055724
  0
LINE
  5
1CC
100
AcDbEntity
  8
1
  6
CONTINUOUS
 62
           2
100
AcDbLine
 10
239.089835909884
 20
2215.074829055724
 11
239.054835909884
 21
2214.999829055724
  0
LINE
  5
1CB
100
AcDbEntity
  8
1
  6
CONTINUOUS
 62
           2
100
AcDbLine
 10
239.054835909884
 20
2214.999829055724
 11
239.037335909884
 21
2214.899829055724
  0
LINE
  5
1CA
100
AcDbEntity
  8
1
  6
CONTINUOUS
 62
           2
100
AcDbLine
 10
239.037335909884
 20
2214.899829055724
 11
239.037335909884
 21
2214.499829055724
  0
LINE
  5
1C9
100
AcDbEntity
  8
1
  6
CONTINUOUS
 62
           2
100
AcDbLine
 10
239.037335909884
 20
2214.499829055724
 11
239.054835909884
 21
2214.399829055724
  0
LINE
  5
1C8
100
AcDbEntity
  8
1
  6
CONTINUOUS
 62
           2
100
AcDbLine
 10
239.054835909884
 20
2214.399829055724
 11
239.089835909884
 21
2214.324829055724
  0
LINE
  5
1C7
100
AcDbEntity
  8
1
  6
CONTINUOUS
 62
           2
100
AcDbLine
 10
239.089835909884
 20
2214.324829055724
 11
239.124835909884
 21
2214.274829055724
  0
LINE
  5
1C6
100
AcDbEntity
  8
1
  6
CONTINUOUS
 62
           2
100
AcDbLine
 10
239.124835909884
 20
2214.274829055724
 11
239.177335909884
 21
2214.224829055724
  0
LINE
  5
1C5
100
AcDbEntity
  8
1
  6
CONTINUOUS
 62
           2
100
AcDbLine
 10
239.177335909884
 20
2214.224829055724
 11
239.229835909883
 21
2214.199829055724
  0
LINE
  5
1C4
100
AcDbEntity
  8
1
  6
CONTINUOUS
 62
           2
100
AcDbLine
 10
239.229835909883
 20
2214.199829055724
 11
239.334835909884
 21
2214.199829055724
  0
LINE
  5
1C3
100
AcDbEntity
  8
1
  6
CONTINUOUS
 62
           2
100
AcDbLine
 10
239.334835909884
 20
2214.199829055724
 11
239.387335909883
 21
2214.224829055724
  0
LINE
  5
1C2
100
AcDbEntity
  8
1
  6
CONTINUOUS
 62
           2
100
AcDbLine
 10
239.387335909883
 20
2214.224829055724
 11
239.439835909884
 21
2214.274829055724
  0
LINE
  5
1C1
100
AcDbEntity
  8
1
  6
CONTINUOUS
 62
           2
100
AcDbLine
 10
239.439835909884
 20
2214.274829055724
 11
239.474835909884
 21
2214.324829055724
  0
LINE
  5
1C0
100
AcDbEntity
  8
1
  6
CONTINUOUS
 62
           2
100
AcDbLine
 10
239.474835909884
 20
2214.324829055724
 11
239.509835909883
 21
2214.399829055724
  0
LINE
  5
1BF
100
AcDbEntity
  8
1
  6
CONTINUOUS
 62
           2
100
AcDbLine
 10
239.509835909883
 20
2214.399829055724
 11
239.527335909884
 21
2214.499829055724
  0
LINE
  5
1BE
100
AcDbEntity
  8
1
  6
CONTINUOUS
 62
           2
100
AcDbLine
 10
239.527335909884
 20
2214.499829055724
 11
239.527335909884
 21
2214.899829055724
  0
LINE
  5
1BD
100
AcDbEntity
  8
1
  6
CONTINUOUS
 62
           2
100
AcDbLine
 10
239.527335909884
 20
2214.899829055724
 11
239.509835909883
 21
2214.999829055724
  0
LINE
  5
1BC
100
AcDbEntity
  8
1
  6
CONTINUOUS
 62
           2
100
AcDbLine
 10
239.509835909883
 20
2214.999829055724
 11
239.474835909884
 21
2215.074829055724
  0
LINE
  5
1BB
100
AcDbEntity
  8
1
  6
CONTINUOUS
 62
           2
100
AcDbLine
 10
239.474835909884
 20
2215.074829055724
 11
239.439835909884
 21
2215.124829055724
  0
LINE
  5
1BA
100
AcDbEntity
  8
1
  6
CONTINUOUS
 62
           2
100
AcDbLine
 10
239.439835909884
 20
2215.124829055724
 11
239.387335909883
 21
2215.174829055724
  0
LINE
  5
1B9
100
AcDbEntity
  8
1
  6
CONTINUOUS
 62
           2
100
AcDbLine
 10
239.877335909884
 20
2214.699829055724
 11
239.737335909884
 21
2214.499829055724
  0
LINE
  5
1B8
100
AcDbEntity
  8
1
  6
CONTINUOUS
 62
           2
100
AcDbLine
 10
240.227335909883
 20
2215.199829055724
 11
239.877335909884
 21
2214.699829055724
  0
LINE
  5
1B7
100
AcDbEntity
  8
1
  6
CONTINUOUS
 62
           2
100
AcDbLine
 10
239.877335909884
 20
2214.699829055724
 11
240.227335909883
 21
2214.199829055724
  0
LINE
  5
1B6
100
AcDbEntity
  8
1
  6
CONTINUOUS
 62
           2
100
AcDbLine
 10
239.737335909884
 20
2214.199829055724
 11
239.737335909884
 21
2214.499829055724
  0
LINE
  5
1B5
100
AcDbEntity
  8
1
  6
CONTINUOUS
 62
           2
100
AcDbLine
 10
239.737335909884
 20
2214.499829055724
 11
239.737335909884
 21
2215.199829055724
  0
LINE
  5
1B4
100
AcDbEntity
  8
1
  6
CONTINUOUS
 62
           2
100
AcDbLine
 10
240.682335909884
 20
2214.699829055724
 11
240.927335909884
 21
2215.199829055724
  0
LINE
  5
1B3
100
AcDbEntity
  8
1
  6
CONTINUOUS
 62
           2
100
AcDbLine
 10
240.437335909884
 20
2215.199829055724
 11
240.682335909884
 21
2214.699829055724
  0
LINE
  5
1B2
100
AcDbEntity
  8
1
  6
CONTINUOUS
 62
           2
100
AcDbLine
 10
240.682335909884
 20
2214.699829055724
 11
240.682335909884
 21
2214.199829055724
  0
LINE
  5
1B1
100
AcDbEntity
  8
1
  6
CONTINUOUS
 62
           2
100
AcDbLine
 10
241.487335909884
 20
2215.174829055724
 11
241.434835909884
 21
2215.199829055724
  0
LINE
  5
1B0
100
AcDbEntity
  8
1
  6
CONTINUOUS
 62
           2
100
AcDbLine
 10
241.434835909884
 20
2215.199829055724
 11
241.329835909884
 21
2215.199829055724
  0
LINE
  5
1AF
100
AcDbEntity
  8
1
  6
CONTINUOUS
 62
           2
100
AcDbLine
 10
241.329835909884
 20
2215.199829055724
 11
241.277335909884
 21
2215.174829055724
  0
LINE
  5
1AE
100
AcDbEntity
  8
1
  6
CONTINUOUS
 62
           2
100
AcDbLine
 10
241.277335909884
 20
2215.174829055724
 11
241.224835909884
 21
2215.124829055724
  0
LINE
  5
1AD
100
AcDbEntity
  8
1
  6
CONTINUOUS
 62
           2
100
AcDbLine
 10
241.224835909884
 20
2215.124829055724
 11
241.189835909884
 21
2215.074829055724
  0
LINE
  5
1AC
100
AcDbEntity
  8
1
  6
CONTINUOUS
 62
           2
100
AcDbLine
 10
241.189835909884
 20
2215.074829055724
 11
241.154835909884
 21
2214.999829055724
  0
LINE
  5
1AB
100
AcDbEntity
  8
1
  6
CONTINUOUS
 62
           2
100
AcDbLine
 10
241.154835909884
 20
2214.999829055724
 11
241.137335909883
 21
2214.899829055724
  0
LINE
  5
1AA
100
AcDbEntity
  8
1
  6
CONTINUOUS
 62
           2
100
AcDbLine
 10
241.137335909883
 20
2214.899829055724
 11
241.137335909883
 21
2214.499829055724
  0
LINE
  5
1A9
100
AcDbEntity
  8
1
  6
CONTINUOUS
 62
           2
100
AcDbLine
 10
241.137335909883
 20
2214.499829055724
 11
241.154835909884
 21
2214.399829055724
  0
LINE
  5
1A8
100
AcDbEntity
  8
1
  6
CONTINUOUS
 62
           2
100
AcDbLine
 10
241.154835909884
 20
2214.399829055724
 11
241.189835909884
 21
2214.324829055724
  0
LINE
  5
1A7
100
AcDbEntity
  8
1
  6
CONTINUOUS
 62
           2
100
AcDbLine
 10
241.189835909884
 20
2214.324829055724
 11
241.224835909884
 21
2214.274829055724
  0
LINE
  5
1A6
100
AcDbEntity
  8
1
  6
CONTINUOUS
 62
           2
100
AcDbLine
 10
241.224835909884
 20
2214.274829055724
 11
241.277335909884
 21
2214.224829055724
  0
LINE
  5
1A5
100
AcDbEntity
  8
1
  6
CONTINUOUS
 62
           2
100
AcDbLine
 10
241.277335909884
 20
2214.224829055724
 11
241.329835909884
 21
2214.199829055724
  0
LINE
  5
1A4
100
AcDbEntity
  8
1
  6
CONTINUOUS
 62
           2
100
AcDbLine
 10
241.329835909884
 20
2214.199829055724
 11
241.434835909884
 21
2214.199829055724
  0
LINE
  5
1A3
100
AcDbEntity
  8
1
  6
CONTINUOUS
 62
           2
100
AcDbLine
 10
241.434835909884
 20
2214.199829055724
 11
241.487335909884
 21
2214.224829055724
  0
LINE
  5
1A2
100
AcDbEntity
  8
1
  6
CONTINUOUS
 62
           2
100
AcDbLine
 10
241.487335909884
 20
2214.224829055724
 11
241.539835909883
 21
2214.274829055724
  0
LINE
  5
1A1
100
AcDbEntity
  8
1
  6
CONTINUOUS
 62
           2
100
AcDbLine
 10
241.539835909883
 20
2214.274829055724
 11
241.574835909883
 21
2214.324829055724
  0
LINE
  5
1A0
100
AcDbEntity
  8
1
  6
CONTINUOUS
 62
           2
100
AcDbLine
 10
241.574835909883
 20
2214.324829055724
 11
241.609835909883
 21
2214.399829055724
  0
LINE
  5
19F
100
AcDbEntity
  8
1
  6
CONTINUOUS
 62
           2
100
AcDbLine
 10
241.609835909883
 20
2214.399829055724
 11
241.627335909884
 21
2214.499829055724
  0
LINE
  5
19E
100
AcDbEntity
  8
1
  6
CONTINUOUS
 62
           2
100
AcDbLine
 10
241.627335909884
 20
2214.499829055724
 11
241.627335909884
 21
2214.899829055724
  0
LINE
  5
19D
100
AcDbEntity
  8
1
  6
CONTINUOUS
 62
           2
100
AcDbLine
 10
241.627335909884
 20
2214.899829055724
 11
241.609835909883
 21
2214.999829055724
  0
LINE
  5
19C
100
AcDbEntity
  8
1
  6
CONTINUOUS
 62
           2
100
AcDbLine
 10
241.609835909883
 20
2214.999829055724
 11
241.574835909883
 21
2215.074829055724
  0
LINE
  5
19B
100
AcDbEntity
  8
1
  6
CONTINUOUS
 62
           2
100
AcDbLine
 10
241.574835909883
 20
2215.074829055724
 11
241.539835909883
 21
2215.124829055724
  0
LINE
  5
19A
100
AcDbEntity
  8
1
  6
CONTINUOUS
 62
           2
100
AcDbLine
 10
241.539835909883
 20
2215.124829055724
 11
241.487335909884
 21
2215.174829055724
  0
LINE
  5
199
100
AcDbEntity
  8
1
  6
CONTINUOUS
 62
           2
100
AcDbLine
 10
232.733099897178
 20
2225.542679944893
 11
232.733099897178
 21
2226.542679944893
  0
LINE
  5
198
100
AcDbEntity
  8
1
  6
CONTINUOUS
 62
           2
100
AcDbLine
 10
232.733099897178
 20
2226.542679944893
 11
232.733099897178
 21
2227.542679944893
  0
LINE
  5
197
100
AcDbEntity
  8
1
  6
CONTINUOUS
 62
           2
100
AcDbLine
 10
232.733099897178
 20
2227.542679944893
 11
233.208099897178
 21
2227.542679944893
  0
LINE
  5
196
100
AcDbEntity
  8
1
  6
CONTINUOUS
 62
           2
100
AcDbLine
 10
233.208099897178
 20
2227.542679944893
 11
233.308099897178
 21
2227.492679944893
  0
LINE
  5
195
100
AcDbEntity
  8
1
  6
CONTINUOUS
 62
           2
100
AcDbLine
 10
233.308099897178
 20
2227.492679944893
 11
233.383099897177
 21
2227.392679944893
  0
LINE
  5
194
100
AcDbEntity
  8
1
  6
CONTINUOUS
 62
           2
100
AcDbLine
 10
233.383099897177
 20
2227.392679944893
 11
233.408099897177
 21
2227.292679944893
  0
LINE
  5
193
100
AcDbEntity
  8
1
  6
CONTINUOUS
 62
           2
100
AcDbLine
 10
233.408099897177
 20
2227.292679944893
 11
233.433099897178
 21
2227.142679944893
  0
LINE
  5
192
100
AcDbEntity
  8
1
  6
CONTINUOUS
 62
           2
100
AcDbLine
 10
233.433099897178
 20
2227.142679944893
 11
233.433099897178
 21
2226.942679944893
  0
LINE
  5
191
100
AcDbEntity
  8
1
  6
CONTINUOUS
 62
           2
100
AcDbLine
 10
233.433099897178
 20
2226.942679944893
 11
233.408099897177
 21
2226.792679944893
  0
LINE
  5
190
100
AcDbEntity
  8
1
  6
CONTINUOUS
 62
           2
100
AcDbLine
 10
233.408099897177
 20
2226.792679944893
 11
233.383099897177
 21
2226.692679944893
  0
LINE
  5
18F
100
AcDbEntity
  8
1
  6
CONTINUOUS
 62
           2
100
AcDbLine
 10
233.383099897177
 20
2226.692679944893
 11
233.308099897178
 21
2226.592679944893
  0
LINE
  5
18E
100
AcDbEntity
  8
1
  6
CONTINUOUS
 62
           2
100
AcDbLine
 10
233.308099897178
 20
2226.592679944893
 11
233.208099897178
 21
2226.542679944893
  0
LINE
  5
18D
100
AcDbEntity
  8
1
  6
CONTINUOUS
 62
           2
100
AcDbLine
 10
233.208099897178
 20
2226.542679944893
 11
232.733099897178
 21
2226.542679944893
  0
LINE
  5
18C
100
AcDbEntity
  8
1
  6
CONTINUOUS
 62
           2
100
AcDbLine
 10
234.133099897177
 20
2226.542679944893
 11
233.733099897178
 21
2226.542679944893
  0
LINE
  5
18B
100
AcDbEntity
  8
1
  6
CONTINUOUS
 62
           2
100
AcDbLine
 10
233.733099897178
 20
2226.542679944893
 11
233.733099897178
 21
2227.542679944893
  0
LINE
  5
18A
100
AcDbEntity
  8
1
  6
CONTINUOUS
 62
           2
100
AcDbLine
 10
233.733099897178
 20
2227.542679944893
 11
234.208099897178
 21
2227.542679944893
  0
LINE
  5
189
100
AcDbEntity
  8
1
  6
CONTINUOUS
 62
           2
100
AcDbLine
 10
234.208099897178
 20
2227.542679944893
 11
234.308099897178
 21
2227.492679944893
  0
LINE
  5
188
100
AcDbEntity
  8
1
  6
CONTINUOUS
 62
           2
100
AcDbLine
 10
234.308099897178
 20
2227.492679944893
 11
234.383099897177
 21
2227.392679944893
  0
LINE
  5
187
100
AcDbEntity
  8
1
  6
CONTINUOUS
 62
           2
100
AcDbLine
 10
234.383099897177
 20
2227.392679944893
 11
234.408099897177
 21
2227.292679944893
  0
LINE
  5
186
100
AcDbEntity
  8
1
  6
CONTINUOUS
 62
           2
100
AcDbLine
 10
234.408099897177
 20
2227.292679944893
 11
234.433099897178
 21
2227.142679944893
  0
LINE
  5
185
100
AcDbEntity
  8
1
  6
CONTINUOUS
 62
           2
100
AcDbLine
 10
234.433099897178
 20
2227.142679944893
 11
234.433099897178
 21
2226.942679944893
  0
LINE
  5
184
100
AcDbEntity
  8
1
  6
CONTINUOUS
 62
           2
100
AcDbLine
 10
234.433099897178
 20
2226.942679944893
 11
234.408099897177
 21
2226.792679944893
  0
LINE
  5
183
100
AcDbEntity
  8
1
  6
CONTINUOUS
 62
           2
100
AcDbLine
 10
234.408099897177
 20
2226.792679944893
 11
234.383099897177
 21
2226.692679944893
  0
LINE
  5
182
100
AcDbEntity
  8
1
  6
CONTINUOUS
 62
           2
100
AcDbLine
 10
234.383099897177
 20
2226.692679944893
 11
234.308099897178
 21
2226.592679944893
  0
LINE
  5
181
100
AcDbEntity
  8
1
  6
CONTINUOUS
 62
           2
100
AcDbLine
 10
234.308099897178
 20
2226.592679944893
 11
234.208099897178
 21
2226.542679944893
  0
LINE
  5
180
100
AcDbEntity
  8
1
  6
CONTINUOUS
 62
           2
100
AcDbLine
 10
234.208099897178
 20
2226.542679944893
 11
234.133099897177
 21
2226.542679944893
  0
LINE
  5
17F
100
AcDbEntity
  8
1
  6
CONTINUOUS
 62
           2
100
AcDbLine
 10
234.133099897177
 20
2226.542679944893
 11
234.433099897178
 21
2225.542679944893
  0
LINE
  5
17E
100
AcDbEntity
  8
1
  6
CONTINUOUS
 62
           2
100
AcDbLine
 10
233.733099897178
 20
2225.542679944893
 11
233.733099897178
 21
2226.542679944893
  0
LINE
  5
17D
100
AcDbEntity
  8
1
  6
CONTINUOUS
 62
           2
100
AcDbLine
 10
235.333099897178
 20
2226.642679944893
 11
234.733099897178
 21
2226.642679944893
  0
LINE
  5
17C
100
AcDbEntity
  8
1
  6
CONTINUOUS
 62
           2
100
AcDbLine
 10
235.433099897178
 20
2227.542679944893
 11
234.733099897178
 21
2227.542679944893
  0
LINE
  5
17B
100
AcDbEntity
  8
1
  6
CONTINUOUS
 62
           2
100
AcDbLine
 10
234.733099897178
 20
2227.542679944893
 11
234.733099897178
 21
2226.642679944893
  0
LINE
  5
17A
100
AcDbEntity
  8
1
  6
CONTINUOUS
 62
           2
100
AcDbLine
 10
234.733099897178
 20
2226.542679944893
 11
234.733099897178
 21
2225.542679944893
  0
LINE
  5
179
100
AcDbEntity
  8
1
  6
CONTINUOUS
 62
           2
100
AcDbLine
 10
234.733099897178
 20
2225.542679944893
 11
235.433099897178
 21
2225.542679944893
  0
LINE
  5
178
100
AcDbEntity
  8
1
  6
CONTINUOUS
 62
           2
100
AcDbLine
 10
234.733099897178
 20
2226.642679944893
 11
234.733099897178
 21
2226.542679944893
  0
LINE
  5
177
100
AcDbEntity
  8
1
  6
CONTINUOUS
 62
           2
100
AcDbLine
 10
236.408099897177
 20
2227.342679944893
 11
236.333099897178
 21
2227.442679944893
  0
LINE
  5
176
100
AcDbEntity
  8
1
  6
CONTINUOUS
 62
           2
100
AcDbLine
 10
236.333099897178
 20
2227.442679944893
 11
236.258099897177
 21
2227.492679944893
  0
LINE
  5
175
100
AcDbEntity
  8
1
  6
CONTINUOUS
 62
           2
100
AcDbLine
 10
236.258099897177
 20
2227.492679944893
 11
236.133099897177
 21
2227.542679944893
  0
LINE
  5
174
100
AcDbEntity
  8
1
  6
CONTINUOUS
 62
           2
100
AcDbLine
 10
236.133099897177
 20
2227.542679944893
 11
236.033099897177
 21
2227.542679944893
  0
LINE
  5
173
100
AcDbEntity
  8
1
  6
CONTINUOUS
 62
           2
100
AcDbLine
 10
236.033099897177
 20
2227.542679944893
 11
235.933099897178
 21
2227.492679944893
  0
LINE
  5
172
100
AcDbEntity
  8
1
  6
CONTINUOUS
 62
           2
100
AcDbLine
 10
235.933099897178
 20
2227.492679944893
 11
235.858099897178
 21
2227.442679944893
  0
LINE
  5
171
100
AcDbEntity
  8
1
  6
CONTINUOUS
 62
           2
100
AcDbLine
 10
235.858099897178
 20
2227.442679944893
 11
235.783099897177
 21
2227.342679944893
  0
LINE
  5
170
100
AcDbEntity
  8
1
  6
CONTINUOUS
 62
           2
100
AcDbLine
 10
235.783099897177
 20
2227.342679944893
 11
235.758099897177
 21
2227.192679944893
  0
LINE
  5
16F
100
AcDbEntity
  8
1
  6
CONTINUOUS
 62
           2
100
AcDbLine
 10
235.758099897177
 20
2227.192679944893
 11
235.758099897177
 21
2227.092679944893
  0
LINE
  5
16E
100
AcDbEntity
  8
1
  6
CONTINUOUS
 62
           2
100
AcDbLine
 10
235.758099897177
 20
2227.092679944893
 11
235.783099897177
 21
2226.942679944893
  0
LINE
  5
16D
100
AcDbEntity
  8
1
  6
CONTINUOUS
 62
           2
100
AcDbLine
 10
235.783099897177
 20
2226.942679944893
 11
235.858099897178
 21
2226.842679944893
  0
LINE
  5
16C
100
AcDbEntity
  8
1
  6
CONTINUOUS
 62
           2
100
AcDbLine
 10
235.858099897178
 20
2226.842679944893
 11
236.283099897177
 21
2226.492679944893
  0
LINE
  5
16B
100
AcDbEntity
  8
1
  6
CONTINUOUS
 62
           2
100
AcDbLine
 10
236.283099897177
 20
2226.492679944893
 11
236.358099897178
 21
2226.392679944893
  0
LINE
  5
16A
100
AcDbEntity
  8
1
  6
CONTINUOUS
 62
           2
100
AcDbLine
 10
236.358099897178
 20
2226.392679944893
 11
236.408099897177
 21
2226.242679944893
  0
LINE
  5
169
100
AcDbEntity
  8
1
  6
CONTINUOUS
 62
           2
100
AcDbLine
 10
236.408099897177
 20
2226.242679944893
 11
236.433099897178
 21
2226.092679944893
  0
LINE
  5
168
100
AcDbEntity
  8
1
  6
CONTINUOUS
 62
           2
100
AcDbLine
 10
236.433099897178
 20
2226.092679944893
 11
236.433099897178
 21
2225.992679944893
  0
LINE
  5
167
100
AcDbEntity
  8
1
  6
CONTINUOUS
 62
           2
100
AcDbLine
 10
236.433099897178
 20
2225.992679944893
 11
236.408099897177
 21
2225.842679944893
  0
LINE
  5
166
100
AcDbEntity
  8
1
  6
CONTINUOUS
 62
           2
100
AcDbLine
 10
236.408099897177
 20
2225.842679944893
 11
236.358099897178
 21
2225.692679944893
  0
LINE
  5
165
100
AcDbEntity
  8
1
  6
CONTINUOUS
 62
           2
100
AcDbLine
 10
236.358099897178
 20
2225.692679944893
 11
236.283099897177
 21
2225.592679944893
  0
LINE
  5
164
100
AcDbEntity
  8
1
  6
CONTINUOUS
 62
           2
100
AcDbLine
 10
236.283099897177
 20
2225.592679944893
 11
236.158099897177
 21
2225.542679944893
  0
LINE
  5
163
100
AcDbEntity
  8
1
  6
CONTINUOUS
 62
           2
100
AcDbLine
 10
236.158099897177
 20
2225.542679944893
 11
236.008099897177
 21
2225.542679944893
  0
LINE
  5
162
100
AcDbEntity
  8
1
  6
CONTINUOUS
 62
           2
100
AcDbLine
 10
236.008099897177
 20
2225.542679944893
 11
235.883099897177
 21
2225.592679944893
  0
LINE
  5
161
100
AcDbEntity
  8
1
  6
CONTINUOUS
 62
           2
100
AcDbLine
 10
235.883099897177
 20
2225.592679944893
 11
235.783099897177
 21
2225.692679944893
  0
LINE
  5
160
100
AcDbEntity
  8
1
  6
CONTINUOUS
 62
           2
100
AcDbLine
 10
235.783099897177
 20
2225.692679944893
 11
235.733099897178
 21
2225.792679944893
  0
LINE
  5
15F
100
AcDbEntity
  8
1
  6
CONTINUOUS
 62
           2
100
AcDbLine
 10
237.408099897177
 20
2227.342679944893
 11
237.333099897178
 21
2227.442679944893
  0
LINE
  5
15E
100
AcDbEntity
  8
1
  6
CONTINUOUS
 62
           2
100
AcDbLine
 10
237.333099897178
 20
2227.442679944893
 11
237.258099897177
 21
2227.492679944893
  0
LINE
  5
15D
100
AcDbEntity
  8
1
  6
CONTINUOUS
 62
           2
100
AcDbLine
 10
237.258099897177
 20
2227.492679944893
 11
237.133099897177
 21
2227.542679944893
  0
LINE
  5
15C
100
AcDbEntity
  8
1
  6
CONTINUOUS
 62
           2
100
AcDbLine
 10
237.133099897177
 20
2227.542679944893
 11
237.033099897177
 21
2227.542679944893
  0
LINE
  5
15B
100
AcDbEntity
  8
1
  6
CONTINUOUS
 62
           2
100
AcDbLine
 10
237.033099897177
 20
2227.542679944893
 11
236.933099897178
 21
2227.492679944893
  0
LINE
  5
15A
100
AcDbEntity
  8
1
  6
CONTINUOUS
 62
           2
100
AcDbLine
 10
236.933099897178
 20
2227.492679944893
 11
236.858099897178
 21
2227.442679944893
  0
LINE
  5
159
100
AcDbEntity
  8
1
  6
CONTINUOUS
 62
           2
100
AcDbLine
 10
236.858099897178
 20
2227.442679944893
 11
236.783099897177
 21
2227.342679944893
  0
LINE
  5
158
100
AcDbEntity
  8
1
  6
CONTINUOUS
 62
           2
100
AcDbLine
 10
236.783099897177
 20
2227.342679944893
 11
236.758099897177
 21
2227.192679944893
  0
LINE
  5
157
100
AcDbEntity
  8
1
  6
CONTINUOUS
 62
           2
100
AcDbLine
 10
236.758099897177
 20
2227.192679944893
 11
236.758099897177
 21
2227.092679944893
  0
LINE
  5
156
100
AcDbEntity
  8
1
  6
CONTINUOUS
 62
           2
100
AcDbLine
 10
236.758099897177
 20
2227.092679944893
 11
236.783099897177
 21
2226.942679944893
  0
LINE
  5
155
100
AcDbEntity
  8
1
  6
CONTINUOUS
 62
           2
100
AcDbLine
 10
236.783099897177
 20
2226.942679944893
 11
236.858099897178
 21
2226.842679944893
  0
LINE
  5
154
100
AcDbEntity
  8
1
  6
CONTINUOUS
 62
           2
100
AcDbLine
 10
236.858099897178
 20
2226.842679944893
 11
237.283099897177
 21
2226.492679944893
  0
LINE
  5
153
100
AcDbEntity
  8
1
  6
CONTINUOUS
 62
           2
100
AcDbLine
 10
237.283099897177
 20
2226.492679944893
 11
237.358099897178
 21
2226.392679944893
  0
LINE
  5
152
100
AcDbEntity
  8
1
  6
CONTINUOUS
 62
           2
100
AcDbLine
 10
237.358099897178
 20
2226.392679944893
 11
237.408099897177
 21
2226.242679944893
  0
LINE
  5
151
100
AcDbEntity
  8
1
  6
CONTINUOUS
 62
           2
100
AcDbLine
 10
237.408099897177
 20
2226.242679944893
 11
237.433099897178
 21
2226.092679944893
  0
LINE
  5
150
100
AcDbEntity
  8
1
  6
CONTINUOUS
 62
           2
100
AcDbLine
 10
237.433099897178
 20
2226.092679944893
 11
237.433099897178
 21
2225.992679944893
  0
LINE
  5
14F
100
AcDbEntity
  8
1
  6
CONTINUOUS
 62
           2
100
AcDbLine
 10
237.433099897178
 20
2225.992679944893
 11
237.408099897177
 21
2225.842679944893
  0
LINE
  5
14E
100
AcDbEntity
  8
1
  6
CONTINUOUS
 62
           2
100
AcDbLine
 10
237.408099897177
 20
2225.842679944893
 11
237.358099897178
 21
2225.692679944893
  0
LINE
  5
14D
100
AcDbEntity
  8
1
  6
CONTINUOUS
 62
           2
100
AcDbLine
 10
237.358099897178
 20
2225.692679944893
 11
237.283099897177
 21
2225.592679944893
  0
LINE
  5
14C
100
AcDbEntity
  8
1
  6
CONTINUOUS
 62
           2
100
AcDbLine
 10
237.283099897177
 20
2225.592679944893
 11
237.158099897177
 21
2225.542679944893
  0
LINE
  5
14B
100
AcDbEntity
  8
1
  6
CONTINUOUS
 62
           2
100
AcDbLine
 10
237.158099897177
 20
2225.542679944893
 11
237.008099897177
 21
2225.542679944893
  0
LINE
  5
14A
100
AcDbEntity
  8
1
  6
CONTINUOUS
 62
           2
100
AcDbLine
 10
237.008099897177
 20
2225.542679944893
 11
236.883099897177
 21
2225.592679944893
  0
LINE
  5
149
100
AcDbEntity
  8
1
  6
CONTINUOUS
 62
           2
100
AcDbLine
 10
236.883099897177
 20
2225.592679944893
 11
236.783099897177
 21
2225.692679944893
  0
LINE
  5
148
100
AcDbEntity
  8
1
  6
CONTINUOUS
 62
           2
100
AcDbLine
 10
236.783099897177
 20
2225.692679944893
 11
236.733099897178
 21
2225.792679944893
  0
LINE
  5
147
100
AcDbEntity
  8
1
  6
CONTINUOUS
 62
           2
100
AcDbLine
 10
238.433099897178
 20
2227.542679944893
 11
238.433099897178
 21
2226.142679944893
  0
LINE
  5
146
100
AcDbEntity
  8
1
  6
CONTINUOUS
 62
           2
100
AcDbLine
 10
238.433099897178
 20
2226.142679944893
 11
238.408099897177
 21
2225.942679944893
  0
LINE
  5
145
100
AcDbEntity
  8
1
  6
CONTINUOUS
 62
           2
100
AcDbLine
 10
238.408099897177
 20
2225.942679944893
 11
238.358099897178
 21
2225.792679944893
  0
LINE
  5
144
100
AcDbEntity
  8
1
  6
CONTINUOUS
 62
           2
100
AcDbLine
 10
238.358099897178
 20
2225.792679944893
 11
238.308099897178
 21
2225.692679944893
  0
LINE
  5
143
100
AcDbEntity
  8
1
  6
CONTINUOUS
 62
           2
100
AcDbLine
 10
238.308099897178
 20
2225.692679944893
 11
238.233099897178
 21
2225.592679944893
  0
LINE
  5
142
100
AcDbEntity
  8
1
  6
CONTINUOUS
 62
           2
100
AcDbLine
 10
238.233099897178
 20
2225.592679944893
 11
238.158099897177
 21
2225.542679944893
  0
LINE
  5
141
100
AcDbEntity
  8
1
  6
CONTINUOUS
 62
           2
100
AcDbLine
 10
238.158099897177
 20
2225.542679944893
 11
238.008099897177
 21
2225.542679944893
  0
LINE
  5
140
100
AcDbEntity
  8
1
  6
CONTINUOUS
 62
           2
100
AcDbLine
 10
238.008099897177
 20
2225.542679944893
 11
237.933099897178
 21
2225.592679944893
  0
LINE
  5
13F
100
AcDbEntity
  8
1
  6
CONTINUOUS
 62
           2
100
AcDbLine
 10
237.933099897178
 20
2225.592679944893
 11
237.858099897178
 21
2225.692679944893
  0
LINE
  5
13E
100
AcDbEntity
  8
1
  6
CONTINUOUS
 62
           2
100
AcDbLine
 10
237.858099897178
 20
2225.692679944893
 11
237.808099897178
 21
2225.792679944893
  0
LINE
  5
13D
100
AcDbEntity
  8
1
  6
CONTINUOUS
 62
           2
100
AcDbLine
 10
237.808099897178
 20
2225.792679944893
 11
237.758099897177
 21
2225.942679944893
  0
LINE
  5
13C
100
AcDbEntity
  8
1
  6
CONTINUOUS
 62
           2
100
AcDbLine
 10
237.758099897177
 20
2225.942679944893
 11
237.733099897178
 21
2226.142679944893
  0
LINE
  5
13B
100
AcDbEntity
  8
1
  6
CONTINUOUS
 62
           2
100
AcDbLine
 10
237.733099897178
 20
2226.142679944893
 11
237.733099897178
 21
2227.542679944893
  0
LINE
  5
13A
100
AcDbEntity
  8
1
  6
CONTINUOUS
 62
           2
100
AcDbLine
 10
239.133099897177
 20
2226.542679944893
 11
238.733099897178
 21
2226.542679944893
  0
LINE
  5
139
100
AcDbEntity
  8
1
  6
CONTINUOUS
 62
           2
100
AcDbLine
 10
238.733099897178
 20
2226.542679944893
 11
238.733099897178
 21
2227.542679944893
  0
LINE
  5
138
100
AcDbEntity
  8
1
  6
CONTINUOUS
 62
           2
100
AcDbLine
 10
238.733099897178
 20
2227.542679944893
 11
239.208099897178
 21
2227.542679944893
  0
LINE
  5
137
100
AcDbEntity
  8
1
  6
CONTINUOUS
 62
           2
100
AcDbLine
 10
239.208099897178
 20
2227.542679944893
 11
239.308099897178
 21
2227.492679944893
  0
LINE
  5
136
100
AcDbEntity
  8
1
  6
CONTINUOUS
 62
           2
100
AcDbLine
 10
239.308099897178
 20
2227.492679944893
 11
239.383099897177
 21
2227.392679944893
  0
LINE
  5
135
100
AcDbEntity
  8
1
  6
CONTINUOUS
 62
           2
100
AcDbLine
 10
239.383099897177
 20
2227.392679944893
 11
239.408099897177
 21
2227.292679944893
  0
LINE
  5
134
100
AcDbEntity
  8
1
  6
CONTINUOUS
 62
           2
100
AcDbLine
 10
239.408099897177
 20
2227.292679944893
 11
239.433099897178
 21
2227.142679944893
  0
LINE
  5
133
100
AcDbEntity
  8
1
  6
CONTINUOUS
 62
           2
100
AcDbLine
 10
239.433099897178
 20
2227.142679944893
 11
239.433099897178
 21
2226.942679944893
  0
LINE
  5
132
100
AcDbEntity
  8
1
  6
CONTINUOUS
 62
           2
100
AcDbLine
 10
239.433099897178
 20
2226.942679944893
 11
239.408099897177
 21
2226.792679944893
  0
LINE
  5
131
100
AcDbEntity
  8
1
  6
CONTINUOUS
 62
           2
100
AcDbLine
 10
239.408099897177
 20
2226.792679944893
 11
239.383099897177
 21
2226.692679944893
  0
LINE
  5
130
100
AcDbEntity
  8
1
  6
CONTINUOUS
 62
           2
100
AcDbLine
 10
239.383099897177
 20
2226.692679944893
 11
239.308099897178
 21
2226.592679944893
  0
LINE
  5
12F
100
AcDbEntity
  8
1
  6
CONTINUOUS
 62
           2
100
AcDbLine
 10
239.308099897178
 20
2226.592679944893
 11
239.208099897178
 21
2226.542679944893
  0
LINE
  5
12E
100
AcDbEntity
  8
1
  6
CONTINUOUS
 62
           2
100
AcDbLine
 10
239.208099897178
 20
2226.542679944893
 11
239.133099897177
 21
2226.542679944893
  0
LINE
  5
12D
100
AcDbEntity
  8
1
  6
CONTINUOUS
 62
           2
100
AcDbLine
 10
239.133099897177
 20
2226.542679944893
 11
239.433099897178
 21
2225.542679944893
  0
LINE
  5
12C
100
AcDbEntity
  8
1
  6
CONTINUOUS
 62
           2
100
AcDbLine
 10
238.733099897178
 20
2225.542679944893
 11
238.733099897178
 21
2226.542679944893
  0
LINE
  5
12B
100
AcDbEntity
  8
1
  6
CONTINUOUS
 62
           2
100
AcDbLine
 10
240.333099897178
 20
2226.642679944893
 11
239.733099897178
 21
2226.642679944893
  0
LINE
  5
12A
100
AcDbEntity
  8
1
  6
CONTINUOUS
 62
           2
100
AcDbLine
 10
240.433099897178
 20
2227.542679944893
 11
239.733099897178
 21
2227.542679944893
  0
LINE
  5
129
100
AcDbEntity
  8
1
  6
CONTINUOUS
 62
           2
100
AcDbLine
 10
239.733099897178
 20
2227.542679944893
 11
239.733099897178
 21
2226.642679944893
  0
LINE
  5
128
100
AcDbEntity
  8
1
  6
CONTINUOUS
 62
           2
100
AcDbLine
 10
239.733099897178
 20
2226.542679944893
 11
239.733099897178
 21
2225.542679944893
  0
LINE
  5
127
100
AcDbEntity
  8
1
  6
CONTINUOUS
 62
           2
100
AcDbLine
 10
239.733099897178
 20
2225.542679944893
 11
240.433099897178
 21
2225.542679944893
  0
LINE
  5
126
100
AcDbEntity
  8
1
  6
CONTINUOUS
 62
           2
100
AcDbLine
 10
239.733099897178
 20
2226.642679944893
 11
239.733099897178
 21
2226.542679944893
  0
LINE
  5
125
100
AcDbEntity
  8
1
  6
CONTINUOUS
 62
           2
100
AcDbLine
 10
242.233099897178
 20
2227.542679944893
 11
241.808099897178
 21
2227.542679944893
  0
LINE
  5
124
100
AcDbEntity
  8
1
  6
CONTINUOUS
 62
           2
100
AcDbLine
 10
241.808099897178
 20
2227.542679944893
 11
241.708099897178
 21
2227.492679944893
  0
LINE
  5
123
100
AcDbEntity
  8
1
  6
CONTINUOUS
 62
           2
100
AcDbLine
 10
241.708099897178
 20
2227.492679944893
 11
241.633099897177
 21
2227.392679944893
  0
LINE
  5
122
100
AcDbEntity
  8
1
  6
CONTINUOUS
 62
           2
100
AcDbLine
 10
241.633099897177
 20
2227.392679944893
 11
241.583099897178
 21
2227.292679944893
  0
LINE
  5
121
100
AcDbEntity
  8
1
  6
CONTINUOUS
 62
           2
100
AcDbLine
 10
241.583099897178
 20
2227.292679944893
 11
241.558099897178
 21
2227.142679944893
  0
LINE
  5
120
100
AcDbEntity
  8
1
  6
CONTINUOUS
 62
           2
100
AcDbLine
 10
241.558099897178
 20
2227.142679944893
 11
241.533099897177
 21
2226.942679944893
  0
LINE
  5
11F
100
AcDbEntity
  8
1
  6
CONTINUOUS
 62
           2
100
AcDbLine
 10
241.533099897177
 20
2226.942679944893
 11
241.533099897177
 21
2226.142679944893
  0
LINE
  5
11E
100
AcDbEntity
  8
1
  6
CONTINUOUS
 62
           2
100
AcDbLine
 10
241.533099897177
 20
2226.142679944893
 11
241.558099897178
 21
2225.942679944893
  0
LINE
  5
11D
100
AcDbEntity
  8
1
  6
CONTINUOUS
 62
           2
100
AcDbLine
 10
241.558099897178
 20
2225.942679944893
 11
241.583099897178
 21
2225.792679944893
  0
LINE
  5
11C
100
AcDbEntity
  8
1
  6
CONTINUOUS
 62
           2
100
AcDbLine
 10
241.583099897178
 20
2225.792679944893
 11
241.633099897177
 21
2225.692679944893
  0
LINE
  5
11B
100
AcDbEntity
  8
1
  6
CONTINUOUS
 62
           2
100
AcDbLine
 10
241.633099897177
 20
2225.692679944893
 11
241.733099897178
 21
2225.592679944893
  0
LINE
  5
11A
100
AcDbEntity
  8
1
  6
CONTINUOUS
 62
           2
100
AcDbLine
 10
241.733099897178
 20
2225.592679944893
 11
241.808099897178
 21
2225.542679944893
  0
LINE
  5
119
100
AcDbEntity
  8
1
  6
CONTINUOUS
 62
           2
100
AcDbLine
 10
241.808099897178
 20
2225.542679944893
 11
242.233099897178
 21
2225.542679944893
  0
LINE
  5
118
100
AcDbEntity
  8
1
  6
CONTINUOUS
 62
           2
100
AcDbLine
 10
242.233099897178
 20
2225.542679944893
 11
242.233099897178
 21
2226.642679944893
  0
LINE
  5
117
100
AcDbEntity
  8
1
  6
CONTINUOUS
 62
           2
100
AcDbLine
 10
242.233099897178
 20
2226.642679944893
 11
241.983099897178
 21
2226.642679944893
  0
LINE
  5
116
100
AcDbEntity
  8
1
  6
CONTINUOUS
 62
           2
100
AcDbLine
 10
242.658099897177
 20
2226.142679944893
 11
243.208099897178
 21
2226.142679944893
  0
LINE
  5
115
100
AcDbEntity
  8
1
  6
CONTINUOUS
 62
           2
100
AcDbLine
 10
242.533099897177
 20
2225.542679944893
 11
242.933099897178
 21
2227.542679944893
  0
LINE
  5
114
100
AcDbEntity
  8
1
  6
CONTINUOUS
 62
           2
100
AcDbLine
 10
242.933099897178
 20
2227.542679944893
 11
243.333099897178
 21
2225.542679944893
  0
LINE
  5
113
100
AcDbEntity
  8
1
  6
CONTINUOUS
 62
           2
100
AcDbLine
 10
244.333099897178
 20
2227.542679944893
 11
244.333099897178
 21
2226.142679944893
  0
LINE
  5
112
100
AcDbEntity
  8
1
  6
CONTINUOUS
 62
           2
100
AcDbLine
 10
244.333099897178
 20
2226.142679944893
 11
244.308099897178
 21
2225.942679944893
  0
LINE
  5
111
100
AcDbEntity
  8
1
  6
CONTINUOUS
 62
           2
100
AcDbLine
 10
244.308099897178
 20
2225.942679944893
 11
244.258099897177
 21
2225.792679944893
  0
LINE
  5
110
100
AcDbEntity
  8
1
  6
CONTINUOUS
 62
           2
100
AcDbLine
 10
244.258099897177
 20
2225.792679944893
 11
244.208099897178
 21
2225.692679944893
  0
LINE
  5
10F
100
AcDbEntity
  8
1
  6
CONTINUOUS
 62
           2
100
AcDbLine
 10
244.208099897178
 20
2225.692679944893
 11
244.133099897177
 21
2225.592679944893
  0
LINE
  5
10E
100
AcDbEntity
  8
1
  6
CONTINUOUS
 62
           2
100
AcDbLine
 10
244.133099897177
 20
2225.592679944893
 11
244.058099897178
 21
2225.542679944893
  0
LINE
  5
10D
100
AcDbEntity
  8
1
  6
CONTINUOUS
 62
           2
100
AcDbLine
 10
244.058099897178
 20
2225.542679944893
 11
243.908099897177
 21
2225.542679944893
  0
LINE
  5
10C
100
AcDbEntity
  8
1
  6
CONTINUOUS
 62
           2
100
AcDbLine
 10
243.908099897177
 20
2225.542679944893
 11
243.833099897178
 21
2225.592679944893
  0
LINE
  5
10B
100
AcDbEntity
  8
1
  6
CONTINUOUS
 62
           2
100
AcDbLine
 10
243.833099897178
 20
2225.592679944893
 11
243.758099897177
 21
2225.692679944893
  0
LINE
  5
10A
100
AcDbEntity
  8
1
  6
CONTINUOUS
 62
           2
100
AcDbLine
 10
243.758099897177
 20
2225.692679944893
 11
243.708099897178
 21
2225.792679944893
  0
LINE
  5
109
100
AcDbEntity
  8
1
  6
CONTINUOUS
 62
           2
100
AcDbLine
 10
243.708099897178
 20
2225.792679944893
 11
243.658099897177
 21
2225.942679944893
  0
LINE
  5
108
100
AcDbEntity
  8
1
  6
CONTINUOUS
 62
           2
100
AcDbLine
 10
243.658099897177
 20
2225.942679944893
 11
243.633099897177
 21
2226.142679944893
  0
LINE
  5
107
100
AcDbEntity
  8
1
  6
CONTINUOUS
 62
           2
100
AcDbLine
 10
243.633099897177
 20
2226.142679944893
 11
243.633099897177
 21
2227.542679944893
  0
LINE
  5
106
100
AcDbEntity
  8
1
  6
CONTINUOUS
 62
           2
100
AcDbLine
 10
248.001774573567
 20
2214.754178324949
 11
247.676774573567
 21
2214.754178324949
  0
LINE
  5
105
100
AcDbEntity
  8
1
  6
CONTINUOUS
 62
           2
100
AcDbLine
 10
247.676774573567
 20
2214.754178324949
 11
247.576774573567
 21
2214.779178324949
  0
LINE
  5
104
100
AcDbEntity
  8
1
  6
CONTINUOUS
 62
           2
100
AcDbLine
 10
247.576774573567
 20
2214.779178324949
 11
247.501774573567
 21
2214.829178324949
  0
LINE
  5
103
100
AcDbEntity
  8
1
  6
CONTINUOUS
 62
           2
100
AcDbLine
 10
247.501774573567
 20
2214.829178324949
 11
247.451774573567
 21
2214.879178324949
  0
LINE
  5
102
100
AcDbEntity
  8
1
  6
CONTINUOUS
 62
           2
100
AcDbLine
 10
247.451774573567
 20
2214.879178324949
 11
247.426774573567
 21
2214.954178324949
  0
LINE
  5
101
100
AcDbEntity
  8
1
  6
CONTINUOUS
 62
           2
100
AcDbLine
 10
247.426774573567
 20
2214.954178324949
 11
247.401774573567
 21
2215.054178324949
  0
LINE
  5
100
100
AcDbEntity
  8
1
  6
CONTINUOUS
 62
           2
100
AcDbLine
 10
247.401774573567
 20
2215.054178324949
 11
247.401774573567
 21
2215.454178324949
  0
LINE
  5
FF
100
AcDbEntity
  8
1
  6
CONTINUOUS
 62
           2
100
AcDbLine
 10
247.401774573567
 20
2215.454178324949
 11
247.426774573567
 21
2215.554178324949
  0
LINE
  5
FE
100
AcDbEntity
  8
1
  6
CONTINUOUS
 62
           2
100
AcDbLine
 10
247.426774573567
 20
2215.554178324949
 11
247.451774573567
 21
2215.629178324949
  0
LINE
  5
FD
100
AcDbEntity
  8
1
  6
CONTINUOUS
 62
           2
100
AcDbLine
 10
247.451774573567
 20
2215.629178324949
 11
247.501774573567
 21
2215.679178324949
  0
LINE
  5
FC
100
AcDbEntity
  8
1
  6
CONTINUOUS
 62
           2
100
AcDbLine
 10
247.501774573567
 20
2215.679178324949
 11
247.576774573567
 21
2215.729178324949
  0
LINE
  5
FB
100
AcDbEntity
  8
1
  6
CONTINUOUS
 62
           2
100
AcDbLine
 10
247.576774573567
 20
2215.729178324949
 11
247.676774573567
 21
2215.754178324949
  0
LINE
  5
FA
100
AcDbEntity
  8
1
  6
CONTINUOUS
 62
           2
100
AcDbLine
 10
247.676774573567
 20
2215.754178324949
 11
248.001774573567
 21
2215.754178324949
  0
LINE
  5
F9
100
AcDbEntity
  8
1
  6
CONTINUOUS
 62
           2
100
AcDbLine
 10
248.901774573567
 20
2214.754178324949
 11
248.301774573567
 21
2214.754178324949
  0
LINE
  5
F8
100
AcDbEntity
  8
1
  6
CONTINUOUS
 62
           2
100
AcDbLine
 10
248.301774573567
 20
2214.754178324949
 11
248.301774573567
 21
2215.754178324949
  0
LINE
  5
F7
100
AcDbEntity
  8
1
  6
CONTINUOUS
 62
           2
100
AcDbLine
 10
250.151774573567
 20
2215.354178324949
 11
250.401774573567
 21
2215.354178324949
  0
LINE
  5
F6
100
AcDbEntity
  8
1
  6
CONTINUOUS
 62
           2
100
AcDbLine
 10
250.001774573567
 20
2215.754178324949
 11
250.376774573567
 21
2215.754178324949
  0
LINE
  5
F5
100
AcDbEntity
  8
1
  6
CONTINUOUS
 62
           2
100
AcDbLine
 10
250.376774573567
 20
2215.754178324949
 11
250.501774573567
 21
2215.729178324949
  0
LINE
  5
F4
100
AcDbEntity
  8
1
  6
CONTINUOUS
 62
           2
100
AcDbLine
 10
250.501774573567
 20
2215.729178324949
 11
250.576774573567
 21
2215.679178324949
  0
LINE
  5
F3
100
AcDbEntity
  8
1
  6
CONTINUOUS
 62
           2
100
AcDbLine
 10
250.576774573567
 20
2215.679178324949
 11
250.601774573567
 21
2215.604178324949
  0
LINE
  5
F2
100
AcDbEntity
  8
1
  6
CONTINUOUS
 62
           2
100
AcDbLine
 10
250.601774573567
 20
2215.604178324949
 11
250.601774573567
 21
2215.529178324949
  0
LINE
  5
F1
100
AcDbEntity
  8
1
  6
CONTINUOUS
 62
           2
100
AcDbLine
 10
250.601774573567
 20
2215.529178324949
 11
250.576774573567
 21
2215.454178324949
  0
LINE
  5
F0
100
AcDbEntity
  8
1
  6
CONTINUOUS
 62
           2
100
AcDbLine
 10
250.576774573567
 20
2215.454178324949
 11
250.526774573567
 21
2215.404178324949
  0
LINE
  5
EF
100
AcDbEntity
  8
1
  6
CONTINUOUS
 62
           2
100
AcDbLine
 10
250.526774573567
 20
2215.404178324949
 11
250.476774573567
 21
2215.379178324949
  0
LINE
  5
EE
100
AcDbEntity
  8
1
  6
CONTINUOUS
 62
           2
100
AcDbLine
 10
250.476774573567
 20
2215.379178324949
 11
250.401774573567
 21
2215.354178324949
  0
LINE
  5
ED
100
AcDbEntity
  8
1
  6
CONTINUOUS
 62
           2
100
AcDbLine
 10
250.401774573567
 20
2215.354178324949
 11
250.501774573567
 21
2215.329178324949
  0
LINE
  5
EC
100
AcDbEntity
  8
1
  6
CONTINUOUS
 62
           2
100
AcDbLine
 10
250.501774573567
 20
2215.329178324949
 11
250.551774573567
 21
2215.279178324949
  0
LINE
  5
EB
100
AcDbEntity
  8
1
  6
CONTINUOUS
 62
           2
100
AcDbLine
 10
250.551774573567
 20
2215.279178324949
 11
250.576774573567
 21
2215.229178324949
  0
LINE
  5
EA
100
AcDbEntity
  8
1
  6
CONTINUOUS
 62
           2
100
AcDbLine
 10
250.576774573567
 20
2215.229178324949
 11
250.601774573567
 21
2215.129178324949
  0
LINE
  5
E9
100
AcDbEntity
  8
1
  6
CONTINUOUS
 62
           2
100
AcDbLine
 10
250.601774573567
 20
2215.129178324949
 11
250.601774573567
 21
2215.004178324949
  0
LINE
  5
E8
100
AcDbEntity
  8
1
  6
CONTINUOUS
 62
           2
100
AcDbLine
 10
250.601774573567
 20
2215.004178324949
 11
250.576774573567
 21
2214.904178324949
  0
LINE
  5
E7
100
AcDbEntity
  8
1
  6
CONTINUOUS
 62
           2
100
AcDbLine
 10
250.576774573567
 20
2214.904178324949
 11
250.526774573567
 21
2214.829178324949
  0
LINE
  5
E6
100
AcDbEntity
  8
1
  6
CONTINUOUS
 62
           2
100
AcDbLine
 10
250.526774573567
 20
2214.829178324949
 11
250.451774573567
 21
2214.779178324949
  0
LINE
  5
E5
100
AcDbEntity
  8
1
  6
CONTINUOUS
 62
           2
100
AcDbLine
 10
250.451774573567
 20
2214.779178324949
 11
250.376774573567
 21
2214.754178324949
  0
LINE
  5
E4
100
AcDbEntity
  8
1
  6
CONTINUOUS
 62
           2
100
AcDbLine
 10
250.376774573567
 20
2214.754178324949
 11
250.001774573567
 21
2214.754178324949
  0
LINE
  5
E3
100
AcDbEntity
  8
1
  6
CONTINUOUS
 62
           2
100
AcDbLine
 10
250.901774573567
 20
2214.754178324949
 11
250.901774573567
 21
2214.779178324949
  0
LINE
  5
E2
100
AcDbEntity
  8
1
  6
CONTINUOUS
 62
           2
100
AcDbLine
 10
250.901774573567
 20
2214.779178324949
 11
250.926774573567
 21
2214.779178324949
  0
LINE
  5
E1
100
AcDbEntity
  8
1
  6
CONTINUOUS
 62
           2
100
AcDbLine
 10
250.926774573567
 20
2214.779178324949
 11
250.926774573567
 21
2214.754178324949
  0
LINE
  5
E0
100
AcDbEntity
  8
1
  6
CONTINUOUS
 62
           2
100
AcDbLine
 10
250.926774573567
 20
2214.754178324949
 11
250.901774573567
 21
2214.754178324949
  0
LINE
  5
DF
100
AcDbEntity
  8
1
  6
CONTINUOUS
 62
           2
100
AcDbLine
 10
251.826774573567
 20
2215.129178324949
 11
251.801774573567
 21
2214.979178324949
  0
LINE
  5
DE
100
AcDbEntity
  8
1
  6
CONTINUOUS
 62
           2
100
AcDbLine
 10
251.801774573567
 20
2214.979178324949
 11
251.751774573567
 21
2214.879178324949
  0
LINE
  5
DD
100
AcDbEntity
  8
1
  6
CONTINUOUS
 62
           2
100
AcDbLine
 10
251.751774573567
 20
2214.879178324949
 11
251.701774573567
 21
2214.829178324949
  0
LINE
  5
DC
100
AcDbEntity
  8
1
  6
CONTINUOUS
 62
           2
100
AcDbLine
 10
251.701774573567
 20
2214.829178324949
 11
251.626774573567
 21
2214.779178324949
  0
LINE
  5
DB
100
AcDbEntity
  8
1
  6
CONTINUOUS
 62
           2
100
AcDbLine
 10
251.626774573567
 20
2214.779178324949
 11
251.551774573567
 21
2214.754178324949
  0
LINE
  5
DA
100
AcDbEntity
  8
1
  6
CONTINUOUS
 62
           2
100
AcDbLine
 10
251.551774573567
 20
2214.754178324949
 11
251.501774573567
 21
2214.754178324949
  0
LINE
  5
D9
100
AcDbEntity
  8
1
  6
CONTINUOUS
 62
           2
100
AcDbLine
 10
251.501774573567
 20
2214.754178324949
 11
251.426774573567
 21
2214.779178324949
  0
LINE
  5
D8
100
AcDbEntity
  8
1
  6
CONTINUOUS
 62
           2
100
AcDbLine
 10
251.426774573567
 20
2214.779178324949
 11
251.351774573567
 21
2214.829178324949
  0
LINE
  5
D7
100
AcDbEntity
  8
1
  6
CONTINUOUS
 62
           2
100
AcDbLine
 10
251.351774573567
 20
2214.829178324949
 11
251.301774573567
 21
2214.879178324949
  0
LINE
  5
D6
100
AcDbEntity
  8
1
  6
CONTINUOUS
 62
           2
100
AcDbLine
 10
251.301774573567
 20
2214.879178324949
 11
251.251774573567
 21
2214.979178324949
  0
LINE
  5
D5
100
AcDbEntity
  8
1
  6
CONTINUOUS
 62
           2
100
AcDbLine
 10
251.251774573567
 20
2214.979178324949
 11
251.226774573567
 21
2215.129178324949
  0
LINE
  5
D4
100
AcDbEntity
  8
1
  6
CONTINUOUS
 62
           2
100
AcDbLine
 10
251.226774573567
 20
2215.129178324949
 11
251.226774573567
 21
2215.379178324949
  0
LINE
  5
D3
100
AcDbEntity
  8
1
  6
CONTINUOUS
 62
           2
100
AcDbLine
 10
251.226774573567
 20
2215.379178324949
 11
251.251774573567
 21
2215.529178324949
  0
LINE
  5
D2
100
AcDbEntity
  8
1
  6
CONTINUOUS
 62
           2
100
AcDbLine
 10
251.251774573567
 20
2215.529178324949
 11
251.301774573567
 21
2215.629178324949
  0
LINE
  5
D1
100
AcDbEntity
  8
1
  6
CONTINUOUS
 62
           2
100
AcDbLine
 10
251.301774573567
 20
2215.629178324949
 11
251.351774573567
 21
2215.679178324949
  0
LINE
  5
D0
100
AcDbEntity
  8
1
  6
CONTINUOUS
 62
           2
100
AcDbLine
 10
251.351774573567
 20
2215.679178324949
 11
251.426774573567
 21
2215.729178324949
  0
LINE
  5
CF
100
AcDbEntity
  8
1
  6
CONTINUOUS
 62
           2
100
AcDbLine
 10
251.426774573567
 20
2215.729178324949
 11
251.501774573567
 21
2215.754178324949
  0
LINE
  5
CE
100
AcDbEntity
  8
1
  6
CONTINUOUS
 62
           2
100
AcDbLine
 10
251.501774573567
 20
2215.754178324949
 11
251.551774573567
 21
2215.754178324949
  0
LINE
  5
CD
100
AcDbEntity
  8
1
  6
CONTINUOUS
 62
           2
100
AcDbLine
 10
251.551774573567
 20
2215.754178324949
 11
251.626774573567
 21
2215.729178324949
  0
LINE
  5
CC
100
AcDbEntity
  8
1
  6
CONTINUOUS
 62
           2
100
AcDbLine
 10
251.626774573567
 20
2215.729178324949
 11
251.701774573567
 21
2215.679178324949
  0
LINE
  5
CB
100
AcDbEntity
  8
1
  6
CONTINUOUS
 62
           2
100
AcDbLine
 10
251.701774573567
 20
2215.679178324949
 11
251.751774573567
 21
2215.629178324949
  0
LINE
  5
CA
100
AcDbEntity
  8
1
  6
CONTINUOUS
 62
           2
100
AcDbLine
 10
251.751774573567
 20
2215.629178324949
 11
251.801774573567
 21
2215.529178324949
  0
LINE
  5
C9
100
AcDbEntity
  8
1
  6
CONTINUOUS
 62
           2
100
AcDbLine
 10
251.801774573567
 20
2215.529178324949
 11
251.826774573567
 21
2215.379178324949
  0
LINE
  5
C8
100
AcDbEntity
  8
1
  6
CONTINUOUS
 62
           2
100
AcDbLine
 10
251.826774573567
 20
2215.379178324949
 11
251.826774573567
 21
2215.129178324949
  0
LINE
  5
C7
100
AcDbEntity
  8
1
  6
CONTINUOUS
 62
           2
100
AcDbLine
 10
234.683459734925
 20
2212.321473264057
 11
234.928459734925
 21
2212.321473264057
  0
LINE
  5
C6
100
AcDbEntity
  8
1
  6
CONTINUOUS
 62
           2
100
AcDbLine
 10
234.438459734925
 20
2212.321473264057
 11
234.683459734925
 21
2212.321473264057
  0
LINE
  5
C5
100
AcDbEntity
  8
1
  6
CONTINUOUS
 62
           2
100
AcDbLine
 10
234.683459734925
 20
2212.321473264057
 11
234.683459734925
 21
2211.321473264057
  0
LINE
  5
C4
100
AcDbEntity
  8
1
  6
CONTINUOUS
 62
           2
100
AcDbLine
 10
235.418459734925
 20
2211.821473264057
 11
235.138459734925
 21
2211.821473264057
  0
LINE
  5
C3
100
AcDbEntity
  8
1
  6
CONTINUOUS
 62
           2
100
AcDbLine
 10
235.138459734925
 20
2211.821473264057
 11
235.138459734925
 21
2212.321473264057
  0
LINE
  5
C2
100
AcDbEntity
  8
1
  6
CONTINUOUS
 62
           2
100
AcDbLine
 10
235.138459734925
 20
2212.321473264057
 11
235.470959734925
 21
2212.321473264057
  0
LINE
  5
C1
100
AcDbEntity
  8
1
  6
CONTINUOUS
 62
           2
100
AcDbLine
 10
235.470959734925
 20
2212.321473264057
 11
235.540959734925
 21
2212.296473264057
  0
LINE
  5
C0
100
AcDbEntity
  8
1
  6
CONTINUOUS
 62
           2
100
AcDbLine
 10
235.540959734925
 20
2212.296473264057
 11
235.593459734925
 21
2212.246473264057
  0
LINE
  5
BF
100
AcDbEntity
  8
1
  6
CONTINUOUS
 62
           2
100
AcDbLine
 10
235.593459734925
 20
2212.246473264057
 11
235.610959734925
 21
2212.196473264057
  0
LINE
  5
BE
100
AcDbEntity
  8
1
  6
CONTINUOUS
 62
           2
100
AcDbLine
 10
235.610959734925
 20
2212.196473264057
 11
235.628459734925
 21
2212.121473264057
  0
LINE
  5
BD
100
AcDbEntity
  8
1
  6
CONTINUOUS
 62
           2
100
AcDbLine
 10
235.628459734925
 20
2212.121473264057
 11
235.628459734925
 21
2212.021473264057
  0
LINE
  5
BC
100
AcDbEntity
  8
1
  6
CONTINUOUS
 62
           2
100
AcDbLine
 10
235.628459734925
 20
2212.021473264057
 11
235.610959734925
 21
2211.946473264057
  0
LINE
  5
BB
100
AcDbEntity
  8
1
  6
CONTINUOUS
 62
           2
100
AcDbLine
 10
235.610959734925
 20
2211.946473264057
 11
235.593459734925
 21
2211.896473264057
  0
LINE
  5
BA
100
AcDbEntity
  8
1
  6
CONTINUOUS
 62
           2
100
AcDbLine
 10
235.593459734925
 20
2211.896473264057
 11
235.540959734925
 21
2211.846473264057
  0
LINE
  5
B9
100
AcDbEntity
  8
1
  6
CONTINUOUS
 62
           2
100
AcDbLine
 10
235.540959734925
 20
2211.846473264057
 11
235.470959734925
 21
2211.821473264057
  0
LINE
  5
B8
100
AcDbEntity
  8
1
  6
CONTINUOUS
 62
           2
100
AcDbLine
 10
235.470959734925
 20
2211.821473264057
 11
235.418459734925
 21
2211.821473264057
  0
LINE
  5
B7
100
AcDbEntity
  8
1
  6
CONTINUOUS
 62
           2
100
AcDbLine
 10
235.418459734925
 20
2211.821473264057
 11
235.628459734925
 21
2211.321473264057
  0
LINE
  5
B6
100
AcDbEntity
  8
1
  6
CONTINUOUS
 62
           2
100
AcDbLine
 10
235.138459734925
 20
2211.321473264057
 11
235.138459734925
 21
2211.821473264057
  0
LINE
  5
B5
100
AcDbEntity
  8
1
  6
CONTINUOUS
 62
           2
100
AcDbLine
 10
235.925959734925
 20
2211.621473264057
 11
236.310959734925
 21
2211.621473264057
  0
LINE
  5
B4
100
AcDbEntity
  8
1
  6
CONTINUOUS
 62
           2
100
AcDbLine
 10
235.838459734925
 20
2211.321473264057
 11
236.118459734925
 21
2212.321473264057
  0
LINE
  5
B3
100
AcDbEntity
  8
1
  6
CONTINUOUS
 62
           2
100
AcDbLine
 10
236.118459734925
 20
2212.321473264057
 11
236.398459734925
 21
2211.321473264057
  0
LINE
  5
B2
100
AcDbEntity
  8
1
  6
CONTINUOUS
 62
           2
100
AcDbLine
 10
237.098459734925
 20
2212.021473264057
 11
237.098459734925
 21
2211.621473264057
  0
LINE
  5
B1
100
AcDbEntity
  8
1
  6
CONTINUOUS
 62
           2
100
AcDbLine
 10
237.098459734925
 20
2211.621473264057
 11
237.080959734925
 21
2211.521473264057
  0
LINE
  5
B0
100
AcDbEntity
  8
1
  6
CONTINUOUS
 62
           2
100
AcDbLine
 10
237.080959734925
 20
2211.521473264057
 11
237.045959734925
 21
2211.446473264057
  0
LINE
  5
AF
100
AcDbEntity
  8
1
  6
CONTINUOUS
 62
           2
100
AcDbLine
 10
237.045959734925
 20
2211.446473264057
 11
237.010959734925
 21
2211.396473264057
  0
LINE
  5
AE
100
AcDbEntity
  8
1
  6
CONTINUOUS
 62
           2
100
AcDbLine
 10
237.010959734925
 20
2211.396473264057
 11
236.958459734925
 21
2211.346473264057
  0
LINE
  5
AD
100
AcDbEntity
  8
1
  6
CONTINUOUS
 62
           2
100
AcDbLine
 10
236.958459734925
 20
2211.346473264057
 11
236.888459734925
 21
2211.321473264057
  0
LINE
  5
AC
100
AcDbEntity
  8
1
  6
CONTINUOUS
 62
           2
100
AcDbLine
 10
236.888459734925
 20
2211.321473264057
 11
236.608459734925
 21
2211.321473264057
  0
LINE
  5
AB
100
AcDbEntity
  8
1
  6
CONTINUOUS
 62
           2
100
AcDbLine
 10
236.608459734925
 20
2211.321473264057
 11
236.608459734925
 21
2212.321473264057
  0
LINE
  5
AA
100
AcDbEntity
  8
1
  6
CONTINUOUS
 62
           2
100
AcDbLine
 10
236.608459734925
 20
2212.321473264057
 11
236.888459734925
 21
2212.321473264057
  0
LINE
  5
A9
100
AcDbEntity
  8
1
  6
CONTINUOUS
 62
           2
100
AcDbLine
 10
236.888459734925
 20
2212.321473264057
 11
236.958459734925
 21
2212.296473264057
  0
LINE
  5
A8
100
AcDbEntity
  8
1
  6
CONTINUOUS
 62
           2
100
AcDbLine
 10
236.958459734925
 20
2212.296473264057
 11
237.010959734925
 21
2212.246473264057
  0
LINE
  5
A7
100
AcDbEntity
  8
1
  6
CONTINUOUS
 62
           2
100
AcDbLine
 10
237.010959734925
 20
2212.246473264057
 11
237.045959734925
 21
2212.196473264057
  0
LINE
  5
A6
100
AcDbEntity
  8
1
  6
CONTINUOUS
 62
           2
100
AcDbLine
 10
237.045959734925
 20
2212.196473264057
 11
237.080959734925
 21
2212.121473264057
  0
LINE
  5
A5
100
AcDbEntity
  8
1
  6
CONTINUOUS
 62
           2
100
AcDbLine
 10
237.080959734925
 20
2212.121473264057
 11
237.098459734925
 21
2212.021473264057
  0
LINE
  5
A4
100
AcDbEntity
  8
1
  6
CONTINUOUS
 62
           2
100
AcDbLine
 10
237.728459734925
 20
2211.871473264057
 11
237.308459734925
 21
2211.871473264057
  0
LINE
  5
A3
100
AcDbEntity
  8
1
  6
CONTINUOUS
 62
           2
100
AcDbLine
 10
237.798459734925
 20
2212.321473264057
 11
237.308459734925
 21
2212.321473264057
  0
LINE
  5
A2
100
AcDbEntity
  8
1
  6
CONTINUOUS
 62
           2
100
AcDbLine
 10
237.308459734925
 20
2212.321473264057
 11
237.308459734925
 21
2211.871473264057
  0
LINE
  5
A1
100
AcDbEntity
  8
1
  6
CONTINUOUS
 62
           2
100
AcDbLine
 10
237.308459734925
 20
2211.821473264057
 11
237.308459734925
 21
2211.321473264057
  0
LINE
  5
A0
100
AcDbEntity
  8
1
  6
CONTINUOUS
 62
           2
100
AcDbLine
 10
237.308459734925
 20
2211.321473264057
 11
237.798459734925
 21
2211.321473264057
  0
LINE
  5
9F
100
AcDbEntity
  8
1
  6
CONTINUOUS
 62
           2
100
AcDbLine
 10
237.308459734925
 20
2211.871473264057
 11
237.308459734925
 21
2211.821473264057
  0
LINE
  5
9E
100
AcDbEntity
  8
1
  6
CONTINUOUS
 62
           2
100
AcDbLine
 10
242.488459734925
 20
2211.321473264057
 11
242.488459734925
 21
2212.321473264057
  0
LINE
  5
9D
100
AcDbEntity
  8
1
  6
CONTINUOUS
 62
           2
100
AcDbLine
 10
242.488459734925
 20
2212.321473264057
 11
242.733459734925
 21
2211.771473264057
  0
LINE
  5
9C
100
AcDbEntity
  8
1
  6
CONTINUOUS
 62
           2
100
AcDbLine
 10
242.733459734925
 20
2211.771473264057
 11
242.978459734925
 21
2212.321473264057
  0
LINE
  5
9B
100
AcDbEntity
  8
1
  6
CONTINUOUS
 62
           2
100
AcDbLine
 10
242.978459734925
 20
2212.321473264057
 11
242.978459734925
 21
2211.321473264057
  0
LINE
  5
9A
100
AcDbEntity
  8
1
  6
CONTINUOUS
 62
           2
100
AcDbLine
 10
243.275959734925
 20
2211.621473264057
 11
243.660959734925
 21
2211.621473264057
  0
LINE
  5
99
100
AcDbEntity
  8
1
  6
CONTINUOUS
 62
           2
100
AcDbLine
 10
243.188459734925
 20
2211.321473264057
 11
243.468459734925
 21
2212.321473264057
  0
LINE
  5
98
100
AcDbEntity
  8
1
  6
CONTINUOUS
 62
           2
100
AcDbLine
 10
243.468459734925
 20
2212.321473264057
 11
243.748459734925
 21
2211.321473264057
  0
LINE
  5
97
100
AcDbEntity
  8
1
  6
CONTINUOUS
 62
           2
100
AcDbLine
 10
244.238459734925
 20
2211.821473264057
 11
243.958459734925
 21
2211.821473264057
  0
LINE
  5
96
100
AcDbEntity
  8
1
  6
CONTINUOUS
 62
           2
100
AcDbLine
 10
243.958459734925
 20
2211.821473264057
 11
243.958459734925
 21
2212.321473264057
  0
LINE
  5
95
100
AcDbEntity
  8
1
  6
CONTINUOUS
 62
           2
100
AcDbLine
 10
243.958459734925
 20
2212.321473264057
 11
244.290959734925
 21
2212.321473264057
  0
LINE
  5
94
100
AcDbEntity
  8
1
  6
CONTINUOUS
 62
           2
100
AcDbLine
 10
244.290959734925
 20
2212.321473264057
 11
244.360959734925
 21
2212.296473264057
  0
LINE
  5
93
100
AcDbEntity
  8
1
  6
CONTINUOUS
 62
           2
100
AcDbLine
 10
244.360959734925
 20
2212.296473264057
 11
244.413459734925
 21
2212.246473264057
  0
LINE
  5
92
100
AcDbEntity
  8
1
  6
CONTINUOUS
 62
           2
100
AcDbLine
 10
244.413459734925
 20
2212.246473264057
 11
244.430959734925
 21
2212.196473264057
  0
LINE
  5
91
100
AcDbEntity
  8
1
  6
CONTINUOUS
 62
           2
100
AcDbLine
 10
244.430959734925
 20
2212.196473264057
 11
244.448459734925
 21
2212.121473264057
  0
LINE
  5
90
100
AcDbEntity
  8
1
  6
CONTINUOUS
 62
           2
100
AcDbLine
 10
244.448459734925
 20
2212.121473264057
 11
244.448459734925
 21
2212.021473264057
  0
LINE
  5
8F
100
AcDbEntity
  8
1
  6
CONTINUOUS
 62
           2
100
AcDbLine
 10
244.448459734925
 20
2212.021473264057
 11
244.430959734925
 21
2211.946473264057
  0
LINE
  5
8E
100
AcDbEntity
  8
1
  6
CONTINUOUS
 62
           2
100
AcDbLine
 10
244.430959734925
 20
2211.946473264057
 11
244.413459734925
 21
2211.896473264057
  0
LINE
  5
8D
100
AcDbEntity
  8
1
  6
CONTINUOUS
 62
           2
100
AcDbLine
 10
244.413459734925
 20
2211.896473264057
 11
244.360959734925
 21
2211.846473264057
  0
LINE
  5
8C
100
AcDbEntity
  8
1
  6
CONTINUOUS
 62
           2
100
AcDbLine
 10
244.360959734925
 20
2211.846473264057
 11
244.290959734925
 21
2211.821473264057
  0
LINE
  5
8B
100
AcDbEntity
  8
1
  6
CONTINUOUS
 62
           2
100
AcDbLine
 10
244.290959734925
 20
2211.821473264057
 11
244.238459734925
 21
2211.821473264057
  0
LINE
  5
8A
100
AcDbEntity
  8
1
  6
CONTINUOUS
 62
           2
100
AcDbLine
 10
244.238459734925
 20
2211.821473264057
 11
244.448459734925
 21
2211.321473264057
  0
LINE
  5
89
100
AcDbEntity
  8
1
  6
CONTINUOUS
 62
           2
100
AcDbLine
 10
243.958459734925
 20
2211.321473264057
 11
243.958459734925
 21
2211.821473264057
  0
LINE
  5
88
100
AcDbEntity
  8
1
  6
CONTINUOUS
 62
           2
100
AcDbLine
 10
244.798459734925
 20
2211.821473264057
 11
244.658459734925
 21
2211.621473264057
  0
LINE
  5
87
100
AcDbEntity
  8
1
  6
CONTINUOUS
 62
           2
100
AcDbLine
 10
245.148459734925
 20
2212.321473264057
 11
244.798459734925
 21
2211.821473264057
  0
LINE
  5
86
100
AcDbEntity
  8
1
  6
CONTINUOUS
 62
           2
100
AcDbLine
 10
244.798459734925
 20
2211.821473264057
 11
245.148459734925
 21
2211.321473264057
  0
LINE
  5
85
100
AcDbEntity
  8
1
  6
CONTINUOUS
 62
           2
100
AcDbLine
 10
244.658459734925
 20
2211.321473264057
 11
244.658459734925
 21
2211.621473264057
  0
LINE
  5
84
100
AcDbEntity
  8
1
  6
CONTINUOUS
 62
           2
100
AcDbLine
 10
244.658459734925
 20
2211.621473264057
 11
244.658459734925
 21
2212.321473264057
  0
LINE
  5
83
100
AcDbEntity
  8
1
  6
CONTINUOUS
 62
           2
100
AcDbLine
 10
249.49867207191
 20
2218.536261723763
 11
249.37117207191
 21
2218.621261723763
  0
LINE
  5
82
100
AcDbEntity
  8
1
  6
CONTINUOUS
 62
           2
100
AcDbLine
 10
249.37117207191
 20
2218.621261723763
 11
249.24367207191
 21
2218.663761723763
  0
LINE
  5
81
100
AcDbEntity
  8
1
  6
CONTINUOUS
 62
           2
100
AcDbLine
 10
249.24367207191
 20
2218.663761723763
 11
249.03117207191
 21
2218.706261723763
  0
LINE
  5
80
100
AcDbEntity
  8
1
  6
CONTINUOUS
 62
           2
100
AcDbLine
 10
249.03117207191
 20
2218.706261723763
 11
248.86117207191
 21
2218.706261723763
  0
LINE
  5
7F
100
AcDbEntity
  8
1
  6
CONTINUOUS
 62
           2
100
AcDbLine
 10
248.86117207191
 20
2218.706261723763
 11
248.69117207191
 21
2218.663761723763
  0
LINE
  5
7E
100
AcDbEntity
  8
1
  6
CONTINUOUS
 62
           2
100
AcDbLine
 10
248.69117207191
 20
2218.663761723763
 11
248.56367207191
 21
2218.621261723763
  0
LINE
  5
7D
100
AcDbEntity
  8
1
  6
CONTINUOUS
 62
           2
100
AcDbLine
 10
248.56367207191
 20
2218.621261723763
 11
248.43617207191
 21
2218.536261723763
  0
LINE
  5
7C
100
AcDbEntity
  8
1
  6
CONTINUOUS
 62
           2
100
AcDbLine
 10
248.43617207191
 20
2218.536261723763
 11
248.39367207191
 21
2218.408761723763
  0
LINE
  5
7B
100
AcDbEntity
  8
1
  6
CONTINUOUS
 62
           2
100
AcDbLine
 10
248.39367207191
 20
2218.408761723763
 11
248.39367207191
 21
2218.323761723763
  0
LINE
  5
7A
100
AcDbEntity
  8
1
  6
CONTINUOUS
 62
           2
100
AcDbLine
 10
248.39367207191
 20
2218.323761723763
 11
248.43617207191
 21
2218.196261723763
  0
LINE
  5
79
100
AcDbEntity
  8
1
  6
CONTINUOUS
 62
           2
100
AcDbLine
 10
248.43617207191
 20
2218.196261723763
 11
248.56367207191
 21
2218.111261723763
  0
LINE
  5
78
100
AcDbEntity
  8
1
  6
CONTINUOUS
 62
           2
100
AcDbLine
 10
248.56367207191
 20
2218.111261723763
 11
249.28617207191
 21
2217.813761723763
  0
LINE
  5
77
100
AcDbEntity
  8
1
  6
CONTINUOUS
 62
           2
100
AcDbLine
 10
249.28617207191
 20
2217.813761723763
 11
249.41367207191
 21
2217.728761723763
  0
LINE
  5
76
100
AcDbEntity
  8
1
  6
CONTINUOUS
 62
           2
100
AcDbLine
 10
249.41367207191
 20
2217.728761723763
 11
249.49867207191
 21
2217.601261723763
  0
LINE
  5
75
100
AcDbEntity
  8
1
  6
CONTINUOUS
 62
           2
100
AcDbLine
 10
249.49867207191
 20
2217.601261723763
 11
249.54117207191
 21
2217.473761723763
  0
LINE
  5
74
100
AcDbEntity
  8
1
  6
CONTINUOUS
 62
           2
100
AcDbLine
 10
249.54117207191
 20
2217.473761723763
 11
249.54117207191
 21
2217.388761723763
  0
LINE
  5
73
100
AcDbEntity
  8
1
  6
CONTINUOUS
 62
           2
100
AcDbLine
 10
249.54117207191
 20
2217.388761723763
 11
249.49867207191
 21
2217.261261723763
  0
LINE
  5
72
100
AcDbEntity
  8
1
  6
CONTINUOUS
 62
           2
100
AcDbLine
 10
249.49867207191
 20
2217.261261723763
 11
249.41367207191
 21
2217.133761723763
  0
LINE
  5
71
100
AcDbEntity
  8
1
  6
CONTINUOUS
 62
           2
100
AcDbLine
 10
249.41367207191
 20
2217.133761723763
 11
249.28617207191
 21
2217.048761723763
  0
LINE
  5
70
100
AcDbEntity
  8
1
  6
CONTINUOUS
 62
           2
100
AcDbLine
 10
249.28617207191
 20
2217.048761723763
 11
249.07367207191
 21
2217.006261723763
  0
LINE
  5
6F
100
AcDbEntity
  8
1
  6
CONTINUOUS
 62
           2
100
AcDbLine
 10
249.07367207191
 20
2217.006261723763
 11
248.81867207191
 21
2217.006261723763
  0
LINE
  5
6E
100
AcDbEntity
  8
1
  6
CONTINUOUS
 62
           2
100
AcDbLine
 10
248.81867207191
 20
2217.006261723763
 11
248.60617207191
 21
2217.048761723763
  0
LINE
  5
6D
100
AcDbEntity
  8
1
  6
CONTINUOUS
 62
           2
100
AcDbLine
 10
248.60617207191
 20
2217.048761723763
 11
248.43617207191
 21
2217.133761723763
  0
LINE
  5
6C
100
AcDbEntity
  8
1
  6
CONTINUOUS
 62
           2
100
AcDbLine
 10
248.43617207191
 20
2217.133761723763
 11
248.35117207191
 21
2217.218761723763
  0
LINE
  5
6B
100
AcDbEntity
  8
1
  6
CONTINUOUS
 62
           2
100
AcDbLine
 10
249.50627237516
 20
2218.516777504936
 11
249.50627237516
 21
2220.216777504936
  0
LINE
  5
6A
100
AcDbEntity
  8
1
  6
CONTINUOUS
 62
           2
100
AcDbLine
 10
250.16405890779
 20
2221.949427959811
 11
250.16405890779
 21
2220.546927959811
  0
LINE
  5
69
100
AcDbEntity
  8
1
  6
CONTINUOUS
 62
           2
100
AcDbLine
 10
250.16405890779
 20
2220.546927959811
 11
250.07905890779
 21
2220.376927959811
  0
LINE
  5
68
100
AcDbEntity
  8
1
  6
CONTINUOUS
 62
           2
100
AcDbLine
 10
250.07905890779
 20
2220.376927959811
 11
249.95155890779
 21
2220.291927959811
  0
LINE
  5
67
100
AcDbEntity
  8
1
  6
CONTINUOUS
 62
           2
100
AcDbLine
 10
249.95155890779
 20
2220.291927959811
 11
249.82405890779
 21
2220.249427959811
  0
LINE
  5
66
100
AcDbEntity
  8
1
  6
CONTINUOUS
 62
           2
100
AcDbLine
 10
249.82405890779
 20
2220.249427959811
 11
249.48405890779
 21
2220.249427959811
  0
LINE
  5
65
100
AcDbEntity
  8
1
  6
CONTINUOUS
 62
           2
100
AcDbLine
 10
236.414627979635
 20
2464.435738967143
 11
244.114627979635
 21
2464.435738967143
  0
LINE
  5
64
100
AcDbEntity
  8
1
  6
CONTINUOUS
 62
           2
100
AcDbLine
 10
234.664627979635
 20
2460.235738967143
 11
240.264627979635
 21
2474.235738967143
  0
LINE
  5
63
100
AcDbEntity
  8
1
  6
CONTINUOUS
 62
           2
100
AcDbLine
 10
240.264627979635
 20
2474.235738967143
 11
245.864627979635
 21
2460.235738967143
  0
LINE
  5
62
100
AcDbEntity
  8
1
  6
CONTINUOUS
 62
           2
100
AcDbLine
 10
1031.901894293587
 20
1514.61231303711
 11
1039.601894293587
 21
1514.61231303711
  0
LINE
  5
61
100
AcDbEntity
  8
1
  6
CONTINUOUS
 62
           2
100
AcDbLine
 10
1030.151894293587
 20
1510.41231303711
 11
1035.751894293587
 21
1524.41231303711
  0
LINE
  5
60
100
AcDbEntity
  8
1
  6
CONTINUOUS
 62
           2
100
AcDbLine
 10
1035.751894293587
 20
1524.41231303711
 11
1041.351894293587
 21
1510.41231303711
  0
LINE
  5
5F
100
AcDbEntity
  8
1
  6
CONTINUOUS
 62
           2
100
AcDbLine
 10
1057.529672071365
 20
1510.41231303711
 11
1059.863005404698
 21
1512.16231303711
  0
LINE
  5
5E
100
AcDbEntity
  8
1
  6
CONTINUOUS
 62
           2
100
AcDbLine
 10
1059.863005404698
 20
1512.16231303711
 11
1061.418560960254
 21
1513.91231303711
  0
LINE
  5
5D
100
AcDbEntity
  8
1
  6
CONTINUOUS
 62
           2
100
AcDbLine
 10
1061.418560960254
 20
1513.91231303711
 11
1062.196338738031
 21
1516.09981303711
  0
LINE
  5
5C
100
AcDbEntity
  8
1
  6
CONTINUOUS
 62
           2
100
AcDbLine
 10
1062.196338738031
 20
1516.09981303711
 11
1062.58522762692
 21
1518.28731303711
  0
LINE
  5
5B
100
AcDbEntity
  8
1
  6
CONTINUOUS
 62
           2
100
AcDbLine
 10
1062.58522762692
 20
1518.28731303711
 11
1062.974116515809
 21
1521.34981303711
  0
LINE
  5
5A
100
AcDbEntity
  8
1
  6
CONTINUOUS
 62
           2
100
AcDbLine
 10
1066.863005404698
 20
1521.34981303711
 11
1062.974116515809
 21
1521.34981303711
  0
LINE
  5
59
100
AcDbEntity
  8
1
  6
CONTINUOUS
 62
           2
100
AcDbLine
 10
1060.640783182476
 20
1524.41231303711
 11
1059.863005404698
 21
1522.22481303711
  0
LINE
  5
58
100
AcDbEntity
  8
1
  6
CONTINUOUS
 62
           2
100
AcDbLine
 10
1059.863005404698
 20
1522.22481303711
 11
1058.307449849143
 21
1519.59981303711
  0
LINE
  5
57
100
AcDbEntity
  8
1
  6
CONTINUOUS
 62
           2
100
AcDbLine
 10
1057.140783182476
 20
1517.84981303711
 11
1068.807449849143
 21
1517.84981303711
  0
LINE
  5
56
100
AcDbEntity
  8
1
  6
CONTINUOUS
 62
           2
100
AcDbLine
 10
1062.58522762692
 20
1517.41231303711
 11
1064.140783182476
 21
1514.78731303711
  0
LINE
  5
55
100
AcDbEntity
  8
1
  6
CONTINUOUS
 62
           2
100
AcDbLine
 10
1064.140783182476
 20
1514.78731303711
 11
1066.08522762692
 21
1512.59981303711
  0
LINE
  5
54
100
AcDbEntity
  8
1
  6
CONTINUOUS
 62
           2
100
AcDbLine
 10
1066.08522762692
 20
1512.59981303711
 11
1068.418560960254
 21
1510.84981303711
  0
LINE
  5
53
100
AcDbEntity
  8
1
  6
CONTINUOUS
 62
           2
100
AcDbLine
 10
1062.974116515809
 20
1521.34981303711
 11
1059.474116515809
 21
1521.34981303711
  0
LINE
  5
52
100
AcDbEntity
  8
1
  6
CONTINUOUS
 62
           2
100
AcDbLine
 10
1073.474116515809
 20
1510.41231303711
 11
1073.474116515809
 21
1518.28731303711
  0
LINE
  5
51
100
AcDbEntity
  8
1
  6
CONTINUOUS
 62
           2
100
AcDbLine
 10
1071.140783182476
 20
1516.09981303711
 11
1072.696338738031
 21
1517.41231303711
  0
LINE
  5
50
100
AcDbEntity
  8
1
  6
CONTINUOUS
 62
           2
100
AcDbLine
 10
1072.696338738031
 20
1517.41231303711
 11
1073.474116515809
 21
1518.28731303711
  0
LINE
  5
4F
100
AcDbEntity
  8
1
  6
CONTINUOUS
 62
           2
100
AcDbLine
 10
1074.640783182476
 20
1519.59981303711
 11
1075.418560960254
 21
1521.34981303711
  0
LINE
  5
4E
100
AcDbEntity
  8
1
  6
CONTINUOUS
 62
           2
100
AcDbLine
 10
1075.418560960254
 20
1521.34981303711
 11
1073.474116515809
 21
1521.34981303711
  0
LINE
  5
4D
100
AcDbEntity
  8
1
  6
CONTINUOUS
 62
           2
100
AcDbLine
 10
1073.474116515809
 20
1521.34981303711
 11
1073.474116515809
 21
1523.97481303711
  0
LINE
  5
4C
100
AcDbEntity
  8
1
  6
CONTINUOUS
 62
           2
100
AcDbLine
 10
1074.640783182476
 20
1517.84981303711
 11
1075.807449849143
 21
1516.09981303711
  0
LINE
  5
4B
100
AcDbEntity
  8
1
  6
CONTINUOUS
 62
           2
100
AcDbLine
 10
1077.363005404698
 20
1515.66231303711
 11
1077.363005404698
 21
1518.28731303711
  0
LINE
  5
4A
100
AcDbEntity
  8
1
  6
CONTINUOUS
 62
           2
100
AcDbLine
 10
1077.363005404698
 20
1523.53731303711
 11
1081.251894293587
 21
1523.53731303711
  0
LINE
  5
49
100
AcDbEntity
  8
1
  6
CONTINUOUS
 62
           2
100
AcDbLine
 10
1081.251894293587
 20
1523.53731303711
 11
1081.251894293587
 21
1520.91231303711
  0
LINE
  5
48
100
AcDbEntity
  8
1
  6
CONTINUOUS
 62
           2
100
AcDbLine
 10
1081.251894293587
 20
1515.66231303711
 11
1080.08522762692
 21
1515.66231303711
  0
LINE
  5
47
100
AcDbEntity
  8
1
  6
CONTINUOUS
 62
           2
100
AcDbLine
 10
1077.363005404698
 20
1518.28731303711
 11
1081.251894293587
 21
1518.28731303711
  0
LINE
  5
46
100
AcDbEntity
  8
1
  6
CONTINUOUS
 62
           2
100
AcDbLine
 10
1081.251894293587
 20
1520.91231303711
 11
1077.363005404698
 21
1520.91231303711
  0
LINE
  5
45
100
AcDbEntity
  8
1
  6
CONTINUOUS
 62
           2
100
AcDbLine
 10
1078.529672071365
 20
1515.66231303711
 11
1078.140783182476
 21
1514.34981303711
  0
LINE
  5
44
100
AcDbEntity
  8
1
  6
CONTINUOUS
 62
           2
100
AcDbLine
 10
1078.140783182476
 20
1514.34981303711
 11
1076.974116515809
 21
1512.16231303711
  0
LINE
  5
43
100
AcDbEntity
  8
1
  6
CONTINUOUS
 62
           2
100
AcDbLine
 10
1076.974116515809
 20
1512.16231303711
 11
1075.029672071365
 21
1510.41231303711
  0
LINE
  5
42
100
AcDbEntity
  8
1
  6
CONTINUOUS
 62
           2
100
AcDbLine
 10
1080.08522762692
 20
1515.66231303711
 11
1080.08522762692
 21
1511.28731303711
  0
LINE
  5
41
100
AcDbEntity
  8
1
  6
CONTINUOUS
 62
           2
100
AcDbLine
 10
1080.08522762692
 20
1511.28731303711
 11
1080.863005404698
 21
1510.84981303711
  0
LINE
  5
40
100
AcDbEntity
  8
1
  6
CONTINUOUS
 62
           2
100
AcDbLine
 10
1080.863005404698
 20
1510.84981303711
 11
1082.807449849143
 21
1510.84981303711
  0
LINE
  5
3F
100
AcDbEntity
  8
1
  6
CONTINUOUS
 62
           2
100
AcDbLine
 10
1082.807449849143
 20
1510.84981303711
 11
1083.196338738031
 21
1512.16231303711
  0
LINE
  5
3E
100
AcDbEntity
  8
1
  6
CONTINUOUS
 62
           2
100
AcDbLine
 10
1080.08522762692
 20
1515.66231303711
 11
1077.363005404698
 21
1515.66231303711
  0
LINE
  5
3D
100
AcDbEntity
  8
1
  6
CONTINUOUS
 62
           2
100
AcDbLine
 10
1077.363005404698
 20
1520.91231303711
 11
1077.363005404698
 21
1523.53731303711
  0
LINE
  5
3C
100
AcDbEntity
  8
1
  6
CONTINUOUS
 62
           2
100
AcDbLine
 10
1081.251894293587
 20
1520.91231303711
 11
1081.251894293587
 21
1515.66231303711
  0
LINE
  5
3B
100
AcDbEntity
  8
1
  6
CONTINUOUS
 62
           2
100
AcDbLine
 10
1077.363005404698
 20
1518.28731303711
 11
1077.363005404698
 21
1520.91231303711
  0
LINE
  5
3A
100
AcDbEntity
  8
1
  6
CONTINUOUS
 62
           2
100
AcDbLine
 10
1073.474116515809
 20
1521.34981303711
 11
1071.529672071365
 21
1521.34981303711
  0
LINE
  5
39
100
AcDbEntity
  8
1
  6
CONTINUOUS
 62
           2
100
AcDbLine
 10
1073.474116515809
 20
1518.28731303711
 11
1074.640783182476
 21
1519.59981303711
  0
LINE
  5
38
100
AcDbEntity
  8
1
  6
CONTINUOUS
 62
           2
100
AcDbLine
 10
1085.918560960254
 20
1510.84981303711
 11
1096.029672071365
 21
1510.84981303711
  0
LINE
  5
37
100
AcDbEntity
  8
1
  6
CONTINUOUS
 62
           2
100
AcDbLine
 10
1096.029672071365
 20
1510.84981303711
 11
1096.029672071365
 21
1523.53731303711
  0
LINE
  5
36
100
AcDbEntity
  8
1
  6
CONTINUOUS
 62
           2
100
AcDbLine
 10
1096.029672071365
 20
1523.53731303711
 11
1085.918560960254
 21
1523.53731303711
  0
LINE
  5
35
100
AcDbEntity
  8
1
  6
CONTINUOUS
 62
           2
100
AcDbLine
 10
1085.918560960254
 20
1523.53731303711
 11
1085.918560960254
 21
1510.84981303711
  0
LINE
  5
34
100
AcDbEntity
  8
1
  6
CONTINUOUS
 62
           2
100
AcDbLine
 10
1087.863005404698
 20
1512.59981303711
 11
1089.807449849143
 21
1513.91231303711
  0
LINE
  5
33
100
AcDbEntity
  8
1
  6
CONTINUOUS
 62
           2
100
AcDbLine
 10
1089.807449849143
 20
1513.91231303711
 11
1090.974116515809
 21
1515.22481303711
  0
LINE
  5
32
100
AcDbEntity
  8
1
  6
CONTINUOUS
 62
           2
100
AcDbLine
 10
1090.974116515809
 20
1515.22481303711
 11
1093.307449849143
 21
1518.72481303711
  0
LINE
  5
31
100
AcDbEntity
  8
1
  6
CONTINUOUS
 62
           2
100
AcDbLine
 10
1093.307449849143
 20
1518.72481303711
 11
1094.474116515809
 21
1521.34981303711
  0
LINE
  5
30
100
AcDbEntity
  8
1
  6
CONTINUOUS
 62
           2
100
AcDbLine
 10
1090.974116515809
 20
1519.59981303711
 11
1090.196338738031
 21
1521.78731303711
  0
LINE
  5
2F
100
AcDbEntity
  8
1
  6
CONTINUOUS
 62
           2
100
AcDbLine
 10
1089.029672071365
 20
1519.16231303711
 11
1087.863005404698
 21
1521.34981303711
  0
LINE
  5
2E
100
AcDbEntity
  8
1
  6
CONTINUOUS
 62
           2
100
AcDbLine
 10
1089.807449849143
 20
1517.41231303711
 11
1091.363005404698
 21
1516.09981303711
  0
LINE
  5
2D
100
AcDbEntity
  8
1
  6
CONTINUOUS
 62
           2
100
AcDbLine
 10
1091.363005404698
 20
1516.09981303711
 11
1092.529672071365
 21
1514.78731303711
  0
LINE
  5
2C
100
AcDbEntity
  8
1
  6
CONTINUOUS
 62
           2
100
AcDbLine
 10
1092.529672071365
 20
1514.78731303711
 11
1093.307449849143
 21
1513.47481303711
  0
LINE
  5
2B
100
AcDbEntity
  8
1
  6
CONTINUOUS
 62
           2
100
AcDbLine
 10
-44.59222868919
 20
1809.771330626009
 11
-44.59222868919
 21
1823.771330626009
  0
LINE
  5
2A
100
AcDbEntity
  8
1
  6
CONTINUOUS
 62
           2
100
AcDbLine
 10
-40.39222868919
 20
1809.771330626009
 11
-40.39222868919
 21
1823.771330626009
  0
LINE
  5
29
100
AcDbEntity
  8
1
  6
CONTINUOUS
 62
           2
100
AcDbLine
 10
-40.39222868919
 20
1823.771330626009
 11
-30.59222868919
 21
1809.771330626009
  0
LINE
  5
28
100
AcDbEntity
  8
1
  6
CONTINUOUS
 62
           2
100
AcDbLine
 10
-30.59222868919
 20
1809.771330626009
 11
-30.59222868919
 21
1823.771330626009
  0
ENDSEC
  0
SECTION
  2
OBJECTS
  0
DICTIONARY
  5
19
100
AcDbDictionary
  3
ACAD_GROUP
350
1A
  3
ACAD_MLINESTYLE
350
1B
  0
DICTIONARY
  5
1A
102
{ACAD_REACTORS
330
19
102
}
100
AcDbDictionary
  0
DICTIONARY
  5
1B
102
{ACAD_REACTORS
330
19
102
}
100
AcDbDictionary
  3
STANDARD
350
1C
  0
MLINESTYLE
  5
1C
102
{ACAD_REACTORS
330
1B
102
}
100
AcDbMlineStyle
  2
STANDARD
 70
           0
  3

 62
           0
 51
90.0
 52
90.0
 71
           2
 49
0.5
 62
         256
  6
BYLAYER
 49
-0.5
 62
         256
  6
BYLAYER
  0
ENDSEC
  0
EOF
