  0
SECTION
  2
HEADER
  9
$ACADVER
  1
AC1015
  9
$ACADMAINTVER
 70
     6
  9
$DWGCODEPAGE
  3
DOS932
  9
$INSBASE
 10
0.0
 20
0.0
 30
0.0
  9
$EXTMIN
 10
0.0
 20
0.0
 30
0.0
  9
$EXTMAX
 10
297.0
 20
210.0
 30
0.0
  9
$LIMMIN
 10
0.0
 20
0.0
  9
$LIMMAX
 10
0.0
 20
0.0
  9
$ORTHOMODE
 70
     0
  9
$REGENMODE
 70
     1
  9
$FILLMODE
 70
     1
  9
$QTEXTMODE
 70
     0
  9
$MIRRTEXT
 70
     1
  9
$LTSCALE
 40
1.0
  9
$ATTMODE
 70
     1
  9
$TEXTSIZE
 40
3.175
  9
$TRACEWID
 40
1.0
  9
$TEXTSTYLE
  7
Standard
  9
$CLAYER
  8
0
  9
$CELTYPE
  6
ByLayer
  9
$CECOLOR
 62
   256
  9
$CELTSCALE
 40
1.0
  9
$DISPSILH
 70
     0
  9
$DIMSCALE
 40
1.0
  9
$DIMASZ
 40
2.0
  9
$DIMEXO
 40
1.0
  9
$DIMDLI
 40
3.75
  9
$DIMRND
 40
0.0
  9
$DIMDLE
 40
0.0
  9
$DIMEXE
 40
1.0
  9
$DIMTP
 40
0.0
  9
$DIMTM
 40
0.0
  9
$DIMTXT
 40
3.175
  9
$DIMCEN
 40
2.5
  9
$DIMTSZ
 40
0.0
  9
$DIMTOL
 70
     0
  9
$DIMLIM
 70
     0
  9
$DIMTIH
 70
     1
  9
$DIMTOH
 70
     1
  9
$DIMSE1
 70
     0
  9
$DIMSE2
 70
     0
  9
$DIMTAD
 70
     1
  9
$DIMZIN
 70
     0
  9
$DIMBLK
  1

  9
$DIMASO
 70
     1
  9
$DIMSHO
 70
     1
  9
$DIMPOST
  1

  9
$DIMAPOST
  1

  9
$DIMALT
 70
     0
  9
$DIMALTD
 70
     3
  9
$DIMALTF
 40
0.0393700787
  9
$DIMLFAC
 40
7.0
  9
$DIMTOFL
 70
     1
  9
$DIMTVP
 40
0.0
  9
$DIMTIX
 70
     0
  9
$DIMSOXD
 70
     0
  9
$DIMSAH
 70
     0
  9
$DIMBLK1
  1

  9
$DIMBLK2
  1

  9
$DIMSTYLE
  2
ISO-25
  9
$DIMCLRD
 70
     0
  9
$DIMCLRE
 70
     0
  9
$DIMCLRT
 70
     0
  9
$DIMTFAC
 40
1.0
  9
$DIMGAP
 40
1.524
  9
$DIMJUST
 70
     0
  9
$DIMSD1
 70
     0
  9
$DIMSD2
 70
     0
  9
$DIMTOLJ
 70
     0
  9
$DIMTZIN
 70
     0
  9
$DIMALTZ
 70
     0
  9
$DIMALTTZ
 70
     0
  9
$DIMUPT
 70
     0
  9
$DIMDEC
 70
     2
  9
$DIMTDEC
 70
     2
  9
$DIMALTU
 70
     2
  9
$DIMALTTD
 70
     3
  9
$DIMTXSTY
  7
Standard
  9
$DIMAUNIT
 70
     0
  9
$DIMADEC
 70
     0
  9
$DIMALTRND
 40
0.0
  9
$DIMAZIN
 70
     0
  9
$DIMDSEP
 70
    44
  9
$DIMATFIT
 70
     3
  9
$DIMFRAC
 70
     0
  9
$DIMLDRBLK
  1

  9
$DIMLUNIT
 70
     2
  9
$DIMLWD
 70
    -2
  9
$DIMLWE
 70
    -2
  9
$DIMTMOVE
 70
     0
  9
$LUNITS
 70
     2
  9
$LUPREC
 70
     1
  9
$SKETCHINC
 40
1.0
  9
$FILLETRAD
 40
10.0
  9
$AUNITS
 70
     0
  9
$AUPREC
 70
     0
  9
$MENU
  1
.
  9
$ELEVATION
 40
0.0
  9
$PELEVATION
 40
0.0
  9
$THICKNESS
 40
0.0
  9
$LIMCHECK
 70
     0
  9
$CHAMFERA
 40
10.0
  9
$CHAMFERB
 40
10.0
  9
$CHAMFERC
 40
20.0
  9
$CHAMFERD
 40
0.0
  9
$SKPOLY
 70
     0
  9
$TDCREATE
 40
2455622.690460625
  9
$TDUCREATE
 40
2455622.315460625
  9
$TDUPDATE
 40
2455622.690460637
  9
$TDUUPDATE
 40
2455622.315460637
  9
$TDINDWG
 40
0.0000000116
  9
$TDUSRTIMER
 40
0.0000000116
  9
$USRTIMER
 70
     1
  9
$ANGBASE
 50
0.0
  9
$ANGDIR
 70
     0
  9
$PDMODE
 70
     0
  9
$PDSIZE
 40
-1.0
  9
$PLINEWID
 40
0.0
  9
$SPLFRAME
 70
     0
  9
$SPLINETYPE
 70
     6
  9
$SPLINESEGS
 70
     8
  9
$HANDSEED
  5
3D7
  9
$SURFTAB1
 70
     6
  9
$SURFTAB2
 70
     6
  9
$SURFTYPE
 70
     6
  9
$SURFU
 70
     6
  9
$SURFV
 70
     6
  9
$UCSBASE
  2

  9
$UCSNAME
  2

  9
$UCSORG
 10
0.0
 20
0.0
 30
0.0
  9
$UCSXDIR
 10
1.0
 20
0.0
 30
0.0
  9
$UCSYDIR
 10
0.0
 20
1.0
 30
0.0
  9
$UCSORTHOREF
  2

  9
$UCSORTHOVIEW
 70
     0
  9
$UCSORGTOP
 10
0.0
 20
0.0
 30
0.0
  9
$UCSORGBOTTOM
 10
0.0
 20
0.0
 30
0.0
  9
$UCSORGLEFT
 10
0.0
 20
0.0
 30
0.0
  9
$UCSORGRIGHT
 10
0.0
 20
0.0
 30
0.0
  9
$UCSORGFRONT
 10
0.0
 20
0.0
 30
0.0
  9
$UCSORGBACK
 10
0.0
 20
0.0
 30
0.0
  9
$PUCSBASE
  2

  9
$PUCSNAME
  2

  9
$PUCSORG
 10
0.0
 20
0.0
 30
0.0
  9
$PUCSXDIR
 10
1.0
 20
0.0
 30
0.0
  9
$PUCSYDIR
 10
0.0
 20
1.0
 30
0.0
  9
$PUCSORTHOREF
  2

  9
$PUCSORTHOVIEW
 70
     0
  9
$PUCSORGTOP
 10
0.0
 20
0.0
 30
0.0
  9
$PUCSORGBOTTOM
 10
0.0
 20
0.0
 30
0.0
  9
$PUCSORGLEFT
 10
0.0
 20
0.0
 30
0.0
  9
$PUCSORGRIGHT
 10
0.0
 20
0.0
 30
0.0
  9
$PUCSORGFRONT
 10
0.0
 20
0.0
 30
0.0
  9
$PUCSORGBACK
 10
0.0
 20
0.0
 30
0.0
  9
$USERI1
 70
     0
  9
$USERI2
 70
     0
  9
$USERI3
 70
     0
  9
$USERI4
 70
     0
  9
$USERI5
 70
     0
  9
$USERR1
 40
0.0
  9
$USERR2
 40
0.0
  9
$USERR3
 40
0.0
  9
$USERR4
 40
0.0
  9
$USERR5
 40
0.0
  9
$WORLDVIEW
 70
     1
  9
$SHADEDGE
 70
     3
  9
$SHADEDIF
 70
    70
  9
$TILEMODE
 70
     1
  9
$MAXACTVP
 70
    64
  9
$PINSBASE
 10
0.0
 20
0.0
 30
0.0
  9
$PLIMCHECK
 70
     0
  9
$PEXTMIN
 10
1.0000000000E+20
 20
1.0000000000E+20
 30
1.0000000000E+20
  9
$PEXTMAX
 10
-1.0000000000E+20
 20
-1.0000000000E+20
 30
-1.0000000000E+20
  9
$PLIMMIN
 10
0.0
 20
0.0
  9
$PLIMMAX
 10
420.0
 20
297.0
  9
$UNITMODE
 70
     0
  9
$VISRETAIN
 70
     1
  9
$PLINEGEN
 70
     0
  9
$PSLTSCALE
 70
     1
  9
$TREEDEPTH
 70
  3020
  9
$CMLSTYLE
  2
Standard
  9
$CMLJUST
 70
     0
  9
$CMLSCALE
 40
20.0
  9
$PROXYGRAPHICS
 70
     1
  9
$MEASUREMENT
 70
     1
  9
$CELWEIGHT
370
    -1
  9
$ENDCAPS
280
     0
  9
$JOINSTYLE
280
     0
  9
$LWDISPLAY
290
     1
  9
$INSUNITS
 70
     4
  9
$HYPERLINKBASE
  1

  9
$STYLESHEET
  1

  9
$XEDIT
290
     1
  9
$CEPSNTYPE
380
     0
  9
$PSTYLEMODE
290
     1
  9
$FINGERPRINTGUID
  2
{3BE9B914-14B8-4F9B-96EA-CC1718272C96}
  9
$VERSIONGUID
  2
{FAEB1C32-E019-11D5-929B-00C0DF256EC4}
  9
$EXTNAMES
290
     1
  9
$PSVPSCALE
 40
0.0
  9
$OLESTARTUP
290
     0
  0
ENDSEC
  0
SECTION
  2
CLASSES
  0
CLASS
  1
ACDBDICTIONARYWDFLT
  2
AcDbDictionaryWithDefault
  3
ObjectDBX Classes
 90
        0
280
     0
281
     0
  0
CLASS
  1
ACDBPLACEHOLDER
  2
AcDbPlaceHolder
  3
ObjectDBX Classes
 90
        0
280
     0
281
     0
  0
CLASS
  1
LAYOUT
  2
AcDbLayout
  3
ObjectDBX Classes
 90
        0
280
     0
281
     0
  0
ENDSEC
  0
SECTION
  2
TABLES
  0
TABLE
  2
VPORT
  5
8
330
0
100
AcDbSymbolTable
 70
     1
  0
VPORT
  5
29
330
8
100
AcDbSymbolTableRecord
100
AcDbViewportTableRecord
  2
*Active
 70
     0
 10
0.0
 20
0.0
 11
1.0
 21
1.0
 12
148.5
 22
105.0
 13
0.0
 23
0.0
 14
10.0
 24
10.0
 15
10.0
 25
10.0
 16
0.0
 26
0.0
 36
1.0
 17
0.0
 27
0.0
 37
0.0
 40
210.0
 41
1.4142857143
 42
50.0
 43
0.0
 44
0.0
 50
0.0
 51
0.0
 71
     0
 72
  2000
 73
     1
 74
     3
 75
     0
 76
     0
 77
     0
 78
     0
281
     0
 65
     1
110
0.0
120
0.0
130
0.0
111
1.0
121
0.0
131
0.0
112
0.0
122
1.0
132
0.0
 79
     0
146
0.0
  0
ENDTAB
  0
TABLE
  2
LTYPE
  5
5
330
0
100
AcDbSymbolTable
 70
     6
  0
LTYPE
  5
14
330
5
100
AcDbSymbolTableRecord
100
AcDbLinetypeTableRecord
  2
ByBlock
 70
     0
  3

 72
    65
 73
     0
 40
0.0
  0
LTYPE
  5
15
330
5
100
AcDbSymbolTableRecord
100
AcDbLinetypeTableRecord
  2
ByLayer
 70
     0
  3

 72
    65
 73
     0
 40
0.0
  0
LTYPE
  5
16
330
5
100
AcDbSymbolTableRecord
100
AcDbLinetypeTableRecord
  2
Continuous
 70
     0
  3
Solid line
 72
    65
 73
     0
 40
0.0
  0
LTYPE
  5
2A
330
5
100
AcDbSymbolTableRecord
100
AcDbLinetypeTableRecord
  2
HIDDEN
 70
     0
  3
Hidden __ __ __ __ __ __ __ __ __ __ __ __ __ __
 72
    65
 73
     2
 40
1.905
 49
1.27
 74
     0
 49
-0.635
 74
     0
  0
LTYPE
  5
2B
330
5
100
AcDbSymbolTableRecord
100
AcDbLinetypeTableRecord
  2
PHANTOM
 70
     0
  3
Phantom ______  __  __  ______  __  __  ______
 72
    65
 73
     6
 40
12.7
 49
6.35
 74
     0
 49
-1.27
 74
     0
 49
1.27
 74
     0
 49
-1.27
 74
     0
 49
1.27
 74
     0
 49
-1.27
 74
     0
  0
LTYPE
  5
2C
330
5
100
AcDbSymbolTableRecord
100
AcDbLinetypeTableRecord
  2
CENTER
 70
     0
  3
Center ____ _ ____ _ ____ _ ____ _ ____ _ ____
 72
    65
 73
     4
 40
10.16
 49
6.35
 74
     0
 49
-1.27
 74
     0
 49
1.27
 74
     0
 49
-1.27
 74
     0
  0
LTYPE
  5
2D
330
5
100
AcDbSymbolTableRecord
100
AcDbLinetypeTableRecord
  2
CENTERX2
 70
     0
  3
Center (2x) ________  __  ________  __  _____
 72
    65
 73
     4
 40
20.32
 49
12.7
 74
     0
 49
-2.54
 74
     0
 49
2.54
 74
     0
 49
-2.54
 74
     0
  0
LTYPE
  5
2E
330
5
100
AcDbSymbolTableRecord
100
AcDbLinetypeTableRecord
  2
DOT2
 70
     0
  3
Dot (.5x) ........................................
 72
    65
 73
     2
 40
0.635
 49
0.0
 74
     0
 49
-0.635
 74
     0
  0
ENDTAB
  0
TABLE
  2
LAYER
  5
2
330
0
100
AcDbSymbolTable
 70
     5
  0
LAYER
  5
10
330
2
100
AcDbSymbolTableRecord
100
AcDbLayerTableRecord
  2
0
 70
     0
 62
     7
  6
Continuous
370
    -3
390
F
  0
LAYER
  5
2F
330
2
100
AcDbSymbolTableRecord
100
AcDbLayerTableRecord
  2
ﾚｲﾔｰ0
 70
     0
 62
  -211
  6
Continuous
370
    -3
390
F
  0
LAYER
  5
30
330
2
100
AcDbSymbolTableRecord
100
AcDbLayerTableRecord
  2
寸法線
 70
     0
 62
  -179
  6
Continuous
370
    -3
390
F
  0
LAYER
  5
31
330
2
100
AcDbSymbolTableRecord
100
AcDbLayerTableRecord
  2
中心線
 70
     0
 62
   179
  6
CENTERX2
370
    -3
390
F
  0
LAYER
  5
32
330
2
100
AcDbSymbolTableRecord
100
AcDbLayerTableRecord
  2
注記
 70
     0
 62
  -179
  6
Continuous
370
    -3
390
F
  0
ENDTAB
  0
TABLE
  2
STYLE
  5
3
330
0
100
AcDbSymbolTable
 70
     8
  0
STYLE
  5
11
330
3
100
AcDbSymbolTableRecord
100
AcDbTextStyleTableRecord
  2
Standard
 70
     0
 40
0.0
 41
1.0
 50
0.0
 71
     0
 42
2.5
  3
txt
  4
bigfont
  0
STYLE
  5
39
330
3
100
AcDbSymbolTableRecord
100
AcDbTextStyleTableRecord
  2
SLDTEXTSTYLE0
 70
     0
 40
0.0
 41
0.63
 50
0.0
 71
     0
 42
0.2
  3
TXT
  4
bigfont
  0
STYLE
  5
F6
330
3
100
AcDbSymbolTableRecord
100
AcDbTextStyleTableRecord
  2
SLDTEXTSTYLE1
 70
     0
 40
0.0
 41
0.7
 50
0.0
 71
     0
 42
0.2
  3
TXT
  4
bigfont
  0
STYLE
  5
115
330
3
100
AcDbSymbolTableRecord
100
AcDbTextStyleTableRecord
  2
SLDTEXTSTYLE2
 70
     0
 40
0.0
 41
0.65625
 50
0.0
 71
     0
 42
0.2
  3
TXT
  4
bigfont
  0
STYLE
  5
1BE
330
3
100
AcDbSymbolTableRecord
100
AcDbTextStyleTableRecord
  2
SLDTEXTSTYLE3
 70
     0
 40
0.0
 41
0.6666666667
 50
0.0
 71
     0
 42
0.2
  3
TXT
  4
bigfont
  0
STYLE
  5
3A9
330
3
100
AcDbSymbolTableRecord
100
AcDbTextStyleTableRecord
  2
SLDTEXTSTYLE4
 70
     0
 40
0.0
 41
0.6125
 50
0.0
 71
     0
 42
0.2
  3
TXT
  4
bigfont
  0
STYLE
  5
3AB
330
3
100
AcDbSymbolTableRecord
100
AcDbTextStyleTableRecord
  2
SLDTEXTSTYLE5
 70
     0
 40
0.0
 41
0.5833333333
 50
0.0
 71
     0
 42
0.2
  3
TXT
  4
bigfont
  0
STYLE
  5
3AD
330
3
100
AcDbSymbolTableRecord
100
AcDbTextStyleTableRecord
  2
SLDTEXTSTYLE6
 70
     0
 40
0.0
 41
0.56
 50
0.0
 71
     0
 42
0.2
  3
TXT
  4
bigfont
  0
ENDTAB
  0
TABLE
  2
VIEW
  5
6
330
0
100
AcDbSymbolTable
 70
     0
  0
ENDTAB
  0
TABLE
  2
UCS
  5
7
330
0
100
AcDbSymbolTable
 70
     0
  0
ENDTAB
  0
TABLE
  2
APPID
  5
9
330
0
100
AcDbSymbolTable
 70
     1
  0
APPID
  5
12
330
9
100
AcDbSymbolTableRecord
100
AcDbRegAppTableRecord
  2
ACAD
 70
     0
  0
ENDTAB
  0
TABLE
  2
DIMSTYLE
  5
A
330
0
100
AcDbSymbolTable
 70
     3
100
AcDbDimStyleTable
  0
DIMSTYLE
105
27
330
A
100
AcDbSymbolTableRecord
100
AcDbDimStyleTableRecord
  2
ISO-25
 70
     0
 41
2.5
 42
0.625
 43
3.75
 44
1.25
 73
     0
 74
     0
 77
     1
 78
     8
140
2.5
141
2.5
143
0.0393700787
147
0.625
171
     3
172
     1
271
     2
272
     2
274
     3
278
    44
283
     0
284
     8
340
11
  0
DIMSTYLE
105
104
330
A
100
AcDbSymbolTableRecord
100
AcDbDimStyleTableRecord
  2
SLDDIMSTYLE0
 70
     0
 41
0.1666666667
 44
0.0
140
0.5
147
0.125
173
     1
271
     0
272
     0
340
11
341
105
343
105
344
105
  0
DIMSTYLE
105
267
330
A
100
AcDbSymbolTableRecord
100
AcDbDimStyleTableRecord
  2
SLDDIMSTYLE1
 70
     0
 41
2.0
 44
0.0
140
2.0
147
0.5
173
     1
271
     0
272
     0
340
11
  0
ENDTAB
  0
TABLE
  2
BLOCK_RECORD
  5
1
330
0
100
AcDbSymbolTable
 70
    18
  0
BLOCK_RECORD
  5
1F
330
1
100
AcDbSymbolTableRecord
100
AcDbBlockTableRecord
  2
*Model_Space
340
22
  0
BLOCK_RECORD
  5
1B
330
1
100
AcDbSymbolTableRecord
100
AcDbBlockTableRecord
  2
*Paper_Space
340
1E
  0
BLOCK_RECORD
  5
23
330
1
100
AcDbSymbolTableRecord
100
AcDbBlockTableRecord
  2
*Paper_Space0
340
26
  0
BLOCK_RECORD
  5
F8
330
1
100
AcDbSymbolTableRecord
100
AcDbBlockTableRecord
  2
SW_NOTE_0
340
0
102
{BLKREFS
331
103
102
}
1001
ACAD
1000
DesignCenter Data
1002
{
1070
     1
1070
     0
1002
}
  0
BLOCK_RECORD
  5
105
330
1
100
AcDbSymbolTableRecord
100
AcDbBlockTableRecord
  2
_Dot
340
0
1001
ACAD
1000
DesignCenter Data
1002
{
1070
     1
1070
     0
1002
}
  0
BLOCK_RECORD
  5
10B
330
1
100
AcDbSymbolTableRecord
100
AcDbBlockTableRecord
  2
SW_NOTE_1
340
0
102
{BLKREFS
331
117
102
}
1001
ACAD
1000
DesignCenter Data
1002
{
1070
     1
1070
     0
1002
}
  0
BLOCK_RECORD
  5
119
330
1
100
AcDbSymbolTableRecord
100
AcDbBlockTableRecord
  2
SW_NOTE_2
340
0
102
{BLKREFS
331
124
102
}
1001
ACAD
1000
DesignCenter Data
1002
{
1070
     1
1070
     0
1002
}
  0
BLOCK_RECORD
  5
1B4
330
1
100
AcDbSymbolTableRecord
100
AcDbBlockTableRecord
  2
SW_NOTE_3
340
0
102
{BLKREFS
331
1C0
102
}
1001
ACAD
1000
DesignCenter Data
1002
{
1070
     1
1070
     0
1002
}
  0
BLOCK_RECORD
  5
1C2
330
1
100
AcDbSymbolTableRecord
100
AcDbBlockTableRecord
  2
SW_CENTERMARKSYMBOL_0
340
0
102
{BLKREFS
331
1CD
102
}
1001
ACAD
1000
DesignCenter Data
1002
{
1070
     1
1070
     0
1002
}
  0
BLOCK_RECORD
  5
25B
330
1
100
AcDbSymbolTableRecord
100
AcDbBlockTableRecord
  2
SW_NOTE_4
340
0
102
{BLKREFS
331
266
102
}
1001
ACAD
1000
DesignCenter Data
1002
{
1070
     1
1070
     0
1002
}
  0
BLOCK_RECORD
  5
2FC
330
1
100
AcDbSymbolTableRecord
100
AcDbBlockTableRecord
  2
SW_CENTERMARKSYMBOL_1
340
0
102
{BLKREFS
331
307
102
}
1001
ACAD
1000
DesignCenter Data
1002
{
1070
     1
1070
     0
1002
}
  0
BLOCK_RECORD
  5
308
330
1
100
AcDbSymbolTableRecord
100
AcDbBlockTableRecord
  2
SW_CENTERMARKSYMBOL_2
340
0
102
{BLKREFS
331
313
102
}
1001
ACAD
1000
DesignCenter Data
1002
{
1070
     1
1070
     0
1002
}
  0
BLOCK_RECORD
  5
314
330
1
100
AcDbSymbolTableRecord
100
AcDbBlockTableRecord
  2
SW_CENTERMARKSYMBOL_3
340
0
102
{BLKREFS
331
31F
102
}
1001
ACAD
1000
DesignCenter Data
1002
{
1070
     1
1070
     0
1002
}
  0
BLOCK_RECORD
  5
320
330
1
100
AcDbSymbolTableRecord
100
AcDbBlockTableRecord
  2
SW_CENTERMARKSYMBOL_4
340
0
102
{BLKREFS
331
32B
102
}
1001
ACAD
1000
DesignCenter Data
1002
{
1070
     1
1070
     0
1002
}
  0
BLOCK_RECORD
  5
384
330
1
100
AcDbSymbolTableRecord
100
AcDbBlockTableRecord
  2
SW_NOTE_5
340
0
102
{BLKREFS
331
390
102
}
1001
ACAD
1000
DesignCenter Data
1002
{
1070
     1
1070
     0
1002
}
  0
BLOCK_RECORD
  5
392
330
1
100
AcDbSymbolTableRecord
100
AcDbBlockTableRecord
  2
SW_NOTE_6
340
0
102
{BLKREFS
331
39E
102
}
1001
ACAD
1000
DesignCenter Data
1002
{
1070
     1
1070
     0
1002
}
  0
BLOCK_RECORD
  5
3A0
330
1
100
AcDbSymbolTableRecord
100
AcDbBlockTableRecord
  2
SW_NOTE_7
340
0
102
{BLKREFS
331
3AF
102
}
1001
ACAD
1000
DesignCenter Data
1002
{
1070
     1
1070
     0
1002
}
  0
BLOCK_RECORD
  5
3B1
330
1
100
AcDbSymbolTableRecord
100
AcDbBlockTableRecord
  2
SW_NOTE_8
340
0
102
{BLKREFS
331
3BC
102
}
1001
ACAD
1000
DesignCenter Data
1002
{
1070
     1
1070
     0
1002
}
  0
BLOCK_RECORD
  5
3BE
330
1
100
AcDbSymbolTableRecord
100
AcDbBlockTableRecord
  2
SW_CENTERMARKSYMBOL_5
340
0
102
{BLKREFS
331
3C9
102
}
1001
ACAD
1000
DesignCenter Data
1002
{
1070
     1
1070
     0
1002
}
  0
BLOCK_RECORD
  5
3CA
330
1
100
AcDbSymbolTableRecord
100
AcDbBlockTableRecord
  2
SW_CENTERMARKSYMBOL_6
340
0
102
{BLKREFS
331
3D5
102
}
1001
ACAD
1000
DesignCenter Data
1002
{
1070
     1
1070
     0
1002
}
  0
ENDTAB
  0
ENDSEC
  0
SECTION
  2
BLOCKS
  0
BLOCK
  5
20
330
1F
100
AcDbEntity
  8
0
100
AcDbBlockBegin
  2
*Model_Space
 70
     0
 71
     0
 10
0.0
 20
0.0
 30
0.0
  3
*Model_Space
  1

  0
ENDBLK
  5
21
330
1F
100
AcDbEntity
  8
0
100
AcDbBlockEnd
  0
BLOCK
  5
1C
330
1B
100
AcDbEntity
 67
     1
  8
0
100
AcDbBlockBegin
  2
*Paper_Space
 70
     0
 71
     0
 10
0.0
 20
0.0
 30
0.0
  3
*Paper_Space
  1

  0
ENDBLK
  5
1D
330
1B
100
AcDbEntity
 67
     1
  8
0
100
AcDbBlockEnd
  0
BLOCK
  5
24
330
23
100
AcDbEntity
  8
0
100
AcDbBlockBegin
  2
*Paper_Space0
 70
     0
 71
     0
 10
0.0
 20
0.0
 30
0.0
  3
*Paper_Space0
  1

  0
ENDBLK
  5
25
330
23
100
AcDbEntity
  8
0
100
AcDbBlockEnd
  0
BLOCK
  5
F9
330
F8
100
AcDbEntity
  8
0
100
AcDbBlockBegin
  2
SW_NOTE_0
 70
     0
 71
     0
 10
0.0
 20
0.0
 30
0.0
  3
SW_NOTE_0
  1

  0
LINE
  5
FB
330
F8
100
AcDbEntity
  8
寸法線
 62
     0
100
AcDbLine
 10
0.0
 20
0.0
 30
0.0
 11
9.5261265267
 21
0.0
 31
0.0
  0
LINE
  5
FC
330
F8
100
AcDbEntity
  8
寸法線
 62
     0
100
AcDbLine
 10
9.5261265267
 20
0.0
 30
0.0
 11
0.0
 21
0.0
 31
0.0
  0
LINE
  5
FD
330
F8
100
AcDbEntity
  8
寸法線
 62
     0
100
AcDbLine
 10
0.0
 20
0.0
 30
0.0
 11
9.5261265267
 21
0.0
 31
0.0
  0
LINE
  5
FE
330
F8
100
AcDbEntity
  8
寸法線
 62
     0
100
AcDbLine
 10
9.5261265267
 20
0.0
 30
0.0
 11
0.0
 21
0.0
 31
0.0
  0
LINE
  5
FF
330
F8
100
AcDbEntity
  8
寸法線
 62
     0
100
AcDbLine
 10
0.0
 20
0.0
 30
0.0
 11
9.5261265267
 21
0.0
 31
0.0
  0
LINE
  5
100
330
F8
100
AcDbEntity
  8
寸法線
 62
     0
100
AcDbLine
 10
9.5261265267
 20
0.0
 30
0.0
 11
0.0
 21
0.0
 31
0.0
  0
MTEXT
  5
101
330
F8
100
AcDbEntity
  8
寸法線
 62
     0
100
AcDbMText
 10
0.0020361583
 20
5.9465118882
 30
0.0
 40
2.38125
 41
0.0
 71
     1
 72
     1
  1
電動機
  7
SLDTEXTSTYLE1
 73
     1
 44
1.0
  0
MTEXT
  5
102
330
F8
100
AcDbEntity
  8
寸法線
 62
     0
100
AcDbMText
 10
0.0020361583
 20
2.7715119266
 30
0.0
 40
2.38125
 41
0.0
 71
     1
 72
     1
  1
Motor
  7
SLDTEXTSTYLE1
 73
     1
 44
1.0
  0
ENDBLK
  5
FA
330
F8
100
AcDbEntity
  8
0
100
AcDbBlockEnd
  0
BLOCK
  5
106
330
105
100
AcDbEntity
  8
0
100
AcDbBlockBegin
  2
_Dot
 70
     0
 71
     0
 10
0.0
 20
0.0
 30
0.0
  3
_Dot
  1

  0
LWPOLYLINE
  5
108
330
105
100
AcDbEntity
  8
0
  6
ByBlock
 62
     0
100
AcDbPolyline
 90
        2
 70
     1
 43
0.5
 10
-0.25
 20
0.0
 42
1.0
 10
0.25
 20
0.0
 42
1.0
  0
LINE
  5
109
330
105
100
AcDbEntity
  8
0
  6
ByBlock
 62
     0
370
    -2
100
AcDbLine
 10
-0.5
 20
0.0
 30
0.0
 11
-1.0
 21
0.0
 31
0.0
  0
ENDBLK
  5
107
330
105
100
AcDbEntity
  8
0
100
AcDbBlockEnd
  0
BLOCK
  5
10C
330
10B
100
AcDbEntity
  8
0
100
AcDbBlockBegin
  2
SW_NOTE_1
 70
     0
 71
     0
 10
0.0
 20
0.0
 30
0.0
  3
SW_NOTE_1
  1

  0
LINE
  5
10E
330
10B
100
AcDbEntity
  8
寸法線
 62
     0
100
AcDbLine
 10
0.0
 20
0.0
 30
0.0
 11
28.5746453085
 21
0.0
 31
0.0
  0
LINE
  5
10F
330
10B
100
AcDbEntity
  8
寸法線
 62
     0
100
AcDbLine
 10
28.5746453085
 20
0.0
 30
0.0
 11
0.0
 21
0.0
 31
0.0
  0
LINE
  5
110
330
10B
100
AcDbEntity
  8
寸法線
 62
     0
100
AcDbLine
 10
0.0
 20
0.0
 30
0.0
 11
28.5746453085
 21
0.0
 31
0.0
  0
LINE
  5
111
330
10B
100
AcDbEntity
  8
寸法線
 62
     0
100
AcDbLine
 10
28.5746453085
 20
0.0
 30
0.0
 11
0.0
 21
0.0
 31
0.0
  0
LINE
  5
112
330
10B
100
AcDbEntity
  8
寸法線
 62
     0
100
AcDbLine
 10
0.0
 20
0.0
 30
0.0
 11
28.5746453085
 21
0.0
 31
0.0
  0
LINE
  5
113
330
10B
100
AcDbEntity
  8
寸法線
 62
     0
100
AcDbLine
 10
28.5746453085
 20
0.0
 30
0.0
 11
0.0
 21
0.0
 31
0.0
  0
MTEXT
  5
114
330
10B
100
AcDbEntity
  8
寸法線
 62
     0
100
AcDbMText
 10
0.0002888395
 20
5.9459916818
 30
0.0
 40
2.38125
 41
0.0
 71
     1
 72
     1
  1
電動機端子箱
  7
SLDTEXTSTYLE1
 73
     1
 44
1.0
  0
MTEXT
  5
116
330
10B
100
AcDbEntity
  8
寸法線
 62
     0
100
AcDbMText
 10
0.0002888395
 20
2.7709917202
 30
0.0
 40
2.38125
 41
0.0
 71
     1
 72
     1
  1
Motor terminal box
  7
SLDTEXTSTYLE2
 73
     1
 44
1.0
  0
ENDBLK
  5
10D
330
10B
100
AcDbEntity
  8
0
100
AcDbBlockEnd
  0
BLOCK
  5
11A
330
119
100
AcDbEntity
  8
0
100
AcDbBlockBegin
  2
SW_NOTE_2
 70
     0
 71
     0
 10
0.0
 20
0.0
 30
0.0
  3
SW_NOTE_2
  1

  0
LINE
  5
11C
330
119
100
AcDbEntity
  8
寸法線
 62
     0
100
AcDbLine
 10
0.0
 20
0.0
 30
0.0
 11
15.8743880301
 21
0.0
 31
0.0
  0
LINE
  5
11D
330
119
100
AcDbEntity
  8
寸法線
 62
     0
100
AcDbLine
 10
15.8743880301
 20
0.0
 30
0.0
 11
0.0
 21
0.0
 31
0.0
  0
LINE
  5
11E
330
119
100
AcDbEntity
  8
寸法線
 62
     0
100
AcDbLine
 10
0.0
 20
0.0
 30
0.0
 11
15.8743880301
 21
0.0
 31
0.0
  0
LINE
  5
11F
330
119
100
AcDbEntity
  8
寸法線
 62
     0
100
AcDbLine
 10
15.8743880301
 20
0.0
 30
0.0
 11
0.0
 21
0.0
 31
0.0
  0
LINE
  5
120
330
119
100
AcDbEntity
  8
寸法線
 62
     0
100
AcDbLine
 10
0.0
 20
0.0
 30
0.0
 11
15.8743880301
 21
0.0
 31
0.0
  0
LINE
  5
121
330
119
100
AcDbEntity
  8
寸法線
 62
     0
100
AcDbLine
 10
15.8743880301
 20
0.0
 30
0.0
 11
0.0
 21
0.0
 31
0.0
  0
MTEXT
  5
122
330
119
100
AcDbEntity
  8
寸法線
 62
     0
100
AcDbMText
 10
0.0019892218
 20
5.9492696305
 30
0.0
 40
2.38125
 41
0.0
 71
     1
 72
     1
  1
時間計
  7
SLDTEXTSTYLE1
 73
     1
 44
1.0
  0
MTEXT
  5
123
330
119
100
AcDbEntity
  8
寸法線
 62
     0
100
AcDbMText
 10
0.0019892218
 20
2.7742696688
 30
0.0
 40
2.38125
 41
0.0
 71
     1
 72
     1
  1
Hour meter
  7
SLDTEXTSTYLE1
 73
     1
 44
1.0
  0
ENDBLK
  5
11B
330
119
100
AcDbEntity
  8
0
100
AcDbBlockEnd
  0
BLOCK
  5
1B5
330
1B4
100
AcDbEntity
  8
0
100
AcDbBlockBegin
  2
SW_NOTE_3
 70
     0
 71
     0
 10
0.0
 20
0.0
 30
0.0
  3
SW_NOTE_3
  1

  0
LINE
  5
1B7
330
1B4
100
AcDbEntity
  8
寸法線
 62
     0
100
AcDbLine
 10
0.0
 20
0.0
 30
0.0
 11
36.5137064593
 21
0.0
 31
0.0
  0
LINE
  5
1B8
330
1B4
100
AcDbEntity
  8
寸法線
 62
     0
100
AcDbLine
 10
36.5137064593
 20
0.0
 30
0.0
 11
0.0
 21
0.0
 31
0.0
  0
LINE
  5
1B9
330
1B4
100
AcDbEntity
  8
寸法線
 62
     0
100
AcDbLine
 10
0.0
 20
0.0
 30
0.0
 11
36.5137064593
 21
0.0
 31
0.0
  0
LINE
  5
1BA
330
1B4
100
AcDbEntity
  8
寸法線
 62
     0
100
AcDbLine
 10
36.5137064593
 20
0.0
 30
0.0
 11
0.0
 21
0.0
 31
0.0
  0
LINE
  5
1BB
330
1B4
100
AcDbEntity
  8
寸法線
 62
     0
100
AcDbLine
 10
0.0
 20
0.0
 30
0.0
 11
36.5137064593
 21
0.0
 31
0.0
  0
LINE
  5
1BC
330
1B4
100
AcDbEntity
  8
寸法線
 62
     0
100
AcDbLine
 10
36.5137064593
 20
0.0
 30
0.0
 11
0.0
 21
0.0
 31
0.0
  0
MTEXT
  5
1BD
330
1B4
100
AcDbEntity
  8
寸法線
 62
     0
100
AcDbMText
 10
0.0036257204
 20
5.9471549106
 30
0.0
 40
2.38125
 41
0.0
 71
     1
 72
     1
  1
回転方向銘板
  7
SLDTEXTSTYLE1
 73
     1
 44
1.0
  0
MTEXT
  5
1BF
330
1B4
100
AcDbEntity
  8
寸法線
 62
     0
100
AcDbMText
 10
0.0036257204
 20
2.7721549489
 30
0.0
 40
2.38125
 41
0.0
 71
     1
 72
     1
  1
Turning direction plate
  7
SLDTEXTSTYLE3
 73
     1
 44
1.0
  0
ENDBLK
  5
1B6
330
1B4
100
AcDbEntity
  8
0
100
AcDbBlockEnd
  0
BLOCK
  5
1C3
330
1C2
100
AcDbEntity
  8
0
100
AcDbBlockBegin
  2
SW_CENTERMARKSYMBOL_0
 70
     0
 71
     0
 10
0.0
 20
0.0
 30
0.0
  3
SW_CENTERMARKSYMBOL_0
  1

  0
LINE
  5
1C5
330
1C2
100
AcDbEntity
  8
0
  6
Continuous
 62
     0
370
     0
100
AcDbLine
 10
0.0
 20
0.0
 30
0.0
 11
0.0
 21
0.3571428571
 31
0.0
  0
LINE
  5
1C6
330
1C2
100
AcDbEntity
  8
0
  6
Continuous
 62
     0
370
     0
100
AcDbLine
 10
0.0
 20
0.0
 30
0.0
 11
-0.3571428571
 21
0.0
 31
0.0
  0
LINE
  5
1C7
330
1C2
100
AcDbEntity
  8
0
  6
Continuous
 62
     0
370
     0
100
AcDbLine
 10
0.0
 20
0.0
 30
0.0
 11
0.0
 21
-0.3571428571
 31
0.0
  0
LINE
  5
1C8
330
1C2
100
AcDbEntity
  8
0
  6
Continuous
 62
     0
370
     0
100
AcDbLine
 10
0.0
 20
0.0
 30
0.0
 11
0.3571428571
 21
0.0
 31
0.0
  0
LINE
  5
1C9
330
1C2
100
AcDbEntity
  8
0
  6
Continuous
 62
     0
370
     0
100
AcDbLine
 10
0.0
 20
0.7142857143
 30
0.0
 11
0.0
 21
3.3571428571
 31
0.0
  0
LINE
  5
1CA
330
1C2
100
AcDbEntity
  8
0
  6
Continuous
 62
     0
370
     0
100
AcDbLine
 10
-0.7142857143
 20
0.0
 30
0.0
 11
-3.3571428571
 21
0.0
 31
0.0
  0
LINE
  5
1CB
330
1C2
100
AcDbEntity
  8
0
  6
Continuous
 62
     0
370
     0
100
AcDbLine
 10
0.0
 20
-0.7142857143
 30
0.0
 11
0.0
 21
-3.3571428571
 31
0.0
  0
LINE
  5
1CC
330
1C2
100
AcDbEntity
  8
0
  6
Continuous
 62
     0
370
     0
100
AcDbLine
 10
0.7142857143
 20
0.0
 30
0.0
 11
3.3571428571
 21
0.0
 31
0.0
  0
ENDBLK
  5
1C4
330
1C2
100
AcDbEntity
  8
0
100
AcDbBlockEnd
  0
BLOCK
  5
25C
330
25B
100
AcDbEntity
  8
0
100
AcDbBlockBegin
  2
SW_NOTE_4
 70
     0
 71
     0
 10
0.0
 20
0.0
 30
0.0
  3
SW_NOTE_4
  1

  0
LINE
  5
25E
330
25B
100
AcDbEntity
  8
寸法線
 62
     0
100
AcDbLine
 10
-31.7487760602
 20
0.0
 30
0.0
 11
0.0
 21
0.0
 31
0.0
  0
LINE
  5
25F
330
25B
100
AcDbEntity
  8
寸法線
 62
     0
100
AcDbLine
 10
0.0
 20
0.0
 30
0.0
 11
-31.7487760602
 21
0.0
 31
0.0
  0
LINE
  5
260
330
25B
100
AcDbEntity
  8
寸法線
 62
     0
100
AcDbLine
 10
-31.7487760602
 20
0.0
 30
0.0
 11
0.0
 21
0.0
 31
0.0
  0
LINE
  5
261
330
25B
100
AcDbEntity
  8
寸法線
 62
     0
100
AcDbLine
 10
0.0
 20
0.0
 30
0.0
 11
-31.7487760602
 21
0.0
 31
0.0
  0
LINE
  5
262
330
25B
100
AcDbEntity
  8
寸法線
 62
     0
100
AcDbLine
 10
-31.7487760602
 20
0.0
 30
0.0
 11
0.0
 21
0.0
 31
0.0
  0
LINE
  5
263
330
25B
100
AcDbEntity
  8
寸法線
 62
     0
100
AcDbLine
 10
0.0
 20
0.0
 30
0.0
 11
-31.7487760602
 21
0.0
 31
0.0
  0
MTEXT
  5
264
330
25B
100
AcDbEntity
  8
寸法線
 62
     0
100
AcDbMText
 10
-31.7473829243
 20
5.948511947
 30
0.0
 40
2.38125
 41
0.0
 71
     1
 72
     1
  1
電源ケーブル取入れ口
  7
SLDTEXTSTYLE1
 73
     1
 44
1.0
  0
MTEXT
  5
265
330
25B
100
AcDbEntity
  8
寸法線
 62
     0
100
AcDbMText
 10
-31.7473829243
 20
2.7735119853
 30
0.0
 40
2.38125
 41
0.0
 71
     1
 72
     1
  1
Power cable access
  7
SLDTEXTSTYLE2
 73
     1
 44
1.0
  0
ENDBLK
  5
25D
330
25B
100
AcDbEntity
  8
0
100
AcDbBlockEnd
  0
BLOCK
  5
2FD
330
2FC
100
AcDbEntity
  8
0
100
AcDbBlockBegin
  2
SW_CENTERMARKSYMBOL_1
 70
     0
 71
     0
 10
0.0
 20
0.0
 30
0.0
  3
SW_CENTERMARKSYMBOL_1
  1

  0
LINE
  5
2FF
330
2FC
100
AcDbEntity
  8
0
  6
Continuous
 62
     0
370
     0
100
AcDbLine
 10
0.0
 20
0.0
 30
0.0
 11
0.0
 21
0.3571428571
 31
0.0
  0
LINE
  5
300
330
2FC
100
AcDbEntity
  8
0
  6
Continuous
 62
     0
370
     0
100
AcDbLine
 10
0.0
 20
0.0
 30
0.0
 11
-0.3571428571
 21
0.0
 31
0.0
  0
LINE
  5
301
330
2FC
100
AcDbEntity
  8
0
  6
Continuous
 62
     0
370
     0
100
AcDbLine
 10
0.0
 20
0.0
 30
0.0
 11
0.0
 21
-0.3571428571
 31
0.0
  0
LINE
  5
302
330
2FC
100
AcDbEntity
  8
0
  6
Continuous
 62
     0
370
     0
100
AcDbLine
 10
0.0
 20
0.0
 30
0.0
 11
0.3571428571
 21
0.0
 31
0.0
  0
LINE
  5
303
330
2FC
100
AcDbEntity
  8
0
  6
Continuous
 62
     0
370
     0
100
AcDbLine
 10
0.0
 20
0.7142857143
 30
0.0
 11
0.0
 21
1.1428571429
 31
0.0
  0
LINE
  5
304
330
2FC
100
AcDbEntity
  8
0
  6
Continuous
 62
     0
370
     0
100
AcDbLine
 10
-0.7142857143
 20
0.0
 30
0.0
 11
-1.1428571429
 21
0.0
 31
0.0
  0
LINE
  5
305
330
2FC
100
AcDbEntity
  8
0
  6
Continuous
 62
     0
370
     0
100
AcDbLine
 10
0.0
 20
-0.7142857143
 30
0.0
 11
0.0
 21
-1.1428571429
 31
0.0
  0
LINE
  5
306
330
2FC
100
AcDbEntity
  8
0
  6
Continuous
 62
     0
370
     0
100
AcDbLine
 10
0.7142857143
 20
0.0
 30
0.0
 11
1.1428571429
 21
0.0
 31
0.0
  0
ENDBLK
  5
2FE
330
2FC
100
AcDbEntity
  8
0
100
AcDbBlockEnd
  0
BLOCK
  5
309
330
308
100
AcDbEntity
  8
0
100
AcDbBlockBegin
  2
SW_CENTERMARKSYMBOL_2
 70
     0
 71
     0
 10
0.0
 20
0.0
 30
0.0
  3
SW_CENTERMARKSYMBOL_2
  1

  0
LINE
  5
30B
330
308
100
AcDbEntity
  8
0
  6
Continuous
 62
     0
370
     0
100
AcDbLine
 10
0.0
 20
0.0
 30
0.0
 11
0.0
 21
0.3571428571
 31
0.0
  0
LINE
  5
30C
330
308
100
AcDbEntity
  8
0
  6
Continuous
 62
     0
370
     0
100
AcDbLine
 10
0.0
 20
0.0
 30
0.0
 11
-0.3571428571
 21
0.0
 31
0.0
  0
LINE
  5
30D
330
308
100
AcDbEntity
  8
0
  6
Continuous
 62
     0
370
     0
100
AcDbLine
 10
0.0
 20
0.0
 30
0.0
 11
0.0
 21
-0.3571428571
 31
0.0
  0
LINE
  5
30E
330
308
100
AcDbEntity
  8
0
  6
Continuous
 62
     0
370
     0
100
AcDbLine
 10
0.0
 20
0.0
 30
0.0
 11
0.3571428571
 21
0.0
 31
0.0
  0
LINE
  5
30F
330
308
100
AcDbEntity
  8
0
  6
Continuous
 62
     0
370
     0
100
AcDbLine
 10
0.0
 20
0.7142857143
 30
0.0
 11
0.0
 21
1.1428571429
 31
0.0
  0
LINE
  5
310
330
308
100
AcDbEntity
  8
0
  6
Continuous
 62
     0
370
     0
100
AcDbLine
 10
-0.7142857143
 20
0.0
 30
0.0
 11
-1.1428571429
 21
0.0
 31
0.0
  0
LINE
  5
311
330
308
100
AcDbEntity
  8
0
  6
Continuous
 62
     0
370
     0
100
AcDbLine
 10
0.0
 20
-0.7142857143
 30
0.0
 11
0.0
 21
-1.1428571429
 31
0.0
  0
LINE
  5
312
330
308
100
AcDbEntity
  8
0
  6
Continuous
 62
     0
370
     0
100
AcDbLine
 10
0.7142857143
 20
0.0
 30
0.0
 11
1.1428571429
 21
0.0
 31
0.0
  0
ENDBLK
  5
30A
330
308
100
AcDbEntity
  8
0
100
AcDbBlockEnd
  0
BLOCK
  5
315
330
314
100
AcDbEntity
  8
0
100
AcDbBlockBegin
  2
SW_CENTERMARKSYMBOL_3
 70
     0
 71
     0
 10
0.0
 20
0.0
 30
0.0
  3
SW_CENTERMARKSYMBOL_3
  1

  0
LINE
  5
317
330
314
100
AcDbEntity
  8
0
  6
Continuous
 62
     0
370
     0
100
AcDbLine
 10
0.0
 20
0.0
 30
0.0
 11
0.0
 21
0.3571428571
 31
0.0
  0
LINE
  5
318
330
314
100
AcDbEntity
  8
0
  6
Continuous
 62
     0
370
     0
100
AcDbLine
 10
0.0
 20
0.0
 30
0.0
 11
-0.3571428571
 21
0.0
 31
0.0
  0
LINE
  5
319
330
314
100
AcDbEntity
  8
0
  6
Continuous
 62
     0
370
     0
100
AcDbLine
 10
0.0
 20
0.0
 30
0.0
 11
0.0
 21
-0.3571428571
 31
0.0
  0
LINE
  5
31A
330
314
100
AcDbEntity
  8
0
  6
Continuous
 62
     0
370
     0
100
AcDbLine
 10
0.0
 20
0.0
 30
0.0
 11
0.3571428571
 21
0.0
 31
0.0
  0
LINE
  5
31B
330
314
100
AcDbEntity
  8
0
  6
Continuous
 62
     0
370
     0
100
AcDbLine
 10
0.0
 20
0.7142857143
 30
0.0
 11
0.0
 21
1.1428571429
 31
0.0
  0
LINE
  5
31C
330
314
100
AcDbEntity
  8
0
  6
Continuous
 62
     0
370
     0
100
AcDbLine
 10
-0.7142857143
 20
0.0
 30
0.0
 11
-1.1428571429
 21
0.0
 31
0.0
  0
LINE
  5
31D
330
314
100
AcDbEntity
  8
0
  6
Continuous
 62
     0
370
     0
100
AcDbLine
 10
0.0
 20
-0.7142857143
 30
0.0
 11
0.0
 21
-1.1428571429
 31
0.0
  0
LINE
  5
31E
330
314
100
AcDbEntity
  8
0
  6
Continuous
 62
     0
370
     0
100
AcDbLine
 10
0.7142857143
 20
0.0
 30
0.0
 11
1.1428571429
 21
0.0
 31
0.0
  0
ENDBLK
  5
316
330
314
100
AcDbEntity
  8
0
100
AcDbBlockEnd
  0
BLOCK
  5
321
330
320
100
AcDbEntity
  8
0
100
AcDbBlockBegin
  2
SW_CENTERMARKSYMBOL_4
 70
     0
 71
     0
 10
0.0
 20
0.0
 30
0.0
  3
SW_CENTERMARKSYMBOL_4
  1

  0
LINE
  5
323
330
320
100
AcDbEntity
  8
0
  6
Continuous
 62
     0
370
     0
100
AcDbLine
 10
0.0
 20
0.0
 30
0.0
 11
0.0
 21
0.3571428571
 31
0.0
  0
LINE
  5
324
330
320
100
AcDbEntity
  8
0
  6
Continuous
 62
     0
370
     0
100
AcDbLine
 10
0.0
 20
0.0
 30
0.0
 11
-0.3571428571
 21
0.0
 31
0.0
  0
LINE
  5
325
330
320
100
AcDbEntity
  8
0
  6
Continuous
 62
     0
370
     0
100
AcDbLine
 10
0.0
 20
0.0
 30
0.0
 11
0.0
 21
-0.3571428571
 31
0.0
  0
LINE
  5
326
330
320
100
AcDbEntity
  8
0
  6
Continuous
 62
     0
370
     0
100
AcDbLine
 10
0.0
 20
0.0
 30
0.0
 11
0.3571428571
 21
0.0
 31
0.0
  0
LINE
  5
327
330
320
100
AcDbEntity
  8
0
  6
Continuous
 62
     0
370
     0
100
AcDbLine
 10
0.0
 20
0.7142857143
 30
0.0
 11
0.0
 21
1.1428571429
 31
0.0
  0
LINE
  5
328
330
320
100
AcDbEntity
  8
0
  6
Continuous
 62
     0
370
     0
100
AcDbLine
 10
-0.7142857143
 20
0.0
 30
0.0
 11
-1.1428571429
 21
0.0
 31
0.0
  0
LINE
  5
329
330
320
100
AcDbEntity
  8
0
  6
Continuous
 62
     0
370
     0
100
AcDbLine
 10
0.0
 20
-0.7142857143
 30
0.0
 11
0.0
 21
-1.1428571429
 31
0.0
  0
LINE
  5
32A
330
320
100
AcDbEntity
  8
0
  6
Continuous
 62
     0
370
     0
100
AcDbLine
 10
0.7142857143
 20
0.0
 30
0.0
 11
1.1428571429
 21
0.0
 31
0.0
  0
ENDBLK
  5
322
330
320
100
AcDbEntity
  8
0
100
AcDbBlockEnd
  0
BLOCK
  5
385
330
384
100
AcDbEntity
  8
0
100
AcDbBlockBegin
  2
SW_NOTE_5
 70
     0
 71
     0
 10
0.0
 20
0.0
 30
0.0
  3
SW_NOTE_5
  1

  0
LINE
  5
387
330
384
100
AcDbEntity
  8
寸法線
 62
     0
100
AcDbLine
 10
-9.5223922552
 20
0.0
 30
0.0
 11
0.0
 21
0.0
 31
0.0
  0
LINE
  5
388
330
384
100
AcDbEntity
  8
寸法線
 62
     0
100
AcDbLine
 10
0.0
 20
0.0
 30
0.0
 11
-9.5223922552
 21
0.0
 31
0.0
  0
LINE
  5
389
330
384
100
AcDbEntity
  8
寸法線
 62
     0
100
AcDbLine
 10
-9.5223922552
 20
0.0
 30
0.0
 11
0.0
 21
0.0
 31
0.0
  0
LINE
  5
38A
330
384
100
AcDbEntity
  8
寸法線
 62
     0
100
AcDbLine
 10
0.0
 20
0.0
 30
0.0
 11
-9.5223922552
 21
0.0
 31
0.0
  0
LINE
  5
38B
330
384
100
AcDbEntity
  8
寸法線
 62
     0
100
AcDbLine
 10
-9.5223922552
 20
0.0
 30
0.0
 11
0.0
 21
0.0
 31
0.0
  0
LINE
  5
38C
330
384
100
AcDbEntity
  8
寸法線
 62
     0
100
AcDbLine
 10
0.0
 20
0.0
 30
0.0
 11
-9.5223922552
 21
0.0
 31
0.0
  0
MTEXT
  5
38D
330
384
100
AcDbEntity
  8
寸法線
 62
     0
100
AcDbMText
 10
-9.5222212803
 20
9.1236339997
 30
0.0
 40
2.38125
 41
0.0
 71
     1
 72
     1
  1
吸気口
  7
SLDTEXTSTYLE1
 73
     1
 44
1.0
  0
MTEXT
  5
38E
330
384
100
AcDbEntity
  8
寸法線
 62
     0
100
AcDbMText
 10
-9.5222212803
 20
5.9486340381
 30
0.0
 40
2.38125
 41
0.0
 71
     1
 72
     1
  1
Inlet 
  7
SLDTEXTSTYLE1
 73
     1
 44
1.0
  0
MTEXT
  5
38F
330
384
100
AcDbEntity
  8
寸法線
 62
     0
100
AcDbMText
 10
-9.5222212803
 20
2.7736340765
 30
0.0
 40
2.38125
 41
0.0
 71
     1
 72
     1
  1
NW25
  7
SLDTEXTSTYLE1
 73
     1
 44
1.0
  0
ENDBLK
  5
386
330
384
100
AcDbEntity
  8
0
100
AcDbBlockEnd
  0
BLOCK
  5
393
330
392
100
AcDbEntity
  8
0
100
AcDbBlockBegin
  2
SW_NOTE_6
 70
     0
 71
     0
 10
0.0
 20
0.0
 30
0.0
  3
SW_NOTE_6
  1

  0
LINE
  5
395
330
392
100
AcDbEntity
  8
寸法線
 62
     0
100
AcDbLine
 10
-11.1131919025
 20
0.0
 30
0.0
 11
0.0
 21
0.0
 31
0.0
  0
LINE
  5
396
330
392
100
AcDbEntity
  8
寸法線
 62
     0
100
AcDbLine
 10
0.0
 20
0.0
 30
0.0
 11
-11.1131919025
 21
0.0
 31
0.0
  0
LINE
  5
397
330
392
100
AcDbEntity
  8
寸法線
 62
     0
100
AcDbLine
 10
-11.1131919025
 20
0.0
 30
0.0
 11
0.0
 21
0.0
 31
0.0
  0
LINE
  5
398
330
392
100
AcDbEntity
  8
寸法線
 62
     0
100
AcDbLine
 10
0.0
 20
0.0
 30
0.0
 11
-11.1131919025
 21
0.0
 31
0.0
  0
LINE
  5
399
330
392
100
AcDbEntity
  8
寸法線
 62
     0
100
AcDbLine
 10
-11.1131919025
 20
0.0
 30
0.0
 11
0.0
 21
0.0
 31
0.0
  0
LINE
  5
39A
330
392
100
AcDbEntity
  8
寸法線
 62
     0
100
AcDbLine
 10
0.0
 20
0.0
 30
0.0
 11
-11.1131919025
 21
0.0
 31
0.0
  0
MTEXT
  5
39B
330
392
100
AcDbEntity
  8
寸法線
 62
     0
100
AcDbMText
 10
-11.1110799615
 20
9.1219671538
 30
0.0
 40
2.38125
 41
0.0
 71
     1
 72
     1
  1
排気口
  7
SLDTEXTSTYLE1
 73
     1
 44
1.0
  0
MTEXT
  5
39C
330
392
100
AcDbEntity
  8
寸法線
 62
     0
100
AcDbMText
 10
-11.1110799615
 20
5.9469671922
 30
0.0
 40
2.38125
 41
0.0
 71
     1
 72
     1
  1
Outlet 
  7
SLDTEXTSTYLE1
 73
     1
 44
1.0
  0
MTEXT
  5
39D
330
392
100
AcDbEntity
  8
寸法線
 62
     0
100
AcDbMText
 10
-11.1110799615
 20
2.7719672305
 30
0.0
 40
2.38125
 41
0.0
 71
     1
 72
     1
  1
NW16
  7
SLDTEXTSTYLE1
 73
     1
 44
1.0
  0
ENDBLK
  5
394
330
392
100
AcDbEntity
  8
0
100
AcDbBlockEnd
  0
BLOCK
  5
3A1
330
3A0
100
AcDbEntity
  8
0
100
AcDbBlockBegin
  2
SW_NOTE_7
 70
     0
 71
     0
 10
0.0
 20
0.0
 30
0.0
  3
SW_NOTE_7
  1

  0
LINE
  5
3A3
330
3A0
100
AcDbEntity
  8
寸法線
 62
     0
100
AcDbLine
 10
0.0
 20
0.0
 30
0.0
 11
28.5746453085
 21
0.0
 31
0.0
  0
LINE
  5
3A4
330
3A0
100
AcDbEntity
  8
寸法線
 62
     0
100
AcDbLine
 10
28.5746453085
 20
0.0
 30
0.0
 11
0.0
 21
0.0
 31
0.0
  0
LINE
  5
3A5
330
3A0
100
AcDbEntity
  8
寸法線
 62
     0
100
AcDbLine
 10
0.0
 20
0.0
 30
0.0
 11
28.5746453085
 21
0.0
 31
0.0
  0
LINE
  5
3A6
330
3A0
100
AcDbEntity
  8
寸法線
 62
     0
100
AcDbLine
 10
28.5746453085
 20
0.0
 30
0.0
 11
0.0
 21
0.0
 31
0.0
  0
LINE
  5
3A7
330
3A0
100
AcDbEntity
  8
寸法線
 62
     0
100
AcDbLine
 10
0.0
 20
0.0
 30
0.0
 11
28.5746453085
 21
0.0
 31
0.0
  0
LINE
  5
3A8
330
3A0
100
AcDbEntity
  8
寸法線
 62
     0
100
AcDbLine
 10
28.5746453085
 20
0.0
 30
0.0
 11
0.0
 21
0.0
 31
0.0
  0
MTEXT
  5
3AA
330
3A0
100
AcDbEntity
  8
寸法線
 62
     0
100
AcDbMText
 10
0.0005743634
 20
9.121580572
 30
0.0
 40
2.38125
 41
0.0
 71
     1
 72
     1
  1
  エアーフラッシュ
  7
SLDTEXTSTYLE4
 73
     1
 44
1.0
  0
MTEXT
  5
3AC
330
3A0
100
AcDbEntity
  8
寸法線
 62
     0
100
AcDbMText
 10
0.0005743634
 20
5.9465806104
 30
0.0
 40
2.38125
 41
0.0
 71
     1
 72
     1
  1
  Air flush
  7
SLDTEXTSTYLE5
 73
     1
 44
1.0
  0
MTEXT
  5
3AE
330
3A0
100
AcDbEntity
  8
寸法線
 62
     0
100
AcDbMText
 10
0.0005743634
 20
2.7715806487
 30
0.0
 40
2.38125
 41
0.0
 71
     1
 72
     1
  1
  Rc1/8
  7
SLDTEXTSTYLE6
 73
     1
 44
1.0
  0
ENDBLK
  5
3A2
330
3A0
100
AcDbEntity
  8
0
100
AcDbBlockEnd
  0
BLOCK
  5
3B2
330
3B1
100
AcDbEntity
  8
0
100
AcDbBlockBegin
  2
SW_NOTE_8
 70
     0
 71
     0
 10
0.0
 20
0.0
 30
0.0
  3
SW_NOTE_8
  1

  0
LINE
  5
3B4
330
3B1
100
AcDbEntity
  8
寸法線
 62
     0
100
AcDbLine
 10
0.0
 20
0.0
 30
0.0
 11
19.0522530533
 21
0.0
 31
0.0
  0
LINE
  5
3B5
330
3B1
100
AcDbEntity
  8
寸法線
 62
     0
100
AcDbLine
 10
19.0522530533
 20
0.0
 30
0.0
 11
0.0
 21
0.0
 31
0.0
  0
LINE
  5
3B6
330
3B1
100
AcDbEntity
  8
寸法線
 62
     0
100
AcDbLine
 10
0.0
 20
0.0
 30
0.0
 11
19.0522530533
 21
0.0
 31
0.0
  0
LINE
  5
3B7
330
3B1
100
AcDbEntity
  8
寸法線
 62
     0
100
AcDbLine
 10
19.0522530533
 20
0.0
 30
0.0
 11
0.0
 21
0.0
 31
0.0
  0
LINE
  5
3B8
330
3B1
100
AcDbEntity
  8
寸法線
 62
     0
100
AcDbLine
 10
0.0
 20
0.0
 30
0.0
 11
19.0522530533
 21
0.0
 31
0.0
  0
LINE
  5
3B9
330
3B1
100
AcDbEntity
  8
寸法線
 62
     0
100
AcDbLine
 10
19.0522530533
 20
0.0
 30
0.0
 11
0.0
 21
0.0
 31
0.0
  0
MTEXT
  5
3BA
330
3B1
100
AcDbEntity
  8
寸法線
 62
     0
100
AcDbMText
 10
0.0028828763
 20
5.9486228745
 30
0.0
 40
2.38125
 41
0.0
 71
     1
 72
     1
  1
ファンカバー
  7
SLDTEXTSTYLE1
 73
     1
 44
1.0
  0
MTEXT
  5
3BB
330
3B1
100
AcDbEntity
  8
寸法線
 62
     0
100
AcDbMText
 10
0.0028828763
 20
2.7736229129
 30
0.0
 40
2.38125
 41
0.0
 71
     1
 72
     1
  1
Fan cover
  7
SLDTEXTSTYLE1
 73
     1
 44
1.0
  0
ENDBLK
  5
3B3
330
3B1
100
AcDbEntity
  8
0
100
AcDbBlockEnd
  0
BLOCK
  5
3BF
330
3BE
100
AcDbEntity
  8
0
100
AcDbBlockBegin
  2
SW_CENTERMARKSYMBOL_5
 70
     0
 71
     0
 10
0.0
 20
0.0
 30
0.0
  3
SW_CENTERMARKSYMBOL_5
  1

  0
LINE
  5
3C1
330
3BE
100
AcDbEntity
  8
0
  6
Continuous
 62
     0
370
     0
100
AcDbLine
 10
0.0
 20
0.0
 30
0.0
 11
0.0
 21
0.3571428571
 31
0.0
  0
LINE
  5
3C2
330
3BE
100
AcDbEntity
  8
0
  6
Continuous
 62
     0
370
     0
100
AcDbLine
 10
0.0
 20
0.0
 30
0.0
 11
-0.3571428571
 21
0.0
 31
0.0
  0
LINE
  5
3C3
330
3BE
100
AcDbEntity
  8
0
  6
Continuous
 62
     0
370
     0
100
AcDbLine
 10
0.0
 20
0.0
 30
0.0
 11
0.0
 21
-0.3571428571
 31
0.0
  0
LINE
  5
3C4
330
3BE
100
AcDbEntity
  8
0
  6
Continuous
 62
     0
370
     0
100
AcDbLine
 10
0.0
 20
0.0
 30
0.0
 11
0.3571428571
 21
0.0
 31
0.0
  0
LINE
  5
3C5
330
3BE
100
AcDbEntity
  8
0
  6
Continuous
 62
     0
370
     0
100
AcDbLine
 10
0.0
 20
0.7142857143
 30
0.0
 11
0.0
 21
2.5
 31
0.0
  0
LINE
  5
3C6
330
3BE
100
AcDbEntity
  8
0
  6
Continuous
 62
     0
370
     0
100
AcDbLine
 10
-0.7142857143
 20
0.0
 30
0.0
 11
-2.5
 21
0.0
 31
0.0
  0
LINE
  5
3C7
330
3BE
100
AcDbEntity
  8
0
  6
Continuous
 62
     0
370
     0
100
AcDbLine
 10
0.0
 20
-0.7142857143
 30
0.0
 11
0.0
 21
-2.5
 31
0.0
  0
LINE
  5
3C8
330
3BE
100
AcDbEntity
  8
0
  6
Continuous
 62
     0
370
     0
100
AcDbLine
 10
0.7142857143
 20
0.0
 30
0.0
 11
2.5
 21
0.0
 31
0.0
  0
ENDBLK
  5
3C0
330
3BE
100
AcDbEntity
  8
0
100
AcDbBlockEnd
  0
BLOCK
  5
3CB
330
3CA
100
AcDbEntity
  8
0
100
AcDbBlockBegin
  2
SW_CENTERMARKSYMBOL_6
 70
     0
 71
     0
 10
0.0
 20
0.0
 30
0.0
  3
SW_CENTERMARKSYMBOL_6
  1

  0
LINE
  5
3CD
330
3CA
100
AcDbEntity
  8
中心線
 62
     0
100
AcDbLine
 10
0.0
 20
0.0
 30
0.0
 11
0.0
 21
0.3571428571
 31
0.0
  0
LINE
  5
3CE
330
3CA
100
AcDbEntity
  8
中心線
 62
     0
100
AcDbLine
 10
0.0
 20
0.0
 30
0.0
 11
-0.3571428571
 21
0.0
 31
0.0
  0
LINE
  5
3CF
330
3CA
100
AcDbEntity
  8
中心線
 62
     0
100
AcDbLine
 10
0.0
 20
0.0
 30
0.0
 11
0.0
 21
-0.3571428571
 31
0.0
  0
LINE
  5
3D0
330
3CA
100
AcDbEntity
  8
中心線
 62
     0
100
AcDbLine
 10
0.0
 20
0.0
 30
0.0
 11
0.3571428571
 21
0.0
 31
0.0
  0
LINE
  5
3D1
330
3CA
100
AcDbEntity
  8
中心線
 62
     0
100
AcDbLine
 10
0.0
 20
0.7142857143
 30
0.0
 11
0.0
 21
17.7857142857
 31
0.0
  0
LINE
  5
3D2
330
3CA
100
AcDbEntity
  8
中心線
 62
     0
100
AcDbLine
 10
-0.7142857143
 20
0.0
 30
0.0
 11
-17.7857142857
 21
0.0
 31
0.0
  0
LINE
  5
3D3
330
3CA
100
AcDbEntity
  8
中心線
 62
     0
100
AcDbLine
 10
0.0
 20
-0.7142857143
 30
0.0
 11
0.0
 21
-17.7857142857
 31
0.0
  0
LINE
  5
3D4
330
3CA
100
AcDbEntity
  8
中心線
 62
     0
100
AcDbLine
 10
0.7142857143
 20
0.0
 30
0.0
 11
17.7857142857
 21
0.0
 31
0.0
  0
ENDBLK
  5
3CC
330
3CA
100
AcDbEntity
  8
0
100
AcDbBlockEnd
  0
ENDSEC
  0
SECTION
  2
ENTITIES
  0
LINE
  5
33
330
1F
100
AcDbEntity
  8
ﾚｲﾔｰ0
100
AcDbLine
 10
276.0
 20
194.0
 30
0.0
 11
276.0
 21
201.5
 31
0.0
  0
LINE
  5
34
330
1F
100
AcDbEntity
  8
ﾚｲﾔｰ0
100
AcDbLine
 10
21.0
 20
194.0
 30
0.0
 11
21.0
 21
201.5
 31
0.0
  0
LINE
  5
35
330
1F
100
AcDbEntity
  8
ﾚｲﾔｰ0
100
AcDbLine
 10
21.0
 20
16.0
 30
0.0
 11
21.0
 21
8.5
 31
0.0
  0
LINE
  5
36
330
1F
100
AcDbEntity
  8
ﾚｲﾔｰ0
100
AcDbLine
 10
276.0
 20
16.0
 30
0.0
 11
276.0
 21
8.5
 31
0.0
  0
LINE
  5
37
330
1F
100
AcDbEntity
  8
ﾚｲﾔｰ0
100
AcDbLine
 10
276.0
 20
201.5
 30
0.0
 11
21.0
 21
201.5
 31
0.0
  0
LINE
  5
38
330
1F
100
AcDbEntity
  8
ﾚｲﾔｰ0
100
AcDbLine
 10
21.0
 20
8.5
 30
0.0
 11
276.0
 21
8.5
 31
0.0
  0
MTEXT
  5
3A
330
1F
100
AcDbEntity
  8
ﾚｲﾔｰ0
100
AcDbMText
 10
264.6253068675
 20
14.4909243614
 30
0.0
 40
6.0
 41
0.0
 71
     1
 72
     1
  1
★
  7
SLDTEXTSTYLE0
 73
     1
 44
1.0
  0
MTEXT
  5
3B
330
1F
100
AcDbEntity
  8
ﾚｲﾔｰ0
100
AcDbMText
 10
256.3279517445
 20
14.4909243614
 30
0.0
 40
6.0
 41
0.0
 71
     1
 72
     1
  1
★
  7
SLDTEXTSTYLE0
 73
     1
 44
1.0
  0
MTEXT
  5
3C
330
1F
100
AcDbEntity
  8
ﾚｲﾔｰ0
100
AcDbMText
 10
248.0305966214
 20
14.4909243614
 30
0.0
 40
6.0
 41
0.0
 71
     1
 72
     1
  1
★
  7
SLDTEXTSTYLE0
 73
     1
 44
1.0
  0
MTEXT
  5
3D
330
1F
100
AcDbEntity
  8
ﾚｲﾔｰ0
100
AcDbMText
 10
239.2406102764
 20
14.4909243614
 30
0.0
 40
6.0
 41
0.0
 71
     1
 72
     1
  1
★
  7
SLDTEXTSTYLE0
 73
     1
 44
1.0
  0
LINE
  5
3E
330
1F
100
AcDbEntity
  8
中心線
100
AcDbLine
 10
97.882803271
 20
109.7222960806
 30
0.0
 11
158.9216591458
 21
109.7222960806
 31
0.0
  0
LINE
  5
3F
330
1F
100
AcDbEntity
  8
寸法線
100
AcDbLine
 10
97.882803271
 20
109.7222960806
 30
0.0
 11
95.7509314666
 21
109.7222960806
 31
0.0
  0
LINE
  5
40
330
1F
100
AcDbEntity
  8
0
  6
CENTERX2
 62
     7
370
     0
100
AcDbLine
 10
111.6468717396
 20
95.3651532234
 30
0.0
 11
111.6468717396
 21
93.3651532234
 31
0.0
  0
LINE
  5
41
330
1F
100
AcDbEntity
  8
0
  6
Continuous
 62
     7
370
    15
100
AcDbLine
 10
107.218300311
 20
127.1508675091
 30
0.0
 11
105.6468717396
 21
127.1508675091
 31
0.0
  0
LINE
  5
42
330
1F
100
AcDbEntity
  8
0
  6
Continuous
 62
     7
370
    15
100
AcDbLine
 10
118.6468717396
 20
125.0080103663
 30
0.0
 11
115.6468717396
 21
125.0080103663
 31
0.0
  0
LINE
  5
43
330
1F
100
AcDbEntity
  8
0
  6
Continuous
 62
     7
370
    15
100
AcDbLine
 10
105.6468717396
 20
125.0080103663
 30
0.0
 11
103.0754431682
 21
125.0080103663
 31
0.0
  0
LINE
  5
44
330
1F
100
AcDbEntity
  8
0
  6
Continuous
 62
     7
370
    15
100
AcDbLine
 10
103.0754431682
 20
94.4365817949
 30
0.0
 11
103.9040145968
 21
94.4365817949
 31
0.0
  0
LINE
  5
45
330
1F
100
AcDbEntity
  8
0
  6
Continuous
 62
     7
370
    15
100
AcDbLine
 10
103.0754431682
 20
124.4365817949
 30
0.0
 11
97.7897288825
 21
124.4365817949
 31
0.0
  0
LINE
  5
46
330
1F
100
AcDbEntity
  8
0
  6
Continuous
 62
     7
370
    15
100
AcDbLine
 10
97.7897288825
 20
95.0080103663
 30
0.0
 11
103.0754431682
 21
95.0080103663
 31
0.0
  0
LINE
  5
47
330
1F
100
AcDbEntity
  8
0
  6
Continuous
 62
     7
370
    15
100
AcDbLine
 10
108.5040145968
 20
131.4365817949
 30
0.0
 11
109.4325860253
 21
131.1877718305
 31
0.0
  0
LINE
  5
48
330
1F
100
AcDbEntity
  8
0
  6
Continuous
 62
     7
370
    15
100
AcDbLine
 10
113.5754431682
 20
131.1877718305
 30
0.0
 11
114.5040145968
 21
131.4365817949
 31
0.0
  0
LINE
  5
49
330
1F
100
AcDbEntity
  8
0
  6
Continuous
 62
     7
370
    15
100
AcDbLine
 10
108.5040145968
 20
131.8651532234
 30
0.0
 11
108.5040145968
 21
131.4365817949
 31
0.0
  0
LINE
  5
4A
330
1F
100
AcDbEntity
  8
0
  6
Continuous
 62
     7
370
    15
100
AcDbLine
 10
114.5040145968
 20
131.4365817949
 30
0.0
 11
114.5040145968
 21
131.8651532234
 31
0.0
  0
LINE
  5
4B
330
1F
100
AcDbEntity
  8
0
  6
Continuous
 62
     7
370
    15
100
AcDbLine
 10
101.1468717396
 20
87.1508675091
 30
0.0
 11
101.5754431682
 21
87.1508675091
 31
0.0
  0
LINE
  5
4C
330
1F
100
AcDbEntity
  8
0
  6
Continuous
 62
     7
370
    15
100
AcDbLine
 10
101.5754431682
 20
91.4365817949
 30
0.0
 11
101.1468717396
 21
91.4365817949
 31
0.0
  0
LINE
  5
4D
330
1F
100
AcDbEntity
  8
0
  6
Continuous
 62
     7
370
    15
100
AcDbLine
 10
101.5754431682
 20
87.1508675091
 30
0.0
 11
101.7859746765
 21
87.9365817949
 31
0.0
  0
LINE
  5
4E
330
1F
100
AcDbEntity
  8
0
  6
Continuous
 62
     7
370
    15
100
AcDbLine
 10
101.7859746765
 20
90.6508675091
 30
0.0
 11
101.5754431682
 21
91.4365817949
 31
0.0
  0
LINE
  5
4F
330
1F
100
AcDbEntity
  8
0
  6
Continuous
 62
     7
370
    15
100
AcDbLine
 10
109.4325860253
 20
131.1877718305
 30
0.0
 11
109.4325860253
 21
128.8651532234
 31
0.0
  0
LINE
  5
50
330
1F
100
AcDbEntity
  8
0
  6
Continuous
 62
     7
370
    15
100
AcDbLine
 10
113.5754431682
 20
128.8651532234
 30
0.0
 11
113.5754431682
 21
131.1877718305
 31
0.0
  0
LINE
  5
51
330
1F
100
AcDbEntity
  8
0
  6
Continuous
 62
     7
370
    15
100
AcDbLine
 10
103.9040145968
 20
90.6508675091
 30
0.0
 11
101.7859746765
 21
90.6508675091
 31
0.0
  0
LINE
  5
52
330
1F
100
AcDbEntity
  8
0
  6
Continuous
 62
     7
370
    15
100
AcDbLine
 10
101.7859746765
 20
87.9365817949
 30
0.0
 11
103.9040145968
 21
87.9365817949
 31
0.0
  0
LINE
  5
53
330
1F
100
AcDbEntity
  8
0
  6
Continuous
 62
     7
370
    15
100
AcDbLine
 10
130.9325860253
 20
95.1318675091
 30
0.0
 11
150.0754431682
 21
95.1318675091
 31
0.0
  0
LINE
  5
54
330
1F
100
AcDbEntity
  8
0
  6
Continuous
 62
     7
370
    15
100
AcDbLine
 10
124.628300311
 20
123.5794389377
 30
0.0
 11
124.1397288824
 21
123.5794389377
 31
0.0
  0
LINE
  5
55
330
1F
100
AcDbEntity
  8
0
  6
Continuous
 62
     7
370
    15
100
AcDbLine
 10
126.6582442941
 20
98.2188506955
 30
0.0
 11
127.6468717396
 21
99.3651532234
 31
0.0
  0
LINE
  5
56
330
1F
100
AcDbEntity
  8
0
  6
Continuous
 62
     7
370
    15
100
AcDbLine
 10
127.6468717396
 20
120.0794389377
 30
0.0
 11
124.628300311
 21
123.5794389377
 31
0.0
  0
LINE
  5
57
330
1F
100
AcDbEntity
  8
0
  6
Continuous
 62
     7
370
    15
100
AcDbLine
 10
151.7897288825
 20
99.144224652
 30
0.0
 11
153.5040145968
 21
99.144224652
 31
0.0
  0
LINE
  5
58
330
1F
100
AcDbEntity
  8
0
  6
Continuous
 62
     7
370
    15
100
AcDbLine
 10
153.5040145968
 20
120.3003675091
 30
0.0
 11
151.7897288825
 21
120.3003675091
 31
0.0
  0
LINE
  5
59
330
1F
100
AcDbEntity
  8
0
  6
Continuous
 62
     7
370
    15
100
AcDbLine
 10
151.7897288825
 20
121.398724652
 30
0.0
 11
128.218300311
 21
121.398724652
 31
0.0
  0
LINE
  5
5A
330
1F
100
AcDbEntity
  8
0
  6
Continuous
 62
     7
370
    15
100
AcDbLine
 10
128.218300311
 20
98.0458675091
 30
0.0
 11
130.9325860253
 21
98.0458675091
 31
0.0
  0
LINE
  5
5B
330
1F
100
AcDbEntity
  8
0
  6
Continuous
 62
     7
370
    15
100
AcDbLine
 10
150.0754431682
 20
98.0458675091
 30
0.0
 11
151.7897288825
 21
98.0458675091
 31
0.0
  0
ARC
  5
5C
330
1F
100
AcDbEntity
  8
0
  6
Continuous
 62
     7
370
    15
100
AcDbCircle
 10
153.5040145968
 20
118.8717960806
 30
0.0
 40
1.428571428571431
100
AcDbArc
 50
0.0
 51
90.0
  0
ARC
  5
5D
330
1F
100
AcDbEntity
  8
0
  6
Continuous
 62
     7
370
    15
100
AcDbCircle
 10
153.5040145968
 20
100.5727960806
 30
0.0
 40
1.428571428571431
100
AcDbArc
 50
270.0
 51
0.0
  0
LINE
  5
5E
330
1F
100
AcDbEntity
  8
0
  6
Continuous
 62
     7
370
    15
100
AcDbLine
 10
128.218300311
 20
120.0794389377
 30
0.0
 11
127.6468717396
 21
120.0794389377
 31
0.0
  0
LINE
  5
5F
330
1F
100
AcDbEntity
  8
0
  6
Continuous
 62
     7
370
    15
100
AcDbLine
 10
127.6468717396
 20
99.3651532234
 30
0.0
 11
128.218300311
 21
99.3651532234
 31
0.0
  0
SPLINE
  5
60
330
1F
100
AcDbEntity
  8
0
  6
Continuous
 62
     7
370
    15
100
AcDbSpline
210
0.0
220
0.0
230
1.0
 70
     8
 71
     3
 72
     9
 73
     5
 74
     0
 42
0.00000001
 43
0.00000001
 40
0.0
 40
0.0
 40
0.0
 40
0.0
 40
0.4999999998374999
 40
0.9999999999999999
 40
0.9999999999999999
 40
0.9999999999999999
 40
0.9999999999999999
 10
151.0040145967574
 20
106.6610200537201
 30
0.0
 10
151.0001138923239
 20
106.6231868676911
 30
0.0
 10
150.9923124834541
 20
106.5475204956086
 30
0.0
 10
150.9443247077566
 20
106.4884998616889
 30
0.0
 10
150.9203308199
 20
106.4589895447194
 30
0.0
  0
LINE
  5
61
330
1F
100
AcDbEntity
  8
0
  6
Continuous
 62
     7
370
    15
100
AcDbLine
 10
149.8387497038
 20
105.3774084289
 30
0.0
 11
150.9203308198
 21
106.4589895449
 31
0.0
  0
SPLINE
  5
62
330
1F
100
AcDbEntity
  8
0
  6
Continuous
 62
     7
370
    15
100
AcDbSpline
210
0.0
220
0.0
230
1.0
 70
     8
 71
     3
 72
     9
 73
     5
 74
     0
 42
0.00000001
 43
0.00000001
 40
0.0
 40
0.0
 40
0.0
 40
0.0
 40
0.5000000001624911
 40
1.0
 40
1.0
 40
1.0
 40
1.0
 10
149.8387497040422
 20
105.3774084288629
 30
0.0
 10
149.8092393870729
 20
105.3534145410064
 30
0.0
 10
149.7502187531533
 20
105.3054267653091
 30
0.0
 10
149.674552381071
 20
105.2976253564394
 30
0.0
 10
149.6367191950422
 20
105.2937246520058
 30
0.0
  0
LINE
  5
63
330
1F
100
AcDbEntity
  8
0
  6
Continuous
 62
     7
370
    15
100
AcDbLine
 10
141.9427385699
 20
105.2937246519
 30
0.0
 11
149.636719195
 21
105.2937246519
 31
0.0
  0
SPLINE
  5
64
330
1F
100
AcDbEntity
  8
0
  6
Continuous
 62
     7
370
    15
100
AcDbSpline
210
0.0
220
0.0
230
1.0
 70
     8
 71
     3
 72
     9
 73
     5
 74
     0
 42
0.00000001
 43
0.00000001
 40
0.0
 40
0.0
 40
0.0
 40
0.0
 40
0.499999999837509
 40
1.0
 40
1.0
 40
1.0
 40
1.0
 10
141.9427385698994
 20
105.2937246520058
 30
0.0
 10
141.9049053838705
 20
105.2976253564394
 30
0.0
 10
141.8292390117883
 20
105.3054267653091
 30
0.0
 10
141.7702183778687
 20
105.3534145410064
 30
0.0
 10
141.7407080608994
 20
105.3774084288629
 30
0.0
  0
LINE
  5
65
330
1F
100
AcDbEntity
  8
0
  6
Continuous
 62
     7
370
    15
100
AcDbLine
 10
140.6591269451
 20
106.4589895449
 30
0.0
 11
141.7407080611
 21
105.3774084289
 31
0.0
  0
SPLINE
  5
66
330
1F
100
AcDbEntity
  8
0
  6
Continuous
 62
     7
370
    15
100
AcDbSpline
210
0.0
220
0.0
230
1.0
 70
     8
 71
     3
 72
     9
 73
     5
 74
     0
 42
0.00000001
 43
0.00000001
 40
0.0
 40
0.0
 40
0.0
 40
0.0
 40
0.5000000001625023
 40
1.0
 40
1.0
 40
1.0
 40
1.0
 10
140.6591269450417
 20
106.4589895447196
 30
0.0
 10
140.6351330571852
 20
106.488499861689
 30
0.0
 10
140.5871452814877
 20
106.5475204956087
 30
0.0
 10
140.579343872618
 20
106.6231868676911
 30
0.0
 10
140.5754431681844
 20
106.6610200537201
 30
0.0
  0
LINE
  5
67
330
1F
100
AcDbEntity
  8
0
  6
Continuous
 62
     7
370
    15
100
AcDbLine
 10
140.5754431683
 20
113.0692863931
 30
0.0
 11
140.5754431683
 21
106.6610200537
 31
0.0
  0
SPLINE
  5
68
330
1F
100
AcDbEntity
  8
0
  6
Continuous
 62
     7
370
    15
100
AcDbSpline
210
0.0
220
0.0
230
1.0
 70
     8
 71
     3
 72
     9
 73
     5
 74
     0
 42
0.00000001
 43
0.00000001
 40
0.0
 40
0.0
 40
0.0
 40
0.0
 40
0.4999999998374987
 40
1.0
 40
1.0
 40
1.0
 40
1.0
 10
140.5754431681841
 20
113.0692863931486
 30
0.0
 10
140.5793438726177
 20
113.1071195791776
 30
0.0
 10
140.5871452814874
 20
113.1827859512601
 30
0.0
 10
140.635133057185
 20
113.2418065851798
 30
0.0
 10
140.6591269450415
 20
113.2713169021493
 30
0.0
  0
LINE
  5
69
330
1F
100
AcDbEntity
  8
0
  6
Continuous
 62
     7
370
    15
100
AcDbLine
 10
141.7407080611
 20
114.3528980179
 30
0.0
 11
140.6591269452
 21
113.271316902
 31
0.0
  0
SPLINE
  5
6A
330
1F
100
AcDbEntity
  8
0
  6
Continuous
 62
     7
370
    15
100
AcDbSpline
210
0.0
220
0.0
230
1.0
 70
     8
 71
     3
 72
     9
 73
     5
 74
     0
 42
0.00000001
 43
0.00000001
 40
0.0
 40
0.0
 40
0.0
 40
0.0
 40
0.5000000001625016
 40
0.9999999999999999
 40
0.9999999999999999
 40
0.9999999999999999
 40
0.9999999999999999
 10
141.7407080608989
 20
114.3528980180062
 30
0.0
 10
141.7702183778683
 20
114.3768919058628
 30
0.0
 10
141.829239011788
 20
114.4248796815603
 30
0.0
 10
141.9049053838704
 20
114.43268109043
 30
0.0
 10
141.9427385698994
 20
114.4365817948636
 30
0.0
  0
LINE
  5
6B
330
1F
100
AcDbEntity
  8
0
  6
Continuous
 62
     7
370
    15
100
AcDbLine
 10
149.636719195
 20
114.4365817947
 30
0.0
 11
141.9427385699
 21
114.4365817947
 31
0.0
  0
SPLINE
  5
6C
330
1F
100
AcDbEntity
  8
0
  6
Continuous
 62
     7
370
    15
100
AcDbSpline
210
0.0
220
0.0
230
1.0
 70
     8
 71
     3
 72
     9
 73
     5
 74
     0
 42
0.00000001
 43
0.00000001
 40
0.0
 40
0.0
 40
0.0
 40
0.0
 40
0.4999999998375017
 40
1.0
 40
1.0
 40
1.0
 40
1.0
 10
149.6367191950422
 20
114.4365817948639
 30
0.0
 10
149.6745523810712
 20
114.4326810904303
 30
0.0
 10
149.7502187531537
 20
114.4248796815606
 30
0.0
 10
149.8092393870734
 20
114.376891905863
 30
0.0
 10
149.8387497040429
 20
114.3528980180065
 30
0.0
  0
LINE
  5
6D
330
1F
100
AcDbEntity
  8
0
  6
Continuous
 62
     7
370
    15
100
AcDbLine
 10
150.9203308198
 20
113.2713169019
 30
0.0
 11
149.8387497038
 21
114.3528980179
 31
0.0
  0
SPLINE
  5
6E
330
1F
100
AcDbEntity
  8
0
  6
Continuous
 62
     7
370
    15
100
AcDbSpline
210
0.0
220
0.0
230
1.0
 70
     8
 71
     3
 72
     9
 73
     5
 74
     0
 42
0.00000001
 43
0.00000001
 40
0.0
 40
0.0
 40
0.0
 40
0.0
 40
0.5000000001624996
 40
1.0
 40
1.0
 40
1.0
 40
1.0
 10
150.9203308198994
 20
113.2713169021486
 30
0.0
 10
150.9443247077558
 20
113.2418065851793
 30
0.0
 10
150.9923124834532
 20
113.1827859512597
 30
0.0
 10
151.0001138923229
 20
113.1071195791775
 30
0.0
 10
151.0040145967565
 20
113.0692863931486
 30
0.0
  0
LINE
  5
6F
330
1F
100
AcDbEntity
  8
0
  6
Continuous
 62
     7
370
    15
100
AcDbLine
 10
151.0040145967
 20
106.6610200537
 30
0.0
 11
151.0040145967
 21
113.0692863931
 31
0.0
  0
LINE
  5
70
330
1F
100
AcDbEntity
  8
0
  6
Continuous
 62
     7
370
    15
100
AcDbLine
 10
141.7407080611
 20
105.3774084289
 30
0.0
 11
141.4376622976
 21
105.0743626654
 31
0.0
  0
LINE
  5
71
330
1F
100
AcDbEntity
  8
0
  6
Continuous
 62
     7
370
    15
100
AcDbLine
 10
140.3560811816
 20
106.1559437814
 30
0.0
 11
141.4376622976
 21
105.0743626654
 31
0.0
  0
LINE
  5
72
330
1F
100
AcDbEntity
  8
0
  6
Continuous
 62
     7
370
    15
100
AcDbLine
 10
140.3560811816
 20
106.1559437814
 30
0.0
 11
140.6591269451
 21
106.4589895449
 31
0.0
  0
LINE
  5
73
330
1F
100
AcDbEntity
  8
0
  6
Continuous
 62
     7
370
    15
100
AcDbLine
 10
140.659126945
 20
113.2713169021
 30
0.0
 11
140.3560811816
 21
113.5743626655
 31
0.0
  0
LINE
  5
74
330
1F
100
AcDbEntity
  8
0
  6
Continuous
 62
     7
370
    15
100
AcDbLine
 10
141.4376622976
 20
114.6559437814
 30
0.0
 11
140.3560811816
 21
113.5743626654
 31
0.0
  0
LINE
  5
75
330
1F
100
AcDbEntity
  8
0
  6
Continuous
 62
     7
370
    15
100
AcDbLine
 10
141.4376622976
 20
114.6559437814
 30
0.0
 11
141.7407080611
 21
114.3528980179
 31
0.0
  0
LINE
  5
76
330
1F
100
AcDbEntity
  8
0
  6
Continuous
 62
     7
370
    15
100
AcDbLine
 10
150.1417954673
 20
105.0743626654
 30
0.0
 11
149.8387497038
 21
105.3774084289
 31
0.0
  0
LINE
  5
77
330
1F
100
AcDbEntity
  8
0
  6
Continuous
 62
     7
370
    15
100
AcDbLine
 10
150.9203308199
 20
106.4589895448
 30
0.0
 11
151.2233765833
 21
106.1559437814
 31
0.0
  0
LINE
  5
78
330
1F
100
AcDbEntity
  8
0
  6
Continuous
 62
     7
370
    15
100
AcDbLine
 10
150.1417954673
 20
105.0743626654
 30
0.0
 11
151.2233765833
 21
106.1559437814
 31
0.0
  0
LINE
  5
79
330
1F
100
AcDbEntity
  8
0
  6
Continuous
 62
     7
370
    15
100
AcDbLine
 10
151.2233765833
 20
113.5743626654
 30
0.0
 11
150.9203308198
 21
113.2713169019
 31
0.0
  0
LINE
  5
7A
330
1F
100
AcDbEntity
  8
0
  6
Continuous
 62
     7
370
    15
100
AcDbLine
 10
149.838749704
 20
114.352898018
 30
0.0
 11
150.1417954674
 21
114.6559437814
 31
0.0
  0
LINE
  5
7B
330
1F
100
AcDbEntity
  8
0
  6
Continuous
 62
     7
370
    15
100
AcDbLine
 10
151.2233765833
 20
113.5743626654
 30
0.0
 11
150.1417954673
 21
114.6559437814
 31
0.0
  0
LINE
  5
7C
330
1F
100
AcDbEntity
  8
0
  6
Continuous
 62
     7
370
    15
100
AcDbLine
 10
151.4325860253
 20
106.6610200537
 30
0.0
 11
151.0040145967
 21
106.6610200537
 31
0.0
  0
LINE
  5
7D
330
1F
100
AcDbEntity
  8
0
  6
Continuous
 62
     7
370
    15
100
AcDbLine
 10
151.0040145968
 20
113.0692863931
 30
0.0
 11
151.4325860253
 21
113.0692863931
 31
0.0
  0
LINE
  5
7E
330
1F
100
AcDbEntity
  8
0
  6
Continuous
 62
     7
370
    15
100
AcDbLine
 10
151.4325860253
 20
106.6610200537
 30
0.0
 11
151.4325860253
 21
113.0692863931
 31
0.0
  0
LINE
  5
7F
330
1F
100
AcDbEntity
  8
0
  6
Continuous
 62
     7
370
    15
100
AcDbLine
 10
140.5754431682
 20
106.6610200537
 30
0.0
 11
140.1468717396
 21
106.6610200537
 31
0.0
  0
LINE
  5
80
330
1F
100
AcDbEntity
  8
0
  6
Continuous
 62
     7
370
    15
100
AcDbLine
 10
140.1468717396
 20
113.0692863931
 30
0.0
 11
140.1468717396
 21
106.6610200537
 31
0.0
  0
LINE
  5
81
330
1F
100
AcDbEntity
  8
0
  6
Continuous
 62
     7
370
    15
100
AcDbLine
 10
140.1468717396
 20
113.0692863931
 30
0.0
 11
140.5754431683
 21
113.0692863931
 31
0.0
  0
LINE
  5
82
330
1F
100
AcDbEntity
  8
0
  6
Continuous
 62
     7
370
    15
100
AcDbLine
 10
141.9427385699
 20
114.4365817949
 30
0.0
 11
141.9427385699
 21
114.8651532234
 31
0.0
  0
LINE
  5
83
330
1F
100
AcDbEntity
  8
0
  6
Continuous
 62
     7
370
    15
100
AcDbLine
 10
149.636719195
 20
114.8651532234
 30
0.0
 11
141.9427385699
 21
114.8651532234
 31
0.0
  0
LINE
  5
84
330
1F
100
AcDbEntity
  8
0
  6
Continuous
 62
     7
370
    15
100
AcDbLine
 10
149.636719195
 20
114.8651532234
 30
0.0
 11
149.636719195
 21
114.4365817947
 31
0.0
  0
LINE
  5
85
330
1F
100
AcDbEntity
  8
0
  6
Continuous
 62
     7
370
    15
100
AcDbLine
 10
141.9427385699
 20
104.8651532234
 30
0.0
 11
141.9427385699
 21
105.2937246519
 31
0.0
  0
LINE
  5
86
330
1F
100
AcDbEntity
  8
0
  6
Continuous
 62
     7
370
    15
100
AcDbLine
 10
149.636719195
 20
105.293724652
 30
0.0
 11
149.636719195
 21
104.8651532234
 31
0.0
  0
LINE
  5
87
330
1F
100
AcDbEntity
  8
0
  6
Continuous
 62
     7
370
    15
100
AcDbLine
 10
141.9427385699
 20
104.8651532234
 30
0.0
 11
149.636719195
 21
104.8651532234
 31
0.0
  0
ARC
  5
88
330
1F
100
AcDbEntity
  8
0
  6
Continuous
 62
     7
370
    15
100
AcDbCircle
 10
141.9427385699
 20
105.5794389377
 30
0.0
 40
0.7142857142857258
100
AcDbArc
 50
225.0
 51
270.000000022
  0
ARC
  5
89
330
1F
100
AcDbEntity
  8
0
  6
Continuous
 62
     7
370
    15
100
AcDbCircle
 10
141.9427385699
 20
114.1508675091
 30
0.0
 40
0.7142857142857358
100
AcDbArc
 50
89.9999999882
 51
135.0000000228
  0
ARC
  5
8A
330
1F
100
AcDbEntity
  8
0
  6
Continuous
 62
     7
370
    15
100
AcDbCircle
 10
149.636719195
 20
105.5794389377
 30
0.0
 40
0.7142857142857157
100
AcDbArc
 50
270.000000022
 51
314.9999999993
  0
ARC
  5
8B
330
1F
100
AcDbEntity
  8
0
  6
Continuous
 62
     7
370
    15
100
AcDbCircle
 10
149.636719195
 20
114.1508675091
 30
0.0
 40
0.7142857142857258
100
AcDbArc
 50
45.000000011
 51
89.9999999882
  0
ARC
  5
8C
330
1F
100
AcDbEntity
  8
0
  6
Continuous
 62
     7
370
    15
100
AcDbCircle
 10
150.718300311
 20
106.6610200537
 30
0.0
 40
0.7142857142857224
100
AcDbArc
 50
314.9999999993
 51
359.9999999765
  0
ARC
  5
8D
330
1F
100
AcDbEntity
  8
0
  6
Continuous
 62
     7
370
    15
100
AcDbCircle
 10
140.8611574539
 20
113.0692863931
 30
0.0
 40
0.7142857142857157
100
AcDbArc
 50
135.0000000228
 51
180.0
  0
ARC
  5
8E
330
1F
100
AcDbEntity
  8
0
  6
Continuous
 62
     7
370
    15
100
AcDbCircle
 10
150.718300311
 20
113.0692863931
 30
0.0
 40
0.7142857142857224
100
AcDbArc
 50
359.9999999765
 51
45.000000011
  0
ARC
  5
8F
330
1F
100
AcDbEntity
  8
0
  6
Continuous
 62
     7
370
    15
100
AcDbCircle
 10
140.8611574539
 20
106.6610200537
 30
0.0
 40
0.7142857142857056
100
AcDbArc
 50
180.0000000103
 51
224.9999999875
  0
LINE
  5
90
330
1F
100
AcDbEntity
  8
0
  6
Continuous
 62
     7
370
    15
100
AcDbLine
 10
138.9268787386
 20
115.4365817949
 30
0.0
 11
138.9268787386
 21
104.2937246519
 31
0.0
  0
ARC
  5
91
330
1F
100
AcDbEntity
  8
0
  6
Continuous
 62
     7
370
    15
100
AcDbCircle
 10
139.6104131584
 20
115.4674792123
 30
0.0
 40
0.6842323826648148
100
AcDbArc
 50
92.8462547783
 51
182.5881467261
  0
LINE
  5
92
330
1F
100
AcDbEntity
  8
0
  6
Continuous
 62
     7
370
    15
100
AcDbLine
 10
151.4087875041
 20
116.1508675092
 30
0.0
 11
139.5764368549
 21
116.1508675092
 31
0.0
  0
ARC
  5
93
330
1F
100
AcDbEntity
  8
0
  6
Continuous
 62
     7
370
    15
100
AcDbCircle
 10
151.3748112012
 20
115.4674792121
 30
0.0
 40
0.6842323828847637
100
AcDbArc
 50
357.4118532795
 51
87.1537452754
  0
LINE
  5
94
330
1F
100
AcDbEntity
  8
0
  6
Continuous
 62
     7
370
    15
100
AcDbLine
 10
152.0583456212
 20
104.293724652
 30
0.0
 11
152.0583456212
 21
115.4365817947
 31
0.0
  0
ARC
  5
95
330
1F
100
AcDbEntity
  8
0
  6
Continuous
 62
     7
370
    15
100
AcDbCircle
 10
151.3748112017
 20
104.2628272343
 30
0.0
 40
0.684232382361232
100
AcDbArc
 50
272.8462548
 51
2.5881467531
  0
LINE
  5
96
330
1F
100
AcDbEntity
  8
0
  6
Continuous
 62
     7
370
    15
100
AcDbLine
 10
151.4087875054
 20
103.5794389377
 30
0.0
 11
139.5764368565
 21
103.5794389377
 31
0.0
  0
ARC
  5
97
330
1F
100
AcDbEntity
  8
0
  6
Continuous
 62
     7
370
    15
100
AcDbCircle
 10
139.6104131586
 20
104.2628272348
 30
0.0
 40
0.6842323827792505
100
AcDbArc
 50
177.411853296
 51
267.1537453444
  0
LINE
  5
98
330
1F
100
AcDbEntity
  8
0
  6
Continuous
 62
     7
370
    15
100
AcDbLine
 10
151.7059042067
 20
116.1508675092
 30
0.0
 11
151.4087875041
 21
116.1508675092
 31
0.0
  0
ARC
  5
99
330
1F
100
AcDbEntity
  8
0
  6
Continuous
 62
     7
370
    15
100
AcDbCircle
 10
151.6719279039
 20
115.4674792121
 30
0.0
 40
0.6842323828527743
100
AcDbArc
 50
357.4118532769
 51
87.1537452803
  0
LINE
  5
9A
330
1F
100
AcDbEntity
  8
0
  6
Continuous
 62
     7
370
    15
100
AcDbLine
 10
152.3554623239
 20
115.4365817947
 30
0.0
 11
152.0583456212
 21
115.4365817947
 31
0.0
  0
LINE
  5
9B
330
1F
100
AcDbEntity
  8
0
  6
Continuous
 62
     7
370
    15
100
AcDbLine
 10
152.3554623238
 20
104.293724652
 30
0.0
 11
152.3554623239
 21
115.4365817947
 31
0.0
  0
LINE
  5
9C
330
1F
100
AcDbEntity
  8
0
  6
Continuous
 62
     7
370
    15
100
AcDbLine
 10
152.3554623238
 20
104.293724652
 30
0.0
 11
152.0583456212
 21
104.293724652
 31
0.0
  0
ARC
  5
9D
330
1F
100
AcDbEntity
  8
0
  6
Continuous
 62
     7
370
    15
100
AcDbCircle
 10
151.671927904
 20
104.2628272346
 30
0.0
 40
0.6842323825711141
100
AcDbArc
 50
272.8462546241
 51
2.588146726
  0
LINE
  5
9E
330
1F
100
AcDbEntity
  8
0
  6
Continuous
 62
     7
370
    15
100
AcDbLine
 10
151.7059042057
 20
103.5794389377
 30
0.0
 11
151.4087875054
 21
103.5794389377
 31
0.0
  0
LINE
  5
9F
330
1F
100
AcDbEntity
  8
0
  6
Continuous
 62
     7
370
    15
100
AcDbLine
 10
110.5200936499
 20
94.3167901237
 30
0.0
 11
105.6468717396
 21
94.3167901237
 31
0.0
  0
LINE
  5
A0
330
1F
100
AcDbEntity
  8
0
  6
Continuous
 62
     7
370
    15
100
AcDbLine
 10
105.6468717396
 20
94.3167901237
 30
0.0
 11
105.6468717396
 21
127.1508675091
 31
0.0
  0
LINE
  5
A1
330
1F
100
AcDbEntity
  8
0
  6
Continuous
 62
     7
370
    15
100
AcDbLine
 10
107.218300311
 20
126.2363593514
 30
0.0
 11
115.6468717396
 21
126.2363593514
 31
0.0
  0
LINE
  5
A2
330
1F
100
AcDbEntity
  8
0
  6
Continuous
 62
     7
370
    15
100
AcDbLine
 10
115.6468717396
 20
94.5603913186
 30
0.0
 11
115.6468717396
 21
126.2363593514
 31
0.0
  0
LINE
  5
A3
330
1F
100
AcDbEntity
  8
0
  6
Continuous
 62
     7
370
    15
100
AcDbLine
 10
115.5523712761
 20
94.3167901237
 30
0.0
 11
112.7736498294
 21
94.3167901237
 31
0.0
  0
LINE
  5
A4
330
1F
100
AcDbEntity
  8
0
  6
Continuous
 62
     7
370
    15
100
AcDbLine
 10
116.3277762245
 20
96.3156117687
 30
0.0
 11
115.6468717396
 21
96.3156117687
 31
0.0
  0
LINE
  5
A5
330
1F
100
AcDbEntity
  8
0
  6
Continuous
 62
     7
370
    15
100
AcDbLine
 10
118.6468717396
 20
125.0080103663
 30
0.0
 11
118.6468717396
 21
101.4550753399
 31
0.0
  0
LINE
  5
A6
330
1F
100
AcDbEntity
  8
0
  6
Continuous
 62
     7
370
    15
100
AcDbLine
 10
104.218300311
 20
94.4969479897
 30
0.0
 11
103.9040145968
 21
94.4969479897
 31
0.0
  0
LINE
  5
A7
330
1F
100
AcDbEntity
  8
0
  6
Continuous
 62
     7
370
    15
100
AcDbLine
 10
105.6468717396
 20
96.3156117687
 30
0.0
 11
104.218300311
 21
96.3156117687
 31
0.0
  0
LINE
  5
A8
330
1F
100
AcDbEntity
  8
0
  6
Continuous
 62
     7
370
    15
100
AcDbLine
 10
103.0754431682
 20
109.7222960806
 30
0.0
 11
103.0754431682
 21
125.0080103663
 31
0.0
  0
LINE
  5
A9
330
1F
100
AcDbEntity
  8
0
  6
Continuous
 62
     7
370
    15
100
AcDbLine
 10
103.0754431682
 20
94.4365817949
 30
0.0
 11
103.0754431682
 21
109.7222960806
 31
0.0
  0
LINE
  5
AA
330
1F
100
AcDbEntity
  8
0
  6
Continuous
 62
     7
370
    15
100
AcDbLine
 10
97.7897288825
 20
109.7222960806
 30
0.0
 11
97.7897288825
 21
124.4365817949
 31
0.0
  0
LINE
  5
AB
330
1F
100
AcDbEntity
  8
0
  6
Continuous
 62
     7
370
    15
100
AcDbLine
 10
97.7897288825
 20
95.0080103663
 30
0.0
 11
97.7897288825
 21
109.7222960806
 31
0.0
  0
LINE
  5
AC
330
1F
100
AcDbEntity
  8
0
  6
Continuous
 62
     7
370
    15
100
AcDbLine
 10
111.0695214704
 20
93.3651532234
 30
0.0
 11
112.2242220088
 21
93.3651532234
 31
0.0
  0
LINE
  5
AD
330
1F
100
AcDbEntity
  8
0
  6
Continuous
 62
     7
370
    15
100
AcDbLine
 10
110.4921712012
 20
94.3651532234
 30
0.0
 11
111.0695214704
 21
93.3651532234
 31
0.0
  0
LINE
  5
AE
330
1F
100
AcDbEntity
  8
0
  6
Continuous
 62
     7
370
    15
100
AcDbLine
 10
112.2242220088
 20
95.3651532234
 30
0.0
 11
111.0695214704
 21
95.3651532234
 31
0.0
  0
LINE
  5
AF
330
1F
100
AcDbEntity
  8
0
  6
Continuous
 62
     7
370
    15
100
AcDbLine
 10
112.801572278
 20
94.3651532234
 30
0.0
 11
112.2242220088
 21
95.3651532234
 31
0.0
  0
LINE
  5
B0
330
1F
100
AcDbEntity
  8
0
  6
Continuous
 62
     7
370
    15
100
AcDbLine
 10
112.2242220088
 20
93.3651532234
 30
0.0
 11
112.801572278
 21
94.3651532234
 31
0.0
  0
LINE
  5
B1
330
1F
100
AcDbEntity
  8
0
  6
Continuous
 62
     7
370
    15
100
AcDbLine
 10
111.0695214704
 20
95.3651532234
 30
0.0
 11
110.4921712012
 21
94.3651532234
 31
0.0
  0
LINE
  5
B2
330
1F
100
AcDbEntity
  8
0
  6
Continuous
 62
     7
370
    15
100
AcDbLine
 10
104.218300311
 20
93.0396528619
 30
0.0
 11
115.0569300969
 21
93.0396528619
 31
0.0
  0
LINE
  5
B3
330
1F
100
AcDbEntity
  8
0
  6
Continuous
 62
     7
370
    15
100
AcDbLine
 10
104.218300311
 20
93.0396528619
 30
0.0
 11
104.218300311
 21
96.3156117687
 31
0.0
  0
LINE
  5
B4
330
1F
100
AcDbEntity
  8
0
  6
Continuous
 62
     7
370
    15
100
AcDbLine
 10
104.218300311
 20
91.7017721712
 30
0.0
 11
114.5379246565
 21
91.7017721712
 31
0.0
  0
LINE
  5
B5
330
1F
100
AcDbEntity
  8
0
  6
Continuous
 62
     7
370
    15
100
AcDbLine
 10
104.218300311
 20
91.7017721712
 30
0.0
 11
104.218300311
 21
93.0396528619
 31
0.0
  0
LINE
  5
B6
330
1F
100
AcDbEntity
  8
0
  6
Continuous
 62
     7
370
    15
100
AcDbLine
 10
107.218300311
 20
126.2363593514
 30
0.0
 11
107.218300311
 21
128.8651532234
 31
0.0
  0
LINE
  5
B7
330
1F
100
AcDbEntity
  8
0
  6
Continuous
 62
     7
370
    15
100
AcDbLine
 10
107.218300311
 20
128.8651532234
 30
0.0
 11
115.6468717396
 21
128.8651532234
 31
0.0
  0
LINE
  5
B8
330
1F
100
AcDbEntity
  8
0
  6
Continuous
 62
     7
370
    15
100
AcDbLine
 10
115.6468717396
 20
126.2363593514
 30
0.0
 11
115.6468717396
 21
128.8651532234
 31
0.0
  0
LINE
  5
B9
330
1F
100
AcDbEntity
  8
0
  6
Continuous
 62
     7
370
    15
100
AcDbLine
 10
108.5040145968
 20
131.4365817949
 30
0.0
 11
114.5040145968
 21
131.4365817949
 31
0.0
  0
LINE
  5
BA
330
1F
100
AcDbEntity
  8
0
  6
Continuous
 62
     7
370
    15
100
AcDbLine
 10
109.4325860253
 20
131.1877718305
 30
0.0
 11
113.5754431682
 21
131.1877718305
 31
0.0
  0
LINE
  5
BB
330
1F
100
AcDbEntity
  8
0
  6
Continuous
 62
     7
370
    15
100
AcDbLine
 10
108.5040145968
 20
131.8651532234
 30
0.0
 11
114.5040145968
 21
131.8651532234
 31
0.0
  0
LINE
  5
BC
330
1F
100
AcDbEntity
  8
0
  6
Continuous
 62
     7
370
    15
100
AcDbLine
 10
101.5754431682
 20
89.293724652
 30
0.0
 11
101.5754431682
 21
91.4365817949
 31
0.0
  0
LINE
  5
BD
330
1F
100
AcDbEntity
  8
0
  6
Continuous
 62
     7
370
    15
100
AcDbLine
 10
101.5754431682
 20
87.1508675091
 30
0.0
 11
101.5754431682
 21
89.293724652
 31
0.0
  0
LINE
  5
BE
330
1F
100
AcDbEntity
  8
0
  6
Continuous
 62
     7
370
    15
100
AcDbLine
 10
101.1468717396
 20
89.293724652
 30
0.0
 11
101.1468717396
 21
91.4365817949
 31
0.0
  0
LINE
  5
BF
330
1F
100
AcDbEntity
  8
0
  6
Continuous
 62
     7
370
    15
100
AcDbLine
 10
101.1468717396
 20
87.1508675091
 30
0.0
 11
101.1468717396
 21
89.293724652
 31
0.0
  0
LINE
  5
C0
330
1F
100
AcDbEntity
  8
0
  6
Continuous
 62
     7
370
    15
100
AcDbLine
 10
101.7859746765
 20
89.293724652
 30
0.0
 11
101.7859746765
 21
90.6508675091
 31
0.0
  0
LINE
  5
C1
330
1F
100
AcDbEntity
  8
0
  6
Continuous
 62
     7
370
    15
100
AcDbLine
 10
101.7859746765
 20
87.9365817949
 30
0.0
 11
101.7859746765
 21
89.293724652
 31
0.0
  0
LINE
  5
C2
330
1F
100
AcDbEntity
  8
0
  6
Continuous
 62
     7
370
    15
100
AcDbLine
 10
106.618300311
 20
87.9365817949
 30
0.0
 11
106.618300311
 21
91.7017721712
 31
0.0
  0
LINE
  5
C3
330
1F
100
AcDbEntity
  8
0
  6
Continuous
 62
     7
370
    15
100
AcDbLine
 10
106.618300311
 20
87.9365817949
 30
0.0
 11
103.9040145968
 21
87.9365817949
 31
0.0
  0
LINE
  5
C4
330
1F
100
AcDbEntity
  8
0
  6
Continuous
 62
     7
370
    15
100
AcDbLine
 10
103.9040145968
 20
87.9365817949
 30
0.0
 11
103.9040145968
 21
89.293724652
 31
0.0
  0
LINE
  5
C5
330
1F
100
AcDbEntity
  8
0
  6
Continuous
 62
     7
370
    15
100
AcDbLine
 10
103.9040145968
 20
89.293724652
 30
0.0
 11
103.9040145968
 21
94.4969479897
 31
0.0
  0
LINE
  5
C6
330
1F
100
AcDbEntity
  8
0
  6
Continuous
 62
     7
370
    15
100
AcDbLine
 10
119.7897288839
 20
102.3058086577
 30
0.0
 11
119.7897288825
 21
124.3530994814
 31
0.0
  0
LINE
  5
C7
330
1F
100
AcDbEntity
  8
0
  6
Continuous
 62
     7
370
    15
100
AcDbLine
 10
118.6515595005
 20
102.3058086577
 30
0.0
 11
119.7897288839
 21
102.3058086577
 31
0.0
  0
LINE
  5
C8
330
1F
100
AcDbEntity
  8
0
  6
Continuous
 62
     7
370
    15
100
AcDbLine
 10
118.6468717396
 20
124.3530994814
 30
0.0
 11
119.7897288825
 21
124.3530994814
 31
0.0
  0
LINE
  5
C9
330
1F
100
AcDbEntity
  8
0
  6
Continuous
 62
     7
370
    15
100
AcDbLine
 10
130.9325860253
 20
101.3586614297
 30
0.0
 11
130.9325860253
 21
95.1318675091
 31
0.0
  0
LINE
  5
CA
330
1F
100
AcDbEntity
  8
0
  6
Continuous
 62
     7
370
    15
100
AcDbLine
 10
130.9325860253
 20
101.3586614297
 30
0.0
 11
150.0754431682
 21
101.3586614297
 31
0.0
  0
LINE
  5
CB
330
1F
100
AcDbEntity
  8
0
  6
Continuous
 62
     7
370
    15
100
AcDbLine
 10
150.0754431682
 20
101.3586614297
 30
0.0
 11
150.0754431682
 21
95.1318675091
 31
0.0
  0
LINE
  5
CC
330
1F
100
AcDbEntity
  8
0
  6
Continuous
 62
     7
370
    15
100
AcDbLine
 10
119.7897288825
 20
123.3520579328
 30
0.0
 11
124.2534193849
 21
123.3520579328
 31
0.0
  0
LINE
  5
CD
330
1F
100
AcDbEntity
  8
0
  6
Continuous
 62
     7
370
    15
100
AcDbLine
 10
124.628300311
 20
123.5794389377
 30
0.0
 11
124.628300311
 21
100.7953180587
 31
0.0
  0
LINE
  5
CE
330
1F
100
AcDbEntity
  8
0
  6
Continuous
 62
     7
370
    15
100
AcDbLine
 10
119.7897288839
 20
104.5537096477
 30
0.0
 11
121.6671433016
 21
104.5537096477
 31
0.0
  0
LINE
  5
CF
330
1F
100
AcDbEntity
  8
0
  6
Continuous
 62
     7
370
    15
100
AcDbLine
 10
127.6468717396
 20
109.7222960806
 30
0.0
 11
127.6468717396
 21
99.3651532234
 31
0.0
  0
LINE
  5
D0
330
1F
100
AcDbEntity
  8
0
  6
Continuous
 62
     7
370
    15
100
AcDbLine
 10
127.6468717396
 20
120.0794389377
 30
0.0
 11
127.6468717396
 21
109.7222960806
 31
0.0
  0
LINE
  5
D1
330
1F
100
AcDbEntity
  8
0
  6
Continuous
 62
     7
370
    15
100
AcDbLine
 10
138.9268787386
 20
104.4582346034
 30
0.0
 11
130.9325860235
 21
104.4582346031
 31
0.0
  0
LINE
  5
D2
330
1F
100
AcDbEntity
  8
0
  6
Continuous
 62
     7
370
    15
100
AcDbLine
 10
130.9325860235
 20
104.4582346031
 30
0.0
 11
130.9325860253
 21
101.3586614297
 31
0.0
  0
LINE
  5
D3
330
1F
100
AcDbEntity
  8
0
  6
Continuous
 62
     7
370
    15
100
AcDbLine
 10
150.0754431682
 20
101.3586614297
 30
0.0
 11
150.0754431682
 21
103.5794389377
 31
0.0
  0
LINE
  5
D4
330
1F
100
AcDbEntity
  8
0
  6
Continuous
 62
     7
370
    15
100
AcDbLine
 10
121.0754431682
 20
87.293724652
 30
0.0
 11
127.9325860253
 21
87.293724652
 31
0.0
  0
LINE
  5
D5
330
1F
100
AcDbEntity
  8
0
  6
Continuous
 62
     7
370
    15
100
AcDbLine
 10
127.9325860253
 20
90.7222960806
 30
0.0
 11
121.0754431682
 21
90.7222960806
 31
0.0
  0
LINE
  5
D6
330
1F
100
AcDbEntity
  8
0
  6
Continuous
 62
     7
370
    15
100
AcDbLine
 10
127.9325860253
 20
87.293724652
 30
0.0
 11
127.9325860253
 21
90.7222960806
 31
0.0
  0
LINE
  5
D7
330
1F
100
AcDbEntity
  8
0
  6
Continuous
 62
     7
370
    15
100
AcDbLine
 10
121.0754431682
 20
90.7222960806
 30
0.0
 11
121.0754431682
 21
87.293724652
 31
0.0
  0
LINE
  5
D8
330
1F
100
AcDbEntity
  8
0
  6
Continuous
 62
     7
370
    15
100
AcDbLine
 10
121.6671433016
 20
104.5537096477
 30
0.0
 11
136.5040145968
 21
85.7222960806
 31
0.0
  0
LINE
  5
D9
330
1F
100
AcDbEntity
  8
0
  6
Continuous
 62
     7
370
    15
100
AcDbLine
 10
136.5040145968
 20
83.8651532234
 30
0.0
 11
136.5040145968
 21
85.7222960806
 31
0.0
  0
LINE
  5
DA
330
1F
100
AcDbEntity
  8
0
  6
Continuous
 62
     7
370
    15
100
AcDbLine
 10
136.5040145968
 20
83.8651532234
 30
0.0
 11
130.7897288782
 21
83.8651532234
 31
0.0
  0
LINE
  5
DB
330
1F
100
AcDbEntity
  8
0
  6
Continuous
 62
     7
370
    15
100
AcDbLine
 10
130.789728876
 20
84.0080103703
 30
0.0
 11
130.7897288782
 21
83.8651532234
 31
0.0
  0
LINE
  5
DC
330
1F
100
AcDbEntity
  8
0
  6
Continuous
 62
     7
370
    15
100
AcDbLine
 10
130.789728876
 20
84.0080103744
 30
0.0
 11
117.9325860296
 21
84.0080103744
 31
0.0
  0
LINE
  5
DD
330
1F
100
AcDbEntity
  8
0
  6
Continuous
 62
     7
370
    15
100
AcDbLine
 10
112.218300311
 20
83.8651532234
 30
0.0
 11
112.218300311
 21
85.7222960806
 31
0.0
  0
LINE
  5
DE
330
1F
100
AcDbEntity
  8
0
  6
Continuous
 62
     7
370
    15
100
AcDbLine
 10
112.218300311
 20
85.7222960806
 30
0.0
 11
118.3215336444
 21
101.4550753399
 31
0.0
  0
LINE
  5
DF
330
1F
100
AcDbEntity
  8
0
  6
Continuous
 62
     7
370
    15
100
AcDbLine
 10
118.6468717396
 20
102.2937246519
 30
0.0
 11
118.6515595005
 21
102.3058086577
 31
0.0
  0
LINE
  5
E0
330
1F
100
AcDbEntity
  8
0
  6
Continuous
 62
     7
370
    15
100
AcDbLine
 10
117.9325860339
 20
83.8651532234
 30
0.0
 11
112.218300311
 21
83.8651532234
 31
0.0
  0
LINE
  5
E1
330
1F
100
AcDbEntity
  8
0
  6
Continuous
 62
     7
370
    15
100
AcDbLine
 10
117.9325860253
 20
83.8651532234
 30
0.0
 11
117.9325860253
 21
84.0080103683
 31
0.0
  0
LINE
  5
E2
330
1F
100
AcDbEntity
  8
0
  6
Continuous
 62
     7
370
    15
100
AcDbLine
 10
128.218300311
 20
105.2769962801
 30
0.0
 11
138.9268787386
 21
105.2769962789
 31
0.0
  0
LINE
  5
E3
330
1F
100
AcDbEntity
  8
0
  6
Continuous
 62
     7
370
    15
100
AcDbLine
 10
138.9268787386
 20
114.1675958842
 30
0.0
 11
128.218300311
 21
114.1675958821
 31
0.0
  0
LINE
  5
E4
330
1F
100
AcDbEntity
  8
0
  6
Continuous
 62
     7
370
    15
100
AcDbLine
 10
128.218300311
 20
105.2769962801
 30
0.0
 11
128.218300311
 21
98.0458675091
 31
0.0
  0
LINE
  5
E5
330
1F
100
AcDbEntity
  8
0
  6
Continuous
 62
     7
370
    15
100
AcDbLine
 10
128.218300311
 20
121.398724652
 30
0.0
 11
128.218300311
 21
114.1675958821
 31
0.0
  0
LINE
  5
E6
330
1F
100
AcDbEntity
  8
0
  6
Continuous
 62
     7
370
    15
100
AcDbLine
 10
151.7897288825
 20
103.5854116176
 30
0.0
 11
151.7897288825
 21
98.0458675091
 31
0.0
  0
LINE
  5
E7
330
1F
100
AcDbEntity
  8
0
  6
Continuous
 62
     7
370
    15
100
AcDbLine
 10
151.7897288825
 20
121.398724652
 30
0.0
 11
151.7897288825
 21
116.1448948294
 31
0.0
  0
LINE
  5
E8
330
1F
100
AcDbEntity
  8
0
  6
Continuous
 62
     7
370
    15
100
AcDbLine
 10
128.218300311
 20
114.1675958821
 30
0.0
 11
128.218300311
 21
105.2769962801
 31
0.0
  0
LINE
  5
E9
330
1F
100
AcDbEntity
  8
0
  6
Continuous
 62
     7
370
    15
100
AcDbLine
 10
154.9325860253
 20
118.8717960806
 30
0.0
 11
154.9325860253
 21
100.5727960806
 31
0.0
  0
LINE
  5
EA
330
1F
100
AcDbEntity
  8
0
  6
Continuous
 62
     7
370
    15
100
AcDbLine
 10
124.2534193849
 20
123.3520579328
 30
0.0
 11
123.6468717409
 21
124.5651532234
 31
0.0
  0
LINE
  5
EB
330
1F
100
AcDbEntity
  8
0
  6
Continuous
 62
     7
370
    15
100
AcDbLine
 10
123.6468717409
 20
124.5651532234
 30
0.0
 11
118.6468717396
 21
124.5651532234
 31
0.0
  0
LINE
  5
EC
330
1F
100
AcDbEntity
  8
0
  6
Continuous
 62
     7
370
    15
100
AcDbLine
 10
122.5040145985
 20
129.4365817949
 30
0.0
 11
122.5040145985
 21
125.0080103664
 31
0.0
  0
LINE
  5
ED
330
1F
100
AcDbEntity
  8
0
  6
Continuous
 62
     7
370
    15
100
AcDbLine
 10
137.9590599168
 20
129.4365817949
 30
0.0
 11
122.5040145985
 21
129.4365817949
 31
0.0
  0
LINE
  5
EE
330
1F
100
AcDbEntity
  8
0
  6
Continuous
 62
     7
370
    15
100
AcDbLine
 10
140.7897288826
 20
127.1508879947
 30
0.0
 11
137.9590599168
 21
129.4365817949
 31
0.0
  0
LINE
  5
EF
330
1F
100
AcDbEntity
  8
0
  6
Continuous
 62
     7
370
    15
100
AcDbLine
 10
119.3611574539
 20
125.0080103664
 30
0.0
 11
119.3611574541
 21
124.5651532234
 31
0.0
  0
LINE
  5
F0
330
1F
100
AcDbEntity
  8
0
  6
Continuous
 62
     7
370
    15
100
AcDbLine
 10
122.5040145985
 20
125.0080103664
 30
0.0
 11
119.3611574539
 21
125.0080103664
 31
0.0
  0
LINE
  5
F1
330
1F
100
AcDbEntity
  8
0
  6
Continuous
 62
     7
370
    15
100
AcDbLine
 10
123.3611574576
 20
124.5651532234
 30
0.0
 11
123.3611574557
 21
128.5794389379
 31
0.0
  0
LINE
  5
F2
330
1F
100
AcDbEntity
  8
0
  6
Continuous
 62
     7
370
    15
100
AcDbLine
 10
123.3611574557
 20
128.5794389379
 30
0.0
 11
137.6562029786
 21
128.5794389384
 31
0.0
  0
LINE
  5
F3
330
1F
100
AcDbEntity
  8
0
  6
Continuous
 62
     7
370
    15
100
AcDbLine
 10
137.6562029786
 20
128.5794389384
 30
0.0
 11
140.2512420172
 21
126.4840103657
 31
0.0
  0
LINE
  5
F4
330
1F
100
AcDbEntity
  8
0
  6
Continuous
 62
     7
370
    15
100
AcDbLine
 10
140.2512420172
 20
126.4840103657
 30
0.0
 11
140.7897288826
 21
127.1508879947
 31
0.0
  0
LINE
  5
F5
330
1F
100
AcDbEntity
  8
0
  6
Continuous
 62
     7
370
    15
100
AcDbLine
 10
153.5040145968
 20
99.144224652
 30
0.0
 11
153.5040145968
 21
120.3003675091
 31
0.0
  0
MTEXT
  5
F7
330
1F
100
AcDbEntity
  8
寸法線
100
AcDbMText
 10
130.6473769296
 20
137.4865001873
 30
0.0
 40
2.38125
 41
0.0
 71
     1
 72
     1
  1
取手
  7
SLDTEXTSTYLE1
 73
     1
 44
1.0
  0
INSERT
  5
103
330
1F
100
AcDbEntity
  8
寸法線
100
AcDbBlockReference
  2
SW_NOTE_0
 10
165.9815306023
 20
149.3164764139
 30
0.0
  0
LEADER
  5
10A
330
1F
100
AcDbEntity
  8
寸法線
100
AcDbLeader
  3
SLDDIMSTYLE0
 76
     2
 10
144.9552820145
 20
119.0301706688
 30
0.0
 10
165.9815306023
 20
149.3164764139
 30
0.0
  0
INSERT
  5
117
330
1F
100
AcDbEntity
  8
寸法線
100
AcDbBlockReference
  2
SW_NOTE_1
 10
168.1511423279
 20
136.5265966202
 30
0.0
  0
LEADER
  5
118
330
1F
100
AcDbEntity
  8
寸法線
100
AcDbLeader
  3
SLDDIMSTYLE0
 76
     2
 10
146.0392142179
 20
112.093004567
 30
0.0
 10
168.1511423279
 20
136.5265966202
 30
0.0
  0
INSERT
  5
124
330
1F
100
AcDbEntity
  8
寸法線
100
AcDbBlockReference
  2
SW_NOTE_2
 10
141.4847097419
 20
70.8370271453
 30
0.0
  0
LEADER
  5
125
330
1F
100
AcDbEntity
  8
寸法線
100
AcDbLeader
  3
SLDDIMSTYLE0
 76
     2
 10
125.2277159126
 20
89.3304282955
 30
0.0
 10
141.4847097419
 20
70.8370271453
 30
0.0
  0
LINE
  5
126
330
1F
100
AcDbEntity
  8
0
  6
CENTERX2
 62
     7
370
     0
100
AcDbLine
 10
111.5040145968
 20
133.8651532234
 30
0.0
 11
111.5040145968
 21
126.8651532234
 31
0.0
  0
LINE
  5
127
330
1F
100
AcDbEntity
  8
0
  6
CENTERX2
 62
     7
370
     0
100
AcDbLine
 10
99.7859746765
 20
89.293724652
 30
0.0
 11
105.9040145968
 21
89.293724652
 31
0.0
  0
LINE
  5
128
330
1F
100
AcDbEntity
  8
0
  6
CENTERX2
 62
     7
370
     0
100
AcDbLine
 10
109.0695214704
 20
94.3651532234
 30
0.0
 11
114.2242220088
 21
94.3651532234
 31
0.0
  0
LINE
  5
129
330
1F
100
AcDbEntity
  8
中心線
100
AcDbLine
 10
108.0933471766
 20
173.7861417153
 30
0.0
 11
97.0973768168
 21
173.7861417153
 31
0.0
  0
LINE
  5
12A
330
1F
100
AcDbEntity
  8
中心線
100
AcDbLine
 10
114.5040145968
 20
173.7861417153
 30
0.0
 11
158.8094553667
 21
173.7861417153
 31
0.0
  0
LINE
  5
12B
330
1F
100
AcDbEntity
  8
0
  6
Continuous
 62
     7
370
    15
100
AcDbLine
 10
115.6468717396
 20
191.2147131439
 30
0.0
 11
105.6468717396
 21
191.2147131439
 31
0.0
  0
LINE
  5
12C
330
1F
100
AcDbEntity
  8
0
  6
Continuous
 62
     7
370
    15
100
AcDbLine
 10
105.6468717396
 20
156.3575702868
 30
0.0
 11
115.6468717396
 21
156.3575702868
 31
0.0
  0
LINE
  5
12D
330
1F
100
AcDbEntity
  8
0
  6
Continuous
 62
     7
370
    15
100
AcDbLine
 10
115.6468717396
 20
158.5004274296
 30
0.0
 11
118.6468717396
 21
158.5004274296
 31
0.0
  0
LINE
  5
12E
330
1F
100
AcDbEntity
  8
0
  6
Continuous
 62
     7
370
    15
100
AcDbLine
 10
118.6468717396
 20
189.071856001
 30
0.0
 11
115.6468717396
 21
189.071856001
 31
0.0
  0
LINE
  5
12F
330
1F
100
AcDbEntity
  8
0
  6
Continuous
 62
     7
370
    15
100
AcDbLine
 10
105.6468717396
 20
189.071856001
 30
0.0
 11
103.0754431682
 21
189.071856001
 31
0.0
  0
LINE
  5
130
330
1F
100
AcDbEntity
  8
0
  6
Continuous
 62
     7
370
    15
100
AcDbLine
 10
103.0754431682
 20
158.5004274296
 30
0.0
 11
105.6468717396
 21
158.5004274296
 31
0.0
  0
LINE
  5
131
330
1F
100
AcDbEntity
  8
0
  6
Continuous
 62
     7
370
    15
100
AcDbLine
 10
103.0754431682
 20
188.5004274296
 30
0.0
 11
97.7897288825
 21
188.5004274296
 31
0.0
  0
LINE
  5
132
330
1F
100
AcDbEntity
  8
0
  6
Continuous
 62
     7
370
    15
100
AcDbLine
 10
97.7897288825
 20
159.071856001
 30
0.0
 11
103.0754431682
 21
159.071856001
 31
0.0
  0
LINE
  5
133
330
1F
100
AcDbEntity
  8
0
  6
Continuous
 62
     7
370
    15
100
AcDbLine
 10
119.7897288825
 20
188.6289988582
 30
0.0
 11
118.6468717396
 21
188.6289988582
 31
0.0
  0
LINE
  5
134
330
1F
100
AcDbEntity
  8
0
  6
Continuous
 62
     7
370
    15
100
AcDbLine
 10
118.6468717396
 20
158.9432845725
 30
0.0
 11
119.7897288825
 21
158.9432845725
 31
0.0
  0
LINE
  5
135
330
1F
100
AcDbEntity
  8
0
  6
Continuous
 62
     7
370
    15
100
AcDbLine
 10
124.628300311
 20
159.9289988582
 30
0.0
 11
127.6468717396
 21
163.4289988582
 31
0.0
  0
LINE
  5
136
330
1F
100
AcDbEntity
  8
0
  6
Continuous
 62
     7
370
    15
100
AcDbLine
 10
127.6468717396
 20
184.1432845725
 30
0.0
 11
124.628300311
 21
187.6432845725
 31
0.0
  0
LINE
  5
137
330
1F
100
AcDbEntity
  8
0
  6
Continuous
 62
     7
370
    15
100
AcDbLine
 10
124.628300311
 20
187.6432845725
 30
0.0
 11
119.7897288825
 21
187.6432845725
 31
0.0
  0
LINE
  5
138
330
1F
100
AcDbEntity
  8
0
  6
Continuous
 62
     7
370
    15
100
AcDbLine
 10
119.7897288825
 20
159.9289988582
 30
0.0
 11
124.628300311
 21
159.9289988582
 31
0.0
  0
LINE
  5
139
330
1F
100
AcDbEntity
  8
0
  6
Continuous
 62
     7
370
    15
100
AcDbLine
 10
151.7897288825
 20
185.4625702868
 30
0.0
 11
128.218300311
 21
185.4625702868
 31
0.0
  0
LINE
  5
13A
330
1F
100
AcDbEntity
  8
0
  6
Continuous
 62
     7
370
    15
100
AcDbLine
 10
151.7897288825
 20
163.2080702868
 30
0.0
 11
153.5040145968
 21
163.2080702868
 31
0.0
  0
LINE
  5
13B
330
1F
100
AcDbEntity
  8
0
  6
Continuous
 62
     7
370
    15
100
AcDbLine
 10
153.5040145968
 20
184.3642131439
 30
0.0
 11
151.7897288825
 21
184.3642131439
 31
0.0
  0
ARC
  5
13C
330
1F
100
AcDbEntity
  8
0
  6
Continuous
 62
     7
370
    15
100
AcDbCircle
 10
153.5040145968
 20
182.9356417153
 30
0.0
 40
1.428571428571416
100
AcDbArc
 50
360.0
 51
90.0
  0
ARC
  5
13D
330
1F
100
AcDbEntity
  8
0
  6
Continuous
 62
     7
370
    15
100
AcDbCircle
 10
153.5040145968
 20
164.6366417153
 30
0.0
 40
1.428571428571416
100
AcDbArc
 50
270.0
 51
0.0
  0
LINE
  5
13E
330
1F
100
AcDbEntity
  8
0
  6
Continuous
 62
     7
370
    15
100
AcDbLine
 10
128.218300311
 20
184.1432845725
 30
0.0
 11
127.6468717396
 21
184.1432845725
 31
0.0
  0
LINE
  5
13F
330
1F
100
AcDbEntity
  8
0
  6
Continuous
 62
     7
370
    15
100
AcDbLine
 10
127.6468717396
 20
163.4289988582
 30
0.0
 11
128.218300311
 21
163.4289988582
 31
0.0
  0
LINE
  5
140
330
1F
100
AcDbEntity
  8
0
  6
Continuous
 62
     7
370
    15
100
AcDbLine
 10
150.0754431682
 20
188.3765702868
 30
0.0
 11
130.9325860253
 21
188.3765702868
 31
0.0
  0
LINE
  5
141
330
1F
100
AcDbEntity
  8
0
  6
Continuous
 62
     7
370
    15
100
AcDbLine
 10
130.9325860253
 20
159.1957131439
 30
0.0
 11
140.1468717396
 21
159.1957131439
 31
0.0
  0
LINE
  5
142
330
1F
100
AcDbEntity
  8
0
  6
Continuous
 62
     7
370
    15
100
AcDbLine
 10
151.7059042067
 20
156.6514313598
 30
0.0
 11
151.4087875041
 21
156.0018732433
 31
0.0
  0
LINE
  5
143
330
1F
100
AcDbEntity
  8
0
  6
Continuous
 62
     7
370
    15
100
AcDbLine
 10
152.3554623239
 20
156.3543146569
 30
0.0
 11
152.0583456212
 21
155.7047565404
 31
0.0
  0
LINE
  5
144
330
1F
100
AcDbEntity
  8
0
  6
Continuous
 62
     7
370
    15
100
AcDbLine
 10
152.0583456212
 20
155.7047565404
 30
0.0
 11
151.4087875041
 21
156.0018732433
 31
0.0
  0
LINE
  5
145
330
1F
100
AcDbEntity
  8
0
  6
Continuous
 62
     7
370
    15
100
AcDbLine
 10
152.3554623239
 20
156.3543146569
 30
0.0
 11
151.7059042067
 21
156.6514313598
 31
0.0
  0
LINE
  5
146
330
1F
100
AcDbEntity
  8
0
  6
Continuous
 62
     7
370
    15
100
AcDbLine
 10
139.8735535575
 20
162.063709214
 30
0.0
 11
139.5764368549
 21
161.4141510975
 31
0.0
  0
LINE
  5
147
330
1F
100
AcDbEntity
  8
0
  6
Continuous
 62
     7
370
    15
100
AcDbLine
 10
139.2239954412
 20
162.3608259166
 30
0.0
 11
138.9268787386
 21
161.7112678
 31
0.0
  0
LINE
  5
148
330
1F
100
AcDbEntity
  8
0
  6
Continuous
 62
     7
370
    15
100
AcDbLine
 10
139.5764368549
 20
161.4141510975
 30
0.0
 11
138.9268787386
 21
161.7112678
 31
0.0
  0
LINE
  5
149
330
1F
100
AcDbEntity
  8
0
  6
Continuous
 62
     7
370
    15
100
AcDbLine
 10
139.8735535575
 20
162.063709214
 30
0.0
 11
139.2239954412
 21
162.3608259166
 31
0.0
  0
LINE
  5
14A
330
1F
100
AcDbEntity
  8
0
  6
Continuous
 62
     7
370
    15
100
AcDbLine
 10
151.4087875041
 20
156.0018732433
 30
0.0
 11
139.5764368549
 21
161.4141510975
 31
0.0
  0
LINE
  5
14B
330
1F
100
AcDbEntity
  8
0
  6
Continuous
 62
     7
370
    15
100
AcDbLine
 10
151.7059042067
 20
156.6514313598
 30
0.0
 11
139.8735535575
 21
162.063709214
 31
0.0
  0
SPLINE
  5
14C
330
1F
100
AcDbEntity
  8
0
  6
Continuous
 62
     7
370
    15
100
AcDbSpline
210
0.0
220
0.0
230
1.0
 70
    24
 71
     3
 72
     9
 73
     5
 74
     0
 42
0.00000001
 43
0.00000001
 40
0.0
 40
0.0
 40
0.0
 40
0.0
 40
0.5000000001625016
 40
0.9999999999999999
 40
0.9999999999999999
 40
0.9999999999999999
 40
0.9999999999999999
 10
141.7407080608989
 20
155.2147131439027
 30
0.0
 10
141.7702183778683
 20
155.2147131439027
 30
0.0
 10
141.829239011788
 20
155.2147131439027
 30
0.0
 10
141.9049053838704
 20
155.2147131439027
 30
0.0
 10
141.9427385698994
 20
155.2147131439027
 30
0.0
  0
ARC
  5
14D
330
1F
100
AcDbEntity
  8
0
  6
Continuous
 62
     7
370
    15
100
AcDbCircle
 10
141.8164695019
 20
155.5897131439
 30
0.0
 40
0.3825765230070365
100
AcDbArc
 50
171.9505330215
 51
258.5782463551
  0
LINE
  5
14E
330
1F
100
AcDbEntity
  8
0
  6
Continuous
 62
     7
370
    15
100
AcDbLine
 10
141.94273857
 20
155.6432845725
 30
0.0
 11
141.4376622974
 21
155.6432845725
 31
0.0
  0
LINE
  5
14F
330
1F
100
AcDbEntity
  8
0
  6
Continuous
 62
     7
370
    15
100
AcDbLine
 10
141.9427385699
 20
155.2147131439
 30
0.0
 11
141.9427385699
 21
155.6432845725
 31
0.0
  0
LINE
  5
150
330
1F
100
AcDbEntity
  8
0
  6
Continuous
 62
     7
370
    15
100
AcDbLine
 10
150.1417954672
 20
155.6432845725
 30
0.0
 11
149.6367191952
 21
155.6432845725
 31
0.0
  0
ARC
  5
151
330
1F
100
AcDbEntity
  8
0
  6
Continuous
 62
     7
370
    15
100
AcDbCircle
 10
149.7629882632
 20
155.5897131439
 30
0.0
 40
0.3825765229524
100
AcDbArc
 50
281.421753659
 51
8.0494669755
  0
SPLINE
  5
152
330
1F
100
AcDbEntity
  8
0
  6
Continuous
 62
     7
370
    15
100
AcDbSpline
210
0.0
220
0.0
230
1.0
 70
    24
 71
     3
 72
     9
 73
     5
 74
     0
 42
0.00000001
 43
0.00000001
 40
0.0
 40
0.0
 40
0.0
 40
0.0
 40
0.4999999998375017
 40
1.0
 40
1.0
 40
1.0
 40
1.0
 10
149.6367191950422
 20
155.2147131439027
 30
0.0
 10
149.6745523810712
 20
155.2147131439027
 30
0.0
 10
149.7502187531537
 20
155.2147131439027
 30
0.0
 10
149.8092393870734
 20
155.2147131439027
 30
0.0
 10
149.8387497040429
 20
155.2147131439027
 30
0.0
  0
LINE
  5
153
330
1F
100
AcDbEntity
  8
0
  6
Continuous
 62
     7
370
    15
100
AcDbLine
 10
149.636719195
 20
155.6432845725
 30
0.0
 11
149.636719195
 21
155.2147131439
 31
0.0
  0
LINE
  5
154
330
1F
100
AcDbEntity
  8
0
  6
Continuous
 62
     7
370
    15
100
AcDbLine
 10
141.94273857
 20
160.3317725619
 30
0.0
 11
141.94273857
 21
155.6432845725
 31
0.0
  0
LINE
  5
155
330
1F
100
AcDbEntity
  8
0
  6
Continuous
 62
     7
370
    15
100
AcDbLine
 10
149.636719195
 20
156.8124413502
 30
0.0
 11
149.636719195
 21
155.6432845725
 31
0.0
  0
LINE
  5
156
330
1F
100
AcDbEntity
  8
0
  6
Continuous
 62
     7
370
    15
100
AcDbLine
 10
149.636719195
 20
155.6432845725
 30
0.0
 11
141.9427385699
 21
155.6432845725
 31
0.0
  0
LINE
  5
157
330
1F
100
AcDbEntity
  8
0
  6
Continuous
 62
     7
370
    15
100
AcDbLine
 10
150.1417954673
 20
156.5814126049
 30
0.0
 11
150.1417954672
 21
155.6432845725
 31
0.0
  0
LINE
  5
158
330
1F
100
AcDbEntity
  8
0
  6
Continuous
 62
     7
370
    15
100
AcDbLine
 10
149.636719195
 20
155.2147131439
 30
0.0
 11
141.9427385699
 21
155.2147131439
 31
0.0
  0
LINE
  5
159
330
1F
100
AcDbEntity
  8
0
  6
Continuous
 62
     7
370
    15
100
AcDbLine
 10
141.4376622986
 20
160.5628013083
 30
0.0
 11
141.4376622976
 21
155.6432845725
 31
0.0
  0
LINE
  5
15A
330
1F
100
AcDbEntity
  8
0
  6
Continuous
 62
     7
370
    15
100
AcDbLine
 10
149.636719195
 20
162.5004274296
 30
0.0
 11
141.94273857
 21
162.5004274296
 31
0.0
  0
LINE
  5
15B
330
1F
100
AcDbEntity
  8
0
  6
Continuous
 62
     7
370
    15
100
AcDbLine
 10
149.636719195
 20
162.5004274296
 30
0.0
 11
149.636719195
 21
157.5979046808
 31
0.0
  0
LINE
  5
15C
330
1F
100
AcDbEntity
  8
0
  6
Continuous
 62
     7
370
    15
100
AcDbLine
 10
141.94273857
 20
162.5004274296
 30
0.0
 11
141.94273857
 21
161.1172358926
 31
0.0
  0
LINE
  5
15D
330
1F
100
AcDbEntity
  8
0
  6
Continuous
 62
     7
370
    15
100
AcDbLine
 10
141.4376622976
 20
162.5004274296
 30
0.0
 11
141.4376622976
 21
161.3482646379
 31
0.0
  0
LINE
  5
15E
330
1F
100
AcDbEntity
  8
0
  6
Continuous
 62
     7
370
    15
100
AcDbLine
 10
141.94273857
 20
162.5004274296
 30
0.0
 11
141.4376622976
 21
162.5004274296
 31
0.0
  0
LINE
  5
15F
330
1F
100
AcDbEntity
  8
0
  6
Continuous
 62
     7
370
    15
100
AcDbLine
 10
150.1417954673
 20
162.5004274296
 30
0.0
 11
149.636719195
 21
162.5004274296
 31
0.0
  0
LINE
  5
160
330
1F
100
AcDbEntity
  8
0
  6
Continuous
 62
     7
370
    15
100
AcDbLine
 10
150.1417954673
 20
162.5004274296
 30
0.0
 11
150.1417954672
 21
157.3668759345
 31
0.0
  0
LINE
  5
161
330
1F
100
AcDbEntity
  8
0
  6
Continuous
 62
     7
370
    15
100
AcDbLine
 10
140.3560811814
 20
161.0575311954
 30
0.0
 11
140.3560811814
 21
155.6432845725
 31
0.0
  0
LINE
  5
162
330
1F
100
AcDbEntity
  8
0
  6
Continuous
 62
     7
370
    15
100
AcDbLine
 10
141.4376622976
 20
155.6432845725
 30
0.0
 11
140.3560811816
 21
155.6432845725
 31
0.0
  0
ARC
  5
163
330
1F
100
AcDbEntity
  8
0
  6
Continuous
 62
     7
370
    15
100
AcDbCircle
 10
140.7348883858
 20
155.5897131439
 30
0.0
 40
0.3825765229523443
100
AcDbArc
 50
171.9505330245
 51
258.578246341
  0
LINE
  5
164
330
1F
100
AcDbEntity
  8
0
  6
Continuous
 62
     7
370
    15
100
AcDbLine
 10
141.7407080611
 20
155.2147131438
 30
0.0
 11
140.6591269452
 21
155.2147131438
 31
0.0
  0
LINE
  5
165
330
1F
100
AcDbEntity
  8
0
  6
Continuous
 62
     7
370
    15
100
AcDbLine
 10
151.223376584
 20
156.0866827157
 30
0.0
 11
151.2233765833
 21
155.6432845725
 31
0.0
  0
LINE
  5
166
330
1F
100
AcDbEntity
  8
0
  6
Continuous
 62
     7
370
    15
100
AcDbLine
 10
151.2233765833
 20
155.6432845725
 30
0.0
 11
150.1417954673
 21
155.6432845725
 31
0.0
  0
ARC
  5
167
330
1F
100
AcDbEntity
  8
0
  6
Continuous
 62
     7
370
    15
100
AcDbCircle
 10
150.8445693791
 20
155.5897131439
 30
0.0
 40
0.3825765229982694
100
AcDbArc
 50
281.421753645
 51
8.0494669785
  0
LINE
  5
168
330
1F
100
AcDbEntity
  8
0
  6
Continuous
 62
     7
370
    15
100
AcDbLine
 10
150.9203308198
 20
155.2147131438
 30
0.0
 11
149.8387497038
 21
155.2147131438
 31
0.0
  0
LINE
  5
169
330
1F
100
AcDbEntity
  8
0
  6
Continuous
 62
     7
370
    15
100
AcDbLine
 10
151.2233765833
 20
162.5004274296
 30
0.0
 11
151.2233765833
 21
156.8721460471
 31
0.0
  0
LINE
  5
16A
330
1F
100
AcDbEntity
  8
0
  6
Continuous
 62
     7
370
    15
100
AcDbLine
 10
151.2233765833
 20
162.5004274296
 30
0.0
 11
150.1417954673
 21
162.5004274296
 31
0.0
  0
LINE
  5
16B
330
1F
100
AcDbEntity
  8
0
  6
Continuous
 62
     7
370
    15
100
AcDbLine
 10
140.3560811816
 20
161.8429945268
 30
0.0
 11
140.3560811816
 21
162.5004274296
 31
0.0
  0
LINE
  5
16C
330
1F
100
AcDbEntity
  8
0
  6
Continuous
 62
     7
370
    15
100
AcDbLine
 10
140.3560811816
 20
162.5004274296
 30
0.0
 11
141.4376622976
 21
162.5004274296
 31
0.0
  0
ARC
  5
16D
330
1F
100
AcDbEntity
  8
0
  6
Continuous
 62
     7
370
    15
100
AcDbCircle
 10
140.5754431682
 20
155.6432845725
 30
0.0
 40
0.4285714285714164
100
AcDbArc
 50
180.0
 51
270.0000000118
  0
LINE
  5
16E
330
1F
100
AcDbEntity
  8
0
  6
Continuous
 62
     7
370
    15
100
AcDbLine
 10
140.3560811814
 20
155.6432845725
 30
0.0
 11
140.1468717396
 21
155.6432845725
 31
0.0
  0
SPLINE
  5
16F
330
1F
100
AcDbEntity
  8
0
  6
Continuous
 62
     7
370
    15
100
AcDbSpline
210
0.0
220
0.0
230
1.0
 70
    24
 71
     3
 72
     9
 73
     5
 74
     0
 42
0.00000001
 43
0.00000001
 40
0.0
 40
0.0
 40
0.0
 40
0.0
 40
0.4999999998374987
 40
1.0
 40
1.0
 40
1.0
 40
1.0
 10
140.5754431681841
 20
155.2147131439027
 30
0.0
 10
140.5793438726177
 20
155.2147131439027
 30
0.0
 10
140.5871452814874
 20
155.2147131439027
 30
0.0
 10
140.635133057185
 20
155.2147131439027
 30
0.0
 10
140.6591269450415
 20
155.2147131439027
 30
0.0
  0
LINE
  5
170
330
1F
100
AcDbEntity
  8
0
  6
Continuous
 62
     7
370
    15
100
AcDbLine
 10
151.4325860253
 20
155.6432845725
 30
0.0
 11
151.2233765832
 21
155.6432845725
 31
0.0
  0
ARC
  5
171
330
1F
100
AcDbEntity
  8
0
  6
Continuous
 62
     7
370
    15
100
AcDbCircle
 10
151.0040145968
 20
155.6432845725
 30
0.0
 40
0.4285714285714448
100
AcDbArc
 50
269.9999999995
 51
0.0
  0
SPLINE
  5
172
330
1F
100
AcDbEntity
  8
0
  6
Continuous
 62
     7
370
    15
100
AcDbSpline
210
0.0
220
0.0
230
1.0
 70
    24
 71
     3
 72
     9
 73
     5
 74
     0
 42
0.00000001
 43
0.00000001
 40
0.0
 40
0.0
 40
0.0
 40
0.0
 40
0.5000000001624996
 40
1.0
 40
1.0
 40
1.0
 40
1.0
 10
150.9203308198994
 20
155.2147131439027
 30
0.0
 10
150.9443247077558
 20
155.2147131439027
 30
0.0
 10
150.9923124834532
 20
155.2147131439027
 30
0.0
 10
151.0001138923229
 20
155.2147131439027
 30
0.0
 10
151.0040145967565
 20
155.2147131439027
 30
0.0
  0
LINE
  5
173
330
1F
100
AcDbEntity
  8
0
  6
Continuous
 62
     7
370
    15
100
AcDbLine
 10
140.146871738
 20
161.153226437
 30
0.0
 11
140.1468717396
 21
155.6432845725
 31
0.0
  0
LINE
  5
174
330
1F
100
AcDbEntity
  8
0
  6
Continuous
 62
     7
370
    15
100
AcDbLine
 10
151.4325860254
 20
155.9909874765
 30
0.0
 11
151.4325860253
 21
155.6432845725
 31
0.0
  0
LINE
  5
175
330
1F
100
AcDbEntity
  8
0
  6
Continuous
 62
     7
370
    15
100
AcDbLine
 10
140.1468717404
 20
161.9386897656
 30
0.0
 11
140.1468717396
 21
162.5004274296
 31
0.0
  0
LINE
  5
176
330
1F
100
AcDbEntity
  8
0
  6
Continuous
 62
     7
370
    15
100
AcDbLine
 10
140.3560811816
 20
162.5004274296
 30
0.0
 11
140.1468717396
 21
162.5004274296
 31
0.0
  0
LINE
  5
177
330
1F
100
AcDbEntity
  8
0
  6
Continuous
 62
     7
370
    15
100
AcDbLine
 10
151.4325860253
 20
162.5004274296
 30
0.0
 11
151.4325860245
 21
156.7764508079
 31
0.0
  0
LINE
  5
178
330
1F
100
AcDbEntity
  8
0
  6
Continuous
 62
     7
370
    15
100
AcDbLine
 10
151.4325860253
 20
162.5004274296
 30
0.0
 11
151.2233765833
 21
162.5004274296
 31
0.0
  0
CIRCLE
  5
179
330
1F
100
AcDbEntity
  8
0
  6
Continuous
 62
     7
370
    15
100
AcDbCircle
 10
111.5040145968
 20
173.7861417153
 30
0.0
 40
3.0
  0
CIRCLE
  5
17A
330
1F
100
AcDbEntity
  8
0
  6
Continuous
 62
     7
370
    15
100
AcDbCircle
 10
111.5040145968
 20
173.7861417153
 30
0.0
 40
1.871428571428567
  0
LINE
  5
17B
330
1F
100
AcDbEntity
  8
0
  6
Continuous
 62
     7
370
    15
100
AcDbLine
 10
115.6468717396
 20
168.2147131439
 30
0.0
 11
115.6468717396
 21
179.3575702868
 31
0.0
  0
LINE
  5
17C
330
1F
100
AcDbEntity
  8
0
  6
Continuous
 62
     7
370
    15
100
AcDbLine
 10
107.218300311
 20
168.2147131439
 30
0.0
 11
115.6468717396
 21
168.2147131439
 31
0.0
  0
LINE
  5
17D
330
1F
100
AcDbEntity
  8
0
  6
Continuous
 62
     7
370
    15
100
AcDbLine
 10
107.218300311
 20
168.2147131439
 30
0.0
 11
107.218300311
 21
179.3575702868
 31
0.0
  0
LINE
  5
17E
330
1F
100
AcDbEntity
  8
0
  6
Continuous
 62
     7
370
    15
100
AcDbLine
 10
107.218300311
 20
179.3575702868
 30
0.0
 11
115.6468717396
 21
179.3575702868
 31
0.0
  0
LINE
  5
17F
330
1F
100
AcDbEntity
  8
0
  6
Continuous
 62
     7
370
    15
100
AcDbLine
 10
105.6468717396
 20
156.3575702868
 30
0.0
 11
105.6468717396
 21
191.2147131439
 31
0.0
  0
LINE
  5
180
330
1F
100
AcDbEntity
  8
0
  6
Continuous
 62
     7
370
    15
100
AcDbLine
 10
115.6468717396
 20
156.3575702868
 30
0.0
 11
115.6468717396
 21
168.2147131439
 31
0.0
  0
LINE
  5
181
330
1F
100
AcDbEntity
  8
0
  6
Continuous
 62
     7
370
    15
100
AcDbLine
 10
115.6468717396
 20
179.3575702868
 30
0.0
 11
115.6468717396
 21
191.2147131439
 31
0.0
  0
LINE
  5
182
330
1F
100
AcDbEntity
  8
0
  6
Continuous
 62
     7
370
    15
100
AcDbLine
 10
118.6468717396
 20
189.071856001
 30
0.0
 11
118.6468717396
 21
158.5004274296
 31
0.0
  0
LINE
  5
183
330
1F
100
AcDbEntity
  8
0
  6
Continuous
 62
     7
370
    15
100
AcDbLine
 10
103.0754431682
 20
158.5004274296
 30
0.0
 11
103.0754431682
 21
189.071856001
 31
0.0
  0
LINE
  5
184
330
1F
100
AcDbEntity
  8
0
  6
Continuous
 62
     7
370
    15
100
AcDbLine
 10
97.7897288825
 20
159.071856001
 30
0.0
 11
97.7897288825
 21
188.5004274296
 31
0.0
  0
LINE
  5
185
330
1F
100
AcDbEntity
  8
0
  6
Continuous
 62
     7
370
    15
100
AcDbLine
 10
140.7897288826
 20
172.0004274296
 30
0.0
 11
137.9590599168
 21
172.0004274296
 31
0.0
  0
LINE
  5
186
330
1F
100
AcDbEntity
  8
0
  6
Continuous
 62
     7
370
    15
100
AcDbLine
 10
137.9590599155
 20
175.571856001
 30
0.0
 11
137.9590599168
 21
172.0004274296
 31
0.0
  0
LINE
  5
187
330
1F
100
AcDbEntity
  8
0
  6
Continuous
 62
     7
370
    15
100
AcDbLine
 10
140.7897288825
 20
175.571856001
 30
0.0
 11
137.9590599155
 21
175.571856001
 31
0.0
  0
LINE
  5
188
330
1F
100
AcDbEntity
  8
0
  6
Continuous
 62
     7
370
    15
100
AcDbLine
 10
140.7897288825
 20
175.571856001
 30
0.0
 11
140.7897288826
 21
172.0004274296
 31
0.0
  0
LINE
  5
189
330
1F
100
AcDbEntity
  8
0
  6
Continuous
 62
     7
370
    15
100
AcDbLine
 10
137.9590599168
 20
172.0004274296
 30
0.0
 11
122.5040145985
 21
172.0004274296
 31
0.0
  0
LINE
  5
18A
330
1F
100
AcDbEntity
  8
0
  6
Continuous
 62
     7
370
    15
100
AcDbLine
 10
122.5040145985
 20
175.571856001
 30
0.0
 11
122.5040145985
 21
172.0004274296
 31
0.0
  0
LINE
  5
18B
330
1F
100
AcDbEntity
  8
0
  6
Continuous
 62
     7
370
    15
100
AcDbLine
 10
137.9590599155
 20
175.571856001
 30
0.0
 11
122.5040145985
 21
175.571856001
 31
0.0
  0
LINE
  5
18C
330
1F
100
AcDbEntity
  8
0
  6
Continuous
 62
     7
370
    15
100
AcDbLine
 10
119.3611574539
 20
175.571856001
 30
0.0
 11
119.3611574539
 21
172.0004274296
 31
0.0
  0
LINE
  5
18D
330
1F
100
AcDbEntity
  8
0
  6
Continuous
 62
     7
370
    15
100
AcDbLine
 10
122.5040145985
 20
172.0004274296
 30
0.0
 11
119.3611574539
 21
172.0004274296
 31
0.0
  0
LINE
  5
18E
330
1F
100
AcDbEntity
  8
0
  6
Continuous
 62
     7
370
    15
100
AcDbLine
 10
122.5040145985
 20
175.571856001
 30
0.0
 11
119.3611574539
 21
175.571856001
 31
0.0
  0
LINE
  5
18F
330
1F
100
AcDbEntity
  8
0
  6
Continuous
 62
     7
370
    15
100
AcDbLine
 10
123.6468717409
 20
171.2861417153
 30
0.0
 11
118.6468717396
 21
171.2861417153
 31
0.0
  0
LINE
  5
190
330
1F
100
AcDbEntity
  8
0
  6
Continuous
 62
     7
370
    15
100
AcDbLine
 10
123.6468717409
 20
171.2861417153
 30
0.0
 11
123.6468717396
 21
172.0004274296
 31
0.0
  0
LINE
  5
191
330
1F
100
AcDbEntity
  8
0
  6
Continuous
 62
     7
370
    15
100
AcDbLine
 10
123.6468717396
 20
175.571856001
 30
0.0
 11
123.6468717396
 21
176.2861417153
 31
0.0
  0
LINE
  5
192
330
1F
100
AcDbEntity
  8
0
  6
Continuous
 62
     7
370
    15
100
AcDbLine
 10
123.6468717396
 20
176.2861417153
 30
0.0
 11
118.6468717396
 21
176.2861417153
 31
0.0
  0
ELLIPSE
  5
193
330
1F
100
AcDbEntity
  8
0
  6
Continuous
 62
     7
370
    15
100
AcDbEllipse
 10
131.0683003102
 20
173.7861417153
 30
0.0
 11
2.842170943040401E-14
 21
13.85714285714286
 31
0.0
210
0.0
220
0.0
230
1.0
 40
0.4999999999
 41
1.700021665703915
 42
1.752202012762997
  0
ELLIPSE
  5
194
330
1F
100
AcDbEntity
  8
0
  6
Continuous
 62
     7
370
    15
100
AcDbEllipse
 10
131.0683003102
 20
173.7861417153
 30
0.0
 11
2.842170943040401E-14
 21
13.85714285714286
 31
0.0
210
0.0
220
0.0
230
1.0
 40
0.4999999999
 41
1.389390641031895
 42
1.441570987885891
  0
LINE
  5
195
330
1F
100
AcDbEntity
  8
0
  6
Continuous
 62
     7
370
    15
100
AcDbLine
 10
124.2534193849
 20
171.2861417121
 30
0.0
 11
123.6468717409
 21
171.2861417153
 31
0.0
  0
LINE
  5
196
330
1F
100
AcDbEntity
  8
0
  6
Continuous
 62
     7
370
    15
100
AcDbLine
 10
124.2534193846
 20
176.2861417158
 30
0.0
 11
123.6468717396
 21
176.2861417153
 31
0.0
  0
LINE
  5
197
330
1F
100
AcDbEntity
  8
0
  6
Continuous
 62
     7
370
    15
100
AcDbLine
 10
119.7897288825
 20
176.2861417153
 30
0.0
 11
119.7897288825
 21
188.6289988582
 31
0.0
  0
LINE
  5
198
330
1F
100
AcDbEntity
  8
0
  6
Continuous
 62
     7
370
    15
100
AcDbLine
 10
119.7897288825
 20
158.9432845725
 30
0.0
 11
119.7897288825
 21
171.2861417134
 31
0.0
  0
LINE
  5
199
330
1F
100
AcDbEntity
  8
0
  6
Continuous
 62
     7
370
    15
100
AcDbLine
 10
124.628300311
 20
187.6432845725
 30
0.0
 11
124.628300311
 21
175.571856001
 31
0.0
  0
LINE
  5
19A
330
1F
100
AcDbEntity
  8
0
  6
Continuous
 62
     7
370
    15
100
AcDbLine
 10
124.628300311
 20
172.0004274296
 30
0.0
 11
124.628300311
 21
159.9289988582
 31
0.0
  0
LINE
  5
19B
330
1F
100
AcDbEntity
  8
0
  6
Continuous
 62
     7
370
    15
100
AcDbLine
 10
127.6468717396
 20
184.1432845725
 30
0.0
 11
127.6468717396
 21
175.571856001
 31
0.0
  0
LINE
  5
19C
330
1F
100
AcDbEntity
  8
0
  6
Continuous
 62
     7
370
    15
100
AcDbLine
 10
127.6468717396
 20
172.0004274296
 30
0.0
 11
127.6468717396
 21
163.4289988582
 31
0.0
  0
LINE
  5
19D
330
1F
100
AcDbEntity
  8
0
  6
Continuous
 62
     7
370
    15
100
AcDbLine
 10
151.7897288825
 20
185.4625702868
 30
0.0
 11
151.7897288825
 21
162.9889988591
 31
0.0
  0
LINE
  5
19E
330
1F
100
AcDbEntity
  8
0
  6
Continuous
 62
     7
370
    15
100
AcDbLine
 10
151.7897288825
 20
162.9889988591
 30
0.0
 11
128.218300311
 21
162.9889988591
 31
0.0
  0
LINE
  5
19F
330
1F
100
AcDbEntity
  8
0
  6
Continuous
 62
     7
370
    15
100
AcDbLine
 10
128.218300311
 20
185.4625702868
 30
0.0
 11
128.218300311
 21
175.571856001
 31
0.0
  0
LINE
  5
1A0
330
1F
100
AcDbEntity
  8
0
  6
Continuous
 62
     7
370
    15
100
AcDbLine
 10
128.218300311
 20
172.0004274296
 30
0.0
 11
128.218300311
 21
162.9889988591
 31
0.0
  0
LINE
  5
1A1
330
1F
100
AcDbEntity
  8
0
  6
Continuous
 62
     7
370
    15
100
AcDbLine
 10
154.9325860253
 20
182.9356417153
 30
0.0
 11
154.9325860253
 21
164.6366417183
 31
0.0
  0
LINE
  5
1A2
330
1F
100
AcDbEntity
  8
0
  6
Continuous
 62
     7
370
    15
100
AcDbLine
 10
127.218300311
 20
161.6432845725
 30
0.0
 11
130.9325860253
 21
161.6432845725
 31
0.0
  0
LINE
  5
1A3
330
1F
100
AcDbEntity
  8
0
  6
Continuous
 62
     7
370
    15
100
AcDbLine
 10
125.4907492906
 20
160.9289988582
 30
0.0
 11
130.9325860253
 21
160.9289988582
 31
0.0
  0
LINE
  5
1A4
330
1F
100
AcDbEntity
  8
0
  6
Continuous
 62
     7
370
    15
100
AcDbLine
 10
127.2183003111
 20
185.9289988578
 30
0.0
 11
130.9325860253
 21
185.9289988575
 31
0.0
  0
LINE
  5
1A5
330
1F
100
AcDbEntity
  8
0
  6
Continuous
 62
     7
370
    15
100
AcDbLine
 10
127.218300311
 20
161.6432845725
 30
0.0
 11
127.218300311
 21
162.9320750532
 31
0.0
  0
LINE
  5
1A6
330
1F
100
AcDbEntity
  8
0
  6
Continuous
 62
     7
370
    15
100
AcDbLine
 10
127.218300311
 20
184.6402083775
 30
0.0
 11
127.2183003111
 21
185.9289988578
 31
0.0
  0
LINE
  5
1A7
330
1F
100
AcDbEntity
  8
0
  6
Continuous
 62
     7
370
    15
100
AcDbLine
 10
125.4907492906
 20
186.6432845725
 30
0.0
 11
130.9325860253
 21
186.6432845725
 31
0.0
  0
LINE
  5
1A8
330
1F
100
AcDbEntity
  8
0
  6
Continuous
 62
     7
370
    15
100
AcDbLine
 10
130.9325860253
 20
185.4625702868
 30
0.0
 11
130.9325860253
 21
187.3082213502
 31
0.0
  0
LINE
  5
1A9
330
1F
100
AcDbEntity
  8
0
  6
Continuous
 62
     7
370
    15
100
AcDbLine
 10
130.9325860253
 20
187.3082213502
 30
0.0
 11
150.0754431682
 21
187.3082213502
 31
0.0
  0
LINE
  5
1AA
330
1F
100
AcDbEntity
  8
0
  6
Continuous
 62
     7
370
    15
100
AcDbLine
 10
150.0754431682
 20
187.3082213502
 30
0.0
 11
150.0754431682
 21
185.4625702868
 31
0.0
  0
LINE
  5
1AB
330
1F
100
AcDbEntity
  8
0
  6
Continuous
 62
     7
370
    15
100
AcDbLine
 10
130.9325860253
 20
162.9889988599
 30
0.0
 11
130.9325860253
 21
160.2640620805
 31
0.0
  0
LINE
  5
1AC
330
1F
100
AcDbEntity
  8
0
  6
Continuous
 62
     7
370
    15
100
AcDbLine
 10
150.0754431682
 20
162.5004274296
 30
0.0
 11
150.0754431682
 21
162.9889988599
 31
0.0
  0
LINE
  5
1AD
330
1F
100
AcDbEntity
  8
0
  6
Continuous
 62
     7
370
    15
100
AcDbLine
 10
130.9325860253
 20
188.3765702868
 30
0.0
 11
130.9325860253
 21
187.3082213502
 31
0.0
  0
LINE
  5
1AE
330
1F
100
AcDbEntity
  8
0
  6
Continuous
 62
     7
370
    15
100
AcDbLine
 10
150.0754431682
 20
188.3765702868
 30
0.0
 11
150.0754431682
 21
187.3082213502
 31
0.0
  0
LINE
  5
1AF
330
1F
100
AcDbEntity
  8
0
  6
Continuous
 62
     7
370
    15
100
AcDbLine
 10
130.9325860253
 20
160.2640620805
 30
0.0
 11
130.9325860253
 21
159.1957131439
 31
0.0
  0
LINE
  5
1B0
330
1F
100
AcDbEntity
  8
0
  6
Continuous
 62
     7
370
    15
100
AcDbLine
 10
127.9325860253
 20
160.5289988582
 30
0.0
 11
125.1457696988
 21
160.5289988582
 31
0.0
  0
LINE
  5
1B1
330
1F
100
AcDbEntity
  8
0
  6
Continuous
 62
     7
370
    15
100
AcDbLine
 10
127.9325860282
 20
160.9289988582
 30
0.0
 11
127.9325860253
 21
160.5289988582
 31
0.0
  0
LINE
  5
1B2
330
1F
100
AcDbEntity
  8
0
  6
Continuous
 62
     7
370
    15
100
AcDbLine
 10
153.5040145968
 20
163.2080702868
 30
0.0
 11
153.5040145968
 21
184.3642131439
 31
0.0
  0
LINE
  5
1B3
330
1F
100
AcDbEntity
  8
0
  6
Continuous
 62
     7
370
    15
100
AcDbLine
 10
130.9325860253
 20
160.2640620805
 30
0.0
 11
140.1468717396
 21
160.2640620805
 31
0.0
  0
INSERT
  5
1C0
330
1F
100
AcDbEntity
  8
寸法線
100
AcDbBlockReference
  2
SW_NOTE_3
 10
167.7142325656
 20
174.4630605106
 30
0.0
  0
LEADER
  5
1C1
330
1F
100
AcDbEntity
  8
寸法線
100
AcDbLeader
  3
SLDDIMSTYLE0
 76
     2
 10
122.4094921837
 20
183.6325299916
 30
0.0
 10
167.7142325656
 20
174.4630605106
 30
0.0
  0
INSERT
  5
1CD
330
1F
100
AcDbEntity
  8
0
  6
Continuous
 62
     7
370
     0
100
AcDbBlockReference
  2
SW_CENTERMARKSYMBOL_0
 10
111.5040145968
 20
173.7861417153
 30
0.0
  0
LINE
  5
1CE
330
1F
100
AcDbEntity
  8
中心線
100
AcDbLine
 10
190.849674419
 20
109.7222960806
 30
0.0
 11
190.849674419
 21
135.7239358319
 31
0.0
  0
LINE
  5
1CF
330
1F
100
AcDbEntity
  8
中心線
100
AcDbLine
 10
190.849674419
 20
109.7222960806
 30
0.0
 11
190.849674419
 21
80.7440840329
 31
0.0
  0
LINE
  5
1D0
330
1F
100
AcDbEntity
  8
中心線
100
AcDbLine
 10
190.849674419
 20
109.7222960806
 30
0.0
 11
169.5331784759
 21
109.7222960806
 31
0.0
  0
LINE
  5
1D1
330
1F
100
AcDbEntity
  8
中心線
100
AcDbLine
 10
190.849674419
 20
109.7222960806
 30
0.0
 11
210.0387427605
 21
109.7222960806
 31
0.0
  0
LINE
  5
1D2
330
1F
100
AcDbEntity
  8
0
  6
Continuous
 62
     7
370
    15
100
AcDbLine
 10
187.849674419
 20
131.8651532234
 30
0.0
 11
187.849674419
 21
131.4365817949
 31
0.0
  0
LINE
  5
1D3
330
1F
100
AcDbEntity
  8
0
  6
Continuous
 62
     7
370
    15
100
AcDbLine
 10
193.849674419
 20
131.4365817949
 30
0.0
 11
193.849674419
 21
131.8651532234
 31
0.0
  0
LINE
  5
1D4
330
1F
100
AcDbEntity
  8
0
  6
Continuous
 62
     7
370
    15
100
AcDbLine
 10
187.849674419
 20
131.4365817949
 30
0.0
 11
188.7782458476
 21
131.1877718305
 31
0.0
  0
LINE
  5
1D5
330
1F
100
AcDbEntity
  8
0
  6
Continuous
 62
     7
370
    15
100
AcDbLine
 10
192.9211029904
 20
131.1877718305
 30
0.0
 11
193.849674419
 21
131.4365817949
 31
0.0
  0
LINE
  5
1D6
330
1F
100
AcDbEntity
  8
0
  6
Continuous
 62
     7
370
    15
100
AcDbLine
 10
188.7782458476
 20
131.1877718305
 30
0.0
 11
188.7782458476
 21
128.8651532234
 31
0.0
  0
LINE
  5
1D7
330
1F
100
AcDbEntity
  8
0
  6
Continuous
 62
     7
370
    15
100
AcDbLine
 10
192.9211029904
 20
128.8651532234
 30
0.0
 11
192.9211029904
 21
131.1877718305
 31
0.0
  0
LINE
  5
1D8
330
1F
100
AcDbEntity
  8
0
  6
Continuous
 62
     7
370
    15
100
AcDbLine
 10
179.1272419178
 20
103.5794389377
 30
0.0
 11
173.7149640639
 21
103.5794389377
 31
0.0
  0
LWPOLYLINE
  5
1D9
330
1F
100
AcDbEntity
  8
0
  6
Continuous
 62
     7
370
    15
100
AcDbPolyline
 90
        9
 70
   128
 43
0.0
 10
173.7149640639
 20
103.5794389377
 10
173.6569994706
 20
103.5931637371
 10
173.6012624241
 20
103.6338106997
 10
173.5498948678
 20
103.6998177855
 10
173.5048708282
 20
103.7886483791
 10
173.4679205538
 20
103.8968887707
 10
173.4404640229
 20
104.0203793428
 10
173.4235563747
 20
104.1543744218
 10
173.4178473606
 20
104.293724652
  0
LINE
  5
1DA
330
1F
100
AcDbEntity
  8
0
  6
Continuous
 62
     7
370
    15
100
AcDbLine
 10
173.4178473606
 20
104.293724652
 30
0.0
 11
173.4178473606
 21
115.4365817947
 31
0.0
  0
LWPOLYLINE
  5
1DB
330
1F
100
AcDbEntity
  8
0
  6
Continuous
 62
     7
370
    15
100
AcDbPolyline
 90
        9
 70
   128
 43
0.0
 10
173.4178473606
 20
115.4365817947
 10
173.4235563747
 20
115.5759320248
 10
173.4404640229
 20
115.7099271038
 10
173.4679205537
 20
115.8334176758
 10
173.5048708281
 20
115.9416580674
 10
173.5498948676
 20
116.0304886611
 10
173.6012624238
 20
116.0964957469
 10
173.6569994703
 20
116.1371427096
 10
173.7149640635
 20
116.1508675092
  0
LINE
  5
1DC
330
1F
100
AcDbEntity
  8
0
  6
Continuous
 62
     7
370
    15
100
AcDbLine
 10
173.7149640635
 20
116.1508675092
 30
0.0
 11
179.1272419177
 21
116.1508675092
 31
0.0
  0
LWPOLYLINE
  5
1DD
330
1F
100
AcDbEntity
  8
0
  6
Continuous
 62
     7
370
    15
100
AcDbPolyline
 90
        9
 70
   128
 43
0.0
 10
179.1272419177
 20
116.1508675092
 10
179.1852065109
 20
116.1371427095
 10
179.2409435572
 20
116.0964957467
 10
179.2923111134
 20
116.0304886608
 10
179.3373351529
 20
115.9416580672
 10
179.3742854272
 20
115.8334176756
 10
179.401741958
 20
115.7099271037
 10
179.4186496061
 20
115.5759320249
 10
179.4243586203
 20
115.4365817949
  0
LINE
  5
1DE
330
1F
100
AcDbEntity
  8
0
  6
Continuous
 62
     7
370
    15
100
AcDbLine
 10
179.4243586203
 20
115.4365817949
 30
0.0
 11
179.4243586203
 21
114.8651532234
 31
0.0
  0
LINE
  5
1DF
330
1F
100
AcDbEntity
  8
0
  6
Continuous
 62
     7
370
    15
100
AcDbLine
 10
179.4243586203
 20
104.8651532234
 30
0.0
 11
179.4243586203
 21
104.2937246519
 31
0.0
  0
LWPOLYLINE
  5
1E0
330
1F
100
AcDbEntity
  8
0
  6
Continuous
 62
     7
370
    15
100
AcDbPolyline
 90
        9
 70
   128
 43
0.0
 10
179.4243586203
 20
104.2937246519
 10
179.4186496062
 20
104.154374422
 10
179.401741958
 20
104.0203793432
 10
179.3742854272
 20
103.8968887714
 10
179.3373351529
 20
103.7886483798
 10
179.2923111134
 20
103.6998177862
 10
179.2409435573
 20
103.6338107003
 10
179.185206511
 20
103.5931637375
 10
179.1272419178
 20
103.5794389377
  0
LINE
  5
1E1
330
1F
100
AcDbEntity
  8
0
  6
Continuous
 62
     7
370
    15
100
AcDbLine
 10
174.4304086382
 20
114.6559437815
 30
0.0
 11
173.9356787507
 21
113.5743626654
 31
0.0
  0
ELLIPSE
  5
1E2
330
1F
100
AcDbEntity
  8
0
  6
Continuous
 62
     7
370
    15
100
AcDbEllipse
 10
174.1667074956
 20
113.0692863931
 30
0.0
 11
0.0
 21
0.7142857142857082
 31
0.0
210
0.0
220
0.0
230
1.0
 40
0.4574135787
 41
0.7853981627909384
 42
1.570796327000016
  0
LINE
  5
1E3
330
1F
100
AcDbEntity
  8
0
  6
Continuous
 62
     7
370
    15
100
AcDbLine
 10
173.8399835116
 20
113.069286393
 30
0.0
 11
173.8399835116
 21
106.6610200537
 31
0.0
  0
ELLIPSE
  5
1E4
330
1F
100
AcDbEntity
  8
0
  6
Continuous
 62
     7
370
    15
100
AcDbEllipse
 10
174.1667074956
 20
106.6610200537
 30
0.0
 11
0.0
 21
0.7142857142857224
 31
0.0
210
0.0
220
0.0
230
1.0
 40
0.4574135787
 41
1.570796326794897
 42
2.356194491169685
  0
LINE
  5
1E5
330
1F
100
AcDbEntity
  8
0
  6
Continuous
 62
     7
370
    15
100
AcDbLine
 10
173.9356787508
 20
106.1559437813
 30
0.0
 11
174.4304086381
 21
105.0743626654
 31
0.0
  0
ELLIPSE
  5
1E6
330
1F
100
AcDbEntity
  8
0
  6
Continuous
 62
     7
370
    15
100
AcDbEllipse
 10
174.6614373845
 20
105.5794389377
 30
0.0
 11
0.0
 21
0.7142857142857224
 31
0.0
210
0.0
220
0.0
230
1.0
 40
0.4574135787
 41
2.3561944875773
 42
3.141592653397459
  0
ELLIPSE
  5
1E7
330
1F
100
AcDbEntity
  8
0
  6
Continuous
 62
     7
370
    15
100
AcDbEllipse
 10
174.6614373845
 20
114.1508675091
 30
0.0
 11
0.0
 21
0.7142857142857082
 31
0.0
210
0.0
220
0.0
230
1.0
 40
0.4574135787
 41
0.0
 42
0.7853981658225495
  0
LWPOLYLINE
  5
1E8
330
1F
100
AcDbEntity
  8
0
  6
Continuous
 62
     7
370
    15
100
AcDbPolyline
 90
        9
 70
   128
 43
0.0
 10
172.7682892441
 20
115.4365817947
 10
172.7739982582
 20
115.5759320248
 10
172.7909059064
 20
115.7099271038
 10
172.8183624372
 20
115.8334176758
 10
172.8553127115
 20
115.9416580674
 10
172.9003367511
 20
116.030488661
 10
172.9517043073
 20
116.0964957469
 10
173.0074413537
 20
116.1371427096
 10
173.065405947
 20
116.1508675092
  0
LINE
  5
1E9
330
1F
100
AcDbEntity
  8
0
  6
Continuous
 62
     7
370
    15
100
AcDbLine
 10
173.7149640635
 20
116.1508675092
 30
0.0
 11
173.065405947
 21
116.1508675092
 31
0.0
  0
LINE
  5
1EA
330
1F
100
AcDbEntity
  8
0
  6
Continuous
 62
     7
370
    15
100
AcDbLine
 10
173.4178473606
 20
115.4365817947
 30
0.0
 11
172.7682892441
 21
115.4365817947
 31
0.0
  0
LINE
  5
1EB
330
1F
100
AcDbEntity
  8
0
  6
Continuous
 62
     7
370
    15
100
AcDbLine
 10
172.7682892441
 20
104.293724652
 30
0.0
 11
172.7682892441
 21
115.4365817947
 31
0.0
  0
LINE
  5
1EC
330
1F
100
AcDbEntity
  8
0
  6
Continuous
 62
     7
370
    15
100
AcDbLine
 10
173.4178473606
 20
104.293724652
 30
0.0
 11
172.7682892441
 21
104.293724652
 31
0.0
  0
LWPOLYLINE
  5
1ED
330
1F
100
AcDbEntity
  8
0
  6
Continuous
 62
     7
370
    15
100
AcDbPolyline
 90
        9
 70
   128
 43
0.0
 10
173.0654059475
 20
103.5794389377
 10
173.0074413543
 20
103.5931637375
 10
172.9517043079
 20
103.6338107003
 10
172.9003367517
 20
103.6998177862
 10
172.8553127121
 20
103.7886483798
 10
172.8183624377
 20
103.8968887714
 10
172.7909059067
 20
104.0203793432
 10
172.7739982584
 20
104.154374422
 10
172.7682892441
 20
104.293724652
  0
LINE
  5
1EE
330
1F
100
AcDbEntity
  8
0
  6
Continuous
 62
     7
370
    15
100
AcDbLine
 10
173.7149640639
 20
103.5794389377
 30
0.0
 11
173.0654059475
 21
103.5794389377
 31
0.0
  0
LINE
  5
1EF
330
1F
100
AcDbEntity
  8
0
  6
Continuous
 62
     7
370
    15
100
AcDbLine
 10
172.7068172761
 20
106.1559437814
 30
0.0
 11
172.7068172761
 21
106.6610200534
 31
0.0
  0
ARC
  5
1F0
330
1F
100
AcDbEntity
  8
0
  6
Continuous
 62
     7
370
    15
100
AcDbCircle
 10
172.6532458476
 20
106.5347509856
 30
0.0
 40
0.3825765229522739
100
AcDbArc
 50
191.421753659
 51
278.0494669755
  0
SPLINE
  5
1F1
330
1F
100
AcDbEntity
  8
0
  6
Continuous
 62
     7
370
    15
100
AcDbSpline
210
0.0
220
0.0
230
1.0
 70
    24
 71
     3
 72
     9
 73
     5
 74
     0
 42
0.00000001
 43
0.00000001
 40
0.0
 40
0.0
 40
0.0
 40
0.0
 40
0.4999999998374999
 40
0.9999999999999999
 40
0.9999999999999999
 40
0.9999999999999999
 40
0.9999999999999999
 10
172.2782458475708
 20
106.6610200537201
 30
0.0
 10
172.2782458475708
 20
106.6231868676911
 30
0.0
 10
172.2782458475708
 20
106.5475204956086
 30
0.0
 10
172.2782458475708
 20
106.4884998616889
 30
0.0
 10
172.2782458475708
 20
106.4589895447194
 30
0.0
  0
LINE
  5
1F2
330
1F
100
AcDbEntity
  8
0
  6
Continuous
 62
     7
370
    15
100
AcDbLine
 10
172.7068172761
 20
106.6610200537
 30
0.0
 11
172.2782458476
 21
106.6610200537
 31
0.0
  0
LINE
  5
1F3
330
1F
100
AcDbEntity
  8
0
  6
Continuous
 62
     7
370
    15
100
AcDbLine
 10
172.7068172761
 20
113.0692863929
 30
0.0
 11
172.7068172761
 21
113.5743626655
 31
0.0
  0
LINE
  5
1F4
330
1F
100
AcDbEntity
  8
0
  6
Continuous
 62
     7
370
    15
100
AcDbLine
 10
172.2782458476
 20
113.0692863931
 30
0.0
 11
172.7068172761
 21
113.0692863931
 31
0.0
  0
SPLINE
  5
1F5
330
1F
100
AcDbEntity
  8
0
  6
Continuous
 62
     7
370
    15
100
AcDbSpline
210
0.0
220
0.0
230
1.0
 70
    24
 71
     3
 72
     9
 73
     5
 74
     0
 42
0.00000001
 43
0.00000001
 40
0.0
 40
0.0
 40
0.0
 40
0.0
 40
0.5000000001624996
 40
1.0
 40
1.0
 40
1.0
 40
1.0
 10
172.2782458475708
 20
113.2713169021486
 30
0.0
 10
172.2782458475708
 20
113.2418065851793
 30
0.0
 10
172.2782458475708
 20
113.1827859512597
 30
0.0
 10
172.2782458475708
 20
113.1071195791775
 30
0.0
 10
172.2782458475708
 20
113.0692863931486
 30
0.0
  0
ARC
  5
1F6
330
1F
100
AcDbEntity
  8
0
  6
Continuous
 62
     7
370
    15
100
AcDbCircle
 10
172.6532458475
 20
113.1955554612
 30
0.0
 40
0.3825765229983675
100
AcDbArc
 50
81.9505330215
 51
168.5782463551
  0
LINE
  5
1F7
330
1F
100
AcDbEntity
  8
0
  6
Continuous
 62
     7
370
    15
100
AcDbLine
 10
172.2782458476
 20
106.6610200537
 30
0.0
 11
172.2782458476
 21
113.0692863931
 31
0.0
  0
LINE
  5
1F8
330
1F
100
AcDbEntity
  8
0
  6
Continuous
 62
     7
370
    15
100
AcDbLine
 10
172.7068172761
 20
106.6610200537
 30
0.0
 11
172.7068172761
 21
113.0692863931
 31
0.0
  0
LINE
  5
1F9
330
1F
100
AcDbEntity
  8
0
  6
Continuous
 62
     7
370
    15
100
AcDbLine
 10
179.5639601333
 20
106.6610200537
 30
0.0
 11
179.5639601333
 21
113.069286393
 31
0.0
  0
LINE
  5
1FA
330
1F
100
AcDbEntity
  8
0
  6
Continuous
 62
     7
370
    15
100
AcDbLine
 10
179.5639601333
 20
106.6610200537
 30
0.0
 11
173.8399835116
 21
106.6610200537
 31
0.0
  0
LINE
  5
1FB
330
1F
100
AcDbEntity
  8
0
  6
Continuous
 62
     7
370
    15
100
AcDbLine
 10
179.5639601333
 20
113.069286393
 30
0.0
 11
173.8399835116
 21
113.069286393
 31
0.0
  0
LINE
  5
1FC
330
1F
100
AcDbEntity
  8
0
  6
Continuous
 62
     7
370
    15
100
AcDbLine
 10
179.5639601333
 20
106.1559437814
 30
0.0
 11
173.9356787508
 21
106.1559437813
 31
0.0
  0
LINE
  5
1FD
330
1F
100
AcDbEntity
  8
0
  6
Continuous
 62
     7
370
    15
100
AcDbLine
 10
179.5639601333
 20
106.1559437814
 30
0.0
 11
179.5639601333
 21
106.6610200537
 31
0.0
  0
LINE
  5
1FE
330
1F
100
AcDbEntity
  8
0
  6
Continuous
 62
     7
370
    15
100
AcDbLine
 10
179.5639601333
 20
113.5743626654
 30
0.0
 11
173.9356787507
 21
113.5743626654
 31
0.0
  0
LINE
  5
1FF
330
1F
100
AcDbEntity
  8
0
  6
Continuous
 62
     7
370
    15
100
AcDbLine
 10
179.5639601333
 20
113.069286393
 30
0.0
 11
179.5639601333
 21
113.5743626654
 31
0.0
  0
LINE
  5
200
330
1F
100
AcDbEntity
  8
0
  6
Continuous
 62
     7
370
    15
100
AcDbLine
 10
172.7068172761
 20
113.5743626654
 30
0.0
 11
172.7068172761
 21
114.6559437814
 31
0.0
  0
LINE
  5
201
330
1F
100
AcDbEntity
  8
0
  6
Continuous
 62
     7
370
    15
100
AcDbLine
 10
172.2782458475
 20
113.2713169019
 30
0.0
 11
172.2782458475
 21
114.3528980179
 31
0.0
  0
ARC
  5
202
330
1F
100
AcDbEntity
  8
0
  6
Continuous
 62
     7
370
    15
100
AcDbCircle
 10
172.6532458476
 20
114.2771365772
 30
0.0
 40
0.3825765229522519
100
AcDbArc
 50
81.9505330245
 51
168.578246341
  0
LINE
  5
203
330
1F
100
AcDbEntity
  8
0
  6
Continuous
 62
     7
370
    15
100
AcDbLine
 10
172.7068172761
 20
105.0743626654
 30
0.0
 11
172.7068172761
 21
106.1559437814
 31
0.0
  0
ARC
  5
204
330
1F
100
AcDbEntity
  8
0
  6
Continuous
 62
     7
370
    15
100
AcDbCircle
 10
172.6532458475
 20
105.4531698697
 30
0.0
 40
0.382576522998759
100
AcDbArc
 50
191.421753645
 51
278.0494669785
  0
LINE
  5
205
330
1F
100
AcDbEntity
  8
0
  6
Continuous
 62
     7
370
    15
100
AcDbLine
 10
172.2782458475
 20
105.3774084289
 30
0.0
 11
172.2782458475
 21
106.4589895449
 31
0.0
  0
LINE
  5
206
330
1F
100
AcDbEntity
  8
0
  6
Continuous
 62
     7
370
    15
100
AcDbLine
 10
179.5639601333
 20
114.6559437815
 30
0.0
 11
174.4304086382
 21
114.6559437815
 31
0.0
  0
LINE
  5
207
330
1F
100
AcDbEntity
  8
0
  6
Continuous
 62
     7
370
    15
100
AcDbLine
 10
179.5639601333
 20
113.5743626654
 30
0.0
 11
179.5639601333
 21
114.6559437815
 31
0.0
  0
LINE
  5
208
330
1F
100
AcDbEntity
  8
0
  6
Continuous
 62
     7
370
    15
100
AcDbLine
 10
179.5639601333
 20
105.0743626654
 30
0.0
 11
174.4304086381
 21
105.0743626654
 31
0.0
  0
LINE
  5
209
330
1F
100
AcDbEntity
  8
0
  6
Continuous
 62
     7
370
    15
100
AcDbLine
 10
179.5639601333
 20
105.0743626654
 30
0.0
 11
179.5639601333
 21
106.1559437814
 31
0.0
  0
LINE
  5
20A
330
1F
100
AcDbEntity
  8
0
  6
Continuous
 62
     7
370
    15
100
AcDbLine
 10
172.7068172761
 20
104.8651532234
 30
0.0
 11
172.7068172761
 21
105.0743626654
 31
0.0
  0
ARC
  5
20B
330
1F
100
AcDbEntity
  8
0
  6
Continuous
 62
     7
370
    15
100
AcDbCircle
 10
172.7068172761
 20
105.293724652
 30
0.0
 40
0.4285714285714448
100
AcDbArc
 50
179.9999999995
 51
270.0
  0
SPLINE
  5
20C
330
1F
100
AcDbEntity
  8
0
  6
Continuous
 62
     7
370
    15
100
AcDbSpline
210
0.0
220
0.0
230
1.0
 70
    24
 71
     3
 72
     9
 73
     5
 74
     0
 42
0.00000001
 43
0.00000001
 40
0.0
 40
0.0
 40
0.0
 40
0.0
 40
0.5000000001624911
 40
1.0
 40
1.0
 40
1.0
 40
1.0
 10
172.2782458475708
 20
105.3774084288629
 30
0.0
 10
172.2782458475708
 20
105.3534145410064
 30
0.0
 10
172.2782458475708
 20
105.3054267653091
 30
0.0
 10
172.2782458475708
 20
105.2976253564394
 30
0.0
 10
172.2782458475708
 20
105.2937246520058
 30
0.0
  0
LINE
  5
20D
330
1F
100
AcDbEntity
  8
0
  6
Continuous
 62
     7
370
    15
100
AcDbLine
 10
172.7068172761
 20
114.6559437815
 30
0.0
 11
172.7068172761
 21
114.8651532234
 31
0.0
  0
ARC
  5
20E
330
1F
100
AcDbEntity
  8
0
  6
Continuous
 62
     7
370
    15
100
AcDbCircle
 10
172.7068172761
 20
114.4365817949
 30
0.0
 40
0.4285714285714448
100
AcDbArc
 50
90.0
 51
180.0000000235
  0
SPLINE
  5
20F
330
1F
100
AcDbEntity
  8
0
  6
Continuous
 62
     7
370
    15
100
AcDbSpline
210
0.0
220
0.0
230
1.0
 70
    24
 71
     3
 72
     9
 73
     5
 74
     0
 42
0.00000001
 43
0.00000001
 40
0.0
 40
0.0
 40
0.0
 40
0.0
 40
0.4999999998375017
 40
1.0
 40
1.0
 40
1.0
 40
1.0
 10
172.2782458475708
 20
114.4365817948639
 30
0.0
 10
172.2782458475708
 20
114.4326810904303
 30
0.0
 10
172.2782458475708
 20
114.4248796815606
 30
0.0
 10
172.2782458475708
 20
114.376891905863
 30
0.0
 10
172.2782458475708
 20
114.3528980180065
 30
0.0
  0
LINE
  5
210
330
1F
100
AcDbEntity
  8
0
  6
Continuous
 62
     7
370
    15
100
AcDbLine
 10
172.7682892441
 20
114.8651532234
 30
0.0
 11
172.7068172761
 21
114.8651532234
 31
0.0
  0
LINE
  5
211
330
1F
100
AcDbEntity
  8
0
  6
Continuous
 62
     7
370
    15
100
AcDbLine
 10
172.7682892441
 20
104.8651532234
 30
0.0
 11
172.7068172761
 21
104.8651532234
 31
0.0
  0
LINE
  5
212
330
1F
100
AcDbEntity
  8
0
  6
Continuous
 62
     7
370
    15
100
AcDbLine
 10
179.5639601333
 20
104.8651532234
 30
0.0
 11
174.6614373845
 21
104.8651532226
 31
0.0
  0
LINE
  5
213
330
1F
100
AcDbEntity
  8
0
  6
Continuous
 62
     7
370
    15
100
AcDbLine
 10
179.5639601333
 20
104.8651532234
 30
0.0
 11
179.5639601333
 21
105.0743626654
 31
0.0
  0
LINE
  5
214
330
1F
100
AcDbEntity
  8
0
  6
Continuous
 62
     7
370
    15
100
AcDbLine
 10
179.5639601333
 20
114.8651532234
 30
0.0
 11
174.6614373845
 21
114.8651532243
 31
0.0
  0
LINE
  5
215
330
1F
100
AcDbEntity
  8
0
  6
Continuous
 62
     7
370
    15
100
AcDbLine
 10
179.5639601333
 20
114.6559437815
 30
0.0
 11
179.5639601333
 21
114.8651532234
 31
0.0
  0
ARC
  5
216
330
1F
100
AcDbEntity
  8
0
  6
Continuous
 62
     7
370
    15
100
AcDbCircle
 10
190.849674419
 20
109.7222960806
 30
0.0
 40
15.28571428571431
100
AcDbArc
 50
0.0
 51
83.2912487993
  0
ARC
  5
217
330
1F
100
AcDbEntity
  8
0
  6
Continuous
 62
     7
370
    15
100
AcDbCircle
 10
190.849674419
 20
109.7222960806
 30
0.0
 40
15.2857142857143
100
AcDbArc
 50
96.7087512007
 51
155.1300051075
  0
ARC
  5
218
330
1F
100
AcDbEntity
  8
0
  6
Continuous
 62
     7
370
    15
100
AcDbCircle
 10
190.849674419
 20
109.7222960806
 30
0.0
 40
15.28571428571427
100
AcDbArc
 50
203.6950807404
 51
211.1945301169
  0
ARC
  5
219
330
1F
100
AcDbEntity
  8
0
  6
Continuous
 62
     7
370
    15
100
AcDbCircle
 10
190.849674419
 20
109.7222960806
 30
0.0
 40
15.28571428571431
100
AcDbArc
 50
328.8054698831
 51
0.0
  0
LINE
  5
21A
330
1F
100
AcDbEntity
  8
0
  6
Continuous
 62
     7
370
    15
100
AcDbLine
 10
185.2782458476
 20
128.8651532234
 30
0.0
 11
189.0639601333
 21
128.8651532234
 31
0.0
  0
LINE
  5
21B
330
1F
100
AcDbEntity
  8
0
  6
Continuous
 62
     7
370
    15
100
AcDbLine
 10
192.6353887047
 20
128.8651532234
 30
0.0
 11
196.4211029904
 21
128.8651532234
 31
0.0
  0
LINE
  5
21C
330
1F
100
AcDbEntity
  8
0
  6
Continuous
 62
     7
370
    15
100
AcDbLine
 10
185.2782458476
 20
126.2363593514
 30
0.0
 11
185.2782458476
 21
128.8651532234
 31
0.0
  0
LINE
  5
21D
330
1F
100
AcDbEntity
  8
0
  6
Continuous
 62
     7
370
    15
100
AcDbLine
 10
196.4211029904
 20
128.8651532234
 30
0.0
 11
196.4211029904
 21
126.2363593514
 31
0.0
  0
ARC
  5
21E
330
1F
100
AcDbEntity
  8
0
  6
Continuous
 62
     7
370
    15
100
AcDbCircle
 10
190.849674419
 20
109.7222960806
 30
0.0
 40
17.42857142857144
100
AcDbArc
 50
325.7634300627
 51
71.3569020691
  0
ARC
  5
21F
330
1F
100
AcDbEntity
  8
0
  6
Continuous
 62
     7
370
    15
100
AcDbCircle
 10
190.849674419
 20
109.7222960806
 30
0.0
 40
17.42857142857142
100
AcDbArc
 50
200.6377935024
 51
214.2365699373
  0
ARC
  5
220
330
1F
100
AcDbEntity
  8
0
  6
Continuous
 62
     7
370
    15
100
AcDbCircle
 10
190.849674419
 20
109.7222960806
 30
0.0
 40
17.42857142857143
100
AcDbArc
 50
108.6430979309
 51
158.3551371418
  0
LINE
  5
221
330
1F
100
AcDbEntity
  8
0
  6
Continuous
 62
     7
370
    15
100
AcDbLine
 10
187.849674419
 20
131.8651532234
 30
0.0
 11
193.849674419
 21
131.8651532234
 31
0.0
  0
LINE
  5
222
330
1F
100
AcDbEntity
  8
0
  6
Continuous
 62
     7
370
    15
100
AcDbLine
 10
187.849674419
 20
131.4365817949
 30
0.0
 11
193.849674419
 21
131.4365817949
 31
0.0
  0
LINE
  5
223
330
1F
100
AcDbEntity
  8
0
  6
Continuous
 62
     7
370
    15
100
AcDbLine
 10
188.7782458476
 20
131.1877718305
 30
0.0
 11
192.9211029904
 21
131.1877718305
 31
0.0
  0
CIRCLE
  5
224
330
1F
100
AcDbEntity
  8
0
  6
Continuous
 62
     7
370
    15
100
AcDbCircle
 10
190.849674419
 20
109.7222960806
 30
0.0
 40
9.149499999999989
  0
CIRCLE
  5
225
330
1F
100
AcDbEntity
  8
0
  6
Continuous
 62
     7
370
    15
100
AcDbCircle
 10
190.849674419
 20
109.7222960806
 30
0.0
 40
10.57807142857141
  0
ARC
  5
226
330
1F
100
AcDbEntity
  8
0
  6
Continuous
 62
     7
370
    15
100
AcDbCircle
 10
190.849674419
 20
109.7222960806
 30
0.0
 40
11.67642857142859
100
AcDbArc
 50
202.3774918031
 51
157.6225081917
  0
LINE
  5
227
330
1F
100
AcDbEntity
  8
0
  6
Continuous
 62
     7
370
    15
100
AcDbLine
 10
180.0525315627
 20
114.1675958821
 30
0.0
 11
180.0525315623
 21
105.2769962801
 31
0.0
  0
LINE
  5
228
330
1F
100
AcDbEntity
  8
0
  6
Continuous
 62
     7
370
    15
100
AcDbLine
 10
196.1137358972
 20
99.299789619
 30
0.0
 11
199.2133090699
 21
96.2002164457
 31
0.0
  0
LINE
  5
229
330
1F
100
AcDbEntity
  8
0
  6
Continuous
 62
     7
370
    15
100
AcDbLine
 10
204.3717540539
 20
101.3586614297
 30
0.0
 11
201.2721808808
 21
104.4582346038
 31
0.0
  0
ARC
  5
22A
330
1F
100
AcDbEntity
  8
0
  6
Continuous
 62
     7
370
    15
100
AcDbCircle
 10
201.7925315619
 20
98.7794389377
 30
0.0
 40
3.647571428564161
100
AcDbArc
 50
225.0
 51
45.0
  0
LINE
  5
22B
330
1F
100
AcDbEntity
  8
0
  6
Continuous
 62
     7
370
    15
100
AcDbLine
 10
177.3275947841
 20
101.3586614297
 30
0.0
 11
180.4271679573
 21
104.4582346031
 31
0.0
  0
LINE
  5
22C
330
1F
100
AcDbEntity
  8
0
  6
Continuous
 62
     7
370
    15
100
AcDbLine
 10
185.5856129416
 20
99.2997896189
 30
0.0
 11
182.4860397681
 21
96.2002164457
 31
0.0
  0
ARC
  5
22D
330
1F
100
AcDbEntity
  8
0
  6
Continuous
 62
     7
370
    15
100
AcDbCircle
 10
179.9068172761
 20
98.7794389377
 30
0.0
 40
3.647571428564141
100
AcDbArc
 50
135.0
 51
315.0
  0
LINE
  5
22E
330
1F
100
AcDbEntity
  8
0
  6
Continuous
 62
     7
370
    15
100
AcDbLine
 10
189.0639601333
 20
126.4840103657
 30
0.0
 11
189.0639601333
 21
127.1508879947
 31
0.0
  0
LINE
  5
22F
330
1F
100
AcDbEntity
  8
0
  6
Continuous
 62
     7
370
    15
100
AcDbLine
 10
192.6353887047
 20
127.1508879954
 30
0.0
 11
189.0639601333
 21
127.1508879947
 31
0.0
  0
LINE
  5
230
330
1F
100
AcDbEntity
  8
0
  6
Continuous
 62
     7
370
    15
100
AcDbLine
 10
192.6353887047
 20
126.4840103663
 30
0.0
 11
192.6353887047
 21
127.1508879954
 31
0.0
  0
LINE
  5
231
330
1F
100
AcDbEntity
  8
0
  6
Continuous
 62
     7
370
    15
100
AcDbLine
 10
192.6353887047
 20
126.4840103663
 30
0.0
 11
189.0639601333
 21
126.4840103657
 31
0.0
  0
LINE
  5
232
330
1F
100
AcDbEntity
  8
0
  6
Continuous
 62
     7
370
    15
100
AcDbLine
 10
189.0639601333
 20
127.1508879947
 30
0.0
 11
189.0639601333
 21
129.4365817949
 31
0.0
  0
LINE
  5
233
330
1F
100
AcDbEntity
  8
0
  6
Continuous
 62
     7
370
    15
100
AcDbLine
 10
192.6353887047
 20
129.4365817949
 30
0.0
 11
189.0639601333
 21
129.4365817949
 31
0.0
  0
LINE
  5
234
330
1F
100
AcDbEntity
  8
0
  6
Continuous
 62
     7
370
    15
100
AcDbLine
 10
192.6353887047
 20
127.1508879954
 30
0.0
 11
192.6353887047
 21
129.4365817949
 31
0.0
  0
LINE
  5
235
330
1F
100
AcDbEntity
  8
0
  6
Continuous
 62
     7
370
    15
100
AcDbLine
 10
178.7068172761
 20
95.3349103304
 30
0.0
 11
178.7068172783
 21
85.7222960806
 31
0.0
  0
LINE
  5
236
330
1F
100
AcDbEntity
  8
0
  6
Continuous
 62
     7
370
    15
100
AcDbLine
 10
177.9925315619
 20
85.7222960806
 30
0.0
 11
178.7068172783
 21
85.7222960806
 31
0.0
  0
LINE
  5
237
330
1F
100
AcDbEntity
  8
0
  6
Continuous
 62
     7
370
    15
100
AcDbLine
 10
177.9925315619
 20
103.5794389377
 30
0.0
 11
177.9925315619
 21
102.0235982074
 31
0.0
  0
LINE
  5
238
330
1F
100
AcDbEntity
  8
0
  6
Continuous
 62
     7
370
    15
100
AcDbLine
 10
177.9925315619
 20
95.6745576951
 30
0.0
 11
177.9925315619
 21
85.7222960806
 31
0.0
  0
ELLIPSE
  5
239
330
1F
100
AcDbEntity
  8
0
  6
Continuous
 62
     7
370
    15
100
AcDbEllipse
 10
190.849674419
 20
231.2630940504
 30
0.0
 11
4.547473508864641E-13
 21
133.0442433548777
 31
0.0
210
0.0
220
0.0
230
1.0
 40
0.4067563304
 41
3.037472015447438
 42
3.088233685133913
  0
ELLIPSE
  5
23A
330
1F
100
AcDbEntity
  8
0
  6
Continuous
 62
     7
370
    15
100
AcDbEllipse
 10
190.849674419
 20
231.2630940504
 30
0.0
 11
4.547473508864641E-13
 21
133.0442433548777
 31
0.0
210
0.0
220
0.0
230
1.0
 40
0.4067563304
 41
3.194951622045704
 42
3.245713291732184
  0
LINE
  5
23B
330
1F
100
AcDbEntity
  8
0
  6
Continuous
 62
     7
370
    15
100
AcDbLine
 10
202.9925315597
 20
85.7222960806
 30
0.0
 11
203.7068172761
 21
85.7222960814
 31
0.0
  0
LINE
  5
23C
330
1F
100
AcDbEntity
  8
0
  6
Continuous
 62
     7
370
    15
100
AcDbLine
 10
202.9925315611
 20
95.3349103302
 30
0.0
 11
202.9925315597
 21
85.7222960806
 31
0.0
  0
LINE
  5
23D
330
1F
100
AcDbEntity
  8
0
  6
Continuous
 62
     7
370
    15
100
AcDbLine
 10
183.7938336887
 20
97.5080103663
 30
0.0
 11
197.9055151493
 21
97.5080103663
 31
0.0
  0
LINE
  5
23E
330
1F
100
AcDbEntity
  8
0
  6
Continuous
 62
     7
370
    15
100
AcDbLine
 10
203.7068172761
 20
104.5537096477
 30
0.0
 11
203.7068172761
 21
102.0235982074
 31
0.0
  0
LINE
  5
23F
330
1F
100
AcDbEntity
  8
0
  6
Continuous
 62
     7
370
    15
100
AcDbLine
 10
203.7068172761
 20
95.6745576951
 30
0.0
 11
203.7068172761
 21
85.7222960814
 31
0.0
  0
LINE
  5
240
330
1F
100
AcDbEntity
  8
0
  6
Continuous
 62
     7
370
    15
100
AcDbLine
 10
177.9925315619
 20
83.8651532234
 30
0.0
 11
177.9925315619
 21
85.7222960806
 31
0.0
  0
LINE
  5
241
330
1F
100
AcDbEntity
  8
0
  6
Continuous
 62
     7
370
    15
100
AcDbLine
 10
202.9925315597
 20
85.7222960806
 30
0.0
 11
178.7068172783
 21
85.7222960806
 31
0.0
  0
LINE
  5
242
330
1F
100
AcDbEntity
  8
0
  6
Continuous
 62
     7
370
    15
100
AcDbLine
 10
203.7068172761
 20
83.8651532234
 30
0.0
 11
197.9925315633
 21
83.8651532234
 31
0.0
  0
LINE
  5
243
330
1F
100
AcDbEntity
  8
0
  6
Continuous
 62
     7
370
    15
100
AcDbLine
 10
197.9925315647
 20
84.0080103663
 30
0.0
 11
197.9925315633
 21
83.8651532234
 31
0.0
  0
LINE
  5
244
330
1F
100
AcDbEntity
  8
0
  6
Continuous
 62
     7
370
    15
100
AcDbLine
 10
197.9925315647
 20
84.0080103663
 30
0.0
 11
183.7068172719
 21
84.0080103663
 31
0.0
  0
LINE
  5
245
330
1F
100
AcDbEntity
  8
0
  6
Continuous
 62
     7
370
    15
100
AcDbLine
 10
183.7068172719
 20
84.0080103663
 30
0.0
 11
183.7068172747
 21
83.8651532234
 31
0.0
  0
LINE
  5
246
330
1F
100
AcDbEntity
  8
0
  6
Continuous
 62
     7
370
    15
100
AcDbLine
 10
183.7068172747
 20
83.8651532234
 30
0.0
 11
177.9925315619
 21
83.8651532234
 31
0.0
  0
LINE
  5
247
330
1F
100
AcDbEntity
  8
0
  6
Continuous
 62
     7
370
    15
100
AcDbLine
 10
203.7068172761
 20
85.7222960814
 30
0.0
 11
203.7068172761
 21
83.8651532234
 31
0.0
  0
LINE
  5
248
330
1F
100
AcDbEntity
  8
0
  6
Continuous
 62
     7
370
    15
100
AcDbLine
 10
177.9925315619
 20
87.2937246539
 30
0.0
 11
177.5925315619
 21
87.293724652
 31
0.0
  0
LINE
  5
249
330
1F
100
AcDbEntity
  8
0
  6
Continuous
 62
     7
370
    15
100
AcDbLine
 10
177.5925315619
 20
87.293724652
 30
0.0
 11
177.5925315619
 21
90.7222960806
 31
0.0
  0
LINE
  5
24A
330
1F
100
AcDbEntity
  8
0
  6
Continuous
 62
     7
370
    15
100
AcDbLine
 10
177.9925315619
 20
90.7222960792
 30
0.0
 11
177.5925315619
 21
90.7222960806
 31
0.0
  0
ARC
  5
24B
330
1F
100
AcDbEntity
  8
0
  6
Continuous
 62
     7
370
    15
100
AcDbCircle
 10
190.849674419
 20
109.7222960806
 30
0.0
 40
13.85714285714285
100
AcDbArc
 50
330.2616157954
 51
152.3598113513
  0
LWPOLYLINE
  5
24C
330
1F
100
AcDbEntity
  8
0
  6
Continuous
 62
     7
370
    15
100
AcDbPolyline
 90
        3
 70
   128
 43
0.0
 10
178.4284943508
 20
103.5794389377
 10
178.8127185948
 20
102.8570136647
 10
178.8175256384
 20
102.8485922839
  0
LINE
  5
24D
330
1F
100
AcDbEntity
  8
0
  6
Continuous
 62
     7
370
    15
100
AcDbLine
 10
188.3496744158
 20
123.3520579328
 30
0.0
 11
188.349674419
 21
124.5651532234
 31
0.0
  0
LINE
  5
24E
330
1F
100
AcDbEntity
  8
0
  6
Continuous
 62
     7
370
    15
100
AcDbLine
 10
188.349674419
 20
124.5651532234
 30
0.0
 11
193.349674419
 21
124.5651532234
 31
0.0
  0
LINE
  5
24F
330
1F
100
AcDbEntity
  8
0
  6
Continuous
 62
     7
370
    15
100
AcDbLine
 10
193.3496744194
 20
123.3520579333
 30
0.0
 11
193.349674419
 21
124.5651532234
 31
0.0
  0
LINE
  5
250
330
1F
100
AcDbEntity
  8
0
  6
Continuous
 62
     7
370
    15
100
AcDbLine
 10
192.6353887045
 20
124.5651532234
 30
0.0
 11
192.6353887047
 21
126.4840103663
 31
0.0
  0
LINE
  5
251
330
1F
100
AcDbEntity
  8
0
  6
Continuous
 62
     7
370
    15
100
AcDbLine
 10
189.0639601335
 20
124.5651532234
 30
0.0
 11
189.0639601333
 21
126.4840103663
 31
0.0
  0
ARC
  5
252
330
1F
100
AcDbEntity
  8
0
  6
Continuous
 62
     7
370
    15
100
AcDbCircle
 10
190.849674419
 20
109.7222960806
 30
0.0
 40
14.84285714286237
100
AcDbArc
 50
330.0220218702
 51
80.3033827142
  0
LWPOLYLINE
  5
253
330
1F
100
AcDbEntity
  8
0
  6
Continuous
 62
     7
370
    15
100
AcDbPolyline
 90
        3
 70
   128
 43
0.0
 10
177.9925315619
 20
102.3058086577
 10
177.5820630453
 20
103.0679068089
 10
177.337616312
 20
103.5794389377
  0
ARC
  5
254
330
1F
100
AcDbEntity
  8
0
  6
Continuous
 62
     7
370
    15
100
AcDbCircle
 10
190.849674419
 20
109.7222960806
 30
0.0
 40
14.84285714285714
100
AcDbArc
 50
99.6966172933
 51
154.334987837
  0
LINE
  5
255
330
1F
100
AcDbEntity
  8
0
  6
Continuous
 62
     7
370
    15
100
AcDbLine
 10
172.7682892441
 20
113.0692863929
 30
0.0
 11
172.7068172761
 21
113.0692863929
 31
0.0
  0
LINE
  5
256
330
1F
100
AcDbEntity
  8
0
  6
Continuous
 62
     7
370
    15
100
AcDbLine
 10
172.7682892441
 20
106.6610200537
 30
0.0
 11
172.7068172761
 21
106.6610200537
 31
0.0
  0
LINE
  5
257
330
1F
100
AcDbEntity
  8
0
  6
Continuous
 62
     7
370
    15
100
AcDbLine
 10
172.7682892441
 20
106.1559437814
 30
0.0
 11
172.7068172761
 21
106.1559437814
 31
0.0
  0
LINE
  5
258
330
1F
100
AcDbEntity
  8
0
  6
Continuous
 62
     7
370
    15
100
AcDbLine
 10
172.7682892441
 20
113.5743626654
 30
0.0
 11
172.7068172761
 21
113.5743626654
 31
0.0
  0
LINE
  5
259
330
1F
100
AcDbEntity
  8
0
  6
Continuous
 62
     7
370
    15
100
AcDbLine
 10
172.7682892441
 20
114.6559437815
 30
0.0
 11
172.7068172761
 21
114.6559437815
 31
0.0
  0
LINE
  5
25A
330
1F
100
AcDbEntity
  8
0
  6
Continuous
 62
     7
370
    15
100
AcDbLine
 10
172.7682892441
 20
105.0743626654
 30
0.0
 11
172.7068172761
 21
105.0743626654
 31
0.0
  0
INSERT
  5
266
330
1F
100
AcDbEntity
  8
寸法線
100
AcDbBlockReference
  2
SW_NOTE_4
 10
172.5837225659
 20
80.56107006
 30
0.0
  0
LEADER
  5
268
330
1F
100
AcDbEntity
  8
寸法線
100
AcDbLeader
  3
SLDDIMSTYLE1
 76
     2
 10
176.3893159132
 20
109.7222960806
 30
0.0
 10
172.5837225659
 20
80.56107006
 30
0.0
  0
MTEXT
  5
269
330
1F
100
AcDbEntity
  8
寸法線
100
AcDbMText
 10
243.8757091344
 20
93.4749815427
 30
0.0
 40
2.38125
 41
0.0
 71
     1
 72
     1
  1
質量　25 kg
  7
SLDTEXTSTYLE1
 73
     1
 44
1.0
  0
LINE
  5
26A
330
1F
100
AcDbEntity
  8
中心線
100
AcDbLine
 10
97.7897288825
 20
42.3259973236
 30
0.0
 11
156.2910874867
 21
42.3259973236
 31
0.0
  0
LINE
  5
26B
330
1F
100
AcDbEntity
  8
0
  6
Continuous
 62
     7
370
    15
100
AcDbLine
 10
101.1468717396
 20
40.1831401807
 30
0.0
 11
101.5754431682
 21
40.1831401807
 31
0.0
  0
LINE
  5
26C
330
1F
100
AcDbEntity
  8
0
  6
Continuous
 62
     7
370
    15
100
AcDbLine
 10
101.5754431682
 20
44.4688544664
 30
0.0
 11
101.1468717396
 21
44.4688544664
 31
0.0
  0
LINE
  5
26D
330
1F
100
AcDbEntity
  8
0
  6
Continuous
 62
     7
370
    15
100
AcDbLine
 10
101.5754431682
 20
40.1831401807
 30
0.0
 11
101.7859746765
 21
40.9688544664
 31
0.0
  0
LINE
  5
26E
330
1F
100
AcDbEntity
  8
0
  6
Continuous
 62
     7
370
    15
100
AcDbLine
 10
101.7859746765
 20
43.6831401807
 30
0.0
 11
101.5754431682
 21
44.4688544664
 31
0.0
  0
LINE
  5
26F
330
1F
100
AcDbEntity
  8
0
  6
Continuous
 62
     7
370
    15
100
AcDbLine
 10
103.9040145968
 20
43.6831401807
 30
0.0
 11
101.7859746765
 21
43.6831401807
 31
0.0
  0
LINE
  5
270
330
1F
100
AcDbEntity
  8
0
  6
Continuous
 62
     7
370
    15
100
AcDbLine
 10
101.7859746765
 20
40.9688544664
 30
0.0
 11
103.9040145968
 21
40.9688544664
 31
0.0
  0
LINE
  5
271
330
1F
100
AcDbEntity
  8
0
  6
Continuous
 62
     7
370
    15
100
AcDbLine
 10
115.6468717396
 20
59.7545687522
 30
0.0
 11
105.6468717396
 21
59.7545687522
 31
0.0
  0
LINE
  5
272
330
1F
100
AcDbEntity
  8
0
  6
Continuous
 62
     7
370
    15
100
AcDbLine
 10
105.6468717396
 20
24.897425895
 30
0.0
 11
115.6468717396
 21
24.897425895
 31
0.0
  0
LINE
  5
273
330
1F
100
AcDbEntity
  8
0
  6
Continuous
 62
     7
370
    15
100
AcDbLine
 10
105.6468717396
 20
57.6117116093
 30
0.0
 11
103.0754431682
 21
57.6117116093
 31
0.0
  0
LINE
  5
274
330
1F
100
AcDbEntity
  8
0
  6
Continuous
 62
     7
370
    15
100
AcDbLine
 10
103.0754431682
 20
27.0402830379
 30
0.0
 11
105.6468717396
 21
27.0402830379
 31
0.0
  0
LINE
  5
275
330
1F
100
AcDbEntity
  8
0
  6
Continuous
 62
     7
370
    15
100
AcDbLine
 10
115.6468717396
 20
27.0402830379
 30
0.0
 11
118.6468717396
 21
27.0402830379
 31
0.0
  0
LINE
  5
276
330
1F
100
AcDbEntity
  8
0
  6
Continuous
 62
     7
370
    15
100
AcDbLine
 10
118.6468717396
 20
57.6117116093
 30
0.0
 11
115.6468717396
 21
57.6117116093
 31
0.0
  0
LINE
  5
277
330
1F
100
AcDbEntity
  8
0
  6
Continuous
 62
     7
370
    15
100
AcDbLine
 10
103.0754431682
 20
57.0402830379
 30
0.0
 11
97.7897288825
 21
57.0402830379
 31
0.0
  0
LINE
  5
278
330
1F
100
AcDbEntity
  8
0
  6
Continuous
 62
     7
370
    15
100
AcDbLine
 10
97.7897288825
 20
27.6117116093
 30
0.0
 11
103.0754431682
 21
27.6117116093
 31
0.0
  0
LINE
  5
279
330
1F
100
AcDbEntity
  8
0
  6
Continuous
 62
     7
370
    15
100
AcDbLine
 10
130.9325860253
 20
27.7355687522
 30
0.0
 11
150.0754431682
 21
27.7355687522
 31
0.0
  0
LINE
  5
27A
330
1F
100
AcDbEntity
  8
0
  6
Continuous
 62
     7
370
    15
100
AcDbLine
 10
150.0754431682
 20
56.916425895
 30
0.0
 11
130.9325860253
 21
56.916425895
 31
0.0
  0
LINE
  5
27B
330
1F
100
AcDbEntity
  8
0
  6
Continuous
 62
     7
370
    15
100
AcDbLine
 10
150.0754431682
 20
30.6495687522
 30
0.0
 11
151.7897288825
 21
30.6495687522
 31
0.0
  0
LINE
  5
27C
330
1F
100
AcDbEntity
  8
0
  6
Continuous
 62
     7
370
    15
100
AcDbLine
 10
124.628300311
 20
28.4688544664
 30
0.0
 11
125.4907492906
 21
29.4688544664
 31
0.0
  0
LINE
  5
27D
330
1F
100
AcDbEntity
  8
0
  6
Continuous
 62
     7
370
    15
100
AcDbLine
 10
125.1457696988
 20
55.5831401807
 30
0.0
 11
124.628300311
 21
56.1831401807
 31
0.0
  0
LINE
  5
27E
330
1F
100
AcDbEntity
  8
0
  6
Continuous
 62
     7
370
    15
100
AcDbLine
 10
151.7897288825
 20
31.747925895
 30
0.0
 11
153.5040145968
 21
31.747925895
 31
0.0
  0
LINE
  5
27F
330
1F
100
AcDbEntity
  8
0
  6
Continuous
 62
     7
370
    15
100
AcDbLine
 10
153.5040145968
 20
52.9040687522
 30
0.0
 11
151.7897288825
 21
52.9040687522
 31
0.0
  0
ARC
  5
280
330
1F
100
AcDbEntity
  8
0
  6
Continuous
 62
     7
370
    15
100
AcDbCircle
 10
153.5040145968
 20
51.4754973236
 30
0.0
 40
1.428571428571445
100
AcDbArc
 50
360.0
 51
90.0
  0
ARC
  5
281
330
1F
100
AcDbEntity
  8
0
  6
Continuous
 62
     7
370
    15
100
AcDbCircle
 10
153.5040145968
 20
33.1764973236
 30
0.0
 40
1.428571428571445
100
AcDbArc
 50
270.0
 51
0.0
  0
LINE
  5
282
330
1F
100
AcDbEntity
  8
0
  6
Continuous
 62
     7
370
    15
100
AcDbLine
 10
124.628300311
 20
56.1831401807
 30
0.0
 11
119.7897288825
 21
56.1831401807
 31
0.0
  0
LINE
  5
283
330
1F
100
AcDbEntity
  8
0
  6
Continuous
 62
     7
370
    15
100
AcDbLine
 10
119.7897288825
 20
28.4688544664
 30
0.0
 11
124.628300311
 21
28.4688544664
 31
0.0
  0
LINE
  5
284
330
1F
100
AcDbEntity
  8
0
  6
Continuous
 62
     7
370
    15
100
AcDbLine
 10
118.6468717396
 20
27.4831401807
 30
0.0
 11
119.7897288825
 21
27.4831401807
 31
0.0
  0
LINE
  5
285
330
1F
100
AcDbEntity
  8
0
  6
Continuous
 62
     7
370
    15
100
AcDbLine
 10
119.7897288825
 20
57.1688544664
 30
0.0
 11
118.6468717396
 21
57.1688544664
 31
0.0
  0
LINE
  5
286
330
1F
100
AcDbEntity
  8
0
  6
Continuous
 62
     7
370
    15
100
AcDbLine
 10
151.4087875054
 20
60.1102657951
 30
0.0
 11
144.4263977167
 21
56.916425895
 31
0.0
  0
LINE
  5
287
330
1F
100
AcDbEntity
  8
0
  6
Continuous
 62
     7
370
    15
100
AcDbLine
 10
151.7059042057
 20
59.4607076787
 30
0.0
 11
151.4087875054
 21
60.1102657951
 31
0.0
  0
LINE
  5
288
330
1F
100
AcDbEntity
  8
0
  6
Continuous
 62
     7
370
    15
100
AcDbLine
 10
146.1435818296
 20
56.916425895
 30
0.0
 11
151.7059042057
 21
59.4607076787
 31
0.0
  0
LINE
  5
289
330
1F
100
AcDbEntity
  8
0
  6
Continuous
 62
     7
370
    15
100
AcDbLine
 10
152.3554623238
 20
59.757824382
 30
0.0
 11
152.0583456212
 21
60.4073824984
 31
0.0
  0
LINE
  5
28A
330
1F
100
AcDbEntity
  8
0
  6
Continuous
 62
     7
370
    15
100
AcDbLine
 10
151.4087875054
 20
60.1102657951
 30
0.0
 11
152.0583456212
 21
60.4073824984
 31
0.0
  0
LINE
  5
28B
330
1F
100
AcDbEntity
  8
0
  6
Continuous
 62
     7
370
    15
100
AcDbLine
 10
151.7059042057
 20
59.4607076787
 30
0.0
 11
152.3554623238
 21
59.757824382
 31
0.0
  0
LINE
  5
28C
330
1F
100
AcDbEntity
  8
0
  6
Continuous
 62
     7
370
    15
100
AcDbLine
 10
141.4376622976
 20
60.4688544664
 30
0.0
 11
141.9427385702
 21
60.4688544664
 31
0.0
  0
ARC
  5
28D
330
1F
100
AcDbEntity
  8
0
  6
Continuous
 62
     7
370
    15
100
AcDbCircle
 10
141.8164695019
 20
60.522425895
 30
0.0
 40
0.3825765230073043
100
AcDbArc
 50
101.4217536449
 51
188.0494669785
  0
SPLINE
  5
28E
330
1F
100
AcDbEntity
  8
0
  6
Continuous
 62
     7
370
    15
100
AcDbSpline
210
0.0
220
0.0
230
1.0
 70
    24
 71
     3
 72
     9
 73
     5
 74
     0
 42
0.00000001
 43
0.00000001
 40
0.0
 40
0.0
 40
0.0
 40
0.0
 40
0.4999999998375009
 40
1.0
 40
1.0
 40
1.0
 40
1.0
 10
141.9427385698994
 20
60.89742589501912
 30
0.0
 10
141.9049053838705
 20
60.89742589501912
 30
0.0
 10
141.8292390117883
 20
60.89742589501912
 30
0.0
 10
141.7702183778687
 20
60.89742589501912
 30
0.0
 10
141.7407080608994
 20
60.89742589501912
 30
0.0
  0
LINE
  5
28F
330
1F
100
AcDbEntity
  8
0
  6
Continuous
 62
     7
370
    15
100
AcDbLine
 10
141.9427385699
 20
60.4688544664
 30
0.0
 11
141.9427385699
 21
60.897425895
 31
0.0
  0
LINE
  5
290
330
1F
100
AcDbEntity
  8
0
  6
Continuous
 62
     7
370
    15
100
AcDbLine
 10
149.6367191953
 20
60.4688544664
 30
0.0
 11
150.1417954673
 21
60.4688544664
 31
0.0
  0
LINE
  5
291
330
1F
100
AcDbEntity
  8
0
  6
Continuous
 62
     7
370
    15
100
AcDbLine
 10
149.636719195
 20
60.897425895
 30
0.0
 11
149.636719195
 21
60.4688544664
 31
0.0
  0
SPLINE
  5
292
330
1F
100
AcDbEntity
  8
0
  6
Continuous
 62
     7
370
    15
100
AcDbSpline
210
0.0
220
0.0
230
1.0
 70
    24
 71
     3
 72
     9
 73
     5
 74
     0
 42
0.00000001
 43
0.00000001
 40
0.0
 40
0.0
 40
0.0
 40
0.0
 40
0.5000000001624911
 40
1.0
 40
1.0
 40
1.0
 40
1.0
 10
149.8387497040422
 20
60.89742589501912
 30
0.0
 10
149.8092393870729
 20
60.89742589501912
 30
0.0
 10
149.7502187531533
 20
60.89742589501912
 30
0.0
 10
149.674552381071
 20
60.89742589501912
 30
0.0
 10
149.6367191950422
 20
60.89742589501912
 30
0.0
  0
ARC
  5
293
330
1F
100
AcDbEntity
  8
0
  6
Continuous
 62
     7
370
    15
100
AcDbCircle
 10
149.7629882631
 20
60.522425895
 30
0.0
 40
0.3825765229988805
100
AcDbArc
 50
351.9505330215
 51
78.5782463551
  0
LINE
  5
294
330
1F
100
AcDbEntity
  8
0
  6
Continuous
 62
     7
370
    15
100
AcDbLine
 10
149.6367191952
 20
59.2996976888
 30
0.0
 11
149.6367191953
 21
60.4688544664
 31
0.0
  0
LINE
  5
295
330
1F
100
AcDbEntity
  8
0
  6
Continuous
 62
     7
370
    15
100
AcDbLine
 10
141.9427385699
 20
60.4688544664
 30
0.0
 11
149.636719195
 21
60.4688544664
 31
0.0
  0
LINE
  5
296
330
1F
100
AcDbEntity
  8
0
  6
Continuous
 62
     7
370
    15
100
AcDbLine
 10
141.9427385699
 20
60.897425895
 30
0.0
 11
149.636719195
 21
60.897425895
 31
0.0
  0
LINE
  5
297
330
1F
100
AcDbEntity
  8
0
  6
Continuous
 62
     7
370
    15
100
AcDbLine
 10
150.1417954649
 20
59.530726433
 30
0.0
 11
150.1417954673
 21
60.4688544664
 31
0.0
  0
LINE
  5
298
330
1F
100
AcDbEntity
  8
0
  6
Continuous
 62
     7
370
    15
100
AcDbLine
 10
150.1417954673
 20
53.6117116093
 30
0.0
 11
150.1417954673
 21
58.7452631045
 31
0.0
  0
LINE
  5
299
330
1F
100
AcDbEntity
  8
0
  6
Continuous
 62
     7
370
    15
100
AcDbLine
 10
150.0754431682
 20
53.6117116093
 30
0.0
 11
150.1417954673
 21
53.6117116093
 31
0.0
  0
LINE
  5
29A
330
1F
100
AcDbEntity
  8
0
  6
Continuous
 62
     7
370
    15
100
AcDbLine
 10
151.2233765833
 20
60.0254563229
 30
0.0
 11
151.2233765833
 21
60.4688544664
 31
0.0
  0
LINE
  5
29B
330
1F
100
AcDbEntity
  8
0
  6
Continuous
 62
     7
370
    15
100
AcDbLine
 10
150.1417954673
 20
60.4688544664
 30
0.0
 11
151.2233765833
 21
60.4688544664
 31
0.0
  0
LINE
  5
29C
330
1F
100
AcDbEntity
  8
0
  6
Continuous
 62
     7
370
    15
100
AcDbLine
 10
149.8387497038
 20
60.8974258951
 30
0.0
 11
150.9203308198
 21
60.8974258951
 31
0.0
  0
ARC
  5
29D
330
1F
100
AcDbEntity
  8
0
  6
Continuous
 62
     7
370
    15
100
AcDbCircle
 10
150.8445693791
 20
60.522425895
 30
0.0
 40
0.3825765229523866
100
AcDbArc
 50
351.9505330245
 51
78.578246341
  0
LINE
  5
29E
330
1F
100
AcDbEntity
  8
0
  6
Continuous
 62
     7
370
    15
100
AcDbLine
 10
140.3560811816
 20
60.4688544664
 30
0.0
 11
141.4376622976
 21
60.4688544664
 31
0.0
  0
ARC
  5
29F
330
1F
100
AcDbEntity
  8
0
  6
Continuous
 62
     7
370
    15
100
AcDbCircle
 10
140.7348883859
 20
60.522425895
 30
0.0
 40
0.3825765230064805
100
AcDbArc
 50
101.421753645
 51
188.0494669785
  0
LINE
  5
2A0
330
1F
100
AcDbEntity
  8
0
  6
Continuous
 62
     7
370
    15
100
AcDbLine
 10
140.6591269451
 20
60.8974258951
 30
0.0
 11
141.7407080611
 21
60.8974258951
 31
0.0
  0
LINE
  5
2A1
330
1F
100
AcDbEntity
  8
0
  6
Continuous
 62
     7
370
    15
100
AcDbLine
 10
151.2233765833
 20
53.6117116093
 30
0.0
 11
151.2233765831
 21
59.2399929918
 31
0.0
  0
LINE
  5
2A2
330
1F
100
AcDbEntity
  8
0
  6
Continuous
 62
     7
370
    15
100
AcDbLine
 10
150.1417954673
 20
53.6117116093
 30
0.0
 11
151.2233765833
 21
53.6117116093
 31
0.0
  0
LINE
  5
2A3
330
1F
100
AcDbEntity
  8
0
  6
Continuous
 62
     7
370
    15
100
AcDbLine
 10
151.2233765833
 20
60.4688544664
 30
0.0
 11
151.4325860253
 21
60.4688544664
 31
0.0
  0
ARC
  5
2A4
330
1F
100
AcDbEntity
  8
0
  6
Continuous
 62
     7
370
    15
100
AcDbCircle
 10
151.0040145968
 20
60.4688544664
 30
0.0
 40
0.4285714285714448
100
AcDbArc
 50
0.0
 51
90.0000000118
  0
SPLINE
  5
2A5
330
1F
100
AcDbEntity
  8
0
  6
Continuous
 62
     7
370
    15
100
AcDbSpline
210
0.0
220
0.0
230
1.0
 70
    24
 71
     3
 72
     9
 73
     5
 74
     0
 42
0.00000001
 43
0.00000001
 40
0.0
 40
0.0
 40
0.0
 40
0.0
 40
0.4999999998374999
 40
0.9999999999999999
 40
0.9999999999999999
 40
0.9999999999999999
 40
0.9999999999999999
 10
151.0040145967574
 20
60.89742589501912
 30
0.0
 10
151.0001138923239
 20
60.8974258950191
 30
0.0
 10
150.9923124834541
 20
60.8974258950191
 30
0.0
 10
150.9443247077566
 20
60.89742589501912
 30
0.0
 10
150.9203308199
 20
60.89742589501912
 30
0.0
  0
LINE
  5
2A6
330
1F
100
AcDbEntity
  8
0
  6
Continuous
 62
     7
370
    15
100
AcDbLine
 10
140.1468717396
 20
60.4688544664
 30
0.0
 11
140.3560811815
 21
60.4688544664
 31
0.0
  0
ARC
  5
2A7
330
1F
100
AcDbEntity
  8
0
  6
Continuous
 62
     7
370
    15
100
AcDbCircle
 10
140.5754431682
 20
60.4688544664
 30
0.0
 40
0.4285714285714306
100
AcDbArc
 50
89.9999999995
 51
180.0
  0
SPLINE
  5
2A8
330
1F
100
AcDbEntity
  8
0
  6
Continuous
 62
     7
370
    15
100
AcDbSpline
210
0.0
220
0.0
230
1.0
 70
    24
 71
     3
 72
     9
 73
     5
 74
     0
 42
0.00000001
 43
0.00000001
 40
0.0
 40
0.0
 40
0.0
 40
0.0
 40
0.500000000162499
 40
1.0
 40
1.0
 40
1.0
 40
1.0
 10
140.6591269450417
 20
60.89742589501912
 30
0.0
 10
140.6351330571852
 20
60.89742589501912
 30
0.0
 10
140.5871452814877
 20
60.89742589501912
 30
0.0
 10
140.579343872618
 20
60.89742589501912
 30
0.0
 10
140.5754431681844
 20
60.89742589501912
 30
0.0
  0
LINE
  5
2A9
330
1F
100
AcDbEntity
  8
0
  6
Continuous
 62
     7
370
    15
100
AcDbLine
 10
140.1468717396
 20
56.916425895
 30
0.0
 11
140.1468717396
 21
60.4688544664
 31
0.0
  0
LINE
  5
2AA
330
1F
100
AcDbEntity
  8
0
  6
Continuous
 62
     7
370
    15
100
AcDbLine
 10
151.4325860254
 20
60.1211515624
 30
0.0
 11
151.4325860253
 21
60.4688544664
 31
0.0
  0
LINE
  5
2AB
330
1F
100
AcDbEntity
  8
0
  6
Continuous
 62
     7
370
    15
100
AcDbLine
 10
151.4325860253
 20
53.6117116093
 30
0.0
 11
151.4325860245
 21
59.335688231
 31
0.0
  0
LINE
  5
2AC
330
1F
100
AcDbEntity
  8
0
  6
Continuous
 62
     7
370
    15
100
AcDbLine
 10
151.2233765833
 20
53.6117116093
 30
0.0
 11
151.4325860253
 21
53.6117116093
 31
0.0
  0
LINE
  5
2AD
330
1F
100
AcDbEntity
  8
0
  6
Continuous
 62
     7
370
    15
100
AcDbLine
 10
101.5754431682
 20
40.1831401807
 30
0.0
 11
101.5754431682
 21
44.4688544664
 31
0.0
  0
LINE
  5
2AE
330
1F
100
AcDbEntity
  8
0
  6
Continuous
 62
     7
370
    15
100
AcDbLine
 10
101.1468717396
 20
40.1831401807
 30
0.0
 11
101.1468717396
 21
44.4688544664
 31
0.0
  0
LINE
  5
2AF
330
1F
100
AcDbEntity
  8
0
  6
Continuous
 62
     7
370
    15
100
AcDbLine
 10
101.7859746765
 20
40.9688544664
 30
0.0
 11
101.7859746765
 21
43.6831401807
 31
0.0
  0
LINE
  5
2B0
330
1F
100
AcDbEntity
  8
0
  6
Continuous
 62
     7
370
    15
100
AcDbLine
 10
103.9040145968
 20
43.6831401807
 30
0.0
 11
103.9040145968
 21
42.3259973236
 31
0.0
  0
LINE
  5
2B1
330
1F
100
AcDbEntity
  8
0
  6
Continuous
 62
     7
370
    15
100
AcDbLine
 10
106.618300311
 20
43.6831401807
 30
0.0
 11
103.9040145968
 21
43.6831401807
 31
0.0
  0
LINE
  5
2B2
330
1F
100
AcDbEntity
  8
0
  6
Continuous
 62
     7
370
    15
100
AcDbLine
 10
106.618300311
 20
40.9688544664
 30
0.0
 11
106.618300311
 21
43.6831401807
 31
0.0
  0
LINE
  5
2B3
330
1F
100
AcDbEntity
  8
0
  6
Continuous
 62
     7
370
    15
100
AcDbLine
 10
103.9040145968
 20
40.9688544664
 30
0.0
 11
106.618300311
 21
40.9688544664
 31
0.0
  0
LINE
  5
2B4
330
1F
100
AcDbEntity
  8
0
  6
Continuous
 62
     7
370
    15
100
AcDbLine
 10
103.9040145968
 20
42.3259973236
 30
0.0
 11
103.9040145968
 21
40.9688544664
 31
0.0
  0
LINE
  5
2B5
330
1F
100
AcDbEntity
  8
0
  6
Continuous
 62
     7
370
    15
100
AcDbLine
 10
104.218300311
 20
47.6808066886
 30
0.0
 11
112.218300311
 21
47.6808066886
 31
0.0
  0
LINE
  5
2B6
330
1F
100
AcDbEntity
  8
0
  6
Continuous
 62
     7
370
    15
100
AcDbLine
 10
105.6468717396
 20
47.1648097409
 30
0.0
 11
112.218300311
 21
47.1648097409
 31
0.0
  0
LINE
  5
2B7
330
1F
100
AcDbEntity
  8
0
  6
Continuous
 62
     7
370
    15
100
AcDbLine
 10
104.218300311
 20
46.3572333756
 30
0.0
 11
105.6468717396
 21
46.3572333756
 31
0.0
  0
LINE
  5
2B8
330
1F
100
AcDbEntity
  8
0
  6
Continuous
 62
     7
370
    15
100
AcDbLine
 10
104.218300311
 20
46.3572333756
 30
0.0
 11
104.218300311
 21
47.6808066886
 31
0.0
  0
LINE
  5
2B9
330
1F
100
AcDbEntity
  8
0
  6
Continuous
 62
     7
370
    15
100
AcDbLine
 10
104.218300311
 20
50.9921775978
 30
0.0
 11
112.218300311
 21
50.9921775978
 31
0.0
  0
LINE
  5
2BA
330
1F
100
AcDbEntity
  8
0
  6
Continuous
 62
     7
370
    15
100
AcDbLine
 10
104.218300311
 20
47.6808066886
 30
0.0
 11
104.218300311
 21
50.9921775978
 31
0.0
  0
LINE
  5
2BB
330
1F
100
AcDbEntity
  8
0
  6
Continuous
 62
     7
370
    15
100
AcDbLine
 10
105.6468717396
 20
50.9921775978
 30
0.0
 11
105.6468717396
 21
59.7545687522
 31
0.0
  0
LINE
  5
2BC
330
1F
100
AcDbEntity
  8
0
  6
Continuous
 62
     7
370
    15
100
AcDbLine
 10
105.6468717396
 20
24.897425895
 30
0.0
 11
105.6468717396
 21
40.9688544664
 31
0.0
  0
LINE
  5
2BD
330
1F
100
AcDbEntity
  8
0
  6
Continuous
 62
     7
370
    15
100
AcDbLine
 10
105.6468717396
 20
43.6831401807
 30
0.0
 11
105.6468717396
 21
47.1648097409
 31
0.0
  0
LINE
  5
2BE
330
1F
100
AcDbEntity
  8
0
  6
Continuous
 62
     7
370
    15
100
AcDbLine
 10
115.6468717396
 20
24.897425895
 30
0.0
 11
115.6468717396
 21
29.4688544664
 31
0.0
  0
LINE
  5
2BF
330
1F
100
AcDbEntity
  8
0
  6
Continuous
 62
     7
370
    15
100
AcDbLine
 10
115.6468717396
 20
32.0724377211
 30
0.0
 11
115.6468717396
 21
33.1509854975
 31
0.0
  0
LINE
  5
2C0
330
1F
100
AcDbEntity
  8
0
  6
Continuous
 62
     7
370
    15
100
AcDbLine
 10
115.6468717396
 20
51.5010091496
 30
0.0
 11
115.6468717396
 21
52.5795569261
 31
0.0
  0
LINE
  5
2C1
330
1F
100
AcDbEntity
  8
0
  6
Continuous
 62
     7
370
    15
100
AcDbLine
 10
115.6468717396
 20
55.1831401807
 30
0.0
 11
115.6468717396
 21
59.7545687522
 31
0.0
  0
LINE
  5
2C2
330
1F
100
AcDbEntity
  8
0
  6
Continuous
 62
     7
370
    15
100
AcDbLine
 10
111.0695214704
 20
53.4202830379
 30
0.0
 11
112.218300311
 21
53.4202830379
 31
0.0
  0
LINE
  5
2C3
330
1F
100
AcDbEntity
  8
0
  6
Continuous
 62
     7
370
    15
100
AcDbLine
 10
111.0695214704
 20
53.4202830379
 30
0.0
 11
111.0695214704
 21
50.9921775978
 31
0.0
  0
LINE
  5
2C4
330
1F
100
AcDbEntity
  8
0
  6
Continuous
 62
     7
370
    15
100
AcDbLine
 10
110.4921712012
 20
53.4202830379
 30
0.0
 11
111.0695214704
 21
53.4202830379
 31
0.0
  0
LINE
  5
2C5
330
1F
100
AcDbEntity
  8
0
  6
Continuous
 62
     7
370
    15
100
AcDbLine
 10
110.4921712012
 20
53.4202830379
 30
0.0
 11
110.4921712012
 21
50.9921775978
 31
0.0
  0
LINE
  5
2C6
330
1F
100
AcDbEntity
  8
0
  6
Continuous
 62
     7
370
    15
100
AcDbLine
 10
103.0754431682
 20
27.0402830379
 30
0.0
 11
103.0754431682
 21
40.9688544664
 31
0.0
  0
LINE
  5
2C7
330
1F
100
AcDbEntity
  8
0
  6
Continuous
 62
     7
370
    15
100
AcDbLine
 10
103.0754431682
 20
43.6831401807
 30
0.0
 11
103.0754431682
 21
57.6117116093
 31
0.0
  0
LINE
  5
2C8
330
1F
100
AcDbEntity
  8
0
  6
Continuous
 62
     7
370
    15
100
AcDbLine
 10
118.6468717396
 20
57.6117116093
 30
0.0
 11
118.6468717396
 21
55.1761620943
 31
0.0
  0
LINE
  5
2C9
330
1F
100
AcDbEntity
  8
0
  6
Continuous
 62
     7
370
    15
100
AcDbLine
 10
118.6468717396
 20
29.4758325528
 30
0.0
 11
118.6468717396
 21
27.0402830379
 31
0.0
  0
LINE
  5
2CA
330
1F
100
AcDbEntity
  8
0
  6
Continuous
 62
     7
370
    15
100
AcDbLine
 10
97.7897288825
 20
27.6117116093
 30
0.0
 11
97.7897288825
 21
57.0402830379
 31
0.0
  0
LINE
  5
2CB
330
1F
100
AcDbEntity
  8
0
  6
Continuous
 62
     7
370
    15
100
AcDbLine
 10
112.218300311
 20
35.183140175
 30
0.0
 11
112.218300311
 21
29.4688544664
 31
0.0
  0
LINE
  5
2CC
330
1F
100
AcDbEntity
  8
0
  6
Continuous
 62
     7
370
    15
100
AcDbLine
 10
117.9325860253
 20
35.1831401807
 30
0.0
 11
112.218300311
 21
35.1831401807
 31
0.0
  0
CIRCLE
  5
2CD
330
1F
100
AcDbEntity
  8
0
  6
Continuous
 62
     7
370
    15
100
AcDbCircle
 10
115.0754431682
 20
32.6117116093
 30
0.0
 40
0.7857142857142918
  0
LINE
  5
2CE
330
1F
100
AcDbEntity
  8
0
  6
Continuous
 62
     7
370
    15
100
AcDbLine
 10
117.9325860339
 20
29.4688544664
 30
0.0
 11
112.218300311
 21
29.4688544664
 31
0.0
  0
LINE
  5
2CF
330
1F
100
AcDbEntity
  8
0
  6
Continuous
 62
     7
370
    15
100
AcDbLine
 10
117.9325860253
 20
29.4688544664
 30
0.0
 11
117.9325860253
 21
35.1831401807
 31
0.0
  0
LINE
  5
2D0
330
1F
100
AcDbEntity
  8
0
  6
Continuous
 62
     7
370
    15
100
AcDbLine
 10
117.9325860339
 20
55.1831401807
 30
0.0
 11
112.218300311
 21
55.1831401807
 31
0.0
  0
LINE
  5
2D1
330
1F
100
AcDbEntity
  8
0
  6
Continuous
 62
     7
370
    15
100
AcDbLine
 10
117.9325860253
 20
55.1831401807
 30
0.0
 11
117.9325860253
 21
49.4688544664
 31
0.0
  0
LINE
  5
2D2
330
1F
100
AcDbEntity
  8
0
  6
Continuous
 62
     7
370
    15
100
AcDbLine
 10
117.9325860253
 20
49.4688544664
 30
0.0
 11
112.218300311
 21
49.4688544664
 31
0.0
  0
LINE
  5
2D3
330
1F
100
AcDbEntity
  8
0
  6
Continuous
 62
     7
370
    15
100
AcDbLine
 10
112.218300311
 20
55.1831401807
 30
0.0
 11
112.218300311
 21
49.4688544722
 31
0.0
  0
CIRCLE
  5
2D4
330
1F
100
AcDbEntity
  8
0
  6
Continuous
 62
     7
370
    15
100
AcDbCircle
 10
115.0754431682
 20
52.0402830379
 30
0.0
 40
0.7857142857142918
  0
LINE
  5
2D5
330
1F
100
AcDbEntity
  8
0
  6
Continuous
 62
     7
370
    15
100
AcDbLine
 10
130.7897288803
 20
29.4688544664
 30
0.0
 11
130.7897288825
 21
35.1831401807
 31
0.0
  0
LINE
  5
2D6
330
1F
100
AcDbEntity
  8
0
  6
Continuous
 62
     7
370
    15
100
AcDbLine
 10
130.7897288825
 20
35.1831401807
 30
0.0
 11
136.5040145968
 21
35.1831401793
 31
0.0
  0
LINE
  5
2D7
330
1F
100
AcDbEntity
  8
0
  6
Continuous
 62
     7
370
    15
100
AcDbLine
 10
136.5040145968
 20
29.4688544664
 30
0.0
 11
136.5040145968
 21
35.1831401793
 31
0.0
  0
CIRCLE
  5
2D8
330
1F
100
AcDbEntity
  8
0
  6
Continuous
 62
     7
370
    15
100
AcDbCircle
 10
133.6468717396
 20
32.6117116093
 30
0.0
 40
0.785714285714306
  0
LINE
  5
2D9
330
1F
100
AcDbEntity
  8
0
  6
Continuous
 62
     7
370
    15
100
AcDbLine
 10
136.5040145968
 20
29.4688544664
 30
0.0
 11
130.7897288803
 21
29.4688544664
 31
0.0
  0
CIRCLE
  5
2DA
330
1F
100
AcDbEntity
  8
0
  6
Continuous
 62
     7
370
    15
100
AcDbCircle
 10
133.6468717396
 20
52.0402830379
 30
0.0
 40
0.785714285714306
  0
LINE
  5
2DB
330
1F
100
AcDbEntity
  8
0
  6
Continuous
 62
     7
370
    15
100
AcDbLine
 10
130.7897288782
 20
55.1831401807
 30
0.0
 11
130.7897288825
 21
49.4688544664
 31
0.0
  0
LINE
  5
2DC
330
1F
100
AcDbEntity
  8
0
  6
Continuous
 62
     7
370
    15
100
AcDbLine
 10
130.7897288825
 20
49.4688544664
 30
0.0
 11
136.5040145968
 21
49.4688544679
 31
0.0
  0
LINE
  5
2DD
330
1F
100
AcDbEntity
  8
0
  6
Continuous
 62
     7
370
    15
100
AcDbLine
 10
136.5040145968
 20
49.4688544679
 30
0.0
 11
136.5040145968
 21
55.1831401807
 31
0.0
  0
LINE
  5
2DE
330
1F
100
AcDbEntity
  8
0
  6
Continuous
 62
     7
370
    15
100
AcDbLine
 10
136.5040145968
 20
55.1831401807
 30
0.0
 11
130.7897288782
 21
55.1831401807
 31
0.0
  0
LINE
  5
2DF
330
1F
100
AcDbEntity
  8
0
  6
Continuous
 62
     7
370
    15
100
AcDbLine
 10
136.5040145968
 20
35.1831401779
 30
0.0
 11
136.5040145968
 21
49.4688544707
 31
0.0
  0
LINE
  5
2E0
330
1F
100
AcDbEntity
  8
0
  6
Continuous
 62
     7
370
    15
100
AcDbLine
 10
112.218300311
 20
35.183140175
 30
0.0
 11
112.218300311
 21
49.4688544707
 31
0.0
  0
LINE
  5
2E1
330
1F
100
AcDbEntity
  8
0
  6
Continuous
 62
     7
370
    15
100
AcDbLine
 10
130.789728876
 20
55.1831401807
 30
0.0
 11
117.9325860296
 21
55.1831401807
 31
0.0
  0
LINE
  5
2E2
330
1F
100
AcDbEntity
  8
0
  6
Continuous
 62
     7
370
    15
100
AcDbLine
 10
130.7897288782
 20
29.4688544664
 30
0.0
 11
117.9325860339
 21
29.4688544664
 31
0.0
  0
LINE
  5
2E3
330
1F
100
AcDbEntity
  8
0
  6
Continuous
 62
     7
370
    15
100
AcDbLine
 10
121.0754431682
 20
55.5831401807
 30
0.0
 11
127.9325860253
 21
55.5831401807
 31
0.0
  0
LINE
  5
2E4
330
1F
100
AcDbEntity
  8
0
  6
Continuous
 62
     7
370
    15
100
AcDbLine
 10
127.9325860282
 20
55.1831401807
 30
0.0
 11
127.9325860253
 21
55.5831401807
 31
0.0
  0
LINE
  5
2E5
330
1F
100
AcDbEntity
  8
0
  6
Continuous
 62
     7
370
    15
100
AcDbLine
 10
121.0754431682
 20
55.5831401807
 30
0.0
 11
121.075443166
 21
55.1831401807
 31
0.0
  0
LINE
  5
2E6
330
1F
100
AcDbEntity
  8
0
  6
Continuous
 62
     7
370
    15
100
AcDbLine
 10
150.0754431682
 20
33.9623626727
 30
0.0
 11
150.0754431682
 21
27.7355687522
 31
0.0
  0
LINE
  5
2E7
330
1F
100
AcDbEntity
  8
0
  6
Continuous
 62
     7
370
    15
100
AcDbLine
 10
130.9325860253
 20
29.4688544664
 30
0.0
 11
130.9325860253
 21
27.7355687522
 31
0.0
  0
LINE
  5
2E8
330
1F
100
AcDbEntity
  8
0
  6
Continuous
 62
     7
370
    15
100
AcDbLine
 10
150.0754431682
 20
56.916425895
 30
0.0
 11
150.0754431682
 21
50.6896319744
 31
0.0
  0
LINE
  5
2E9
330
1F
100
AcDbEntity
  8
0
  6
Continuous
 62
     7
370
    15
100
AcDbLine
 10
130.9325860253
 20
56.916425895
 30
0.0
 11
130.9325860253
 21
55.1831401807
 31
0.0
  0
LINE
  5
2EA
330
1F
100
AcDbEntity
  8
0
  6
Continuous
 62
     7
370
    15
100
AcDbLine
 10
150.075443165
 20
37.0619358454
 30
0.0
 11
136.5040145968
 21
37.0619358443
 31
0.0
  0
LINE
  5
2EB
330
1F
100
AcDbEntity
  8
0
  6
Continuous
 62
     7
370
    15
100
AcDbLine
 10
150.075443165
 20
37.0619358454
 30
0.0
 11
150.0754431682
 21
33.9623626727
 31
0.0
  0
LINE
  5
2EC
330
1F
100
AcDbEntity
  8
0
  6
Continuous
 62
     7
370
    15
100
AcDbLine
 10
136.5040145968
 20
47.5900588005
 30
0.0
 11
150.075443165
 21
47.590058801
 31
0.0
  0
LINE
  5
2ED
330
1F
100
AcDbEntity
  8
0
  6
Continuous
 62
     7
370
    15
100
AcDbLine
 10
150.075443165
 20
47.590058801
 30
0.0
 11
150.0754431682
 21
50.6896319744
 31
0.0
  0
LINE
  5
2EE
330
1F
100
AcDbEntity
  8
0
  6
Continuous
 62
     7
370
    15
100
AcDbLine
 10
150.0754431682
 20
53.1231401798
 30
0.0
 11
151.7897288825
 21
53.1231401803
 31
0.0
  0
LINE
  5
2EF
330
1F
100
AcDbEntity
  8
0
  6
Continuous
 62
     7
370
    15
100
AcDbLine
 10
151.7897288825
 20
53.1231401803
 30
0.0
 11
151.7897288825
 21
30.6495687522
 31
0.0
  0
LINE
  5
2F0
330
1F
100
AcDbEntity
  8
0
  6
Continuous
 62
     7
370
    15
100
AcDbLine
 10
124.628300311
 20
29.4688544664
 30
0.0
 11
124.628300311
 21
28.4688544664
 31
0.0
  0
LINE
  5
2F1
330
1F
100
AcDbEntity
  8
0
  6
Continuous
 62
     7
370
    15
100
AcDbLine
 10
124.628300311
 20
56.1831401807
 30
0.0
 11
124.628300311
 21
55.5831401807
 31
0.0
  0
LINE
  5
2F2
330
1F
100
AcDbEntity
  8
0
  6
Continuous
 62
     7
370
    15
100
AcDbLine
 10
154.9325860253
 20
33.1764973236
 30
0.0
 11
154.9325860253
 21
51.4754973236
 31
0.0
  0
LINE
  5
2F3
330
1F
100
AcDbEntity
  8
0
  6
Continuous
 62
     7
370
    15
100
AcDbLine
 10
119.7897288825
 20
27.4831401807
 30
0.0
 11
119.7897288839
 21
29.4688544664
 31
0.0
  0
LINE
  5
2F4
330
1F
100
AcDbEntity
  8
0
  6
Continuous
 62
     7
370
    15
100
AcDbLine
 10
119.7897288839
 20
55.1831401807
 30
0.0
 11
119.7897288825
 21
57.1688544664
 31
0.0
  0
LINE
  5
2F5
330
1F
100
AcDbEntity
  8
0
  6
Continuous
 62
     7
370
    15
100
AcDbLine
 10
141.9427385699
 20
56.916425895
 30
0.0
 11
141.9427385699
 21
60.4688544664
 31
0.0
  0
LINE
  5
2F6
330
1F
100
AcDbEntity
  8
0
  6
Continuous
 62
     7
370
    15
100
AcDbLine
 10
141.4376622976
 20
60.4688544664
 30
0.0
 11
141.4376622976
 21
56.916425895
 31
0.0
  0
LINE
  5
2F7
330
1F
100
AcDbEntity
  8
0
  6
Continuous
 62
     7
370
    15
100
AcDbLine
 10
149.6367191953
 20
56.916425895
 30
0.0
 11
149.6367191952
 21
58.5142343581
 31
0.0
  0
LINE
  5
2F8
330
1F
100
AcDbEntity
  8
0
  6
Continuous
 62
     7
370
    15
100
AcDbLine
 10
140.3560811816
 20
56.916425895
 30
0.0
 11
140.3560811816
 21
60.4688544664
 31
0.0
  0
LINE
  5
2F9
330
1F
100
AcDbEntity
  8
0
  6
Continuous
 62
     7
370
    15
100
AcDbLine
 10
150.0754431682
 20
33.9623626727
 30
0.0
 11
136.5040145968
 21
33.9623626727
 31
0.0
  0
LINE
  5
2FA
330
1F
100
AcDbEntity
  8
0
  6
Continuous
 62
     7
370
    15
100
AcDbLine
 10
150.0754431682
 20
50.6896319744
 30
0.0
 11
136.5040145968
 21
50.6896319744
 31
0.0
  0
LINE
  5
2FB
330
1F
100
AcDbEntity
  8
0
  6
Continuous
 62
     7
370
    15
100
AcDbLine
 10
153.5040145968
 20
31.747925895
 30
0.0
 11
153.5040145968
 21
52.9040687522
 31
0.0
  0
INSERT
  5
307
330
1F
100
AcDbEntity
  8
0
  6
Continuous
 62
     7
370
     0
100
AcDbBlockReference
  2
SW_CENTERMARKSYMBOL_1
 10
115.0754431682
 20
52.0402830379
 30
0.0
  0
INSERT
  5
313
330
1F
100
AcDbEntity
  8
0
  6
Continuous
 62
     7
370
     0
100
AcDbBlockReference
  2
SW_CENTERMARKSYMBOL_2
 10
133.6468717396
 20
52.0402830379
 30
0.0
  0
INSERT
  5
31F
330
1F
100
AcDbEntity
  8
0
  6
Continuous
 62
     7
370
     0
100
AcDbBlockReference
  2
SW_CENTERMARKSYMBOL_3
 10
133.6468717396
 20
32.6117116093
 30
0.0
  0
INSERT
  5
32B
330
1F
100
AcDbEntity
  8
0
  6
Continuous
 62
     7
370
     0
100
AcDbBlockReference
  2
SW_CENTERMARKSYMBOL_4
 10
115.0754431682
 20
32.6117116093
 30
0.0
  0
LINE
  5
32C
330
1F
100
AcDbEntity
  8
寸法線
100
AcDbLine
 10
39.0215495255
 20
109.7222960806
 30
0.0
 11
35.9463171628
 21
109.7222960806
 31
0.0
  0
LINE
  5
32D
330
1F
100
AcDbEntity
  8
寸法線
100
AcDbLine
 10
74.592978097
 20
109.7222960806
 30
0.0
 11
77.2373079016
 21
109.7222960806
 31
0.0
  0
LINE
  5
32E
330
1F
100
AcDbEntity
  8
0
  6
Continuous
 62
     7
370
    15
100
AcDbLine
 10
53.4501209945
 20
131.4365810966
 30
0.0
 11
54.3786924423
 21
131.1877721507
 31
0.0
  0
LINE
  5
32F
330
1F
100
AcDbEntity
  8
0
  6
Continuous
 62
     7
370
    15
100
AcDbLine
 10
58.5215494659
 20
131.1877721507
 30
0.0
 11
59.4501209137
 21
131.4365810966
 31
0.0
  0
LINE
  5
330
330
1F
100
AcDbEntity
  8
0
  6
Continuous
 62
     7
370
    15
100
AcDbLine
 10
53.4501209945
 20
131.8651533937
 30
0.0
 11
53.4501209945
 21
131.4365810966
 31
0.0
  0
LINE
  5
331
330
1F
100
AcDbEntity
  8
0
  6
Continuous
 62
     7
370
    15
100
AcDbLine
 10
59.4501209137
 20
131.4365810966
 30
0.0
 11
59.4501209137
 21
131.8651533937
 31
0.0
  0
LINE
  5
332
330
1F
100
AcDbEntity
  8
0
  6
Continuous
 62
     7
370
    15
100
AcDbLine
 10
54.3786924423
 20
131.1877721507
 30
0.0
 11
54.3786924423
 21
128.8651537003
 31
0.0
  0
LINE
  5
333
330
1F
100
AcDbEntity
  8
0
  6
Continuous
 62
     7
370
    15
100
AcDbLine
 10
58.5215494659
 20
128.8651537003
 30
0.0
 11
58.5215494659
 21
131.1877721507
 31
0.0
  0
LINE
  5
334
330
1F
100
AcDbEntity
  8
0
  6
Continuous
 62
     7
370
    15
100
AcDbLine
 10
74.2343896824
 20
116.1508677646
 30
0.0
 11
72.64976827
 21
116.1508677646
 31
0.0
  0
LWPOLYLINE
  5
335
330
1F
100
AcDbEntity
  8
0
  6
Continuous
 62
     7
370
    15
100
AcDbPolyline
 90
        9
 70
   128
 43
0.0
 10
74.5315071286
 20
115.4365816671
 10
74.5257978551
 20
115.5759320048
 10
74.5088892946
 20
115.7099269715
 10
74.4814328407
 20
115.833417684
 10
74.4444822185
 20
115.9416581224
 10
74.3994594243
 20
116.0304887339
 10
74.3480908642
 20
116.0964955561
 10
74.2923541351
 20
116.1371427308
 10
74.2343896824
 20
116.1508677646
  0
LINE
  5
336
330
1F
100
AcDbEntity
  8
0
  6
Continuous
 62
     7
370
    15
100
AcDbLine
 10
74.5315071286
 20
104.2937248266
 30
0.0
 11
74.5315071286
 21
104.8651529595
 31
0.0
  0
LINE
  5
337
330
1F
100
AcDbEntity
  8
0
  6
Continuous
 62
     7
370
    15
100
AcDbLine
 10
74.5315071286
 20
114.865153002
 30
0.0
 11
74.5315071286
 21
115.4365816671
 31
0.0
  0
LWPOLYLINE
  5
338
330
1F
100
AcDbEntity
  8
0
  6
Continuous
 62
     7
370
    15
100
AcDbPolyline
 90
        9
 70
   128
 43
0.0
 10
74.2343896824
 20
103.5794387291
 10
74.2923541351
 20
103.5931637629
 10
74.3480908642
 20
103.6338109376
 10
74.3994594243
 20
103.6998177598
 10
74.4444822185
 20
103.7886483713
 10
74.4814328407
 20
103.8968888097
 10
74.5088892946
 20
104.0203795222
 10
74.5257978551
 20
104.1543744889
 10
74.5315071286
 20
104.2937248266
  0
LINE
  5
339
330
1F
100
AcDbEntity
  8
0
  6
Continuous
 62
     7
370
    15
100
AcDbLine
 10
74.2343896824
 20
103.5794387291
 30
0.0
 11
72.7602529297
 21
103.5794387291
 31
0.0
  0
SPLINE
  5
33A
330
1F
100
AcDbEntity
  8
0
  6
Continuous
 62
     7
370
    15
100
AcDbSpline
210
0.0
220
0.0
230
1.0
 70
    24
 71
     3
 72
     9
 73
     5
 74
     0
 42
0.00000001
 43
0.00000001
 40
0.0
 40
0.0
 40
0.0
 40
0.0
 40
0.500000755719305
 40
1.0
 40
1.0
 40
1.0
 40
1.0
 10
75.02154884432876
 20
113.0692863423363
 30
0.0
 10
75.02154884432876
 20
113.1071194823803
 30
0.0
 10
75.02154884432876
 20
113.1827856481035
 30
0.0
 10
75.02154884432876
 20
113.2418064577611
 30
0.0
 10
75.02154884432876
 20
113.2713168179868
 30
0.0
  0
LINE
  5
33B
330
1F
100
AcDbEntity
  8
0
  6
Continuous
 62
     7
370
    15
100
AcDbLine
 10
74.592978676
 20
113.0692863423
 30
0.0
 11
75.0215488443
 21
113.0692863423
 31
0.0
  0
LINE
  5
33C
330
1F
100
AcDbEntity
  8
0
  6
Continuous
 62
     7
370
    15
100
AcDbLine
 10
74.592978676
 20
113.5743627976
 30
0.0
 11
74.592978676
 21
113.0692863423
 31
0.0
  0
ARC
  5
33D
330
1F
100
AcDbEntity
  8
0
  6
Continuous
 62
     7
370
    15
100
AcDbCircle
 10
74.6465494813
 20
113.1955563254
 30
0.0
 40
0.3825757108677708
100
AcDbArc
 50
11.4216333514
 51
98.0493899013
  0
SPLINE
  5
33E
330
1F
100
AcDbEntity
  8
0
  6
Continuous
 62
     7
370
    15
100
AcDbSpline
210
0.0
220
0.0
230
1.0
 70
    24
 71
     3
 72
     9
 73
     5
 74
     0
 42
0.00000001
 43
0.00000001
 40
0.0
 40
0.0
 40
0.0
 40
0.0
 40
0.499998162861239
 40
1.0
 40
1.0
 40
1.0
 40
1.0
 10
75.02154884432876
 20
106.4589896757141
 30
0.0
 10
75.02154884432876
 20
106.4884999453072
 30
0.0
 10
75.02154884432876
 20
106.547520701352
 30
0.0
 10
75.02154884432876
 20
106.6231869086876
 30
0.0
 10
75.02154884432876
 20
106.6610201513646
 30
0.0
  0
ARC
  5
33F
330
1F
100
AcDbEntity
  8
0
  6
Continuous
 62
     7
370
    15
100
AcDbCircle
 10
74.6465494813
 20
106.5347501683
 30
0.0
 40
0.3825757108677963
100
AcDbArc
 50
261.9506100987
 51
348.5783666486
  0
LINE
  5
340
330
1F
100
AcDbEntity
  8
0
  6
Continuous
 62
     7
370
    15
100
AcDbLine
 10
74.592978676
 20
106.6610201514
 30
0.0
 11
74.592978676
 21
106.1559436961
 31
0.0
  0
LINE
  5
341
330
1F
100
AcDbEntity
  8
0
  6
Continuous
 62
     7
370
    15
100
AcDbLine
 10
75.0215488443
 20
106.6610201514
 30
0.0
 11
74.592978676
 21
106.6610201514
 31
0.0
  0
LINE
  5
342
330
1F
100
AcDbEntity
  8
0
  6
Continuous
 62
     7
370
    15
100
AcDbLine
 10
74.592978676
 20
113.0692863423
 30
0.0
 11
74.592978676
 21
106.6610201514
 31
0.0
  0
LINE
  5
343
330
1F
100
AcDbEntity
  8
0
  6
Continuous
 62
     7
370
    15
100
AcDbLine
 10
75.0215488443
 20
113.0692863423
 30
0.0
 11
75.0215488443
 21
106.6610201514
 31
0.0
  0
LINE
  5
344
330
1F
100
AcDbEntity
  8
0
  6
Continuous
 62
     7
370
    15
100
AcDbLine
 10
74.592978676
 20
114.655943892
 30
0.0
 11
74.592978676
 21
113.5743627976
 31
0.0
  0
ARC
  5
345
330
1F
100
AcDbEntity
  8
0
  6
Continuous
 62
     7
370
    15
100
AcDbCircle
 10
74.6465494381
 20
114.2771373588
 30
0.0
 40
0.3825757652648069
100
AcDbArc
 50
11.4216410322
 51
98.0493822206
  0
LINE
  5
346
330
1F
100
AcDbEntity
  8
0
  6
Continuous
 62
     7
370
    15
100
AcDbLine
 10
75.0215488443
 20
114.3528979124
 30
0.0
 11
75.0215488443
 21
113.271316818
 31
0.0
  0
ARC
  5
347
330
1F
100
AcDbEntity
  8
0
  6
Continuous
 62
     7
370
    15
100
AcDbCircle
 10
74.6465493048
 20
105.45316939
 30
0.0
 40
0.3825759991623295
100
AcDbArc
 50
261.9506429
 51
348.5782864153
  0
LINE
  5
348
330
1F
100
AcDbEntity
  8
0
  6
Continuous
 62
     7
370
    15
100
AcDbLine
 10
74.592978676
 20
106.1559436961
 30
0.0
 11
74.592978676
 21
105.0743626017
 31
0.0
  0
LINE
  5
349
330
1F
100
AcDbEntity
  8
0
  6
Continuous
 62
     7
370
    15
100
AcDbLine
 10
75.0215488443
 20
106.4589896757
 30
0.0
 11
75.0215488443
 21
105.3774083152
 31
0.0
  0
LINE
  5
34A
330
1F
100
AcDbEntity
  8
0
  6
Continuous
 62
     7
370
    15
100
AcDbLine
 10
74.592978676
 20
105.0743626017
 30
0.0
 11
74.592978676
 21
104.8651529595
 31
0.0
  0
ARC
  5
34B
330
1F
100
AcDbEntity
  8
0
  6
Continuous
 62
     7
370
    15
100
AcDbCircle
 10
74.592978097
 20
105.293724652
 30
0.0
 40
0.4285714285714306
100
AcDbArc
 50
270.0
 51
359.9999999897
  0
SPLINE
  5
34C
330
1F
100
AcDbEntity
  8
0
  6
Continuous
 62
     7
370
    15
100
AcDbSpline
210
0.0
220
0.0
230
1.0
 70
    24
 71
     3
 72
     9
 73
     5
 74
     0
 42
0.00000001
 43
0.00000001
 40
0.0
 40
0.0
 40
0.0
 40
0.0
 40
0.499997491481133
 40
1.0
 40
1.0
 40
1.0
 40
1.0
 10
75.02154884432876
 20
105.2937247243829
 30
0.0
 10
75.02154884432876
 20
105.2976254158325
 30
0.0
 10
75.02154884432878
 20
105.3054268378719
 30
0.0
 10
75.02154884432876
 20
105.3534144091633
 30
0.0
 10
75.02154884432876
 20
105.3774083151867
 30
0.0
  0
LINE
  5
34D
330
1F
100
AcDbEntity
  8
0
  6
Continuous
 62
     7
370
    15
100
AcDbLine
 10
74.592978676
 20
114.865153002
 30
0.0
 11
74.592978676
 21
114.655943892
 31
0.0
  0
ARC
  5
34E
330
1F
100
AcDbEntity
  8
0
  6
Continuous
 62
     7
370
    15
100
AcDbCircle
 10
74.592978097
 20
114.4365817949
 30
0.0
 40
0.4285714285714306
100
AcDbArc
 50
359.9999999995
 51
90.0
  0
SPLINE
  5
34F
330
1F
100
AcDbEntity
  8
0
  6
Continuous
 62
     7
370
    15
100
AcDbSpline
210
0.0
220
0.0
230
1.0
 70
    24
 71
     3
 72
     9
 73
     5
 74
     0
 42
0.00000001
 43
0.00000001
 40
0.0
 40
0.0
 40
0.0
 40
0.0
 40
0.5000023921020994
 40
1.0
 40
1.0
 40
1.0
 40
1.0
 10
75.02154884432876
 20
114.3528979124221
 30
0.0
 10
75.02154884432876
 20
114.3768917963351
 30
0.0
 10
75.02154884432876
 20
114.4248793345788
 30
0.0
 10
75.02154884432876
 20
114.4326809701799
 30
0.0
 10
75.02154884432876
 20
114.4365817693181
 30
0.0
  0
LINE
  5
350
330
1F
100
AcDbEntity
  8
0
  6
Continuous
 62
     7
370
    15
100
AcDbLine
 10
73.1026315886
 20
114.865153002
 30
0.0
 11
74.592978676
 21
114.865153002
 31
0.0
  0
LINE
  5
351
330
1F
100
AcDbEntity
  8
0
  6
Continuous
 62
     7
370
    15
100
AcDbLine
 10
73.188199378
 20
104.8651529595
 30
0.0
 11
74.592978676
 21
104.8651529595
 31
0.0
  0
CIRCLE
  5
352
330
1F
100
AcDbEntity
  8
0
  6
Continuous
 62
     7
370
    15
100
AcDbCircle
 10
56.4501209541
 20
109.7222960806
 30
0.0
 40
14.7142857142857
  0
CIRCLE
  5
353
330
1F
100
AcDbEntity
  8
0
  6
Continuous
 62
     7
370
    15
100
AcDbCircle
 10
56.4501209541
 20
89.293724652
 30
0.0
 40
2.142857142857139
  0
CIRCLE
  5
354
330
1F
100
AcDbEntity
  8
0
  6
Continuous
 62
     7
370
    15
100
AcDbCircle
 10
56.4501209541
 20
89.293724652
 30
0.0
 40
1.228571428571428
  0
CIRCLE
  5
355
330
1F
100
AcDbEntity
  8
0
  6
Continuous
 62
     7
370
    15
100
AcDbCircle
 10
56.4501209541
 20
109.7222960806
 30
0.0
 40
15.28571428571427
  0
LINE
  5
356
330
1F
100
AcDbEntity
  8
0
  6
Continuous
 62
     7
370
    15
100
AcDbLine
 10
55.0929781406
 20
90.9520377391
 30
0.0
 11
55.0929781406
 21
94.4969484169
 31
0.0
  0
LINE
  5
357
330
1F
100
AcDbEntity
  8
0
  6
Continuous
 62
     7
370
    15
100
AcDbLine
 10
57.8072637676
 20
90.9520377391
 30
0.0
 11
57.8072637676
 21
94.4969484169
 31
0.0
  0
LINE
  5
358
330
1F
100
AcDbEntity
  8
0
  6
Continuous
 62
     7
370
    15
100
AcDbLine
 10
65.1163010283
 20
93.0396531694
 30
0.0
 11
63.792727737
 21
96.3156117245
 31
0.0
  0
LINE
  5
359
330
1F
100
AcDbEntity
  8
0
  6
Continuous
 62
     7
370
    15
100
AcDbLine
 10
60.4813571045
 20
94.9777311897
 30
0.0
 11
61.8049303958
 21
91.7017726346
 31
0.0
  0
LINE
  5
35A
330
1F
100
AcDbEntity
  8
0
  6
Continuous
 62
     7
370
    15
100
AcDbLine
 10
61.8049303958
 20
91.7017726346
 30
0.0
 11
65.1163010283
 21
93.0396531694
 31
0.0
  0
ARC
  5
35B
330
1F
100
AcDbEntity
  8
0
  6
Continuous
 62
     7
370
    15
100
AcDbCircle
 10
56.4501209541
 20
109.7222960806
 30
0.0
 40
17.42857142857143
100
AcDbArc
 50
297.8807892569
 51
265.5339222332
  0
ARC
  5
35C
330
1F
100
AcDbEntity
  8
0
  6
Continuous
 62
     7
370
    15
100
AcDbCircle
 10
56.4501209541
 20
109.7222960806
 30
0.0
 40
17.42857142857142
100
AcDbArc
 50
274.4660777668
 51
286.1192107431
  0
LINE
  5
35D
330
1F
100
AcDbEntity
  8
0
  6
Continuous
 62
     7
370
    15
100
AcDbLine
 10
62.0215496405
 20
128.8651537003
 30
0.0
 11
50.8786922677
 21
128.8651537003
 31
0.0
  0
LINE
  5
35E
330
1F
100
AcDbEntity
  8
0
  6
Continuous
 62
     7
370
    15
100
AcDbLine
 10
62.0215496405
 20
126.236358962
 30
0.0
 11
62.0215496405
 21
128.8651537003
 31
0.0
  0
LINE
  5
35F
330
1F
100
AcDbEntity
  8
0
  6
Continuous
 62
     7
370
    15
100
AcDbLine
 10
50.8786922677
 20
128.8651537003
 30
0.0
 11
50.8786922677
 21
126.236358962
 31
0.0
  0
LINE
  5
360
330
1F
100
AcDbEntity
  8
0
  6
Continuous
 62
     7
370
    15
100
AcDbLine
 10
56.4501209541
 20
131.4365810966
 30
0.0
 11
59.4501209137
 21
131.4365810966
 31
0.0
  0
LINE
  5
361
330
1F
100
AcDbEntity
  8
0
  6
Continuous
 62
     7
370
    15
100
AcDbLine
 10
53.4501209945
 20
131.4365810966
 30
0.0
 11
56.4501209541
 21
131.4365810966
 31
0.0
  0
LINE
  5
362
330
1F
100
AcDbEntity
  8
0
  6
Continuous
 62
     7
370
    15
100
AcDbLine
 10
56.4501209541
 20
131.1877721507
 30
0.0
 11
58.5215494659
 21
131.1877721507
 31
0.0
  0
LINE
  5
363
330
1F
100
AcDbEntity
  8
0
  6
Continuous
 62
     7
370
    15
100
AcDbLine
 10
54.3786924423
 20
131.1877721507
 30
0.0
 11
56.4501209541
 21
131.1877721507
 31
0.0
  0
LINE
  5
364
330
1F
100
AcDbEntity
  8
0
  6
Continuous
 62
     7
370
    15
100
AcDbLine
 10
56.4501209541
 20
131.8651533937
 30
0.0
 11
59.4501209137
 21
131.8651533937
 31
0.0
  0
LINE
  5
365
330
1F
100
AcDbEntity
  8
0
  6
Continuous
 62
     7
370
    15
100
AcDbLine
 10
53.4501209945
 20
131.8651533937
 30
0.0
 11
56.4501209541
 21
131.8651533937
 31
0.0
  0
LINE
  5
366
330
1F
100
AcDbEntity
  8
0
  6
Continuous
 62
     7
370
    15
100
AcDbLine
 10
67.5444069276
 20
95.3651528658
 30
0.0
 11
67.5444069276
 21
94.365152968
 31
0.0
  0
LINE
  5
367
330
1F
100
AcDbEntity
  8
0
  6
Continuous
 62
     7
370
    15
100
AcDbLine
 10
67.5444069276
 20
94.365152968
 30
0.0
 11
64.691071381
 21
94.365152968
 31
0.0
  0
LINE
  5
368
330
1F
100
AcDbEntity
  8
0
  6
Continuous
 62
     7
370
    15
100
AcDbLine
 10
67.5444069276
 20
95.3651528658
 30
0.0
 11
66.3307861116
 21
95.3651528658
 31
0.0
  0
LINE
  5
369
330
1F
100
AcDbEntity
  8
0
  6
Continuous
 62
     7
370
    15
100
AcDbLine
 10
67.5444069276
 20
93.3651530702
 30
0.0
 11
64.984790298
 21
93.3651530702
 31
0.0
  0
LINE
  5
36A
330
1F
100
AcDbEntity
  8
0
  6
Continuous
 62
     7
370
    15
100
AcDbLine
 10
67.5444069276
 20
94.365152968
 30
0.0
 11
67.5444069276
 21
93.3651530702
 31
0.0
  0
LINE
  5
36B
330
1F
100
AcDbEntity
  8
0
  6
Continuous
 62
     7
370
    15
100
AcDbLine
 10
69.3072643221
 20
83.8651540409
 30
0.0
 11
69.3072643221
 21
85.7222964041
 31
0.0
  0
LINE
  5
36C
330
1F
100
AcDbEntity
  8
0
  6
Continuous
 62
     7
370
    15
100
AcDbLine
 10
69.3072643221
 20
83.8651540409
 30
0.0
 11
63.5929782034
 21
83.8651540409
 31
0.0
  0
LINE
  5
36D
330
1F
100
AcDbEntity
  8
0
  6
Continuous
 62
     7
370
    15
100
AcDbLine
 10
63.5929782034
 20
83.8651540409
 30
0.0
 11
63.5929782034
 21
84.0080093445
 31
0.0
  0
LINE
  5
36E
330
1F
100
AcDbEntity
  8
0
  6
Continuous
 62
     7
370
    15
100
AcDbLine
 10
49.3072637048
 20
84.0080093445
 30
0.0
 11
63.5929782034
 21
84.0080093445
 31
0.0
  0
LINE
  5
36F
330
1F
100
AcDbEntity
  8
0
  6
Continuous
 62
     7
370
    15
100
AcDbLine
 10
49.3072637048
 20
84.0080093445
 30
0.0
 11
49.3072637048
 21
83.8651540409
 31
0.0
  0
LINE
  5
370
330
1F
100
AcDbEntity
  8
0
  6
Continuous
 62
     7
370
    15
100
AcDbLine
 10
43.5929775861
 20
83.8651540409
 30
0.0
 11
43.5929775861
 21
85.7222964041
 31
0.0
  0
LINE
  5
371
330
1F
100
AcDbEntity
  8
0
  6
Continuous
 62
     7
370
    15
100
AcDbLine
 10
43.5929775861
 20
85.7222964041
 30
0.0
 11
44.3072636835
 21
85.7222964041
 31
0.0
  0
LINE
  5
372
330
1F
100
AcDbEntity
  8
0
  6
Continuous
 62
     7
370
    15
100
AcDbLine
 10
44.3072636835
 20
85.7222964041
 30
0.0
 11
68.5929782247
 21
85.7222964041
 31
0.0
  0
LINE
  5
373
330
1F
100
AcDbEntity
  8
0
  6
Continuous
 62
     7
370
    15
100
AcDbLine
 10
69.3072643221
 20
85.7222964041
 30
0.0
 11
68.5929782247
 21
85.7222964041
 31
0.0
  0
LINE
  5
374
330
1F
100
AcDbEntity
  8
0
  6
Continuous
 62
     7
370
    15
100
AcDbLine
 10
49.3072637048
 20
83.8651540409
 30
0.0
 11
43.5929775861
 21
83.8651540409
 31
0.0
  0
LINE
  5
375
330
1F
100
AcDbEntity
  8
0
  6
Continuous
 62
     7
370
    15
100
AcDbLine
 10
43.5929775861
 20
85.7222964041
 30
0.0
 11
43.5929775861
 21
97.9558613004
 31
0.0
  0
LINE
  5
376
330
1F
100
AcDbEntity
  8
0
  6
Continuous
 62
     7
370
    15
100
AcDbLine
 10
44.3072636835
 20
97.22005154
 30
0.0
 11
44.3072636835
 21
85.7222964041
 31
0.0
  0
LINE
  5
377
330
1F
100
AcDbEntity
  8
0
  6
Continuous
 62
     7
370
    15
100
AcDbLine
 10
68.5929782247
 20
85.7222964041
 30
0.0
 11
68.5929782247
 21
97.22005154
 31
0.0
  0
LINE
  5
378
330
1F
100
AcDbEntity
  8
0
  6
Continuous
 62
     7
370
    15
100
AcDbLine
 10
69.3072643221
 20
85.7222964041
 30
0.0
 11
69.3072643221
 21
97.9558613004
 31
0.0
  0
LINE
  5
379
330
1F
100
AcDbEntity
  8
0
  6
Continuous
 62
     7
370
    15
100
AcDbLine
 10
69.3072643221
 20
90.7222958932
 30
0.0
 11
69.7072636426
 21
90.7222958932
 31
0.0
  0
LINE
  5
37A
330
1F
100
AcDbEntity
  8
0
  6
Continuous
 62
     7
370
    15
100
AcDbLine
 10
69.7072636426
 20
90.7222958932
 30
0.0
 11
69.7072636426
 21
87.2937239027
 31
0.0
  0
LINE
  5
37B
330
1F
100
AcDbEntity
  8
0
  6
Continuous
 62
     7
370
    15
100
AcDbLine
 10
69.7072636426
 20
87.2937239027
 30
0.0
 11
69.3072643221
 21
87.2937239027
 31
0.0
  0
ARC
  5
37C
330
1F
100
AcDbEntity
  8
0
  6
Continuous
 62
     7
370
    15
100
AcDbCircle
 10
45.5072638112
 20
98.7794389377
 30
0.0
 40
3.64757142857143
100
AcDbArc
 50
161.831671528
 51
238.3444773186
  0
ARC
  5
37D
330
1F
100
AcDbEntity
  8
0
  6
Continuous
 62
     7
370
    15
100
AcDbCircle
 10
67.392978097
 20
98.7794389377
 30
0.0
 40
3.647571428571437
100
AcDbArc
 50
301.6555226814
 51
18.168328472
  0
LINE
  5
37E
330
1F
100
AcDbEntity
  8
0
  6
Continuous
 62
     7
370
    15
100
AcDbLine
 10
73.5099048045
 20
106.1559436961
 30
0.0
 11
74.592978676
 21
106.1559436961
 31
0.0
  0
LINE
  5
37F
330
1F
100
AcDbEntity
  8
0
  6
Continuous
 62
     7
370
    15
100
AcDbLine
 10
73.6077341208
 20
106.6610201514
 30
0.0
 11
74.592978676
 21
106.6610201514
 31
0.0
  0
LINE
  5
380
330
1F
100
AcDbEntity
  8
0
  6
Continuous
 62
     7
370
    15
100
AcDbLine
 10
73.5542942993
 20
113.0692863423
 30
0.0
 11
74.592978676
 21
113.0692863423
 31
0.0
  0
LINE
  5
381
330
1F
100
AcDbEntity
  8
0
  6
Continuous
 62
     7
370
    15
100
AcDbLine
 10
73.4476701048
 20
113.5743627976
 30
0.0
 11
74.592978676
 21
113.5743627976
 31
0.0
  0
LINE
  5
382
330
1F
100
AcDbEntity
  8
0
  6
Continuous
 62
     7
370
    15
100
AcDbLine
 10
73.1658093189
 20
114.655943892
 30
0.0
 11
74.592978676
 21
114.655943892
 31
0.0
  0
LINE
  5
383
330
1F
100
AcDbEntity
  8
0
  6
Continuous
 62
     7
370
    15
100
AcDbLine
 10
74.592978676
 20
105.0743626017
 30
0.0
 11
73.2474964202
 21
105.0743626017
 31
0.0
  0
INSERT
  5
390
330
1F
100
AcDbEntity
  8
寸法線
100
AcDbBlockReference
  2
SW_NOTE_5
 10
47.1682151578
 20
153.7714622808
 30
0.0
  0
LEADER
  5
391
330
1F
100
AcDbEntity
  8
寸法線
100
AcDbLeader
  3
SLDDIMSTYLE1
 76
     2
 10
55.6392684541
 20
131.8651532234
 30
0.0
 10
47.1682151578
 20
153.7714622808
 30
0.0
  0
INSERT
  5
39E
330
1F
100
AcDbEntity
  8
寸法線
100
AcDbBlockReference
  2
SW_NOTE_6
 10
51.7426977118
 20
57.2592160709
 30
0.0
  0
LEADER
  5
39F
330
1F
100
AcDbEntity
  8
寸法線
100
AcDbLeader
  3
SLDDIMSTYLE1
 76
     2
 10
55.8066685979
 20
88.2471316937
 30
0.0
 10
51.7426977118
 20
57.2592160709
 30
0.0
  0
INSERT
  5
3AF
330
1F
100
AcDbEntity
  8
寸法線
100
AcDbBlockReference
  2
SW_NOTE_7
 10
58.4569178196
 20
53.4054479111
 30
0.0
  0
LEADER
  5
3B0
330
1F
100
AcDbEntity
  8
寸法線
100
AcDbLeader
  3
SLDDIMSTYLE1
 76
     2
 10
66.6953769288
 20
94.3651532234
 30
0.0
 10
58.4569178196
 20
53.4054479111
 30
0.0
  0
INSERT
  5
3BC
330
1F
100
AcDbEntity
  8
寸法線
100
AcDbBlockReference
  2
SW_NOTE_8
 10
70.3767123602
 20
149.3911618434
 30
0.0
  0
LEADER
  5
3BD
330
1F
100
AcDbEntity
  8
寸法線
100
AcDbLeader
  3
SLDDIMSTYLE0
 76
     2
 10
59.5414243863
 20
115.9951604992
 30
0.0
 10
70.3767123602
 20
149.3911618434
 30
0.0
  0
INSERT
  5
3C9
330
1F
100
AcDbEntity
  8
0
  6
Continuous
 62
     7
370
     0
100
AcDbBlockReference
  2
SW_CENTERMARKSYMBOL_5
 10
56.4501209541
 20
89.293724652
 30
0.0
  0
INSERT
  5
3D5
330
1F
100
AcDbEntity
  8
中心線
100
AcDbBlockReference
  2
SW_CENTERMARKSYMBOL_6
 10
56.4501209541
 20
109.7222960806
 30
0.0
  0
LINE
  5
3D6
330
1F
100
AcDbEntity
  8
0
  6
CENTERX2
 62
     7
370
     0
100
AcDbLine
 10
56.4501209541
 20
133.8651532234
 30
0.0
 11
56.4501209541
 21
126.8651532234
 31
0.0
  0
ENDSEC
  0
SECTION
  2
OBJECTS
  0
DICTIONARY
  5
C
330
0
100
AcDbDictionary
281
     1
  3
ACAD_GROUP
350
D
  3
ACAD_LAYOUT
350
1A
  3
ACAD_MLINESTYLE
350
17
  3
ACAD_PLOTSETTINGS
350
19
  3
ACAD_PLOTSTYLENAME
350
E
  0
DICTIONARY
  5
D
102
{ACAD_REACTORS
330
C
102
}
330
C
100
AcDbDictionary
281
     1
  0
DICTIONARY
  5
1A
102
{ACAD_REACTORS
330
C
102
}
330
C
100
AcDbDictionary
281
     1
  3
Layout1
350
1E
  3
Layout2
350
26
  3
Model
350
22
  0
DICTIONARY
  5
17
102
{ACAD_REACTORS
330
C
102
}
330
C
100
AcDbDictionary
281
     1
  3
Standard
350
18
  0
DICTIONARY
  5
19
102
{ACAD_REACTORS
330
C
102
}
330
C
100
AcDbDictionary
281
     1
  0
ACDBDICTIONARYWDFLT
  5
E
102
{ACAD_REACTORS
330
C
102
}
330
C
100
AcDbDictionary
281
     1
  3
Normal
350
F
100
AcDbDictionaryWithDefault
340
F
  0
LAYOUT
  5
1E
102
{ACAD_REACTORS
330
1A
102
}
330
1A
100
AcDbPlotSettings
  1

  2
none_device
  4

  6

 40
0.0
 41
0.0
 42
0.0
 43
0.0
 44
0.0
 45
0.0
 46
0.0
 47
0.0
 48
0.0
 49
0.0
140
0.0
141
0.0
142
1.0
143
1.0
 70
   688
 72
     0
 73
     0
 74
     5
  7

 75
    16
147
1.0
148
0.0
149
0.0
100
AcDbLayout
  1
Layout1
 70
     1
 71
     1
 10
0.0
 20
0.0
 11
420.0
 21
297.0
 12
0.0
 22
0.0
 32
0.0
 14
1.0000000000E+20
 24
1.0000000000E+20
 34
1.0000000000E+20
 15
-1.0000000000E+20
 25
-1.0000000000E+20
 35
-1.0000000000E+20
146
0.0
 13
0.0
 23
0.0
 33
0.0
 16
1.0
 26
0.0
 36
0.0
 17
0.0
 27
1.0
 37
0.0
 76
     0
330
1B
  0
LAYOUT
  5
26
102
{ACAD_REACTORS
330
1A
102
}
330
1A
100
AcDbPlotSettings
  1

  2
none_device
  4

  6

 40
0.0
 41
0.0
 42
0.0
 43
0.0
 44
0.0
 45
0.0
 46
0.0
 47
0.0
 48
0.0
 49
0.0
140
0.0
141
0.0
142
1.0
143
1.0
 70
   688
 72
     0
 73
     0
 74
     5
  7

 75
    16
147
1.0
148
0.0
149
0.0
100
AcDbLayout
  1
Layout2
 70
     1
 71
     2
 10
0.0
 20
0.0
 11
0.0
 21
0.0
 12
0.0
 22
0.0
 32
0.0
 14
0.0
 24
0.0
 34
0.0
 15
0.0
 25
0.0
 35
0.0
146
0.0
 13
0.0
 23
0.0
 33
0.0
 16
1.0
 26
0.0
 36
0.0
 17
0.0
 27
1.0
 37
0.0
 76
     0
330
23
  0
LAYOUT
  5
22
102
{ACAD_REACTORS
330
1A
102
}
330
1A
100
AcDbPlotSettings
  1

  2
none_device
  4

  6

 40
0.0
 41
0.0
 42
0.0
 43
0.0
 44
0.0
 45
0.0
 46
0.0
 47
0.0
 48
0.0
 49
0.0
140
0.0
141
0.0
142
1.0
143
1.0
 70
  1712
 72
     0
 73
     0
 74
     0
  7

 75
     0
147
1.0
148
0.0
149
0.0
100
AcDbLayout
  1
Model
 70
     1
 71
     0
 10
0.0
 20
0.0
 11
0.0
 21
0.0
 12
0.0
 22
0.0
 32
0.0
 14
0.0
 24
0.0
 34
0.0
 15
297.0
 25
210.0
 35
0.0
146
0.0
 13
0.0
 23
0.0
 33
0.0
 16
1.0
 26
0.0
 36
0.0
 17
0.0
 27
1.0
 37
0.0
 76
     0
330
1F
  0
MLINESTYLE
  5
18
102
{ACAD_REACTORS
330
17
102
}
330
17
100
AcDbMlineStyle
  2
Standard
 70
     0
  3

 62
   256
 51
90.0
 52
90.0
 71
     2
 49
0.5
 62
   256
  6
BYLAYER
 49
-0.5
 62
   256
  6
BYLAYER
  0
ACDBPLACEHOLDER
  5
F
102
{ACAD_REACTORS
330
E
102
}
330
E
  0
ENDSEC
  0
EOF
