  0
SECTION
  2
HEADER
  9
$ACADVER
  1
AC1015
  9
$ACADMAINTVER
 70
     6
  9
$DWGCODEPAGE
  3
DOS932
  9
$INSBASE
 10
0.0
 20
0.0
 30
0.0
  9
$EXTMIN
 10
0.0
 20
0.0
 30
0.0
  9
$EXTMAX
 10
297.0
 20
210.0
 30
0.0
  9
$LIMMIN
 10
0.0
 20
0.0
  9
$LIMMAX
 10
0.0
 20
0.0
  9
$ORTHOMODE
 70
     0
  9
$REGENMODE
 70
     1
  9
$FILLMODE
 70
     1
  9
$QTEXTMODE
 70
     0
  9
$MIRRTEXT
 70
     1
  9
$LTSCALE
 40
1.0
  9
$ATTMODE
 70
     1
  9
$TEXTSIZE
 40
3.175
  9
$TRACEWID
 40
1.0
  9
$TEXTSTYLE
  7
Standard
  9
$CLAYER
  8
0
  9
$CELTYPE
  6
ByLayer
  9
$CECOLOR
 62
   256
  9
$CELTSCALE
 40
1.0
  9
$DISPSILH
 70
     0
  9
$DIMSCALE
 40
1.0
  9
$DIMASZ
 40
2.0
  9
$DIMEXO
 40
1.0
  9
$DIMDLI
 40
3.75
  9
$DIMRND
 40
0.0
  9
$DIMDLE
 40
0.0
  9
$DIMEXE
 40
1.0
  9
$DIMTP
 40
0.0
  9
$DIMTM
 40
0.0
  9
$DIMTXT
 40
3.175
  9
$DIMCEN
 40
2.5
  9
$DIMTSZ
 40
0.0
  9
$DIMTOL
 70
     0
  9
$DIMLIM
 70
     0
  9
$DIMTIH
 70
     1
  9
$DIMTOH
 70
     1
  9
$DIMSE1
 70
     0
  9
$DIMSE2
 70
     0
  9
$DIMTAD
 70
     1
  9
$DIMZIN
 70
     0
  9
$DIMBLK
  1

  9
$DIMASO
 70
     1
  9
$DIMSHO
 70
     1
  9
$DIMPOST
  1

  9
$DIMAPOST
  1

  9
$DIMALT
 70
     0
  9
$DIMALTD
 70
     3
  9
$DIMALTF
 40
0.0393700787
  9
$DIMLFAC
 40
10.0
  9
$DIMTOFL
 70
     1
  9
$DIMTVP
 40
0.0
  9
$DIMTIX
 70
     0
  9
$DIMSOXD
 70
     0
  9
$DIMSAH
 70
     0
  9
$DIMBLK1
  1

  9
$DIMBLK2
  1

  9
$DIMSTYLE
  2
ISO-25
  9
$DIMCLRD
 70
     0
  9
$DIMCLRE
 70
     0
  9
$DIMCLRT
 70
     0
  9
$DIMTFAC
 40
1.0
  9
$DIMGAP
 40
1.524
  9
$DIMJUST
 70
     0
  9
$DIMSD1
 70
     0
  9
$DIMSD2
 70
     0
  9
$DIMTOLJ
 70
     0
  9
$DIMTZIN
 70
     0
  9
$DIMALTZ
 70
     0
  9
$DIMALTTZ
 70
     0
  9
$DIMUPT
 70
     0
  9
$DIMDEC
 70
     2
  9
$DIMTDEC
 70
     2
  9
$DIMALTU
 70
     2
  9
$DIMALTTD
 70
     3
  9
$DIMTXSTY
  7
Standard
  9
$DIMAUNIT
 70
     0
  9
$DIMADEC
 70
     0
  9
$DIMALTRND
 40
0.0
  9
$DIMAZIN
 70
     0
  9
$DIMDSEP
 70
    44
  9
$DIMATFIT
 70
     3
  9
$DIMFRAC
 70
     0
  9
$DIMLDRBLK
  1

  9
$DIMLUNIT
 70
     2
  9
$DIMLWD
 70
    -2
  9
$DIMLWE
 70
    -2
  9
$DIMTMOVE
 70
     0
  9
$LUNITS
 70
     2
  9
$LUPREC
 70
     2
  9
$SKETCHINC
 40
1.0
  9
$FILLETRAD
 40
10.0
  9
$AUNITS
 70
     0
  9
$AUPREC
 70
     0
  9
$MENU
  1
.
  9
$ELEVATION
 40
0.0
  9
$PELEVATION
 40
0.0
  9
$THICKNESS
 40
0.0
  9
$LIMCHECK
 70
     0
  9
$CHAMFERA
 40
10.0
  9
$CHAMFERB
 40
10.0
  9
$CHAMFERC
 40
20.0
  9
$CHAMFERD
 40
0.0
  9
$SKPOLY
 70
     0
  9
$TDCREATE
 40
2455624.692708322
  9
$TDUCREATE
 40
2455624.317708322
  9
$TDUPDATE
 40
2455624.692708333
  9
$TDUUPDATE
 40
2455624.317708333
  9
$TDINDWG
 40
0.0000000116
  9
$TDUSRTIMER
 40
0.0000000116
  9
$USRTIMER
 70
     1
  9
$ANGBASE
 50
0.0
  9
$ANGDIR
 70
     0
  9
$PDMODE
 70
     0
  9
$PDSIZE
 40
-1.0
  9
$PLINEWID
 40
0.0
  9
$SPLFRAME
 70
     0
  9
$SPLINETYPE
 70
     6
  9
$SPLINESEGS
 70
     8
  9
$HANDSEED
  5
400
  9
$SURFTAB1
 70
     6
  9
$SURFTAB2
 70
     6
  9
$SURFTYPE
 70
     6
  9
$SURFU
 70
     6
  9
$SURFV
 70
     6
  9
$UCSBASE
  2

  9
$UCSNAME
  2

  9
$UCSORG
 10
0.0
 20
0.0
 30
0.0
  9
$UCSXDIR
 10
1.0
 20
0.0
 30
0.0
  9
$UCSYDIR
 10
0.0
 20
1.0
 30
0.0
  9
$UCSORTHOREF
  2

  9
$UCSORTHOVIEW
 70
     0
  9
$UCSORGTOP
 10
0.0
 20
0.0
 30
0.0
  9
$UCSORGBOTTOM
 10
0.0
 20
0.0
 30
0.0
  9
$UCSORGLEFT
 10
0.0
 20
0.0
 30
0.0
  9
$UCSORGRIGHT
 10
0.0
 20
0.0
 30
0.0
  9
$UCSORGFRONT
 10
0.0
 20
0.0
 30
0.0
  9
$UCSORGBACK
 10
0.0
 20
0.0
 30
0.0
  9
$PUCSBASE
  2

  9
$PUCSNAME
  2

  9
$PUCSORG
 10
0.0
 20
0.0
 30
0.0
  9
$PUCSXDIR
 10
1.0
 20
0.0
 30
0.0
  9
$PUCSYDIR
 10
0.0
 20
1.0
 30
0.0
  9
$PUCSORTHOREF
  2

  9
$PUCSORTHOVIEW
 70
     0
  9
$PUCSORGTOP
 10
0.0
 20
0.0
 30
0.0
  9
$PUCSORGBOTTOM
 10
0.0
 20
0.0
 30
0.0
  9
$PUCSORGLEFT
 10
0.0
 20
0.0
 30
0.0
  9
$PUCSORGRIGHT
 10
0.0
 20
0.0
 30
0.0
  9
$PUCSORGFRONT
 10
0.0
 20
0.0
 30
0.0
  9
$PUCSORGBACK
 10
0.0
 20
0.0
 30
0.0
  9
$USERI1
 70
     0
  9
$USERI2
 70
     0
  9
$USERI3
 70
     0
  9
$USERI4
 70
     0
  9
$USERI5
 70
     0
  9
$USERR1
 40
0.0
  9
$USERR2
 40
0.0
  9
$USERR3
 40
0.0
  9
$USERR4
 40
0.0
  9
$USERR5
 40
0.0
  9
$WORLDVIEW
 70
     1
  9
$SHADEDGE
 70
     3
  9
$SHADEDIF
 70
    70
  9
$TILEMODE
 70
     1
  9
$MAXACTVP
 70
    64
  9
$PINSBASE
 10
0.0
 20
0.0
 30
0.0
  9
$PLIMCHECK
 70
     0
  9
$PEXTMIN
 10
1.0000000000E+20
 20
1.0000000000E+20
 30
1.0000000000E+20
  9
$PEXTMAX
 10
-1.0000000000E+20
 20
-1.0000000000E+20
 30
-1.0000000000E+20
  9
$PLIMMIN
 10
0.0
 20
0.0
  9
$PLIMMAX
 10
420.0
 20
297.0
  9
$UNITMODE
 70
     0
  9
$VISRETAIN
 70
     1
  9
$PLINEGEN
 70
     0
  9
$PSLTSCALE
 70
     1
  9
$TREEDEPTH
 70
  3020
  9
$CMLSTYLE
  2
Standard
  9
$CMLJUST
 70
     0
  9
$CMLSCALE
 40
20.0
  9
$PROXYGRAPHICS
 70
     1
  9
$MEASUREMENT
 70
     1
  9
$CELWEIGHT
370
    -1
  9
$ENDCAPS
280
     0
  9
$JOINSTYLE
280
     0
  9
$LWDISPLAY
290
     1
  9
$INSUNITS
 70
     4
  9
$HYPERLINKBASE
  1

  9
$STYLESHEET
  1

  9
$XEDIT
290
     1
  9
$CEPSNTYPE
380
     0
  9
$PSTYLEMODE
290
     1
  9
$FINGERPRINTGUID
  2
{1C2C2A92-13F7-4F0B-B7C6-6269C26BABAB}
  9
$VERSIONGUID
  2
{FAEB1C32-E019-11D5-929B-00C0DF256EC4}
  9
$EXTNAMES
290
     1
  9
$PSVPSCALE
 40
0.0
  9
$OLESTARTUP
290
     0
  0
ENDSEC
  0
SECTION
  2
CLASSES
  0
CLASS
  1
ACDBDICTIONARYWDFLT
  2
AcDbDictionaryWithDefault
  3
ObjectDBX Classes
 90
        0
280
     0
281
     0
  0
CLASS
  1
ACDBPLACEHOLDER
  2
AcDbPlaceHolder
  3
ObjectDBX Classes
 90
        0
280
     0
281
     0
  0
CLASS
  1
LAYOUT
  2
AcDbLayout
  3
ObjectDBX Classes
 90
        0
280
     0
281
     0
  0
ENDSEC
  0
SECTION
  2
TABLES
  0
TABLE
  2
VPORT
  5
8
330
0
100
AcDbSymbolTable
 70
     1
  0
VPORT
  5
29
330
8
100
AcDbSymbolTableRecord
100
AcDbViewportTableRecord
  2
*Active
 70
     0
 10
0.0
 20
0.0
 11
1.0
 21
1.0
 12
148.5
 22
105.0
 13
0.0
 23
0.0
 14
10.0
 24
10.0
 15
10.0
 25
10.0
 16
0.0
 26
0.0
 36
1.0
 17
0.0
 27
0.0
 37
0.0
 40
210.0
 41
1.4142857143
 42
50.0
 43
0.0
 44
0.0
 50
0.0
 51
0.0
 71
     0
 72
  2000
 73
     1
 74
     3
 75
     0
 76
     0
 77
     0
 78
     0
281
     0
 65
     1
110
0.0
120
0.0
130
0.0
111
1.0
121
0.0
131
0.0
112
0.0
122
1.0
132
0.0
 79
     0
146
0.0
  0
ENDTAB
  0
TABLE
  2
LTYPE
  5
5
330
0
100
AcDbSymbolTable
 70
     6
  0
LTYPE
  5
14
330
5
100
AcDbSymbolTableRecord
100
AcDbLinetypeTableRecord
  2
ByBlock
 70
     0
  3

 72
    65
 73
     0
 40
0.0
  0
LTYPE
  5
15
330
5
100
AcDbSymbolTableRecord
100
AcDbLinetypeTableRecord
  2
ByLayer
 70
     0
  3

 72
    65
 73
     0
 40
0.0
  0
LTYPE
  5
16
330
5
100
AcDbSymbolTableRecord
100
AcDbLinetypeTableRecord
  2
Continuous
 70
     0
  3
Solid line
 72
    65
 73
     0
 40
0.0
  0
LTYPE
  5
2A
330
5
100
AcDbSymbolTableRecord
100
AcDbLinetypeTableRecord
  2
HIDDEN
 70
     0
  3
Hidden __ __ __ __ __ __ __ __ __ __ __ __ __ __
 72
    65
 73
     2
 40
1.905
 49
1.27
 74
     0
 49
-0.635
 74
     0
  0
LTYPE
  5
2B
330
5
100
AcDbSymbolTableRecord
100
AcDbLinetypeTableRecord
  2
PHANTOM
 70
     0
  3
Phantom ______  __  __  ______  __  __  ______
 72
    65
 73
     6
 40
12.7
 49
6.35
 74
     0
 49
-1.27
 74
     0
 49
1.27
 74
     0
 49
-1.27
 74
     0
 49
1.27
 74
     0
 49
-1.27
 74
     0
  0
LTYPE
  5
2C
330
5
100
AcDbSymbolTableRecord
100
AcDbLinetypeTableRecord
  2
CENTER
 70
     0
  3
Center ____ _ ____ _ ____ _ ____ _ ____ _ ____
 72
    65
 73
     4
 40
10.16
 49
6.35
 74
     0
 49
-1.27
 74
     0
 49
1.27
 74
     0
 49
-1.27
 74
     0
  0
LTYPE
  5
2D
330
5
100
AcDbSymbolTableRecord
100
AcDbLinetypeTableRecord
  2
CENTERX2
 70
     0
  3
Center (2x) ________  __  ________  __  _____
 72
    65
 73
     4
 40
20.32
 49
12.7
 74
     0
 49
-2.54
 74
     0
 49
2.54
 74
     0
 49
-2.54
 74
     0
  0
LTYPE
  5
2E
330
5
100
AcDbSymbolTableRecord
100
AcDbLinetypeTableRecord
  2
DOT2
 70
     0
  3
Dot (.5x) ........................................
 72
    65
 73
     2
 40
0.635
 49
0.0
 74
     0
 49
-0.635
 74
     0
  0
ENDTAB
  0
TABLE
  2
LAYER
  5
2
330
0
100
AcDbSymbolTable
 70
     5
  0
LAYER
  5
10
330
2
100
AcDbSymbolTableRecord
100
AcDbLayerTableRecord
  2
0
 70
     0
 62
     7
  6
Continuous
370
    -3
390
F
  0
LAYER
  5
2F
330
2
100
AcDbSymbolTableRecord
100
AcDbLayerTableRecord
  2
ﾚｲﾔｰ0
 70
     0
 62
  -211
  6
Continuous
370
    -3
390
F
  0
LAYER
  5
30
330
2
100
AcDbSymbolTableRecord
100
AcDbLayerTableRecord
  2
1
 70
     0
 62
  -179
  6
Continuous
370
    -3
390
F
  0
LAYER
  5
31
330
2
100
AcDbSymbolTableRecord
100
AcDbLayerTableRecord
  2
SLD-0_0
 70
     0
 62
  -179
  6
Continuous
370
    -3
390
F
  0
LAYER
  5
32
330
2
100
AcDbSymbolTableRecord
100
AcDbLayerTableRecord
  2
SLD-0
 70
     0
 62
  -179
  6
Continuous
370
    -3
390
F
  0
ENDTAB
  0
TABLE
  2
STYLE
  5
3
330
0
100
AcDbSymbolTable
 70
     4
  0
STYLE
  5
11
330
3
100
AcDbSymbolTableRecord
100
AcDbTextStyleTableRecord
  2
Standard
 70
     0
 40
0.0
 41
1.0
 50
0.0
 71
     0
 42
2.5
  3
txt
  4
bigfont
  0
STYLE
  5
39
330
3
100
AcDbSymbolTableRecord
100
AcDbTextStyleTableRecord
  2
SLDTEXTSTYLE0
 70
     0
 40
0.0
 41
0.7
 50
0.0
 71
     0
 42
0.2
  3
TXT
  4
bigfont
  0
STYLE
  5
3E
330
3
100
AcDbSymbolTableRecord
100
AcDbTextStyleTableRecord
  2
SLDTEXTSTYLE1
 70
     0
 40
0.0
 41
0.63
 50
0.0
 71
     0
 42
0.2
  3
TXT
  4
bigfont
  0
STYLE
  5
11E
330
3
100
AcDbSymbolTableRecord
100
AcDbTextStyleTableRecord
  2
SLDTEXTSTYLE2
 70
     0
 40
0.0
 41
0.65625
 50
0.0
 71
     0
 42
0.2
  3
TXT
  4
bigfont
  0
ENDTAB
  0
TABLE
  2
VIEW
  5
6
330
0
100
AcDbSymbolTable
 70
     0
  0
ENDTAB
  0
TABLE
  2
UCS
  5
7
330
0
100
AcDbSymbolTable
 70
     0
  0
ENDTAB
  0
TABLE
  2
APPID
  5
9
330
0
100
AcDbSymbolTable
 70
     1
  0
APPID
  5
12
330
9
100
AcDbSymbolTableRecord
100
AcDbRegAppTableRecord
  2
ACAD
 70
     0
  0
ENDTAB
  0
TABLE
  2
DIMSTYLE
  5
A
330
0
100
AcDbSymbolTable
 70
     2
100
AcDbDimStyleTable
  0
DIMSTYLE
105
27
330
A
100
AcDbSymbolTableRecord
100
AcDbDimStyleTableRecord
  2
ISO-25
 70
     0
 41
2.5
 42
0.625
 43
3.75
 44
1.25
 73
     0
 74
     0
 77
     1
 78
     8
140
2.5
141
2.5
143
0.0393700787
147
0.625
171
     3
172
     1
271
     2
272
     2
274
     3
278
    44
283
     0
284
     8
340
11
  0
DIMSTYLE
105
112
330
A
100
AcDbSymbolTableRecord
100
AcDbDimStyleTableRecord
  2
SLDDIMSTYLE0
 70
     0
 41
2.0
 44
0.0
140
2.0
147
0.5
173
     1
271
     0
272
     0
340
11
  0
ENDTAB
  0
TABLE
  2
BLOCK_RECORD
  5
1
330
0
100
AcDbSymbolTable
 70
    17
  0
BLOCK_RECORD
  5
1F
330
1
100
AcDbSymbolTableRecord
100
AcDbBlockTableRecord
  2
*Model_Space
340
22
  0
BLOCK_RECORD
  5
1B
330
1
100
AcDbSymbolTableRecord
100
AcDbBlockTableRecord
  2
*Paper_Space
340
1E
  0
BLOCK_RECORD
  5
23
330
1
100
AcDbSymbolTableRecord
100
AcDbBlockTableRecord
  2
*Paper_Space0
340
26
  0
BLOCK_RECORD
  5
106
330
1
100
AcDbSymbolTableRecord
100
AcDbBlockTableRecord
  2
SW_NOTE_0
340
0
102
{BLKREFS
331
111
102
}
1001
ACAD
1000
DesignCenter Data
1002
{
1070
     1
1070
     0
1002
}
  0
BLOCK_RECORD
  5
114
330
1
100
AcDbSymbolTableRecord
100
AcDbBlockTableRecord
  2
SW_NOTE_1
340
0
102
{BLKREFS
331
120
102
}
1001
ACAD
1000
DesignCenter Data
1002
{
1070
     1
1070
     0
1002
}
  0
BLOCK_RECORD
  5
122
330
1
100
AcDbSymbolTableRecord
100
AcDbBlockTableRecord
  2
SW_NOTE_2
340
0
102
{BLKREFS
331
12D
102
}
1001
ACAD
1000
DesignCenter Data
1002
{
1070
     1
1070
     0
1002
}
  0
BLOCK_RECORD
  5
12F
330
1
100
AcDbSymbolTableRecord
100
AcDbBlockTableRecord
  2
SW_NOTE_3
340
0
102
{BLKREFS
331
13A
102
}
1001
ACAD
1000
DesignCenter Data
1002
{
1070
     1
1070
     0
1002
}
  0
BLOCK_RECORD
  5
13C
330
1
100
AcDbSymbolTableRecord
100
AcDbBlockTableRecord
  2
SW_NOTE_4
340
0
102
{BLKREFS
331
147
102
}
1001
ACAD
1000
DesignCenter Data
1002
{
1070
     1
1070
     0
1002
}
  0
BLOCK_RECORD
  5
149
330
1
100
AcDbSymbolTableRecord
100
AcDbBlockTableRecord
  2
SW_CENTERMARKSYMBOL_0
340
0
102
{BLKREFS
331
154
102
}
1001
ACAD
1000
DesignCenter Data
1002
{
1070
     1
1070
     0
1002
}
  0
BLOCK_RECORD
  5
155
330
1
100
AcDbSymbolTableRecord
100
AcDbBlockTableRecord
  2
SW_CENTERMARKSYMBOL_1
340
0
102
{BLKREFS
331
160
102
}
1001
ACAD
1000
DesignCenter Data
1002
{
1070
     1
1070
     0
1002
}
  0
BLOCK_RECORD
  5
1D9
330
1
100
AcDbSymbolTableRecord
100
AcDbBlockTableRecord
  2
SW_NOTE_5
340
0
102
{BLKREFS
331
1E4
102
}
1001
ACAD
1000
DesignCenter Data
1002
{
1070
     1
1070
     0
1002
}
  0
BLOCK_RECORD
  5
1E6
330
1
100
AcDbSymbolTableRecord
100
AcDbBlockTableRecord
  2
SW_NOTE_6
340
0
102
{BLKREFS
331
1F1
102
}
1001
ACAD
1000
DesignCenter Data
1002
{
1070
     1
1070
     0
1002
}
  0
BLOCK_RECORD
  5
1F3
330
1
100
AcDbSymbolTableRecord
100
AcDbBlockTableRecord
  2
SW_NOTE_7
340
0
102
{BLKREFS
331
1FE
102
}
1001
ACAD
1000
DesignCenter Data
1002
{
1070
     1
1070
     0
1002
}
  0
BLOCK_RECORD
  5
200
330
1
100
AcDbSymbolTableRecord
100
AcDbBlockTableRecord
  2
SW_CENTERMARKSYMBOL_2
340
0
102
{BLKREFS
331
20B
102
}
1001
ACAD
1000
DesignCenter Data
1002
{
1070
     1
1070
     0
1002
}
  0
BLOCK_RECORD
  5
369
330
1
100
AcDbSymbolTableRecord
100
AcDbBlockTableRecord
  2
SW_NOTE_8
340
0
102
{BLKREFS
331
374
102
}
1001
ACAD
1000
DesignCenter Data
1002
{
1070
     1
1070
     0
1002
}
  0
BLOCK_RECORD
  5
3D0
330
1
100
AcDbSymbolTableRecord
100
AcDbBlockTableRecord
  2
SW_CENTERMARKSYMBOL_3
340
0
102
{BLKREFS
331
3DB
102
}
1001
ACAD
1000
DesignCenter Data
1002
{
1070
     1
1070
     0
1002
}
  0
BLOCK_RECORD
  5
3DC
330
1
100
AcDbSymbolTableRecord
100
AcDbBlockTableRecord
  2
SW_CENTERMARKSYMBOL_4
340
0
102
{BLKREFS
331
3E7
102
}
1001
ACAD
1000
DesignCenter Data
1002
{
1070
     1
1070
     0
1002
}
  0
BLOCK_RECORD
  5
3E8
330
1
100
AcDbSymbolTableRecord
100
AcDbBlockTableRecord
  2
SW_CENTERMARKSYMBOL_5
340
0
102
{BLKREFS
331
3F3
102
}
1001
ACAD
1000
DesignCenter Data
1002
{
1070
     1
1070
     0
1002
}
  0
BLOCK_RECORD
  5
3F4
330
1
100
AcDbSymbolTableRecord
100
AcDbBlockTableRecord
  2
SW_CENTERMARKSYMBOL_6
340
0
102
{BLKREFS
331
3FF
102
}
1001
ACAD
1000
DesignCenter Data
1002
{
1070
     1
1070
     0
1002
}
  0
ENDTAB
  0
ENDSEC
  0
SECTION
  2
BLOCKS
  0
BLOCK
  5
20
330
1F
100
AcDbEntity
  8
0
100
AcDbBlockBegin
  2
*Model_Space
 70
     0
 71
     0
 10
0.0
 20
0.0
 30
0.0
  3
*Model_Space
  1

  0
ENDBLK
  5
21
330
1F
100
AcDbEntity
  8
0
100
AcDbBlockEnd
  0
BLOCK
  5
1C
330
1B
100
AcDbEntity
 67
     1
  8
0
100
AcDbBlockBegin
  2
*Paper_Space
 70
     0
 71
     0
 10
0.0
 20
0.0
 30
0.0
  3
*Paper_Space
  1

  0
ENDBLK
  5
1D
330
1B
100
AcDbEntity
 67
     1
  8
0
100
AcDbBlockEnd
  0
BLOCK
  5
24
330
23
100
AcDbEntity
  8
0
100
AcDbBlockBegin
  2
*Paper_Space0
 70
     0
 71
     0
 10
0.0
 20
0.0
 30
0.0
  3
*Paper_Space0
  1

  0
ENDBLK
  5
25
330
23
100
AcDbEntity
  8
0
100
AcDbBlockEnd
  0
BLOCK
  5
107
330
106
100
AcDbEntity
  8
0
100
AcDbBlockBegin
  2
SW_NOTE_0
 70
     0
 71
     0
 10
0.0
 20
0.0
 30
0.0
  3
SW_NOTE_0
  1

  0
LINE
  5
109
330
106
100
AcDbEntity
  8
1
 62
     0
100
AcDbLine
 10
0.0
 20
0.0
 30
0.0
 11
9.5253684094
 21
0.0
 31
0.0
  0
LINE
  5
10A
330
106
100
AcDbEntity
  8
1
 62
     0
100
AcDbLine
 10
9.5253684094
 20
0.0
 30
0.0
 11
0.0
 21
0.0
 31
0.0
  0
LINE
  5
10B
330
106
100
AcDbEntity
  8
1
 62
     0
100
AcDbLine
 10
0.0
 20
0.0
 30
0.0
 11
9.5253684094
 21
0.0
 31
0.0
  0
LINE
  5
10C
330
106
100
AcDbEntity
  8
1
 62
     0
100
AcDbLine
 10
9.5253684094
 20
0.0
 30
0.0
 11
0.0
 21
0.0
 31
0.0
  0
LINE
  5
10D
330
106
100
AcDbEntity
  8
1
 62
     0
100
AcDbLine
 10
0.0
 20
0.0
 30
0.0
 11
9.5253684094
 21
0.0
 31
0.0
  0
LINE
  5
10E
330
106
100
AcDbEntity
  8
1
 62
     0
100
AcDbLine
 10
9.5253684094
 20
0.0
 30
0.0
 11
0.0
 21
0.0
 31
0.0
  0
MTEXT
  5
10F
330
106
100
AcDbEntity
  8
1
 62
     0
100
AcDbMText
 10
0.0023135477
 20
5.9471699109
 30
0.0
 40
2.38125
 41
0.0
 71
     1
 72
     1
  1
電動機
  7
SLDTEXTSTYLE0
 73
     1
 44
1.0
  0
MTEXT
  5
110
330
106
100
AcDbEntity
  8
1
 62
     0
100
AcDbMText
 10
0.0023135477
 20
2.7721699493
 30
0.0
 40
2.38125
 41
0.0
 71
     1
 72
     1
  1
Motor
  7
SLDTEXTSTYLE0
 73
     1
 44
1.0
  0
ENDBLK
  5
108
330
106
100
AcDbEntity
  8
0
100
AcDbBlockEnd
  0
BLOCK
  5
115
330
114
100
AcDbEntity
  8
0
100
AcDbBlockBegin
  2
SW_NOTE_1
 70
     0
 71
     0
 10
0.0
 20
0.0
 30
0.0
  3
SW_NOTE_1
  1

  0
LINE
  5
117
330
114
100
AcDbEntity
  8
1
 62
     0
100
AcDbLine
 10
0.0
 20
0.0
 30
0.0
 11
28.5761052282
 21
0.0
 31
0.0
  0
LINE
  5
118
330
114
100
AcDbEntity
  8
1
 62
     0
100
AcDbLine
 10
28.5761052282
 20
0.0
 30
0.0
 11
0.0
 21
0.0
 31
0.0
  0
LINE
  5
119
330
114
100
AcDbEntity
  8
1
 62
     0
100
AcDbLine
 10
0.0
 20
0.0
 30
0.0
 11
28.5761052282
 21
0.0
 31
0.0
  0
LINE
  5
11A
330
114
100
AcDbEntity
  8
1
 62
     0
100
AcDbLine
 10
28.5761052282
 20
0.0
 30
0.0
 11
0.0
 21
0.0
 31
0.0
  0
LINE
  5
11B
330
114
100
AcDbEntity
  8
1
 62
     0
100
AcDbLine
 10
0.0
 20
0.0
 30
0.0
 11
28.5761052282
 21
0.0
 31
0.0
  0
LINE
  5
11C
330
114
100
AcDbEntity
  8
1
 62
     0
100
AcDbLine
 10
28.5761052282
 20
0.0
 30
0.0
 11
0.0
 21
0.0
 31
0.0
  0
MTEXT
  5
11D
330
114
100
AcDbEntity
  8
1
 62
     0
100
AcDbMText
 10
0.0039146359
 20
5.9514851777
 30
0.0
 40
2.38125
 41
0.0
 71
     1
 72
     1
  1
電動機端子箱
  7
SLDTEXTSTYLE0
 73
     1
 44
1.0
  0
MTEXT
  5
11F
330
114
100
AcDbEntity
  8
1
 62
     0
100
AcDbMText
 10
0.0039146359
 20
2.7764852161
 30
0.0
 40
2.38125
 41
0.0
 71
     1
 72
     1
  1
Motor terminal box
  7
SLDTEXTSTYLE2
 73
     1
 44
1.0
  0
ENDBLK
  5
116
330
114
100
AcDbEntity
  8
0
100
AcDbBlockEnd
  0
BLOCK
  5
123
330
122
100
AcDbEntity
  8
0
100
AcDbBlockBegin
  2
SW_NOTE_2
 70
     0
 71
     0
 10
0.0
 20
0.0
 30
0.0
  3
SW_NOTE_2
  1

  0
LINE
  5
125
330
122
100
AcDbEntity
  8
1
 62
     0
100
AcDbLine
 10
0.0
 20
0.0
 30
0.0
 11
28.5761052282
 21
0.0
 31
0.0
  0
LINE
  5
126
330
122
100
AcDbEntity
  8
1
 62
     0
100
AcDbLine
 10
28.5761052282
 20
0.0
 30
0.0
 11
0.0
 21
0.0
 31
0.0
  0
LINE
  5
127
330
122
100
AcDbEntity
  8
1
 62
     0
100
AcDbLine
 10
0.0
 20
0.0
 30
0.0
 11
28.5761052282
 21
0.0
 31
0.0
  0
LINE
  5
128
330
122
100
AcDbEntity
  8
1
 62
     0
100
AcDbLine
 10
28.5761052282
 20
0.0
 30
0.0
 11
0.0
 21
0.0
 31
0.0
  0
LINE
  5
129
330
122
100
AcDbEntity
  8
1
 62
     0
100
AcDbLine
 10
0.0
 20
0.0
 30
0.0
 11
28.5761052282
 21
0.0
 31
0.0
  0
LINE
  5
12A
330
122
100
AcDbEntity
  8
1
 62
     0
100
AcDbLine
 10
28.5761052282
 20
0.0
 30
0.0
 11
0.0
 21
0.0
 31
0.0
  0
MTEXT
  5
12B
330
122
100
AcDbEntity
  8
1
 62
     0
100
AcDbMText
 10
0.0018964292
 20
5.9499275716
 30
0.0
 40
2.38125
 41
0.0
 71
     1
 72
     1
  1
電源コード取入れ口
  7
SLDTEXTSTYLE0
 73
     1
 44
1.0
  0
MTEXT
  5
12C
330
122
100
AcDbEntity
  8
1
 62
     0
100
AcDbMText
 10
0.0018964292
 20
2.77492761
 30
0.0
 40
2.38125
 41
0.0
 71
     1
 72
     1
  1
Power cable access
  7
SLDTEXTSTYLE2
 73
     1
 44
1.0
  0
ENDBLK
  5
124
330
122
100
AcDbEntity
  8
0
100
AcDbBlockEnd
  0
BLOCK
  5
130
330
12F
100
AcDbEntity
  8
0
100
AcDbBlockBegin
  2
SW_NOTE_3
 70
     0
 71
     0
 10
0.0
 20
0.0
 30
0.0
  3
SW_NOTE_3
  1

  0
LINE
  5
132
330
12F
100
AcDbEntity
  8
1
 62
     0
100
AcDbLine
 10
-15.8796639172
 20
0.0
 30
0.0
 11
0.0
 21
0.0
 31
0.0
  0
LINE
  5
133
330
12F
100
AcDbEntity
  8
1
 62
     0
100
AcDbLine
 10
0.0
 20
0.0
 30
0.0
 11
-15.8796639172
 21
0.0
 31
0.0
  0
LINE
  5
134
330
12F
100
AcDbEntity
  8
1
 62
     0
100
AcDbLine
 10
-15.8796639172
 20
0.0
 30
0.0
 11
0.0
 21
0.0
 31
0.0
  0
LINE
  5
135
330
12F
100
AcDbEntity
  8
1
 62
     0
100
AcDbLine
 10
0.0
 20
0.0
 30
0.0
 11
-15.8796639172
 21
0.0
 31
0.0
  0
LINE
  5
136
330
12F
100
AcDbEntity
  8
1
 62
     0
100
AcDbLine
 10
-15.8796639172
 20
0.0
 30
0.0
 11
0.0
 21
0.0
 31
0.0
  0
LINE
  5
137
330
12F
100
AcDbEntity
  8
1
 62
     0
100
AcDbLine
 10
0.0
 20
0.0
 30
0.0
 11
-15.8796639172
 21
0.0
 31
0.0
  0
MTEXT
  5
138
330
12F
100
AcDbEntity
  8
1
 62
     0
100
AcDbMText
 10
-15.8740614856
 20
5.9459347542
 30
0.0
 40
2.38125
 41
0.0
 71
     1
 72
     1
  1
ベース
  7
SLDTEXTSTYLE0
 73
     1
 44
1.0
  0
MTEXT
  5
139
330
12F
100
AcDbEntity
  8
1
 62
     0
100
AcDbMText
 10
-15.8740614856
 20
2.7709347926
 30
0.0
 40
2.38125
 41
0.0
 71
     1
 72
     1
  1
Motor base
  7
SLDTEXTSTYLE0
 73
     1
 44
1.0
  0
ENDBLK
  5
131
330
12F
100
AcDbEntity
  8
0
100
AcDbBlockEnd
  0
BLOCK
  5
13D
330
13C
100
AcDbEntity
  8
0
100
AcDbBlockBegin
  2
SW_NOTE_4
 70
     0
 71
     0
 10
0.0
 20
0.0
 30
0.0
  3
SW_NOTE_4
  1

  0
LINE
  5
13F
330
13C
100
AcDbEntity
  8
1
 62
     0
100
AcDbLine
 10
0.0
 20
0.0
 30
0.0
 11
15.8735890649
 21
0.0
 31
0.0
  0
LINE
  5
140
330
13C
100
AcDbEntity
  8
1
 62
     0
100
AcDbLine
 10
15.8735890649
 20
0.0
 30
0.0
 11
0.0
 21
0.0
 31
0.0
  0
LINE
  5
141
330
13C
100
AcDbEntity
  8
1
 62
     0
100
AcDbLine
 10
0.0
 20
0.0
 30
0.0
 11
15.8735890649
 21
0.0
 31
0.0
  0
LINE
  5
142
330
13C
100
AcDbEntity
  8
1
 62
     0
100
AcDbLine
 10
15.8735890649
 20
0.0
 30
0.0
 11
0.0
 21
0.0
 31
0.0
  0
LINE
  5
143
330
13C
100
AcDbEntity
  8
1
 62
     0
100
AcDbLine
 10
0.0
 20
0.0
 30
0.0
 11
15.8735890649
 21
0.0
 31
0.0
  0
LINE
  5
144
330
13C
100
AcDbEntity
  8
1
 62
     0
100
AcDbLine
 10
15.8735890649
 20
0.0
 30
0.0
 11
0.0
 21
0.0
 31
0.0
  0
MTEXT
  5
145
330
13C
100
AcDbEntity
  8
1
 62
     0
100
AcDbMText
 10
0.0033472947
 20
5.9504091638
 30
0.0
 40
2.38125
 41
0.0
 71
     1
 72
     1
  1
時間計
  7
SLDTEXTSTYLE0
 73
     1
 44
1.0
  0
MTEXT
  5
146
330
13C
100
AcDbEntity
  8
1
 62
     0
100
AcDbMText
 10
0.0033472947
 20
2.7754092022
 30
0.0
 40
2.38125
 41
0.0
 71
     1
 72
     1
  1
Hour meter
  7
SLDTEXTSTYLE0
 73
     1
 44
1.0
  0
ENDBLK
  5
13E
330
13C
100
AcDbEntity
  8
0
100
AcDbBlockEnd
  0
BLOCK
  5
14A
330
149
100
AcDbEntity
  8
0
100
AcDbBlockBegin
  2
SW_CENTERMARKSYMBOL_0
 70
     0
 71
     0
 10
0.0
 20
0.0
 30
0.0
  3
SW_CENTERMARKSYMBOL_0
  1

  0
LINE
  5
14C
330
149
100
AcDbEntity
  8
0
  6
Continuous
 62
     0
370
     0
100
AcDbLine
 10
0.0
 20
0.0
 30
0.0
 11
0.0
 21
0.25
 31
0.0
  0
LINE
  5
14D
330
149
100
AcDbEntity
  8
0
  6
Continuous
 62
     0
370
     0
100
AcDbLine
 10
0.0
 20
0.0
 30
0.0
 11
-0.25
 21
0.0
 31
0.0
  0
LINE
  5
14E
330
149
100
AcDbEntity
  8
0
  6
Continuous
 62
     0
370
     0
100
AcDbLine
 10
0.0
 20
0.0
 30
0.0
 11
0.0
 21
-0.25
 31
0.0
  0
LINE
  5
14F
330
149
100
AcDbEntity
  8
0
  6
Continuous
 62
     0
370
     0
100
AcDbLine
 10
0.0
 20
0.0
 30
0.0
 11
0.25
 21
0.0
 31
0.0
  0
LINE
  5
150
330
149
100
AcDbEntity
  8
0
  6
Continuous
 62
     0
370
     0
100
AcDbLine
 10
0.0
 20
0.5
 30
0.0
 11
0.0
 21
2.31
 31
0.0
  0
LINE
  5
151
330
149
100
AcDbEntity
  8
0
  6
Continuous
 62
     0
370
     0
100
AcDbLine
 10
-0.5
 20
0.0
 30
0.0
 11
-2.31
 21
0.0
 31
0.0
  0
LINE
  5
152
330
149
100
AcDbEntity
  8
0
  6
Continuous
 62
     0
370
     0
100
AcDbLine
 10
0.0
 20
-0.5
 30
0.0
 11
0.0
 21
-2.31
 31
0.0
  0
LINE
  5
153
330
149
100
AcDbEntity
  8
0
  6
Continuous
 62
     0
370
     0
100
AcDbLine
 10
0.5
 20
0.0
 30
0.0
 11
2.31
 21
0.0
 31
0.0
  0
ENDBLK
  5
14B
330
149
100
AcDbEntity
  8
0
100
AcDbBlockEnd
  0
BLOCK
  5
156
330
155
100
AcDbEntity
  8
0
100
AcDbBlockBegin
  2
SW_CENTERMARKSYMBOL_1
 70
     0
 71
     0
 10
0.0
 20
0.0
 30
0.0
  3
SW_CENTERMARKSYMBOL_1
  1

  0
LINE
  5
158
330
155
100
AcDbEntity
  8
0
  6
Continuous
 62
     0
370
     0
100
AcDbLine
 10
0.0
 20
0.0
 30
0.0
 11
0.0
 21
0.25
 31
0.0
  0
LINE
  5
159
330
155
100
AcDbEntity
  8
0
  6
Continuous
 62
     0
370
     0
100
AcDbLine
 10
0.0
 20
0.0
 30
0.0
 11
-0.25
 21
0.0
 31
0.0
  0
LINE
  5
15A
330
155
100
AcDbEntity
  8
0
  6
Continuous
 62
     0
370
     0
100
AcDbLine
 10
0.0
 20
0.0
 30
0.0
 11
0.0
 21
-0.25
 31
0.0
  0
LINE
  5
15B
330
155
100
AcDbEntity
  8
0
  6
Continuous
 62
     0
370
     0
100
AcDbLine
 10
0.0
 20
0.0
 30
0.0
 11
0.25
 21
0.0
 31
0.0
  0
LINE
  5
15C
330
155
100
AcDbEntity
  8
0
  6
Continuous
 62
     0
370
     0
100
AcDbLine
 10
0.0
 20
0.5
 30
0.0
 11
0.0
 21
2.25
 31
0.0
  0
LINE
  5
15D
330
155
100
AcDbEntity
  8
0
  6
Continuous
 62
     0
370
     0
100
AcDbLine
 10
-0.5
 20
0.0
 30
0.0
 11
-2.25
 21
0.0
 31
0.0
  0
LINE
  5
15E
330
155
100
AcDbEntity
  8
0
  6
Continuous
 62
     0
370
     0
100
AcDbLine
 10
0.0
 20
-0.5
 30
0.0
 11
0.0
 21
-2.25
 31
0.0
  0
LINE
  5
15F
330
155
100
AcDbEntity
  8
0
  6
Continuous
 62
     0
370
     0
100
AcDbLine
 10
0.5
 20
0.0
 30
0.0
 11
2.25
 21
0.0
 31
0.0
  0
ENDBLK
  5
157
330
155
100
AcDbEntity
  8
0
100
AcDbBlockEnd
  0
BLOCK
  5
1DA
330
1D9
100
AcDbEntity
  8
0
100
AcDbBlockBegin
  2
SW_NOTE_5
 70
     0
 71
     0
 10
0.0
 20
0.0
 30
0.0
  3
SW_NOTE_5
  1

  0
LINE
  5
1DC
330
1D9
100
AcDbEntity
  8
1
 62
     0
100
AcDbLine
 10
0.0
 20
0.0
 30
0.0
 11
9.5253684094
 21
0.0
 31
0.0
  0
LINE
  5
1DD
330
1D9
100
AcDbEntity
  8
1
 62
     0
100
AcDbLine
 10
9.5253684094
 20
0.0
 30
0.0
 11
0.0
 21
0.0
 31
0.0
  0
LINE
  5
1DE
330
1D9
100
AcDbEntity
  8
1
 62
     0
100
AcDbLine
 10
0.0
 20
0.0
 30
0.0
 11
9.5253684094
 21
0.0
 31
0.0
  0
LINE
  5
1DF
330
1D9
100
AcDbEntity
  8
1
 62
     0
100
AcDbLine
 10
9.5253684094
 20
0.0
 30
0.0
 11
0.0
 21
0.0
 31
0.0
  0
LINE
  5
1E0
330
1D9
100
AcDbEntity
  8
1
 62
     0
100
AcDbLine
 10
0.0
 20
0.0
 30
0.0
 11
9.5253684094
 21
0.0
 31
0.0
  0
LINE
  5
1E1
330
1D9
100
AcDbEntity
  8
1
 62
     0
100
AcDbLine
 10
9.5253684094
 20
0.0
 30
0.0
 11
0.0
 21
0.0
 31
0.0
  0
MTEXT
  5
1E2
330
1D9
100
AcDbEntity
  8
1
 62
     0
100
AcDbMText
 10
0.0032729539
 20
5.9481547273
 30
0.0
 40
2.38125
 41
0.0
 71
     1
 72
     1
  1
排気口
  7
SLDTEXTSTYLE0
 73
     1
 44
1.0
  0
MTEXT
  5
1E3
330
1D9
100
AcDbEntity
  8
1
 62
     0
100
AcDbMText
 10
0.0032729539
 20
2.7731547657
 30
0.0
 40
2.38125
 41
0.0
 71
     1
 72
     1
  1
Outlet
  7
SLDTEXTSTYLE0
 73
     1
 44
1.0
  0
ENDBLK
  5
1DB
330
1D9
100
AcDbEntity
  8
0
100
AcDbBlockEnd
  0
BLOCK
  5
1E7
330
1E6
100
AcDbEntity
  8
0
100
AcDbBlockBegin
  2
SW_NOTE_6
 70
     0
 71
     0
 10
0.0
 20
0.0
 30
0.0
  3
SW_NOTE_6
  1

  0
LINE
  5
1E9
330
1E6
100
AcDbEntity
  8
1
 62
     0
100
AcDbLine
 10
-25.3989574743
 20
0.0
 30
0.0
 11
0.0
 21
0.0
 31
0.0
  0
LINE
  5
1EA
330
1E6
100
AcDbEntity
  8
1
 62
     0
100
AcDbLine
 10
0.0
 20
0.0
 30
0.0
 11
-25.3989574743
 21
0.0
 31
0.0
  0
LINE
  5
1EB
330
1E6
100
AcDbEntity
  8
1
 62
     0
100
AcDbLine
 10
-25.3989574743
 20
0.0
 30
0.0
 11
0.0
 21
0.0
 31
0.0
  0
LINE
  5
1EC
330
1E6
100
AcDbEntity
  8
1
 62
     0
100
AcDbLine
 10
0.0
 20
0.0
 30
0.0
 11
-25.3989574743
 21
0.0
 31
0.0
  0
LINE
  5
1ED
330
1E6
100
AcDbEntity
  8
1
 62
     0
100
AcDbLine
 10
-25.3989574743
 20
0.0
 30
0.0
 11
0.0
 21
0.0
 31
0.0
  0
LINE
  5
1EE
330
1E6
100
AcDbEntity
  8
1
 62
     0
100
AcDbLine
 10
0.0
 20
0.0
 30
0.0
 11
-25.3989574743
 21
0.0
 31
0.0
  0
MTEXT
  5
1EF
330
1E6
100
AcDbEntity
  8
1
 62
     0
100
AcDbMText
 10
-25.3966283319
 20
5.9472655602
 30
0.0
 40
2.38125
 41
0.0
 71
     1
 72
     1
  1
エアーフラッシュ
  7
SLDTEXTSTYLE0
 73
     1
 44
1.0
  0
MTEXT
  5
1F0
330
1E6
100
AcDbEntity
  8
1
 62
     0
100
AcDbMText
 10
-25.3966283319
 20
2.7722655986
 30
0.0
 40
2.38125
 41
0.0
 71
     1
 72
     1
  1
Air flush
  7
SLDTEXTSTYLE0
 73
     1
 44
1.0
  0
ENDBLK
  5
1E8
330
1E6
100
AcDbEntity
  8
0
100
AcDbBlockEnd
  0
BLOCK
  5
1F4
330
1F3
100
AcDbEntity
  8
0
100
AcDbBlockBegin
  2
SW_NOTE_7
 70
     0
 71
     0
 10
0.0
 20
0.0
 30
0.0
  3
SW_NOTE_7
  1

  0
LINE
  5
1F6
330
1F3
100
AcDbEntity
  8
1
 62
     0
100
AcDbLine
 10
0.0
 20
0.0
 30
0.0
 11
9.5253684094
 21
0.0
 31
0.0
  0
LINE
  5
1F7
330
1F3
100
AcDbEntity
  8
1
 62
     0
100
AcDbLine
 10
9.5253684094
 20
0.0
 30
0.0
 11
0.0
 21
0.0
 31
0.0
  0
LINE
  5
1F8
330
1F3
100
AcDbEntity
  8
1
 62
     0
100
AcDbLine
 10
0.0
 20
0.0
 30
0.0
 11
9.5253684094
 21
0.0
 31
0.0
  0
LINE
  5
1F9
330
1F3
100
AcDbEntity
  8
1
 62
     0
100
AcDbLine
 10
9.5253684094
 20
0.0
 30
0.0
 11
0.0
 21
0.0
 31
0.0
  0
LINE
  5
1FA
330
1F3
100
AcDbEntity
  8
1
 62
     0
100
AcDbLine
 10
0.0
 20
0.0
 30
0.0
 11
9.5253684094
 21
0.0
 31
0.0
  0
LINE
  5
1FB
330
1F3
100
AcDbEntity
  8
1
 62
     0
100
AcDbLine
 10
9.5253684094
 20
0.0
 30
0.0
 11
0.0
 21
0.0
 31
0.0
  0
MTEXT
  5
1FC
330
1F3
100
AcDbEntity
  8
1
 62
     0
100
AcDbMText
 10
0.0015268839
 20
5.9505258822
 30
0.0
 40
2.38125
 41
0.0
 71
     1
 72
     1
  1
吸気口
  7
SLDTEXTSTYLE0
 73
     1
 44
1.0
  0
MTEXT
  5
1FD
330
1F3
100
AcDbEntity
  8
1
 62
     0
100
AcDbMText
 10
0.0015268839
 20
2.7755259206
 30
0.0
 40
2.38125
 41
0.0
 71
     1
 72
     1
  1
Inlet
  7
SLDTEXTSTYLE0
 73
     1
 44
1.0
  0
ENDBLK
  5
1F5
330
1F3
100
AcDbEntity
  8
0
100
AcDbBlockEnd
  0
BLOCK
  5
201
330
200
100
AcDbEntity
  8
0
100
AcDbBlockBegin
  2
SW_CENTERMARKSYMBOL_2
 70
     0
 71
     0
 10
0.0
 20
0.0
 30
0.0
  3
SW_CENTERMARKSYMBOL_2
  1

  0
LINE
  5
203
330
200
100
AcDbEntity
  8
0
  6
Continuous
 62
     0
370
     0
100
AcDbLine
 10
0.0
 20
0.0
 30
0.0
 11
0.0
 21
0.25
 31
0.0
  0
LINE
  5
204
330
200
100
AcDbEntity
  8
0
  6
Continuous
 62
     0
370
     0
100
AcDbLine
 10
0.0
 20
0.0
 30
0.0
 11
-0.25
 21
0.0
 31
0.0
  0
LINE
  5
205
330
200
100
AcDbEntity
  8
0
  6
Continuous
 62
     0
370
     0
100
AcDbLine
 10
0.0
 20
0.0
 30
0.0
 11
0.0
 21
-0.25
 31
0.0
  0
LINE
  5
206
330
200
100
AcDbEntity
  8
0
  6
Continuous
 62
     0
370
     0
100
AcDbLine
 10
0.0
 20
0.0
 30
0.0
 11
0.25
 21
0.0
 31
0.0
  0
LINE
  5
207
330
200
100
AcDbEntity
  8
0
  6
Continuous
 62
     0
370
     0
100
AcDbLine
 10
0.0
 20
0.5
 30
0.0
 11
0.0
 21
14.75
 31
0.0
  0
LINE
  5
208
330
200
100
AcDbEntity
  8
0
  6
Continuous
 62
     0
370
     0
100
AcDbLine
 10
-0.5
 20
0.0
 30
0.0
 11
-14.75
 21
0.0
 31
0.0
  0
LINE
  5
209
330
200
100
AcDbEntity
  8
0
  6
Continuous
 62
     0
370
     0
100
AcDbLine
 10
0.0
 20
-0.5
 30
0.0
 11
0.0
 21
-14.75
 31
0.0
  0
LINE
  5
20A
330
200
100
AcDbEntity
  8
0
  6
Continuous
 62
     0
370
     0
100
AcDbLine
 10
0.5
 20
0.0
 30
0.0
 11
14.75
 21
0.0
 31
0.0
  0
ENDBLK
  5
202
330
200
100
AcDbEntity
  8
0
100
AcDbBlockEnd
  0
BLOCK
  5
36A
330
369
100
AcDbEntity
  8
0
100
AcDbBlockBegin
  2
SW_NOTE_8
 70
     0
 71
     0
 10
0.0
 20
0.0
 30
0.0
  3
SW_NOTE_8
  1

  0
LINE
  5
36C
330
369
100
AcDbEntity
  8
1
 62
     0
100
AcDbLine
 10
-19.0507368188
 20
0.0
 30
0.0
 11
0.0
 21
0.0
 31
0.0
  0
LINE
  5
36D
330
369
100
AcDbEntity
  8
1
 62
     0
100
AcDbLine
 10
0.0
 20
0.0
 30
0.0
 11
-19.0507368188
 21
0.0
 31
0.0
  0
LINE
  5
36E
330
369
100
AcDbEntity
  8
1
 62
     0
100
AcDbLine
 10
-19.0507368188
 20
0.0
 30
0.0
 11
0.0
 21
0.0
 31
0.0
  0
LINE
  5
36F
330
369
100
AcDbEntity
  8
1
 62
     0
100
AcDbLine
 10
0.0
 20
0.0
 30
0.0
 11
-19.0507368188
 21
0.0
 31
0.0
  0
LINE
  5
370
330
369
100
AcDbEntity
  8
1
 62
     0
100
AcDbLine
 10
-19.0507368188
 20
0.0
 30
0.0
 11
0.0
 21
0.0
 31
0.0
  0
LINE
  5
371
330
369
100
AcDbEntity
  8
1
 62
     0
100
AcDbLine
 10
0.0
 20
0.0
 30
0.0
 11
-19.0507368188
 21
0.0
 31
0.0
  0
MTEXT
  5
372
330
369
100
AcDbEntity
  8
1
 62
     0
100
AcDbMText
 10
-19.0494639465
 20
5.9482178113
 30
0.0
 40
2.38125
 41
0.0
 71
     1
 72
     1
  1
ファンカバー
  7
SLDTEXTSTYLE0
 73
     1
 44
1.0
  0
MTEXT
  5
373
330
369
100
AcDbEntity
  8
1
 62
     0
100
AcDbMText
 10
-19.0494639465
 20
2.7732178497
 30
0.0
 40
2.38125
 41
0.0
 71
     1
 72
     1
  1
Fan cover
  7
SLDTEXTSTYLE0
 73
     1
 44
1.0
  0
ENDBLK
  5
36B
330
369
100
AcDbEntity
  8
0
100
AcDbBlockEnd
  0
BLOCK
  5
3D1
330
3D0
100
AcDbEntity
  8
0
100
AcDbBlockBegin
  2
SW_CENTERMARKSYMBOL_3
 70
     0
 71
     0
 10
0.0
 20
0.0
 30
0.0
  3
SW_CENTERMARKSYMBOL_3
  1

  0
LINE
  5
3D3
330
3D0
100
AcDbEntity
  8
0
  6
Continuous
 62
     0
370
     0
100
AcDbLine
 10
0.0
 20
0.0
 30
0.0
 11
0.0
 21
0.25
 31
0.0
  0
LINE
  5
3D4
330
3D0
100
AcDbEntity
  8
0
  6
Continuous
 62
     0
370
     0
100
AcDbLine
 10
0.0
 20
0.0
 30
0.0
 11
-0.25
 21
0.0
 31
0.0
  0
LINE
  5
3D5
330
3D0
100
AcDbEntity
  8
0
  6
Continuous
 62
     0
370
     0
100
AcDbLine
 10
0.0
 20
0.0
 30
0.0
 11
0.0
 21
-0.25
 31
0.0
  0
LINE
  5
3D6
330
3D0
100
AcDbEntity
  8
0
  6
Continuous
 62
     0
370
     0
100
AcDbLine
 10
0.0
 20
0.0
 30
0.0
 11
0.25
 21
0.0
 31
0.0
  0
LINE
  5
3D7
330
3D0
100
AcDbEntity
  8
0
  6
Continuous
 62
     0
370
     0
100
AcDbLine
 10
0.0
 20
0.5
 30
0.0
 11
0.0
 21
0.75
 31
0.0
  0
LINE
  5
3D8
330
3D0
100
AcDbEntity
  8
0
  6
Continuous
 62
     0
370
     0
100
AcDbLine
 10
-0.5
 20
0.0
 30
0.0
 11
-0.75
 21
0.0
 31
0.0
  0
LINE
  5
3D9
330
3D0
100
AcDbEntity
  8
0
  6
Continuous
 62
     0
370
     0
100
AcDbLine
 10
0.0
 20
-0.5
 30
0.0
 11
0.0
 21
-0.75
 31
0.0
  0
LINE
  5
3DA
330
3D0
100
AcDbEntity
  8
0
  6
Continuous
 62
     0
370
     0
100
AcDbLine
 10
0.5
 20
0.0
 30
0.0
 11
0.75
 21
0.0
 31
0.0
  0
ENDBLK
  5
3D2
330
3D0
100
AcDbEntity
  8
0
100
AcDbBlockEnd
  0
BLOCK
  5
3DD
330
3DC
100
AcDbEntity
  8
0
100
AcDbBlockBegin
  2
SW_CENTERMARKSYMBOL_4
 70
     0
 71
     0
 10
0.0
 20
0.0
 30
0.0
  3
SW_CENTERMARKSYMBOL_4
  1

  0
LINE
  5
3DF
330
3DC
100
AcDbEntity
  8
0
  6
Continuous
 62
     0
370
     0
100
AcDbLine
 10
0.0
 20
0.0
 30
0.0
 11
0.0
 21
0.25
 31
0.0
  0
LINE
  5
3E0
330
3DC
100
AcDbEntity
  8
0
  6
Continuous
 62
     0
370
     0
100
AcDbLine
 10
0.0
 20
0.0
 30
0.0
 11
-0.25
 21
0.0
 31
0.0
  0
LINE
  5
3E1
330
3DC
100
AcDbEntity
  8
0
  6
Continuous
 62
     0
370
     0
100
AcDbLine
 10
0.0
 20
0.0
 30
0.0
 11
0.0
 21
-0.25
 31
0.0
  0
LINE
  5
3E2
330
3DC
100
AcDbEntity
  8
0
  6
Continuous
 62
     0
370
     0
100
AcDbLine
 10
0.0
 20
0.0
 30
0.0
 11
0.25
 21
0.0
 31
0.0
  0
LINE
  5
3E3
330
3DC
100
AcDbEntity
  8
0
  6
Continuous
 62
     0
370
     0
100
AcDbLine
 10
0.0
 20
0.5
 30
0.0
 11
0.0
 21
0.75
 31
0.0
  0
LINE
  5
3E4
330
3DC
100
AcDbEntity
  8
0
  6
Continuous
 62
     0
370
     0
100
AcDbLine
 10
-0.5
 20
0.0
 30
0.0
 11
-0.75
 21
0.0
 31
0.0
  0
LINE
  5
3E5
330
3DC
100
AcDbEntity
  8
0
  6
Continuous
 62
     0
370
     0
100
AcDbLine
 10
0.0
 20
-0.5
 30
0.0
 11
0.0
 21
-0.75
 31
0.0
  0
LINE
  5
3E6
330
3DC
100
AcDbEntity
  8
0
  6
Continuous
 62
     0
370
     0
100
AcDbLine
 10
0.5
 20
0.0
 30
0.0
 11
0.75
 21
0.0
 31
0.0
  0
ENDBLK
  5
3DE
330
3DC
100
AcDbEntity
  8
0
100
AcDbBlockEnd
  0
BLOCK
  5
3E9
330
3E8
100
AcDbEntity
  8
0
100
AcDbBlockBegin
  2
SW_CENTERMARKSYMBOL_5
 70
     0
 71
     0
 10
0.0
 20
0.0
 30
0.0
  3
SW_CENTERMARKSYMBOL_5
  1

  0
LINE
  5
3EB
330
3E8
100
AcDbEntity
  8
0
  6
Continuous
 62
     0
370
     0
100
AcDbLine
 10
0.0
 20
0.0
 30
0.0
 11
0.0
 21
0.25
 31
0.0
  0
LINE
  5
3EC
330
3E8
100
AcDbEntity
  8
0
  6
Continuous
 62
     0
370
     0
100
AcDbLine
 10
0.0
 20
0.0
 30
0.0
 11
-0.25
 21
0.0
 31
0.0
  0
LINE
  5
3ED
330
3E8
100
AcDbEntity
  8
0
  6
Continuous
 62
     0
370
     0
100
AcDbLine
 10
0.0
 20
0.0
 30
0.0
 11
0.0
 21
-0.25
 31
0.0
  0
LINE
  5
3EE
330
3E8
100
AcDbEntity
  8
0
  6
Continuous
 62
     0
370
     0
100
AcDbLine
 10
0.0
 20
0.0
 30
0.0
 11
0.25
 21
0.0
 31
0.0
  0
LINE
  5
3EF
330
3E8
100
AcDbEntity
  8
0
  6
Continuous
 62
     0
370
     0
100
AcDbLine
 10
0.0
 20
0.5
 30
0.0
 11
0.0
 21
0.75
 31
0.0
  0
LINE
  5
3F0
330
3E8
100
AcDbEntity
  8
0
  6
Continuous
 62
     0
370
     0
100
AcDbLine
 10
-0.5
 20
0.0
 30
0.0
 11
-0.75
 21
0.0
 31
0.0
  0
LINE
  5
3F1
330
3E8
100
AcDbEntity
  8
0
  6
Continuous
 62
     0
370
     0
100
AcDbLine
 10
0.0
 20
-0.5
 30
0.0
 11
0.0
 21
-0.75
 31
0.0
  0
LINE
  5
3F2
330
3E8
100
AcDbEntity
  8
0
  6
Continuous
 62
     0
370
     0
100
AcDbLine
 10
0.5
 20
0.0
 30
0.0
 11
0.75
 21
0.0
 31
0.0
  0
ENDBLK
  5
3EA
330
3E8
100
AcDbEntity
  8
0
100
AcDbBlockEnd
  0
BLOCK
  5
3F5
330
3F4
100
AcDbEntity
  8
0
100
AcDbBlockBegin
  2
SW_CENTERMARKSYMBOL_6
 70
     0
 71
     0
 10
0.0
 20
0.0
 30
0.0
  3
SW_CENTERMARKSYMBOL_6
  1

  0
LINE
  5
3F7
330
3F4
100
AcDbEntity
  8
0
  6
Continuous
 62
     0
370
     0
100
AcDbLine
 10
0.0
 20
0.0
 30
0.0
 11
0.0
 21
0.25
 31
0.0
  0
LINE
  5
3F8
330
3F4
100
AcDbEntity
  8
0
  6
Continuous
 62
     0
370
     0
100
AcDbLine
 10
0.0
 20
0.0
 30
0.0
 11
-0.25
 21
0.0
 31
0.0
  0
LINE
  5
3F9
330
3F4
100
AcDbEntity
  8
0
  6
Continuous
 62
     0
370
     0
100
AcDbLine
 10
0.0
 20
0.0
 30
0.0
 11
0.0
 21
-0.25
 31
0.0
  0
LINE
  5
3FA
330
3F4
100
AcDbEntity
  8
0
  6
Continuous
 62
     0
370
     0
100
AcDbLine
 10
0.0
 20
0.0
 30
0.0
 11
0.25
 21
0.0
 31
0.0
  0
LINE
  5
3FB
330
3F4
100
AcDbEntity
  8
0
  6
Continuous
 62
     0
370
     0
100
AcDbLine
 10
0.0
 20
0.5
 30
0.0
 11
0.0
 21
0.75
 31
0.0
  0
LINE
  5
3FC
330
3F4
100
AcDbEntity
  8
0
  6
Continuous
 62
     0
370
     0
100
AcDbLine
 10
-0.5
 20
0.0
 30
0.0
 11
-0.75
 21
0.0
 31
0.0
  0
LINE
  5
3FD
330
3F4
100
AcDbEntity
  8
0
  6
Continuous
 62
     0
370
     0
100
AcDbLine
 10
0.0
 20
-0.5
 30
0.0
 11
0.0
 21
-0.75
 31
0.0
  0
LINE
  5
3FE
330
3F4
100
AcDbEntity
  8
0
  6
Continuous
 62
     0
370
     0
100
AcDbLine
 10
0.5
 20
0.0
 30
0.0
 11
0.75
 21
0.0
 31
0.0
  0
ENDBLK
  5
3F6
330
3F4
100
AcDbEntity
  8
0
100
AcDbBlockEnd
  0
ENDSEC
  0
SECTION
  2
ENTITIES
  0
LINE
  5
33
330
1F
100
AcDbEntity
  8
ﾚｲﾔｰ0
100
AcDbLine
 10
276.0
 20
194.0
 30
0.0
 11
276.0
 21
201.5
 31
0.0
  0
LINE
  5
34
330
1F
100
AcDbEntity
  8
ﾚｲﾔｰ0
100
AcDbLine
 10
21.0
 20
194.0
 30
0.0
 11
21.0
 21
201.5
 31
0.0
  0
LINE
  5
35
330
1F
100
AcDbEntity
  8
ﾚｲﾔｰ0
100
AcDbLine
 10
21.0
 20
16.0
 30
0.0
 11
21.0
 21
8.5
 31
0.0
  0
LINE
  5
36
330
1F
100
AcDbEntity
  8
ﾚｲﾔｰ0
100
AcDbLine
 10
276.0
 20
16.0
 30
0.0
 11
276.0
 21
8.5
 31
0.0
  0
LINE
  5
37
330
1F
100
AcDbEntity
  8
ﾚｲﾔｰ0
100
AcDbLine
 10
276.0
 20
201.5
 30
0.0
 11
21.0
 21
201.5
 31
0.0
  0
LINE
  5
38
330
1F
100
AcDbEntity
  8
ﾚｲﾔｰ0
100
AcDbLine
 10
21.0
 20
8.5
 30
0.0
 11
276.0
 21
8.5
 31
0.0
  0
MTEXT
  5
3A
330
1F
100
AcDbEntity
  8
1
100
AcDbMText
 10
94.2548193426
 20
129.6851644388
 30
0.0
 40
2.38125
 41
0.0
 71
     1
 72
     1
  1
NW40
  7
SLDTEXTSTYLE0
 73
     1
 44
1.0
  0
MTEXT
  5
3B
330
1F
100
AcDbEntity
  8
1
100
AcDbMText
 10
89.8251604642
 20
84.7059852195
 30
0.0
 40
2.38125
 41
0.0
 71
     1
 72
     1
  1
NW25
  7
SLDTEXTSTYLE0
 73
     1
 44
1.0
  0
MTEXT
  5
3C
330
1F
100
AcDbEntity
  8
1
100
AcDbMText
 10
57.0122339676
 20
155.4032294528
 30
0.0
 40
2.38125
 41
0.0
 71
     1
 72
     1
  1
Rc1/8
  7
SLDTEXTSTYLE0
 73
     1
 44
1.0
  0
MTEXT
  5
3D
330
1F
100
AcDbEntity
  8
1
100
AcDbMText
 10
253.2912756875
 20
91.3947185678
 30
0.0
 40
3.175
 41
0.0
 71
     1
 72
     1
  1
重量:40kg
  7
SLDTEXTSTYLE0
 73
     1
 44
1.0
  0
MTEXT
  5
3F
330
1F
100
AcDbEntity
  8
ﾚｲﾔｰ0
100
AcDbMText
 10
264.6253068675
 20
14.4909243614
 30
0.0
 40
6.0
 41
0.0
 71
     1
 72
     1
  1
★
  7
SLDTEXTSTYLE1
 73
     1
 44
1.0
  0
MTEXT
  5
40
330
1F
100
AcDbEntity
  8
ﾚｲﾔｰ0
100
AcDbMText
 10
256.3279517445
 20
14.4909243614
 30
0.0
 40
6.0
 41
0.0
 71
     1
 72
     1
  1
★
  7
SLDTEXTSTYLE1
 73
     1
 44
1.0
  0
MTEXT
  5
41
330
1F
100
AcDbEntity
  8
ﾚｲﾔｰ0
100
AcDbMText
 10
248.0305966214
 20
14.4909243614
 30
0.0
 40
6.0
 41
0.0
 71
     1
 72
     1
  1
★
  7
SLDTEXTSTYLE1
 73
     1
 44
1.0
  0
MTEXT
  5
42
330
1F
100
AcDbEntity
  8
ﾚｲﾔｰ0
100
AcDbMText
 10
239.2406102764
 20
14.4909243614
 30
0.0
 40
6.0
 41
0.0
 71
     1
 72
     1
  1
★
  7
SLDTEXTSTYLE1
 73
     1
 44
1.0
  0
LINE
  5
43
330
1F
100
AcDbEntity
  8
0
  6
Continuous
 62
     7
370
     0
100
AcDbLine
 10
129.4497560099
 20
133.5449696615
 30
0.0
 11
130.2548337138
 21
133.5449696615
 31
0.0
  0
LINE
  5
44
330
1F
100
AcDbEntity
  8
0
  6
Continuous
 62
     7
370
    15
100
AcDbLine
 10
140.9403538483
 20
96.5523506767
 30
0.0
 11
140.9403538483
 21
96.3523502714
 31
0.0
  0
LINE
  5
45
330
1F
100
AcDbEntity
  8
0
  6
Continuous
 62
     7
370
    15
100
AcDbLine
 10
141.9403528946
 20
96.3523502714
 30
0.0
 11
141.9403528946
 21
96.5523506767
 31
0.0
  0
LINE
  5
46
330
1F
100
AcDbEntity
  8
0
  6
Continuous
 62
     7
370
    15
100
AcDbLine
 10
116.9403536397
 20
96.5523506767
 30
0.0
 11
116.9403536397
 21
96.3523502714
 31
0.0
  0
LINE
  5
47
330
1F
100
AcDbEntity
  8
0
  6
Continuous
 62
     7
370
    15
100
AcDbLine
 10
117.9403534311
 20
96.3523502714
 30
0.0
 11
117.9403534311
 21
96.5523506767
 31
0.0
  0
LINE
  5
48
330
1F
100
AcDbEntity
  8
0
  6
Continuous
 62
     7
370
    15
100
AcDbLine
 10
121.4903535473
 20
132.2523500092
 30
0.0
 11
114.5503534156
 21
132.2523500092
 31
0.0
  0
LINE
  5
49
330
1F
100
AcDbEntity
  8
0
  6
Continuous
 62
     7
370
    15
100
AcDbLine
 10
114.5503534156
 20
103.2523508436
 30
0.0
 11
121.4903535473
 21
103.2523508436
 31
0.0
  0
LINE
  5
4A
330
1F
100
AcDbEntity
  8
0
  6
Continuous
 62
     7
370
    15
100
AcDbLine
 10
114.5503534156
 20
130.3523506291
 30
0.0
 11
113.5503536242
 21
130.3523506291
 31
0.0
  0
LINE
  5
4B
330
1F
100
AcDbEntity
  8
0
  6
Continuous
 62
     7
370
    15
100
AcDbLine
 10
113.5503536242
 20
105.1523502237
 30
0.0
 11
114.5503534156
 21
105.1523502237
 31
0.0
  0
LINE
  5
4C
330
1F
100
AcDbEntity
  8
0
  6
Continuous
 62
     7
370
    15
100
AcDbLine
 10
121.4903535473
 20
104.25234989
 30
0.0
 11
123.5727047699
 21
104.25234989
 31
0.0
  0
LINE
  5
4D
330
1F
100
AcDbEntity
  8
0
  6
Continuous
 62
     7
370
    15
100
AcDbLine
 10
125.6903534907
 20
131.2523509628
 30
0.0
 11
121.4903535473
 21
131.2523509628
 31
0.0
  0
LINE
  5
4E
330
1F
100
AcDbEntity
  8
0
  6
Continuous
 62
     7
370
    15
100
AcDbLine
 10
113.5503536242
 20
129.5523504979
 30
0.0
 11
109.7803538817
 21
129.5523504979
 31
0.0
  0
LINE
  5
4F
330
1F
100
AcDbEntity
  8
0
  6
Continuous
 62
     7
370
    15
100
AcDbLine
 10
109.7803538817
 20
105.9523503549
 30
0.0
 11
113.5503536242
 21
105.9523503549
 31
0.0
  0
LINE
  5
50
330
1F
100
AcDbEntity
  8
0
  6
Continuous
 62
     7
370
    15
100
AcDbLine
 10
126.4903535287
 20
130.5523510344
 30
0.0
 11
125.6903534907
 21
130.5523510344
 31
0.0
  0
LINE
  5
51
330
1F
100
AcDbEntity
  8
0
  6
Continuous
 62
     7
370
    15
100
AcDbLine
 10
130.6903535652
 20
128.9525012738
 30
0.0
 11
130.2903534996
 21
128.9572487838
 31
0.0
  0
LINE
  5
52
330
1F
100
AcDbEntity
  8
0
  6
Continuous
 62
     7
370
    15
100
AcDbLine
 10
133.5365912097
 20
108.040809191
 30
0.0
 11
133.9403538185
 21
108.2519809968
 31
0.0
  0
LINE
  5
53
330
1F
100
AcDbEntity
  8
0
  6
Continuous
 62
     7
370
    15
100
AcDbLine
 10
133.9403538185
 20
127.252719856
 30
0.0
 11
130.6903535652
 21
128.9525012738
 31
0.0
  0
LINE
  5
54
330
1F
100
AcDbEntity
  8
0
  6
Continuous
 62
     7
370
    15
100
AcDbLine
 10
153.3403521555
 20
127.8523507781
 30
0.0
 11
134.4403533417
 21
127.8523507781
 31
0.0
  0
LINE
  5
55
330
1F
100
AcDbEntity
  8
0
  6
Continuous
 62
     7
370
    15
100
AcDbLine
 10
133.9403538185
 20
108.2519809968
 30
0.0
 11
134.4403533417
 21
108.2519809968
 31
0.0
  0
LINE
  5
56
330
1F
100
AcDbEntity
  8
0
  6
Continuous
 62
     7
370
    15
100
AcDbLine
 10
134.4403533417
 20
127.252719856
 30
0.0
 11
133.9403538185
 21
127.252719856
 31
0.0
  0
LWPOLYLINE
  5
57
330
1F
100
AcDbEntity
  8
0
  6
Continuous
 62
     7
370
    15
100
AcDbPolyline
 90
        7
 70
   128
 43
0.0
 10
153.3403521555
 20
108.4023501045
 10
153.6008304137
 20
108.4219697184
 10
153.7942564267
 20
108.4769870407
 10
153.9315408248
 20
108.5616397924
 10
154.0236001986
 20
108.6701649494
 10
154.1031574982
 20
108.8750775225
 10
154.1202491301
 20
108.9795048601
  0
LWPOLYLINE
  5
58
330
1F
100
AcDbEntity
  8
0
  6
Continuous
 62
     7
370
    15
100
AcDbPolyline
 90
        7
 70
   128
 43
0.0
 10
154.1213756579
 20
126.5253710813
 10
154.1104709881
 20
126.5960741109
 10
154.0547138232
 20
126.7761382527
 10
153.9472049254
 20
126.9288848407
 10
153.8095778006
 20
127.0208376712
 10
153.6114758032
 20
127.0808677442
 10
153.3403521555
 20
127.1023507483
  0
LINE
  5
59
330
1F
100
AcDbEntity
  8
0
  6
Continuous
 62
     7
370
    15
100
AcDbLine
 10
130.0916535932
 20
130.0523507661
 30
0.0
 11
130.0916535932
 21
130.2997569806
 31
0.0
  0
LINE
  5
5A
330
1F
100
AcDbEntity
  8
0
  6
Continuous
 62
     7
370
    15
100
AcDbLine
 10
128.4916535172
 20
130.2983950145
 30
0.0
 11
128.4916535172
 21
130.0523507661
 31
0.0
  0
CIRCLE
  5
5B
330
1F
100
AcDbEntity
  8
0
  6
Continuous
 62
     7
370
    15
100
AcDbCircle
 10
129.2903534907
 20
131.8273504264
 30
0.0
 40
1.024999999999977
  0
ARC
  5
5C
330
1F
100
AcDbEntity
  8
0
  6
Continuous
 62
     7
370
    15
100
AcDbCircle
 10
129.2903534907
 20
131.8273504264
 30
0.0
 40
1.725000000000025
100
AcDbArc
 50
297.6744245527
 51
0.0
  0
ARC
  5
5D
330
1F
100
AcDbEntity
  8
0
  6
Continuous
 62
     7
370
    15
100
AcDbCircle
 10
129.2903534907
 20
131.8273504264
 30
0.0
 40
1.725000000000023
100
AcDbArc
 50
0.0
 51
242.4210082034
  0
LINE
  5
5E
330
1F
100
AcDbEntity
  8
0
  6
Continuous
 62
     7
370
    15
100
AcDbLine
 10
140.9496059793
 20
97.7023507721
 30
0.0
 11
140.9496059793
 21
97.0023508436
 31
0.0
  0
LINE
  5
5F
330
1F
100
AcDbEntity
  8
0
  6
Continuous
 62
     7
370
    15
100
AcDbLine
 10
141.9311007637
 20
97.7023507721
 30
0.0
 11
141.9311007637
 21
97.0023508436
 31
0.0
  0
LINE
  5
60
330
1F
100
AcDbEntity
  8
0
  6
Continuous
 62
     7
370
    15
100
AcDbLine
 10
140.9496059793
 20
97.7023507721
 30
0.0
 11
141.9311007637
 21
97.7023507721
 31
0.0
  0
LINE
  5
61
330
1F
100
AcDbEntity
  8
0
  6
Continuous
 62
     7
370
    15
100
AcDbLine
 10
140.4588585871
 20
97.7023507721
 30
0.0
 11
140.4588585871
 21
97.0023508436
 31
0.0
  0
LINE
  5
62
330
1F
100
AcDbEntity
  8
0
  6
Continuous
 62
     7
370
    15
100
AcDbLine
 10
140.4588585871
 20
97.7023507721
 30
0.0
 11
140.9496059793
 21
97.7023507721
 31
0.0
  0
LINE
  5
63
330
1F
100
AcDbEntity
  8
0
  6
Continuous
 62
     7
370
    15
100
AcDbLine
 10
142.421849646
 20
97.7023507721
 30
0.0
 11
142.421849646
 21
97.0023508436
 31
0.0
  0
LINE
  5
64
330
1F
100
AcDbEntity
  8
0
  6
Continuous
 62
     7
370
    15
100
AcDbLine
 10
141.9311007637
 20
97.7023507721
 30
0.0
 11
142.421849646
 21
97.7023507721
 31
0.0
  0
LINE
  5
65
330
1F
100
AcDbEntity
  8
0
  6
Continuous
 62
     7
370
    15
100
AcDbLine
 10
141.9403528946
 20
96.3523502714
 30
0.0
 11
140.9403538483
 21
96.3523502714
 31
0.0
  0
LINE
  5
66
330
1F
100
AcDbEntity
  8
0
  6
Continuous
 62
     7
370
    15
100
AcDbLine
 10
116.4588583785
 20
97.7023507721
 30
0.0
 11
116.4588583785
 21
97.0023508436
 31
0.0
  0
LINE
  5
67
330
1F
100
AcDbEntity
  8
0
  6
Continuous
 62
     7
370
    15
100
AcDbLine
 10
116.4588583785
 20
97.7023507721
 30
0.0
 11
116.9496057707
 21
97.7023507721
 31
0.0
  0
LINE
  5
68
330
1F
100
AcDbEntity
  8
0
  6
Continuous
 62
     7
370
    15
100
AcDbLine
 10
116.9496057707
 20
97.7023507721
 30
0.0
 11
116.9496057707
 21
97.0023508436
 31
0.0
  0
LINE
  5
69
330
1F
100
AcDbEntity
  8
0
  6
Continuous
 62
     7
370
    15
100
AcDbLine
 10
116.9496057707
 20
97.7023507721
 30
0.0
 11
117.9311013001
 21
97.7023507721
 31
0.0
  0
LINE
  5
6A
330
1F
100
AcDbEntity
  8
0
  6
Continuous
 62
     7
370
    15
100
AcDbLine
 10
117.9311013001
 20
97.7023507721
 30
0.0
 11
117.9311013001
 21
97.0023508436
 31
0.0
  0
LINE
  5
6B
330
1F
100
AcDbEntity
  8
0
  6
Continuous
 62
     7
370
    15
100
AcDbLine
 10
118.4218486923
 20
97.7023507721
 30
0.0
 11
118.4218486923
 21
97.0023508436
 31
0.0
  0
LINE
  5
6C
330
1F
100
AcDbEntity
  8
0
  6
Continuous
 62
     7
370
    15
100
AcDbLine
 10
117.9311013001
 20
97.7023507721
 30
0.0
 11
118.4218486923
 21
97.7023507721
 31
0.0
  0
LINE
  5
6D
330
1F
100
AcDbEntity
  8
0
  6
Continuous
 62
     7
370
    15
100
AcDbLine
 10
117.9403534311
 20
96.3523502714
 30
0.0
 11
116.9403536397
 21
96.3523502714
 31
0.0
  0
LINE
  5
6E
330
1F
100
AcDbEntity
  8
0
  6
Continuous
 62
     7
370
    15
100
AcDbLine
 10
114.3903536874
 20
97.0023508436
 30
0.0
 11
114.3903536874
 21
96.5523506767
 31
0.0
  0
LINE
  5
6F
330
1F
100
AcDbEntity
  8
0
  6
Continuous
 62
     7
370
    15
100
AcDbLine
 10
144.490352847
 20
97.0023508436
 30
0.0
 11
114.3903536874
 21
97.0023508436
 31
0.0
  0
LINE
  5
70
330
1F
100
AcDbEntity
  8
0
  6
Continuous
 62
     7
370
    15
100
AcDbLine
 10
144.490352847
 20
97.0023508436
 30
0.0
 11
144.490352847
 21
96.5523506767
 31
0.0
  0
LINE
  5
71
330
1F
100
AcDbEntity
  8
0
  6
Continuous
 62
     7
370
    15
100
AcDbLine
 10
144.490352847
 20
96.5523506767
 30
0.0
 11
114.3903536874
 21
96.5523506767
 31
0.0
  0
LINE
  5
72
330
1F
100
AcDbEntity
  8
0
  6
Continuous
 62
     7
370
    15
100
AcDbLine
 10
144.9403530139
 20
100.5523498423
 30
0.0
 11
144.9403530139
 21
96.5523506767
 31
0.0
  0
LINE
  5
73
330
1F
100
AcDbEntity
  8
0
  6
Continuous
 62
     7
370
    15
100
AcDbLine
 10
113.9403535205
 20
100.5523498423
 30
0.0
 11
144.9403530139
 21
100.5523498423
 31
0.0
  0
LINE
  5
74
330
1F
100
AcDbEntity
  8
0
  6
Continuous
 62
     7
370
    15
100
AcDbLine
 10
113.9403535205
 20
100.5523498423
 30
0.0
 11
113.9403535205
 21
96.5523506767
 31
0.0
  0
LINE
  5
75
330
1F
100
AcDbEntity
  8
0
  6
Continuous
 62
     7
370
    15
100
AcDbLine
 10
113.9403535205
 20
96.5523506767
 30
0.0
 11
114.3903536874
 21
96.5523506767
 31
0.0
  0
LINE
  5
76
330
1F
100
AcDbEntity
  8
0
  6
Continuous
 62
     7
370
    15
100
AcDbLine
 10
144.490352847
 20
96.5523506767
 30
0.0
 11
144.9403530139
 21
96.5523506767
 31
0.0
  0
CIRCLE
  5
77
330
1F
100
AcDbEntity
  8
0
  6
Continuous
 62
     7
370
    15
100
AcDbCircle
 10
119.6903534907
 20
120.6523504264
 30
0.0
 40
2.75
  0
CIRCLE
  5
78
330
1F
100
AcDbEntity
  8
0
  6
Continuous
 62
     7
370
    15
100
AcDbCircle
 10
119.6903534907
 20
120.6523504264
 30
0.0
 40
2.060000000000002
  0
CIRCLE
  5
79
330
1F
100
AcDbEntity
  8
0
  6
Continuous
 62
     7
370
    15
100
AcDbCircle
 10
124.2903534907
 20
114.1523504264
 30
0.0
 40
2.0
  0
CIRCLE
  5
7A
330
1F
100
AcDbEntity
  8
0
  6
Continuous
 62
     7
370
    15
100
AcDbCircle
 10
124.2903534907
 20
114.1523504264
 30
0.0
 40
1.310000000000002
  0
LINE
  5
7B
330
1F
100
AcDbEntity
  8
0
  6
Continuous
 62
     7
370
    15
100
AcDbLine
 10
122.5653534907
 20
117.7773504276
 30
0.0
 11
122.5653534907
 21
123.5273505814
 31
0.0
  0
LINE
  5
7C
330
1F
100
AcDbEntity
  8
0
  6
Continuous
 62
     7
370
    15
100
AcDbLine
 10
122.5653534907
 20
123.5273505814
 30
0.0
 11
116.8153537589
 21
123.5273505814
 31
0.0
  0
LINE
  5
7D
330
1F
100
AcDbEntity
  8
0
  6
Continuous
 62
     7
370
    15
100
AcDbLine
 10
116.8153537589
 20
117.7773504276
 30
0.0
 11
122.5653534907
 21
117.7773504276
 31
0.0
  0
LINE
  5
7E
330
1F
100
AcDbEntity
  8
0
  6
Continuous
 62
     7
370
    15
100
AcDbLine
 10
116.8153537589
 20
123.5273505814
 30
0.0
 11
116.8153537589
 21
117.7773504276
 31
0.0
  0
ELLIPSE
  5
7F
330
1F
100
AcDbEntity
  8
0
  6
Continuous
 62
     7
370
    15
100
AcDbEllipse
 10
127.5549668825
 20
117.7523504264
 30
0.0
 11
0.0
 21
14.49999999999999
 31
0.0
210
0.0
220
0.0
230
1.0
 40
0.5773502692
 41
0.9626169859524694
 42
1.006242839540101
  0
ELLIPSE
  5
80
330
1F
100
AcDbEntity
  8
0
  6
Continuous
 62
     7
370
    15
100
AcDbEllipse
 10
113.0057400989
 20
117.7523504264
 30
0.0
 11
0.0
 21
14.49999999999999
 31
0.0
210
0.0
220
0.0
230
1.0
 40
0.5773502692
 41
5.276942467639495
 42
5.320568321227127
  0
LINE
  5
81
330
1F
100
AcDbEntity
  8
0
  6
Continuous
 62
     7
370
    15
100
AcDbLine
 10
120.0782807696
 20
125.5104105241
 30
0.0
 11
120.4824259656
 21
125.5104105241
 31
0.0
  0
LINE
  5
82
330
1F
100
AcDbEntity
  8
0
  6
Continuous
 62
     7
370
    15
100
AcDbLine
 10
116.8153537589
 20
123.0904436923
 30
0.0
 11
114.5503534156
 21
123.0904436923
 31
0.0
  0
LINE
  5
83
330
1F
100
AcDbEntity
  8
0
  6
Continuous
 62
     7
370
    15
100
AcDbLine
 10
114.5503534156
 20
125.3959889776
 30
0.0
 11
114.5503534156
 21
132.2523500092
 31
0.0
  0
LINE
  5
84
330
1F
100
AcDbEntity
  8
0
  6
Continuous
 62
     7
370
    15
100
AcDbLine
 10
114.5503534156
 20
103.2523508436
 30
0.0
 11
114.5503534156
 21
123.0904436923
 31
0.0
  0
LINE
  5
85
330
1F
100
AcDbEntity
  8
0
  6
Continuous
 62
     7
370
    15
100
AcDbLine
 10
121.4903535473
 20
125.3959889776
 30
0.0
 11
121.4903535473
 21
132.2523500092
 31
0.0
  0
LINE
  5
86
330
1F
100
AcDbEntity
  8
0
  6
Continuous
 62
     7
370
    15
100
AcDbLine
 10
121.4903535473
 20
103.2523508436
 30
0.0
 11
121.4903535473
 21
117.7773504276
 31
0.0
  0
LINE
  5
87
330
1F
100
AcDbEntity
  8
0
  6
Continuous
 62
     7
370
    15
100
AcDbLine
 10
124.2503535154
 20
123.4535045243
 30
0.0
 11
122.5653534907
 21
123.4535045243
 31
0.0
  0
LINE
  5
88
330
1F
100
AcDbEntity
  8
0
  6
Continuous
 62
     7
370
    15
100
AcDbLine
 10
124.2503535154
 20
122.3558101124
 30
0.0
 11
124.2503535154
 21
123.4535045243
 31
0.0
  0
LINE
  5
89
330
1F
100
AcDbEntity
  8
0
  6
Continuous
 62
     7
370
    15
100
AcDbLine
 10
124.2503535154
 20
122.3558101124
 30
0.0
 11
122.5653534907
 21
122.3558101124
 31
0.0
  0
LINE
  5
8A
330
1F
100
AcDbEntity
  8
0
  6
Continuous
 62
     7
370
    15
100
AcDbLine
 10
116.8153537589
 20
123.4535045243
 30
0.0
 11
114.5503534156
 21
123.4535045243
 31
0.0
  0
LINE
  5
8B
330
1F
100
AcDbEntity
  8
0
  6
Continuous
 62
     7
370
    15
100
AcDbLine
 10
114.5503534156
 20
123.0904436923
 30
0.0
 11
114.5503534156
 21
123.4535045243
 31
0.0
  0
LINE
  5
8C
330
1F
100
AcDbEntity
  8
0
  6
Continuous
 62
     7
370
    15
100
AcDbLine
 10
124.2503535154
 20
125.3959889776
 30
0.0
 11
114.5503534156
 21
125.3959889776
 31
0.0
  0
LINE
  5
8D
330
1F
100
AcDbEntity
  8
0
  6
Continuous
 62
     7
370
    15
100
AcDbLine
 10
124.2503535154
 20
123.4535045243
 30
0.0
 11
124.2503535154
 21
125.3959889776
 31
0.0
  0
LINE
  5
8E
330
1F
100
AcDbEntity
  8
0
  6
Continuous
 62
     7
370
    15
100
AcDbLine
 10
114.5503534156
 20
123.4535045243
 30
0.0
 11
114.5503534156
 21
125.3959889776
 31
0.0
  0
LINE
  5
8F
330
1F
100
AcDbEntity
  8
0
  6
Continuous
 62
     7
370
    15
100
AcDbLine
 10
113.5503536242
 20
117.7523504264
 30
0.0
 11
113.5503536242
 21
130.3523506291
 31
0.0
  0
LINE
  5
90
330
1F
100
AcDbEntity
  8
0
  6
Continuous
 62
     7
370
    15
100
AcDbLine
 10
113.5503536242
 20
105.1523502237
 30
0.0
 11
113.5503536242
 21
117.7523504264
 31
0.0
  0
LINE
  5
91
330
1F
100
AcDbEntity
  8
0
  6
Continuous
 62
     7
370
    15
100
AcDbLine
 10
120.68449875
 20
127.304550565
 30
0.0
 11
120.68449875
 21
126.0372768409
 31
0.0
  0
LINE
  5
92
330
1F
100
AcDbEntity
  8
0
  6
Continuous
 62
     7
370
    15
100
AcDbLine
 10
120.4824259656
 20
127.304550565
 30
0.0
 11
120.4824259656
 21
125.5104105241
 31
0.0
  0
LINE
  5
93
330
1F
100
AcDbEntity
  8
0
  6
Continuous
 62
     7
370
    15
100
AcDbLine
 10
120.4824259656
 20
127.304550565
 30
0.0
 11
120.68449875
 21
127.304550565
 31
0.0
  0
LINE
  5
94
330
1F
100
AcDbEntity
  8
0
  6
Continuous
 62
     7
370
    15
100
AcDbLine
 10
120.0782807696
 20
127.304550565
 30
0.0
 11
120.0782807696
 21
125.5104105241
 31
0.0
  0
LINE
  5
95
330
1F
100
AcDbEntity
  8
0
  6
Continuous
 62
     7
370
    15
100
AcDbLine
 10
119.8762083578
 20
127.304550565
 30
0.0
 11
119.8762083578
 21
126.0372768409
 31
0.0
  0
LINE
  5
96
330
1F
100
AcDbEntity
  8
0
  6
Continuous
 62
     7
370
    15
100
AcDbLine
 10
119.8762083578
 20
127.304550565
 30
0.0
 11
120.0782807696
 21
127.304550565
 31
0.0
  0
LINE
  5
97
330
1F
100
AcDbEntity
  8
0
  6
Continuous
 62
     7
370
    15
100
AcDbLine
 10
120.0782807696
 20
127.304550565
 30
0.0
 11
120.4824259656
 21
127.304550565
 31
0.0
  0
LINE
  5
98
330
1F
100
AcDbEntity
  8
0
  6
Continuous
 62
     7
370
    15
100
AcDbLine
 10
124.2503535154
 20
123.7390022046
 30
0.0
 11
125.6903534907
 21
123.7390022046
 31
0.0
  0
LINE
  5
99
330
1F
100
AcDbEntity
  8
0
  6
Continuous
 62
     7
370
    15
100
AcDbLine
 10
121.4903535473
 20
111.7656986482
 30
0.0
 11
125.6903534907
 21
111.7656986482
 31
0.0
  0
LINE
  5
9A
330
1F
100
AcDbEntity
  8
0
  6
Continuous
 62
     7
370
    15
100
AcDbLine
 10
125.6903534907
 20
111.7656986482
 30
0.0
 11
125.6903534907
 21
112.7240645952
 31
0.0
  0
LINE
  5
9B
330
1F
100
AcDbEntity
  8
0
  6
Continuous
 62
     7
370
    15
100
AcDbLine
 10
125.6903534907
 20
121.9272754408
 30
0.0
 11
125.6903534907
 21
123.7390022046
 31
0.0
  0
LINE
  5
9C
330
1F
100
AcDbEntity
  8
0
  6
Continuous
 62
     7
370
    15
100
AcDbLine
 10
125.6903534907
 20
123.7390022046
 30
0.0
 11
125.6903534907
 21
131.2523509628
 31
0.0
  0
LINE
  5
9D
330
1F
100
AcDbEntity
  8
0
  6
Continuous
 62
     7
370
    15
100
AcDbLine
 10
125.6903534907
 20
109.6523504026
 30
0.0
 11
125.6903534907
 21
111.7656986482
 31
0.0
  0
LINE
  5
9E
330
1F
100
AcDbEntity
  8
0
  6
Continuous
 62
     7
370
    15
100
AcDbLine
 10
109.7803538817
 20
117.7523504264
 30
0.0
 11
109.7803538817
 21
129.5523504979
 31
0.0
  0
LINE
  5
9F
330
1F
100
AcDbEntity
  8
0
  6
Continuous
 62
     7
370
    15
100
AcDbLine
 10
109.7803538817
 20
105.9523503549
 30
0.0
 11
109.7803538817
 21
117.7523504264
 31
0.0
  0
SPLINE
  5
A0
330
1F
100
AcDbEntity
  8
0
  6
Continuous
 62
     7
370
    15
100
AcDbSpline
210
0.0
220
0.0
230
1.0
 70
     8
 71
     3
 72
    10
 73
     6
 74
     0
 42
0.00000001
 43
0.00000001
 40
0.0
 40
0.0
 40
0.0
 40
0.0
 40
0.5
 40
0.5
 40
1.0
 40
1.0
 40
1.0
 40
1.0
 10
143.3474602718903
 20
101.952350426399
 30
0.0
 10
143.321948043072
 20
101.952350426399
 30
0.0
 10
143.2954263940832
 20
101.9574251242304
 30
0.0
 10
143.246420776729
 20
101.9777239155693
 30
0.0
 10
143.2240787856148
 20
101.9928892001742
 30
0.0
 10
143.2060389155899
 20
102.0109290701992
 30
0.0
  0
LINE
  5
A1
330
1F
100
AcDbEntity
  8
0
  6
Continuous
 62
     7
370
    15
100
AcDbLine
 10
142.4489325064
 20
102.7680362827
 30
0.0
 11
143.2060396451
 21
102.0109291441
 31
0.0
  0
SPLINE
  5
A2
330
1F
100
AcDbEntity
  8
0
  6
Continuous
 62
     7
370
    15
100
AcDbSpline
210
0.0
220
0.0
230
1.0
 70
     8
 71
     3
 72
    10
 73
     6
 74
     0
 42
0.00000001
 43
0.00000001
 40
0.0
 40
0.0
 40
0.0
 40
0.0
 40
0.5
 40
0.5
 40
1.0
 40
1.0
 40
1.0
 40
1.0
 10
142.44893213449
 20
102.7680358512993
 30
0.0
 10
142.4308922644651
 20
102.7860757213243
 30
0.0
 10
142.4157269798601
 20
102.8084177124385
 30
0.0
 10
142.3954281885212
 20
102.8574233297926
 30
0.0
 10
142.3903534906898
 20
102.8839449787814
 30
0.0
 10
142.3903534906899
 20
102.9094572075997
 30
0.0
  0
LINE
  5
A3
330
1F
100
AcDbEntity
  8
0
  6
Continuous
 62
     7
370
    15
100
AcDbLine
 10
142.3903530615
 20
107.3952439494
 30
0.0
 11
142.3903530615
 21
102.9094572432
 31
0.0
  0
SPLINE
  5
A4
330
1F
100
AcDbEntity
  8
0
  6
Continuous
 62
     7
370
    15
100
AcDbSpline
210
0.0
220
0.0
230
1.0
 70
     8
 71
     3
 72
    10
 73
     6
 74
     0
 42
0.00000001
 43
0.00000001
 40
0.0
 40
0.0
 40
0.0
 40
0.0
 40
0.5
 40
0.5
 40
1.0
 40
1.0
 40
1.0
 40
1.0
 10
142.3903534906896
 20
107.3952436451997
 30
0.0
 10
142.3903534906896
 20
107.4207558740179
 30
0.0
 10
142.3954281885211
 20
107.4472775230068
 30
0.0
 10
142.4157269798599
 20
107.496283140361
 30
0.0
 10
142.4308922644649
 20
107.5186251314752
 30
0.0
 10
142.4489321344898
 20
107.5366650015001
 30
0.0
  0
LINE
  5
A5
330
1F
100
AcDbEntity
  8
0
  6
Continuous
 62
     7
370
    15
100
AcDbLine
 10
143.2060396451
 20
108.2937720484
 30
0.0
 11
142.4489325064
 21
107.5366649098
 31
0.0
  0
SPLINE
  5
A6
330
1F
100
AcDbEntity
  8
0
  6
Continuous
 62
     7
370
    15
100
AcDbSpline
210
0.0
220
0.0
230
1.0
 70
     8
 71
     3
 72
    10
 73
     6
 74
     0
 42
0.00000001
 43
0.00000001
 40
0.0
 40
0.0
 40
0.0
 40
0.0
 40
0.5
 40
0.5
 40
1.0
 40
1.0
 40
1.0
 40
1.0
 10
143.2060389155925
 20
108.2937717825975
 30
0.0
 10
143.2240787856171
 20
108.3118116526221
 30
0.0
 10
143.2464207767309
 20
108.3269769372268
 30
0.0
 10
143.2954263940842
 20
108.3472757285653
 30
0.0
 10
143.3219480430725
 20
108.3523504263966
 30
0.0
 10
143.3474602718903
 20
108.3523504263966
 30
0.0
  0
LINE
  5
A7
330
1F
100
AcDbEntity
  8
0
  6
Continuous
 62
     7
370
    15
100
AcDbLine
 10
148.7332469004
 20
108.3523507483
 30
0.0
 11
143.3474606055
 21
108.3523507483
 31
0.0
  0
SPLINE
  5
A8
330
1F
100
AcDbEntity
  8
0
  6
Continuous
 62
     7
370
    15
100
AcDbSpline
210
0.0
220
0.0
230
1.0
 70
     8
 71
     3
 72
    10
 73
     6
 74
     0
 42
0.00000001
 43
0.00000001
 40
0.0
 40
0.0
 40
0.0
 40
0.0
 40
0.5
 40
0.5
 40
1.0
 40
1.0
 40
1.0
 40
1.0
 10
148.7332467094903
 20
108.3523504264003
 30
0.0
 10
148.7587589383086
 20
108.3523504264003
 30
0.0
 10
148.7852805872975
 20
108.3472757285689
 30
0.0
 10
148.8342862046516
 20
108.32697693723
 30
0.0
 10
148.8566281957658
 20
108.3118116526251
 30
0.0
 10
148.8746680657908
 20
108.2937717826001
 30
0.0
  0
LINE
  5
A9
330
1F
100
AcDbEntity
  8
0
  6
Continuous
 62
     7
370
    15
100
AcDbLine
 10
149.6317749995
 20
107.5366649098
 30
0.0
 11
148.8746678608
 21
108.2937720484
 31
0.0
  0
SPLINE
  5
AA
330
1F
100
AcDbEntity
  8
0
  6
Continuous
 62
     7
370
    15
100
AcDbSpline
210
0.0
220
0.0
230
1.0
 70
     8
 71
     3
 72
    10
 73
     6
 74
     0
 42
0.00000001
 43
0.00000001
 40
0.0
 40
0.0
 40
0.0
 40
0.0
 40
0.5
 40
0.5
 40
1.0
 40
1.0
 40
1.0
 40
1.0
 10
149.6317748468906
 20
107.5366650015
 30
0.0
 10
149.6498147169156
 20
107.5186251314751
 30
0.0
 10
149.6649800015205
 20
107.4962831403609
 30
0.0
 10
149.6852787928594
 20
107.4472775230068
 30
0.0
 10
149.6903534906908
 20
107.4207558740179
 30
0.0
 10
149.6903534906908
 20
107.3952436451997
 30
0.0
  0
LINE
  5
AB
330
1F
100
AcDbEntity
  8
0
  6
Continuous
 62
     7
370
    15
100
AcDbLine
 10
149.6903529542
 20
102.9094572432
 30
0.0
 11
149.6903529542
 21
107.3952439494
 31
0.0
  0
SPLINE
  5
AC
330
1F
100
AcDbEntity
  8
0
  6
Continuous
 62
     7
370
    15
100
AcDbSpline
210
0.0
220
0.0
230
1.0
 70
     8
 71
     3
 72
    10
 73
     6
 74
     0
 42
0.00000001
 43
0.00000001
 40
0.0
 40
0.0
 40
0.0
 40
0.0
 40
0.5
 40
0.5
 40
1.0
 40
1.0
 40
1.0
 40
1.0
 10
149.690353490691
 20
102.9094572075997
 30
0.0
 10
149.690353490691
 20
102.8839449787814
 30
0.0
 10
149.6852787928596
 20
102.8574233297925
 30
0.0
 10
149.6649800015207
 20
102.8084177124384
 30
0.0
 10
149.6498147169157
 20
102.7860757213241
 30
0.0
 10
149.6317748468908
 20
102.7680358512992
 30
0.0
  0
LINE
  5
AD
330
1F
100
AcDbEntity
  8
0
  6
Continuous
 62
     7
370
    15
100
AcDbLine
 10
148.8746678608
 20
102.0109291441
 30
0.0
 11
149.6317749995
 21
102.7680362827
 31
0.0
  0
SPLINE
  5
AE
330
1F
100
AcDbEntity
  8
0
  6
Continuous
 62
     7
370
    15
100
AcDbSpline
210
0.0
220
0.0
230
1.0
 70
     8
 71
     3
 72
    10
 73
     6
 74
     0
 42
0.00000001
 43
0.00000001
 40
0.0
 40
0.0
 40
0.0
 40
0.0
 40
0.5
 40
0.5
 40
1.0
 40
1.0
 40
1.0
 40
1.0
 10
148.8746680657906
 20
102.0109290701994
 30
0.0
 10
148.8566281957657
 20
101.9928892001744
 30
0.0
 10
148.8342862046515
 20
101.9777239155694
 30
0.0
 10
148.7852805872974
 20
101.9574251242306
 30
0.0
 10
148.7587589383086
 20
101.9523504263992
 30
0.0
 10
148.7332467094903
 20
101.9523504263992
 30
0.0
  0
LINE
  5
AF
330
1F
100
AcDbEntity
  8
0
  6
Continuous
 62
     7
370
    15
100
AcDbLine
 10
143.3474606055
 20
101.9523496992
 30
0.0
 11
148.7332469004
 21
101.9523496992
 31
0.0
  0
LINE
  5
B0
330
1F
100
AcDbEntity
  8
0
  6
Continuous
 62
     7
370
    15
100
AcDbLine
 10
142.2367995757
 20
102.555903352
 30
0.0
 11
142.4489325064
 21
102.7680362827
 31
0.0
  0
LWPOLYLINE
  5
B1
330
1F
100
AcDbEntity
  8
0
  6
Continuous
 62
     7
370
    15
100
AcDbPolyline
 90
        9
 70
   128
 43
0.0
 10
143.2060396451
 20
102.0109291441
 10
143.1646546501
 20
101.9695441491
 10
143.124859609
 20
101.929749108
 10
143.0881848711
 20
101.8930743701
 10
143.056038596
 20
101.8609295852
 10
143.0296575802
 20
101.8345470793
 10
143.0100551027
 20
101.8149446017
 10
142.997983672
 20
101.8028731711
 10
142.9939067143
 20
101.7987977035
  0
LINE
  5
B2
330
1F
100
AcDbEntity
  8
0
  6
Continuous
 62
     7
370
    15
100
AcDbLine
 10
142.2367995757
 20
102.555903352
 30
0.0
 11
142.9939067143
 21
101.7987977035
 31
0.0
  0
LWPOLYLINE
  5
B3
330
1F
100
AcDbEntity
  8
0
  6
Continuous
 62
     7
370
    15
100
AcDbPolyline
 90
        9
 70
   128
 43
0.0
 10
148.8746678608
 20
108.2937720484
 10
148.9160528558
 20
108.3351570434
 10
148.9558478969
 20
108.3749513394
 10
148.9925226348
 20
108.4116260774
 10
149.0246674198
 20
108.4437716074
 10
149.0510499257
 20
108.4701533682
 10
149.0706524032
 20
108.4897565908
 10
149.0827238339
 20
108.5018280215
 10
149.0868007916
 20
108.5059034891
  0
LINE
  5
B4
330
1F
100
AcDbEntity
  8
0
  6
Continuous
 62
     7
370
    15
100
AcDbLine
 10
149.8439064401
 20
107.7487970955
 30
0.0
 11
149.0868007916
 21
108.5059034891
 31
0.0
  0
LWPOLYLINE
  5
B5
330
1F
100
AcDbEntity
  8
0
  6
Continuous
 62
     7
370
    15
100
AcDbPolyline
 90
        9
 70
   128
 43
0.0
 10
149.8439064401
 20
107.7487970955
 10
149.8398309725
 20
107.7447208829
 10
149.8277595418
 20
107.7326494522
 10
149.8081555742
 20
107.7130462296
 10
149.7817745584
 20
107.6866652138
 10
149.7496297735
 20
107.6545189387
 10
149.7129535454
 20
107.6178442008
 10
149.6731599945
 20
107.5780499048
 10
149.6317749995
 20
107.5366649098
  0
LWPOLYLINE
  5
B6
330
1F
100
AcDbEntity
  8
0
  6
Continuous
 62
     7
370
    15
100
AcDbPolyline
 90
        9
 70
   128
 43
0.0
 10
142.9939067143
 20
108.5059034891
 10
142.997983672
 20
108.5018280215
 10
143.0100551027
 20
108.4897565908
 10
143.0296575802
 20
108.4701533682
 10
143.056038596
 20
108.4437716074
 10
143.0881848711
 20
108.4116260774
 10
143.124859609
 20
108.3749513394
 10
143.1646546501
 20
108.3351570434
 10
143.2060396451
 20
108.2937720484
  0
LWPOLYLINE
  5
B7
330
1F
100
AcDbEntity
  8
0
  6
Continuous
 62
     7
370
    15
100
AcDbPolyline
 90
        9
 70
   128
 43
0.0
 10
142.4489325064
 20
107.5366649098
 10
142.4075475114
 20
107.5780499048
 10
142.3677524704
 20
107.6178442008
 10
142.3310777324
 20
107.6545189387
 10
142.2989314574
 20
107.6866652138
 10
142.2725504416
 20
107.7130462296
 10
142.2529479641
 20
107.7326494522
 10
142.2408765334
 20
107.7447208829
 10
142.2367995757
 20
107.7487970955
  0
LINE
  5
B8
330
1F
100
AcDbEntity
  8
0
  6
Continuous
 62
     7
370
    15
100
AcDbLine
 10
142.9939067143
 20
108.5059034891
 30
0.0
 11
142.2367995757
 21
107.7487970955
 31
0.0
  0
LWPOLYLINE
  5
B9
330
1F
100
AcDbEntity
  8
0
  6
Continuous
 62
     7
370
    15
100
AcDbPolyline
 90
        9
 70
   128
 43
0.0
 10
149.6317749995
 20
102.7680362827
 10
149.6731599945
 20
102.7266512878
 10
149.7129535454
 20
102.6868562467
 10
149.7496297735
 20
102.6501815087
 10
149.7817745584
 20
102.6180352337
 10
149.8081555742
 20
102.5916542179
 10
149.8277595418
 20
102.5720517404
 10
149.8398309725
 20
102.5599803097
 10
149.8439064401
 20
102.555903352
  0
LINE
  5
BA
330
1F
100
AcDbEntity
  8
0
  6
Continuous
 62
     7
370
    15
100
AcDbLine
 10
149.0868007916
 20
101.7987977035
 30
0.0
 11
149.8439064401
 21
102.555903352
 31
0.0
  0
LWPOLYLINE
  5
BB
330
1F
100
AcDbEntity
  8
0
  6
Continuous
 62
     7
370
    15
100
AcDbPolyline
 90
        9
 70
   128
 43
0.0
 10
149.0868007916
 20
101.7987977035
 10
149.0827238339
 20
101.8028731711
 10
149.0706524032
 20
101.8149446017
 10
149.0510499257
 20
101.8345470793
 10
149.0246674198
 20
101.8609295852
 10
148.9925226348
 20
101.8930743701
 10
148.9558478969
 20
101.929749108
 10
148.9160528558
 20
101.9695441491
 10
148.8746678608
 20
102.0109291441
  0
LINE
  5
BC
330
1F
100
AcDbEntity
  8
0
  6
Continuous
 62
     7
370
    15
100
AcDbLine
 10
142.0903539437
 20
107.3952439494
 30
0.0
 11
142.3903530615
 21
107.3952439494
 31
0.0
  0
LINE
  5
BD
330
1F
100
AcDbEntity
  8
0
  6
Continuous
 62
     7
370
    15
100
AcDbLine
 10
142.3903530615
 20
102.9094572432
 30
0.0
 11
142.0903539437
 21
102.9094572432
 31
0.0
  0
LINE
  5
BE
330
1F
100
AcDbEntity
  8
0
  6
Continuous
 62
     7
370
    15
100
AcDbLine
 10
142.0903539437
 20
107.3952439494
 30
0.0
 11
142.0903539437
 21
102.9094572432
 31
0.0
  0
LINE
  5
BF
330
1F
100
AcDbEntity
  8
0
  6
Continuous
 62
     7
370
    15
100
AcDbLine
 10
149.6903529542
 20
107.3952439494
 30
0.0
 11
149.9903535622
 21
107.3952439494
 31
0.0
  0
LINE
  5
C0
330
1F
100
AcDbEntity
  8
0
  6
Continuous
 62
     7
370
    15
100
AcDbLine
 10
149.9903535622
 20
102.9094572432
 30
0.0
 11
149.9903535622
 21
107.3952439494
 31
0.0
  0
LINE
  5
C1
330
1F
100
AcDbEntity
  8
0
  6
Continuous
 62
     7
370
    15
100
AcDbLine
 10
149.9903535622
 20
102.9094572432
 30
0.0
 11
149.6903529542
 21
102.9094572432
 31
0.0
  0
LINE
  5
C2
330
1F
100
AcDbEntity
  8
0
  6
Continuous
 62
     7
370
    15
100
AcDbLine
 10
143.3474606055
 20
101.6523505814
 30
0.0
 11
143.3474606055
 21
101.9523496992
 31
0.0
  0
LINE
  5
C3
330
1F
100
AcDbEntity
  8
0
  6
Continuous
 62
     7
370
    15
100
AcDbLine
 10
148.7332469004
 20
101.9523496992
 30
0.0
 11
148.7332469004
 21
101.6523505814
 31
0.0
  0
LINE
  5
C4
330
1F
100
AcDbEntity
  8
0
  6
Continuous
 62
     7
370
    15
100
AcDbLine
 10
143.3474606055
 20
101.6523505814
 30
0.0
 11
148.7332469004
 21
101.6523505814
 31
0.0
  0
LINE
  5
C5
330
1F
100
AcDbEntity
  8
0
  6
Continuous
 62
     7
370
    15
100
AcDbLine
 10
148.7332469004
 20
108.6523506112
 30
0.0
 11
148.7332469004
 21
108.3523507483
 31
0.0
  0
LINE
  5
C6
330
1F
100
AcDbEntity
  8
0
  6
Continuous
 62
     7
370
    15
100
AcDbLine
 10
143.3474606055
 20
108.3523507483
 30
0.0
 11
143.3474606055
 21
108.6523506112
 31
0.0
  0
LINE
  5
C7
330
1F
100
AcDbEntity
  8
0
  6
Continuous
 62
     7
370
    15
100
AcDbLine
 10
148.7332469004
 20
108.6523506112
 30
0.0
 11
143.3474606055
 21
108.6523506112
 31
0.0
  0
ARC
  5
C8
330
1F
100
AcDbEntity
  8
0
  6
Continuous
 62
     7
370
    15
100
AcDbCircle
 10
148.7332467095
 20
102.1523504264
 30
0.0
 40
0.5
100
AcDbArc
 50
270.000000022
 51
314.9999999993
  0
ARC
  5
C9
330
1F
100
AcDbEntity
  8
0
  6
Continuous
 62
     7
370
    15
100
AcDbCircle
 10
143.3474602719
 20
108.1523504264
 30
0.0
 40
0.5
100
AcDbArc
 50
89.9999999882
 51
135.0000000228
  0
ARC
  5
CA
330
1F
100
AcDbEntity
  8
0
  6
Continuous
 62
     7
370
    15
100
AcDbCircle
 10
143.3474602719
 20
102.1523504264
 30
0.0
 40
0.5
100
AcDbArc
 50
224.9999999875
 51
270.000000022
  0
ARC
  5
CB
330
1F
100
AcDbEntity
  8
0
  6
Continuous
 62
     7
370
    15
100
AcDbCircle
 10
148.7332467095
 20
108.1523504264
 30
0.0
 40
0.5
100
AcDbArc
 50
45.000000011
 51
89.9999999883
  0
ARC
  5
CC
330
1F
100
AcDbEntity
  8
0
  6
Continuous
 62
     7
370
    15
100
AcDbCircle
 10
142.5903534907
 20
107.3952436452
 30
0.0
 40
0.5
100
AcDbArc
 50
135.0000000228
 51
180.0
  0
ARC
  5
CD
330
1F
100
AcDbEntity
  8
0
  6
Continuous
 62
     7
370
    15
100
AcDbCircle
 10
149.4903534907
 20
102.9094572076
 30
0.0
 40
0.500000000000004
100
AcDbArc
 50
314.9999999993
 51
359.9999999765
  0
ARC
  5
CE
330
1F
100
AcDbEntity
  8
0
  6
Continuous
 62
     7
370
    15
100
AcDbCircle
 10
149.4903534907
 20
107.3952436452
 30
0.0
 40
0.5
100
AcDbArc
 50
359.9999999765
 51
45.000000011
  0
ARC
  5
CF
330
1F
100
AcDbEntity
  8
0
  6
Continuous
 62
     7
370
    15
100
AcDbCircle
 10
142.5903534907
 20
102.9094572076
 30
0.0
 40
0.5000000000000141
100
AcDbArc
 50
180.0
 51
224.9999999875
  0
LINE
  5
D0
330
1F
100
AcDbEntity
  8
0
  6
Continuous
 62
     7
370
    15
100
AcDbLine
 10
126.4903535287
 20
110.8821246094
 30
0.0
 11
125.9126205615
 21
110.8821246094
 31
0.0
  0
LINE
  5
D1
330
1F
100
AcDbEntity
  8
0
  6
Continuous
 62
     7
370
    15
100
AcDbLine
 10
125.6903534907
 20
115.580636195
 30
0.0
 11
125.6903534907
 21
121.9272754408
 31
0.0
  0
LINE
  5
D2
330
1F
100
AcDbEntity
  8
0
  6
Continuous
 62
     7
370
    15
100
AcDbLine
 10
126.4903535287
 20
110.8821246094
 30
0.0
 11
126.4903535287
 21
130.5523510344
 31
0.0
  0
ARC
  5
D3
330
1F
100
AcDbEntity
  8
0
  6
Continuous
 62
     7
370
    15
100
AcDbCircle
 10
150.1579364248
 20
101.2307241063
 30
0.0
 40
0.4789648099865538
100
AcDbArc
 50
272.8464681126
 51
2.5878324527
  0
LINE
  5
D4
330
1F
100
AcDbEntity
  8
0
  6
Continuous
 62
     7
370
    15
100
AcDbLine
 10
150.1817217248
 20
100.7523502476
 30
0.0
 11
149.9737402576
 21
100.7523502476
 31
0.0
  0
ARC
  5
D5
330
1F
100
AcDbEntity
  8
0
  6
Continuous
 62
     7
370
    15
100
AcDbCircle
 10
149.9499549576
 20
101.2307241063
 30
0.0
 40
0.4789648099865814
100
AcDbArc
 50
272.8464681126
 51
2.5878324527
  0
LINE
  5
D6
330
1F
100
AcDbEntity
  8
0
  6
Continuous
 62
     7
370
    15
100
AcDbLine
 10
150.6364127773
 20
101.2523497707
 30
0.0
 11
150.42843131
 21
101.2523497707
 31
0.0
  0
LINE
  5
D7
330
1F
100
AcDbEntity
  8
0
  6
Continuous
 62
     7
370
    15
100
AcDbLine
 10
150.6364127773
 20
101.2523497707
 30
0.0
 11
150.6364127773
 21
109.0523506767
 31
0.0
  0
LINE
  5
D8
330
1F
100
AcDbEntity
  8
0
  6
Continuous
 62
     7
370
    15
100
AcDbLine
 10
150.42843131
 20
101.2523497707
 30
0.0
 11
150.42843131
 21
109.0523506767
 31
0.0
  0
LINE
  5
D9
330
1F
100
AcDbEntity
  8
0
  6
Continuous
 62
     7
370
    15
100
AcDbLine
 10
150.6364127773
 20
109.0523506767
 30
0.0
 11
150.42843131
 21
109.0523506767
 31
0.0
  0
LINE
  5
DA
330
1F
100
AcDbEntity
  8
0
  6
Continuous
 62
     7
370
    15
100
AcDbLine
 10
141.6910043138
 20
100.7523502476
 30
0.0
 11
149.9737402576
 21
100.7523502476
 31
0.0
  0
ARC
  5
DB
330
1F
100
AcDbEntity
  8
0
  6
Continuous
 62
     7
370
    15
100
AcDbCircle
 10
141.7147873274
 20
101.230722027
 30
0.0
 40
0.4789626197499124
100
AcDbArc
 50
177.4119067202
 51
267.1537927145
  0
LINE
  5
DC
330
1F
100
AcDbEntity
  8
0
  6
Continuous
 62
     7
370
    15
100
AcDbLine
 10
141.2363132614
 20
109.0523506767
 30
0.0
 11
141.2363132614
 21
101.2523497707
 31
0.0
  0
ARC
  5
DD
330
1F
100
AcDbEntity
  8
0
  6
Continuous
 62
     7
370
    15
100
AcDbCircle
 10
141.714786126
 20
109.0739795129
 30
0.0
 40
0.4789614689773213
100
AcDbArc
 50
92.8460702429
 51
182.5882303224
  0
LINE
  5
DE
330
1F
100
AcDbEntity
  8
0
  6
Continuous
 62
     7
370
    15
100
AcDbLine
 10
141.6910043138
 20
109.5523501999
 30
0.0
 11
149.9737402576
 21
109.5523501999
 31
0.0
  0
ARC
  5
DF
330
1F
100
AcDbEntity
  8
0
  6
Continuous
 62
     7
370
    15
100
AcDbCircle
 10
149.9499561589
 20
109.0739774337
 30
0.0
 40
0.4789636591978778
100
AcDbArc
 50
357.4120305046
 51
87.1536689301
  0
ARC
  5
E0
330
1F
100
AcDbEntity
  8
0
  6
Continuous
 62
     7
370
    15
100
AcDbCircle
 10
150.1579376262
 20
109.0739774337
 30
0.0
 40
0.4789636591978737
100
AcDbArc
 50
357.4120305046
 51
87.1536689301
  0
LINE
  5
E1
330
1F
100
AcDbEntity
  8
0
  6
Continuous
 62
     7
370
    15
100
AcDbLine
 10
149.9737402576
 20
109.5523501999
 30
0.0
 11
150.1817217248
 21
109.5523501999
 31
0.0
  0
LINE
  5
E2
330
1F
100
AcDbEntity
  8
0
  6
Continuous
 62
     7
370
    15
100
AcDbLine
 10
126.3403535041
 20
102.5023500688
 30
0.0
 11
133.540353753
 21
102.5023500688
 31
0.0
  0
LINE
  5
E3
330
1F
100
AcDbEntity
  8
0
  6
Continuous
 62
     7
370
    15
100
AcDbLine
 10
133.540353753
 20
105.6023503906
 30
0.0
 11
126.3403535041
 21
105.6023503906
 31
0.0
  0
LINE
  5
E4
330
1F
100
AcDbEntity
  8
0
  6
Continuous
 62
     7
370
    15
100
AcDbLine
 10
126.3403535041
 20
105.6023503906
 30
0.0
 11
126.3403535041
 21
102.5023500688
 31
0.0
  0
LINE
  5
E5
330
1F
100
AcDbEntity
  8
0
  6
Continuous
 62
     7
370
    15
100
AcDbLine
 10
133.540353753
 20
102.5023500688
 30
0.0
 11
133.540353753
 21
105.6023503906
 31
0.0
  0
LINE
  5
E6
330
1F
100
AcDbEntity
  8
0
  6
Continuous
 62
     7
370
    15
100
AcDbLine
 10
130.6903535652
 20
117.752350431
 30
0.0
 11
126.4903535287
 21
117.752350431
 31
0.0
  0
SPLINE
  5
E7
330
1F
100
AcDbEntity
  8
0
  6
Continuous
 62
     7
370
    15
100
AcDbSpline
210
0.0
220
0.0
230
1.0
 70
     8
 71
     3
 72
     8
 73
     4
 74
     0
 42
0.00000001
 43
0.00000001
 40
0.000000000000188
 40
0.000000000000188
 40
0.000000000000188
 40
0.000000000000188
 40
0.0380027073325209
 40
0.0380027073325209
 40
0.0380027073325209
 40
0.0380027073325209
 10
126.490353490654
 20
128.9381673389014
 30
0.0
 10
127.7570201615786
 20
128.9230472678681
 30
0.0
 10
129.0236868283401
 20
128.9079268480805
 30
0.0
 10
130.2903534908874
 20
128.892806075261
 30
0.0
  0
LINE
  5
E8
330
1F
100
AcDbEntity
  8
0
  6
Continuous
 62
     7
370
    15
100
AcDbLine
 10
130.6903535652
 20
128.9525012738
 30
0.0
 11
130.6903535652
 21
117.752350431
 31
0.0
  0
LINE
  5
E9
330
1F
100
AcDbEntity
  8
0
  6
Continuous
 62
     7
370
    15
100
AcDbLine
 10
130.6903535652
 20
117.752350431
 30
0.0
 11
130.6903535652
 21
114.7853140972
 31
0.0
  0
SPLINE
  5
EA
330
1F
100
AcDbEntity
  8
0
  6
Continuous
 62
     7
370
    15
100
AcDbSpline
210
0.0
220
0.0
230
1.0
 70
     8
 71
     3
 72
    10
 73
     6
 74
     0
 42
0.00000001
 43
0.00000001
 40
0.0
 40
0.0
 40
0.0
 40
0.0
 40
0.3278234161110161
 40
0.6611566995211828
 40
1.0
 40
1.0
 40
1.0
 40
1.0
 10
130.6903613666739
 20
114.7853011154914
 30
0.0
 10
130.3129953245042
 20
114.7684743819977
 30
0.0
 10
129.5519206889211
 20
114.7345381009584
 30
0.0
 10
128.4007524487923
 20
114.6841635201146
 30
0.0
 10
127.6269380362027
 20
114.6509065102638
 30
0.0
 10
127.2368592446999
 20
114.6341416968919
 30
0.0
  0
SPLINE
  5
EB
330
1F
100
AcDbEntity
  8
0
  6
Continuous
 62
     7
370
    15
100
AcDbSpline
210
0.0
220
0.0
230
1.0
 70
     8
 71
     3
 72
     8
 73
     4
 74
     0
 42
0.00000001
 43
0.00000001
 40
0.0
 40
0.0
 40
0.0
 40
0.0
 40
0.0017386261707258
 40
0.0017386261707258
 40
0.0017386261707258
 40
0.0017386261707258
 10
126.6641472763658
 20
113.0114546263481
 30
0.0
 10
126.6062160339251
 20
113.0098233332812
 30
0.0
 10
126.5482847719985
 20
113.0081927320578
 30
0.0
 10
126.4903534906713
 20
113.0065628205322
 30
0.0
  0
LINE
  5
EC
330
1F
100
AcDbEntity
  8
0
  6
Continuous
 62
     7
370
    15
100
AcDbLine
 10
133.9403538185
 20
127.252719856
 30
0.0
 11
133.9403538185
 21
108.2519809968
 31
0.0
  0
LINE
  5
ED
330
1F
100
AcDbEntity
  8
0
  6
Continuous
 62
     7
370
    15
100
AcDbLine
 10
136.1903531629
 20
101.752350784
 30
0.0
 11
130.6903721916
 21
114.7853198714
 31
0.0
  0
LINE
  5
EE
330
1F
100
AcDbEntity
  8
0
  6
Continuous
 62
     7
370
    15
100
AcDbLine
 10
136.1903531629
 20
100.5523498423
 30
0.0
 11
136.1903531629
 21
101.752350784
 31
0.0
  0
LINE
  5
EF
330
1F
100
AcDbEntity
  8
0
  6
Continuous
 62
     7
370
    15
100
AcDbLine
 10
122.6903535577
 20
101.752350784
 30
0.0
 11
122.6903535577
 21
100.5523498423
 31
0.0
  0
LINE
  5
F0
330
1F
100
AcDbEntity
  8
0
  6
Continuous
 62
     7
370
    15
100
AcDbLine
 10
125.9126205615
 20
110.8821246094
 30
0.0
 11
125.6903534907
 21
110.2523665197
 31
0.0
  0
LINE
  5
F1
330
1F
100
AcDbEntity
  8
0
  6
Continuous
 62
     7
370
    15
100
AcDbLine
 10
125.4785833799
 20
109.6523504026
 30
0.0
 11
122.6903535577
 21
101.752350784
 31
0.0
  0
LINE
  5
F2
330
1F
100
AcDbEntity
  8
0
  6
Continuous
 62
     7
370
    15
100
AcDbLine
 10
127.2368592362
 20
114.6341416306
 30
0.0
 11
126.4903535287
 21
112.5190380282
 31
0.0
  0
LINE
  5
F3
330
1F
100
AcDbEntity
  8
0
  6
Continuous
 62
     7
370
    15
100
AcDbLine
 10
153.3403521555
 20
127.8523507781
 30
0.0
 11
153.3403521555
 21
108.2523505456
 31
0.0
  0
LINE
  5
F4
330
1F
100
AcDbEntity
  8
0
  6
Continuous
 62
     7
370
    15
100
AcDbLine
 10
134.4403533417
 20
108.2523505456
 30
0.0
 11
134.4403533417
 21
127.8523507781
 31
0.0
  0
SPLINE
  5
F5
330
1F
100
AcDbEntity
  8
0
  6
Continuous
 62
     7
370
    15
100
AcDbSpline
210
0.0
220
0.0
230
1.0
 70
    24
 71
     3
 72
    13
 73
     9
 74
     0
 42
0.00000001
 43
0.00000001
 40
0.0
 40
0.0
 40
0.0
 40
0.0
 40
0.2140795949114692
 40
0.3844604147446973
 40
0.5231415057692888
 40
0.6429507354544702
 40
0.8189151772073181
 40
1.0
 40
1.0
 40
1.0
 40
1.0
 10
153.3403521555463
 20
117.7523504263997
 30
0.0
 10
153.4171567314603
 20
117.7523504263997
 30
0.0
 10
153.5550882289597
 20
117.7523504263997
 30
0.0
 10
153.7393731114853
 20
117.7523504263997
 30
0.0
 10
153.8801059776055
 20
117.7523504263997
 30
0.0
 10
153.9992604060321
 20
117.7523504263997
 30
0.0
 10
154.0834221288604
 20
117.7523504263997
 30
0.0
 10
154.1079258671708
 20
117.7523504263997
 30
0.0
 10
154.1203534382382
 20
117.7523504263997
 30
0.0
  0
LINE
  5
F6
330
1F
100
AcDbEntity
  8
0
  6
Continuous
 62
     7
370
    15
100
AcDbLine
 10
154.1203534382
 20
108.9622023768
 30
0.0
 11
154.1203534382
 21
117.7523504264
 31
0.0
  0
LINE
  5
F7
330
1F
100
AcDbEntity
  8
0
  6
Continuous
 62
     7
370
    15
100
AcDbLine
 10
154.1203534382
 20
117.7523504264
 30
0.0
 11
154.1203534382
 21
126.542498476
 31
0.0
  0
LINE
  5
F8
330
1F
100
AcDbEntity
  8
0
  6
Continuous
 62
     7
370
    15
100
AcDbLine
 10
150.6364127773
 20
108.2523505456
 30
0.0
 11
153.6403542536
 21
108.2523505456
 31
0.0
  0
LINE
  5
F9
330
1F
100
AcDbEntity
  8
0
  6
Continuous
 62
     7
370
    15
100
AcDbLine
 10
153.6403542536
 20
108.2523505456
 30
0.0
 11
153.6403542536
 21
101.752350784
 31
0.0
  0
LINE
  5
FA
330
1F
100
AcDbEntity
  8
0
  6
Continuous
 62
     7
370
    15
100
AcDbLine
 10
150.6364127773
 20
101.752350784
 30
0.0
 11
153.6403542536
 21
101.752350784
 31
0.0
  0
LINE
  5
FB
330
1F
100
AcDbEntity
  8
0
  6
Continuous
 62
     7
370
    15
100
AcDbLine
 10
139.640354194
 20
101.752350784
 30
0.0
 11
139.640354194
 21
108.2523505456
 31
0.0
  0
LINE
  5
FC
330
1F
100
AcDbEntity
  8
0
  6
Continuous
 62
     7
370
    15
100
AcDbLine
 10
139.640354194
 20
108.2523505456
 30
0.0
 11
134.4403533417
 21
108.2523505456
 31
0.0
  0
LINE
  5
FD
330
1F
100
AcDbEntity
  8
0
  6
Continuous
 62
     7
370
    15
100
AcDbLine
 10
136.1903531629
 20
101.752350784
 30
0.0
 11
139.640354194
 21
101.752350784
 31
0.0
  0
LINE
  5
FE
330
1F
100
AcDbEntity
  8
0
  6
Continuous
 62
     7
370
    15
100
AcDbLine
 10
134.4403533417
 20
105.8992180295
 30
0.0
 11
134.4403533417
 21
108.2523505456
 31
0.0
  0
LINE
  5
FF
330
1F
100
AcDbEntity
  8
0
  6
Continuous
 62
     7
370
    15
100
AcDbLine
 10
139.640354194
 20
108.2523505456
 30
0.0
 11
141.2363132614
 21
108.2523505456
 31
0.0
  0
LINE
  5
100
330
1F
100
AcDbEntity
  8
0
  6
Continuous
 62
     7
370
    15
100
AcDbLine
 10
139.640354194
 20
101.752350784
 30
0.0
 11
141.2363132614
 21
101.752350784
 31
0.0
  0
LINE
  5
101
330
1F
100
AcDbEntity
  8
0
  6
Continuous
 62
     7
370
    15
100
AcDbLine
 10
130.2903534996
 20
128.892805732
 30
0.0
 11
130.2903534996
 21
130.0523507661
 31
0.0
  0
LINE
  5
102
330
1F
100
AcDbEntity
  8
0
  6
Continuous
 62
     7
370
    15
100
AcDbLine
 10
130.2903534996
 20
130.0523507661
 30
0.0
 11
126.4903535287
 21
130.0523507661
 31
0.0
  0
SPLINE
  5
103
330
1F
100
AcDbEntity
  8
0
  6
Continuous
 62
     7
370
    15
100
AcDbSpline
210
0.0
220
0.0
230
1.0
 70
     8
 71
     3
 72
    10
 73
     6
 74
     0
 42
0.00000001
 43
0.00000001
 40
0.0
 40
0.0
 40
0.0
 40
0.0
 40
0.313085160064098
 40
0.6488330999024269
 40
1.0
 40
1.0
 40
1.0
 40
1.0
 10
130.0911257195273
 20
130.3008671171307
 30
0.0
 10
130.0898656668642
 20
130.3035158742229
 30
0.0
 10
130.0872543521813
 20
130.309005119624
 30
0.0
 10
130.0630128470776
 20
130.3603056231746
 30
0.0
 10
130.0447495230639
 20
130.4212133698871
 30
0.0
 10
130.0354128855267
 20
130.4523508317112
 30
0.0
  0
SPLINE
  5
104
330
1F
100
AcDbEntity
  8
0
  6
Continuous
 62
     7
370
    15
100
AcDbSpline
210
0.0
220
0.0
230
1.0
 70
     8
 71
     3
 72
    11
 73
     7
 74
     0
 42
0.00000001
 43
0.00000001
 40
0.0
 40
0.0
 40
0.0
 40
0.0
 40
0.321969877214854
 40
0.6436529253194639
 40
0.9726491062004313
 40
1.0
 40
1.0
 40
1.0
 40
1.0
 10
128.5482501762906
 20
130.4523508317112
 30
0.0
 10
128.5395567285267
 20
130.4230106471955
 30
0.0
 10
128.5221775776173
 20
130.364356416072
 30
0.0
 10
128.4998116088233
 20
130.3154129483333
 30
0.0
 10
128.4893510280566
 20
130.2935400715881
 30
0.0
 10
128.492081352327
 20
130.2992944501614
 30
0.0
 10
128.4922909143368
 20
130.2997361189961
 30
0.0
  0
LINE
  5
105
330
1F
100
AcDbEntity
  8
0
  6
Continuous
 62
     7
370
    15
100
AcDbLine
 10
128.5482501763
 20
130.4523508317
 30
0.0
 11
130.0354128855
 21
130.4523508317
 31
0.0
  0
INSERT
  5
111
330
1F
100
AcDbEntity
  8
1
100
AcDbBlockReference
  2
SW_NOTE_0
 10
170.2222115941
 20
141.1057073932
 30
0.0
  0
LEADER
  5
113
330
1F
100
AcDbEntity
  8
1
100
AcDbLeader
  3
SLDDIMSTYLE0
 76
     2
 10
149.9680035318
 20
127.8523504264
 30
0.0
 10
170.2222115941
 20
141.1057073932
 30
0.0
  0
INSERT
  5
120
330
1F
100
AcDbEntity
  8
1
100
AcDbBlockReference
  2
SW_NOTE_1
 10
168.8249955647
 20
81.0497175366
 30
0.0
  0
LEADER
  5
121
330
1F
100
AcDbEntity
  8
1
100
AcDbLeader
  3
SLDDIMSTYLE0
 76
     2
 10
146.0097033372
 20
105.7978807301
 30
0.0
 10
168.8249955647
 20
81.0497175366
 30
0.0
  0
INSERT
  5
12D
330
1F
100
AcDbEntity
  8
1
100
AcDbBlockReference
  2
SW_NOTE_2
 10
166.8810428281
 20
110.9683651235
 30
0.0
  0
LEADER
  5
12E
330
1F
100
AcDbEntity
  8
1
100
AcDbLeader
  3
SLDDIMSTYLE0
 76
     2
 10
150.5414959454
 20
104.4759134348
 30
0.0
 10
166.8810428281
 20
110.9683651235
 30
0.0
  0
INSERT
  5
13A
330
1F
100
AcDbEntity
  8
1
100
AcDbBlockReference
  2
SW_NOTE_3
 10
118.4887693911
 20
78.2188363639
 30
0.0
  0
LEADER
  5
13B
330
1F
100
AcDbEntity
  8
1
100
AcDbLeader
  3
SLDDIMSTYLE0
 76
     2
 10
124.510183575
 20
97.0023504264
 30
0.0
 10
118.4887693911
 20
78.2188363639
 30
0.0
  0
INSERT
  5
147
330
1F
100
AcDbEntity
  8
1
100
AcDbBlockReference
  2
SW_NOTE_4
 10
144.483062391
 20
77.8968691919
 30
0.0
  0
LEADER
  5
148
330
1F
100
AcDbEntity
  8
1
100
AcDbLeader
  3
SLDDIMSTYLE0
 76
     2
 10
130.5897701445
 20
103.0835139235
 30
0.0
 10
144.483062391
 20
77.8968691919
 30
0.0
  0
INSERT
  5
154
330
1F
100
AcDbEntity
  8
0
  6
Continuous
 62
     7
370
     0
100
AcDbBlockReference
  2
SW_CENTERMARKSYMBOL_0
 10
119.6903534907
 20
120.6523504264
 30
0.0
  0
INSERT
  5
160
330
1F
100
AcDbEntity
  8
0
  6
Continuous
 62
     7
370
     0
100
AcDbBlockReference
  2
SW_CENTERMARKSYMBOL_1
 10
124.2903534907
 20
114.1523504264
 30
0.0
  0
LINE
  5
161
330
1F
100
AcDbEntity
  8
0
  6
Continuous
 62
     7
370
    15
100
AcDbLine
 10
49.4243043935
 20
97.852350331
 30
0.0
 11
49.4243043935
 21
97.7023507721
 31
0.0
  0
LINE
  5
162
330
1F
100
AcDbEntity
  8
0
  6
Continuous
 62
     7
370
    15
100
AcDbLine
 10
50.42430493
 20
97.7023507721
 30
0.0
 11
50.42430493
 21
97.852350331
 31
0.0
  0
LINE
  5
163
330
1F
100
AcDbEntity
  8
0
  6
Continuous
 62
     7
370
    15
100
AcDbLine
 10
49.4243043935
 20
96.5523506767
 30
0.0
 11
49.4243043935
 21
96.3523502714
 31
0.0
  0
LINE
  5
164
330
1F
100
AcDbEntity
  8
0
  6
Continuous
 62
     7
370
    15
100
AcDbLine
 10
50.42430493
 20
96.3523502714
 30
0.0
 11
50.42430493
 21
96.5523506767
 31
0.0
  0
LINE
  5
165
330
1F
100
AcDbEntity
  8
0
  6
Continuous
 62
     7
370
    15
100
AcDbLine
 10
75.42430493
 20
96.5523506767
 30
0.0
 11
75.42430493
 21
96.3523502714
 31
0.0
  0
LINE
  5
166
330
1F
100
AcDbEntity
  8
0
  6
Continuous
 62
     7
370
    15
100
AcDbLine
 10
76.4243054664
 20
96.3523502714
 30
0.0
 11
76.4243054664
 21
96.5523506767
 31
0.0
  0
LINE
  5
167
330
1F
100
AcDbEntity
  8
0
  6
Continuous
 62
     7
370
    15
100
AcDbLine
 10
81.2243047631
 20
123.4023503281
 30
0.0
 11
80.9243056452
 21
123.4023503281
 31
0.0
  0
LINE
  5
168
330
1F
100
AcDbEntity
  8
0
  6
Continuous
 62
     7
370
    15
100
AcDbLine
 10
80.9243056452
 20
117.9023504277
 30
0.0
 11
81.2243047631
 21
117.9023504277
 31
0.0
  0
LINE
  5
169
330
1F
100
AcDbEntity
  8
0
  6
Continuous
 62
     7
370
    15
100
AcDbLine
 10
80.9243056452
 20
123.4023503281
 30
0.0
 11
80.783631233
 21
122.8773503817
 31
0.0
  0
LINE
  5
16A
330
1F
100
AcDbEntity
  8
0
  6
Continuous
 62
     7
370
    15
100
AcDbLine
 10
80.783631233
 20
118.4273504439
 30
0.0
 11
80.9243056452
 21
117.9023504277
 31
0.0
  0
LINE
  5
16B
330
1F
100
AcDbEntity
  8
0
  6
Continuous
 62
     7
370
    15
100
AcDbLine
 10
78.0243042386
 20
118.4273504439
 30
0.0
 11
80.783631233
 21
118.4273504439
 31
0.0
  0
LINE
  5
16C
330
1F
100
AcDbEntity
  8
0
  6
Continuous
 62
     7
370
    15
100
AcDbLine
 10
80.783631233
 20
122.8773503817
 30
0.0
 11
78.0243042386
 21
122.8773503817
 31
0.0
  0
LINE
  5
16D
330
1F
100
AcDbEntity
  8
0
  6
Continuous
 62
     7
370
    15
100
AcDbLine
 10
78.5243052518
 20
116.1523503504
 30
0.0
 11
78.2965484536
 21
115.3023504905
 31
0.0
  0
LINE
  5
16E
330
1F
100
AcDbEntity
  8
0
  6
Continuous
 62
     7
370
    15
100
AcDbLine
 10
78.2965484536
 20
113.002350486
 30
0.0
 11
78.5243052518
 21
112.1523502535
 31
0.0
  0
LINE
  5
16F
330
1F
100
AcDbEntity
  8
0
  6
Continuous
 62
     7
370
    15
100
AcDbLine
 10
78.8243043697
 20
116.1523503504
 30
0.0
 11
78.5243052518
 21
116.1523503504
 31
0.0
  0
LINE
  5
170
330
1F
100
AcDbEntity
  8
0
  6
Continuous
 62
     7
370
    15
100
AcDbLine
 10
78.5243052518
 20
112.1523502535
 30
0.0
 11
78.8243043697
 21
112.1523502535
 31
0.0
  0
LINE
  5
171
330
1F
100
AcDbEntity
  8
0
  6
Continuous
 62
     7
370
    15
100
AcDbLine
 10
76.6242134845
 20
113.002350486
 30
0.0
 11
78.2965484536
 21
113.002350486
 31
0.0
  0
LINE
  5
172
330
1F
100
AcDbEntity
  8
0
  6
Continuous
 62
     7
370
    15
100
AcDbLine
 10
78.2965484536
 20
115.3023504905
 30
0.0
 11
77.2158238566
 21
115.3023504905
 31
0.0
  0
ARC
  5
173
330
1F
100
AcDbEntity
  8
0
  6
Continuous
 62
     7
370
    15
100
AcDbCircle
 10
62.92430493
 20
133.2023504264
 30
0.0
 40
0.3500000000000085
100
AcDbArc
 50
0.0
 51
180.0
  0
LINE
  5
174
330
1F
100
AcDbEntity
  8
0
  6
Continuous
 62
     7
370
    15
100
AcDbLine
 10
63.2743049408
 20
132.24812553
 30
0.0
 11
63.2743049408
 21
133.2023496992
 31
0.0
  0
LINE
  5
175
330
1F
100
AcDbEntity
  8
0
  6
Continuous
 62
     7
370
    15
100
AcDbLine
 10
62.5743049192
 20
133.2023496992
 30
0.0
 11
62.5743049192
 21
132.24812553
 31
0.0
  0
LINE
  5
176
330
1F
100
AcDbEntity
  8
0
  6
Continuous
 62
     7
370
    15
100
AcDbLine
 10
49.9243054068
 20
98.5523502595
 30
0.0
 11
49.9243054068
 21
97.852350331
 31
0.0
  0
LINE
  5
177
330
1F
100
AcDbEntity
  8
0
  6
Continuous
 62
     7
370
    15
100
AcDbLine
 10
49.9243054068
 20
98.5523502595
 30
0.0
 11
50.7743048942
 21
98.5523502595
 31
0.0
  0
LINE
  5
178
330
1F
100
AcDbEntity
  8
0
  6
Continuous
 62
     7
370
    15
100
AcDbLine
 10
50.7743048942
 20
98.5523502595
 30
0.0
 11
50.7743048942
 21
97.852350331
 31
0.0
  0
LINE
  5
179
330
1F
100
AcDbEntity
  8
0
  6
Continuous
 62
     7
370
    15
100
AcDbLine
 10
49.9243054068
 20
97.852350331
 30
0.0
 11
50.7743048942
 21
97.852350331
 31
0.0
  0
LINE
  5
17A
330
1F
100
AcDbEntity
  8
0
  6
Continuous
 62
     7
370
    15
100
AcDbLine
 10
49.0743044293
 20
98.5523502595
 30
0.0
 11
49.0743044293
 21
97.852350331
 31
0.0
  0
LINE
  5
17B
330
1F
100
AcDbEntity
  8
0
  6
Continuous
 62
     7
370
    15
100
AcDbLine
 10
49.0743044293
 20
97.852350331
 30
0.0
 11
49.9243054068
 21
97.852350331
 31
0.0
  0
LINE
  5
17C
330
1F
100
AcDbEntity
  8
0
  6
Continuous
 62
     7
370
    15
100
AcDbLine
 10
49.0743044293
 20
98.5523502595
 30
0.0
 11
49.9243054068
 21
98.5523502595
 31
0.0
  0
LINE
  5
17D
330
1F
100
AcDbEntity
  8
0
  6
Continuous
 62
     7
370
    15
100
AcDbLine
 10
49.9243054068
 20
97.7023507721
 30
0.0
 11
49.9243054068
 21
97.0023508436
 31
0.0
  0
LINE
  5
17E
330
1F
100
AcDbEntity
  8
0
  6
Continuous
 62
     7
370
    15
100
AcDbLine
 10
49.9243054068
 20
97.7023507721
 30
0.0
 11
50.7743048942
 21
97.7023507721
 31
0.0
  0
LINE
  5
17F
330
1F
100
AcDbEntity
  8
0
  6
Continuous
 62
     7
370
    15
100
AcDbLine
 10
50.7743048942
 20
97.7023507721
 30
0.0
 11
50.7743048942
 21
97.0023508436
 31
0.0
  0
LINE
  5
180
330
1F
100
AcDbEntity
  8
0
  6
Continuous
 62
     7
370
    15
100
AcDbLine
 10
49.0743044293
 20
97.7023507721
 30
0.0
 11
49.0743044293
 21
97.0023508436
 31
0.0
  0
LINE
  5
181
330
1F
100
AcDbEntity
  8
0
  6
Continuous
 62
     7
370
    15
100
AcDbLine
 10
49.0743044293
 20
97.7023507721
 30
0.0
 11
49.9243054068
 21
97.7023507721
 31
0.0
  0
LINE
  5
182
330
1F
100
AcDbEntity
  8
0
  6
Continuous
 62
     7
370
    15
100
AcDbLine
 10
50.42430493
 20
96.3523502714
 30
0.0
 11
49.4243043935
 21
96.3523502714
 31
0.0
  0
LINE
  5
183
330
1F
100
AcDbEntity
  8
0
  6
Continuous
 62
     7
370
    15
100
AcDbLine
 10
75.9243044531
 20
97.7023507721
 30
0.0
 11
75.9243044531
 21
97.0023508436
 31
0.0
  0
LINE
  5
184
330
1F
100
AcDbEntity
  8
0
  6
Continuous
 62
     7
370
    15
100
AcDbLine
 10
75.9243044531
 20
97.7023507721
 30
0.0
 11
76.7743054307
 21
97.7023507721
 31
0.0
  0
LINE
  5
185
330
1F
100
AcDbEntity
  8
0
  6
Continuous
 62
     7
370
    15
100
AcDbLine
 10
76.7743054307
 20
97.7023507721
 30
0.0
 11
76.7743054307
 21
97.0023508436
 31
0.0
  0
LINE
  5
186
330
1F
100
AcDbEntity
  8
0
  6
Continuous
 62
     7
370
    15
100
AcDbLine
 10
75.0743049657
 20
97.7023507721
 30
0.0
 11
75.0743049657
 21
97.0023508436
 31
0.0
  0
LINE
  5
187
330
1F
100
AcDbEntity
  8
0
  6
Continuous
 62
     7
370
    15
100
AcDbLine
 10
75.0743049657
 20
97.7023507721
 30
0.0
 11
75.9243044531
 21
97.7023507721
 31
0.0
  0
LINE
  5
188
330
1F
100
AcDbEntity
  8
0
  6
Continuous
 62
     7
370
    15
100
AcDbLine
 10
76.4243054664
 20
96.3523502714
 30
0.0
 11
75.42430493
 21
96.3523502714
 31
0.0
  0
LINE
  5
189
330
1F
100
AcDbEntity
  8
0
  6
Continuous
 62
     7
370
    15
100
AcDbLine
 10
51.524304924
 20
100.5523498423
 30
0.0
 11
51.524304924
 21
96.5523506767
 31
0.0
  0
LINE
  5
18A
330
1F
100
AcDbEntity
  8
0
  6
Continuous
 62
     7
370
    15
100
AcDbLine
 10
74.3243049359
 20
100.5523498423
 30
0.0
 11
74.3243049359
 21
96.5523506767
 31
0.0
  0
LINE
  5
18B
330
1F
100
AcDbEntity
  8
0
  6
Continuous
 62
     7
370
    15
100
AcDbLine
 10
51.524304924
 20
96.5523506767
 30
0.0
 11
74.3243049359
 21
96.5523506767
 31
0.0
  0
LINE
  5
18C
330
1F
100
AcDbEntity
  8
0
  6
Continuous
 62
     7
370
    15
100
AcDbLine
 10
51.524304924
 20
100.5523498423
 30
0.0
 11
74.3243049359
 21
100.5523498423
 31
0.0
  0
LINE
  5
18D
330
1F
100
AcDbEntity
  8
0
  6
Continuous
 62
     7
370
    15
100
AcDbLine
 10
77.3243043101
 20
97.0023508436
 30
0.0
 11
74.3243049359
 21
97.0023508436
 31
0.0
  0
LINE
  5
18E
330
1F
100
AcDbEntity
  8
0
  6
Continuous
 62
     7
370
    15
100
AcDbLine
 10
77.3243043101
 20
97.0023508436
 30
0.0
 11
77.3243043101
 21
96.5523506767
 31
0.0
  0
LINE
  5
18F
330
1F
100
AcDbEntity
  8
0
  6
Continuous
 62
     7
370
    15
100
AcDbLine
 10
77.3243043101
 20
96.5523506767
 30
0.0
 11
74.3243049359
 21
96.5523506767
 31
0.0
  0
LINE
  5
190
330
1F
100
AcDbEntity
  8
0
  6
Continuous
 62
     7
370
    15
100
AcDbLine
 10
48.5243055499
 20
97.0023508436
 30
0.0
 11
48.5243055499
 21
96.5523506767
 31
0.0
  0
LINE
  5
191
330
1F
100
AcDbEntity
  8
0
  6
Continuous
 62
     7
370
    15
100
AcDbLine
 10
51.524304924
 20
97.0023508436
 30
0.0
 11
48.5243055499
 21
97.0023508436
 31
0.0
  0
LINE
  5
192
330
1F
100
AcDbEntity
  8
0
  6
Continuous
 62
     7
370
    15
100
AcDbLine
 10
51.524304924
 20
96.5523506767
 30
0.0
 11
48.5243055499
 21
96.5523506767
 31
0.0
  0
CIRCLE
  5
193
330
1F
100
AcDbEntity
  8
0
  6
Continuous
 62
     7
370
    15
100
AcDbCircle
 10
62.92430493
 20
117.7523504264
 30
0.0
 40
11.8
  0
CIRCLE
  5
194
330
1F
100
AcDbEntity
  8
0
  6
Continuous
 62
     7
370
    15
100
AcDbCircle
 10
62.92430493
 20
117.7523504264
 30
0.0
 40
12.6
  0
LINE
  5
195
330
1F
100
AcDbEntity
  8
0
  6
Continuous
 62
     7
370
    15
100
AcDbLine
 10
76.4059502161
 20
123.0904436923
 30
0.0
 11
77.0887676156
 21
123.4535045243
 31
0.0
  0
LINE
  5
196
330
1F
100
AcDbEntity
  8
0
  6
Continuous
 62
     7
370
    15
100
AcDbLine
 10
76.0559308803
 20
125.3959889776
 30
0.0
 11
75.4424813664
 21
125.0698122449
 31
0.0
  0
LINE
  5
197
330
1F
100
AcDbEntity
  8
0
  6
Continuous
 62
     7
370
    15
100
AcDbLine
 10
77.0887676156
 20
123.4535045243
 30
0.0
 11
76.0559308803
 21
125.3959889776
 31
0.0
  0
ARC
  5
198
330
1F
100
AcDbEntity
  8
0
  6
Continuous
 62
     7
370
    15
100
AcDbCircle
 10
62.92430493
 20
117.7523504264
 30
0.0
 40
14.50000000000001
100
AcDbArc
 50
30.3082913088
 51
21.601221159
  0
LINE
  5
199
330
1F
100
AcDbEntity
  8
0
  6
Continuous
 62
     7
370
    15
100
AcDbLine
 10
78.0243042386
 20
117.7773504276
 30
0.0
 11
77.4242836511
 21
117.7773504276
 31
0.0
  0
LINE
  5
19A
330
1F
100
AcDbEntity
  8
0
  6
Continuous
 62
     7
370
    15
100
AcDbLine
 10
78.0243042386
 20
123.5273505814
 30
0.0
 11
78.0243042386
 21
117.7773504276
 31
0.0
  0
LINE
  5
19B
330
1F
100
AcDbEntity
  8
0
  6
Continuous
 62
     7
370
    15
100
AcDbLine
 10
78.0243042386
 20
123.5273505814
 30
0.0
 11
77.0495045459
 21
123.5273505814
 31
0.0
  0
LINE
  5
19C
330
1F
100
AcDbEntity
  8
0
  6
Continuous
 62
     7
370
    15
100
AcDbLine
 10
81.2243047631
 20
123.4023503281
 30
0.0
 11
81.2243047631
 21
117.9023504277
 31
0.0
  0
LINE
  5
19D
330
1F
100
AcDbEntity
  8
0
  6
Continuous
 62
     7
370
    15
100
AcDbLine
 10
80.9243056452
 20
120.652350343
 30
0.0
 11
80.9243056452
 21
123.4023503281
 31
0.0
  0
LINE
  5
19E
330
1F
100
AcDbEntity
  8
0
  6
Continuous
 62
     7
370
    15
100
AcDbLine
 10
80.9243056452
 20
117.9023504277
 30
0.0
 11
80.9243056452
 21
120.652350343
 31
0.0
  0
LINE
  5
19F
330
1F
100
AcDbEntity
  8
0
  6
Continuous
 62
     7
370
    15
100
AcDbLine
 10
80.783631233
 20
122.8773503817
 30
0.0
 11
80.783631233
 21
118.4273504439
 31
0.0
  0
LINE
  5
1A0
330
1F
100
AcDbEntity
  8
0
  6
Continuous
 62
     7
370
    15
100
AcDbLine
 10
74.4743052399
 20
127.304550565
 30
0.0
 11
74.8243052042
 21
127.304550565
 31
0.0
  0
LINE
  5
1A1
330
1F
100
AcDbEntity
  8
0
  6
Continuous
 62
     7
370
    15
100
AcDbLine
 10
74.8243052042
 20
127.304550565
 30
0.0
 11
74.8243052042
 21
126.0372768409
 31
0.0
  0
LINE
  5
1A2
330
1F
100
AcDbEntity
  8
0
  6
Continuous
 62
     7
370
    15
100
AcDbLine
 10
74.4743052399
 20
127.304550565
 30
0.0
 11
74.4743052399
 21
126.5186208553
 31
0.0
  0
LINE
  5
1A3
330
1F
100
AcDbEntity
  8
0
  6
Continuous
 62
     7
370
    15
100
AcDbLine
 10
75.1743051684
 20
127.304550565
 30
0.0
 11
75.1743051684
 21
125.5104105241
 31
0.0
  0
LINE
  5
1A4
330
1F
100
AcDbEntity
  8
0
  6
Continuous
 62
     7
370
    15
100
AcDbLine
 10
74.8243052042
 20
127.304550565
 30
0.0
 11
75.1743051684
 21
127.304550565
 31
0.0
  0
LINE
  5
1A5
330
1F
100
AcDbEntity
  8
0
  6
Continuous
 62
     7
370
    15
100
AcDbLine
 10
78.2965484536
 20
115.3023504905
 30
0.0
 11
78.2965484536
 21
113.002350486
 31
0.0
  0
LINE
  5
1A6
330
1F
100
AcDbEntity
  8
0
  6
Continuous
 62
     7
370
    15
100
AcDbLine
 10
78.5243052518
 20
114.1523505814
 30
0.0
 11
78.5243052518
 21
116.1523503504
 31
0.0
  0
LINE
  5
1A7
330
1F
100
AcDbEntity
  8
0
  6
Continuous
 62
     7
370
    15
100
AcDbLine
 10
78.5243052518
 20
112.1523502535
 30
0.0
 11
78.5243052518
 21
114.1523505814
 31
0.0
  0
LINE
  5
1A8
330
1F
100
AcDbEntity
  8
0
  6
Continuous
 62
     7
370
    15
100
AcDbLine
 10
78.8243043697
 20
116.1523503504
 30
0.0
 11
78.8243043697
 21
112.1523502535
 31
0.0
  0
LINE
  5
1A9
330
1F
100
AcDbEntity
  8
0
  6
Continuous
 62
     7
370
    15
100
AcDbLine
 10
52.7243051207
 20
101.752350784
 30
0.0
 11
73.1243047392
 21
101.752350784
 31
0.0
  0
LINE
  5
1AA
330
1F
100
AcDbEntity
  8
0
  6
Continuous
 62
     7
370
    15
100
AcDbLine
 10
73.1243047392
 20
101.752350784
 30
0.0
 11
73.7243052101
 21
101.752350784
 31
0.0
  0
LINE
  5
1AB
330
1F
100
AcDbEntity
  8
0
  6
Continuous
 62
     7
370
    15
100
AcDbLine
 10
73.7243052101
 20
101.752350784
 30
0.0
 11
73.7243052101
 21
100.5523498423
 31
0.0
  0
LINE
  5
1AC
330
1F
100
AcDbEntity
  8
0
  6
Continuous
 62
     7
370
    15
100
AcDbLine
 10
52.1243046498
 20
100.5523498423
 30
0.0
 11
52.1243046498
 21
101.752350784
 31
0.0
  0
LINE
  5
1AD
330
1F
100
AcDbEntity
  8
0
  6
Continuous
 62
     7
370
    15
100
AcDbLine
 10
52.1243046498
 20
101.752350784
 30
0.0
 11
52.7243051207
 21
101.752350784
 31
0.0
  0
LINE
  5
1AE
330
1F
100
AcDbEntity
  8
0
  6
Continuous
 62
     7
370
    15
100
AcDbLine
 10
73.7243052101
 20
108.0771240658
 30
0.0
 11
73.7243052101
 21
101.752350784
 31
0.0
  0
LINE
  5
1AF
330
1F
100
AcDbEntity
  8
0
  6
Continuous
 62
     7
370
    15
100
AcDbLine
 10
73.1243047392
 20
101.752350784
 30
0.0
 11
73.1243047392
 21
107.4465270407
 31
0.0
  0
LINE
  5
1B0
330
1F
100
AcDbEntity
  8
0
  6
Continuous
 62
     7
370
    15
100
AcDbLine
 10
52.7243051207
 20
101.752350784
 30
0.0
 11
52.7243051207
 21
107.4465270407
 31
0.0
  0
LINE
  5
1B1
330
1F
100
AcDbEntity
  8
0
  6
Continuous
 62
     7
370
    15
100
AcDbLine
 10
52.1243046498
 20
101.752350784
 30
0.0
 11
52.1243046498
 21
108.0771240658
 31
0.0
  0
LINE
  5
1B2
330
1F
100
AcDbEntity
  8
0
  6
Continuous
 62
     7
370
    15
100
AcDbLine
 10
74.6243047988
 20
105.6023503906
 30
0.0
 11
73.7243052101
 21
105.6023503906
 31
0.0
  0
LINE
  5
1B3
330
1F
100
AcDbEntity
  8
0
  6
Continuous
 62
     7
370
    15
100
AcDbLine
 10
74.6243047988
 20
105.6023503906
 30
0.0
 11
74.6243047988
 21
102.5023500688
 31
0.0
  0
LINE
  5
1B4
330
1F
100
AcDbEntity
  8
0
  6
Continuous
 62
     7
370
    15
100
AcDbLine
 10
74.6243047988
 20
102.5023500688
 30
0.0
 11
73.7243052101
 21
102.5023500688
 31
0.0
  0
LINE
  5
1B5
330
1F
100
AcDbEntity
  8
0
  6
Continuous
 62
     7
370
    15
100
AcDbLine
 10
75.6812948263
 20
101.2523497707
 30
0.0
 11
75.6812948263
 21
101.6523505814
 31
0.0
  0
LINE
  5
1B6
330
1F
100
AcDbEntity
  8
0
  6
Continuous
 62
     7
370
    15
100
AcDbLine
 10
75.6812948263
 20
108.6523506112
 30
0.0
 11
75.6812948263
 21
109.0523506767
 31
0.0
  0
LWPOLYLINE
  5
1B7
330
1F
100
AcDbEntity
  8
0
  6
Continuous
 62
     7
370
    15
100
AcDbPolyline
 90
        9
 70
   128
 43
0.0
 10
75.473313359
 20
100.7523502476
 10
75.513889221
 20
100.7619585163
 10
75.5529049313
 20
100.7904107935
 10
75.5888614333
 20
100.8366163141
 10
75.6203788793
 20
100.8987973697
 10
75.6462443149
 20
100.974565304
 10
75.6654638326
 20
101.0610084302
 10
75.6772983348
 20
101.1548052795
 10
75.6812948263
 20
101.2523497707
  0
LINE
  5
1B8
330
1F
100
AcDbEntity
  8
0
  6
Continuous
 62
     7
370
    15
100
AcDbLine
 10
73.7243052101
 20
100.7523502476
 30
0.0
 11
75.473313359
 21
100.7523502476
 31
0.0
  0
LINE
  5
1B9
330
1F
100
AcDbEntity
  8
0
  6
Continuous
 62
     7
370
    15
100
AcDbLine
 10
74.8829837418
 20
109.5523501999
 30
0.0
 11
75.473313359
 21
109.5523501999
 31
0.0
  0
LWPOLYLINE
  5
1BA
330
1F
100
AcDbEntity
  8
0
  6
Continuous
 62
     7
370
    15
100
AcDbPolyline
 90
        9
 70
   128
 43
0.0
 10
75.6812948263
 20
109.0523506767
 10
75.6772983348
 20
109.1498959131
 10
75.6654638326
 20
109.2436920173
 10
75.6462443149
 20
109.3301358885
 10
75.6203788793
 20
109.4059038229
 10
75.5888614333
 20
109.4680848784
 10
75.5529049313
 20
109.514290399
 10
75.513889221
 20
109.5427434213
 10
75.473313359
 20
109.5523501999
  0
LINE
  5
1BB
330
1F
100
AcDbEntity
  8
0
  6
Continuous
 62
     7
370
    15
100
AcDbLine
 10
75.7243055379
 20
107.7487970955
 30
0.0
 11
75.7243055379
 21
107.3952439494
 31
0.0
  0
ARC
  5
1BC
330
1F
100
AcDbEntity
  8
0
  6
Continuous
 62
     7
370
    15
100
AcDbCircle
 10
75.7618051319
 20
107.4836326077
 30
0.0
 40
0.2678029595302919
100
AcDbArc
 50
11.4216256708
 51
98.049397582
  0
SPLINE
  5
1BD
330
1F
100
AcDbEntity
  8
0
  6
Continuous
 62
     7
370
    15
100
AcDbSpline
210
0.0
220
0.0
230
1.0
 70
    24
 71
     3
 72
    10
 73
     6
 74
     0
 42
0.00000001
 43
0.00000001
 40
0.0
 40
0.0
 40
0.0
 40
0.0
 40
0.5
 40
0.5
 40
1.0
 40
1.0
 40
1.0
 40
1.0
 10
76.024304929978
 20
107.3952436451997
 30
0.0
 10
76.024304929978
 20
107.4207558740179
 30
0.0
 10
76.024304929978
 20
107.4472775230068
 30
0.0
 10
76.024304929978
 20
107.496283140361
 30
0.0
 10
76.024304929978
 20
107.5186251314752
 30
0.0
 10
76.024304929978
 20
107.5366650015001
 30
0.0
  0
LINE
  5
1BE
330
1F
100
AcDbEntity
  8
0
  6
Continuous
 62
     7
370
    15
100
AcDbLine
 10
75.7243055379
 20
107.3952439494
 30
0.0
 11
76.0243046558
 21
107.3952439494
 31
0.0
  0
LINE
  5
1BF
330
1F
100
AcDbEntity
  8
0
  6
Continuous
 62
     7
370
    15
100
AcDbLine
 10
75.7243055379
 20
102.9094572432
 30
0.0
 11
75.7243055379
 21
102.555903352
 31
0.0
  0
LINE
  5
1C0
330
1F
100
AcDbEntity
  8
0
  6
Continuous
 62
     7
370
    15
100
AcDbLine
 10
76.0243046558
 20
102.9094572432
 30
0.0
 11
75.7243055379
 21
102.9094572432
 31
0.0
  0
SPLINE
  5
1C1
330
1F
100
AcDbEntity
  8
0
  6
Continuous
 62
     7
370
    15
100
AcDbSpline
210
0.0
220
0.0
230
1.0
 70
    24
 71
     3
 72
    10
 73
     6
 74
     0
 42
0.00000001
 43
0.00000001
 40
0.0
 40
0.0
 40
0.0
 40
0.0
 40
0.5
 40
0.5
 40
1.0
 40
1.0
 40
1.0
 40
1.0
 10
76.024304929978
 20
102.7680358512993
 30
0.0
 10
76.024304929978
 20
102.7860757213243
 30
0.0
 10
76.024304929978
 20
102.8084177124385
 30
0.0
 10
76.02430492997799
 20
102.8574233297926
 30
0.0
 10
76.024304929978
 20
102.8839449787814
 30
0.0
 10
76.024304929978
 20
102.9094572075997
 30
0.0
  0
ARC
  5
1C2
330
1F
100
AcDbEntity
  8
0
  6
Continuous
 62
     7
370
    15
100
AcDbCircle
 10
75.7618044703
 20
102.8210685891
 30
0.0
 40
0.2678036088285499
100
AcDbArc
 50
261.9507650098
 51
348.5784014648
  0
LINE
  5
1C3
330
1F
100
AcDbEntity
  8
0
  6
Continuous
 62
     7
370
    15
100
AcDbLine
 10
75.7243055379
 20
107.3952439494
 30
0.0
 11
75.7243055379
 21
102.9094572432
 31
0.0
  0
LINE
  5
1C4
330
1F
100
AcDbEntity
  8
0
  6
Continuous
 62
     7
370
    15
100
AcDbLine
 10
76.0243046558
 20
107.3952439494
 30
0.0
 11
76.0243046558
 21
102.9094572432
 31
0.0
  0
LINE
  5
1C5
330
1F
100
AcDbEntity
  8
0
  6
Continuous
 62
     7
370
    15
100
AcDbLine
 10
75.7243055379
 20
108.5059034891
 30
0.0
 11
75.7243055379
 21
107.7487970955
 31
0.0
  0
ARC
  5
1C6
330
1F
100
AcDbEntity
  8
0
  6
Continuous
 62
     7
370
    15
100
AcDbCircle
 10
75.7618060783
 20
108.2407401535
 30
0.0
 40
0.2678019511763189
100
AcDbArc
 50
11.4215803798
 51
98.0496326008
  0
LINE
  5
1C7
330
1F
100
AcDbEntity
  8
0
  6
Continuous
 62
     7
370
    15
100
AcDbLine
 10
76.0243046558
 20
108.2937720484
 30
0.0
 11
76.0243046558
 21
107.5366649098
 31
0.0
  0
LINE
  5
1C8
330
1F
100
AcDbEntity
  8
0
  6
Continuous
 62
     7
370
    15
100
AcDbLine
 10
76.0243046558
 20
102.7680362827
 30
0.0
 11
76.0243046558
 21
102.0109291441
 31
0.0
  0
ARC
  5
1C9
330
1F
100
AcDbEntity
  8
0
  6
Continuous
 62
     7
370
    15
100
AcDbCircle
 10
75.7618063632
 20
102.0639606361
 30
0.0
 40
0.2678015921080151
100
AcDbArc
 50
261.9502949701
 51
348.5784920493
  0
LINE
  5
1CA
330
1F
100
AcDbEntity
  8
0
  6
Continuous
 62
     7
370
    15
100
AcDbLine
 10
75.7243055379
 20
102.555903352
 30
0.0
 11
75.7243055379
 21
101.7987977035
 31
0.0
  0
LINE
  5
1CB
330
1F
100
AcDbEntity
  8
0
  6
Continuous
 62
     7
370
    15
100
AcDbLine
 10
75.7243055379
 20
108.6523506112
 30
0.0
 11
75.7243055379
 21
108.5059034891
 31
0.0
  0
ARC
  5
1CC
330
1F
100
AcDbEntity
  8
0
  6
Continuous
 62
     7
370
    15
100
AcDbCircle
 10
75.72430493
 20
108.3523504264
 30
0.0
 40
0.3000000000000114
100
AcDbArc
 50
359.9999999995
 51
90.0
  0
SPLINE
  5
1CD
330
1F
100
AcDbEntity
  8
0
  6
Continuous
 62
     7
370
    15
100
AcDbSpline
210
0.0
220
0.0
230
1.0
 70
    24
 71
     3
 72
    10
 73
     6
 74
     0
 42
0.00000001
 43
0.00000001
 40
0.0
 40
0.0
 40
0.0
 40
0.0
 40
0.5
 40
0.5
 40
1.0
 40
1.0
 40
1.0
 40
1.0
 10
76.024304929978
 20
108.2937717825975
 30
0.0
 10
76.024304929978
 20
108.3118116526221
 30
0.0
 10
76.024304929978
 20
108.3269769372268
 30
0.0
 10
76.024304929978
 20
108.3472757285653
 30
0.0
 10
76.024304929978
 20
108.3523504263966
 30
0.0
 10
76.024304929978
 20
108.3523504263966
 30
0.0
  0
LINE
  5
1CE
330
1F
100
AcDbEntity
  8
0
  6
Continuous
 62
     7
370
    15
100
AcDbLine
 10
75.7243055379
 20
101.7987977035
 30
0.0
 11
75.7243055379
 21
101.6523505814
 31
0.0
  0
ARC
  5
1CF
330
1F
100
AcDbEntity
  8
0
  6
Continuous
 62
     7
370
    15
100
AcDbCircle
 10
75.72430493
 20
101.9523504264
 30
0.0
 40
0.2999999999999972
100
AcDbArc
 50
270.0
 51
359.9999999765
  0
SPLINE
  5
1D0
330
1F
100
AcDbEntity
  8
0
  6
Continuous
 62
     7
370
    15
100
AcDbSpline
210
0.0
220
0.0
230
1.0
 70
    24
 71
     3
 72
    10
 73
     6
 74
     0
 42
0.00000001
 43
0.00000001
 40
0.0
 40
0.0
 40
0.0
 40
0.0
 40
0.5
 40
0.5
 40
1.0
 40
1.0
 40
1.0
 40
1.0
 10
76.024304929978
 20
101.952350426399
 30
0.0
 10
76.024304929978
 20
101.952350426399
 30
0.0
 10
76.024304929978
 20
101.9574251242304
 30
0.0
 10
76.024304929978
 20
101.9777239155693
 30
0.0
 10
76.024304929978
 20
101.9928892001742
 30
0.0
 10
76.024304929978
 20
102.0109290701992
 30
0.0
  0
LINE
  5
1D1
330
1F
100
AcDbEntity
  8
0
  6
Continuous
 62
     7
370
    15
100
AcDbLine
 10
74.2132376409
 20
108.6523506112
 30
0.0
 11
75.7243055379
 21
108.6523506112
 31
0.0
  0
LINE
  5
1D2
330
1F
100
AcDbEntity
  8
0
  6
Continuous
 62
     7
370
    15
100
AcDbLine
 10
73.7243052101
 20
101.6523505814
 30
0.0
 11
75.7243055379
 21
101.6523505814
 31
0.0
  0
LINE
  5
1D3
330
1F
100
AcDbEntity
  8
0
  6
Continuous
 62
     7
370
    15
100
AcDbLine
 10
75.7243055379
 20
102.9094572432
 30
0.0
 11
74.6243047988
 21
102.9094572432
 31
0.0
  0
LINE
  5
1D4
330
1F
100
AcDbEntity
  8
0
  6
Continuous
 62
     7
370
    15
100
AcDbLine
 10
73.7243052101
 20
107.3952439494
 30
0.0
 11
75.7243055379
 21
107.3952439494
 31
0.0
  0
LINE
  5
1D5
330
1F
100
AcDbEntity
  8
0
  6
Continuous
 62
     7
370
    15
100
AcDbLine
 10
74.6243047988
 20
102.555903352
 30
0.0
 11
75.7243055379
 21
102.555903352
 31
0.0
  0
LINE
  5
1D6
330
1F
100
AcDbEntity
  8
0
  6
Continuous
 62
     7
370
    15
100
AcDbLine
 10
73.7243052101
 20
107.7487970955
 30
0.0
 11
75.7243055379
 21
107.7487970955
 31
0.0
  0
LINE
  5
1D7
330
1F
100
AcDbEntity
  8
0
  6
Continuous
 62
     7
370
    15
100
AcDbLine
 10
74.0936029232
 20
108.5059034891
 30
0.0
 11
75.7243055379
 21
108.5059034891
 31
0.0
  0
LINE
  5
1D8
330
1F
100
AcDbEntity
  8
0
  6
Continuous
 62
     7
370
    15
100
AcDbLine
 10
73.7243052101
 20
101.7987977035
 30
0.0
 11
75.7243055379
 21
101.7987977035
 31
0.0
  0
INSERT
  5
1E4
330
1F
100
AcDbEntity
  8
1
100
AcDbBlockReference
  2
SW_NOTE_5
 10
88.8738644193
 20
85.9156742304
 30
0.0
  0
LEADER
  5
1E5
330
1F
100
AcDbEntity
  8
1
100
AcDbLeader
  3
SLDDIMSTYLE0
 76
     2
 10
78.82430493
 20
113.9121772622
 30
0.0
 10
88.8738644193
 20
85.9156742304
 30
0.0
  0
INSERT
  5
1F1
330
1F
100
AcDbEntity
  8
1
100
AcDbBlockReference
  2
SW_NOTE_6
 10
80.6910383687
 20
156.9003233782
 30
0.0
  0
LEADER
  5
1F2
330
1F
100
AcDbEntity
  8
1
100
AcDbLeader
  3
SLDDIMSTYLE0
 76
     2
 10
74.82430493
 20
127.3045504264
 30
0.0
 10
80.6910383687
 20
156.9003233782
 30
0.0
  0
INSERT
  5
1FE
330
1F
100
AcDbEntity
  8
1
100
AcDbBlockReference
  2
SW_NOTE_7
 10
93.636548624
 20
130.0859253176
 30
0.0
  0
LEADER
  5
1FF
330
1F
100
AcDbEntity
  8
1
100
AcDbLeader
  3
SLDDIMSTYLE0
 76
     2
 10
81.22430493
 20
121.326069319
 30
0.0
 10
93.636548624
 20
130.0859253176
 30
0.0
  0
INSERT
  5
20B
330
1F
100
AcDbEntity
  8
0
  6
Continuous
 62
     7
370
     0
100
AcDbBlockReference
  2
SW_CENTERMARKSYMBOL_2
 10
62.92430493
 20
117.7523504264
 30
0.0
  0
LINE
  5
20C
330
1F
100
AcDbEntity
  8
0
  6
CENTERX2
 62
     7
370
     0
100
AcDbLine
 10
82.783631604
 20
120.6523504264
 30
0.0
 11
76.02430493
 21
120.6523504264
 31
0.0
  0
LINE
  5
20D
330
1F
100
AcDbEntity
  8
0
  6
CENTERX2
 62
     7
370
     0
100
AcDbLine
 10
80.2965481164
 20
114.1523504264
 30
0.0
 11
73.02430493
 21
114.1523504264
 31
0.0
  0
LINE
  5
20E
330
1F
100
AcDbEntity
  8
0
  6
Continuous
 62
     7
370
    15
100
AcDbLine
 10
233.0198584333
 20
97.852350331
 30
0.0
 11
233.0198584333
 21
97.7023507721
 31
0.0
  0
LINE
  5
20F
330
1F
100
AcDbEntity
  8
0
  6
Continuous
 62
     7
370
    15
100
AcDbLine
 10
233.0198584333
 20
96.5523506767
 30
0.0
 11
233.0198584333
 21
96.3523502714
 31
0.0
  0
LINE
  5
210
330
1F
100
AcDbEntity
  8
0
  6
Continuous
 62
     7
370
    15
100
AcDbLine
 10
234.0198589697
 20
96.3523502714
 30
0.0
 11
234.0198589697
 21
96.5523506767
 31
0.0
  0
LINE
  5
211
330
1F
100
AcDbEntity
  8
0
  6
Continuous
 62
     7
370
    15
100
AcDbLine
 10
234.0198589697
 20
97.7023507721
 30
0.0
 11
234.0198589697
 21
97.852350331
 31
0.0
  0
LINE
  5
212
330
1F
100
AcDbEntity
  8
0
  6
Continuous
 62
     7
370
    15
100
AcDbLine
 10
207.0198578968
 20
96.5523506767
 30
0.0
 11
207.0198578968
 21
96.3523502714
 31
0.0
  0
LINE
  5
213
330
1F
100
AcDbEntity
  8
0
  6
Continuous
 62
     7
370
    15
100
AcDbLine
 10
208.0198584333
 20
96.3523502714
 30
0.0
 11
208.0198584333
 21
96.5523506767
 31
0.0
  0
LINE
  5
214
330
1F
100
AcDbEntity
  8
0
  6
Continuous
 62
     7
370
    15
100
AcDbLine
 10
204.9198581114
 20
112.1523502535
 30
0.0
 11
205.1476149097
 21
113.002350486
 31
0.0
  0
LINE
  5
215
330
1F
100
AcDbEntity
  8
0
  6
Continuous
 62
     7
370
    15
100
AcDbLine
 10
205.1476149097
 20
115.3023504905
 30
0.0
 11
204.9198581114
 21
116.1523503504
 31
0.0
  0
LINE
  5
216
330
1F
100
AcDbEntity
  8
0
  6
Continuous
 62
     7
370
    15
100
AcDbLine
 10
204.6198589935
 20
112.1523502535
 30
0.0
 11
204.9198581114
 21
112.1523502535
 31
0.0
  0
LINE
  5
217
330
1F
100
AcDbEntity
  8
0
  6
Continuous
 62
     7
370
    15
100
AcDbLine
 10
204.9198581114
 20
116.1523503504
 30
0.0
 11
204.6198589935
 21
116.1523503504
 31
0.0
  0
LINE
  5
218
330
1F
100
AcDbEntity
  8
0
  6
Continuous
 62
     7
370
    15
100
AcDbLine
 10
207.9565195575
 20
115.3023504905
 30
0.0
 11
205.1476149097
 21
115.3023504905
 31
0.0
  0
LINE
  5
219
330
1F
100
AcDbEntity
  8
0
  6
Continuous
 62
     7
370
    15
100
AcDbLine
 10
205.1476149097
 20
113.002350486
 30
0.0
 11
208.4198584988
 21
113.002350486
 31
0.0
  0
LINE
  5
21A
330
1F
100
AcDbEntity
  8
0
  6
Continuous
 62
     7
370
    15
100
AcDbLine
 10
202.519857718
 20
117.9023504277
 30
0.0
 11
202.6605321302
 21
118.4273504439
 31
0.0
  0
LINE
  5
21B
330
1F
100
AcDbEntity
  8
0
  6
Continuous
 62
     7
370
    15
100
AcDbLine
 10
202.6605321302
 20
122.8773503817
 30
0.0
 11
202.519857718
 21
123.4023503281
 31
0.0
  0
LINE
  5
21C
330
1F
100
AcDbEntity
  8
0
  6
Continuous
 62
     7
370
    15
100
AcDbLine
 10
202.2198586001
 20
117.9023504277
 30
0.0
 11
202.519857718
 21
117.9023504277
 31
0.0
  0
LINE
  5
21D
330
1F
100
AcDbEntity
  8
0
  6
Continuous
 62
     7
370
    15
100
AcDbLine
 10
202.519857718
 20
123.4023503281
 30
0.0
 11
202.2198586001
 21
123.4023503281
 31
0.0
  0
LINE
  5
21E
330
1F
100
AcDbEntity
  8
0
  6
Continuous
 62
     7
370
    15
100
AcDbLine
 10
205.4198591247
 20
122.8773503817
 30
0.0
 11
202.6605321302
 21
122.8773503817
 31
0.0
  0
LINE
  5
21F
330
1F
100
AcDbEntity
  8
0
  6
Continuous
 62
     7
370
    15
100
AcDbLine
 10
202.6605321302
 20
118.4273504439
 30
0.0
 11
205.4198591247
 21
118.4273504439
 31
0.0
  0
ARC
  5
220
330
1F
100
AcDbEntity
  8
0
  6
Continuous
 62
     7
370
    15
100
AcDbCircle
 10
220.5198584333
 20
133.2023504264
 30
0.0
 40
0.3499999999999943
100
AcDbArc
 50
0.0
 51
180.0
  0
LINE
  5
221
330
1F
100
AcDbEntity
  8
0
  6
Continuous
 62
     7
370
    15
100
AcDbLine
 10
220.1698584225
 20
133.2023496992
 30
0.0
 11
220.1698584225
 21
130.4523508317
 31
0.0
  0
LINE
  5
222
330
1F
100
AcDbEntity
  8
0
  6
Continuous
 62
     7
370
    15
100
AcDbLine
 10
220.8698584441
 20
130.4523508317
 30
0.0
 11
220.8698584441
 21
133.2023496992
 31
0.0
  0
LINE
  5
223
330
1F
100
AcDbEntity
  8
0
  6
Continuous
 62
     7
370
    15
100
AcDbLine
 10
221.3198584713
 20
130.0523507661
 30
0.0
 11
221.3198584713
 21
130.4523508317
 31
0.0
  0
LINE
  5
224
330
1F
100
AcDbEntity
  8
0
  6
Continuous
 62
     7
370
    15
100
AcDbLine
 10
219.7198583953
 20
130.4523508317
 30
0.0
 11
219.7198583953
 21
130.0523507661
 31
0.0
  0
LINE
  5
225
330
1F
100
AcDbEntity
  8
0
  6
Continuous
 62
     7
370
    15
100
AcDbLine
 10
233.5198579564
 20
97.7023507721
 30
0.0
 11
233.5198579564
 21
97.0023508436
 31
0.0
  0
LINE
  5
226
330
1F
100
AcDbEntity
  8
0
  6
Continuous
 62
     7
370
    15
100
AcDbLine
 10
234.3698589339
 20
97.7023507721
 30
0.0
 11
234.3698589339
 21
97.0023508436
 31
0.0
  0
LINE
  5
227
330
1F
100
AcDbEntity
  8
0
  6
Continuous
 62
     7
370
    15
100
AcDbLine
 10
233.5198579564
 20
97.7023507721
 30
0.0
 11
234.3698589339
 21
97.7023507721
 31
0.0
  0
LINE
  5
228
330
1F
100
AcDbEntity
  8
0
  6
Continuous
 62
     7
370
    15
100
AcDbLine
 10
232.669858469
 20
97.7023507721
 30
0.0
 11
232.669858469
 21
97.0023508436
 31
0.0
  0
LINE
  5
229
330
1F
100
AcDbEntity
  8
0
  6
Continuous
 62
     7
370
    15
100
AcDbLine
 10
232.669858469
 20
97.7023507721
 30
0.0
 11
233.5198579564
 21
97.7023507721
 31
0.0
  0
LINE
  5
22A
330
1F
100
AcDbEntity
  8
0
  6
Continuous
 62
     7
370
    15
100
AcDbLine
 10
233.5198579564
 20
98.5523502595
 30
0.0
 11
233.5198579564
 21
97.852350331
 31
0.0
  0
LINE
  5
22B
330
1F
100
AcDbEntity
  8
0
  6
Continuous
 62
     7
370
    15
100
AcDbLine
 10
234.3698589339
 20
98.5523502595
 30
0.0
 11
234.3698589339
 21
97.852350331
 31
0.0
  0
LINE
  5
22C
330
1F
100
AcDbEntity
  8
0
  6
Continuous
 62
     7
370
    15
100
AcDbLine
 10
233.5198579564
 20
98.5523502595
 30
0.0
 11
234.3698589339
 21
98.5523502595
 31
0.0
  0
LINE
  5
22D
330
1F
100
AcDbEntity
  8
0
  6
Continuous
 62
     7
370
    15
100
AcDbLine
 10
233.5198579564
 20
97.852350331
 30
0.0
 11
234.3698589339
 21
97.852350331
 31
0.0
  0
LINE
  5
22E
330
1F
100
AcDbEntity
  8
0
  6
Continuous
 62
     7
370
    15
100
AcDbLine
 10
232.669858469
 20
98.5523502595
 30
0.0
 11
232.669858469
 21
97.852350331
 31
0.0
  0
LINE
  5
22F
330
1F
100
AcDbEntity
  8
0
  6
Continuous
 62
     7
370
    15
100
AcDbLine
 10
232.669858469
 20
98.5523502595
 30
0.0
 11
233.5198579564
 21
98.5523502595
 31
0.0
  0
LINE
  5
230
330
1F
100
AcDbEntity
  8
0
  6
Continuous
 62
     7
370
    15
100
AcDbLine
 10
232.669858469
 20
97.852350331
 30
0.0
 11
233.5198579564
 21
97.852350331
 31
0.0
  0
LINE
  5
231
330
1F
100
AcDbEntity
  8
0
  6
Continuous
 62
     7
370
    15
100
AcDbLine
 10
233.5198579564
 20
96.3523502714
 30
0.0
 11
233.0198584333
 21
96.3523502714
 31
0.0
  0
LINE
  5
232
330
1F
100
AcDbEntity
  8
0
  6
Continuous
 62
     7
370
    15
100
AcDbLine
 10
234.0198589697
 20
96.3523502714
 30
0.0
 11
233.5198579564
 21
96.3523502714
 31
0.0
  0
LINE
  5
233
330
1F
100
AcDbEntity
  8
0
  6
Continuous
 62
     7
370
    15
100
AcDbLine
 10
207.5198589101
 20
97.7023507721
 30
0.0
 11
207.5198589101
 21
97.0023508436
 31
0.0
  0
LINE
  5
234
330
1F
100
AcDbEntity
  8
0
  6
Continuous
 62
     7
370
    15
100
AcDbLine
 10
207.5198589101
 20
97.7023507721
 30
0.0
 11
208.3698583975
 21
97.7023507721
 31
0.0
  0
LINE
  5
235
330
1F
100
AcDbEntity
  8
0
  6
Continuous
 62
     7
370
    15
100
AcDbLine
 10
208.3698583975
 20
97.7023507721
 30
0.0
 11
208.3698583975
 21
97.0023508436
 31
0.0
  0
LINE
  5
236
330
1F
100
AcDbEntity
  8
0
  6
Continuous
 62
     7
370
    15
100
AcDbLine
 10
206.6698579326
 20
97.7023507721
 30
0.0
 11
206.6698579326
 21
97.0023508436
 31
0.0
  0
LINE
  5
237
330
1F
100
AcDbEntity
  8
0
  6
Continuous
 62
     7
370
    15
100
AcDbLine
 10
206.6698579326
 20
97.7023507721
 30
0.0
 11
207.5198589101
 21
97.7023507721
 31
0.0
  0
LINE
  5
238
330
1F
100
AcDbEntity
  8
0
  6
Continuous
 62
     7
370
    15
100
AcDbLine
 10
207.5198589101
 20
96.3523502714
 30
0.0
 11
207.0198578968
 21
96.3523502714
 31
0.0
  0
LINE
  5
239
330
1F
100
AcDbEntity
  8
0
  6
Continuous
 62
     7
370
    15
100
AcDbLine
 10
208.0198584333
 20
96.3523502714
 30
0.0
 11
207.5198589101
 21
96.3523502714
 31
0.0
  0
LINE
  5
23A
330
1F
100
AcDbEntity
  8
0
  6
Continuous
 62
     7
370
    15
100
AcDbLine
 10
209.1198584273
 20
100.5523498423
 30
0.0
 11
209.1198584273
 21
96.5523506767
 31
0.0
  0
LINE
  5
23B
330
1F
100
AcDbEntity
  8
0
  6
Continuous
 62
     7
370
    15
100
AcDbLine
 10
231.9198584392
 20
100.5523498423
 30
0.0
 11
231.9198584392
 21
96.5523506767
 31
0.0
  0
LINE
  5
23C
330
1F
100
AcDbEntity
  8
0
  6
Continuous
 62
     7
370
    15
100
AcDbLine
 10
209.1198584273
 20
100.5523498423
 30
0.0
 11
231.9198584392
 21
100.5523498423
 31
0.0
  0
LINE
  5
23D
330
1F
100
AcDbEntity
  8
0
  6
Continuous
 62
     7
370
    15
100
AcDbLine
 10
209.1198584273
 20
96.5523506767
 30
0.0
 11
231.9198584392
 21
96.5523506767
 31
0.0
  0
LINE
  5
23E
330
1F
100
AcDbEntity
  8
0
  6
Continuous
 62
     7
370
    15
100
AcDbLine
 10
234.9198578134
 20
97.0023508436
 30
0.0
 11
231.9198584392
 21
97.0023508436
 31
0.0
  0
LINE
  5
23F
330
1F
100
AcDbEntity
  8
0
  6
Continuous
 62
     7
370
    15
100
AcDbLine
 10
234.9198578134
 20
97.0023508436
 30
0.0
 11
234.9198578134
 21
96.5523506767
 31
0.0
  0
LINE
  5
240
330
1F
100
AcDbEntity
  8
0
  6
Continuous
 62
     7
370
    15
100
AcDbLine
 10
234.9198578134
 20
96.5523506767
 30
0.0
 11
231.9198584392
 21
96.5523506767
 31
0.0
  0
LINE
  5
241
330
1F
100
AcDbEntity
  8
0
  6
Continuous
 62
     7
370
    15
100
AcDbLine
 10
206.1198590531
 20
97.0023508436
 30
0.0
 11
206.1198590531
 21
96.5523506767
 31
0.0
  0
LINE
  5
242
330
1F
100
AcDbEntity
  8
0
  6
Continuous
 62
     7
370
    15
100
AcDbLine
 10
209.1198584273
 20
97.0023508436
 30
0.0
 11
206.1198590531
 21
97.0023508436
 31
0.0
  0
LINE
  5
243
330
1F
100
AcDbEntity
  8
0
  6
Continuous
 62
     7
370
    15
100
AcDbLine
 10
209.1198584273
 20
96.5523506767
 30
0.0
 11
206.1198590531
 21
96.5523506767
 31
0.0
  0
LINE
  5
244
330
1F
100
AcDbEntity
  8
0
  6
Continuous
 62
     7
370
    15
100
AcDbLine
 10
205.1476149097
 20
114.1523505814
 30
0.0
 11
205.1476149097
 21
115.3023504905
 31
0.0
  0
LINE
  5
245
330
1F
100
AcDbEntity
  8
0
  6
Continuous
 62
     7
370
    15
100
AcDbLine
 10
205.1476149097
 20
113.002350486
 30
0.0
 11
205.1476149097
 21
114.1523505814
 31
0.0
  0
LINE
  5
246
330
1F
100
AcDbEntity
  8
0
  6
Continuous
 62
     7
370
    15
100
AcDbLine
 10
204.9198581114
 20
116.1523503504
 30
0.0
 11
204.9198581114
 21
112.1523502535
 31
0.0
  0
LINE
  5
247
330
1F
100
AcDbEntity
  8
0
  6
Continuous
 62
     7
370
    15
100
AcDbLine
 10
204.6198589935
 20
114.1523505814
 30
0.0
 11
204.6198589935
 21
116.1523503504
 31
0.0
  0
LINE
  5
248
330
1F
100
AcDbEntity
  8
0
  6
Continuous
 62
     7
370
    15
100
AcDbLine
 10
204.6198589935
 20
112.1523502535
 30
0.0
 11
204.6198589935
 21
114.1523505814
 31
0.0
  0
LINE
  5
249
330
1F
100
AcDbEntity
  8
0
  6
Continuous
 62
     7
370
    15
100
AcDbLine
 10
208.4198584988
 20
111.7656986482
 30
0.0
 11
208.4198584988
 21
113.577425412
 31
0.0
  0
LINE
  5
24A
330
1F
100
AcDbEntity
  8
0
  6
Continuous
 62
     7
370
    15
100
AcDbLine
 10
208.4198584988
 20
121.9272754408
 30
0.0
 11
208.4198584988
 21
123.7390022046
 31
0.0
  0
ARC
  5
24B
330
1F
100
AcDbEntity
  8
0
  6
Continuous
 62
     7
370
    15
100
AcDbCircle
 10
220.5198584333
 20
117.7523504264
 30
0.0
 40
13.5
100
AcDbArc
 50
91.4856125939
 51
153.6754234625
  0
ARC
  5
24C
330
1F
100
AcDbEntity
  8
0
  6
Continuous
 62
     7
370
    15
100
AcDbCircle
 10
220.5198584333
 20
117.7523504264
 30
0.0
 40
13.50000000000001
100
AcDbArc
 50
323.1301023542
 51
88.5143874061
  0
ARC
  5
24D
330
1F
100
AcDbEntity
  8
0
  6
Continuous
 62
     7
370
    15
100
AcDbCircle
 10
220.5198584333
 20
117.7523504264
 30
0.0
 40
13.5
100
AcDbArc
 50
206.3245765375
 51
216.8698976458
  0
LINE
  5
24E
330
1F
100
AcDbEntity
  8
0
  6
Continuous
 62
     7
370
    15
100
AcDbLine
 10
206.3553957477
 20
123.4535045243
 30
0.0
 11
207.3882324829
 21
125.3959889776
 31
0.0
  0
LINE
  5
24F
330
1F
100
AcDbEntity
  8
0
  6
Continuous
 62
     7
370
    15
100
AcDbLine
 10
207.3882324829
 20
125.3959889776
 30
0.0
 11
208.8853998318
 21
124.5999316938
 31
0.0
  0
LINE
  5
250
330
1F
100
AcDbEntity
  8
0
  6
Continuous
 62
     7
370
    15
100
AcDbLine
 10
208.4198584988
 20
122.3558101124
 30
0.0
 11
206.3553957477
 21
123.4535045243
 31
0.0
  0
LINE
  5
251
330
1F
100
AcDbEntity
  8
0
  6
Continuous
 62
     7
370
    15
100
AcDbLine
 10
205.4198591247
 20
117.7773504276
 30
0.0
 11
205.4198591247
 21
123.5273505814
 31
0.0
  0
LINE
  5
252
330
1F
100
AcDbEntity
  8
0
  6
Continuous
 62
     7
370
    15
100
AcDbLine
 10
205.4198591247
 20
123.5273505814
 30
0.0
 11
206.3946588173
 21
123.5273505814
 31
0.0
  0
LINE
  5
253
330
1F
100
AcDbEntity
  8
0
  6
Continuous
 62
     7
370
    15
100
AcDbLine
 10
205.4198591247
 20
117.7773504276
 30
0.0
 11
207.7198831573
 21
117.7773504276
 31
0.0
  0
LINE
  5
254
330
1F
100
AcDbEntity
  8
0
  6
Continuous
 62
     7
370
    15
100
AcDbLine
 10
202.6605321302
 20
120.652350343
 30
0.0
 11
202.6605321302
 21
122.8773503817
 31
0.0
  0
LINE
  5
255
330
1F
100
AcDbEntity
  8
0
  6
Continuous
 62
     7
370
    15
100
AcDbLine
 10
202.6605321302
 20
118.4273504439
 30
0.0
 11
202.6605321302
 21
120.652350343
 31
0.0
  0
LINE
  5
256
330
1F
100
AcDbEntity
  8
0
  6
Continuous
 62
     7
370
    15
100
AcDbLine
 10
202.519857718
 20
123.4023503281
 30
0.0
 11
202.519857718
 21
117.9023504277
 31
0.0
  0
LINE
  5
257
330
1F
100
AcDbEntity
  8
0
  6
Continuous
 62
     7
370
    15
100
AcDbLine
 10
202.2198586001
 20
120.652350343
 30
0.0
 11
202.2198586001
 21
123.4023503281
 31
0.0
  0
LINE
  5
258
330
1F
100
AcDbEntity
  8
0
  6
Continuous
 62
     7
370
    15
100
AcDbLine
 10
202.2198586001
 20
117.9023504277
 30
0.0
 11
202.2198586001
 21
120.652350343
 31
0.0
  0
ARC
  5
259
330
1F
100
AcDbEntity
  8
0
  6
Continuous
 62
     7
370
    15
100
AcDbCircle
 10
220.5198584333
 20
117.7523504264
 30
0.0
 40
14.50000000000001
100
AcDbArc
 50
91.3831359083
 51
149.6917086912
  0
ARC
  5
25A
330
1F
100
AcDbEntity
  8
0
  6
Continuous
 62
     7
370
    15
100
AcDbCircle
 10
220.5198584333
 20
117.7523504264
 30
0.0
 40
14.50000000000001
100
AcDbArc
 50
318.1442920277
 51
88.6168640917
  0
ARC
  5
25B
330
1F
100
AcDbEntity
  8
0
  6
Continuous
 62
     7
370
    15
100
AcDbCircle
 10
220.5198584333
 20
117.7523504264
 30
0.0
 40
14.50000000000002
100
AcDbArc
 50
199.1223333915
 51
214.4382171857
  0
ARC
  5
25C
330
1F
100
AcDbEntity
  8
0
  6
Continuous
 62
     7
370
    15
100
AcDbCircle
 10
220.5198584333
 20
117.7523504264
 30
0.0
 40
14.50000000000002
100
AcDbArc
 50
179.9012141243
 51
189.727677499
  0
LINE
  5
25D
330
1F
100
AcDbEntity
  8
0
  6
Continuous
 62
     7
370
    15
100
AcDbLine
 10
208.9698581233
 20
127.304550565
 30
0.0
 11
208.9698581233
 21
126.5186208553
 31
0.0
  0
LINE
  5
25E
330
1F
100
AcDbEntity
  8
0
  6
Continuous
 62
     7
370
    15
100
AcDbLine
 10
208.6198581591
 20
127.304550565
 30
0.0
 11
208.6198581591
 21
126.0372768409
 31
0.0
  0
LINE
  5
25F
330
1F
100
AcDbEntity
  8
0
  6
Continuous
 62
     7
370
    15
100
AcDbLine
 10
208.6198581591
 20
127.304550565
 30
0.0
 11
208.9698581233
 21
127.304550565
 31
0.0
  0
LINE
  5
260
330
1F
100
AcDbEntity
  8
0
  6
Continuous
 62
     7
370
    15
100
AcDbLine
 10
208.2698581948
 20
127.304550565
 30
0.0
 11
208.2698581948
 21
125.5104105241
 31
0.0
  0
LINE
  5
261
330
1F
100
AcDbEntity
  8
0
  6
Continuous
 62
     7
370
    15
100
AcDbLine
 10
208.2698581948
 20
127.304550565
 30
0.0
 11
208.6198581591
 21
127.304550565
 31
0.0
  0
SPLINE
  5
262
330
1F
100
AcDbEntity
  8
0
  6
Continuous
 62
     7
370
    15
100
AcDbSpline
210
0.0
220
0.0
230
1.0
 70
     8
 71
     3
 72
    54
 73
    50
 74
     0
 42
0.00000001
 43
0.00000001
 40
0.0
 40
0.0
 40
0.0
 40
0.0
 40
0.0096321057510934
 40
0.0320387102554353
 40
0.0512990999783021
 40
0.073707615711794
 40
0.0929670043973047
 40
0.115374061180438
 40
0.1346354985406034
 40
0.1570421685507566
 40
0.176302550755992
 40
0.1987110646802127
 40
0.2179704446330061
 40
0.2505695450492131
 40
0.2820307293431711
 40
0.3012911085879498
 40
0.323699636511255
 40
0.3429590272887215
 40
0.3653660717975977
 40
0.3846275131792218
 40
0.4070341808462252
 40
0.4262945532697417
 40
0.448703069706484
 40
0.4679624648859637
 40
0.4903695148640623
 40
0.5096311313872739
 40
0.5320376180157583
 40
0.5512979983062889
 40
0.5737065140397807
 40
0.5929659088516581
 40
0.6153729596289003
 40
0.6346343969890655
 40
0.6570410669992187
 40
0.6763014492044541
 40
0.6987099631286747
 40
0.7179693430814682
 40
0.7505684434976752
 40
0.7820296277916331
 40
0.8012900070364118
 40
0.823698534959717
 40
0.8429579020667388
 40
0.8653649691732669
 40
0.884626410554891
 40
0.9070330782218945
 40
0.926293450645411
 40
0.9487019670821532
 40
0.9679613559734075
 40
0.9903684130715246
 40
1.0
 40
1.0
 40
1.0
 40
1.0
 10
229.869858755119
 20
117.752350424855
 30
0.0
 10
229.8689872242312
 20
117.8466421457053
 30
0.0
 10
229.8660883019901
 20
118.1602791843628
 30
0.0
 10
229.8319507430145
 20
118.6618552530016
 30
0.0
 10
229.7504088587766
 20
119.2840804322247
 30
0.0
 10
229.6338377081645
 20
119.8695816057201
 30
0.0
 10
229.471428893794
 20
120.4757932496644
 30
0.0
 10
229.279533691955
 20
121.0410782319817
 30
0.0
 10
229.0393624403206
 20
121.6209040083107
 30
0.0
 10
228.7753278296618
 20
122.1563117327241
 30
0.0
 10
228.4615270690983
 20
122.69983054535
 30
0.0
 10
228.1298618841965
 20
123.1961975769559
 30
0.0
 10
227.687056444728
 20
123.773279290585
 30
0.0
 10
227.1385072960251
 20
124.3789555332865
 30
0.0
 10
226.5319409041724
 20
124.9263359789769
 30
0.0
 10
225.9636870775833
 20
125.3623683478585
 30
0.0
 10
225.4673203083239
 20
125.6940306440991
 30
0.0
 10
224.9238054246449
 20
126.0078274129019
 30
0.0
 10
224.3884032987134
 20
126.271859036207
 30
0.0
 10
223.8085764822367
 20
126.5120295860532
 30
0.0
 10
223.2432865047922
 20
126.7039199863899
 30
0.0
 10
222.6370679145245
 20
126.8663549273177
 30
0.0
 10
222.0515689458257
 20
126.9828169134953
 30
0.0
 10
221.4293404851268
 20
127.0647342359798
 30
0.0
 10
220.8336514716731
 20
127.1037777660237
 30
0.0
 10
220.2060519504082
 20
127.1037766811325
 30
0.0
 10
219.6103588663259
 20
127.0647329421063
 30
0.0
 10
218.9881263709308
 20
126.9828142646737
 30
0.0
 10
218.4026276732211
 20
126.8663504076518
 30
0.0
 10
217.7964153857731
 20
126.7039147743217
 30
0.0
 10
217.2311306138222
 20
126.5120271234967
 30
0.0
 10
216.6513048392651
 20
126.2718539979673
 30
0.0
 10
216.1158971298452
 20
126.0078199271516
 30
0.0
 10
215.5723783133649
 20
125.6940190311925
 30
0.0
 10
215.0760112832224
 20
125.3623538845317
 30
0.0
 10
214.4989295676772
 20
124.9195484351893
 30
0.0
 10
213.893253335025
 20
124.3709992860207
 30
0.0
 10
213.3458728552092
 20
123.7644329095565
 30
0.0
 10
212.9098405705409
 20
123.1961790421664
 30
0.0
 10
212.5781780960746
 20
122.6998126152085
 30
0.0
 10
212.2643823944583
 20
122.1562972261287
 30
0.0
 10
212.0003492884082
 20
121.6208955775023
 30
0.0
 10
211.7601808086445
 20
121.0410684818557
 30
0.0
 10
211.5682826767537
 20
120.4757783640177
 30
0.0
 10
211.4058746797373
 20
119.8695603768165
 30
0.0
 10
211.2893053935483
 20
119.2840590339981
 30
0.0
 10
211.2077649613642
 20
118.6618391249305
 30
0.0
 10
211.1736277965382
 20
118.1602734644831
 30
0.0
 10
211.1707294300587
 20
117.8466370684914
 30
0.0
 10
211.1698581113888
 20
117.752350424855
 30
0.0
  0
SPLINE
  5
263
330
1F
100
AcDbEntity
  8
0
  6
Continuous
 62
     7
370
    15
100
AcDbSpline
210
0.0
220
0.0
230
1.0
 70
    24
 71
     3
 72
    13
 73
     9
 74
     0
 42
0.00000001
 43
0.00000001
 40
0.0
 40
0.0
 40
0.0
 40
0.0
 40
0.1542521293091054
 40
0.3036189033249554
 40
0.4589679413325765
 40
0.6012100269628121
 40
0.7769229790789253
 40
1.0
 40
1.0
 40
1.0
 40
1.0
 10
229.3100064828469
 20
117.7523504263997
 30
0.0
 10
229.3643650814679
 20
117.7523504263997
 30
0.0
 10
229.4713606748092
 20
117.7523504263997
 30
0.0
 10
229.6236516139654
 20
117.7523504263997
 30
0.0
 10
229.7416654184656
 20
117.7523504263997
 30
0.0
 10
229.8183386877686
 20
117.7523504263997
 30
0.0
 10
229.8631457673914
 20
117.7523504263997
 30
0.0
 10
229.8674506625231
 20
117.7523504263997
 30
0.0
 10
229.869858755119
 20
117.7523504263997
 30
0.0
  0
ARC
  5
264
330
1F
100
AcDbEntity
  8
0
  6
Continuous
 62
     7
370
    15
100
AcDbCircle
 10
220.5198584333
 20
117.7523504264
 30
0.0
 40
8.79014833180824
100
AcDbArc
 50
0.0
 51
180.0
  0
SPLINE
  5
265
330
1F
100
AcDbEntity
  8
0
  6
Continuous
 62
     7
370
    15
100
AcDbSpline
210
0.0
220
0.0
230
1.0
 70
    24
 71
     3
 72
    13
 73
     9
 74
     0
 42
0.00000001
 43
0.00000001
 40
0.0
 40
0.0
 40
0.0
 40
0.0
 40
0.2140795949114692
 40
0.3844604147446973
 40
0.5231415057692888
 40
0.6429507354544702
 40
0.8189151772073181
 40
1.0
 40
1.0
 40
1.0
 40
1.0
 10
211.1698581113888
 20
117.7523504263997
 30
0.0
 10
211.1720944509049
 20
117.7523504263997
 30
0.0
 10
211.1761106394549
 20
117.7523504263997
 30
0.0
 10
211.2170889520068
 20
117.7523504263997
 30
0.0
 10
211.2826339231248
 20
117.7523504263997
 30
0.0
 10
211.3860064786899
 20
117.7523504263997
 30
0.0
 10
211.5399296836255
 20
117.7523504263997
 30
0.0
 10
211.6658482250577
 20
117.7523504263997
 30
0.0
 10
211.7297103836609
 20
117.7523504263997
 30
0.0
  0
ARC
  5
266
330
1F
100
AcDbEntity
  8
0
  6
Continuous
 62
     7
370
    15
100
AcDbCircle
 10
220.5198584333
 20
117.7523504264
 30
0.0
 40
8.79014833180824
100
AcDbArc
 50
180.0
 51
0.0
  0
SPLINE
  5
267
330
1F
100
AcDbEntity
  8
0
  6
Continuous
 62
     7
370
    15
100
AcDbSpline
210
0.0
220
0.0
230
1.0
 70
     8
 71
     3
 72
    52
 73
    48
 74
     0
 42
0.00000001
 43
0.00000001
 40
0.0
 40
0.0
 40
0.0
 40
0.0
 40
0.0096322809040406
 40
0.032039471249613
 40
0.0513003034370416
 40
0.0737093449305962
 40
0.0929691854897395
 40
0.1153767679987049
 40
0.1346386572805699
 40
0.1570458530074805
 40
0.1763066871096589
 40
0.1987157267938999
 40
0.2179755586201209
 40
0.2505754238931031
 40
0.282037346345466
 40
0.3012981774871182
 40
0.3237072311707721
 40
0.3429670738219202
 40
0.3653746440563406
 40
0.3843764858505227
 40
0.4169763513806414
 40
0.4434371440389288
 40
0.4698979442510458
 40
0.4971274884492982
 40
0.5243570317706009
 40
0.5469383632883555
 40
0.5695196901628204
 40
0.5925721375663828
 40
0.6156245900913192
 40
0.6346258248432337
 40
0.6570330205701443
 40
0.6762938546723227
 40
0.6987028943565637
 40
0.7179627362466755
 40
0.7505626091489758
 40
0.7820245127667476
 40
0.8012853439083998
 40
0.8236943975920538
 40
0.8429542402432018
 40
0.8653618104776222
 40
0.8846237037810402
 40
0.9070308971647462
 40
0.9262917214849762
 40
0.9487007916752366
 40
0.9679605632680301
 40
0.9903682046357342
 40
1.0
 40
1.0
 40
1.0
 40
1.0
 10
211.1698581113888
 20
117.752350424855
 30
0.0
 10
211.1707296535666
 20
117.6580592021878
 30
0.0
 10
211.1736286295024
 20
117.3444220743013
 30
0.0
 10
211.2077659929071
 20
116.8428459925514
 30
0.0
 10
211.2893080480879
 20
116.2206203321394
 30
0.0
 10
211.405879152997
 20
115.6351192465506
 30
0.0
 10
211.5682879743085
 20
115.0289076032921
 30
0.0
 10
211.7601831741663
 20
114.4636226207816
 30
0.0
 10
212.000354426316
 20
113.883796844494
 30
0.0
 10
212.2643890367561
 20
113.3483891200973
 30
0.0
 10
212.5781897976275
 20
112.8048703073673
 30
0.0
 10
212.9098549814333
 20
112.3085032761893
 30
0.0
 10
213.3526604253254
 20
111.7314215608143
 30
0.0
 10
213.9012095469445
 20
111.1257453288101
 30
0.0
 10
214.5077760317943
 20
110.5783648463868
 30
0.0
 10
215.076029628679
 20
110.1423325682364
 30
0.0
 10
215.572397235584
 20
109.8106699411333
 30
0.0
 10
216.1159091682632
 20
109.4968743379487
 30
0.0
 10
216.6490378643068
 20
109.2339649980065
 30
0.0
 10
217.3185763178626
 20
108.9563136345455
 30
0.0
 10
218.04724410434
 20
108.7212071630537
 30
0.0
 10
218.8652765456044
 20
108.5390726396081
 30
0.0
 10
219.6435093796912
 20
108.4323114241661
 30
0.0
 10
220.435540847939
 20
108.3914378933802
 30
0.0
 10
221.1902132517916
 20
108.4167717353812
 30
0.0
 10
221.8949794238719
 20
108.4961542373171
 30
0.0
 10
222.5521659139611
 20
108.6176551720597
 30
0.0
 10
223.2033985585451
 20
108.7872528860237
 30
0.0
 10
223.8075105519847
 20
108.992116650351
 30
0.0
 10
224.3907009436638
 20
109.233979490162
 30
0.0
 10
224.9238200981073
 20
109.4968801830186
 30
0.0
 10
225.4673384650961
 20
109.8106820188884
 30
0.0
 10
225.9637056012499
 20
110.1423470799521
 30
0.0
 10
226.5407878637014
 20
110.5851521670197
 30
0.0
 10
227.1464629725189
 20
111.1337025187235
 30
0.0
 10
227.6938442184425
 20
111.7402679891946
 30
0.0
 10
228.1298763177783
 20
112.3085218102922
 30
0.0
 10
228.4615386894532
 20
112.8048885452603
 30
0.0
 10
228.7753353121538
 20
113.3484034345713
 30
0.0
 10
229.0393674838537
 20
113.883805570745
 30
0.0
 10
229.2795361158367
 20
114.4636323430413
 30
0.0
 10
229.4714341558822
 20
115.028922498867
 30
0.0
 10
229.6338423326054
 20
115.635140726794
 30
0.0
 10
229.7504111420671
 20
116.2206417449633
 30
0.0
 10
229.831952201282
 20
116.8428617399906
 30
0.0
 10
229.866089017213
 20
117.3444271590901
 30
0.0
 10
229.8689874263327
 20
117.6580639537687
 30
0.0
 10
229.869858755119
 20
117.752350424855
 30
0.0
  0
LINE
  5
268
330
1F
100
AcDbEntity
  8
0
  6
Continuous
 62
     7
370
    15
100
AcDbLine
 10
212.5198586121
 20
108.2523505456
 30
0.0
 11
212.5198586121
 21
101.752350784
 31
0.0
  0
LINE
  5
269
330
1F
100
AcDbEntity
  8
0
  6
Continuous
 62
     7
370
    15
100
AcDbLine
 10
225.5198585078
 20
101.752350784
 30
0.0
 11
225.5198585078
 21
108.2523505456
 31
0.0
  0
LINE
  5
26A
330
1F
100
AcDbEntity
  8
0
  6
Continuous
 62
     7
370
    15
100
AcDbLine
 10
225.5198585078
 20
108.2523505456
 30
0.0
 11
212.5198586121
 21
108.2523505456
 31
0.0
  0
LINE
  5
26B
330
1F
100
AcDbEntity
  8
0
  6
Continuous
 62
     7
370
    15
100
AcDbLine
 10
212.5198586121
 20
101.752350784
 30
0.0
 11
225.5198585078
 21
101.752350784
 31
0.0
  0
ARC
  5
26C
330
1F
100
AcDbEntity
  8
0
  6
Continuous
 62
     7
370
    15
100
AcDbCircle
 10
220.5198584333
 20
117.7523504264
 30
0.0
 40
10.10000000069665
100
AcDbArc
 50
289.8484385653
 51
250.151561408
  0
LINE
  5
26D
330
1F
100
AcDbEntity
  8
0
  6
Continuous
 62
     7
370
    15
100
AcDbLine
 10
208.4255403116
 20
109.5523501999
 30
0.0
 11
212.2141761913
 21
109.5523501999
 31
0.0
  0
LWPOLYLINE
  5
26E
330
1F
100
AcDbEntity
  8
0
  6
Continuous
 62
     7
370
    15
100
AcDbPolyline
 90
        9
 70
   128
 43
0.0
 10
212.2141761913
 20
109.5523501999
 10
212.2547520533
 20
109.5427434213
 10
212.2937677636
 20
109.514290399
 10
212.3297250106
 20
109.4680848784
 10
212.3612417116
 20
109.4059038229
 10
212.3871071472
 20
109.3301358885
 10
212.4063266649
 20
109.2436920173
 10
212.4181619122
 20
109.1498959131
 10
212.4221584036
 20
109.0523506767
  0
LINE
  5
26F
330
1F
100
AcDbEntity
  8
0
  6
Continuous
 62
     7
370
    15
100
AcDbLine
 10
212.4221584036
 20
109.0523506767
 30
0.0
 11
212.4221584036
 21
108.6523506112
 31
0.0
  0
LINE
  5
270
330
1F
100
AcDbEntity
  8
0
  6
Continuous
 62
     7
370
    15
100
AcDbLine
 10
212.4221584036
 20
101.6523505814
 30
0.0
 11
212.4221584036
 21
101.2523497707
 31
0.0
  0
LWPOLYLINE
  5
271
330
1F
100
AcDbEntity
  8
0
  6
Continuous
 62
     7
370
    15
100
AcDbPolyline
 90
        9
 70
   128
 43
0.0
 10
212.4221584036
 20
101.2523497707
 10
212.4181619122
 20
101.1548052795
 10
212.4063266649
 20
101.0610084302
 10
212.3871071472
 20
100.974565304
 10
212.3612417116
 20
100.8987973697
 10
212.3297250106
 20
100.8366163141
 10
212.2937677636
 20
100.7904107935
 10
212.2547520533
 20
100.7619585163
 10
212.2141761913
 20
100.7523502476
  0
LINE
  5
272
330
1F
100
AcDbEntity
  8
0
  6
Continuous
 62
     7
370
    15
100
AcDbLine
 10
212.2141761913
 20
100.7523502476
 30
0.0
 11
208.4255403116
 21
100.7523502476
 31
0.0
  0
LWPOLYLINE
  5
273
330
1F
100
AcDbEntity
  8
0
  6
Continuous
 62
     7
370
    15
100
AcDbPolyline
 90
        9
 70
   128
 43
0.0
 10
208.4255403116
 20
100.7523502476
 10
208.3849651947
 20
100.7619585163
 10
208.3459494844
 20
100.7904107935
 10
208.3099922373
 20
100.8366163141
 10
208.2784747913
 20
100.8987973697
 10
208.2526101008
 20
100.974565304
 10
208.233390583
 20
101.0610084302
 10
208.2215553358
 20
101.1548052795
 10
208.2175588443
 20
101.2523497707
  0
LINE
  5
274
330
1F
100
AcDbEntity
  8
0
  6
Continuous
 62
     7
370
    15
100
AcDbLine
 10
208.2175588443
 20
101.2523497707
 30
0.0
 11
208.2175588443
 21
109.0523506767
 31
0.0
  0
LWPOLYLINE
  5
275
330
1F
100
AcDbEntity
  8
0
  6
Continuous
 62
     7
370
    15
100
AcDbPolyline
 90
        9
 70
   128
 43
0.0
 10
208.2175588443
 20
109.0523506767
 10
208.2215553358
 20
109.1498959131
 10
208.233390583
 20
109.2436920173
 10
208.2526101008
 20
109.3301358885
 10
208.2784747913
 20
109.4059038229
 10
208.3099922373
 20
109.4680848784
 10
208.3459494844
 20
109.514290399
 10
208.3849651947
 20
109.5427434213
 10
208.4255403116
 20
109.5523501999
  0
LINE
  5
276
330
1F
100
AcDbEntity
  8
0
  6
Continuous
 62
     7
370
    15
100
AcDbLine
 10
208.5130749478
 20
102.9094572432
 30
0.0
 11
208.5130749478
 21
107.3952439494
 31
0.0
  0
ELLIPSE
  5
277
330
1F
100
AcDbEntity
  8
0
  6
Continuous
 62
     7
370
    15
100
AcDbEllipse
 10
208.741781587
 20
102.9094572076
 30
0.0
 11
0.0
 21
0.5
 31
0.0
210
0.0
220
0.0
230
1.0
 40
0.4574135786
 41
1.570796326794897
 42
2.356194490223364
  0
LINE
  5
278
330
1F
100
AcDbEntity
  8
0
  6
Continuous
 62
     7
370
    15
100
AcDbLine
 10
208.9263720646
 20
101.7987977035
 30
0.0
 11
208.5800616279
 21
102.555903352
 31
0.0
  0
ELLIPSE
  5
279
330
1F
100
AcDbEntity
  8
0
  6
Continuous
 62
     7
370
    15
100
AcDbEllipse
 10
209.0880925092
 20
102.1523504264
 30
0.0
 11
0.0
 21
0.5
 31
0.0
210
0.0
220
0.0
230
1.0
 40
0.4574135786
 41
2.356194490195449
 42
3.141592653589793
  0
ELLIPSE
  5
27A
330
1F
100
AcDbEntity
  8
0
  6
Continuous
 62
     7
370
    15
100
AcDbEllipse
 10
209.0880925092
 20
108.1523504264
 30
0.0
 11
0.0
 21
0.5
 31
0.0
210
0.0
220
0.0
230
1.0
 40
0.4574135786
 41
0.0
 42
0.7853981632172856
  0
LINE
  5
27B
330
1F
100
AcDbEntity
  8
0
  6
Continuous
 62
     7
370
    15
100
AcDbLine
 10
208.5800616279
 20
107.7487970955
 30
0.0
 11
208.9263720646
 21
108.5059034891
 31
0.0
  0
ELLIPSE
  5
27C
330
1F
100
AcDbEntity
  8
0
  6
Continuous
 62
     7
370
    15
100
AcDbEllipse
 10
208.741781587
 20
107.3952436452
 30
0.0
 11
0.0
 21
0.5
 31
0.0
210
0.0
220
0.0
230
1.0
 40
0.4574135786
 41
0.785398163281922
 42
1.570796327000016
  0
LINE
  5
27D
330
1F
100
AcDbEntity
  8
0
  6
Continuous
 62
     7
370
    15
100
AcDbLine
 10
208.4255403116
 20
100.7523502476
 30
0.0
 11
207.9708500042
 21
100.7523502476
 31
0.0
  0
LWPOLYLINE
  5
27E
330
1F
100
AcDbEntity
  8
0
  6
Continuous
 62
     7
370
    15
100
AcDbPolyline
 90
        9
 70
   128
 43
0.0
 10
207.9708500042
 20
100.7523502476
 10
207.9302741423
 20
100.7619585163
 10
207.8912584319
 20
100.7904107935
 10
207.85530193
 20
100.8366163141
 10
207.8237844839
 20
100.8987973697
 10
207.7979190483
 20
100.974565304
 10
207.7786995306
 20
101.0610084302
 10
207.7668650284
 20
101.1548052795
 10
207.762868537
 20
101.2523497707
  0
LINE
  5
27F
330
1F
100
AcDbEntity
  8
0
  6
Continuous
 62
     7
370
    15
100
AcDbLine
 10
208.2175588443
 20
101.2523497707
 30
0.0
 11
207.762868537
 21
101.2523497707
 31
0.0
  0
LINE
  5
280
330
1F
100
AcDbEntity
  8
0
  6
Continuous
 62
     7
370
    15
100
AcDbLine
 10
207.762868537
 20
101.2523497707
 30
0.0
 11
207.762868537
 21
109.0523506767
 31
0.0
  0
LINE
  5
281
330
1F
100
AcDbEntity
  8
0
  6
Continuous
 62
     7
370
    15
100
AcDbLine
 10
208.2175588443
 20
109.0523506767
 30
0.0
 11
207.762868537
 21
109.0523506767
 31
0.0
  0
LWPOLYLINE
  5
282
330
1F
100
AcDbEntity
  8
0
  6
Continuous
 62
     7
370
    15
100
AcDbPolyline
 90
        9
 70
   128
 43
0.0
 10
207.762868537
 20
109.0523506767
 10
207.7668650284
 20
109.1498959131
 10
207.7786995306
 20
109.2436920173
 10
207.7979190483
 20
109.3301358885
 10
207.8237844839
 20
109.4059038229
 10
207.85530193
 20
109.4680848784
 10
207.8912584319
 20
109.514290399
 10
207.9302741423
 20
109.5427434213
 10
207.9708500042
 20
109.5523501999
  0
LINE
  5
283
330
1F
100
AcDbEntity
  8
0
  6
Continuous
 62
     7
370
    15
100
AcDbLine
 10
207.9708500042
 20
109.5523501999
 30
0.0
 11
208.4255403116
 21
109.5523501999
 31
0.0
  0
SPLINE
  5
284
330
1F
100
AcDbEntity
  8
0
  6
Continuous
 62
     7
370
    15
100
AcDbSpline
210
0.0
220
0.0
230
1.0
 70
    24
 71
     3
 72
    10
 73
     6
 74
     0
 42
0.00000001
 43
0.00000001
 40
0.0
 40
0.0
 40
0.0
 40
0.0
 40
0.5
 40
0.5
 40
1.0
 40
1.0
 40
1.0
 40
1.0
 10
207.4198584332539
 20
102.9094572075997
 30
0.0
 10
207.4198584332539
 20
102.8839449787814
 30
0.0
 10
207.4198584332539
 20
102.8574233297925
 30
0.0
 10
207.4198584332539
 20
102.8084177124384
 30
0.0
 10
207.4198584332539
 20
102.7860757213241
 30
0.0
 10
207.4198584332539
 20
102.7680358512992
 30
0.0
  0
LINE
  5
285
330
1F
100
AcDbEntity
  8
0
  6
Continuous
 62
     7
370
    15
100
AcDbLine
 10
207.7198578253
 20
102.9094572432
 30
0.0
 11
207.4198587074
 21
102.9094572432
 31
0.0
  0
LINE
  5
286
330
1F
100
AcDbEntity
  8
0
  6
Continuous
 62
     7
370
    15
100
AcDbLine
 10
207.7198578253
 20
102.555903352
 30
0.0
 11
207.7198578253
 21
102.9094572432
 31
0.0
  0
ARC
  5
287
330
1F
100
AcDbEntity
  8
0
  6
Continuous
 62
     7
370
    15
100
AcDbCircle
 10
207.6823588929
 20
102.8210685891
 30
0.0
 40
0.2678036088285917
100
AcDbArc
 50
191.4215985352
 51
278.0492349902
  0
SPLINE
  5
288
330
1F
100
AcDbEntity
  8
0
  6
Continuous
 62
     7
370
    15
100
AcDbSpline
210
0.0
220
0.0
230
1.0
 70
    24
 71
     3
 72
    10
 73
     6
 74
     0
 42
0.00000001
 43
0.00000001
 40
0.0
 40
0.0
 40
0.0
 40
0.0
 40
0.5
 40
0.5
 40
1.0
 40
1.0
 40
1.0
 40
1.0
 10
207.4198584332539
 20
107.5366650015
 30
0.0
 10
207.4198584332539
 20
107.5186251314751
 30
0.0
 10
207.4198584332539
 20
107.4962831403609
 30
0.0
 10
207.4198584332539
 20
107.4472775230068
 30
0.0
 10
207.4198584332539
 20
107.4207558740179
 30
0.0
 10
207.4198584332539
 20
107.3952436451997
 30
0.0
  0
ARC
  5
289
330
1F
100
AcDbEntity
  8
0
  6
Continuous
 62
     7
370
    15
100
AcDbCircle
 10
207.6823582314
 20
107.4836326077
 30
0.0
 40
0.2678029595303422
100
AcDbArc
 50
81.950602418
 51
168.5783743292
  0
LINE
  5
28A
330
1F
100
AcDbEntity
  8
0
  6
Continuous
 62
     7
370
    15
100
AcDbLine
 10
207.7198578253
 20
107.3952439494
 30
0.0
 11
207.7198578253
 21
107.7487970955
 31
0.0
  0
LINE
  5
28B
330
1F
100
AcDbEntity
  8
0
  6
Continuous
 62
     7
370
    15
100
AcDbLine
 10
207.4198587074
 20
107.3952439494
 30
0.0
 11
207.7198578253
 21
107.3952439494
 31
0.0
  0
LINE
  5
28C
330
1F
100
AcDbEntity
  8
0
  6
Continuous
 62
     7
370
    15
100
AcDbLine
 10
207.7198578253
 20
102.9094572432
 30
0.0
 11
207.7198578253
 21
107.3952439494
 31
0.0
  0
LINE
  5
28D
330
1F
100
AcDbEntity
  8
0
  6
Continuous
 62
     7
370
    15
100
AcDbLine
 10
207.4198587074
 20
102.9094572432
 30
0.0
 11
207.4198587074
 21
107.3952439494
 31
0.0
  0
LINE
  5
28E
330
1F
100
AcDbEntity
  8
0
  6
Continuous
 62
     7
370
    15
100
AcDbLine
 10
212.5198586121
 20
107.7487970955
 30
0.0
 11
208.5800616279
 21
107.7487970955
 31
0.0
  0
LINE
  5
28F
330
1F
100
AcDbEntity
  8
0
  6
Continuous
 62
     7
370
    15
100
AcDbLine
 10
212.5198586121
 20
107.3952439494
 30
0.0
 11
208.5130749478
 21
107.3952439494
 31
0.0
  0
LINE
  5
290
330
1F
100
AcDbEntity
  8
0
  6
Continuous
 62
     7
370
    15
100
AcDbLine
 10
212.5198586121
 20
102.9094572432
 30
0.0
 11
208.5130749478
 21
102.9094572432
 31
0.0
  0
LINE
  5
291
330
1F
100
AcDbEntity
  8
0
  6
Continuous
 62
     7
370
    15
100
AcDbLine
 10
212.5198586121
 20
102.555903352
 30
0.0
 11
208.5800616279
 21
102.555903352
 31
0.0
  0
LINE
  5
292
330
1F
100
AcDbEntity
  8
0
  6
Continuous
 62
     7
370
    15
100
AcDbLine
 10
207.7198578253
 20
107.7487970955
 30
0.0
 11
207.7198578253
 21
108.5059034891
 31
0.0
  0
ARC
  5
293
330
1F
100
AcDbEntity
  8
0
  6
Continuous
 62
     7
370
    15
100
AcDbCircle
 10
207.6823572849
 20
108.2407401535
 30
0.0
 40
0.267801951176331
100
AcDbArc
 50
81.9503673992
 51
168.5784196202
  0
LINE
  5
294
330
1F
100
AcDbEntity
  8
0
  6
Continuous
 62
     7
370
    15
100
AcDbLine
 10
207.4198587074
 20
107.5366649098
 30
0.0
 11
207.4198587074
 21
108.2937720484
 31
0.0
  0
LINE
  5
295
330
1F
100
AcDbEntity
  8
0
  6
Continuous
 62
     7
370
    15
100
AcDbLine
 10
207.7198578253
 20
101.7987977035
 30
0.0
 11
207.7198578253
 21
102.555903352
 31
0.0
  0
ARC
  5
296
330
1F
100
AcDbEntity
  8
0
  6
Continuous
 62
     7
370
    15
100
AcDbCircle
 10
207.682357
 20
102.0639606361
 30
0.0
 40
0.2678015921080291
100
AcDbArc
 50
191.4215079507
 51
278.0497050299
  0
LINE
  5
297
330
1F
100
AcDbEntity
  8
0
  6
Continuous
 62
     7
370
    15
100
AcDbLine
 10
207.4198587074
 20
102.0109291441
 30
0.0
 11
207.4198587074
 21
102.7680362827
 31
0.0
  0
LINE
  5
298
330
1F
100
AcDbEntity
  8
0
  6
Continuous
 62
     7
370
    15
100
AcDbLine
 10
208.9263720646
 20
108.5059034891
 30
0.0
 11
212.5198586121
 21
108.5059034891
 31
0.0
  0
LINE
  5
299
330
1F
100
AcDbEntity
  8
0
  6
Continuous
 62
     7
370
    15
100
AcDbLine
 10
212.5198586121
 20
108.5059034891
 30
0.0
 11
212.5198586121
 21
108.2523505456
 31
0.0
  0
LINE
  5
29A
330
1F
100
AcDbEntity
  8
0
  6
Continuous
 62
     7
370
    15
100
AcDbLine
 10
212.5198586121
 20
101.7987977035
 30
0.0
 11
208.9263720646
 21
101.7987977035
 31
0.0
  0
LINE
  5
29B
330
1F
100
AcDbEntity
  8
0
  6
Continuous
 62
     7
370
    15
100
AcDbLine
 10
207.7198578253
 20
101.6523505814
 30
0.0
 11
207.7198578253
 21
101.7987977035
 31
0.0
  0
ARC
  5
29C
330
1F
100
AcDbEntity
  8
0
  6
Continuous
 62
     7
370
    15
100
AcDbCircle
 10
207.7198584333
 20
101.9523504264
 30
0.0
 40
0.3000000000000114
100
AcDbArc
 50
179.9999999995
 51
270.0
  0
SPLINE
  5
29D
330
1F
100
AcDbEntity
  8
0
  6
Continuous
 62
     7
370
    15
100
AcDbSpline
210
0.0
220
0.0
230
1.0
 70
    24
 71
     3
 72
    10
 73
     6
 74
     0
 42
0.00000001
 43
0.00000001
 40
0.0
 40
0.0
 40
0.0
 40
0.0
 40
0.5
 40
0.5
 40
1.0
 40
1.0
 40
1.0
 40
1.0
 10
207.4198584332539
 20
102.0109290701994
 30
0.0
 10
207.4198584332539
 20
101.9928892001744
 30
0.0
 10
207.4198584332539
 20
101.9777239155694
 30
0.0
 10
207.4198584332539
 20
101.9574251242306
 30
0.0
 10
207.4198584332539
 20
101.9523504263992
 30
0.0
 10
207.4198584332539
 20
101.9523504263992
 30
0.0
  0
ARC
  5
29E
330
1F
100
AcDbEntity
  8
0
  6
Continuous
 62
     7
370
    15
100
AcDbCircle
 10
207.7198584333
 20
108.3523504264
 30
0.0
 40
0.3000000000000114
100
AcDbArc
 50
90.0
 51
180.0
  0
LINE
  5
29F
330
1F
100
AcDbEntity
  8
0
  6
Continuous
 62
     7
370
    15
100
AcDbLine
 10
207.7198578253
 20
108.5059034891
 30
0.0
 11
207.7198578253
 21
108.6523506112
 31
0.0
  0
SPLINE
  5
2A0
330
1F
100
AcDbEntity
  8
0
  6
Continuous
 62
     7
370
    15
100
AcDbSpline
210
0.0
220
0.0
230
1.0
 70
    24
 71
     3
 72
    10
 73
     6
 74
     0
 42
0.00000001
 43
0.00000001
 40
0.0
 40
0.0
 40
0.0
 40
0.0
 40
0.5
 40
0.5
 40
1.0
 40
1.0
 40
1.0
 40
1.0
 10
207.4198584332539
 20
108.3523504264003
 30
0.0
 10
207.4198584332539
 20
108.3523504264003
 30
0.0
 10
207.4198584332539
 20
108.3472757285689
 30
0.0
 10
207.4198584332539
 20
108.32697693723
 30
0.0
 10
207.4198584332539
 20
108.3118116526251
 30
0.0
 10
207.4198584332539
 20
108.2937717826001
 30
0.0
  0
LINE
  5
2A1
330
1F
100
AcDbEntity
  8
0
  6
Continuous
 62
     7
370
    15
100
AcDbLine
 10
207.762868537
 20
101.6523505814
 30
0.0
 11
207.7198578253
 21
101.6523505814
 31
0.0
  0
LINE
  5
2A2
330
1F
100
AcDbEntity
  8
0
  6
Continuous
 62
     7
370
    15
100
AcDbLine
 10
207.762868537
 20
108.6523506112
 30
0.0
 11
207.7198578253
 21
108.6523506112
 31
0.0
  0
LINE
  5
2A3
330
1F
100
AcDbEntity
  8
0
  6
Continuous
 62
     7
370
    15
100
AcDbLine
 10
209.0880928769
 20
108.6523506112
 30
0.0
 11
212.5198586121
 21
108.6523506112
 31
0.0
  0
LINE
  5
2A4
330
1F
100
AcDbEntity
  8
0
  6
Continuous
 62
     7
370
    15
100
AcDbLine
 10
212.5198586121
 20
108.6523506112
 30
0.0
 11
212.5198586121
 21
108.5059034891
 31
0.0
  0
LINE
  5
2A5
330
1F
100
AcDbEntity
  8
0
  6
Continuous
 62
     7
370
    15
100
AcDbLine
 10
212.5198586121
 20
101.752350784
 30
0.0
 11
212.5198586121
 21
101.6523505814
 31
0.0
  0
LINE
  5
2A6
330
1F
100
AcDbEntity
  8
0
  6
Continuous
 62
     7
370
    15
100
AcDbLine
 10
209.0880928769
 20
101.6523505814
 30
0.0
 11
212.5198586121
 21
101.6523505814
 31
0.0
  0
LINE
  5
2A7
330
1F
100
AcDbEntity
  8
0
  6
Continuous
 62
     7
370
    15
100
AcDbLine
 10
209.7198581531
 20
100.5523498423
 30
0.0
 11
209.7198581531
 21
100.7523502476
 31
0.0
  0
LINE
  5
2A8
330
1F
100
AcDbEntity
  8
0
  6
Continuous
 62
     7
370
    15
100
AcDbLine
 10
225.5198585078
 20
101.752350784
 30
0.0
 11
230.7198582425
 21
101.752350784
 31
0.0
  0
LINE
  5
2A9
330
1F
100
AcDbEntity
  8
0
  6
Continuous
 62
     7
370
    15
100
AcDbLine
 10
230.7198582425
 20
101.752350784
 30
0.0
 11
231.3198587134
 21
101.752350784
 31
0.0
  0
LINE
  5
2AA
330
1F
100
AcDbEntity
  8
0
  6
Continuous
 62
     7
370
    15
100
AcDbLine
 10
231.3198587134
 20
101.752350784
 30
0.0
 11
231.3198587134
 21
100.5523498423
 31
0.0
  0
LINE
  5
2AB
330
1F
100
AcDbEntity
  8
0
  6
Continuous
 62
     7
370
    15
100
AcDbLine
 10
230.7198582425
 20
113.7253000654
 30
0.0
 11
230.7198582425
 21
101.752350784
 31
0.0
  0
ELLIPSE
  5
2AC
330
1F
100
AcDbEntity
  8
0
  6
Continuous
 62
     7
370
    15
100
AcDbEllipse
 10
220.5198584333
 20
120.5028916395
 30
0.0
 11
3.979039320256561E-13
 21
12.46208267467948
 31
0.0
210
0.0
220
0.0
230
1.0
 40
0.9753388427
 41
4.137362445828248
 42
4.235747419574645
  0
LINE
  5
2AD
330
1F
100
AcDbEntity
  8
0
  6
Continuous
 62
     7
370
    15
100
AcDbLine
 10
231.3198587134
 20
114.7853198714
 30
0.0
 11
231.3198587134
 21
101.752350784
 31
0.0
  0
LINE
  5
2AE
330
1F
100
AcDbEntity
  8
0
  6
Continuous
 62
     7
370
    15
100
AcDbLine
 10
209.7198581531
 20
109.5523501999
 30
0.0
 11
209.7198581531
 21
114.7853198714
 31
0.0
  0
ELLIPSE
  5
2AF
330
1F
100
AcDbEntity
  8
0
  6
Continuous
 62
     7
370
    15
100
AcDbEllipse
 10
220.5198584333
 20
120.5028916395
 30
0.0
 11
3.979039320256561E-13
 21
12.46208267467948
 31
0.0
210
0.0
220
0.0
230
1.0
 40
0.9753388427
 41
2.047437790028447
 42
2.145822861366445
  0
LINE
  5
2B0
330
1F
100
AcDbEntity
  8
0
  6
Continuous
 62
     7
370
    15
100
AcDbLine
 10
210.319858624
 20
113.7253000654
 30
0.0
 11
210.319858624
 21
109.5523501999
 31
0.0
  0
ARC
  5
2B1
330
1F
100
AcDbEntity
  8
0
  6
Continuous
 62
     7
370
    15
100
AcDbCircle
 10
220.5198584333
 20
117.7523504264
 30
0.0
 40
11.20015105616943
100
AcDbArc
 50
296.5143891092
 51
335.6025440852
  0
ARC
  5
2B2
330
1F
100
AcDbEntity
  8
0
  6
Continuous
 62
     7
370
    15
100
AcDbCircle
 10
220.5198584333
 20
117.7523504264
 30
0.0
 40
11.200151056
100
AcDbArc
 50
204.397455901
 51
238.0167357174
  0
ARC
  5
2B3
330
1F
100
AcDbEntity
  8
0
  6
Continuous
 62
     7
370
    15
100
AcDbCircle
 10
220.5198584333
 20
117.7523504264
 30
0.0
 40
11.2001510560647
100
AcDbArc
 50
179.9999999765
 51
195.3616280873
  0
ARC
  5
2B4
330
1F
100
AcDbEntity
  8
0
  6
Continuous
 62
     7
370
    15
100
AcDbCircle
 10
220.5198584333
 20
117.7523504264
 30
0.0
 40
11.20015105600001
100
AcDbArc
 50
0.0000000103
 51
179.9999999765
  0
ARC
  5
2B5
330
1F
100
AcDbEntity
  8
0
  6
Continuous
 62
     7
370
    15
100
AcDbCircle
 10
220.5198584333
 20
117.7523504264
 30
0.0
 40
11.20015105606468
100
AcDbArc
 50
344.6383013373
 51
0.0
  0
SPLINE
  5
2B6
330
1F
100
AcDbEntity
  8
0
  6
Continuous
 62
     7
370
    15
100
AcDbSpline
210
0.0
220
0.0
230
1.0
 70
     8
 71
     3
 72
    26
 73
    22
 74
     0
 42
0.00000001
 43
0.00000001
 40
0.0
 40
0.0
 40
0.0
 40
0.0
 40
0.1249999999999956
 40
0.1249999999999956
 40
0.1874999999999973
 40
0.1874999999999973
 40
0.249999999999999
 40
0.249999999999999
 40
0.3749999999999972
 40
0.3749999999999972
 40
0.4999999999999954
 40
0.4999999999999954
 40
0.6249999999999937
 40
0.6249999999999937
 40
0.6874999999999928
 40
0.6874999999999928
 40
0.7499999999999919
 40
0.7499999999999919
 40
0.874999999999996
 40
0.874999999999996
 40
1.0
 40
1.0
 40
1.0
 40
1.0
 10
220.8145145401386
 20
130.4523504263996
 30
0.0
 10
220.7988903539373
 20
130.4279830002383
 30
0.0
 10
220.7804336011377
 20
130.4064074969993
 30
0.0
 10
220.7485452148279
 20
130.3778839288757
 30
0.0
 10
220.7371208658056
 20
130.3689712925984
 30
0.0
 10
220.7133921075731
 20
130.35285110127
 30
0.0
 10
220.7010632523285
 20
130.3456023553774
 30
0.0
 10
220.662712292551
 20
130.3261590229967
 30
0.0
 10
220.6349436837793
 20
130.3161808993659
 30
0.0
 10
220.5783098560861
 20
130.3030566294474
 30
0.0
 10
220.549116798772
 20
130.2997400913534
 30
0.0
 10
220.49016627797
 20
130.2997729601721
 30
0.0
 10
220.4612309449497
 20
130.3030760813228
 30
0.0
 10
220.4186266583808
 20
130.3129813310185
 30
0.0
 10
220.404487258545
 20
130.3171556861031
 30
0.0
 10
220.3772342666842
 20
130.327021942546
 30
0.0
 10
220.3640398297971
 20
130.3327233543057
 30
0.0
 10
220.3257357519231
 20
130.3521688554885
 30
0.0
 10
220.3015936247752
 20
130.3685428573993
 30
0.0
 10
220.2592556888475
 20
130.4064510788816
 30
0.0
 10
220.2408279267916
 20
130.4279807946243
 30
0.0
 10
220.2252023263694
 20
130.4523504263996
 30
0.0
  0
LINE
  5
2B7
330
1F
100
AcDbEntity
  8
0
  6
Continuous
 62
     7
370
    15
100
AcDbLine
 10
231.7698581352
 20
117.7523504274
 30
0.0
 11
231.7200092807
 21
117.7523504284
 31
0.0
  0
ARC
  5
2B8
330
1F
100
AcDbEntity
  8
0
  6
Continuous
 62
     7
370
    15
100
AcDbCircle
 10
220.5198584333
 20
117.7523504264
 30
0.0
 40
11.25000000000003
100
AcDbArc
 50
343.7397952917
 51
0.0000000051
  0
ARC
  5
2B9
330
1F
100
AcDbEntity
  8
0
  6
Continuous
 62
     7
370
    15
100
AcDbCircle
 10
220.5198584333
 20
117.7523504264
 30
0.0
 40
11.25
100
AcDbArc
 50
179.9999999765
 51
196.2602047083
  0
LINE
  5
2BA
330
1F
100
AcDbEntity
  8
0
  6
Continuous
 62
     7
370
    15
100
AcDbLine
 10
209.3197075858
 20
117.752350431
 30
0.0
 11
209.2698587313
 21
117.752350431
 31
0.0
  0
ARC
  5
2BB
330
1F
100
AcDbEntity
  8
0
  6
Continuous
 62
     7
370
    15
100
AcDbCircle
 10
220.5198584333
 20
117.7523504264
 30
0.0
 40
11.25000000000021
100
AcDbArc
 50
96.1231988689
 51
179.9999999765
  0
ARC
  5
2BC
330
1F
100
AcDbEntity
  8
0
  6
Continuous
 62
     7
370
    15
100
AcDbCircle
 10
220.5198584333
 20
117.7523504264
 30
0.0
 40
11.20489857447025
100
AcDbArc
 50
83.852059488
 51
96.147940512
  0
ARC
  5
2BD
330
1F
100
AcDbEntity
  8
0
  6
Continuous
 62
     7
370
    15
100
AcDbCircle
 10
220.5198584333
 20
117.7523504264
 30
0.0
 40
11.25
100
AcDbArc
 50
0.0000000051
 51
83.8768011337
  0
ARC
  5
2BE
330
1F
100
AcDbEntity
  8
0
  6
Continuous
 62
     7
370
    15
100
AcDbCircle
 10
220.5198584333
 20
117.7523504264
 30
0.0
 40
11.20252481530001
100
AcDbArc
 50
296.5083323364
 51
335.5757907167
  0
ARC
  5
2BF
330
1F
100
AcDbEntity
  8
0
  6
Continuous
 62
     7
370
    15
100
AcDbCircle
 10
220.5198584333
 20
117.7523504264
 30
0.0
 40
11.20252481530001
100
AcDbArc
 50
204.4242092978
 51
237.9972991955
  0
LINE
  5
2C0
330
1F
100
AcDbEntity
  8
0
  6
Continuous
 62
     7
370
    15
100
AcDbLine
 10
219.3198584228
 20
128.892805732
 30
0.0
 11
219.3198584228
 21
130.0523507661
 31
0.0
  0
LINE
  5
2C1
330
1F
100
AcDbEntity
  8
0
  6
Continuous
 62
     7
370
    15
100
AcDbLine
 10
221.7198584437
 20
130.0523507661
 30
0.0
 11
219.3198584228
 21
130.0523507661
 31
0.0
  0
LINE
  5
2C2
330
1F
100
AcDbEntity
  8
0
  6
Continuous
 62
     7
370
    15
100
AcDbLine
 10
221.7198584437
 20
128.892805732
 30
0.0
 11
221.7198584437
 21
130.0523507661
 31
0.0
  0
LINE
  5
2C3
330
1F
100
AcDbEntity
  8
0
  6
Continuous
 62
     7
370
    15
100
AcDbLine
 10
220.8145145302
 20
130.4523508317
 30
0.0
 11
221.3198584713
 21
130.4523508317
 31
0.0
  0
LINE
  5
2C4
330
1F
100
AcDbEntity
  8
0
  6
Continuous
 62
     7
370
    15
100
AcDbLine
 10
219.7198583953
 20
130.4523508317
 30
0.0
 11
220.2252023363
 21
130.4523508317
 31
0.0
  0
ARC
  5
2C5
330
1F
100
AcDbEntity
  8
0
  6
Continuous
 62
     7
370
    15
100
AcDbCircle
 10
220.5198584333
 20
117.7523504264
 30
0.0
 40
12.80000000000001
100
AcDbArc
 50
91.5668767664
 51
212.4617449162
  0
ARC
  5
2C6
330
1F
100
AcDbEntity
  8
0
  6
Continuous
 62
     7
370
    15
100
AcDbCircle
 10
220.5198584333
 20
117.7523504264
 30
0.0
 40
12.8000000015714
100
AcDbArc
 50
327.5382550601
 51
88.4331232336
  0
LINE
  5
2C7
330
1F
100
AcDbEntity
  8
0
  6
Continuous
 62
     7
370
    15
100
AcDbLine
 10
207.762868537
 20
102.9094572432
 30
0.0
 11
207.7198578253
 21
102.9094572432
 31
0.0
  0
LINE
  5
2C8
330
1F
100
AcDbEntity
  8
0
  6
Continuous
 62
     7
370
    15
100
AcDbLine
 10
207.762868537
 20
102.555903352
 30
0.0
 11
207.7198578253
 21
102.555903352
 31
0.0
  0
LINE
  5
2C9
330
1F
100
AcDbEntity
  8
0
  6
Continuous
 62
     7
370
    15
100
AcDbLine
 10
207.762868537
 20
107.3952439494
 30
0.0
 11
207.7198578253
 21
107.3952439494
 31
0.0
  0
LINE
  5
2CA
330
1F
100
AcDbEntity
  8
0
  6
Continuous
 62
     7
370
    15
100
AcDbLine
 10
207.762868537
 20
107.7487970955
 30
0.0
 11
207.7198578253
 21
107.7487970955
 31
0.0
  0
LINE
  5
2CB
330
1F
100
AcDbEntity
  8
0
  6
Continuous
 62
     7
370
    15
100
AcDbLine
 10
207.762868537
 20
108.5059034891
 30
0.0
 11
207.7198578253
 21
108.5059034891
 31
0.0
  0
LINE
  5
2CC
330
1F
100
AcDbEntity
  8
0
  6
Continuous
 62
     7
370
    15
100
AcDbLine
 10
207.762868537
 20
101.7987977035
 30
0.0
 11
207.7198578253
 21
101.7987977035
 31
0.0
  0
LINE
  5
2CD
330
1F
100
AcDbEntity
  8
0
  6
CENTERX2
 62
     7
370
     0
100
AcDbLine
 10
120.2803534907
 20
161.3523048301
 30
0.0
 11
120.2803534907
 21
162.0523048301
 31
0.0
  0
LINE
  5
2CE
330
1F
100
AcDbEntity
  8
0
  6
Continuous
 62
     7
370
    15
100
AcDbLine
 10
121.4903535473
 20
188.1023044129
 30
0.0
 11
114.5503534156
 21
188.1023044129
 31
0.0
  0
LINE
  5
2CF
330
1F
100
AcDbEntity
  8
0
  6
Continuous
 62
     7
370
    15
100
AcDbLine
 10
114.5503534156
 20
159.1023052473
 30
0.0
 11
116.8153537589
 21
159.1023052473
 31
0.0
  0
LINE
  5
2D0
330
1F
100
AcDbEntity
  8
0
  6
Continuous
 62
     7
370
    15
100
AcDbLine
 10
125.6903534907
 20
187.1023053665
 30
0.0
 11
121.4903535473
 21
187.1023053665
 31
0.0
  0
LINE
  5
2D1
330
1F
100
AcDbEntity
  8
0
  6
Continuous
 62
     7
370
    15
100
AcDbLine
 10
114.5503534156
 20
186.2023050328
 30
0.0
 11
113.5503536242
 21
186.2023050328
 31
0.0
  0
LINE
  5
2D2
330
1F
100
AcDbEntity
  8
0
  6
Continuous
 62
     7
370
    15
100
AcDbLine
 10
113.5503536242
 20
161.0023046274
 30
0.0
 11
114.5503534156
 21
161.0023046274
 31
0.0
  0
LINE
  5
2D3
330
1F
100
AcDbEntity
  8
0
  6
Continuous
 62
     7
370
    15
100
AcDbLine
 10
113.5503536242
 20
185.4023049016
 30
0.0
 11
109.7803538817
 21
185.4023049016
 31
0.0
  0
LINE
  5
2D4
330
1F
100
AcDbEntity
  8
0
  6
Continuous
 62
     7
370
    15
100
AcDbLine
 10
109.7803538817
 20
161.8023047586
 30
0.0
 11
113.5503536242
 21
161.8023047586
 31
0.0
  0
LINE
  5
2D5
330
1F
100
AcDbEntity
  8
0
  6
Continuous
 62
     7
370
    15
100
AcDbLine
 10
122.4403536099
 20
155.6023041148
 30
0.0
 11
121.9153536635
 21
155.7429785271
 31
0.0
  0
LINE
  5
2D6
330
1F
100
AcDbEntity
  8
0
  6
Continuous
 62
     7
370
    15
100
AcDbLine
 10
117.4653535861
 20
155.7429785271
 30
0.0
 11
116.9403536397
 21
155.6023041148
 31
0.0
  0
LINE
  5
2D7
330
1F
100
AcDbEntity
  8
0
  6
Continuous
 62
     7
370
    15
100
AcDbLine
 10
122.4403536099
 20
155.302304997
 30
0.0
 11
122.4403536099
 21
155.6023041148
 31
0.0
  0
LINE
  5
2D8
330
1F
100
AcDbEntity
  8
0
  6
Continuous
 62
     7
370
    15
100
AcDbLine
 10
116.9403536397
 20
155.6023041148
 30
0.0
 11
116.9403536397
 21
155.302304997
 31
0.0
  0
LINE
  5
2D9
330
1F
100
AcDbEntity
  8
0
  6
Continuous
 62
     7
370
    15
100
AcDbLine
 10
117.4653535861
 20
158.5023055215
 30
0.0
 11
117.4653535861
 21
155.7429785271
 31
0.0
  0
LINE
  5
2DA
330
1F
100
AcDbEntity
  8
0
  6
Continuous
 62
     7
370
    15
100
AcDbLine
 10
121.9153536635
 20
155.7429785271
 30
0.0
 11
121.9153536635
 21
158.5023055215
 31
0.0
  0
LINE
  5
2DB
330
1F
100
AcDbEntity
  8
0
  6
Continuous
 62
     7
370
    15
100
AcDbLine
 10
126.2903534959
 20
158.0023045082
 30
0.0
 11
125.4403534963
 21
158.2300613065
 31
0.0
  0
LINE
  5
2DC
330
1F
100
AcDbEntity
  8
0
  6
Continuous
 62
     7
370
    15
100
AcDbLine
 10
123.1403535384
 20
158.2300613065
 30
0.0
 11
122.2903533059
 21
158.0023045082
 31
0.0
  0
LINE
  5
2DD
330
1F
100
AcDbEntity
  8
0
  6
Continuous
 62
     7
370
    15
100
AcDbLine
 10
126.2903534959
 20
157.7023053904
 30
0.0
 11
126.2903534959
 21
158.0023045082
 31
0.0
  0
LINE
  5
2DE
330
1F
100
AcDbEntity
  8
0
  6
Continuous
 62
     7
370
    15
100
AcDbLine
 10
122.2903533059
 20
158.0023045082
 30
0.0
 11
122.2903533059
 21
157.7023053904
 31
0.0
  0
LINE
  5
2DF
330
1F
100
AcDbEntity
  8
0
  6
Continuous
 62
     7
370
    15
100
AcDbLine
 10
123.1403535384
 20
159.4378421445
 30
0.0
 11
123.1403535384
 21
158.2300613065
 31
0.0
  0
LINE
  5
2E0
330
1F
100
AcDbEntity
  8
0
  6
Continuous
 62
     7
370
    15
100
AcDbLine
 10
125.4403534963
 20
158.2300613065
 30
0.0
 11
125.4403534963
 21
161.5023048957
 31
0.0
  0
ARC
  5
2E1
330
1F
100
AcDbEntity
  8
0
  6
Continuous
 62
     7
370
    15
100
AcDbCircle
 10
127.9153534907
 20
173.6023048301
 30
0.0
 40
0.3500000000000227
100
AcDbArc
 50
90.0
 51
270.0
  0
ARC
  5
2E2
330
1F
100
AcDbEntity
  8
0
  6
Continuous
 62
     7
370
    15
100
AcDbCircle
 10
130.6653534907
 20
173.6023048301
 30
0.0
 40
0.3500000000000227
100
AcDbArc
 50
270.0
 51
90.0
  0
LINE
  5
2E3
330
1F
100
AcDbEntity
  8
0
  6
Continuous
 62
     7
370
    15
100
AcDbLine
 10
127.9153535294
 20
173.2523048193
 30
0.0
 11
130.6653535145
 21
173.2523048193
 31
0.0
  0
LINE
  5
2E4
330
1F
100
AcDbEntity
  8
0
  6
Continuous
 62
     7
370
    15
100
AcDbLine
 10
130.6653535145
 20
173.9523048409
 30
0.0
 11
127.9153535294
 21
173.9523048409
 31
0.0
  0
LINE
  5
2E5
330
1F
100
AcDbEntity
  8
0
  6
Continuous
 62
     7
370
    15
100
AcDbLine
 10
125.6903534907
 20
160.8023042221
 30
0.0
 11
126.4903535287
 21
160.8023042221
 31
0.0
  0
LINE
  5
2E6
330
1F
100
AcDbEntity
  8
0
  6
Continuous
 62
     7
370
    15
100
AcDbLine
 10
126.4903535287
 20
186.4023054381
 30
0.0
 11
125.6903534907
 21
186.4023054381
 31
0.0
  0
LINE
  5
2E7
330
1F
100
AcDbEntity
  8
0
  6
Continuous
 62
     7
370
    15
100
AcDbLine
 10
130.6903535652
 20
162.4021539827
 30
0.0
 11
133.9403538185
 21
164.1019354005
 31
0.0
  0
LINE
  5
2E8
330
1F
100
AcDbEntity
  8
0
  6
Continuous
 62
     7
370
    15
100
AcDbLine
 10
133.9403538185
 20
183.1026742597
 30
0.0
 11
130.6903535652
 21
184.8024556775
 31
0.0
  0
LINE
  5
2E9
330
1F
100
AcDbEntity
  8
0
  6
Continuous
 62
     7
370
    15
100
AcDbLine
 10
134.4403533417
 20
163.5023044784
 30
0.0
 11
153.3403521555
 21
163.5023044784
 31
0.0
  0
LINE
  5
2EA
330
1F
100
AcDbEntity
  8
0
  6
Continuous
 62
     7
370
    15
100
AcDbLine
 10
153.3403521555
 20
183.7023051818
 30
0.0
 11
134.4403533417
 21
183.7023051818
 31
0.0
  0
LINE
  5
2EB
330
1F
100
AcDbEntity
  8
0
  6
Continuous
 62
     7
370
    15
100
AcDbLine
 10
133.9403538185
 20
164.1019354005
 30
0.0
 11
134.4403533417
 21
164.1019354005
 31
0.0
  0
LINE
  5
2EC
330
1F
100
AcDbEntity
  8
0
  6
Continuous
 62
     7
370
    15
100
AcDbLine
 10
134.4403533417
 20
183.1026742597
 30
0.0
 11
133.9403538185
 21
183.1026742597
 31
0.0
  0
LINE
  5
2ED
330
1F
100
AcDbEntity
  8
0
  6
Continuous
 62
     7
370
    15
100
AcDbLine
 10
140.9496059793
 20
185.7523048659
 30
0.0
 11
141.9311007637
 21
185.7523048659
 31
0.0
  0
LINE
  5
2EE
330
1F
100
AcDbEntity
  8
0
  6
Continuous
 62
     7
370
    15
100
AcDbLine
 10
140.4588585871
 20
186.6023043533
 30
0.0
 11
140.9496059793
 21
185.7523048659
 31
0.0
  0
LINE
  5
2EF
330
1F
100
AcDbEntity
  8
0
  6
Continuous
 62
     7
370
    15
100
AcDbLine
 10
141.9311007637
 20
187.4523053308
 30
0.0
 11
140.9496059793
 21
187.4523053308
 31
0.0
  0
LINE
  5
2F0
330
1F
100
AcDbEntity
  8
0
  6
Continuous
 62
     7
370
    15
100
AcDbLine
 10
141.9311007637
 20
185.7523048659
 30
0.0
 11
142.421849646
 21
186.6023043533
 31
0.0
  0
LINE
  5
2F1
330
1F
100
AcDbEntity
  8
0
  6
Continuous
 62
     7
370
    15
100
AcDbLine
 10
140.9496059793
 20
187.4523053308
 30
0.0
 11
140.4588585871
 21
186.6023043533
 31
0.0
  0
LINE
  5
2F2
330
1F
100
AcDbEntity
  8
0
  6
Continuous
 62
     7
370
    15
100
AcDbLine
 10
142.421849646
 20
186.6023043533
 30
0.0
 11
141.9311007637
 21
187.4523053308
 31
0.0
  0
LINE
  5
2F3
330
1F
100
AcDbEntity
  8
0
  6
Continuous
 62
     7
370
    15
100
AcDbLine
 10
140.9496059793
 20
159.7523043294
 30
0.0
 11
141.9311007637
 21
159.7523043294
 31
0.0
  0
LINE
  5
2F4
330
1F
100
AcDbEntity
  8
0
  6
Continuous
 62
     7
370
    15
100
AcDbLine
 10
140.4588585871
 20
160.6023053069
 30
0.0
 11
140.9496059793
 21
159.7523043294
 31
0.0
  0
LINE
  5
2F5
330
1F
100
AcDbEntity
  8
0
  6
Continuous
 62
     7
370
    15
100
AcDbLine
 10
141.9311007637
 20
161.4523047943
 30
0.0
 11
140.9496059793
 21
161.4523047943
 31
0.0
  0
LINE
  5
2F6
330
1F
100
AcDbEntity
  8
0
  6
Continuous
 62
     7
370
    15
100
AcDbLine
 10
142.0903539437
 20
161.1764716346
 30
0.0
 11
141.9311007637
 21
161.4523047943
 31
0.0
  0
LINE
  5
2F7
330
1F
100
AcDbEntity
  8
0
  6
Continuous
 62
     7
370
    15
100
AcDbLine
 10
141.9311007637
 20
159.7523043294
 30
0.0
 11
142.364745416
 21
160.5034003396
 31
0.0
  0
LINE
  5
2F8
330
1F
100
AcDbEntity
  8
0
  6
Continuous
 62
     7
370
    15
100
AcDbLine
 10
140.9496059793
 20
161.4523047943
 30
0.0
 11
140.4588585871
 21
160.6023053069
 31
0.0
  0
LINE
  5
2F9
330
1F
100
AcDbEntity
  8
0
  6
Continuous
 62
     7
370
    15
100
AcDbLine
 10
133.540353753
 20
162.2023048241
 30
0.0
 11
142.0903539437
 21
162.2023048241
 31
0.0
  0
LINE
  5
2FA
330
1F
100
AcDbEntity
  8
0
  6
Continuous
 62
     7
370
    15
100
AcDbLine
 10
144.9403530139
 20
185.0023048361
 30
0.0
 11
126.4903535287
 21
185.0023048361
 31
0.0
  0
LINE
  5
2FB
330
1F
100
AcDbEntity
  8
0
  6
Continuous
 62
     7
370
    15
100
AcDbLine
 10
144.9403530139
 20
183.7023051818
 30
0.0
 11
144.9403530139
 21
185.0023048361
 31
0.0
  0
LINE
  5
2FC
330
1F
100
AcDbEntity
  8
0
  6
Continuous
 62
     7
370
    15
100
AcDbLine
 10
114.3903536874
 20
186.2023050328
 30
0.0
 11
114.3903536874
 21
188.0023042102
 31
0.0
  0
LINE
  5
2FD
330
1F
100
AcDbEntity
  8
0
  6
Continuous
 62
     7
370
    15
100
AcDbLine
 10
144.490352847
 20
188.0023042102
 30
0.0
 11
144.490352847
 21
185.0023048361
 31
0.0
  0
LINE
  5
2FE
330
1F
100
AcDbEntity
  8
0
  6
Continuous
 62
     7
370
    15
100
AcDbLine
 10
114.3903536874
 20
188.0023042102
 30
0.0
 11
114.5503534156
 21
188.0023042102
 31
0.0
  0
LINE
  5
2FF
330
1F
100
AcDbEntity
  8
0
  6
Continuous
 62
     7
370
    15
100
AcDbLine
 10
121.4903535473
 20
188.0023042102
 30
0.0
 11
144.490352847
 21
188.0023042102
 31
0.0
  0
LINE
  5
300
330
1F
100
AcDbEntity
  8
0
  6
Continuous
 62
     7
370
    15
100
AcDbLine
 10
144.490352847
 20
160.5023051043
 30
0.0
 11
144.490352847
 21
159.20230545
 31
0.0
  0
LINE
  5
301
330
1F
100
AcDbEntity
  8
0
  6
Continuous
 62
     7
370
    15
100
AcDbLine
 10
144.490352847
 20
159.20230545
 30
0.0
 11
125.4403534963
 21
159.20230545
 31
0.0
  0
LINE
  5
302
330
1F
100
AcDbEntity
  8
0
  6
Continuous
 62
     7
370
    15
100
AcDbLine
 10
123.1403535384
 20
159.20230545
 30
0.0
 11
122.5653534907
 21
159.20230545
 31
0.0
  0
LINE
  5
303
330
1F
100
AcDbEntity
  8
0
  6
Continuous
 62
     7
370
    15
100
AcDbLine
 10
114.5503534156
 20
159.20230545
 30
0.0
 11
114.3903536874
 21
159.20230545
 31
0.0
  0
LINE
  5
304
330
1F
100
AcDbEntity
  8
0
  6
Continuous
 62
     7
370
    15
100
AcDbLine
 10
114.3903536874
 20
159.20230545
 30
0.0
 11
114.3903536874
 21
161.0023046274
 31
0.0
  0
LINE
  5
305
330
1F
100
AcDbEntity
  8
0
  6
Continuous
 62
     7
370
    15
100
AcDbLine
 10
121.4903535473
 20
161.0841283937
 30
0.0
 11
121.4903535473
 21
188.1023044129
 31
0.0
  0
LINE
  5
306
330
1F
100
AcDbEntity
  8
0
  6
Continuous
 62
     7
370
    15
100
AcDbLine
 10
114.5503534156
 20
161.0841283937
 30
0.0
 11
121.4903535473
 21
161.0841283937
 31
0.0
  0
LINE
  5
307
330
1F
100
AcDbEntity
  8
0
  6
Continuous
 62
     7
370
    15
100
AcDbLine
 10
114.5503534156
 20
161.0841283937
 30
0.0
 11
114.5503534156
 21
188.1023044129
 31
0.0
  0
LINE
  5
308
330
1F
100
AcDbEntity
  8
0
  6
Continuous
 62
     7
370
    15
100
AcDbLine
 10
114.5503534156
 20
159.1023052473
 30
0.0
 11
114.5503534156
 21
159.4378421445
 31
0.0
  0
LINE
  5
309
330
1F
100
AcDbEntity
  8
0
  6
Continuous
 62
     7
370
    15
100
AcDbLine
 10
124.2503535154
 20
161.5023048957
 30
0.0
 11
125.6903534907
 21
161.5023048957
 31
0.0
  0
LINE
  5
30A
330
1F
100
AcDbEntity
  8
0
  6
Continuous
 62
     7
370
    15
100
AcDbLine
 10
121.4903535473
 20
161.9678462286
 30
0.0
 11
124.2503535154
 21
161.9678462286
 31
0.0
  0
LINE
  5
30B
330
1F
100
AcDbEntity
  8
0
  6
Continuous
 62
     7
370
    15
100
AcDbLine
 10
125.6903534907
 20
161.5023048957
 30
0.0
 11
125.6903534907
 21
187.1023053665
 31
0.0
  0
LINE
  5
30C
330
1F
100
AcDbEntity
  8
0
  6
Continuous
 62
     7
370
    15
100
AcDbLine
 10
113.5503536242
 20
161.0023046274
 30
0.0
 11
113.5503536242
 21
186.2023050328
 31
0.0
  0
LINE
  5
30D
330
1F
100
AcDbEntity
  8
0
  6
Continuous
 62
     7
370
    15
100
AcDbLine
 10
109.7803538817
 20
161.8023047586
 30
0.0
 11
109.7803538817
 21
185.4023049016
 31
0.0
  0
LINE
  5
30E
330
1F
100
AcDbEntity
  8
0
  6
Continuous
 62
     7
370
    15
100
AcDbLine
 10
119.8762083578
 20
161.7023045559
 30
0.0
 11
120.0782807696
 21
161.3523045917
 31
0.0
  0
LINE
  5
30F
330
1F
100
AcDbEntity
  8
0
  6
Continuous
 62
     7
370
    15
100
AcDbLine
 10
120.0782807696
 20
162.0523045202
 30
0.0
 11
119.8762083578
 21
161.7023045559
 31
0.0
  0
LINE
  5
310
330
1F
100
AcDbEntity
  8
0
  6
Continuous
 62
     7
370
    15
100
AcDbLine
 10
120.4824259656
 20
162.0523045202
 30
0.0
 11
120.0782807696
 21
162.0523045202
 31
0.0
  0
LINE
  5
311
330
1F
100
AcDbEntity
  8
0
  6
Continuous
 62
     7
370
    15
100
AcDbLine
 10
120.4824259656
 20
161.3523045917
 30
0.0
 11
120.68449875
 21
161.7023045559
 31
0.0
  0
LINE
  5
312
330
1F
100
AcDbEntity
  8
0
  6
Continuous
 62
     7
370
    15
100
AcDbLine
 10
120.0782807696
 20
161.3523045917
 30
0.0
 11
120.4824259656
 21
161.3523045917
 31
0.0
  0
LINE
  5
313
330
1F
100
AcDbEntity
  8
0
  6
Continuous
 62
     7
370
    15
100
AcDbLine
 10
120.68449875
 20
161.7023045559
 30
0.0
 11
120.4824259656
 21
162.0523045202
 31
0.0
  0
LINE
  5
314
330
1F
100
AcDbEntity
  8
0
  6
Continuous
 62
     7
370
    15
100
AcDbLine
 10
124.2503535154
 20
160.4706788798
 30
0.0
 11
124.2503535154
 21
161.9678462286
 31
0.0
  0
LINE
  5
315
330
1F
100
AcDbEntity
  8
0
  6
Continuous
 62
     7
370
    15
100
AcDbLine
 10
124.2503535154
 20
160.4706788798
 30
0.0
 11
114.5503534156
 21
160.4706788798
 31
0.0
  0
LINE
  5
316
330
1F
100
AcDbEntity
  8
0
  6
Continuous
 62
     7
370
    15
100
AcDbLine
 10
114.5503534156
 20
160.4706788798
 30
0.0
 11
114.5503534156
 21
161.0841283937
 31
0.0
  0
LINE
  5
317
330
1F
100
AcDbEntity
  8
0
  6
Continuous
 62
     7
370
    15
100
AcDbLine
 10
116.8153537589
 20
159.4378421445
 30
0.0
 11
114.5503534156
 21
159.4378421445
 31
0.0
  0
LINE
  5
318
330
1F
100
AcDbEntity
  8
0
  6
Continuous
 62
     7
370
    15
100
AcDbLine
 10
124.2503535154
 20
159.4378421445
 30
0.0
 11
122.5653534907
 21
159.4378421445
 31
0.0
  0
LINE
  5
319
330
1F
100
AcDbEntity
  8
0
  6
Continuous
 62
     7
370
    15
100
AcDbLine
 10
122.5653534907
 20
159.4771052141
 30
0.0
 11
116.8153537589
 21
159.4771052141
 31
0.0
  0
LINE
  5
31A
330
1F
100
AcDbEntity
  8
0
  6
Continuous
 62
     7
370
    15
100
AcDbLine
 10
124.2503535154
 20
159.4378421445
 30
0.0
 11
124.2503535154
 21
160.4706788798
 31
0.0
  0
LINE
  5
31B
330
1F
100
AcDbEntity
  8
0
  6
Continuous
 62
     7
370
    15
100
AcDbLine
 10
114.5503534156
 20
159.4378421445
 30
0.0
 11
114.5503534156
 21
160.4706788798
 31
0.0
  0
LINE
  5
31C
330
1F
100
AcDbEntity
  8
0
  6
Continuous
 62
     7
370
    15
100
AcDbLine
 10
122.5653534907
 20
158.5023055215
 30
0.0
 11
116.8153537589
 21
158.5023055215
 31
0.0
  0
LINE
  5
31D
330
1F
100
AcDbEntity
  8
0
  6
Continuous
 62
     7
370
    15
100
AcDbLine
 10
116.8153537589
 20
158.5023055215
 30
0.0
 11
116.8153537589
 21
159.4771052141
 31
0.0
  0
LINE
  5
31E
330
1F
100
AcDbEntity
  8
0
  6
Continuous
 62
     7
370
    15
100
AcDbLine
 10
122.5653534907
 20
158.5023055215
 30
0.0
 11
122.5653534907
 21
159.4771052141
 31
0.0
  0
LINE
  5
31F
330
1F
100
AcDbEntity
  8
0
  6
Continuous
 62
     7
370
    15
100
AcDbLine
 10
121.9153536635
 20
155.7429785271
 30
0.0
 11
117.4653535861
 21
155.7429785271
 31
0.0
  0
LINE
  5
320
330
1F
100
AcDbEntity
  8
0
  6
Continuous
 62
     7
370
    15
100
AcDbLine
 10
116.9403536397
 20
155.6023041148
 30
0.0
 11
122.4403536099
 21
155.6023041148
 31
0.0
  0
LINE
  5
321
330
1F
100
AcDbEntity
  8
0
  6
Continuous
 62
     7
370
    15
100
AcDbLine
 10
122.4403536099
 20
155.302304997
 30
0.0
 11
116.9403536397
 21
155.302304997
 31
0.0
  0
LINE
  5
322
330
1F
100
AcDbEntity
  8
0
  6
Continuous
 62
     7
370
    15
100
AcDbLine
 10
125.4403534963
 20
158.2300613065
 30
0.0
 11
123.1403535384
 21
158.2300613065
 31
0.0
  0
LINE
  5
323
330
1F
100
AcDbEntity
  8
0
  6
Continuous
 62
     7
370
    15
100
AcDbLine
 10
122.2903533059
 20
158.0023045082
 30
0.0
 11
126.2903534959
 21
158.0023045082
 31
0.0
  0
LINE
  5
324
330
1F
100
AcDbEntity
  8
0
  6
Continuous
 62
     7
370
    15
100
AcDbLine
 10
126.2903534959
 20
157.7023053904
 30
0.0
 11
122.2903533059
 21
157.7023053904
 31
0.0
  0
LINE
  5
325
330
1F
100
AcDbEntity
  8
0
  6
Continuous
 62
     7
370
    15
100
AcDbLine
 10
125.6903534907
 20
160.8023042221
 30
0.0
 11
125.6903534907
 21
161.5023048957
 31
0.0
  0
LINE
  5
326
330
1F
100
AcDbEntity
  8
0
  6
Continuous
 62
     7
370
    15
100
AcDbLine
 10
126.4903535287
 20
160.8023042221
 30
0.0
 11
126.4903535287
 21
186.4023054381
 31
0.0
  0
ARC
  5
327
330
1F
100
AcDbEntity
  8
0
  6
Continuous
 62
     7
370
    15
100
AcDbCircle
 10
129.2916534907
 20
173.6023048301
 30
0.0
 40
0.800000000000005
100
AcDbArc
 50
25.9444797724
 51
154.0555202276
  0
ARC
  5
328
330
1F
100
AcDbEntity
  8
0
  6
Continuous
 62
     7
370
    15
100
AcDbCircle
 10
129.2916534907
 20
173.6023048301
 30
0.0
 40
0.800000000000005
100
AcDbArc
 50
205.9444797724
 51
334.0555202276
  0
LINE
  5
329
330
1F
100
AcDbEntity
  8
0
  6
Continuous
 62
     7
370
    15
100
AcDbLine
 10
126.4903535287
 20
174.8023048405
 30
0.0
 11
130.2903534996
 21
174.8023048405
 31
0.0
  0
LINE
  5
32A
330
1F
100
AcDbEntity
  8
0
  6
Continuous
 62
     7
370
    15
100
AcDbLine
 10
130.2903534996
 20
174.8023048405
 30
0.0
 11
130.2903534996
 21
173.9523048409
 31
0.0
  0
LINE
  5
32B
330
1F
100
AcDbEntity
  8
0
  6
Continuous
 62
     7
370
    15
100
AcDbLine
 10
130.2903534996
 20
173.2523048193
 30
0.0
 11
130.2903534996
 21
172.4023048197
 31
0.0
  0
LINE
  5
32C
330
1F
100
AcDbEntity
  8
0
  6
Continuous
 62
     7
370
    15
100
AcDbLine
 10
130.2903534996
 20
172.4023048197
 30
0.0
 11
126.4903535287
 21
172.4023048197
 31
0.0
  0
LINE
  5
32D
330
1F
100
AcDbEntity
  8
0
  6
Continuous
 62
     7
370
    15
100
AcDbLine
 10
130.6903535652
 20
162.4021539827
 30
0.0
 11
126.4903535287
 21
162.3523051281
 31
0.0
  0
LINE
  5
32E
330
1F
100
AcDbEntity
  8
0
  6
Continuous
 62
     7
370
    15
100
AcDbLine
 10
126.4903535287
 20
184.8523045321
 30
0.0
 11
130.6903535652
 21
184.8024556775
 31
0.0
  0
LINE
  5
32F
330
1F
100
AcDbEntity
  8
0
  6
Continuous
 62
     7
370
    15
100
AcDbLine
 10
130.6903535652
 20
184.8024556775
 30
0.0
 11
130.6903535652
 21
173.9514108411
 31
0.0
  0
LINE
  5
330
330
1F
100
AcDbEntity
  8
0
  6
Continuous
 62
     7
370
    15
100
AcDbLine
 10
130.6903535652
 20
173.2531988191
 30
0.0
 11
130.6903535652
 21
162.4021539827
 31
0.0
  0
LINE
  5
331
330
1F
100
AcDbEntity
  8
0
  6
Continuous
 62
     7
370
    15
100
AcDbLine
 10
133.9403538185
 20
183.1026742597
 30
0.0
 11
133.9403538185
 21
164.1019354005
 31
0.0
  0
LINE
  5
332
330
1F
100
AcDbEntity
  8
0
  6
Continuous
 62
     7
370
    15
100
AcDbLine
 10
153.3403521555
 20
183.7023051818
 30
0.0
 11
153.3403521555
 21
163.5023044784
 31
0.0
  0
LINE
  5
333
330
1F
100
AcDbEntity
  8
0
  6
Continuous
 62
     7
370
    15
100
AcDbLine
 10
134.4403533417
 20
163.5023044784
 30
0.0
 11
134.4403533417
 21
183.7023051818
 31
0.0
  0
SPLINE
  5
334
330
1F
100
AcDbEntity
  8
0
  6
Continuous
 62
     7
370
    15
100
AcDbSpline
210
0.0
220
0.0
230
1.0
 70
     8
 71
     3
 72
    13
 73
     9
 74
     0
 42
0.00000001
 43
0.00000001
 40
0.0
 40
0.0
 40
0.0
 40
0.0
 40
0.1542521293091054
 40
0.3036189033249554
 40
0.4589679413325765
 40
0.6012100269628121
 40
0.7769229790789253
 40
1.0
 40
1.0
 40
1.0
 40
1.0
 10
154.1203534382382
 20
182.3924528796881
 30
0.0
 10
154.1098978316294
 20
182.4468114783091
 30
0.0
 10
154.089317760376
 20
182.5538070716505
 30
0.0
 10
154.0210820056463
 20
182.7060980108067
 30
0.0
 10
153.9072124319382
 20
182.8241118153069
 30
0.0
 10
153.7537166427666
 20
182.9007850846099
 30
0.0
 10
153.5634994155276
 20
182.9455921642327
 30
0.0
 10
153.4203998610315
 20
182.9498970593644
 30
0.0
 10
153.3403521555463
 20
182.9523051519602
 30
0.0
  0
LINE
  5
335
330
1F
100
AcDbEntity
  8
0
  6
Continuous
 62
     7
370
    15
100
AcDbLine
 10
154.1203534382
 20
164.8121567805
 30
0.0
 11
154.1203534382
 21
182.3924528797
 31
0.0
  0
SPLINE
  5
336
330
1F
100
AcDbEntity
  8
0
  6
Continuous
 62
     7
370
    15
100
AcDbSpline
210
0.0
220
0.0
230
1.0
 70
     8
 71
     3
 72
    13
 73
     9
 74
     0
 42
0.00000001
 43
0.00000001
 40
0.0
 40
0.0
 40
0.0
 40
0.0
 40
0.2140795949114692
 40
0.3844604147446973
 40
0.5231415057692888
 40
0.6429507354544702
 40
0.8189151772073181
 40
1.0
 40
1.0
 40
1.0
 40
1.0
 10
153.3403521555463
 20
164.2523045082301
 30
0.0
 10
153.4171567314603
 20
164.2545408477461
 30
0.0
 10
153.5550882289597
 20
164.2585570362961
 30
0.0
 10
153.7393731114853
 20
164.2995353488481
 30
0.0
 10
153.8801059776055
 20
164.3650803199661
 30
0.0
 10
153.9992604060321
 20
164.4684528755312
 30
0.0
 10
154.0834221288604
 20
164.6223760804668
 30
0.0
 10
154.1079258671708
 20
164.748294621899
 30
0.0
 10
154.1203534382382
 20
164.8121567805022
 30
0.0
  0
LINE
  5
337
330
1F
100
AcDbEntity
  8
0
  6
Continuous
 62
     7
370
    15
100
AcDbLine
 10
132.6026527363
 20
183.8023046394
 30
0.0
 11
136.1903531629
 21
183.8023046394
 31
0.0
  0
LINE
  5
338
330
1F
100
AcDbEntity
  8
0
  6
Continuous
 62
     7
370
    15
100
AcDbLine
 10
131.4554466086
 20
184.4023051102
 30
0.0
 11
136.1903531629
 21
184.4023051102
 31
0.0
  0
LINE
  5
339
330
1F
100
AcDbEntity
  8
0
  6
Continuous
 62
     7
370
    15
100
AcDbLine
 10
136.1903531629
 20
183.8023046394
 30
0.0
 11
136.1903531629
 21
184.4023051102
 31
0.0
  0
LINE
  5
33A
330
1F
100
AcDbEntity
  8
0
  6
Continuous
 62
     7
370
    15
100
AcDbLine
 10
132.6026527363
 20
163.4023050208
 30
0.0
 11
136.1903531629
 21
163.4023050208
 31
0.0
  0
LINE
  5
33B
330
1F
100
AcDbEntity
  8
0
  6
Continuous
 62
     7
370
    15
100
AcDbLine
 10
136.1903531629
 20
162.80230455
 30
0.0
 11
136.1903531629
 21
163.4023050208
 31
0.0
  0
LINE
  5
33C
330
1F
100
AcDbEntity
  8
0
  6
Continuous
 62
     7
370
    15
100
AcDbLine
 10
136.1903531629
 20
162.80230455
 30
0.0
 11
131.4554466086
 21
162.80230455
 31
0.0
  0
LINE
  5
33D
330
1F
100
AcDbEntity
  8
0
  6
Continuous
 62
     7
370
    15
100
AcDbLine
 10
149.9737402576
 20
161.053296401
 30
0.0
 11
150.1817217248
 21
161.5079867084
 31
0.0
  0
LINE
  5
33E
330
1F
100
AcDbEntity
  8
0
  6
Continuous
 62
     7
370
    15
100
AcDbLine
 10
144.6197038668
 20
163.5023044784
 30
0.0
 11
149.9737402576
 21
161.053296401
 31
0.0
  0
LINE
  5
33F
330
1F
100
AcDbEntity
  8
0
  6
Continuous
 62
     7
370
    15
100
AcDbLine
 10
150.1817217248
 20
161.5079867084
 30
0.0
 11
145.8217328566
 21
163.5023044784
 31
0.0
  0
LINE
  5
340
330
1F
100
AcDbEntity
  8
0
  6
Continuous
 62
     7
370
    15
100
AcDbLine
 10
150.6364127773
 20
161.3000052412
 30
0.0
 11
150.42843131
 21
160.8453149338
 31
0.0
  0
LWPOLYLINE
  5
341
330
1F
100
AcDbEntity
  8
0
  6
Continuous
 62
     7
370
    15
100
AcDbPolyline
 90
        9
 70
   128
 43
0.0
 10
150.42843131
 20
160.8453149338
 10
150.4196932691
 20
160.8493114252
 10
150.3938188928
 20
160.8611459275
 10
150.3518020886
 20
160.8803654452
 10
150.2952551621
 20
160.9062308808
 10
150.2263521927
 20
160.9377483268
 10
150.147742607
 20
160.9737048288
 10
150.0624453801
 20
161.0127205391
 10
149.9737402576
 20
161.053296401
  0
LWPOLYLINE
  5
342
330
1F
100
AcDbEntity
  8
0
  6
Continuous
 62
     7
370
    15
100
AcDbPolyline
 90
        9
 70
   128
 43
0.0
 10
150.6364127773
 20
161.3000052412
 10
150.6276762265
 20
161.3040017326
 10
150.6018003601
 20
161.3158369799
 10
150.5597835558
 20
161.3350564976
 10
150.5032366293
 20
161.3609211881
 10
150.43433366
 20
161.3924386342
 10
150.3557240742
 20
161.4283958812
 10
150.2704268473
 20
161.4674115916
 10
150.1817217248
 20
161.5079867084
  0
LINE
  5
343
330
1F
100
AcDbEntity
  8
0
  6
Continuous
 62
     7
370
    15
100
AcDbLine
 10
143.3474606055
 20
160.8023042221
 30
0.0
 11
142.9939067143
 21
160.8023042221
 31
0.0
  0
LINE
  5
344
330
1F
100
AcDbEntity
  8
0
  6
Continuous
 62
     7
370
    15
100
AcDbLine
 10
143.3474606055
 20
160.5023051043
 30
0.0
 11
143.3474606055
 21
160.8023042221
 31
0.0
  0
SPLINE
  5
345
330
1F
100
AcDbEntity
  8
0
  6
Continuous
 62
     7
370
    15
100
AcDbSpline
210
0.0
220
0.0
230
1.0
 70
    24
 71
     3
 72
    10
 73
     6
 74
     0
 42
0.00000001
 43
0.00000001
 40
0.0
 40
0.0
 40
0.0
 40
0.0
 40
0.5
 40
0.5
 40
1.0
 40
1.0
 40
1.0
 40
1.0
 10
143.2060389155925
 20
160.5023048300952
 30
0.0
 10
143.2240787856171
 20
160.5023048300952
 30
0.0
 10
143.2464207767309
 20
160.5023048300952
 30
0.0
 10
143.2954263940842
 20
160.5023048300952
 30
0.0
 10
143.3219480430725
 20
160.5023048300952
 30
0.0
 10
143.3474602718903
 20
160.5023048300952
 30
0.0
  0
ARC
  5
346
330
1F
100
AcDbEntity
  8
0
  6
Continuous
 62
     7
370
    15
100
AcDbCircle
 10
143.2590719514
 20
160.7648052898
 30
0.0
 40
0.2678036088286197
100
AcDbArc
 50
171.9507650098
 51
258.5784014648
  0
SPLINE
  5
347
330
1F
100
AcDbEntity
  8
0
  6
Continuous
 62
     7
370
    15
100
AcDbSpline
210
0.0
220
0.0
230
1.0
 70
    24
 71
     3
 72
    10
 73
     6
 74
     0
 42
0.00000001
 43
0.00000001
 40
0.0
 40
0.0
 40
0.0
 40
0.0
 40
0.5
 40
0.5
 40
1.0
 40
1.0
 40
1.0
 40
1.0
 10
148.7332467094903
 20
160.5023048300952
 30
0.0
 10
148.7587589383086
 20
160.5023048300952
 30
0.0
 10
148.7852805872975
 20
160.5023048300952
 30
0.0
 10
148.8342862046516
 20
160.5023048300952
 30
0.0
 10
148.8566281957658
 20
160.5023048300952
 30
0.0
 10
148.8746680657908
 20
160.5023048300952
 30
0.0
  0
LINE
  5
348
330
1F
100
AcDbEntity
  8
0
  6
Continuous
 62
     7
370
    15
100
AcDbLine
 10
148.7332469004
 20
160.8023042221
 30
0.0
 11
148.7332469004
 21
160.5023051043
 31
0.0
  0
LINE
  5
349
330
1F
100
AcDbEntity
  8
0
  6
Continuous
 62
     7
370
    15
100
AcDbLine
 10
149.0868007916
 20
160.8023042221
 30
0.0
 11
148.7332469004
 21
160.8023042221
 31
0.0
  0
ARC
  5
34A
330
1F
100
AcDbEntity
  8
0
  6
Continuous
 62
     7
370
    15
100
AcDbCircle
 10
148.8216344068
 20
160.7648061013
 30
0.0
 40
0.2678046315997664
100
AcDbArc
 50
281.4218048381
 51
8.0490286873
  0
LINE
  5
34B
330
1F
100
AcDbEntity
  8
0
  6
Continuous
 62
     7
370
    15
100
AcDbLine
 10
148.7332469004
 20
161.6207147379
 30
0.0
 11
148.7332469004
 21
160.8023042221
 31
0.0
  0
LINE
  5
34C
330
1F
100
AcDbEntity
  8
0
  6
Continuous
 62
     7
370
    15
100
AcDbLine
 10
148.7332469004
 20
160.8023042221
 30
0.0
 11
143.3474606055
 21
160.8023042221
 31
0.0
  0
LINE
  5
34D
330
1F
100
AcDbEntity
  8
0
  6
Continuous
 62
     7
370
    15
100
AcDbLine
 10
149.0868007916
 20
161.4589946707
 30
0.0
 11
149.0868007916
 21
160.8023042221
 31
0.0
  0
LINE
  5
34E
330
1F
100
AcDbEntity
  8
0
  6
Continuous
 62
     7
370
    15
100
AcDbLine
 10
148.7332469004
 20
160.5023051043
 30
0.0
 11
143.3474606055
 21
160.5023051043
 31
0.0
  0
LINE
  5
34F
330
1F
100
AcDbEntity
  8
0
  6
Continuous
 62
     7
370
    15
100
AcDbLine
 10
142.9939067143
 20
160.8023042221
 30
0.0
 11
142.2367995757
 21
160.8023042221
 31
0.0
  0
LINE
  5
350
330
1F
100
AcDbEntity
  8
0
  6
Continuous
 62
     7
370
    15
100
AcDbLine
 10
143.2060396451
 20
160.5023051043
 30
0.0
 11
142.4489325064
 21
160.5023051043
 31
0.0
  0
ARC
  5
351
330
1F
100
AcDbEntity
  8
0
  6
Continuous
 62
     7
370
    15
100
AcDbCircle
 10
142.5019648128
 20
160.7648052898
 30
0.0
 40
0.2678036088286197
100
AcDbArc
 50
171.9507650098
 51
258.5784014648
  0
LINE
  5
352
330
1F
100
AcDbEntity
  8
0
  6
Continuous
 62
     7
370
    15
100
AcDbLine
 10
149.8439064401
 20
161.1126834889
 30
0.0
 11
149.8439064401
 21
160.8023042221
 31
0.0
  0
LINE
  5
353
330
1F
100
AcDbEntity
  8
0
  6
Continuous
 62
     7
370
    15
100
AcDbLine
 10
149.8439064401
 20
160.8023042221
 30
0.0
 11
149.0868007916
 21
160.8023042221
 31
0.0
  0
ARC
  5
354
330
1F
100
AcDbEntity
  8
0
  6
Continuous
 62
     7
370
    15
100
AcDbCircle
 10
149.5787427016
 20
160.7648039667
 30
0.0
 40
0.2678023102506576
100
AcDbArc
 50
281.4216528098
 51
8.0495601707
  0
LINE
  5
355
330
1F
100
AcDbEntity
  8
0
  6
Continuous
 62
     7
370
    15
100
AcDbLine
 10
149.6317749995
 20
160.5023051043
 30
0.0
 11
148.8746678608
 21
160.5023051043
 31
0.0
  0
LINE
  5
356
330
1F
100
AcDbEntity
  8
0
  6
Continuous
 62
     7
370
    15
100
AcDbLine
 10
142.2367995757
 20
160.8023042221
 30
0.0
 11
142.0903539437
 21
160.8023042221
 31
0.0
  0
ARC
  5
357
330
1F
100
AcDbEntity
  8
0
  6
Continuous
 62
     7
370
    15
100
AcDbCircle
 10
142.3903534907
 20
160.8023048301
 30
0.0
 40
0.3000000000000114
100
AcDbArc
 50
180.0
 51
269.9999999882
  0
SPLINE
  5
358
330
1F
100
AcDbEntity
  8
0
  6
Continuous
 62
     7
370
    15
100
AcDbSpline
210
0.0
220
0.0
230
1.0
 70
    24
 71
     3
 72
    10
 73
     6
 74
     0
 42
0.00000001
 43
0.00000001
 40
0.0
 40
0.0
 40
0.0
 40
0.0
 40
0.5
 40
0.5
 40
1.0
 40
1.0
 40
1.0
 40
1.0
 10
142.3903534906896
 20
160.5023048300952
 30
0.0
 10
142.3903534906896
 20
160.5023048300952
 30
0.0
 10
142.3954281885211
 20
160.5023048300952
 30
0.0
 10
142.4157269798599
 20
160.5023048300952
 30
0.0
 10
142.4308922644649
 20
160.5023048300952
 30
0.0
 10
142.4489321344898
 20
160.5023048300952
 30
0.0
  0
LINE
  5
359
330
1F
100
AcDbEntity
  8
0
  6
Continuous
 62
     7
370
    15
100
AcDbLine
 10
149.9903535622
 20
160.8023042221
 30
0.0
 11
149.8439064401
 21
160.8023042221
 31
0.0
  0
ARC
  5
35A
330
1F
100
AcDbEntity
  8
0
  6
Continuous
 62
     7
370
    15
100
AcDbCircle
 10
149.6903534907
 20
160.8023048301
 30
0.0
 40
0.3000000000000114
100
AcDbArc
 50
269.9999999995
 51
0.0
  0
SPLINE
  5
35B
330
1F
100
AcDbEntity
  8
0
  6
Continuous
 62
     7
370
    15
100
AcDbSpline
210
0.0
220
0.0
230
1.0
 70
    24
 71
     3
 72
    10
 73
     6
 74
     0
 42
0.00000001
 43
0.00000001
 40
0.0
 40
0.0
 40
0.0
 40
0.0
 40
0.5
 40
0.5
 40
1.0
 40
1.0
 40
1.0
 40
1.0
 10
149.6317748468906
 20
160.5023048300952
 30
0.0
 10
149.6498147169156
 20
160.5023048300952
 30
0.0
 10
149.6649800015205
 20
160.5023048300952
 30
0.0
 10
149.6852787928594
 20
160.5023048300952
 30
0.0
 10
149.6903534906908
 20
160.5023048300952
 30
0.0
 10
149.6903534906908
 20
160.5023048300952
 30
0.0
  0
LINE
  5
35C
330
1F
100
AcDbEntity
  8
0
  6
Continuous
 62
     7
370
    15
100
AcDbLine
 10
142.0903539437
 20
163.5023044784
 30
0.0
 11
142.0903539437
 21
160.8023042221
 31
0.0
  0
LINE
  5
35D
330
1F
100
AcDbEntity
  8
0
  6
Continuous
 62
     7
370
    15
100
AcDbLine
 10
149.9903535622
 20
161.0456968088
 30
0.0
 11
149.9903535622
 21
160.8023042221
 31
0.0
  0
LINE
  5
35E
330
1F
100
AcDbEntity
  8
0
  6
Continuous
 62
     7
370
    15
100
AcDbLine
 10
149.9903535622
 20
163.5023044784
 30
0.0
 11
149.9903535622
 21
161.5955213447
 31
0.0
  0
LINE
  5
35F
330
1F
100
AcDbEntity
  8
0
  6
Continuous
 62
     7
370
    15
100
AcDbLine
 10
133.540353753
 20
161.9023049612
 30
0.0
 11
126.4903535287
 21
161.9023049612
 31
0.0
  0
LINE
  5
360
330
1F
100
AcDbEntity
  8
0
  6
Continuous
 62
     7
370
    15
100
AcDbLine
 10
133.540353753
 20
161.9023049612
 30
0.0
 11
133.540353753
 21
162.80230455
 31
0.0
  0
LINE
  5
361
330
1F
100
AcDbEntity
  8
0
  6
Continuous
 62
     7
370
    15
100
AcDbLine
 10
136.1903531629
 20
163.4023050208
 30
0.0
 11
136.1903531629
 21
163.5023044784
 31
0.0
  0
LINE
  5
362
330
1F
100
AcDbEntity
  8
0
  6
Continuous
 62
     7
370
    15
100
AcDbLine
 10
136.1903531629
 20
183.7023051818
 30
0.0
 11
136.1903531629
 21
183.8023046394
 31
0.0
  0
LINE
  5
363
330
1F
100
AcDbEntity
  8
0
  6
Continuous
 62
     7
370
    15
100
AcDbLine
 10
143.3474606055
 20
163.5023044784
 30
0.0
 11
143.3474606055
 21
160.8023042221
 31
0.0
  0
LINE
  5
364
330
1F
100
AcDbEntity
  8
0
  6
Continuous
 62
     7
370
    15
100
AcDbLine
 10
142.9939067143
 20
163.5023044784
 30
0.0
 11
142.9939067143
 21
160.8023042221
 31
0.0
  0
LINE
  5
365
330
1F
100
AcDbEntity
  8
0
  6
Continuous
 62
     7
370
    15
100
AcDbLine
 10
148.7332469004
 20
162.1705392738
 30
0.0
 11
148.7332469004
 21
163.5023044784
 31
0.0
  0
LINE
  5
366
330
1F
100
AcDbEntity
  8
0
  6
Continuous
 62
     7
370
    15
100
AcDbLine
 10
149.0868007916
 20
162.0088184614
 30
0.0
 11
149.0868007916
 21
163.5023044784
 31
0.0
  0
LINE
  5
367
330
1F
100
AcDbEntity
  8
0
  6
Continuous
 62
     7
370
    15
100
AcDbLine
 10
142.2367995757
 20
163.5023044784
 30
0.0
 11
142.2367995757
 21
160.8023042221
 31
0.0
  0
LINE
  5
368
330
1F
100
AcDbEntity
  8
0
  6
Continuous
 62
     7
370
    15
100
AcDbLine
 10
149.8439064401
 20
163.5023044784
 30
0.0
 11
149.8439064401
 21
161.6625080247
 31
0.0
  0
INSERT
  5
374
102
{ACAD_REACTORS
330
375
102
}
330
1F
100
AcDbEntity
  8
1
100
AcDbBlockReference
  2
SW_NOTE_8
 10
96.9473431286
 20
182.9796643102
 30
0.0
  0
LEADER
  5
375
330
1F
100
AcDbEntity
  8
1
100
AcDbLeader
  3
SLDDIMSTYLE0
 73
     2
 76
     2
 10
109.7803534907
 20
179.6549079188
 30
0.0
 10
96.9473431286
 20
182.9796643102
 30
0.0
340
374
  0
LINE
  5
376
330
1F
100
AcDbEntity
  8
0
  6
CENTERX2
 62
     7
370
     0
100
AcDbLine
 10
119.6903534907
 20
153.7429781561
 30
0.0
 11
119.6903534907
 21
160.5023048301
 31
0.0
  0
LINE
  5
377
330
1F
100
AcDbEntity
  8
0
  6
CENTERX2
 62
     7
370
     0
100
AcDbLine
 10
124.2903534907
 20
156.2300616437
 30
0.0
 11
124.2903534907
 21
163.5023048301
 31
0.0
  0
LINE
  5
378
330
1F
100
AcDbEntity
  8
0
  6
CENTERX2
 62
     7
370
     0
100
AcDbLine
 10
108.7803534907
 20
173.6023048301
 30
0.0
 11
155.3589297386
 21
173.6023048301
 31
0.0
  0
LINE
  5
379
330
1F
100
AcDbEntity
  8
0
  6
Continuous
 62
     7
370
    15
100
AcDbLine
 10
121.4903535473
 20
63.3398943841
 30
0.0
 11
114.5503534156
 21
63.3398943841
 31
0.0
  0
LINE
  5
37A
330
1F
100
AcDbEntity
  8
0
  6
Continuous
 62
     7
370
    15
100
AcDbLine
 10
114.5503534156
 20
34.3398952185
 30
0.0
 11
121.4903535473
 21
34.3398952185
 31
0.0
  0
LINE
  5
37B
330
1F
100
AcDbEntity
  8
0
  6
Continuous
 62
     7
370
    15
100
AcDbLine
 10
114.3903536874
 20
61.4398950039
 30
0.0
 11
113.5503536242
 21
61.4398950039
 31
0.0
  0
LINE
  5
37C
330
1F
100
AcDbEntity
  8
0
  6
Continuous
 62
     7
370
    15
100
AcDbLine
 10
113.5503536242
 20
36.2398945986
 30
0.0
 11
114.3903536874
 21
36.2398945986
 31
0.0
  0
LINE
  5
37D
330
1F
100
AcDbEntity
  8
0
  6
Continuous
 62
     7
370
    15
100
AcDbLine
 10
113.5503536242
 20
60.6398948728
 30
0.0
 11
109.7803538817
 21
60.6398948728
 31
0.0
  0
LINE
  5
37E
330
1F
100
AcDbEntity
  8
0
  6
Continuous
 62
     7
370
    15
100
AcDbLine
 10
109.7803538817
 20
37.0398947298
 30
0.0
 11
113.5503536242
 21
37.0398947298
 31
0.0
  0
LINE
  5
37F
330
1F
100
AcDbEntity
  8
0
  6
Continuous
 62
     7
370
    15
100
AcDbLine
 10
122.2903533059
 20
64.4398951231
 30
0.0
 11
123.1403535384
 21
64.2121383249
 31
0.0
  0
LINE
  5
380
330
1F
100
AcDbEntity
  8
0
  6
Continuous
 62
     7
370
    15
100
AcDbLine
 10
125.4403534963
 20
64.2121383249
 30
0.0
 11
126.2903534959
 21
64.4398951231
 31
0.0
  0
LINE
  5
381
330
1F
100
AcDbEntity
  8
0
  6
Continuous
 62
     7
370
    15
100
AcDbLine
 10
122.2903533059
 20
64.739894241
 30
0.0
 11
122.2903533059
 21
64.4398951231
 31
0.0
  0
LINE
  5
382
330
1F
100
AcDbEntity
  8
0
  6
Continuous
 62
     7
370
    15
100
AcDbLine
 10
126.2903534959
 20
64.4398951231
 30
0.0
 11
126.2903534959
 21
64.739894241
 31
0.0
  0
LINE
  5
383
330
1F
100
AcDbEntity
  8
0
  6
Continuous
 62
     7
370
    15
100
AcDbLine
 10
125.4403534963
 20
63.2398941814
 30
0.0
 11
125.4403534963
 21
64.2121383249
 31
0.0
  0
LINE
  5
384
330
1F
100
AcDbEntity
  8
0
  6
Continuous
 62
     7
370
    15
100
AcDbLine
 10
123.1403535384
 20
64.2121383249
 30
0.0
 11
123.1403535384
 21
63.2398941814
 31
0.0
  0
LINE
  5
385
330
1F
100
AcDbEntity
  8
0
  6
Continuous
 62
     7
370
    15
100
AcDbLine
 10
116.9403536397
 20
66.8398955165
 30
0.0
 11
117.4653535861
 21
66.6992211043
 31
0.0
  0
LINE
  5
386
330
1F
100
AcDbEntity
  8
0
  6
Continuous
 62
     7
370
    15
100
AcDbLine
 10
121.9153536635
 20
66.6992211043
 30
0.0
 11
122.4403536099
 21
66.8398955165
 31
0.0
  0
LINE
  5
387
330
1F
100
AcDbEntity
  8
0
  6
Continuous
 62
     7
370
    15
100
AcDbLine
 10
116.9403536397
 20
67.1398946344
 30
0.0
 11
116.9403536397
 21
66.8398955165
 31
0.0
  0
LINE
  5
388
330
1F
100
AcDbEntity
  8
0
  6
Continuous
 62
     7
370
    15
100
AcDbLine
 10
122.4403536099
 20
66.8398955165
 30
0.0
 11
122.4403536099
 21
67.1398946344
 31
0.0
  0
LINE
  5
389
330
1F
100
AcDbEntity
  8
0
  6
Continuous
 62
     7
370
    15
100
AcDbLine
 10
121.9153536635
 20
63.9398941099
 30
0.0
 11
121.9153536635
 21
66.6992211043
 31
0.0
  0
LINE
  5
38A
330
1F
100
AcDbEntity
  8
0
  6
Continuous
 62
     7
370
    15
100
AcDbLine
 10
117.4653535861
 20
66.6992211043
 30
0.0
 11
117.4653535861
 21
63.9398941099
 31
0.0
  0
LINE
  5
38B
330
1F
100
AcDbEntity
  8
0
  6
Continuous
 62
     7
370
    15
100
AcDbLine
 10
144.9403530139
 20
38.7398944496
 30
0.0
 11
153.3403521555
 21
38.7398944496
 31
0.0
  0
LINE
  5
38C
330
1F
100
AcDbEntity
  8
0
  6
Continuous
 62
     7
370
    15
100
AcDbLine
 10
153.3403521555
 20
58.939895153
 30
0.0
 11
149.9903535622
 21
58.939895153
 31
0.0
  0
CIRCLE
  5
38D
330
1F
100
AcDbEntity
  8
0
  6
Continuous
 62
     7
370
    15
100
AcDbCircle
 10
141.4403534907
 20
35.8398948013
 30
0.0
 40
0.5
  0
CIRCLE
  5
38E
330
1F
100
AcDbEntity
  8
0
  6
Continuous
 62
     7
370
    15
100
AcDbCircle
 10
141.4403534907
 20
61.8398948013
 30
0.0
 40
0.5
  0
CIRCLE
  5
38F
330
1F
100
AcDbEntity
  8
0
  6
Continuous
 62
     7
370
    15
100
AcDbCircle
 10
117.4403534907
 20
35.8398948013
 30
0.0
 40
0.5
  0
CIRCLE
  5
390
330
1F
100
AcDbEntity
  8
0
  6
Continuous
 62
     7
370
    15
100
AcDbCircle
 10
117.4403534907
 20
61.8398948013
 30
0.0
 40
0.5
  0
LINE
  5
391
330
1F
100
AcDbEntity
  8
0
  6
Continuous
 62
     7
370
    15
100
AcDbLine
 10
113.9403535205
 20
37.4398947953
 30
0.0
 11
113.9403535205
 21
60.2398948072
 31
0.0
  0
LINE
  5
392
330
1F
100
AcDbEntity
  8
0
  6
Continuous
 62
     7
370
    15
100
AcDbLine
 10
113.9403535205
 20
60.2398948072
 30
0.0
 11
114.3903536874
 21
60.2398948072
 31
0.0
  0
LINE
  5
393
330
1F
100
AcDbEntity
  8
0
  6
Continuous
 62
     7
370
    15
100
AcDbLine
 10
114.3903536874
 20
63.2398941814
 30
0.0
 11
114.3903536874
 21
60.2398948072
 31
0.0
  0
LINE
  5
394
330
1F
100
AcDbEntity
  8
0
  6
Continuous
 62
     7
370
    15
100
AcDbLine
 10
144.490352847
 20
63.2398941814
 30
0.0
 11
114.3903536874
 21
63.2398941814
 31
0.0
  0
LINE
  5
395
330
1F
100
AcDbEntity
  8
0
  6
Continuous
 62
     7
370
    15
100
AcDbLine
 10
144.490352847
 20
60.2398948072
 30
0.0
 11
144.490352847
 21
63.2398941814
 31
0.0
  0
LINE
  5
396
330
1F
100
AcDbEntity
  8
0
  6
Continuous
 62
     7
370
    15
100
AcDbLine
 10
144.490352847
 20
60.2398948072
 30
0.0
 11
144.9403530139
 21
60.2398948072
 31
0.0
  0
LINE
  5
397
330
1F
100
AcDbEntity
  8
0
  6
Continuous
 62
     7
370
    15
100
AcDbLine
 10
144.9403530139
 20
60.2398948072
 30
0.0
 11
144.9403530139
 21
37.4398947953
 31
0.0
  0
LINE
  5
398
330
1F
100
AcDbEntity
  8
0
  6
Continuous
 62
     7
370
    15
100
AcDbLine
 10
144.9403530139
 20
37.4398947953
 30
0.0
 11
144.490352847
 21
37.4398947953
 31
0.0
  0
LINE
  5
399
330
1F
100
AcDbEntity
  8
0
  6
Continuous
 62
     7
370
    15
100
AcDbLine
 10
144.490352847
 20
34.4398954212
 30
0.0
 11
144.490352847
 21
37.4398947953
 31
0.0
  0
LINE
  5
39A
330
1F
100
AcDbEntity
  8
0
  6
Continuous
 62
     7
370
    15
100
AcDbLine
 10
114.3903536874
 20
34.4398954212
 30
0.0
 11
144.490352847
 21
34.4398954212
 31
0.0
  0
LINE
  5
39B
330
1F
100
AcDbEntity
  8
0
  6
Continuous
 62
     7
370
    15
100
AcDbLine
 10
114.3903536874
 20
37.4398947953
 30
0.0
 11
113.9403535205
 21
37.4398947953
 31
0.0
  0
LINE
  5
39C
330
1F
100
AcDbEntity
  8
0
  6
Continuous
 62
     7
370
    15
100
AcDbLine
 10
114.3903536874
 20
37.4398947953
 30
0.0
 11
114.3903536874
 21
34.4398954212
 31
0.0
  0
LINE
  5
39D
330
1F
100
AcDbEntity
  8
0
  6
Continuous
 62
     7
370
    15
100
AcDbLine
 10
121.4903535473
 20
34.3398952185
 30
0.0
 11
121.4903535473
 21
34.4398954212
 31
0.0
  0
LINE
  5
39E
330
1F
100
AcDbEntity
  8
0
  6
Continuous
 62
     7
370
    15
100
AcDbLine
 10
121.4903535473
 20
63.2398941814
 30
0.0
 11
121.4903535473
 21
63.3398943841
 31
0.0
  0
LINE
  5
39F
330
1F
100
AcDbEntity
  8
0
  6
Continuous
 62
     7
370
    15
100
AcDbLine
 10
114.5503534156
 20
34.3398952185
 30
0.0
 11
114.5503534156
 21
34.4398954212
 31
0.0
  0
LINE
  5
3A0
330
1F
100
AcDbEntity
  8
0
  6
Continuous
 62
     7
370
    15
100
AcDbLine
 10
114.5503534156
 20
63.2398941814
 30
0.0
 11
114.5503534156
 21
63.3398943841
 31
0.0
  0
LINE
  5
3A1
330
1F
100
AcDbEntity
  8
0
  6
Continuous
 62
     7
370
    15
100
AcDbLine
 10
113.5503536242
 20
36.2398945986
 30
0.0
 11
113.5503536242
 21
61.4398950039
 31
0.0
  0
LINE
  5
3A2
330
1F
100
AcDbEntity
  8
0
  6
Continuous
 62
     7
370
    15
100
AcDbLine
 10
109.7803538817
 20
37.0398947298
 30
0.0
 11
109.7803538817
 21
60.6398948728
 31
0.0
  0
LINE
  5
3A3
330
1F
100
AcDbEntity
  8
0
  6
Continuous
 62
     7
370
    15
100
AcDbLine
 10
123.1403535384
 20
64.2121383249
 30
0.0
 11
125.4403534963
 21
64.2121383249
 31
0.0
  0
LINE
  5
3A4
330
1F
100
AcDbEntity
  8
0
  6
Continuous
 62
     7
370
    15
100
AcDbLine
 10
126.2903534959
 20
64.4398951231
 30
0.0
 11
122.2903533059
 21
64.4398951231
 31
0.0
  0
LINE
  5
3A5
330
1F
100
AcDbEntity
  8
0
  6
Continuous
 62
     7
370
    15
100
AcDbLine
 10
122.2903533059
 20
64.739894241
 30
0.0
 11
126.2903534959
 21
64.739894241
 31
0.0
  0
LINE
  5
3A6
330
1F
100
AcDbEntity
  8
0
  6
Continuous
 62
     7
370
    15
100
AcDbLine
 10
116.8153537589
 20
63.9398941099
 30
0.0
 11
122.5653534907
 21
63.9398941099
 31
0.0
  0
LINE
  5
3A7
330
1F
100
AcDbEntity
  8
0
  6
Continuous
 62
     7
370
    15
100
AcDbLine
 10
116.8153537589
 20
63.9398941099
 30
0.0
 11
116.8153537589
 21
63.3398943841
 31
0.0
  0
LINE
  5
3A8
330
1F
100
AcDbEntity
  8
0
  6
Continuous
 62
     7
370
    15
100
AcDbLine
 10
122.5653534907
 20
63.9398941099
 30
0.0
 11
122.5653534907
 21
63.2398941814
 31
0.0
  0
LINE
  5
3A9
330
1F
100
AcDbEntity
  8
0
  6
Continuous
 62
     7
370
    15
100
AcDbLine
 10
117.4653535861
 20
66.6992211043
 30
0.0
 11
121.9153536635
 21
66.6992211043
 31
0.0
  0
LINE
  5
3AA
330
1F
100
AcDbEntity
  8
0
  6
Continuous
 62
     7
370
    15
100
AcDbLine
 10
122.4403536099
 20
66.8398955165
 30
0.0
 11
116.9403536397
 21
66.8398955165
 31
0.0
  0
LINE
  5
3AB
330
1F
100
AcDbEntity
  8
0
  6
Continuous
 62
     7
370
    15
100
AcDbLine
 10
116.9403536397
 20
67.1398946344
 30
0.0
 11
122.4403536099
 21
67.1398946344
 31
0.0
  0
LINE
  5
3AC
330
1F
100
AcDbEntity
  8
0
  6
Continuous
 62
     7
370
    15
100
AcDbLine
 10
150.1817217248
 20
60.934212923
 30
0.0
 11
149.9737402576
 21
61.3889032303
 31
0.0
  0
LINE
  5
3AD
330
1F
100
AcDbEntity
  8
0
  6
Continuous
 62
     7
370
    15
100
AcDbLine
 10
150.6364127773
 20
61.1421943902
 30
0.0
 11
150.42843131
 21
61.5968846976
 31
0.0
  0
LWPOLYLINE
  5
3AE
330
1F
100
AcDbEntity
  8
0
  6
Continuous
 62
     7
370
    15
100
AcDbPolyline
 90
        9
 70
   128
 43
0.0
 10
149.9737402576
 20
61.3889032303
 10
150.0624453801
 20
61.4294790923
 10
150.147742607
 20
61.4684948026
 10
150.2263521927
 20
61.5044513046
 10
150.2952551621
 20
61.5359687506
 10
150.3518020886
 20
61.5618341862
 10
150.3938188928
 20
61.5810537039
 10
150.4196932691
 20
61.5928882061
 10
150.42843131
 20
61.5968846976
  0
LWPOLYLINE
  5
3AF
330
1F
100
AcDbEntity
  8
0
  6
Continuous
 62
     7
370
    15
100
AcDbPolyline
 90
        9
 70
   128
 43
0.0
 10
150.1817217248
 20
60.934212923
 10
150.2704268473
 20
60.9747880398
 10
150.3557240742
 20
61.0138037502
 10
150.43433366
 20
61.0497609972
 10
150.5032366293
 20
61.0812784432
 10
150.5597835558
 20
61.1071431338
 10
150.6018003601
 20
61.1263626515
 10
150.6276762265
 20
61.1381978988
 10
150.6364127773
 20
61.1421943902
  0
LINE
  5
3B0
330
1F
100
AcDbEntity
  8
0
  6
Continuous
 62
     7
370
    15
100
AcDbLine
 10
144.9403530139
 20
59.0865643024
 30
0.0
 11
149.9737402576
 21
61.3889032303
 31
0.0
  0
LINE
  5
3B1
330
1F
100
AcDbEntity
  8
0
  6
Continuous
 62
     7
370
    15
100
AcDbLine
 10
144.9403530139
 20
58.5367397665
 30
0.0
 11
150.1817217248
 21
60.934212923
 31
0.0
  0
SPLINE
  5
3B2
330
1F
100
AcDbEntity
  8
0
  6
Continuous
 62
     7
370
    15
100
AcDbSpline
210
0.0
220
0.0
230
1.0
 70
    24
 71
     3
 72
    10
 73
     6
 74
     0
 42
0.00000001
 43
0.00000001
 40
0.0
 40
0.0
 40
0.0
 40
0.0
 40
0.5
 40
0.5
 40
1.0
 40
1.0
 40
1.0
 40
1.0
 10
148.8746680657906
 20
61.93989480128459
 30
0.0
 10
148.8566281957657
 20
61.93989480128459
 30
0.0
 10
148.8342862046515
 20
61.9398948012846
 30
0.0
 10
148.7852805872974
 20
61.9398948012846
 30
0.0
 10
148.7587589383086
 20
61.9398948012846
 30
0.0
 10
148.7332467094903
 20
61.93989480128459
 30
0.0
  0
ARC
  5
3B3
330
1F
100
AcDbEntity
  8
0
  6
Continuous
 62
     7
370
    15
100
AcDbCircle
 10
148.8216344068
 20
61.67739353
 30
0.0
 40
0.2678046315997202
100
AcDbArc
 50
351.9509713127
 51
78.5781951619
  0
LINE
  5
3B4
330
1F
100
AcDbEntity
  8
0
  6
Continuous
 62
     7
370
    15
100
AcDbLine
 10
148.7332469004
 20
61.6398954093
 30
0.0
 11
149.0868007916
 21
61.6398954093
 31
0.0
  0
LINE
  5
3B5
330
1F
100
AcDbEntity
  8
0
  6
Continuous
 62
     7
370
    15
100
AcDbLine
 10
148.7332469004
 20
61.9398945271
 30
0.0
 11
148.7332469004
 21
61.6398954093
 31
0.0
  0
LINE
  5
3B6
330
1F
100
AcDbEntity
  8
0
  6
Continuous
 62
     7
370
    15
100
AcDbLine
 10
148.7332469004
 20
60.8214848935
 30
0.0
 11
148.7332469004
 21
61.6398954093
 31
0.0
  0
LINE
  5
3B7
330
1F
100
AcDbEntity
  8
0
  6
Continuous
 62
     7
370
    15
100
AcDbLine
 10
144.490352847
 20
61.9398945271
 30
0.0
 11
148.7332469004
 21
61.9398945271
 31
0.0
  0
LINE
  5
3B8
330
1F
100
AcDbEntity
  8
0
  6
Continuous
 62
     7
370
    15
100
AcDbLine
 10
149.0868007916
 20
60.9832049607
 30
0.0
 11
149.0868007916
 21
61.6398954093
 31
0.0
  0
LINE
  5
3B9
330
1F
100
AcDbEntity
  8
0
  6
Continuous
 62
     7
370
    15
100
AcDbLine
 10
149.0868007916
 20
56.8398946225
 30
0.0
 11
149.0868007916
 21
60.4333811699
 31
0.0
  0
LINE
  5
3BA
330
1F
100
AcDbEntity
  8
0
  6
Continuous
 62
     7
370
    15
100
AcDbLine
 10
148.7332469004
 20
60.2716603576
 30
0.0
 11
148.7332469004
 21
56.8398946225
 31
0.0
  0
LINE
  5
3BB
330
1F
100
AcDbEntity
  8
0
  6
Continuous
 62
     7
370
    15
100
AcDbLine
 10
149.0332460183
 20
56.8398946225
 30
0.0
 11
148.7332469004
 21
56.8398946225
 31
0.0
  0
LINE
  5
3BC
330
1F
100
AcDbEntity
  8
0
  6
Continuous
 62
     7
370
    15
100
AcDbLine
 10
148.7332469004
 20
56.8398946225
 30
0.0
 11
144.9403530139
 21
56.8398946225
 31
0.0
  0
LINE
  5
3BD
330
1F
100
AcDbEntity
  8
0
  6
Continuous
 62
     7
370
    15
100
AcDbLine
 10
153.6403542536
 20
56.8398946225
 30
0.0
 11
153.6403542536
 21
43.8398947268
 31
0.0
  0
LINE
  5
3BE
330
1F
100
AcDbEntity
  8
0
  6
Continuous
 62
     7
370
    15
100
AcDbLine
 10
149.0332460183
 20
56.8398946225
 30
0.0
 11
153.6403542536
 21
56.8398946225
 31
0.0
  0
LINE
  5
3BF
330
1F
100
AcDbEntity
  8
0
  6
Continuous
 62
     7
370
    15
100
AcDbLine
 10
153.6403542536
 20
43.8398947268
 30
0.0
 11
144.9403530139
 21
43.8398947268
 31
0.0
  0
LINE
  5
3C0
330
1F
100
AcDbEntity
  8
0
  6
Continuous
 62
     7
370
    15
100
AcDbLine
 10
149.8439064401
 20
61.3295161425
 30
0.0
 11
149.8439064401
 21
61.6398954093
 31
0.0
  0
LINE
  5
3C1
330
1F
100
AcDbEntity
  8
0
  6
Continuous
 62
     7
370
    15
100
AcDbLine
 10
149.0868007916
 20
61.6398954093
 30
0.0
 11
149.8439064401
 21
61.6398954093
 31
0.0
  0
ARC
  5
3C2
330
1F
100
AcDbEntity
  8
0
  6
Continuous
 62
     7
370
    15
100
AcDbCircle
 10
149.5787427016
 20
61.6773956647
 30
0.0
 40
0.2678023102506437
100
AcDbArc
 50
351.9504398293
 51
78.5783471902
  0
LINE
  5
3C3
330
1F
100
AcDbEntity
  8
0
  6
Continuous
 62
     7
370
    15
100
AcDbLine
 10
148.8746678608
 20
61.9398945271
 30
0.0
 11
149.6317749995
 21
61.9398945271
 31
0.0
  0
LINE
  5
3C4
330
1F
100
AcDbEntity
  8
0
  6
Continuous
 62
     7
370
    15
100
AcDbLine
 10
149.8439064401
 20
56.8398946225
 30
0.0
 11
149.8439064401
 21
60.7796916067
 31
0.0
  0
ARC
  5
3C5
330
1F
100
AcDbEntity
  8
0
  6
Continuous
 62
     7
370
    15
100
AcDbCircle
 10
149.6903534907
 20
61.6398948013
 30
0.0
 40
0.3000000000000114
100
AcDbArc
 50
0.0
 51
89.9999999882
  0
LINE
  5
3C6
330
1F
100
AcDbEntity
  8
0
  6
Continuous
 62
     7
370
    15
100
AcDbLine
 10
149.8439064401
 20
61.6398954093
 30
0.0
 11
149.9903535622
 21
61.6398954093
 31
0.0
  0
SPLINE
  5
3C7
330
1F
100
AcDbEntity
  8
0
  6
Continuous
 62
     7
370
    15
100
AcDbSpline
210
0.0
220
0.0
230
1.0
 70
    24
 71
     3
 72
    10
 73
     6
 74
     0
 42
0.00000001
 43
0.00000001
 40
0.0
 40
0.0
 40
0.0
 40
0.0
 40
0.5
 40
0.5
 40
1.0
 40
1.0
 40
1.0
 40
1.0
 10
149.690353490691
 20
61.93989480128459
 30
0.0
 10
149.690353490691
 20
61.93989480128459
 30
0.0
 10
149.6852787928596
 20
61.9398948012846
 30
0.0
 10
149.6649800015207
 20
61.93989480128459
 30
0.0
 10
149.6498147169157
 20
61.93989480128459
 30
0.0
 10
149.6317748468908
 20
61.93989480128459
 30
0.0
  0
LINE
  5
3C8
330
1F
100
AcDbEntity
  8
0
  6
Continuous
 62
     7
370
    15
100
AcDbLine
 10
149.9903535622
 20
61.3965028225
 30
0.0
 11
149.9903535622
 21
61.6398954093
 31
0.0
  0
LINE
  5
3C9
330
1F
100
AcDbEntity
  8
0
  6
Continuous
 62
     7
370
    15
100
AcDbLine
 10
149.9903535622
 20
56.8398946225
 30
0.0
 11
149.9903535622
 21
60.8466782867
 31
0.0
  0
LINE
  5
3CA
330
1F
100
AcDbEntity
  8
0
  6
Continuous
 62
     7
370
    15
100
AcDbLine
 10
153.3403521555
 20
43.8398947268
 30
0.0
 11
153.3403521555
 21
38.7398944496
 31
0.0
  0
LINE
  5
3CB
330
1F
100
AcDbEntity
  8
0
  6
Continuous
 62
     7
370
    15
100
AcDbLine
 10
153.3403521555
 20
58.939895153
 30
0.0
 11
153.3403521555
 21
56.8398946225
 31
0.0
  0
SPLINE
  5
3CC
330
1F
100
AcDbEntity
  8
0
  6
Continuous
 62
     7
370
    15
100
AcDbSpline
210
0.0
220
0.0
230
1.0
 70
     8
 71
     3
 72
    13
 73
     9
 74
     0
 42
0.00000001
 43
0.00000001
 40
0.0
 40
0.0
 40
0.0
 40
0.0
 40
0.2140795949114692
 40
0.3844604147446973
 40
0.5231415057692888
 40
0.6429507354544702
 40
0.8189151772073181
 40
1.0
 40
1.0
 40
1.0
 40
1.0
 10
153.3403521555463
 20
58.18989512314963
 30
0.0
 10
153.4171567314603
 20
58.18765878363354
 30
0.0
 10
153.5550882289597
 20
58.18364259508358
 30
0.0
 10
153.7393731114853
 20
58.14266428253161
 30
0.0
 10
153.8801059776055
 20
58.0771193114136
 30
0.0
 10
153.9992604060321
 20
57.9737467558485
 30
0.0
 10
154.0834221288604
 20
57.81982355091289
 30
0.0
 10
154.1079258671708
 20
57.6939050094807
 30
0.0
 10
154.1203534382382
 20
57.63004285087752
 30
0.0
  0
LINE
  5
3CD
330
1F
100
AcDbEntity
  8
0
  6
Continuous
 62
     7
370
    15
100
AcDbLine
 10
154.1203534382
 20
40.0497467517
 30
0.0
 11
154.1203534382
 21
57.6300428509
 31
0.0
  0
SPLINE
  5
3CE
330
1F
100
AcDbEntity
  8
0
  6
Continuous
 62
     7
370
    15
100
AcDbSpline
210
0.0
220
0.0
230
1.0
 70
     8
 71
     3
 72
    13
 73
     9
 74
     0
 42
0.00000001
 43
0.00000001
 40
0.0
 40
0.0
 40
0.0
 40
0.0
 40
0.1542521293091054
 40
0.3036189033249554
 40
0.4589679413325765
 40
0.6012100269628121
 40
0.7769229790789253
 40
1.0
 40
1.0
 40
1.0
 40
1.0
 10
154.1203534382382
 20
40.04974675169156
 30
0.0
 10
154.1098978316294
 20
39.99538815307056
 30
0.0
 10
154.089317760376
 20
39.88839255972924
 30
0.0
 10
154.0210820056463
 20
39.73610162057303
 30
0.0
 10
153.9072124319382
 20
39.61808781607277
 30
0.0
 10
153.7537166427666
 20
39.54141454676984
 30
0.0
 10
153.5634994155276
 20
39.49660746714703
 30
0.0
 10
153.4203998610315
 20
39.4923025720153
 30
0.0
 10
153.3403521555463
 20
39.48989447941946
 30
0.0
  0
LINE
  5
3CF
330
1F
100
AcDbEntity
  8
0
  6
Continuous
 62
     7
370
    15
100
AcDbLine
 10
144.490352847
 20
61.6398954093
 30
0.0
 11
148.7332469004
 21
61.6398954093
 31
0.0
  0
INSERT
  5
3DB
330
1F
100
AcDbEntity
  8
0
  6
Continuous
 62
     7
370
     0
100
AcDbBlockReference
  2
SW_CENTERMARKSYMBOL_3
 10
117.4403534907
 20
61.8398948013
 30
0.0
  0
INSERT
  5
3E7
330
1F
100
AcDbEntity
  8
0
  6
Continuous
 62
     7
370
     0
100
AcDbBlockReference
  2
SW_CENTERMARKSYMBOL_4
 10
141.4403534907
 20
61.8398948013
 30
0.0
  0
INSERT
  5
3F3
330
1F
100
AcDbEntity
  8
0
  6
Continuous
 62
     7
370
     0
100
AcDbBlockReference
  2
SW_CENTERMARKSYMBOL_5
 10
141.4403534907
 20
35.8398948013
 30
0.0
  0
INSERT
  5
3FF
330
1F
100
AcDbEntity
  8
0
  6
Continuous
 62
     7
370
     0
100
AcDbBlockReference
  2
SW_CENTERMARKSYMBOL_6
 10
117.4403534907
 20
35.8398948013
 30
0.0
  0
ENDSEC
  0
SECTION
  2
OBJECTS
  0
DICTIONARY
  5
C
330
0
100
AcDbDictionary
281
     1
  3
ACAD_GROUP
350
D
  3
ACAD_LAYOUT
350
1A
  3
ACAD_MLINESTYLE
350
17
  3
ACAD_PLOTSETTINGS
350
19
  3
ACAD_PLOTSTYLENAME
350
E
  0
DICTIONARY
  5
D
102
{ACAD_REACTORS
330
C
102
}
330
C
100
AcDbDictionary
281
     1
  0
DICTIONARY
  5
1A
102
{ACAD_REACTORS
330
C
102
}
330
C
100
AcDbDictionary
281
     1
  3
Layout1
350
1E
  3
Layout2
350
26
  3
Model
350
22
  0
DICTIONARY
  5
17
102
{ACAD_REACTORS
330
C
102
}
330
C
100
AcDbDictionary
281
     1
  3
Standard
350
18
  0
DICTIONARY
  5
19
102
{ACAD_REACTORS
330
C
102
}
330
C
100
AcDbDictionary
281
     1
  0
ACDBDICTIONARYWDFLT
  5
E
102
{ACAD_REACTORS
330
C
102
}
330
C
100
AcDbDictionary
281
     1
  3
Normal
350
F
100
AcDbDictionaryWithDefault
340
F
  0
LAYOUT
  5
1E
102
{ACAD_REACTORS
330
1A
102
}
330
1A
100
AcDbPlotSettings
  1

  2
none_device
  4

  6

 40
0.0
 41
0.0
 42
0.0
 43
0.0
 44
0.0
 45
0.0
 46
0.0
 47
0.0
 48
0.0
 49
0.0
140
0.0
141
0.0
142
1.0
143
1.0
 70
   688
 72
     0
 73
     0
 74
     5
  7

 75
    16
147
1.0
148
0.0
149
0.0
100
AcDbLayout
  1
Layout1
 70
     1
 71
     1
 10
0.0
 20
0.0
 11
420.0
 21
297.0
 12
0.0
 22
0.0
 32
0.0
 14
1.0000000000E+20
 24
1.0000000000E+20
 34
1.0000000000E+20
 15
-1.0000000000E+20
 25
-1.0000000000E+20
 35
-1.0000000000E+20
146
0.0
 13
0.0
 23
0.0
 33
0.0
 16
1.0
 26
0.0
 36
0.0
 17
0.0
 27
1.0
 37
0.0
 76
     0
330
1B
  0
LAYOUT
  5
26
102
{ACAD_REACTORS
330
1A
102
}
330
1A
100
AcDbPlotSettings
  1

  2
none_device
  4

  6

 40
0.0
 41
0.0
 42
0.0
 43
0.0
 44
0.0
 45
0.0
 46
0.0
 47
0.0
 48
0.0
 49
0.0
140
0.0
141
0.0
142
1.0
143
1.0
 70
   688
 72
     0
 73
     0
 74
     5
  7

 75
    16
147
1.0
148
0.0
149
0.0
100
AcDbLayout
  1
Layout2
 70
     1
 71
     2
 10
0.0
 20
0.0
 11
0.0
 21
0.0
 12
0.0
 22
0.0
 32
0.0
 14
0.0
 24
0.0
 34
0.0
 15
0.0
 25
0.0
 35
0.0
146
0.0
 13
0.0
 23
0.0
 33
0.0
 16
1.0
 26
0.0
 36
0.0
 17
0.0
 27
1.0
 37
0.0
 76
     0
330
23
  0
LAYOUT
  5
22
102
{ACAD_REACTORS
330
1A
102
}
330
1A
100
AcDbPlotSettings
  1

  2
none_device
  4

  6

 40
0.0
 41
0.0
 42
0.0
 43
0.0
 44
0.0
 45
0.0
 46
0.0
 47
0.0
 48
0.0
 49
0.0
140
0.0
141
0.0
142
1.0
143
1.0
 70
  1712
 72
     0
 73
     0
 74
     0
  7

 75
     0
147
1.0
148
0.0
149
0.0
100
AcDbLayout
  1
Model
 70
     1
 71
     0
 10
0.0
 20
0.0
 11
0.0
 21
0.0
 12
0.0
 22
0.0
 32
0.0
 14
0.0
 24
0.0
 34
0.0
 15
297.0
 25
210.0
 35
0.0
146
0.0
 13
0.0
 23
0.0
 33
0.0
 16
1.0
 26
0.0
 36
0.0
 17
0.0
 27
1.0
 37
0.0
 76
     0
330
1F
  0
MLINESTYLE
  5
18
102
{ACAD_REACTORS
330
17
102
}
330
17
100
AcDbMlineStyle
  2
Standard
 70
     0
  3

 62
   256
 51
90.0
 52
90.0
 71
     2
 49
0.5
 62
   256
  6
BYLAYER
 49
-0.5
 62
   256
  6
BYLAYER
  0
ACDBPLACEHOLDER
  5
F
102
{ACAD_REACTORS
330
E
102
}
330
E
  0
ENDSEC
  0
EOF
