  0
SECTION
  2
HEADER
  9
$ACADVER
  1
AC1014
  9
$ACADMAINTVER
 70
           0
  9
$DWGCODEPAGE
  3
DOS932
  9
$INSBASE
 10
0.0
 20
0.0
 30
0.0
  9
$EXTMIN
 10
1.000000000000E+20
 20
1.000000000000E+20
 30
1.000000000000E+20
  9
$EXTMAX
 10
-1.000000000000E+20
 20
-1.000000000000E+20
 30
-1.000000000000E+20
  9
$LIMMIN
 10
0.0
 20
0.0
  9
$LIMMAX
 10
0.0
 20
0.0
  9
$ORTHOMODE
 70
           0
  9
$REGENMODE
 70
           1
  9
$FILLMODE
 70
           1
  9
$QTEXTMODE
 70
           0
  9
$MIRRTEXT
 70
           1
  9
$DRAGMODE
 70
           2
  9
$LTSCALE
 40
1.0
  9
$OSMODE
 70
           0
  9
$ATTMODE
 70
           1
  9
$TEXTSIZE
 40
0.2
  9
$TRACEWID
 40
0.05
  9
$TEXTSTYLE
  7
STANDARD
  9
$CLAYER
  8
0
  9
$CELTYPE
  6
CONTINUOUS
  9
$CECOLOR
 62
         256
  9
$CELTSCALE
 40
1.0
  9
$DELOBJ
 70
           1
  9
$DISPSILH
 70
           0
  9
$DIMSCALE
 40
1.0
  9
$DIMASZ
 40
0.18
  9
$DIMEXO
 40
0.0625
  9
$DIMDLI
 40
0.38
  9
$DIMRND
 40
0.0
  9
$DIMDLE
 40
0.0
  9
$DIMEXE
 40
0.18
  9
$DIMTP
 40
0.0
  9
$DIMTM
 40
0.0
  9
$DIMTXT
 40
0.18
  9
$DIMCEN
 40
0.09
  9
$DIMTSZ
 40
0.0
  9
$DIMTOL
 70
           0
  9
$DIMLIM
 70
           0
  9
$DIMTIH
 70
           1
  9
$DIMTOH
 70
           1
  9
$DIMSE1
 70
           0
  9
$DIMSE2
 70
           0
  9
$DIMTAD
 70
           0
  9
$DIMZIN
 70
           0
  9
$DIMBLK
  1

  9
$DIMASO
 70
           1
  9
$DIMSHO
 70
           1
  9
$DIMPOST
  1

  9
$DIMAPOST
  1

  9
$DIMALT
 70
           0
  9
$DIMALTD
 70
           2
  9
$DIMALTF
 40
25.4
  9
$DIMLFAC
 40
1.0
  9
$DIMTOFL
 70
           0
  9
$DIMTVP
 40
0.0
  9
$DIMTIX
 70
           0
  9
$DIMSOXD
 70
           0
  9
$DIMSAH
 70
           0
  9
$DIMBLK1
  1

  9
$DIMBLK2
  1

  9
$DIMSTYLE
  2
STANDARD
  9
$DIMCLRD
 70
           0
  9
$DIMCLRE
 70
           0
  9
$DIMCLRT
 70
           0
  9
$DIMTFAC
 40
1.0
  9
$DIMGAP
 40
0.09
  9
$DIMJUST
 70
           0
  9
$DIMSD1
 70
           0
  9
$DIMSD2
 70
           0
  9
$DIMTOLJ
 70
           1
  9
$DIMTZIN
 70
           0
  9
$DIMALTZ
 70
           0
  9
$DIMALTTZ
 70
           0
  9
$DIMFIT
 70
           3
  9
$DIMUPT
 70
           0
  9
$DIMUNIT
 70
           2
  9
$DIMDEC
 70
           4
  9
$DIMTDEC
 70
           4
  9
$DIMALTU
 70
           2
  9
$DIMALTTD
 70
           2
  9
$DIMTXSTY
  7
STANDARD
  9
$DIMAUNIT
 70
           0
  9
$LUNITS
 70
           2
  9
$LUPREC
 70
           4
  9
$SKETCHINC
 40
0.1
  9
$FILLETRAD
 40
0.0
  9
$AUNITS
 70
           0
  9
$AUPREC
 70
           0
  9
$MENU
  1
acad
  9
$ELEVATION
 40
0.0
  9
$PELEVATION
 40
0.0
  9
$THICKNESS
 40
0.0
  9
$LIMCHECK
 70
           0
  9
$BLIPMODE
 70
           1
  9
$CHAMFERA
 40
0.0
  9
$CHAMFERB
 40
0.0
  9
$CHAMFERC
 40
0.0
  9
$CHAMFERD
 40
0.0
  9
$SKPOLY
 70
           0
  9
$TDCREATE
 40
0.000000000
  9
$TDUPDATE
 40
0.000000000
  9
$TDINDWG
 40
0.0000000000
  9
$TDUSRTIMER
 40
0.0000000000
  9
$USRTIMER
 70
           1
  9
$ANGBASE
 50
0.0
  9
$ANGDIR
 70
           0
  9
$PDMODE
 70
           0
  9
$PDSIZE
 40
0.0
  9
$PLINEWID
 40
0.0
  9
$COORDS
 70
           0
  9
$SPLFRAME
 70
           0
  9
$SPLINETYPE
 70
           6
  9
$SPLINESEGS
 70
           8
  9
$ATTDIA
 70
           0
  9
$ATTREQ
 70
           1
  9
$HANDLING
 70
           1
  9
$HANDSEED
  5
325
  9
$SURFTAB1
 70
           6
  9
$SURFTAB2
 70
           6
  9
$SURFTYPE
 70
           6
  9
$SURFU
 70
           6
  9
$SURFV
 70
           6
  9
$UCSNAME
  2

  9
$UCSORG
 10
0.0
 20
0.0
 30
0.0
  9
$UCSXDIR
 10
1.0
 20
0.0
 30
0.0
  9
$UCSYDIR
 10
0.0
 20
1.0
 30
0.0
  9
$PUCSNAME
  2

  9
$PUCSORG
 10
0.0
 20
0.0
 30
0.0
  9
$PUCSXDIR
 10
1.0
 20
0.0
 30
0.0
  9
$PUCSYDIR
 10
0.0
 20
1.0
 30
0.0
  9
$USERI1
 70
           0
  9
$USERI2
 70
           0
  9
$USERI3
 70
           0
  9
$USERI4
 70
           0
  9
$USERI5
 70
           0
  9
$USERR1
 40
0.0
  9
$USERR2
 40
0.0
  9
$USERR3
 40
0.0
  9
$USERR4
 40
0.0
  9
$USERR5
 40
0.0
  9
$WORLDVIEW
 70
           1
  9
$SHADEDGE
 70
           3
  9
$SHADEDIF
 70
          70
  9
$TILEMODE
 70
           1
  9
$MAXACTVP
 70
          16
  9
$PINSBASE
 10
0.0
 20
0.0
 30
0.0
  9
$PLIMCHECK
 70
           0
  9
$PEXTMIN
 10
1.000000000000E+20
 20
1.000000000000E+20
 30
1.000000000000E+20
  9
$PEXTMAX
 10
-1.000000000000E+20
 20
-1.000000000000E+20
 30
-1.000000000000E+20
  9
$PLIMMIN
 10
0.0
 20
0.0
  9
$PLIMMAX
 10
12.0
 20
9.0
  9
$UNITMODE
 70
           0
  9
$VISRETAIN
 70
           0
  9
$PLINEGEN
 70
           1
  9
$PSLTSCALE
 70
           0
  9
$TREEDEPTH
 70
        3020
  9
$PICKSTYLE
 70
           1
  9
$CMLSTYLE
  2
STANDARD
  9
$CMLJUST
 70
           0
  9
$CMLSCALE
 40
1.0
  9
$PROXYGRAPHICS
 70
           0
  9
$MEASUREMENT
 70
           0
  0
ENDSEC
  0
SECTION
  2
CLASSES
  0
CLASS
  1
LWPOLYLINE
  2
AcDbPolyline
  3
"AutoCAD"
 90
        0
280
           0
281
           1
  0
CLASS
  1
IMAGE
  2
AcDbRasterImage
  3
ISM
 90
      127
280
           0
281
           1
  0
CLASS
  1
OLE2FRAME
  2
AcDbOle2Frame
  3
""
 90
        0
280
           0
281
           1
  0
CLASS
  1
HATCH
  2
AcDbHatch
  3
"ACAD_SEDONA"
 90
        0
280
           0
281
           1
  0
CLASS
  1
DICTIONARYVAR
  2
AcDbDictionaryVar
  3
"AutoCAD"
 90
        0
280
           0
281
           0
  0
CLASS
  1
RASTERVARIABLES
  2
AcDbRasterVariables
  3
ISM
 90
        0
280
           0
281
           0
  0
CLASS
  1
IMAGEDEF
  2
AcDbRasterImageDef
  3
ISM
 90
        0
280
           0
281
           0
  0
CLASS
  1
IMAGEDEF_REACTOR
  2
AcDbRasterImageDefReactor
  3
ISM
 90
        1
280
           0
281
           0
  0
CLASS
  1
IDBUFFER
  2
AcDbIdBuffer
  3
"Acad"
 90
        0
280
           0
281
           0
  0
CLASS
  1
SPATIAL_FILTER
  2
AcDbSpatialFilter
  3
"Acad"
 90
        0
280
           0
281
           0
  0
CLASS
  1
XRECORD
  2
AcDbXrecord
  3
"<Built In>"
 90
        0
280
           0
281
           0
  0
CLASS
  1
SORTENTSTABLE
  2
AcDbSortentsTable
  3
"AutoCAD"
 90
        0
280
           0
281
           0
  0
CLASS
  1
LAYER_INDEX
  2
AcDbLayerIndex
  3
"Acad"
 90
        0
280
           0
281
           0
  0
CLASS
  1
SPATIAL_INDEX
  2
AcDbSpatialIndex
  3
"Acad"
 90
        0
280
           0
281
           0
  0
CLASS
  1
OBJECT_PTR
  2
CAseDLPNTableRecord
  3
"ASE-LPNTableRecord"
 90
        1
280
           0
281
           0
  0
CLASS
  1
LAYOUT
  2
AcDbLayout
  3
"AutoCAD 2000"
 90
        1
280
           0
281
           0
  0
CLASS
  1
PLOTSETTINGS
  2
AcDbPlotSettings
  3
"AutoCAD 2000"
 90
        1
280
           0
281
           0
  0
CLASS
  1
ACDBDICTIONARYWDFLT
  2
AcDbDictionaryWithDefault
  3
"AutoCAD 2000"
 90
        1
280
           0
281
           0
  0
CLASS
  1
ACDBPLACEHOLDER
  2
AcDbPlaceHolder
  3
"AutoCAD 2000"
 90
        1
280
           0
281
           0
  0
CLASS
  1
VBA_PROJECT
  2
AcDbVbaProject
  3
"acadvba"
 90
        1
280
           0
281
           0
  0
CLASS
  1
WIPEOUT
  2
AcDbWipeout
  3
WipeOut|AutoCAD Express Tool|expresstools@autodesk.com
 90
      127
280
           0
281
           1
  0
CLASS
  1
WIPEOUTVARIABLES
  2
AcDbWipeoutVariables
  3
WipeOut|AutoCAD Express Tool|expresstools@autodesk.com
 90
        0
280
           0
281
           0
  0
CLASS
  1
RTEXT
  2
RText
  3
RText|AutoCAD Express Tool|expresstools@autodesk.com
 90
        0
280
           0
281
           1
  0
CLASS
  1
ARCALIGNEDTEXT
  2
AcDbArcAlignedText
  3
ATEXT|AutoCAD Express Tool|expresstools@autodesk.com
 90
        0
280
           0
281
           1
  0
ENDSEC
  0
SECTION
  2
TABLES
  0
TABLE
  2
VPORT
  5
7
100
AcDbSymbolTable
 70
           1
  0
VPORT
  5
15
100
AcDbSymbolTableRecord
100
AcDbViewportTableRecord
  2
*ACTIVE
 70
           0
 10
0.0
 20
0.0
 11
1.0
 21
1.0
 12
6.591288
 22
4.579184
 13
0.0
 23
0.0
 14
1.0
 24
1.0
 15
0.0
 25
0.0
 16
0.0
 26
0.0
 36
1.0
 17
0.0
 27
0.0
 37
0.0
 40
9.158369
 41
0.688564
 42
50.0
 43
0.0
 44
0.0
 50
0.0
 51
0.0
 71
           0
 72
         100
 73
           1
 74
           1
 75
           0
 76
           0
 77
           0
 78
           0
  0
ENDTAB
  0
TABLE
  2
LTYPE
  5
4
100
AcDbSymbolTable
 70
          10
  0
LTYPE
  5
11
100
AcDbSymbolTableRecord
100
AcDbLinetypeTableRecord
  2
BYBLOCK
 70
          64
  3

 72
          65
 73
           0
 40
0.0
  0
LTYPE
  5
12
100
AcDbSymbolTableRecord
100
AcDbLinetypeTableRecord
  2
BYLAYER
 70
          64
  3

 72
          65
 73
           0
 40
0.0
  0
LTYPE
  5
13
100
AcDbSymbolTableRecord
100
AcDbLinetypeTableRecord
  2
CONTINUOUS
 70
          64
  3
Solid line
 72
          65
 73
           0
 40
0.0
  0
LTYPE
  5
1D
100
AcDbSymbolTableRecord
100
AcDbLinetypeTableRecord
  2
DASHED
 70
          64
  3
Dashed
 72
          65
 73
           2
 40
15.0
 49
12.0
 74
           0
 49
-3.0
 74
           0
  0
LTYPE
  5
1E
100
AcDbSymbolTableRecord
100
AcDbLinetypeTableRecord
  2
DOTTED
 70
          64
  3
Dotted
 72
          65
 73
           2
 40
3.5
 49
0.5
 74
           0
 49
-3.0
 74
           0
  0
LTYPE
  5
1F
100
AcDbSymbolTableRecord
100
AcDbLinetypeTableRecord
  2
DOT_CENTER
 70
          64
  3
Dot_Center
 72
          65
 73
           4
 40
2.0
 49
1.25
 74
           0
 49
-0.25
 74
           0
 49
0.25
 74
           0
 49
-0.25
 74
           0
  0
LTYPE
  5
20
100
AcDbSymbolTableRecord
100
AcDbLinetypeTableRecord
  2
LONG_DASHED
 70
          64
  3
Long_Dashed
 72
          65
 73
           2
 40
2.0
 49
1.5
 74
           0
 49
-0.5
 74
           0
  0
LTYPE
  5
21
100
AcDbSymbolTableRecord
100
AcDbLinetypeTableRecord
  2
DASH_CENTER
 70
          64
  3
Dash_Center
 72
          65
 73
           4
 40
36.0
 49
24.0
 74
           0
 49
-3.0
 74
           0
 49
6.0
 74
           0
 49
-3.0
 74
           0
  0
LTYPE
  5
22
100
AcDbSymbolTableRecord
100
AcDbLinetypeTableRecord
  2
PHANTOM
 70
          64
  3
Phantom
 72
          65
 73
           6
 40
2.5
 49
1.25
 74
           0
 49
-0.25
 74
           0
 49
0.25
 74
           0
 49
-0.25
 74
           0
 49
0.25
 74
           0
 49
-0.25
 74
           0
  0
LTYPE
  5
23
100
AcDbSymbolTableRecord
100
AcDbLinetypeTableRecord
  2
CENTER_DASH_DASH
 70
          64
  3
Center_Dash_Dash
 72
          65
 73
           6
 40
22.0
 49
12.0
 74
           0
 49
-3.0
 74
           0
 49
0.5
 74
           0
 49
-3.0
 74
           0
 49
0.5
 74
           0
 49
-3.0
 74
           0
  0
ENDTAB
  0
TABLE
  2
LAYER
  5
2
100
AcDbSymbolTable
 70
           7
  0
LAYER
  5
14
100
AcDbSymbolTableRecord
100
AcDbLayerTableRecord
  2
0
 70
           0
 62
           7
  6
CONTINUOUS
  0
LAYER
  5
24
100
AcDbSymbolTableRecord
100
AcDbLayerTableRecord
  2
21
 70
           0
 62
           7
  6
CONTINUOUS
  0
LAYER
  5
25
100
AcDbSymbolTableRecord
100
AcDbLayerTableRecord
  2
976
 70
           0
 62
           7
  6
CONTINUOUS
  0
LAYER
  5
26
100
AcDbSymbolTableRecord
100
AcDbLayerTableRecord
  2
1
 70
           0
 62
           7
  6
CONTINUOUS
  0
LAYER
  5
27
100
AcDbSymbolTableRecord
100
AcDbLayerTableRecord
  2
2
 70
           0
 62
           7
  6
CONTINUOUS
  0
LAYER
  5
28
100
AcDbSymbolTableRecord
100
AcDbLayerTableRecord
  2
3
 70
           0
 62
           7
  6
CONTINUOUS
  0
LAYER
  5
29
100
AcDbSymbolTableRecord
100
AcDbLayerTableRecord
  2
60
 70
           0
 62
           7
  6
CONTINUOUS
  0
ENDTAB
  0
TABLE
  2
STYLE
  5
3
100
AcDbSymbolTable
 70
           1
  0
STYLE
  5
17
100
AcDbSymbolTableRecord
100
AcDbTextStyleTableRecord
  2
STANDARD
 70
           0
 40
0.0
 41
1.0
 50
0.0
 71
           0
 42
0.0
  3
txt
  4

  0
ENDTAB
  0
TABLE
  2
VIEW
  5
5
100
AcDbSymbolTable
 70
           0
  0
ENDTAB
  0
TABLE
  2
UCS
  5
6
100
AcDbSymbolTable
 70
           0
  0
ENDTAB
  0
TABLE
  2
APPID
  5
8
100
AcDbSymbolTable
 70
           1
  0
APPID
  5
16
100
AcDbSymbolTableRecord
100
AcDbRegAppTableRecord
  2
ACAD
 70
           0
  0
ENDTAB
  0
TABLE
  2
DIMSTYLE
  5
9
100
AcDbSymbolTable
 70
           1
  0
DIMSTYLE
105
18
100
AcDbSymbolTableRecord
100
AcDbDimStyleTableRecord
  2
STANDARD
 70
           0
  3

  4

  5

  6

  7

 40
1.0
 41
0.18
 42
0.0625
 43
0.38
 44
0.18
 45
0.0
 46
0.0
 47
0.0
 48
0.0
 71
           0
 72
           0
 73
           1
 74
           1
 75
           0
 76
           0
 77
           0
 78
           0
140
0.18
141
0.09
142
0.0
143
25.4
144
1.0
145
0.0
146
1.0
147
0.09
170
           0
171
           2
172
           0
173
           0
174
           0
175
           0
176
           0
177
           0
178
           0
270
           2
271
           4
272
           4
273
           2
274
           2
275
           0
280
           0
281
           0
282
           0
283
           1
284
           0
285
           0
286
           0
287
           0
288
           0
340
17
  0
ENDTAB
  0
TABLE
  2
BLOCK_RECORD
  5
1
100
AcDbSymbolTable
 70
           0
  0
BLOCK_RECORD
  5
A
100
AcDbSymbolTableRecord
100
AcDbBlockTableRecord
  2
*MODEL_SPACE
  0
BLOCK_RECORD
  5
B
100
AcDbSymbolTableRecord
100
AcDbBlockTableRecord
  2
*PAPER_SPACE
  0
ENDTAB
  0
ENDSEC
  0
SECTION
  2
BLOCKS
  0
BLOCK
  5
D
100
AcDbEntity
  8
0
100
AcDbBlockBegin
  2
*MODEL_SPACE
 70
           0
 10
0.0
 20
0.0
 30
0.0
  3
*MODEL_SPACE
  1

  0
ENDBLK
  5
E
100
AcDbEntity
  8
0
100
AcDbBlockEnd
  0
BLOCK
  5
F
100
AcDbEntity
 67
           1
  8
0
100
AcDbBlockBegin
  2
*PAPER_SPACE
 70
           0
 10
0.0
 20
0.0
 30
0.0
  3
*PAPER_SPACE
  1

  0
ENDBLK
  5
10
100
AcDbEntity
 67
           1
  8
0
100
AcDbBlockEnd
  0
ENDSEC
  0
SECTION
  2
ENTITIES
  0
ARC
  5
323
100
AcDbEntity
  8
1
  6
CONTINUOUS
 62
           2
100
AcDbCircle
 10
150.499827501577
 20
146.049590653
 40
1.0
100
AcDbArc
 50
90.0
 51
179.999999999995
  0
ARC
  5
322
100
AcDbEntity
  8
1
  6
CONTINUOUS
 62
           2
100
AcDbCircle
 10
165.499827501577
 20
138.049590653
 40
1.0
100
AcDbArc
 50
-90.0
 51
0.000000000005
  0
ARC
  5
321
100
AcDbEntity
  8
1
  6
CONTINUOUS
 62
           2
100
AcDbCircle
 10
150.499827501577
 20
138.049590653
 40
1.0
100
AcDbArc
 50
179.999999999995
 51
-90.0
  0
ARC
  5
320
100
AcDbEntity
  8
1
  6
CONTINUOUS
 62
           2
100
AcDbCircle
 10
165.499827501577
 20
146.049590653
 40
1.0
100
AcDbArc
 50
0.000000000005
 51
90.0
  0
ARC
  5
31F
100
AcDbEntity
  8
1
  6
CONTINUOUS
 62
           7
100
AcDbCircle
 10
150.499827501577
 20
146.049590653
 40
1.5
100
AcDbArc
 50
90.0
 51
180.0
  0
ARC
  5
31E
100
AcDbEntity
  8
1
  6
LONG_DASHED
 62
           3
100
AcDbCircle
 10
116.199827501577
 20
301.226445220906
 40
1.5
100
AcDbArc
 50
0.0
 51
90.0
  0
ARC
  5
31D
100
AcDbEntity
  8
1
  6
LONG_DASHED
 62
           3
100
AcDbCircle
 10
116.199827501577
 20
299.226445220906
 40
1.5
100
AcDbArc
 50
-90.0
 51
0.0
  0
ARC
  5
31C
100
AcDbEntity
  8
1
  6
LONG_DASHED
 62
           3
100
AcDbCircle
 10
117.199827501577
 20
148.277810271695
 40
0.5
100
AcDbArc
 50
-90.0
 51
0.0
  0
ARC
  5
31B
100
AcDbEntity
  8
1
  6
LONG_DASHED
 62
           3
100
AcDbCircle
 10
117.199827501577
 20
135.821371034305
 40
0.5
100
AcDbArc
 50
0.0
 51
90.0
  0
ARC
  5
31A
100
AcDbEntity
  8
1
  6
CONTINUOUS
 62
           7
100
AcDbCircle
 10
200.400242577996
 20
121.049590653
 40
2.0
100
AcDbArc
 50
-160.000000000003
 51
-90.0
  0
ARC
  5
319
100
AcDbEntity
  8
1
  6
CONTINUOUS
 62
           7
100
AcDbCircle
 10
168.011739019876
 20
151.549590653
 40
2.0
100
AcDbArc
 50
-90.0
 51
39.022802565235
  0
ARC
  5
318
100
AcDbEntity
  8
1
  6
CONTINUOUS
 62
           7
100
AcDbCircle
 10
188.987915983278
 20
151.549590653
 40
2.0
100
AcDbArc
 50
140.977197434764
 51
-90.0
  0
ARC
  5
317
100
AcDbEntity
  8
1
  6
CONTINUOUS
 62
           7
100
AcDbCircle
 10
194.499827501577
 20
136.549590653
 40
2.0
100
AcDbArc
 50
-90.0
 51
0.0
  0
ARC
  5
316
100
AcDbEntity
  8
1
  6
CONTINUOUS
 62
           7
100
AcDbCircle
 10
194.499827501577
 20
147.549590653
 40
2.0
100
AcDbArc
 50
0.0
 51
90.0
  0
ARC
  5
315
100
AcDbEntity
  8
1
  6
CONTINUOUS
 62
           7
100
AcDbCircle
 10
194.687650551028
 20
125.049590653
 40
2.0
100
AcDbArc
 50
19.999999999998
 51
90.0
  0
ARC
  5
314
100
AcDbEntity
  8
1
  6
CONTINUOUS
 62
           7
100
AcDbCircle
 10
194.687650551028
 20
157.039971709766
 40
2.0
100
AcDbArc
 50
-90.0
 51
-19.999999999997
  0
ARC
  5
313
100
AcDbEntity
  8
2
  6
CONTINUOUS
 62
           7
100
AcDbCircle
 10
173.264969590308
 20
125.049590653
 40
2.0
100
AcDbArc
 50
90.0
 51
169.999999999999
  0
ARC
  5
312
100
AcDbEntity
  8
2
  6
CONTINUOUS
 62
           7
100
AcDbCircle
 10
148.734685412846
 20
125.049590653
 40
2.0
100
AcDbArc
 50
10.000000000002
 51
90.000000000002
  0
ARC
  5
311
100
AcDbEntity
  8
2
  6
CONTINUOUS
 62
           7
100
AcDbCircle
 10
168.321628239222
 20
120.049590653
 40
2.0
100
AcDbArc
 50
-90.0
 51
-10.000000000001
  0
ARC
  5
310
100
AcDbEntity
  8
2
  6
CONTINUOUS
 62
           7
100
AcDbCircle
 10
153.678026763932
 20
120.049590653
 40
2.0
100
AcDbArc
 50
-169.999999999999
 51
-90.0
  0
ARC
  5
30F
100
AcDbEntity
  8
1
  6
CONTINUOUS
 62
           7
100
AcDbCircle
 10
191.962739519413
 20
161.049590653
 40
2.0
100
AcDbArc
 50
90.000000000002
 51
-175.751977333275
  0
ARC
  5
30E
100
AcDbEntity
  8
1
  6
CONTINUOUS
 62
           7
100
AcDbCircle
 10
150.499827501577
 20
138.049590653
 40
1.5
100
AcDbArc
 50
180.0
 51
-90.0
  0
ARC
  5
30D
100
AcDbEntity
  8
1
  6
CONTINUOUS
 62
           7
100
AcDbCircle
 10
165.499827501577
 20
138.049590653
 40
1.5
100
AcDbArc
 50
-90.0
 51
0.0
  0
ARC
  5
30C
100
AcDbEntity
  8
1
  6
CONTINUOUS
 62
           7
100
AcDbCircle
 10
165.499827501577
 20
146.049590653
 40
1.5
100
AcDbArc
 50
0.0
 51
90.0
  0
ARC
  5
30B
100
AcDbEntity
  8
1
  6
CONTINUOUS
 62
           7
100
AcDbCircle
 10
148.999827501577
 20
136.549590653
 40
2.0
100
AcDbArc
 50
180.0
 51
-90.0
  0
ARC
  5
30A
100
AcDbEntity
  8
1
  6
CONTINUOUS
 62
           7
100
AcDbCircle
 10
201.499827501577
 20
167.049590653
 40
2.0
100
AcDbArc
 50
180.0
 51
-90.0
  0
ARC
  5
309
100
AcDbEntity
  8
1
  6
CONTINUOUS
 62
           7
100
AcDbCircle
 10
148.999827501577
 20
147.549590653
 40
2.0
100
AcDbArc
 50
90.0
 51
180.0
  0
ARC
  5
308
100
AcDbEntity
  8
1
  6
CONTINUOUS
 62
           7
100
AcDbCircle
 10
180.168080191405
 20
125.049590653
 40
2.0
100
AcDbArc
 50
0.0
 51
89.999999999994
  0
ARC
  5
307
100
AcDbEntity
  8
1
  6
CONTINUOUS
 62
           7
100
AcDbCircle
 10
184.168080191405
 20
121.049590653
 40
2.0
100
AcDbArc
 50
180.0
 51
-90.0
  0
ARC
  5
306
100
AcDbEntity
  8
1
  6
CONTINUOUS
 62
           7
100
AcDbCircle
 10
168.999827501577
 20
169.641253699625
 40
2.0
100
AcDbArc
 50
-45.275086845067
 51
0.0
  0
ARC
  5
305
100
AcDbEntity
  8
1
  6
CONTINUOUS
 62
           7
100
AcDbCircle
 10
168.999827501577
 20
171.004041803103
 40
2.0
100
AcDbArc
 50
-49.067275425846
 51
0.0
  0
ARC
  5
304
100
AcDbEntity
  8
1
  6
CONTINUOUS
 62
           7
100
AcDbCircle
 10
164.101147102259
 20
161.76073142988
 40
2.0
100
AcDbArc
 50
-80.537677791974
 51
-6.77725109857
  0
ARC
  5
303
100
AcDbEntity
  8
1
  6
CONTINUOUS
 62
           7
100
AcDbCircle
 10
232.999827501577
 20
126.799590653
 40
2.0
100
AcDbArc
 50
-90.0
 51
0.0
  0
ARC
  5
302
100
AcDbEntity
  8
1
  6
CONTINUOUS
 62
           7
100
AcDbCircle
 10
221.499827501577
 20
122.799590653
 40
2.0
100
AcDbArc
 50
90.0
 51
180.0
  0
ARC
  5
301
100
AcDbEntity
  8
1
  6
CONTINUOUS
 62
           7
100
AcDbCircle
 10
232.999827501577
 20
157.299590653
 40
2.0
100
AcDbArc
 50
0.0
 51
90.0
  0
ARC
  5
300
100
AcDbEntity
  8
1
  6
CONTINUOUS
 62
           7
100
AcDbCircle
 10
221.499827501577
 20
161.299590653
 40
2.0
100
AcDbArc
 50
180.0
 51
-90.0
  0
ARC
  5
2FF
100
AcDbEntity
  8
1
  6
CONTINUOUS
 62
           7
100
AcDbCircle
 10
221.499827501577
 20
319.476445220906
 40
2.0
100
AcDbArc
 50
180.0
 51
-90.0
  0
ARC
  5
2FE
100
AcDbEntity
  8
1
  6
CONTINUOUS
 62
           7
100
AcDbCircle
 10
232.999827501577
 20
315.476445220906
 40
2.0
100
AcDbArc
 50
0.0
 51
90.0
  0
ARC
  5
2FD
100
AcDbEntity
  8
1
  6
CONTINUOUS
 62
           7
100
AcDbCircle
 10
221.499827501577
 20
280.976445220906
 40
2.0
100
AcDbArc
 50
90.0
 51
180.0
  0
ARC
  5
2FC
100
AcDbEntity
  8
1
  6
CONTINUOUS
 62
           7
100
AcDbCircle
 10
232.999827501577
 20
284.976445220906
 40
2.0
100
AcDbArc
 50
-90.0
 51
0.0
  0
ARC
  5
2FB
100
AcDbEntity
  8
1
  6
CONTINUOUS
 62
           7
100
AcDbCircle
 10
174.473086522612
 20
313.726445220906
 40
3.0
100
AcDbArc
 50
90.0
 51
178.0
  0
ARC
  5
2FA
100
AcDbEntity
  8
1
  6
CONTINUOUS
 62
           7
100
AcDbCircle
 10
174.473086522612
 20
286.726445220906
 40
3.0
100
AcDbArc
 50
-177.999999999999
 51
-90.0
  0
ARC
  5
2F9
100
AcDbEntity
  8
1
  6
CONTINUOUS
 62
           7
100
AcDbCircle
 10
196.026568480542
 20
313.726445220906
 40
3.0
100
AcDbArc
 50
1.999999999999
 51
90.0
  0
ARC
  5
2F8
100
AcDbEntity
  8
1
  6
CONTINUOUS
 62
           7
100
AcDbCircle
 10
196.026568480542
 20
286.726445220906
 40
3.0
100
AcDbArc
 50
-90.0
 51
-2.0
  0
ARC
  5
2F7
100
AcDbEntity
  8
1
  6
CONTINUOUS
 62
           7
100
AcDbCircle
 10
148.946539872201
 20
285.287313402415
 40
2.0
100
AcDbArc
 50
90.0
 51
-177.999999999993
  0
ARC
  5
2F6
100
AcDbEntity
  8
1
  6
CONTINUOUS
 62
           7
100
AcDbCircle
 10
200.400242577996
 20
279.226445220906
 40
2.0
100
AcDbArc
 50
-159.999999999999
 51
-90.0
  0
ARC
  5
2F5
100
AcDbEntity
  8
1
  6
CONTINUOUS
 62
           7
100
AcDbCircle
 10
200.400242577996
 20
321.226445220906
 40
2.0
100
AcDbArc
 50
90.0
 51
159.999999999997
  0
ARC
  5
2F4
100
AcDbEntity
  8
1
  6
CONTINUOUS
 62
           7
100
AcDbCircle
 10
168.321628239222
 20
322.226445220906
 40
2.0
100
AcDbArc
 50
9.999999999998
 51
90.0
  0
ARC
  5
2F3
100
AcDbEntity
  8
1
  6
CONTINUOUS
 62
           7
100
AcDbCircle
 10
153.678026763932
 20
322.226445220906
 40
2.0
100
AcDbArc
 50
90.0
 51
170.000000000003
  0
ARC
  5
2F2
100
AcDbEntity
  8
1
  6
CONTINUOUS
 62
           7
100
AcDbCircle
 10
193.987443012818
 20
318.226445220906
 40
3.0
100
AcDbArc
 50
-31.050294133618
 51
-19.999999999998
  0
ARC
  5
2F1
100
AcDbEntity
  8
1
  6
CONTINUOUS
 62
           7
100
AcDbCircle
 10
148.734685412846
 20
317.226445220906
 40
2.0
100
AcDbArc
 50
-90.0
 51
-9.999999999994
  0
ARC
  5
2F0
100
AcDbEntity
  8
1
  6
CONTINUOUS
 62
           7
100
AcDbCircle
 10
173.264969590308
 20
317.226445220906
 40
2.0
100
AcDbArc
 50
-170.000000000001
 51
-165.522487814068
  0
SPLINE
  5
2EF
100
AcDbEntity
  8
1
  6
CONTINUOUS
 62
           2
100
AcDbSpline
210
0.0
220
0.0
230
1.0
 70
           0
 71
           4
 72
           8
 73
           4
 74
           3
 42
0.00000000001
 43
0.00000000001
 44
0.00000000001
 40
0.0
 40
0.0
 40
0.0
 40
0.0
 40
0.2164727277948924
 40
0.2164727277948924
 40
0.2164727277948924
 40
0.2164727277948924
 10
153.74159218411961
 20
144.2981414428159
 30
0.0
 10
153.68154758096739
 20
144.2584421275107
 30
0.0
 10
153.62961357031361
 20
144.2077300091193
 30
0.0
 10
153.58855294873541
 20
144.14870288173361
 30
0.0
 11
153.74159218411961
 21
144.2981414428159
 31
0.0
 11
153.65795357333724
 21
144.23067009180494
 31
0.0
 11
153.58855294873541
 21
144.14870288173361
 31
0.0
  0
SPLINE
  5
2EE
100
AcDbEntity
  8
1
  6
CONTINUOUS
 62
           2
100
AcDbSpline
210
0.0
220
0.0
230
1.0
 70
           0
 71
           4
 72
           8
 73
           4
 74
           3
 42
0.00000000001
 43
0.00000000001
 44
0.00000000001
 40
0.0
 40
0.0
 40
0.0
 40
0.0
 40
0.6035259207054993
 40
0.6035259207054993
 40
0.6035259207054993
 40
0.6035259207054993
 10
153.40530657107379
 20
146.04522961784289
 30
0.0
 10
153.20125232219101
 20
146.01106600324869
 30
0.0
 10
153.025836547159
 20
145.937974086271
 30
0.0
 10
152.85015779507259
 20
145.82925749840501
 30
0.0
 11
153.40530657107379
 21
146.04522961784289
 31
0.0
 11
153.11709137177456
 21
145.96520092310089
 31
0.0
 11
152.85015779507259
 21
145.82925749840501
 31
0.0
  0
SPLINE
  5
2ED
100
AcDbEntity
  8
1
  6
CONTINUOUS
 62
           2
100
AcDbSpline
210
0.0
220
0.0
230
1.0
 70
           0
 71
           4
 72
           8
 73
           4
 74
           3
 42
0.00000000001
 43
0.00000000001
 44
0.00000000001
 40
0.0
 40
0.0
 40
0.0
 40
0.0
 40
0.8909228496448634
 40
0.8909228496448634
 40
0.8909228496448634
 40
0.8909228496448634
 10
152.85015779507259
 20
145.82925749840501
 30
0.0
 10
152.61847135445731
 20
145.66370146314239
 30
0.0
 10
152.3890522090766
 20
145.45381770590919
 30
0.0
 10
152.22276493510969
 20
145.20988055113739
 30
0.0
 11
152.85015779507259
 21
145.82925749840501
 31
0.0
 11
152.51193667759799
 21
145.54896194458715
 31
0.0
 11
152.22276493510969
 21
145.20988055113739
 31
0.0
  0
SPLINE
  5
2EC
100
AcDbEntity
  8
1
  6
CONTINUOUS
 62
           2
100
AcDbSpline
210
0.0
220
0.0
230
1.0
 70
           0
 71
           4
 72
          14
 73
          10
 74
          15
 42
0.00000000001
 43
0.00000000001
 44
0.00000000001
 40
0.0
 40
0.0
 40
0.0
 40
0.0
 40
0.0564592462691417
 40
0.1126369547018741
 40
0.1409728276082862
 40
0.1970934069339481
 40
0.2253980856937211
 40
0.2814612358551805
 40
0.3377663210618939
 40
0.3377663210618939
 40
0.3377663210618939
 40
0.3377663210618939
 10
165.86363332887689
 20
145.7069841837687
 30
0.0
 10
165.89173335451491
 20
145.70723378908261
 30
0.0
 10
165.919520076688
 20
145.7128977621276
 30
0.0
 10
165.97140712343199
 20
145.73443074392159
 30
0.0
 10
165.9950184668746
 20
145.75009682684629
 30
0.0
 10
166.03497678343609
 20
145.78950307459229
 30
0.0
 10
166.05094719122809
 20
145.81287187675781
 30
0.0
 10
166.07311189233249
 20
145.864367535128
 30
0.0
 10
166.0790973065269
 20
145.8920090986305
 30
0.0
 10
166.07982750157669
 20
145.92002249750561
 30
0.0
 11
165.86363332887689
 21
145.7069841837687
 31
0.0
 11
165.89735526027712
 21
145.70933946015953
 31
0.0
 11
165.92302436296887
 21
145.71581156766001
 31
0.0
 11
165.95012992348197
 21
145.7259779528473
 31
0.0
 11
165.97417980632915
 21
145.73713937076576
 31
0.0
 11
165.98320146911036
 21
145.74250077717136
 31
0.0
 11
165.99212640108223
 21
145.74926504243945
 31
0.0
 11
166.01475002064601
 21
145.77006120361958
 31
0.0
 11
166.03585485104631
 21
145.79239217826535
 31
0.0
 11
166.04273184424628
 21
145.80121210410255
 31
0.0
 11
166.04820839367503
 21
145.81015114225181
 31
0.0
 11
166.05966334198405
 21
145.83400495519868
 31
0.0
 11
166.07015648889552
 21
145.86092030622149
 31
0.0
 11
166.07694629724364
 21
145.88643072244085
 31
0.0
 11
166.07982750157669
 21
145.92002249750561
 31
0.0
  0
SPLINE
  5
2EB
100
AcDbEntity
  8
1
  6
CONTINUOUS
 62
           2
100
AcDbSpline
210
0.0
220
0.0
230
1.0
 70
           0
 71
           4
 72
           8
 73
           4
 74
           3
 42
0.00000000001
 43
0.00000000001
 44
0.00000000001
 40
0.0
 40
0.0
 40
0.0
 40
0.0
 40
0.2805912870062199
 40
0.2805912870062199
 40
0.2805912870062199
 40
0.2805912870062199
 10
163.6374025682895
 20
146.04957859773521
 30
0.0
 10
163.54394916302471
 20
146.0509890276235
 30
0.0
 10
163.45055094883969
 20
146.04388117758259
 30
0.0
 10
163.35842234359831
 20
146.02816825770341
 30
0.0
 11
163.6374025682895
 21
146.04957859773521
 31
0.0
 11
163.49741565593513
 21
146.0452946838821
 31
0.0
 11
163.35842234359831
 21
146.02816825770341
 31
0.0
  0
SPLINE
  5
2EA
100
AcDbEntity
  8
1
  6
CONTINUOUS
 62
           2
100
AcDbSpline
210
0.0
220
0.0
230
1.0
 70
           0
 71
           4
 72
           8
 73
           4
 74
           3
 42
0.00000000001
 43
0.00000000001
 44
0.00000000001
 40
0.0
 40
0.0
 40
0.0
 40
0.0
 40
0.2122640267179339
 40
0.2122640267179339
 40
0.2122640267179339
 40
0.2122640267179339
 10
163.35842234359831
 20
146.02816825770341
 30
0.0
 10
163.28121893736281
 20
146.01280962418201
 30
0.0
 10
163.23430914241331
 20
145.98431914295151
 30
0.0
 10
163.1667971366752
 20
145.9439441781974
 30
0.0
 11
163.35842234359831
 21
146.02816825770341
 31
0.0
 11
163.2589754649502
 21
145.99543734216263
 31
0.0
 11
163.1667971366752
 21
145.9439441781974
 31
0.0
  0
SPLINE
  5
2E9
100
AcDbEntity
  8
1
  6
CONTINUOUS
 62
           2
100
AcDbSpline
210
0.0
220
0.0
230
1.0
 70
           0
 71
           4
 72
           8
 73
           4
 74
           3
 42
0.00000000001
 43
0.00000000001
 44
0.00000000001
 40
0.0
 40
0.0
 40
0.0
 40
0.0
 40
0.371201920935989
 40
0.371201920935989
 40
0.371201920935989
 40
0.371201920935989
 10
163.19203405196791
 20
145.12784033497019
 30
0.0
 10
163.29844816332519
 20
145.0762476550552
 30
0.0
 10
163.4140522660573
 20
145.0348599573085
 30
0.0
 10
163.54052179435141
 20
145.00412319328069
 30
0.0
 11
163.19203405196791
 21
145.12784033497019
 31
0.0
 11
163.35875714180835
 21
145.05816079566773
 31
0.0
 11
163.54052179435141
 21
145.00412319328069
 31
0.0
  0
SPLINE
  5
2E8
100
AcDbEntity
  8
1
  6
CONTINUOUS
 62
           2
100
AcDbSpline
210
0.0
220
0.0
230
1.0
 70
           0
 71
           4
 72
           8
 73
           4
 74
           3
 42
0.00000000001
 43
0.00000000001
 44
0.00000000001
 40
0.0
 40
0.0
 40
0.0
 40
0.0
 40
0.2731984847859955
 40
0.2731984847859955
 40
0.2731984847859955
 40
0.2731984847859955
 10
163.8041993820525
 20
144.93473374428919
 30
0.0
 10
163.71726743270401
 20
144.96450782691019
 30
0.0
 10
163.63211796374989
 20
144.98770969352429
 30
0.0
 10
163.54052179435141
 20
145.00412319328069
 30
0.0
 11
163.8041993820525
 21
144.93473374428919
 31
0.0
 11
163.6741096707207
 21
144.97443868735917
 31
0.0
 11
163.54052179435141
 21
145.00412319328069
 31
0.0
  0
SPLINE
  5
2E7
100
AcDbEntity
  8
1
  6
CONTINUOUS
 62
           2
100
AcDbSpline
210
0.0
220
0.0
230
1.0
 70
           0
 71
           4
 72
          10
 73
           6
 74
           7
 42
0.00000000001
 43
0.00000000001
 44
0.00000000001
 40
0.0
 40
0.0
 40
0.0
 40
0.0
 40
0.0484067221800877
 40
0.1009575145887976
 40
0.1494164860344974
 40
0.1494164860344974
 40
0.1494164860344974
 40
0.1494164860344974
 10
163.92768156879319
 20
144.85482217867931
 30
0.0
 10
163.91210144507011
 20
144.87326269184041
 30
0.0
 10
163.8940403505967
 20
144.88946816049079
 30
0.0
 10
163.84896879676381
 20
144.916489278489
 30
0.0
 10
163.82716288097711
 20
144.92717536700891
 30
0.0
 10
163.8041993820525
 20
144.93473374428919
 30
0.0
 11
163.92768156879319
 21
144.85482217867931
 31
0.0
 11
163.90828041161043
 21
144.87587293486038
 31
0.0
 11
163.89193264674896
 21
144.88927474115584
 31
0.0
 11
163.87138585439948
 21
144.90278700943415
 31
0.0
 11
163.8500794633182
 21
144.91517736432158
 31
0.0
 11
163.83107999947828
 21
144.92469793807911
 31
0.0
 11
163.8041993820525
 21
144.93473374428919
 31
0.0
  0
SPLINE
  5
2E6
100
AcDbEntity
  8
1
  6
CONTINUOUS
 62
           2
100
AcDbSpline
210
0.0
220
0.0
230
1.0
 70
           0
 71
           4
 72
           8
 73
           4
 74
           3
 42
0.00000000001
 43
0.00000000001
 44
0.00000000001
 40
0.0
 40
0.0
 40
0.0
 40
0.0
 40
0.1816045409926729
 40
0.1816045409926729
 40
0.1816045409926729
 40
0.1816045409926729
 10
163.72655898339781
 20
144.58801422294221
 30
0.0
 10
163.78792544728091
 20
144.5909004562173
 30
0.0
 10
163.84355940910541
 20
144.60800358645869
 30
0.0
 10
163.89882974509149
 20
144.6360224925329
 30
0.0
 11
163.72655898339781
 21
144.58801422294221
 31
0.0
 11
163.81498041220601
 21
144.60259360543785
 31
0.0
 11
163.89882974509149
 21
144.6360224925329
 31
0.0
  0
SPLINE
  5
2E5
100
AcDbEntity
  8
1
  6
CONTINUOUS
 62
           2
100
AcDbSpline
210
0.0
220
0.0
230
1.0
 70
           0
 71
           4
 72
           8
 73
           4
 74
           3
 42
0.00000000001
 43
0.00000000001
 44
0.00000000001
 40
0.0
 40
0.0
 40
0.0
 40
0.0
 40
0.2591955372816945
 40
0.2591955372816945
 40
0.2591955372816945
 40
0.2591955372816945
 10
163.7803041562654
 20
144.2324140985815
 30
0.0
 10
163.8664819306351
 20
144.2377758515847
 30
0.0
 10
163.9519838597403
 20
144.25101561752899
 30
0.0
 10
164.03573322620451
 20
144.27196666934529
 30
0.0
 11
163.7803041562654
 21
144.2324140985815
 31
0.0
 11
163.90892934419949
 21
144.24634439690848
 31
0.0
 11
164.03573322620451
 21
144.27196666934529
 31
0.0
  0
SPLINE
  5
2E4
100
AcDbEntity
  8
1
  6
CONTINUOUS
 62
           2
100
AcDbSpline
210
0.0
220
0.0
230
1.0
 70
           0
 71
           4
 72
           8
 73
           4
 74
           3
 42
0.00000000001
 43
0.00000000001
 44
0.00000000001
 40
0.0
 40
0.0
 40
0.0
 40
0.0
 40
0.2981658722917238
 40
0.2981658722917238
 40
0.2981658722917238
 40
0.2981658722917238
 10
164.03573322620451
 20
144.27196666934529
 30
0.0
 10
164.13207391522641
 20
144.2950923141083
 30
0.0
 10
164.22253237573599
 20
144.33796066713981
 30
0.0
 10
164.30135108647249
 20
144.39784323347541
 30
0.0
 11
164.03573322620451
 21
144.27196666934529
 31
0.0
 11
164.17511289819552
 21
144.32112110582062
 31
0.0
 11
164.30135108647249
 21
144.39784323347541
 31
0.0
  0
SPLINE
  5
2E3
100
AcDbEntity
  8
1
  6
CONTINUOUS
 62
           2
100
AcDbSpline
210
0.0
220
0.0
230
1.0
 70
           0
 71
           4
 72
          10
 73
           6
 74
           7
 42
0.00000000001
 43
0.00000000001
 44
0.00000000001
 40
0.0
 40
0.0
 40
0.0
 40
0.0
 40
0.0833923830026441
 40
0.1665523756386066
 40
0.2498559521791055
 40
0.2498559521791055
 40
0.2498559521791055
 40
0.2498559521791055
 10
164.30135108647249
 20
144.39784323347541
 30
0.0
 10
164.33358080471501
 20
144.42416442059229
 30
0.0
 10
164.36214270744711
 20
144.4546573218407
 30
0.0
 10
164.4104175258725
 20
144.52237088238221
 30
0.0
 10
164.4299145433146
 20
144.5592887080287
 30
0.0
 10
164.44425464302199
 20
144.59828953122721
 30
0.0
 11
164.30135108647249
 21
144.39784323347541
 31
0.0
 11
164.33860350980277
 21
144.43087551905126
 31
0.0
 11
164.36308953096915
 21
144.45837122343545
 31
0.0
 11
164.3860063215937
 21
144.48872683227032
 31
0.0
 11
164.40722886677256
 21
144.52028661963504
 31
0.0
 11
164.42521250220727
 21
144.55236048688857
 31
0.0
 11
164.44425464302199
 21
144.59828953122721
 31
0.0
  0
SPLINE
  5
2E2
100
AcDbEntity
  8
1
  6
CONTINUOUS
 62
           2
100
AcDbSpline
210
0.0
220
0.0
230
1.0
 70
           0
 71
           4
 72
          10
 73
           6
 74
           7
 42
0.00000000001
 43
0.00000000001
 44
0.00000000001
 40
0.0
 40
0.0
 40
0.0
 40
0.0
 40
0.0913295423893923
 40
0.1824955204906056
 40
0.2738147439858036
 40
0.2738147439858036
 40
0.2738147439858036
 40
0.2738147439858036
 10
164.44425464302199
 20
144.59828953122721
 30
0.0
 10
164.4573195033897
 20
144.6419708297305
 30
0.0
 10
164.4653110568365
 20
144.68700350163721
 30
0.0
 10
164.4708335267714
 20
144.77800206145531
 30
0.0
 10
164.46834618742989
 20
144.82366713211999
 30
0.0
 10
164.46065914300499
 20
144.86860080328151
 30
0.0
 11
164.44425464302199
 21
144.59828953122721
 31
0.0
 11
164.45805103838802
 21
144.6510849030193
 31
0.0
 11
164.46423856975335
 21
144.69095516489463
 31
0.0
 11
164.46774550192407
 21
144.73252427739155
 31
0.0
 11
164.46929107046151
 21
144.774212076933
 31
0.0
 11
164.46797018503042
 21
144.81453256809743
 31
0.0
 11
164.46065914300499
 21
144.86860080328151
 31
0.0
  0
SPLINE
  5
2E1
100
AcDbEntity
  8
1
  6
CONTINUOUS
 62
           2
100
AcDbSpline
210
0.0
220
0.0
230
1.0
 70
           0
 71
           4
 72
          10
 73
           6
 74
           7
 42
0.00000000001
 43
0.00000000001
 44
0.00000000001
 40
0.0
 40
0.0
 40
0.0
 40
0.0
 40
0.1247784492142469
 40
0.2490324040145287
 40
0.3739838457388625
 40
0.3739838457388625
 40
0.3739838457388625
 40
0.3739838457388625
 10
164.46065914300499
 20
144.86860080328151
 30
0.0
 10
164.45240947377329
 20
144.93013437375561
 30
0.0
 10
164.4321138443191
 20
144.98945272644019
 30
0.0
 10
164.36973787780559
 20
145.09691566928569
 30
0.0
 10
164.32826491465099
 20
145.14401385983371
 30
0.0
 10
164.27886430063151
 20
145.1818017017616
 30
0.0
 11
164.46065914300499
 21
144.86860080328151
 31
0.0
 11
164.44641839298382
 21
144.94140282413736
 31
0.0
 11
164.42673872023349
 21
144.99265062008624
 31
0.0
 11
164.40028217452502
 21
145.04277858197571
 31
0.0
 11
164.36987695043922
 21
145.09062197490982
 31
0.0
 11
164.3350892872767
 21
145.13320772739371
 31
0.0
 11
164.27886430063151
 21
145.1818017017616
 31
0.0
  0
SPLINE
  5
2E0
100
AcDbEntity
  8
1
  6
CONTINUOUS
 62
           2
100
AcDbSpline
210
0.0
220
0.0
230
1.0
 70
           0
 71
           4
 72
           8
 73
           4
 74
           3
 42
0.00000000001
 43
0.00000000001
 44
0.00000000001
 40
0.0
 40
0.0
 40
0.0
 40
0.0
 40
0.406100822143233
 40
0.406100822143233
 40
0.406100822143233
 40
0.406100822143233
 10
164.27886430063151
 20
145.1818017017616
 30
0.0
 10
164.1660427224395
 20
145.2557024493058
 30
0.0
 10
164.03961330738531
 20
145.30650639955539
 30
0.0
 10
163.9069271178779
 20
145.33125962751791
 30
0.0
 11
164.27886430063151
 21
145.1818017017616
 31
0.0
 11
164.10034493849798
 21
145.2749609844829
 31
0.0
 11
163.9069271178779
 21
145.33125962751791
 31
0.0
  0
SPLINE
  5
2DF
100
AcDbEntity
  8
1
  6
CONTINUOUS
 62
           2
100
AcDbSpline
210
0.0
220
0.0
230
1.0
 70
           0
 71
           4
 72
           8
 73
           4
 74
           3
 42
0.00000000001
 43
0.00000000001
 44
0.00000000001
 40
0.0
 40
0.0
 40
0.0
 40
0.0
 40
0.3777710516529619
 40
0.3777710516529619
 40
0.3777710516529619
 40
0.3777710516529619
 10
163.54396453590971
 20
145.4338631749842
 30
0.0
 10
163.6575174283675
 20
145.39255676646539
 30
0.0
 10
163.78138525977039
 20
145.35829833678639
 30
0.0
 10
163.9069271178779
 20
145.33125962751791
 30
0.0
 11
163.54396453590971
 21
145.4338631749842
 31
0.0
 11
163.72094996477517
 21
145.37721101403218
 31
0.0
 11
163.9069271178779
 21
145.33125962751791
 31
0.0
  0
SPLINE
  5
2DE
100
AcDbEntity
  8
1
  6
CONTINUOUS
 62
           2
100
AcDbSpline
210
0.0
220
0.0
230
1.0
 70
           0
 71
           4
 72
          10
 73
           6
 74
           7
 42
0.00000000001
 43
0.00000000001
 44
0.00000000001
 40
0.0
 40
0.0
 40
0.0
 40
0.0
 40
0.0389065296319295
 40
0.0776733655415051
 40
0.1166393438094464
 40
0.1166393438094464
 40
0.1166393438094464
 40
0.1166393438094464
 10
163.4602207460149
 20
145.51010969179029
 30
0.0
 10
163.46875656251879
 20
145.4927292135643
 30
0.0
 10
163.48049755012849
 20
145.4771060512966
 30
0.0
 10
163.5091629481245
 20
145.4510069608111
 30
0.0
 10
163.5258313484326
 20
145.4407641230321
 30
0.0
 10
163.54396453590971
 20
145.4338631749842
 30
0.0
 11
163.4602207460149
 21
145.51010969179029
 31
0.0
 11
163.47159569743638
 21
145.48995565237533
 31
0.0
 11
163.48236230311352
 21
145.47663713606335
 31
0.0
 11
163.49497603334436
 21
145.46423076181233
 31
0.0
 11
163.50850829934561
 21
145.4528300156291
 31
0.0
 11
163.52279928395714
 21
145.4433351933624
 31
0.0
 11
163.54396453590971
 21
145.4338631749842
 31
0.0
  0
SPLINE
  5
2DD
100
AcDbEntity
  8
1
  6
CONTINUOUS
 62
           2
100
AcDbSpline
210
0.0
220
0.0
230
1.0
 70
           0
 71
           4
 72
          14
 73
          10
 74
          15
 42
0.00000000001
 43
0.00000000001
 44
0.00000000001
 40
0.0
 40
0.0
 40
0.0
 40
0.0
 40
0.0301407653943009
 40
0.0601172095232411
 40
0.0752372837984748
 40
0.1051879316506923
 40
0.1202998919156704
 40
0.1502465554791002
 40
0.180346285635805
 40
0.180346285635805
 40
0.180346285635805
 40
0.180346285635805
 10
163.50135690406691
 20
145.66665179057819
 30
0.0
 10
163.48849380580751
 20
145.6589264128275
 30
0.0
 10
163.47725309380789
 20
145.64878998665549
 30
0.0
 10
163.4592586838306
 20
145.6248152413558
 30
0.0
 10
163.452675190028
 20
145.61120369275031
 30
0.0
 10
163.4450631845111
 20
145.58223649269959
 30
0.0
 10
163.44410667266339
 20
145.567154834033
 30
0.0
 10
163.4479983375025
 20
145.53746211433
 30
0.0
 10
163.45280970400191
 20
145.5231319085631
 30
0.0
 10
163.4602207460149
 20
145.51010969179029
 30
0.0
 11
163.50135690406691
 21
145.66665179057819
 31
0.0
 11
163.48648078712591
 21
145.65643236836146
 31
0.0
 11
163.47643371326421
 21
145.64649487817942
 31
0.0
 11
163.4667393452836
 21
145.63447099315411
 31
0.0
 11
163.45872315755815
 21
145.6228166431747
 31
0.0
 11
163.45603719976344
 21
145.61790393950074
 31
0.0
 11
163.45377960788943
 21
145.61237210677658
 31
0.0
 11
163.44905524785386
 21
145.59666927768262
 31
0.0
 11
163.44545033014464
 21
145.58067327466961
 31
0.0
 11
163.44469783232205
 21
145.57474989142082
 31
0.0
 11
163.44462290933029
 21
145.56915427978947
 31
0.0
 11
163.44587794417671
 21
145.5550784272435
 31
0.0
 11
163.44841379298336
 21
145.5398586928797
 31
0.0
 11
163.45228216449982
 21
145.52628874240307
 31
0.0
 11
163.4602207460149
 21
145.51010969179029
 31
0.0
  0
SPLINE
  5
2DC
100
AcDbEntity
  8
1
  6
CONTINUOUS
 62
           2
100
AcDbSpline
210
0.0
220
0.0
230
1.0
 70
           0
 71
           4
 72
          10
 73
           6
 74
           7
 42
0.00000000001
 43
0.00000000001
 44
0.00000000001
 40
0.0
 40
0.0
 40
0.0
 40
0.0
 40
0.0419740503970434
 40
0.0917690534058132
 40
0.1416484236281688
 40
0.1416484236281688
 40
0.1416484236281688
 40
0.1416484236281688
 10
163.63626767520239
 20
145.7032465125358
 30
0.0
 10
163.6113659835292
 20
145.70338960391439
 30
0.0
 10
163.5945693813884
 20
145.7003358272944
 30
0.0
 10
163.5463303647953
 20
145.68798513489381
 30
0.0
 10
163.52310851384399
 20
145.67873958183631
 30
0.0
 10
163.50135690406691
 20
145.66665179057819
 30
0.0
 11
163.63626767520239
 21
145.7032465125358
 31
0.0
 11
163.60929906894609
 21
145.7023693549387
 31
0.0
 11
163.59297666061224
 21
145.6995609844918
 31
0.0
 11
163.57159846443807
 21
145.69430572262169
 31
0.0
 11
163.54903523819542
 21
145.68785405407419
 31
0.0
 11
163.52798818565023
 21
145.68010292547544
 31
0.0
 11
163.50135690406691
 21
145.66665179057819
 31
0.0
  0
SPLINE
  5
2DB
100
AcDbEntity
  8
1
  6
CONTINUOUS
 62
           2
100
AcDbSpline
210
0.0
220
0.0
230
1.0
 70
           0
 71
           4
 72
          12
 73
           8
 74
          11
 42
0.00000000001
 43
0.00000000001
 44
0.00000000001
 40
0.0
 40
0.0
 40
0.0
 40
0.0
 40
0.0750113688747188
 40
0.1496956023173266
 40
0.1874493453074215
 40
0.2622121113318922
 40
0.327385340412866
 40
0.327385340412866
 40
0.327385340412866
 40
0.327385340412866
 10
158.5366949826066
 20
145.8813558839791
 30
0.0
 10
158.52244053266321
 20
145.91582642435611
 30
0.0
 10
158.501239784907
 20
145.94701226808471
 30
0.0
 10
158.44757262184461
 20
145.99895040757531
 30
0.0
 10
158.4156772061846
 20
146.01915009989071
 30
0.0
 10
158.34571478244109
 20
146.04550783969449
 30
0.0
 10
158.30839214981791
 20
146.05138545014759
 30
0.0
 10
158.2810653080013
 20
146.0495172891159
 30
0.0
 11
158.5366949826066
 21
145.8813558839791
 31
0.0
 11
158.51690287073336
 21
145.92160749860855
 31
0.0
 11
158.49575540510332
 21
145.9496645657633
 31
0.0
 11
158.46911771011031
 21
145.97741415041256
 31
0.0
 11
158.44274987815282
 21
146.00079077547255
 31
0.0
 11
158.43146161649256
 21
146.00884196786757
 31
0.0
 11
158.41915342836347
 21
146.01566886698822
 31
0.0
 11
158.38534124987123
 21
146.03001547968586
 31
0.0
 11
158.3470126842121
 21
146.04268302149114
 31
0.0
 11
158.31632229634681
 21
146.04903759591753
 31
0.0
 11
158.2810653080013
 21
146.0495172891159
 31
0.0
  0
SPLINE
  5
2DA
100
AcDbEntity
  8
1
  6
CONTINUOUS
 62
           2
100
AcDbSpline
210
0.0
220
0.0
230
1.0
 70
           0
 71
           4
 72
          14
 73
          10
 74
          15
 42
0.00000000001
 43
0.00000000001
 44
0.00000000001
 40
0.0
 40
0.0
 40
0.0
 40
0.0
 40
0.00506241818618
 40
0.0101102892351101
 40
0.0126530698258641
 40
0.0177057936986129
 40
0.0202508520954195
 40
0.0253072705454026
 40
0.0303822488411537
 40
0.0303822488411537
 40
0.0303822488411537
 40
0.0303822488411537
 10
158.0584671982561
 20
144.6052151569499
 30
0.0
 10
158.05921195451441
 20
144.60280565499281
 30
0.0
 10
158.0603565040565
 20
144.60053764832699
 30
0.0
 10
158.06335002972469
 20
144.5964731918811
 30
0.0
 10
158.0651778444329
 20
144.59470547399491
 30
0.0
 10
158.06934360967421
 20
144.5918460302573
 30
0.0
 10
158.07165211215531
 20
144.5907745179905
 30
0.0
 10
158.07652842363751
 20
144.58943700018881
 30
0.0
 10
158.07906176169109
 20
144.58918044964989
 30
0.0
 10
158.08158496883269
 20
144.5893467725181
 30
0.0
 11
158.0584671982561
 21
144.6052151569499
 31
0.0
 11
158.05951613962137
 21
144.60236636863732
 31
0.0
 11
158.06067089707147
 21
144.60028876715506
 31
0.0
 11
158.06215157816374
 21
144.59814633274902
 31
0.0
 11
158.06363380202509
 21
144.59627747049456
 31
0.0
 11
158.06428211801494
 21
144.59559386017668
 31
0.0
 11
158.06504162429607
 21
144.59493537781631
 31
0.0
 11
158.06727619599451
 21
144.59329921438925
 31
0.0
 11
158.06960638852172
 21
144.59180189764876
 31
0.0
 11
158.07049472913818
 21
144.59132923719909
 31
0.0
 11
158.07136630109753
 21
144.59096941666988
 31
0.0
 11
158.07364623298054
 21
144.59025576312726
 31
0.0
 11
158.076181543845
 21
144.58964132328467
 31
0.0
 11
158.07854126430729
 21
144.58930704055976
 31
0.0
 11
158.08158496883269
 21
144.5893467725181
 31
0.0
  0
SPLINE
  5
2D9
100
AcDbEntity
  8
1
  6
CONTINUOUS
 62
           2
100
AcDbSpline
210
0.0
220
0.0
230
1.0
 70
           0
 71
           4
 72
          14
 73
          10
 74
          15
 42
0.00000000001
 43
0.00000000001
 44
0.00000000001
 40
0.0
 40
0.0
 40
0.0
 40
0.0
 40
0.0413756081659797
 40
0.0825134789933052
 40
0.1032764460849508
 40
0.1443858648127772
 40
0.1651428554332209
 40
0.2062589110837616
 40
0.2476049454751403
 40
0.2476049454751403
 40
0.2476049454751403
 40
0.2476049454751403
 10
163.89882974509149
 20
144.6360224925329
 30
0.0
 10
163.915313445756
 20
144.64836444201171
 30
0.0
 10
163.92916030271189
 20
144.66386338480979
 30
0.0
 10
163.9499564762491
 20
144.69935766015689
 30
0.0
 10
163.9566967137045
 20
144.71899614282469
 30
0.0
 10
163.96207104674559
 20
144.75975274784159
 30
0.0
 10
163.96065111023481
 20
144.78046111426491
 30
0.0
 10
163.9497635503908
 20
144.82010945688981
 30
0.0
 10
163.940405387651
 20
144.83865081933709
 30
0.0
 10
163.92768156879319
 20
144.85482217867931
 30
0.0
 11
163.89882974509149
 21
144.6360224925329
 31
0.0
 11
163.91767960502764
 21
144.65208325023644
 31
0.0
 11
163.92989629193852
 21
144.66714145990034
 31
0.0
 11
163.94125519404412
 21
144.68502917964835
 31
0.0
 11
163.95034298282977
 21
144.70217624939954
 31
0.0
 11
163.95320885031296
 21
144.70930993707253
 31
0.0
 11
163.95536266472141
 21
144.71722556540803
 31
0.0
 11
163.95911356858005
 21
144.73941146921561
 31
0.0
 11
163.96124143641399
 21
144.76181067270755
 31
0.0
 11
163.96121268864295
 21
144.77001124778485
 31
0.0
 11
163.9602933272561
 21
144.77764172703516
 31
0.0
 11
163.95595952842825
 21
144.79654793738931
 31
0.0
 11
163.94962371457055
 21
144.81675594698305
 31
0.0
 11
163.94172675023577
 21
144.83444917911646
 31
0.0
 11
163.92768156879319
 21
144.85482217867931
 31
0.0
  0
SPLINE
  5
2D8
100
AcDbEntity
  8
1
  6
CONTINUOUS
 62
           2
100
AcDbSpline
210
0.0
220
0.0
230
1.0
 70
           0
 71
           4
 72
          12
 73
           8
 74
          11
 42
0.00000000001
 43
0.00000000001
 44
0.00000000001
 40
0.0
 40
0.0
 40
0.0
 40
0.0
 40
0.0686475031560853
 40
0.1370007162236141
 40
0.1715469590600446
 40
0.2399740215672927
 40
0.3089236150935501
 40
0.3089236150935501
 40
0.3089236150935501
 40
0.3089236150935501
 10
165.00703886851699
 20
143.71142907741299
 30
0.0
 10
164.99516163153231
 20
143.7434375847935
 30
0.0
 10
164.9768849131583
 20
143.7727062514079
 30
0.0
 10
164.9297517194363
 20
143.82221002688229
 30
0.0
 10
164.90138637224931
 20
143.8419293061053
 30
0.0
 10
164.8385023700944
 20
143.86890828229701
 30
0.0
 10
164.80463896680581
 20
143.87649422087529
 30
0.0
 10
164.77041005174561
 20
143.87760413972231
 30
0.0
 11
165.00703886851699
 21
143.71142907741299
 31
0.0
 11
164.99031479149374
 21
143.74892481952531
 31
0.0
 11
164.97198364189811
 21
143.77534666244136
 31
0.0
 11
164.9486507652723
 21
143.80171333995204
 31
0.0
 11
164.9254209439203
 21
143.82408914024288
 31
0.0
 11
164.91544341709874
 21
143.8318745141419
 31
0.0
 11
164.9046754375893
 21
143.83851447361971
 31
0.0
 11
164.87560640303491
 21
143.85252385668937
 31
0.0
 11
164.84275856092972
 21
143.8653598372731
 31
0.0
 11
164.811498840577
 21
143.87381338914221
 31
0.0
 11
164.77041005174561
 21
143.87760413972231
 31
0.0
  0
SPLINE
  5
2D7
100
AcDbEntity
  8
1
  6
CONTINUOUS
 62
           2
100
AcDbSpline
210
0.0
220
0.0
230
1.0
 70
           0
 71
           4
 72
           8
 73
           4
 74
           3
 42
0.00000000001
 43
0.00000000001
 44
0.00000000001
 40
0.0
 40
0.0
 40
0.0
 40
0.0
 40
0.0614642794095452
 40
0.0614642794095452
 40
0.0614642794095452
 40
0.0614642794095452
 10
153.46648863621951
 20
146.0498092397992
 30
0.0
 10
153.4459937423587
 20
146.04984506754471
 30
0.0
 10
153.42553261608629
 20
146.04818772633081
 30
0.0
 10
153.40530657107379
 20
146.04522961784289
 30
0.0
 11
153.46648863621951
 21
146.0498092397992
 31
0.0
 11
153.43579678532853
 21
146.04864215490858
 31
0.0
 11
153.40530657107379
 21
146.04522961784289
 31
0.0
  0
SPLINE
  5
2D6
100
AcDbEntity
  8
1
  6
CONTINUOUS
 62
           2
100
AcDbSpline
210
0.0
220
0.0
230
1.0
 70
           0
 71
           4
 72
          10
 73
           6
 74
           7
 42
0.00000000001
 43
0.00000000001
 44
0.00000000001
 40
0.0
 40
0.0
 40
0.0
 40
0.0
 40
0.0796340388614646
 40
0.1590760000573671
 40
0.2386636604640889
 40
0.2386636604640889
 40
0.2386636604640889
 40
0.2386636604640889
 10
153.9684071731262
 20
144.3601532634494
 30
0.0
 10
153.9286779052108
 20
144.3601539348366
 30
0.0
 10
153.88912776655619
 20
144.35484570761781
 30
0.0
 10
153.81249818930209
 20
144.3338949775945
 30
0.0
 10
153.77576425416279
 20
144.31834693635409
 30
0.0
 10
153.74159218411961
 20
144.2981414428159
 30
0.0
 11
153.9684071731262
 21
144.3601532634494
 31
0.0
 11
153.92090867605808
 21
144.35822187269738
 31
0.0
 11
153.88619164478112
 21
144.3526700641342
 31
0.0
 11
153.85089312266877
 21
144.34404892928293
 31
0.0
 11
153.8161201422559
 21
144.33351152828078
 31
0.0
 11
153.78343115452705
 21
144.32063475227602
 31
0.0
 11
153.74159218411961
 21
144.2981414428159
 31
0.0
  0
SPLINE
  5
2D5
100
AcDbEntity
  8
1
  6
CONTINUOUS
 62
           2
100
AcDbSpline
210
0.0
220
0.0
230
1.0
 70
           0
 71
           4
 72
          14
 73
          10
 74
          15
 42
0.00000000001
 43
0.00000000001
 44
0.00000000001
 40
0.0
 40
0.0
 40
0.0
 40
0.0
 40
0.0612811165240036
 40
0.1181344595814076
 40
0.1469158583328273
 40
0.2038985262925702
 40
0.2326476780674152
 40
0.2881517985621125
 40
0.3453279067500831
 40
0.3453279067500831
 40
0.3453279067500831
 40
0.3453279067500831
 10
163.74644234777011
 20
143.52609172156511
 30
0.0
 10
163.77497549354231
 20
143.52619436440551
 30
0.0
 10
163.80724657204871
 20
143.53176167871649
 30
0.0
 10
163.8599967260443
 20
143.5529683727126
 30
0.0
 10
163.88396962851289
 20
143.5688953580306
 30
0.0
 10
163.92437291219511
 20
143.60907743258511
 30
0.0
 10
163.94040795660229
 20
143.63293934949539
 30
0.0
 10
163.95830336122489
 20
143.6854794473758
 30
0.0
 10
163.96395935741779
 20
143.7136435353377
 30
0.0
 10
163.96399564751951
 20
143.74209321887099
 30
0.0
 11
163.74644234777011
 21
143.52609172156511
 31
0.0
 11
163.78221279090837
 21
143.52837283973417
 31
0.0
 11
163.81118608196454
 21
143.53506083735911
 31
0.0
 11
163.83884890952677
 21
143.54488898894587
 31
0.0
 11
163.86286821897642
 21
143.55578732206146
 31
0.0
 11
163.87196444570074
 21
143.56117395850089
 31
0.0
 11
163.88101349855685
 21
143.56805648129784
 31
0.0
 11
163.90391833458133
 21
143.58926278009483
 31
0.0
 11
163.92527142321836
 21
143.61209344174026
 31
0.0
 11
163.93220193815213
 21
143.62116239865122
 31
0.0
 11
163.9374978805395
 21
143.63040599615383
 31
0.0
 11
163.94735571938989
 21
143.65443953727333
 31
0.0
 11
163.95600471758365
 21
143.68153520142178
 31
0.0
 11
163.96189332836471
 21
143.70782707973137
 31
0.0
 11
163.96399564751951
 21
143.74209321887099
 31
0.0
  0
SPLINE
  5
2D4
100
AcDbEntity
  8
1
  6
CONTINUOUS
 62
           2
100
AcDbSpline
210
0.0
220
0.0
230
1.0
 70
           0
 71
           4
 72
          12
 73
           8
 74
          11
 42
0.00000000001
 43
0.00000000001
 44
0.00000000001
 40
0.0
 40
0.0
 40
0.0
 40
0.0
 40
0.0687458115915766
 40
0.1371959428991185
 40
0.171792190296898
 40
0.2453502695085044
 40
0.3142529768179648
 40
0.3142529768179648
 40
0.3142529768179648
 40
0.3142529768179648
 10
161.95971646754859
 20
143.70169319540571
 30
0.0
 10
161.9478775094851
 20
143.7337674888027
 30
0.0
 10
161.92961633118489
 20
143.76310464494571
 30
0.0
 10
161.88247303392771
 20
143.81273256047459
 30
0.0
 10
161.85408355817441
 20
143.83250471261999
 30
0.0
 10
161.79112568413001
 20
143.87054544228059
 30
0.0
 10
161.75721518994359
 20
143.87754380198331
 30
0.0
 10
161.72293762688491
 20
143.8775878499028
 30
0.0
 11
161.95971646754859
 21
143.70169319540571
 31
0.0
 11
161.94302996669626
 21
143.73926897502142
 31
0.0
 11
161.92470901041753
 21
143.76575309799173
 31
0.0
 11
161.90140179110264
 21
143.79216602073063
 31
0.0
 11
161.87835124361396
 21
143.81446772286552
 31
0.0
 11
161.86858437673655
 21
143.82221815662888
 31
0.0
 11
161.8581906592712
 21
143.82928132651747
 31
0.0
 11
161.82804365555603
 21
143.84769634966131
 31
0.0
 11
161.79393482362644
 21
143.8652512498758
 31
0.0
 11
161.76367089088461
 21
143.87474342669321
 31
0.0
 11
161.72293762688491
 21
143.8775878499028
 31
0.0
  0
SPLINE
  5
2D3
100
AcDbEntity
  8
1
  6
CONTINUOUS
 62
           2
100
AcDbSpline
210
0.0
220
0.0
230
1.0
 70
           0
 71
           4
 72
          14
 73
          10
 74
          15
 42
0.00000000001
 43
0.00000000001
 44
0.00000000001
 40
0.0
 40
0.0
 40
0.0
 40
0.0
 40
0.058139080101125
 40
0.1160950970673106
 40
0.1428570589605169
 40
0.2008697734753867
 40
0.2301038847025086
 40
0.288165645496428
 40
0.3493297595279098
 40
0.3493297595279098
 40
0.3493297595279098
 40
0.3493297595279098
 10
160.5559199214035
 20
143.6649779043762
 30
0.0
 10
160.55033297345869
 20
143.69339259188871
 30
0.0
 10
160.53987454619039
 20
143.72063435610099
 30
0.0
 10
160.51013395824421
 20
143.77037767053821
 30
0.0
 10
160.495084281103
 20
143.79250705874301
 30
0.0
 10
160.4502614751473
 20
143.8293362742063
 30
0.0
 10
160.4248336696468
 20
143.84376055812851
 30
0.0
 10
160.37018018624789
 20
143.86336068105811
 30
0.0
 10
160.34136340622459
 20
143.8775565781452
 30
0.0
 10
160.31232298820569
 20
143.87759389614229
 30
0.0
 11
160.5559199214035
 21
143.6649779043762
 31
0.0
 11
160.547328116937
 21
143.69878049820005
 31
0.0
 11
160.53641955110731
 21
143.72398344980917
 31
0.0
 11
160.52182022632883
 21
143.75042218821739
 31
0.0
 11
160.50771341054303
 21
143.77358111776337
 31
0.0
 11
160.50241684811354
 21
143.78141125762204
 31
0.0
 11
160.49594872157326
 21
143.7890811270355
 31
0.0
 11
160.47278303098832
 21
143.81027704760336
 31
0.0
 11
160.44736246471624
 21
143.83000105238247
 31
0.0
 11
160.43758262749495
 21
143.83631207090522
 31
0.0
 11
160.42798737277701
 21
143.84121962382164
 31
0.0
 11
160.40289875566759
 21
143.85156520432795
 31
0.0
 11
160.3748973427457
 21
143.86258477119392
 31
0.0
 11
160.34746883650672
 21
143.87295877594656
 31
0.0
 11
160.31232298820569
 21
143.87759389614229
 31
0.0
  0
SPLINE
  5
2D2
100
AcDbEntity
  8
1
  6
CONTINUOUS
 62
           2
100
AcDbSpline
210
0.0
220
0.0
230
1.0
 70
           0
 71
           4
 72
          12
 73
           8
 74
          11
 42
0.00000000001
 43
0.00000000001
 44
0.00000000001
 40
0.0
 40
0.0
 40
0.0
 40
0.0
 40
0.0773553175136238
 40
0.1542646059997092
 40
0.1931138015070981
 40
0.2699372184664252
 40
0.3471123310589467
 40
0.3471123310589467
 40
0.3471123310589467
 40
0.3471123310589467
 10
160.86086876049291
 20
142.04978824411759
 30
0.0
 10
160.8993399075288
 20
142.0494623181909
 30
0.0
 10
160.9374560765844
 20
142.05714535183239
 30
0.0
 10
161.00810179601899
 20
142.08754635479289
 30
0.0
 10
161.03985446566631
 20
142.10993000869121
 30
0.0
 10
161.0921569215831
 20
142.16619980963611
 30
0.0
 10
161.1121315453297
 20
142.19946716584201
 30
0.0
 10
161.12465176720909
 20
142.23573883007279
 30
0.0
 11
160.86086876049291
 21
142.04978824411759
 31
0.0
 11
160.90705249542677
 21
142.05243276964953
 31
0.0
 11
160.9421721948475
 21
142.06134213225641
 31
0.0
 11
160.979107800723
 21
142.07562946320235
 31
0.0
 11
161.01175716883023
 21
142.0914329371748
 31
0.0
 11
161.02383114285456
 21
142.09896235503763
 31
0.0
 11
161.0349807137716
 21
142.10780687031922
 31
0.0
 11
161.06080876803824
 21
142.13323018505471
 31
0.0
 11
161.08663851849559
 21
142.16319377581232
 31
0.0
 11
161.10675614952527
 21
142.19321507558223
 31
0.0
 11
161.12465176720909
 21
142.23573883007279
 31
0.0
  0
SPLINE
  5
2D1
100
AcDbEntity
  8
1
  6
CONTINUOUS
 62
           2
100
AcDbSpline
210
0.0
220
0.0
230
1.0
 70
           0
 71
           4
 72
          12
 73
           8
 74
          11
 42
0.00000000001
 43
0.00000000001
 44
0.00000000001
 40
0.0
 40
0.0
 40
0.0
 40
0.0
 40
0.0575009882642947
 40
0.1147280377543121
 40
0.1436796145671998
 40
0.2009724575516848
 40
0.2586105539164101
 40
0.2586105539164101
 40
0.2586105539164101
 40
0.2586105539164101
 10
159.2917093550258
 20
143.7352493213518
 30
0.0
 10
159.28329179603151
 20
143.7625658198389
 30
0.0
 10
159.2691437983442
 20
143.7877853563765
 30
0.0
 10
159.23126523512499
 20
143.8306823217911
 30
0.0
 10
159.20796741078911
 20
143.8478696770608
 30
0.0
 10
159.1557477310119
 20
143.87144031348009
 30
0.0
 10
159.1274224559254
 20
143.87755431341819
 30
0.0
 10
159.09876199879179
 20
143.87759114315159
 30
0.0
 11
159.2917093550258
 21
143.7352493213518
 31
0.0
 11
159.27940671720691
 21
143.76733483188605
 31
0.0
 11
159.26506627522059
 21
143.79011478399588
 31
0.0
 11
159.2464215211925
 21
143.81292748328354
 31
0.0
 11
159.22765842059971
 21
143.83233092302797
 31
0.0
 11
159.21950112325058
 21
143.83910820203278
 31
0.0
 11
159.21062057574437
 21
143.84490234213592
 31
0.0
 11
159.186524940612
 21
143.8571198149719
 31
0.0
 11
159.15919968996093
 21
143.86822436485883
 31
0.0
 11
159.1331389963668
 21
143.87524285485773
 31
0.0
 11
159.09876199879179
 21
143.87759114315159
 31
0.0
  0
SPLINE
  5
2D0
100
AcDbEntity
  8
1
  6
CONTINUOUS
 62
           2
100
AcDbSpline
210
0.0
220
0.0
230
1.0
 70
           0
 71
           4
 72
          14
 73
          10
 74
          15
 42
0.00000000001
 43
0.00000000001
 44
0.00000000001
 40
0.0
 40
0.0
 40
0.0
 40
0.0
 40
0.064071108119808
 40
0.1278874279031227
 40
0.1600197117677712
 40
0.2237819690770374
 40
0.2558830948808092
 40
0.3195829645819018
 40
0.3834849174092103
 40
0.3834849174092103
 40
0.3834849174092103
 40
0.3834849174092103
 10
159.69925249704411
 20
142.04980787433911
 30
0.0
 10
159.73117091321299
 20
142.0496699834018
 30
0.0
 10
159.76287350516461
 20
142.05502928465751
 30
0.0
 10
159.8230513188924
 20
142.07626965672651
 30
0.0
 10
159.85107478065279
 20
142.09199127424259
 30
0.0
 10
159.90051953964851
 20
142.13225094718001
 30
0.0
 10
159.92156965083171
 20
142.15648676977889
 30
0.0
 10
159.95446901347759
 20
142.2110331293039
 30
0.0
 10
159.9660712865996
 20
142.2409341820246
 30
0.0
 10
159.9723145730467
 20
142.27214468201601
 30
0.0
 11
159.69925249704411
 21
142.04980787433911
 31
0.0
 11
159.73762218300004
 21
142.05172978466808
 31
0.0
 11
159.76705085880383
 21
142.05795553481943
 31
0.0
 11
159.79841383010276
 21
142.06794876848363
 31
0.0
 11
159.82645208752461
 21
142.07901949619838
 31
0.0
 11
159.8370817200929
 21
142.08437783395786
 31
0.0
 11
159.84779491657446
 21
142.09120441715169
 31
0.0
 11
159.87557199315518
 21
142.11240899728435
 31
0.0
 11
159.90196195866204
 21
142.1353114955474
 31
0.0
 11
159.91080651299606
 21
142.14441005472585
 31
0.0
 11
159.91819788272784
 21
142.15372736350278
 31
0.0
 11
159.93467857480411
 21
142.17890713553626
 31
0.0
 11
159.95076796559343
 21
142.20755463194109
 31
0.0
 11
159.96275991084482
 21
142.23504772444198
 31
0.0
 11
159.9723145730467
 21
142.27214468201601
 31
0.0
  0
SPLINE
  5
2CF
100
AcDbEntity
  8
1
  6
CONTINUOUS
 62
           2
100
AcDbSpline
210
0.0
220
0.0
230
1.0
 70
           0
 71
           4
 72
          14
 73
          10
 74
          15
 42
0.00000000001
 43
0.00000000001
 44
0.00000000001
 40
0.0
 40
0.0
 40
0.0
 40
0.0
 40
0.0589399268841976
 40
0.1176070532432812
 40
0.1472336977199179
 40
0.2059526765398742
 40
0.2356113480082807
 40
0.2943956935879877
 40
0.3534957874514352
 40
0.3534957874514352
 40
0.3534957874514352
 40
0.3534957874514352
 10
158.5917466516845
 20
143.6254353961134
 30
0.0
 10
158.5958269654881
 20
143.65447979620859
 30
0.0
 10
158.59412979706011
 20
143.68404143299239
 30
0.0
 10
158.5793743454177
 20
143.74082266547339
 30
0.0
 10
158.5664604408924
 20
143.76748666991489
 30
0.0
 10
158.53103529375451
 20
143.81431590676451
 30
0.0
 10
158.50887067803109
 20
143.83402292589739
 30
0.0
 10
158.45816899291961
 20
143.86377084031321
 30
0.0
 10
158.43012802781919
 20
143.87352065911901
 30
0.0
 10
158.40099835224979
 20
143.8775895299579
 30
0.0
 11
158.5917466516845
 21
143.6254353961134
 31
0.0
 11
158.59446858017921
 21
143.66060454000578
 31
0.0
 11
158.59159185457318
 21
143.68807683504667
 31
0.0
 11
158.58502969177044
 21
143.71758030943079
 31
0.0
 11
158.57694639876138
 21
143.74405901026216
 31
0.0
 11
158.57267131723341
 21
143.75416371301932
 31
0.0
 11
158.56690611569289
 21
143.76435090148985
 31
0.0
 11
158.54844618173095
 21
143.79066387544441
 31
0.0
 11
158.52814729049501
 21
143.81559050113745
 31
0.0
 11
158.51990404326574
 21
143.82392209330516
 31
0.0
 11
158.51133760488162
 21
143.83079600784788
 31
0.0
 11
158.48802329707794
 21
143.84582382085654
 31
0.0
 11
158.46137802538743
 21
143.86022136218656
 31
0.0
 11
158.43566483149249
 21
143.87053386836988
 31
0.0
 11
158.40099835224979
 21
143.8775895299579
 31
0.0
  0
SPLINE
  5
2CE
100
AcDbEntity
  8
1
  6
CONTINUOUS
 62
           2
100
AcDbSpline
210
0.0
220
0.0
230
1.0
 70
           0
 71
           4
 72
          14
 73
          10
 74
          15
 42
0.00000000001
 43
0.00000000001
 44
0.00000000001
 40
0.0
 40
0.0
 40
0.0
 40
0.0
 40
0.0724860207975097
 40
0.1446531529651441
 40
0.181101234378006
 40
0.2533438605709742
 40
0.2898328130014961
 40
0.3621495474448993
 40
0.4348398142916872
 40
0.4348398142916872
 40
0.4348398142916872
 40
0.4348398142916872
 10
161.26972680841479
 20
144.50475477220419
 30
0.0
 10
161.2694229265407
 20
144.4686885741356
 30
0.0
 10
161.2768223359806
 20
144.43302964844759
 30
0.0
 10
161.3050198798216
 20
144.3665992827506
 30
0.0
 10
161.3255421077636
 20
144.33647784853881
 30
0.0
 10
161.37708943770741
 20
144.2858629316178
 30
0.0
 10
161.40761016098199
 20
144.26586470418951
 30
0.0
 10
161.47465966332231
 20
144.23877089832041
 30
0.0
 10
161.5105323784818
 20
144.23194042651721
 30
0.0
 10
161.54670437638731
 20
144.2322164722774
 30
0.0
 11
161.26972680841479
 21
144.50475477220419
 31
0.0
 11
161.27225300921521
 21
144.46148266254673
 31
0.0
 11
161.2806361238479
 21
144.42858138731944
 31
0.0
 11
161.29394407772972
 21
144.39386379684964
 31
0.0
 11
161.30855648035435
 21
144.36309979479103
 31
0.0
 11
161.31558124587514
 21
144.35157283585301
 31
0.0
 11
161.32443322317414
 21
144.34021377812496
 31
0.0
 11
161.3516396915733
 21
144.31151363384086
 31
0.0
 11
161.38083320785464
 21
144.28483020475613
 31
0.0
 11
161.39236533601962
 21
144.27617309629997
 31
0.0
 11
161.40402816324789
 21
144.26934710068315
 31
0.0
 11
161.43510458093124
 21
144.25524725261408
 31
0.0
 11
161.47012023822413
 21
144.24251166225849
 31
0.0
 11
161.5032589003352
 21
144.23458034923613
 31
0.0
 11
161.54670437638731
 21
144.2322164722774
 31
0.0
  0
SPLINE
  5
2CD
100
AcDbEntity
  8
1
  6
CONTINUOUS
 62
           2
100
AcDbSpline
210
0.0
220
0.0
230
1.0
 70
           0
 71
           4
 72
          14
 73
          10
 74
          15
 42
0.00000000001
 43
0.00000000001
 44
0.00000000001
 40
0.0
 40
0.0
 40
0.0
 40
0.0
 40
0.007978076138693
 40
0.0159209710402563
 40
0.0199325156434694
 40
0.0278836607094778
 40
0.0318997048516247
 40
0.0401967538328437
 40
0.0481973388066788
 40
0.0481973388066788
 40
0.0481973388066788
 40
0.0481973388066788
 10
161.773620636955
 20
144.61862263248449
 30
0.0
 10
161.7736155732199
 20
144.6146529092008
 30
0.0
 10
161.7743947536157
 20
144.6107210210246
 30
0.0
 10
161.777432605098
 20
144.60338201306789
 30
0.0
 10
161.7796615515087
 20
144.6000467037866
 30
0.0
 10
161.78528489659351
 20
144.59442543187379
 30
0.0
 10
161.78862427213369
 20
144.5921944720908
 30
0.0
 10
161.79597700750759
 20
144.58835021607459
 30
0.0
 10
161.79991842252261
 20
144.5875632491931
 30
0.0
 10
161.8038997917001
 20
144.58755813298839
 30
0.0
 11
161.773620636955
 21
144.61862263248449
 31
0.0
 11
161.77391194350938
 21
144.61385711198926
 31
0.0
 11
161.77481011852538
 21
144.6102276731761
 31
0.0
 11
161.77624052121624
 21
144.60639360096394
 31
0.0
 11
161.77781839559586
 21
144.60299337684421
 31
0.0
 11
161.77858016157296
 21
144.60171782987632
 31
0.0
 11
161.77954319862721
 21
144.6004589644979
 31
0.0
 11
161.78250736894185
 21
144.59727475949751
 31
0.0
 11
161.78568115912634
 21
144.59431795572723
 31
0.0
 11
161.7869268404431
 21
144.59335675216232
 31
0.0
 11
161.78817706438019
 21
144.59256210441723
 31
0.0
 11
161.79165388771727
 21
144.5906684804342
 31
0.0
 11
161.79557692954342
 21
144.58888951479918
 31
0.0
 11
161.79914783487618
 21
144.58787326501869
 31
0.0
 11
161.8038997917001
 21
144.58755813298839
 31
0.0
  0
SPLINE
  5
2CC
100
AcDbEntity
  8
1
  6
CONTINUOUS
 62
           2
100
AcDbSpline
210
0.0
220
0.0
230
1.0
 70
           0
 71
           4
 72
          12
 73
           8
 74
          11
 42
0.00000000001
 43
0.00000000001
 44
0.00000000001
 40
0.0
 40
0.0
 40
0.0
 40
0.0
 40
0.0705189426952904
 40
0.1407752176459195
 40
0.1762410700625454
 40
0.2465661681879851
 40
0.3172337628968379
 40
0.3172337628968379
 40
0.3172337628968379
 40
0.3172337628968379
 10
160.22853444598991
 20
144.39081766946481
 30
0.0
 10
160.24342446644499
 20
144.35904173025469
 30
0.0
 10
160.2642733382427
 20
144.33039878175489
 30
0.0
 10
160.31564034957441
 20
144.2824678489788
 30
0.0
 10
160.34568466003429
 20
144.26362199806599
 30
0.0
 10
160.4112547786406
 20
144.23820194746989
 30
0.0
 10
160.4461757427872
 20
144.23186223211269
 30
0.0
 10
160.48134959582811
 20
144.2322346782295
 30
0.0
 11
160.22853444598991
 21
144.39081766946481
 31
0.0
 11
160.24872366439436
 21
144.35374364298028
 31
0.0
 11
160.26937641098516
 21
144.32792568147048
 31
0.0
 11
160.29498844696829
 21
144.30232897365701
 31
0.0
 11
160.3201405061005
 21
144.28070557633183
 31
0.0
 11
160.33077560665492
 21
144.27323886226955
 31
0.0
 11
160.34212455450842
 21
144.26691367813302
 31
0.0
 11
160.3725602737984
 21
144.25366572643651
 31
0.0
 11
160.40678109894691
 21
144.24172714735928
 31
0.0
 11
160.43908455766675
 21
144.23433348647029
 31
0.0
 11
160.48134959582811
 21
144.2322346782295
 31
0.0
  0
SPLINE
  5
2CB
100
AcDbEntity
  8
1
  6
CONTINUOUS
 62
           2
100
AcDbSpline
210
0.0
220
0.0
230
1.0
 70
           0
 71
           4
 72
          12
 73
           8
 74
          11
 42
0.00000000001
 43
0.00000000001
 44
0.00000000001
 40
0.0
 40
0.0
 40
0.0
 40
0.0
 40
0.0710919047105737
 40
0.141918338630975
 40
0.1776724798419083
 40
0.2485691400129922
 40
0.3198142511654338
 40
0.3198142511654338
 40
0.3198142511654338
 40
0.3198142511654338
 10
160.01131459783471
 20
145.8865783666067
 30
0.0
 10
159.99670625150861
 20
145.91879803999299
 30
0.0
 10
159.97604820451579
 20
145.94793256774139
 30
0.0
 10
159.9248628761305
 20
145.99688607527631
 30
0.0
 10
159.89480825056461
 20
146.01625300832791
 30
0.0
 10
159.8290196637561
 20
146.04267644998779
 30
0.0
 10
159.79389320782531
 20
146.04948895911321
 30
0.0
 10
159.75843065099849
 20
146.0498236254912
 30
0.0
 11
160.01131459783471
 21
145.8865783666067
 31
0.0
 11
159.99143012046162
 21
145.92420481053068
 31
0.0
 11
159.97093389134881
 21
145.95048833799603
 31
0.0
 11
159.94543422894094
 21
145.97660889419998
 31
0.0
 11
159.92034786641773
 21
145.99871739715846
 31
0.0
 11
159.9097191753232
 21
146.006375271553
 31
0.0
 11
159.89835647899403
 21
146.01289051445067
 31
0.0
 11
159.86783782638284
 21
146.02661640845668
 31
0.0
 11
159.83348710402578
 21
146.03906713577894
 31
0.0
 11
159.80101198138556
 21
146.04694758770626
 31
0.0
 11
159.75843065099849
 21
146.0498236254912
 31
0.0
  0
SPLINE
  5
2CA
100
AcDbEntity
  8
1
  6
CONTINUOUS
 62
           2
100
AcDbSpline
210
0.0
220
0.0
230
1.0
 70
           0
 71
           4
 72
          12
 73
           8
 74
          11
 42
0.00000000001
 43
0.00000000001
 44
0.00000000001
 40
0.0
 40
0.0
 40
0.0
 40
0.0
 40
0.0039417602676091
 40
0.0078661948168883
 40
0.0098502439331181
 40
0.0137786510377002
 40
0.0177287813723507
 40
0.0177287813723507
 40
0.0177287813723507
 40
0.0177287813723507
 10
158.63301875983649
 20
144.24052609438939
 30
0.0
 10
158.63383499327961
 20
144.23874411942151
 30
0.0
 10
158.635011384564
 20
144.23714931388861
 30
0.0
 10
158.63793715396559
 20
144.23453377189119
 30
0.0
 10
158.6396550584852
 20
144.2335411717919
 30
0.0
 10
158.64338576029689
 20
144.23231062460809
 30
0.0
 10
158.64535842503199
 20
144.23208591498059
 30
0.0
 10
158.6473148773382
 20
144.2322658404058
 30
0.0
 11
158.63301875983649
 21
144.24052609438939
 31
0.0
 11
158.63413780800946
 21
144.23845188909081
 31
0.0
 11
158.63530527103688
 21
144.23702177907506
 31
0.0
 11
158.63676122965487
 21
144.23561989925284
 31
0.0
 11
158.63819448273338
 21
144.2344476547446
 31
0.0
 11
158.63880251383904
 21
144.23404939616753
 31
0.0
 11
158.63945107191546
 21
144.23372148098389
 31
0.0
 11
158.64118368217854
 21
144.23306433159735
 31
0.0
 11
158.64312704654793
 21
144.23250186336304
 31
0.0
 11
158.64495316477885
 21
144.23220264843377
 31
0.0
 11
158.6473148773382
 21
144.2322658404058
 31
0.0
  0
SPLINE
  5
2C9
100
AcDbEntity
  8
1
  6
CONTINUOUS
 62
           2
100
AcDbSpline
210
0.0
220
0.0
230
1.0
 70
           0
 71
           4
 72
          12
 73
           8
 74
          11
 42
0.00000000001
 43
0.00000000001
 44
0.00000000001
 40
0.0
 40
0.0
 40
0.0
 40
0.0
 40
0.0968306030018314
 40
0.1933065874399566
 40
0.2419514467345316
 40
0.3385066211291251
 40
0.435511141070366
 40
0.435511141070366
 40
0.435511141070366
 40
0.435511141070366
 10
162.9563773125133
 20
145.4663777352003
 30
0.0
 10
162.9596663925598
 20
145.4182721554609
 30
0.0
 10
162.97161342313871
 20
145.37115035166769
 30
0.0
 10
163.0116791771606
 20
145.2833873131608
 30
0.0
 10
163.03947064403869
 20
145.24346292581981
 30
0.0
 10
163.1079090731798
 20
145.1753521108264
 30
0.0
 10
163.1479970312316
 20
145.147722011437
 30
0.0
 10
163.19203405196791
 20
145.12784033497019
 30
0.0
 11
162.9563773125133
 21
145.4663777352003
 31
0.0
 11
162.96362483785524
 21
145.40881150234358
 31
0.0
 11
162.97666961407992
 21
145.36529372302954
 31
0.0
 11
162.99585496103313
 21
145.31939726491066
 31
0.0
 11
163.01635443558308
 21
145.27870664037968
 31
0.0
 11
163.02580858418943
 21
145.26359794227196
 31
0.0
 11
163.03669209361607
 21
145.24948693479422
 31
0.0
 11
163.06774810137415
 21
145.21610971090189
 31
0.0
 11
163.10414774802118
 21
145.18214769896619
 31
0.0
 11
163.14048655687867
 21
145.15473268323163
 31
0.0
 11
163.19203405196791
 21
145.12784033497019
 31
0.0
  0
SPLINE
  5
2C8
100
AcDbEntity
  8
1
  6
CONTINUOUS
 62
           2
100
AcDbSpline
210
0.0
220
0.0
230
1.0
 70
           0
 71
           4
 72
           8
 73
           4
 74
           3
 42
0.00000000001
 43
0.00000000001
 44
0.00000000001
 40
0.0
 40
0.0
 40
0.0
 40
0.0
 40
0.2435637857156345
 40
0.2435637857156345
 40
0.2435637857156345
 40
0.2435637857156345
 10
162.97737576908301
 20
145.7062294588313
 30
0.0
 10
162.9555169154842
 20
145.62827139182929
 30
0.0
 10
162.94839612751221
 20
145.54693525824121
 30
0.0
 10
162.9563773125133
 20
145.4663777352003
 30
0.0
 11
162.97737576908301
 21
145.7062294588313
 31
0.0
 11
162.95568652632318
 21
145.58727839303037
 31
0.0
 11
162.9563773125133
 21
145.4663777352003
 31
0.0
  0
SPLINE
  5
2C7
100
AcDbEntity
  8
1
  6
CONTINUOUS
 62
           2
100
AcDbSpline
210
0.0
220
0.0
230
1.0
 70
           0
 71
           4
 72
          10
 73
           6
 74
           7
 42
0.00000000001
 43
0.00000000001
 44
0.00000000001
 40
0.0
 40
0.0
 40
0.0
 40
0.0
 40
0.1056107685430549
 40
0.2105338740036695
 40
0.3159943732297283
 40
0.3159943732297283
 40
0.3159943732297283
 40
0.3159943732297283
 10
163.1667971366752
 20
145.9439441781974
 30
0.0
 10
163.11992024897711
 20
145.92027192221161
 30
0.0
 10
163.0787245159095
 20
145.88677447138269
 30
0.0
 10
163.0133376417262
 20
145.80471708448769
 30
0.0
 10
162.98991793370811
 20
145.75712525991091
 30
0.0
 10
162.97737576908301
 20
145.7062294588313
 30
0.0
 11
163.1667971366752
 21
145.9439441781974
 31
0.0
 11
163.11278963450383
 21
145.9120627935817
 31
0.0
 11
163.07799388043946
 21
145.88133693162987
 31
0.0
 11
163.04656733651353
 21
145.84528779123983
 31
0.0
 11
163.01845162182386
 21
145.80660779644069
 31
0.0
 11
162.99631928605586
 21
145.76589486262571
 31
0.0
 11
162.97737576908301
 21
145.7062294588313
 31
0.0
  0
CIRCLE
  5
2C6
100
AcDbEntity
  8
1
  6
CONTINUOUS
 62
           7
100
AcDbCircle
 10
178.499827501577
 20
160.049590653
 40
8.0
  0
CIRCLE
  5
2C5
100
AcDbEntity
  8
1
  6
CONTINUOUS
 62
           2
100
AcDbCircle
 10
178.499827501577
 20
309.226445220906
 40
4.0
  0
CIRCLE
  5
2C4
100
AcDbEntity
  8
1
  6
CONTINUOUS
 62
           7
100
AcDbCircle
 10
178.499827501577
 20
309.226445220906
 40
3.3235
  0
CIRCLE
  5
2C3
100
AcDbEntity
  8
1
  6
CONTINUOUS
 62
           2
100
AcDbCircle
 10
178.499827501577
 20
291.226445220906
 40
4.0
  0
CIRCLE
  5
2C2
100
AcDbEntity
  8
1
  6
CONTINUOUS
 62
           7
100
AcDbCircle
 10
178.499827501577
 20
291.226445220906
 40
3.3235
  0
CIRCLE
  5
2C1
100
AcDbEntity
  8
1
  6
CONTINUOUS
 62
           2
100
AcDbCircle
 10
192.499827501577
 20
300.226445220906
 40
4.0
  0
CIRCLE
  5
2C0
100
AcDbEntity
  8
1
  6
CONTINUOUS
 62
           7
100
AcDbCircle
 10
192.499827501577
 20
300.226445220906
 40
3.3235
  0
ARC
  5
2BF
100
AcDbEntity
  8
1
  6
CONTINUOUS
 62
           2
100
AcDbCircle
 10
163.444768846434
 20
140.327626213242
 40
0.797882790304
100
AcDbArc
 50
-4.356952372479
 51
45.951442495254
  0
ARC
  5
2BE
100
AcDbEntity
  8
1
  6
CONTINUOUS
 62
           2
100
AcDbCircle
 10
163.170252588172
 20
140.043838008113
 40
1.19271809954
100
AcDbArc
 50
45.951442495301
 51
142.536403931343
  0
ARC
  5
2BD
100
AcDbEntity
  8
1
  6
CONTINUOUS
 62
           2
100
AcDbCircle
 10
163.440668308869
 20
139.836613570549
 40
1.533403628326
100
AcDbArc
 50
142.53640393135
 51
169.661824668951
  0
ARC
  5
2BC
100
AcDbEntity
  8
1
  6
CONTINUOUS
 62
           2
100
AcDbCircle
 10
166.120581615825
 20
139.347745999963
 40
4.25754144319
100
AcDbArc
 50
169.661824668971
 51
-173.417756041226
  0
ARC
  5
2BB
100
AcDbEntity
  8
1
  6
CONTINUOUS
 62
           2
100
AcDbCircle
 10
163.370047461861
 20
139.030362114871
 40
1.488756391468
100
AcDbArc
 50
-173.417756041204
 51
-137.816900046978
  0
ARC
  5
2BA
100
AcDbEntity
  8
1
  6
CONTINUOUS
 62
           2
100
AcDbCircle
 10
163.025088301293
 20
138.717757605785
 40
1.02322615447
100
AcDbArc
 50
-137.816900046982
 51
-98.517420741344
  0
ARC
  5
2B9
100
AcDbEntity
  8
1
  6
CONTINUOUS
 62
           2
100
AcDbCircle
 10
163.138033403968
 20
139.471922289406
 40
1.785801374521
100
AcDbArc
 50
-98.51742074132
 51
-80.40919790683
  0
ARC
  5
2B8
100
AcDbEntity
  8
1
  6
CONTINUOUS
 62
           2
100
AcDbCircle
 10
163.254244433245
 20
138.784170003014
 40
1.088299968959
100
AcDbArc
 50
-80.409197906837
 51
-10.173161994674
  0
ARC
  5
2B7
100
AcDbEntity
  8
1
  6
CONTINUOUS
 62
           2
100
AcDbCircle
 10
162.901168989022
 20
138.847527578076
 40
1.447014969525
100
AcDbArc
 50
-10.173161994661
 51
9.191261021921
  0
ARC
  5
2B6
100
AcDbEntity
  8
1
  6
CONTINUOUS
 62
           2
100
AcDbCircle
 10
163.283740510298
 20
138.909430763185
 40
1.059467587623
100
AcDbArc
 50
9.191261021946
 51
54.299384729233
  0
ARC
  5
2B5
100
AcDbEntity
  8
1
  6
CONTINUOUS
 62
           2
100
AcDbCircle
 10
163.21152245417
 20
138.808930980777
 40
1.183224017336
100
AcDbArc
 50
54.299384729217
 51
138.366805443102
  0
ARC
  5
2B4
100
AcDbEntity
  8
1
  6
CONTINUOUS
 62
           2
100
AcDbCircle
 10
164.092209610077
 20
139.674704838544
 40
1.76684249563
100
AcDbArc
 50
154.782953413431
 51
-177.414975369758
  0
ARC
  5
2B3
100
AcDbEntity
  8
1
  6
CONTINUOUS
 62
           2
100
AcDbCircle
 10
163.1683780676
 20
140.109762730702
 40
0.745696037769
100
AcDbArc
 50
62.941686232889
 51
154.782953413425
  0
ARC
  5
2B2
100
AcDbEntity
  8
1
  6
CONTINUOUS
 62
           2
100
AcDbCircle
 10
163.237095784377
 20
140.244290188807
 40
0.594633926096
100
AcDbArc
 50
2.189803642027
 51
62.941686232913
  0
ARC
  5
2B1
100
AcDbEntity
  8
1
  6
CONTINUOUS
 62
           2
100
AcDbCircle
 10
163.340783224256
 20
138.818708057466
 40
0.95911414731
100
AcDbArc
 50
166.201384653243
 51
-166.847964887465
  0
ARC
  5
2B0
100
AcDbEntity
  8
1
  6
CONTINUOUS
 62
           2
100
AcDbCircle
 10
163.021544197136
 20
138.744113115898
 40
0.631275830844
100
AcDbArc
 50
-166.847964887457
 51
-132.25095623323
  0
ARC
  5
2AF
100
AcDbEntity
  8
1
  6
CONTINUOUS
 62
           2
100
AcDbCircle
 10
163.158333708386
 20
138.894701573636
 40
0.834716864049
100
AcDbArc
 50
-132.250956233201
 51
-64.395811474478
  0
ARC
  5
2AE
100
AcDbEntity
  8
1
  6
CONTINUOUS
 62
           2
100
AcDbCircle
 10
163.232255236774
 20
138.740444382358
 40
0.663662272121
100
AcDbArc
 50
-64.395811474492
 51
-17.627774653471
  0
ARC
  5
2AD
100
AcDbEntity
  8
1
  6
CONTINUOUS
 62
           2
100
AcDbCircle
 10
162.927824740336
 20
138.837177874933
 40
0.98309191343
100
AcDbArc
 50
-17.627774653485
 51
19.266252844705
  0
ARC
  5
2AC
100
AcDbEntity
  8
1
  6
CONTINUOUS
 62
           2
100
AcDbCircle
 10
163.289518376987
 20
138.963602071065
 40
0.599940032106
100
AcDbArc
 50
19.266252844875
 51
64.79071702407
  0
ARC
  5
2AB
100
AcDbEntity
  8
1
  6
CONTINUOUS
 62
           2
100
AcDbCircle
 10
163.161487736489
 20
138.691637493124
 40
0.900533738895
100
AcDbArc
 50
64.790717023994
 51
111.891573936879
  0
ARC
  5
2AA
100
AcDbEntity
  8
1
  6
CONTINUOUS
 62
           2
100
AcDbCircle
 10
163.085204949568
 20
138.881477553669
 40
0.695940698525
100
AcDbArc
 50
111.891573936847
 51
166.201384653329
  0
ARC
  5
2A9
100
AcDbEntity
  8
1
  6
CONTINUOUS
 62
           2
100
AcDbCircle
 10
160.193834287964
 20
138.682902517721
 40
0.58065316162
100
AcDbArc
 50
179.121956024854
 51
-119.947538976091
  0
ARC
  5
2A8
100
AcDbEntity
  8
1
  6
CONTINUOUS
 62
           2
100
AcDbCircle
 10
160.312449889247
 20
138.88878588201
 40
0.818261285553
100
AcDbArc
 50
-119.947538976113
 51
-69.317864078516
  0
ARC
  5
2A7
100
AcDbEntity
  8
1
  6
CONTINUOUS
 62
           2
100
AcDbCircle
 10
160.375166114616
 20
138.722655575932
 40
0.640687065796
100
AcDbArc
 50
-69.317864078453
 51
-23.597424669015
  0
ARC
  5
2A6
100
AcDbEntity
  8
1
  6
CONTINUOUS
 62
           2
100
AcDbCircle
 10
159.176342354711
 20
139.246344629746
 40
1.948902886062
100
AcDbArc
 50
-23.597424669089
 51
1.548581073139
  0
ARC
  5
2A5
100
AcDbEntity
  8
1
  6
CONTINUOUS
 62
           2
100
AcDbCircle
 10
160.236419783949
 20
140.187079625578
 40
1.255949231218
100
AcDbArc
 50
-98.938891736638
 51
-44.998487653472
  0
ARC
  5
2A4
100
AcDbEntity
  8
1
  6
CONTINUOUS
 62
           2
100
AcDbCircle
 10
160.211672077636
 20
140.029742877149
 40
1.096678074461
100
AcDbArc
 50
-167.463914200422
 51
-98.938891736637
  0
ARC
  5
2A3
100
AcDbEntity
  8
1
  6
CONTINUOUS
 62
           2
100
AcDbCircle
 10
160.390196410209
 20
140.069438748942
 40
1.279562462964
100
AcDbArc
 50
165.023434377354
 51
-167.463914200379
  0
ARC
  5
2A2
100
AcDbEntity
  8
1
  6
CONTINUOUS
 62
           2
100
AcDbCircle
 10
160.207027968709
 20
140.118438297721
 40
1.089953302472
100
AcDbArc
 50
115.516458609115
 51
165.02343437739
  0
ARC
  5
2A1
100
AcDbEntity
  8
1
  6
CONTINUOUS
 62
           2
100
AcDbCircle
 10
160.309792941981
 20
139.903146229678
 40
1.328514226124
100
AcDbArc
 50
86.643701757805
 51
115.516458609091
  0
ARC
  5
2A0
100
AcDbEntity
  8
1
  6
CONTINUOUS
 62
           2
100
AcDbCircle
 10
160.317129139085
 20
140.028240070993
 40
1.203205451801
100
AcDbArc
 50
14.148996048524
 51
86.643701757788
  0
ARC
  5
29F
100
AcDbEntity
  8
1
  6
CONTINUOUS
 62
           2
100
AcDbCircle
 10
158.265220843236
 20
139.510970549248
 40
3.319309280232
100
AcDbArc
 50
-19.001177309552
 51
14.148996048634
  0
ARC
  5
29E
100
AcDbEntity
  8
1
  6
CONTINUOUS
 62
           2
100
AcDbCircle
 10
160.380249206858
 20
138.78265926835
 40
1.082395714442
100
AcDbArc
 50
-79.577138524139
 51
-19.001177309575
  0
ARC
  5
29D
100
AcDbEntity
  8
1
  6
CONTINUOUS
 62
           2
100
AcDbCircle
 10
160.32259019606
 20
139.096114046979
 40
1.401109472808
100
AcDbArc
 50
-110.516135090796
 51
-79.577138524161
  0
ARC
  5
29C
100
AcDbEntity
  8
1
  6
CONTINUOUS
 62
           2
100
AcDbCircle
 10
160.217404489733
 20
138.815023435221
 40
1.100982891456
100
AcDbArc
 50
-153.687925275517
 51
-110.516135090828
  0
ARC
  5
29B
100
AcDbEntity
  8
1
  6
CONTINUOUS
 62
           2
100
AcDbCircle
 10
159.880505705524
 20
138.648429334089
 40
0.725144647881
100
AcDbArc
 50
176.571069006083
 51
-153.687925275448
  0
ARC
  5
29A
100
AcDbEntity
  8
1
  6
CONTINUOUS
 62
           2
100
AcDbCircle
 10
160.578408196207
 20
140.085200502816
 40
1.035120228526
100
AcDbArc
 50
176.732265866313
 51
-165.483239042983
  0
ARC
  5
299
100
AcDbEntity
  8
1
  6
CONTINUOUS
 62
           2
100
AcDbCircle
 10
160.233638721001
 20
139.995929443472
 40
0.678980771192
100
AcDbArc
 50
-165.483239042984
 51
-106.259582344646
  0
ARC
  5
298
100
AcDbEntity
  8
1
  6
CONTINUOUS
 62
           2
100
AcDbCircle
 10
160.292942857701
 20
140.199266129033
 40
0.890789147621
100
AcDbArc
 50
-106.25958234468
 51
-66.467891406536
  0
ARC
  5
297
100
AcDbEntity
  8
1
  6
CONTINUOUS
 62
           2
100
AcDbCircle
 10
160.368729232549
 20
140.025236166033
 40
0.700973440595
100
AcDbArc
 50
-66.467891406518
 51
-22.391506702549
  0
ARC
  5
296
100
AcDbEntity
  8
1
  6
CONTINUOUS
 62
           2
100
AcDbCircle
 10
160.259704258957
 20
140.070154111583
 40
0.818888947204
100
AcDbArc
 50
-22.39150670264
 51
33.080797498059
  0
ARC
  5
295
100
AcDbEntity
  8
1
  6
CONTINUOUS
 62
           2
100
AcDbCircle
 10
160.306623463242
 20
140.100717953659
 40
0.762892874366
100
AcDbArc
 50
33.080797498193
 51
176.73226586617
  0
ARC
  5
294
100
AcDbEntity
  8
1
  6
CONTINUOUS
 62
           7
100
AcDbCircle
 10
223.006510932426
 20
142.553501065675
 40
19.0
100
AcDbArc
 50
-23.535955891531
 51
-1.519753984313
  0
ARC
  5
293
100
AcDbEntity
  8
60
  6
CONTINUOUS
 62
           7
100
AcDbCircle
 10
244.534751888816
 20
303.054872345652
 40
4.000170957525
100
AcDbArc
 50
-29.529535364976
 51
29.529535364977
  0
ARC
  5
292
100
AcDbEntity
  8
60
  6
CONTINUOUS
 62
           7
100
AcDbCircle
 10
244.534751888816
 20
297.39801809616
 40
4.000170957525
100
AcDbArc
 50
-29.529535364976
 51
29.529535364976
  0
ARC
  5
291
100
AcDbEntity
  8
1
  6
LONG_DASHED
 62
           3
100
AcDbCircle
 10
117.999827501577
 20
300.226445220906
 40
2.0
100
AcDbArc
 50
120.055051356476
 51
130.541601873503
  0
ARC
  5
290
100
AcDbEntity
  8
1
  6
LONG_DASHED
 62
           3
100
AcDbCircle
 10
117.999827501577
 20
300.226445220906
 40
2.0
100
AcDbArc
 50
-130.541601873503
 51
-120.055051356476
  0
ARC
  5
28F
100
AcDbEntity
  8
1
  6
LONG_DASHED
 62
           3
100
AcDbCircle
 10
181.249827501577
 20
179.948402397919
 40
9.60150856498
100
AcDbArc
 50
73.356651610389
 51
106.643348389611
  0
ARC
  5
28E
100
AcDbEntity
  8
1
  6
LONG_DASHED
 62
           3
100
AcDbCircle
 10
175.749827501577
 20
179.948402397919
 40
9.60150856498
100
AcDbArc
 50
73.356651610389
 51
106.643348389611
  0
ARC
  5
28D
100
AcDbEntity
  8
1
  6
CONTINUOUS
 62
           7
100
AcDbCircle
 10
122.040679887013
 20
130.417597816183
 40
16.471276670124
100
AcDbArc
 50
2.198943880602
 51
16.947120457924
  0
ARC
  5
28C
100
AcDbEntity
  8
1
  6
CONTINUOUS
 62
           7
100
AcDbCircle
 10
122.040679887013
 20
153.681583489816
 40
16.471276670124
100
AcDbArc
 50
-16.947120457921
 51
-2.198943880598
  0
ARC
  5
28B
100
AcDbEntity
  8
1
  6
CONTINUOUS
 62
           7
100
AcDbCircle
 10
117.482307873824
 20
142.049590653
 40
21.017519627753
100
AcDbArc
 50
-14.862403254658
 51
14.862403254653
  0
ARC
  5
28A
100
AcDbEntity
  8
1
  6
CONTINUOUS
 62
           7
100
AcDbCircle
 10
134.209570195214
 20
130.715524739243
 40
8.64808121259
100
AcDbArc
 50
148.61912986109
 51
-178.47155356877
  0
ARC
  5
289
100
AcDbEntity
  8
1
  6
CONTINUOUS
 62
           7
100
AcDbCircle
 10
134.209570195214
 20
153.383656566757
 40
8.64808121259
100
AcDbArc
 50
178.47155356877
 51
-148.61912986109
  0
ARC
  5
288
100
AcDbEntity
  8
1
  6
CONTINUOUS
 62
           7
100
AcDbCircle
 10
137.710685157713
 20
142.049590653
 40
12.146119233951
100
AcDbArc
 50
153.650690113219
 51
-153.65069011321
  0
ARC
  5
287
100
AcDbEntity
  8
1
  6
CONTINUOUS
 62
           7
100
AcDbCircle
 10
125.748058480165
 20
137.299590653001
 40
16.751769021412
100
AcDbArc
 50
-11.476641153922
 51
11.476641153919
  0
ARC
  5
286
100
AcDbEntity
  8
1
  6
CONTINUOUS
 62
           7
100
AcDbCircle
 10
125.748058480165
 20
146.799590652999
 40
16.751769021412
100
AcDbArc
 50
-11.476641153919
 51
11.476641153922
  0
ARC
  5
285
100
AcDbEntity
  8
1
  6
CONTINUOUS
 62
           7
100
AcDbCircle
 10
125.748058480165
 20
304.976445220906
 40
16.751769021412
100
AcDbArc
 50
-11.476641153922
 51
11.476641153919
  0
ARC
  5
284
100
AcDbEntity
  8
1
  6
CONTINUOUS
 62
           7
100
AcDbCircle
 10
125.748058480165
 20
295.476445220907
 40
16.751769021412
100
AcDbArc
 50
-11.476641153922
 51
11.476641153919
  0
ARC
  5
283
100
AcDbEntity
  8
1
  6
CONTINUOUS
 62
           7
100
AcDbCircle
 10
134.810043646762
 20
305.726445220906
 40
9.248459863988
100
AcDbArc
 50
149.681278642371
 51
-149.68127864237
  0
ARC
  5
282
100
AcDbEntity
  8
1
  6
CONTINUOUS
 62
           7
100
AcDbCircle
 10
122.648794085935
 20
305.726445220906
 40
15.851033415643
100
AcDbArc
 50
-17.129762786765
 51
17.129762786764
  0
ARC
  5
281
100
AcDbEntity
  8
1
  6
CONTINUOUS
 62
           7
100
AcDbCircle
 10
134.810043646762
 20
294.726445220905
 40
9.248459863988
100
AcDbArc
 50
149.681278642369
 51
-149.681278642371
  0
ARC
  5
280
100
AcDbEntity
  8
1
  6
CONTINUOUS
 62
           7
100
AcDbCircle
 10
122.648794085935
 20
294.726445220905
 40
15.851033415642
100
AcDbArc
 50
-17.129762786764
 51
17.129762786765
  0
ARC
  5
27F
100
AcDbEntity
  8
1
  6
CONTINUOUS
 62
           7
100
AcDbCircle
 10
192.344218322719
 20
104.026569671251
 40
15.523800907521
100
AcDbArc
 50
74.314132631441
 51
75.407271341369
  0
ARC
  5
27E
100
AcDbEntity
  8
1
  6
CONTINUOUS
 62
           7
100
AcDbCircle
 10
184.575320880282
 20
106.943088406772
 40
12.64035645767
100
AcDbArc
 50
72.109728716799
 51
73.288717365894
  0
ARC
  5
27D
100
AcDbEntity
  8
1
  6
CONTINUOUS
 62
           7
100
AcDbCircle
 10
192.655436680435
 20
129.072611634749
 40
15.523800907521
100
AcDbArc
 50
-105.685867368559
 51
-90.574337339752
  0
ARC
  5
27C
100
AcDbEntity
  8
1
  6
CONTINUOUS
 62
           7
100
AcDbCircle
 10
184.575320880282
 20
126.156092899228
 40
12.64035645767
100
AcDbArc
 50
-85.805682542564
 51
-72.109728716799
  0
ARC
  5
27B
100
AcDbEntity
  8
1
  6
CONTINUOUS
 62
           7
100
AcDbCircle
 10
192.655436680435
 20
104.026569671251
 40
15.523800907521
100
AcDbArc
 50
104.592728658631
 51
105.685867368559
  0
ARC
  5
27A
100
AcDbEntity
  8
1
  6
CONTINUOUS
 62
           7
100
AcDbCircle
 10
192.344218322719
 20
129.072611634749
 40
15.523800907521
100
AcDbArc
 50
-89.425662660247
 51
-74.314132631441
  0
ARC
  5
279
100
AcDbEntity
  8
1
  6
CONTINUOUS
 62
           7
100
AcDbCircle
 10
200.424334122871
 20
126.156092899228
 40
12.64035645767
100
AcDbArc
 50
-107.8902712832
 51
-94.194317457436
  0
ARC
  5
278
100
AcDbEntity
  8
1
  6
CONTINUOUS
 62
           7
100
AcDbCircle
 10
200.424334122871
 20
106.943088406772
 40
12.64035645767
100
AcDbArc
 50
106.711282634106
 51
107.8902712832
  0
ARC
  5
277
100
AcDbEntity
  8
1
  6
CONTINUOUS
 62
           7
100
AcDbCircle
 10
153.57002094469
 20
122.171613094805
 40
12.06269480639
100
AcDbArc
 50
-87.958058637801
 51
-76.665620186898
  0
ARC
  5
276
100
AcDbEntity
  8
1
  6
CONTINUOUS
 62
           7
100
AcDbCircle
 10
161.576224419531
 20
128.010924089506
 40
17.903626926627
100
AcDbArc
 50
-100.96444351146
 51
-91.844923294214
  0
ARC
  5
275
100
AcDbEntity
  8
1
  6
CONTINUOUS
 62
           7
100
AcDbCircle
 10
161.576224419531
 20
98.722231812709
 40
17.903626926627
100
AcDbArc
 50
91.844923294214
 51
100.96444351146
  0
ARC
  5
274
100
AcDbEntity
  8
1
  6
CONTINUOUS
 62
           7
100
AcDbCircle
 10
153.57002094469
 20
104.561542807411
 40
12.06269480639
100
AcDbArc
 50
76.665620186898
 51
87.958058637801
  0
ARC
  5
273
100
AcDbEntity
  8
1
  6
CONTINUOUS
 62
           7
100
AcDbCircle
 10
168.429634058464
 20
104.561542807411
 40
12.06269480639
100
AcDbArc
 50
92.041941362199
 51
103.334379813101
  0
ARC
  5
272
100
AcDbEntity
  8
1
  6
CONTINUOUS
 62
           7
100
AcDbCircle
 10
160.423430583623
 20
98.722231812709
 40
17.903626926627
100
AcDbArc
 50
79.03555648854
 51
88.155076705786
  0
ARC
  5
271
100
AcDbEntity
  8
1
  6
CONTINUOUS
 62
           7
100
AcDbCircle
 10
160.423430583623
 20
128.010924089506
 40
17.903626926627
100
AcDbArc
 50
-88.155076705786
 51
-79.03555648854
  0
ARC
  5
270
100
AcDbEntity
  8
1
  6
CONTINUOUS
 62
           7
100
AcDbCircle
 10
168.429634058464
 20
122.171613094805
 40
12.06269480639
100
AcDbArc
 50
-103.334379813101
 51
-92.041941362199
  0
ARC
  5
26F
100
AcDbEntity
  8
1
  6
CONTINUOUS
 62
           7
100
AcDbCircle
 10
160.999827501577
 20
123.470175467318
 40
9.0
100
AcDbArc
 50
55.0389873767
 51
124.961012623299
  0
ARC
  5
26E
100
AcDbEntity
  8
1
  6
CONTINUOUS
 62
           7
100
AcDbCircle
 10
178.499827501577
 20
160.049590653
 40
11.5
100
AcDbArc
 50
134.724913154934
 51
-140.977197434767
  0
ARC
  5
26D
100
AcDbEntity
  8
1
  6
CONTINUOUS
 62
           7
100
AcDbCircle
 10
200.708557724384
 20
349.979084920463
 40
200.0
100
AcDbArc
 50
-104.364616460937
 51
-100.137993399251
  0
ARC
  5
26C
100
AcDbEntity
  8
1
  6
CONTINUOUS
 62
           7
100
AcDbCircle
 10
178.499827501577
 20
160.049590653
 40
11.5
100
AcDbArc
 50
-39.022802565233
 51
4.248022666728
  0
ARC
  5
26B
100
AcDbEntity
  8
1
  6
CONTINUOUS
 62
           7
100
AcDbCircle
 10
189.917116063847
 20
122.619796380797
 40
1.571260792372
100
AcDbArc
 50
-92.099797037309
 51
-0.141829336993
  0
ARC
  5
26A
100
AcDbEntity
  8
1
  6
CONTINUOUS
 62
           7
100
AcDbCircle
 10
189.798582563575
 20
122.77217439344
 40
1.72366212974
100
AcDbArc
 50
-159.127872663356
 51
-87.973148220159
  0
ARC
  5
269
100
AcDbEntity
  8
1
  6
CONTINUOUS
 62
           7
100
AcDbCircle
 10
190.897364163272
 20
123.191145931575
 40
2.899612023911
100
AcDbArc
 50
168.027320636669
 51
-159.127872663391
  0
ARC
  5
268
100
AcDbEntity
  8
1
  6
CONTINUOUS
 62
           7
100
AcDbCircle
 10
189.859031066877
 20
123.411333013814
 40
1.838189407675
100
AcDbArc
 50
68.52097112606
 51
168.027320636739
  0
ARC
  5
267
100
AcDbEntity
  8
1
  6
CONTINUOUS
 62
           7
100
AcDbCircle
 10
189.983733016936
 20
123.728247471488
 40
1.497623188223
100
AcDbArc
 50
9.038013827175
 51
68.520971126107
  0
ARC
  5
266
100
AcDbEntity
  8
1
  6
CONTINUOUS
 62
           7
100
AcDbCircle
 10
190.021598568402
 20
123.864594390123
 40
0.875033230552
100
AcDbArc
 50
6.490624056825
 51
67.911756869203
  0
ARC
  5
265
100
AcDbEntity
  8
1
  6
CONTINUOUS
 62
           7
100
AcDbCircle
 10
189.876179396149
 20
123.506259235277
 40
1.261751240032
100
AcDbArc
 50
67.911756869242
 51
163.046307929826
  0
ARC
  5
264
100
AcDbEntity
  8
1
  6
CONTINUOUS
 62
           7
100
AcDbCircle
 10
190.925457767661
 20
123.186389737389
 40
2.358702285705
100
AcDbArc
 50
163.046307929836
 51
-158.282010589735
  0
ARC
  5
263
100
AcDbEntity
  8
1
  6
CONTINUOUS
 62
           7
100
AcDbCircle
 10
189.831988208497
 20
122.609937100257
 40
1.120038364743
100
AcDbArc
 50
-42.521610887425
 51
0.305387873712
  0
ARC
  5
262
100
AcDbEntity
  8
1
  6
CONTINUOUS
 62
           7
100
AcDbCircle
 10
189.870061325832
 20
122.643822676576
 40
1.116032332839
100
AcDbArc
 50
-123.369859118303
 51
-45.125736650378
  0
ARC
  5
261
100
AcDbEntity
  8
1
  6
CONTINUOUS
 62
           7
100
AcDbCircle
 10
189.858227516872
 20
122.761299042724
 40
1.209927935848
100
AcDbArc
 50
-158.282010589655
 51
-119.839713357963
  0
ARC
  5
260
100
AcDbEntity
  8
1
  6
CONTINUOUS
 62
           7
100
AcDbCircle
 10
161.334522362117
 20
123.867556020579
 40
1.182397561857
100
AcDbArc
 50
-90.0
 51
90.0
  0
ARC
  5
25F
100
AcDbEntity
  8
1
  6
CONTINUOUS
 62
           7
100
AcDbCircle
 10
161.251613566387
 20
123.865109258673
 40
0.70699531402
100
AcDbArc
 50
-90.0
 51
90.0
  0
ARC
  5
25E
100
AcDbEntity
  8
1
  6
CONTINUOUS
 62
           7
100
AcDbCircle
 10
178.499827501577
 20
160.049590653
 40
12.5
100
AcDbArc
 50
130.932724574156
 51
173.222748901427
  0
ARC
  5
25D
100
AcDbEntity
  8
60
  6
CONTINUOUS
 62
           7
100
AcDbCircle
 10
244.434751888816
 20
139.221163528254
 40
4.000170957525
100
AcDbArc
 50
-29.529535364976
 51
29.529535364976
  0
ARC
  5
25C
100
AcDbEntity
  8
60
  6
CONTINUOUS
 62
           7
100
AcDbCircle
 10
244.434751888816
 20
144.878017777746
 40
4.000170957525
100
AcDbArc
 50
-29.529535364976
 51
29.529535364976
  0
ARC
  5
25B
100
AcDbEntity
  8
1
  6
CONTINUOUS
 62
           7
100
AcDbCircle
 10
216.264262185391
 20
117.278404459048
 40
3.235565316186
100
AcDbArc
 50
-46.295832272935
 51
46.295832272935
  0
ARC
  5
25A
100
AcDbEntity
  8
1
  6
CONTINUOUS
 62
           7
100
AcDbCircle
 10
203.055784411201
 20
131.789029375396
 40
16.444043090376
100
AcDbArc
 50
-20.084413517069
 51
20.084413517069
  0
ARC
  5
259
100
AcDbEntity
  8
1
  6
CONTINUOUS
 62
           7
100
AcDbCircle
 10
214.767872422303
 20
131.789029375396
 40
11.768044920727
100
AcDbArc
 50
151.32407598909
 51
-151.32407598909
  0
ARC
  5
258
100
AcDbEntity
  8
1
  6
CONTINUOUS
 62
           7
100
AcDbCircle
 10
216.264262185391
 20
166.820776846951
 40
3.235565316186
100
AcDbArc
 50
-46.295832272935
 51
46.295832272935
  0
ARC
  5
257
100
AcDbEntity
  8
1
  6
CONTINUOUS
 62
           7
100
AcDbCircle
 10
203.055784411201
 20
152.310151930604
 40
16.444043090376
100
AcDbArc
 50
-20.084413517069
 51
20.084413517069
  0
ARC
  5
256
100
AcDbEntity
  8
1
  6
CONTINUOUS
 62
           7
100
AcDbCircle
 10
214.767872422303
 20
152.310151930604
 40
11.768044920727
100
AcDbArc
 50
151.32407598909
 51
-151.32407598909
  0
ARC
  5
255
100
AcDbEntity
  8
1
  6
CONTINUOUS
 62
           7
100
AcDbCircle
 10
205.616770584087
 20
117.278404459048
 40
2.61694308251
100
AcDbArc
 50
-125.469883472614
 51
-116.64426343535
  0
ARC
  5
254
100
AcDbEntity
  8
1
  6
CONTINUOUS
 62
           7
100
AcDbCircle
 10
205.616770584087
 20
117.278404459048
 40
2.61694308251
100
AcDbArc
 50
116.64426343535
 51
180.0
  0
ARC
  5
253
100
AcDbEntity
  8
1
  6
CONTINUOUS
 62
           7
100
AcDbCircle
 10
238.79635031866
 20
132.549590653
 40
2.914802048322
100
AcDbArc
 50
0.0
 51
56.009305327322
  0
ARC
  5
252
100
AcDbEntity
  8
1
  6
CONTINUOUS
 62
           7
100
AcDbCircle
 10
205.616770584087
 20
166.820776846951
 40
2.61694308251
100
AcDbArc
 50
116.64426343535
 51
125.469883472614
  0
ARC
  5
251
100
AcDbEntity
  8
1
  6
CONTINUOUS
 62
           7
100
AcDbCircle
 10
205.616770584087
 20
166.820776846951
 40
2.61694308251
100
AcDbArc
 50
180.0
 51
-116.64426343535
  0
ARC
  5
250
100
AcDbEntity
  8
1
  6
CONTINUOUS
 62
           7
100
AcDbCircle
 10
238.79635031866
 20
151.549590653
 40
2.914802048322
100
AcDbArc
 50
-56.009305327321
 51
0.000000000002
  0
ARC
  5
24F
100
AcDbEntity
  8
1
  6
CONTINUOUS
 62
           7
100
AcDbCircle
 10
223.006510932426
 20
141.545680240324
 40
19.0
100
AcDbArc
 50
1.519753984313
 51
23.535955891532
  0
ARC
  5
24E
100
AcDbEntity
  8
1
  6
CONTINUOUS
 62
           7
100
AcDbCircle
 10
203.055784411201
 20
310.48700649851
 40
16.444043090376
100
AcDbArc
 50
-20.084413517069
 51
20.084413517069
  0
ARC
  5
24D
100
AcDbEntity
  8
1
  6
CONTINUOUS
 62
           7
100
AcDbCircle
 10
216.264262185391
 20
324.997631414857
 40
3.235565316186
100
AcDbArc
 50
-46.295832272935
 51
46.295832272935
  0
ARC
  5
24C
100
AcDbEntity
  8
1
  6
CONTINUOUS
 62
           7
100
AcDbCircle
 10
223.006510932426
 20
299.722534808231
 40
19.0
100
AcDbArc
 50
1.519753984313
 51
23.535955891531
  0
ARC
  5
24B
100
AcDbEntity
  8
1
  6
CONTINUOUS
 62
           7
100
AcDbCircle
 10
238.79635031866
 20
309.726445220906
 40
2.914802048322
100
AcDbArc
 50
-56.009305327322
 51
0.000000000001
  0
ARC
  5
24A
100
AcDbEntity
  8
1
  6
CONTINUOUS
 62
           7
100
AcDbCircle
 10
214.767872422303
 20
310.48700649851
 40
11.768044920727
100
AcDbArc
 50
151.32407598909
 51
-151.32407598909
  0
ARC
  5
249
100
AcDbEntity
  8
1
  6
CONTINUOUS
 62
           7
100
AcDbCircle
 10
205.616770584087
 20
324.997631414857
 40
2.61694308251
100
AcDbArc
 50
180.0
 51
-116.64426343535
  0
ARC
  5
248
100
AcDbEntity
  8
1
  6
CONTINUOUS
 62
           7
100
AcDbCircle
 10
205.616770584087
 20
324.997631414857
 40
2.61694308251
100
AcDbArc
 50
116.64426343535
 51
125.469883472614
  0
ARC
  5
247
100
AcDbEntity
  8
1
  6
CONTINUOUS
 62
           7
100
AcDbCircle
 10
203.055784411201
 20
289.965883943302
 40
16.444043090376
100
AcDbArc
 50
-20.084413517069
 51
20.084413517069
  0
ARC
  5
246
100
AcDbEntity
  8
1
  6
CONTINUOUS
 62
           7
100
AcDbCircle
 10
216.264262185391
 20
275.455259026954
 40
3.235565316186
100
AcDbArc
 50
-46.295832272936
 51
46.295832272935
  0
ARC
  5
245
100
AcDbEntity
  8
1
  6
CONTINUOUS
 62
           7
100
AcDbCircle
 10
223.006510932426
 20
300.730355633581
 40
19.0
100
AcDbArc
 50
-23.535955891531
 51
-1.519753984313
  0
ARC
  5
244
100
AcDbEntity
  8
1
  6
CONTINUOUS
 62
           7
100
AcDbCircle
 10
238.79635031866
 20
290.726445220906
 40
2.914802048322
100
AcDbArc
 50
0.0
 51
56.009305327322
  0
ARC
  5
243
100
AcDbEntity
  8
1
  6
CONTINUOUS
 62
           7
100
AcDbCircle
 10
214.767872422303
 20
289.965883943302
 40
11.768044920726
100
AcDbArc
 50
151.32407598909
 51
-151.32407598909
  0
ARC
  5
242
100
AcDbEntity
  8
1
  6
CONTINUOUS
 62
           7
100
AcDbCircle
 10
205.616770584087
 20
275.455259026954
 40
2.61694308251
100
AcDbArc
 50
116.64426343535
 51
180.0
  0
ARC
  5
241
100
AcDbEntity
  8
1
  6
CONTINUOUS
 62
           7
100
AcDbCircle
 10
205.616770584087
 20
275.455259026954
 40
2.61694308251
100
AcDbArc
 50
-125.469883472614
 51
-116.64426343535
  0
ARC
  5
240
100
AcDbEntity
  8
1
  6
CONTINUOUS
 62
           7
100
AcDbCircle
 10
198.038856405314
 20
384.367893717714
 40
100.0
100
AcDbArc
 50
-118.000959657694
 51
-108.986298019495
  0
ARC
  5
23F
100
AcDbEntity
  8
1
  6
CONTINUOUS
 62
           7
100
AcDbCircle
 10
198.038856405314
 20
216.084996724098
 40
100.0
100
AcDbArc
 50
112.3578601502
 51
118.000959657695
  0
ARC
  5
23E
100
AcDbEntity
  8
1
  6
CONTINUOUS
 62
           7
100
AcDbCircle
 10
192.499827501577
 20
309.726445220906
 40
10.0
100
AcDbArc
 50
61.426790035187
 51
135.572995999194
  0
ARC
  5
23D
100
AcDbEntity
  8
1
  6
CONTINUOUS
 62
           7
100
AcDbCircle
 10
160.999827501577
 20
318.805860406588
 40
9.0
100
AcDbArc
 50
-124.961012623299
 51
-55.0389873767
  0
LINE
  5
23C
100
AcDbEntity
  8
1
  6
CONTINUOUS
 62
           2
100
AcDbLine
 10
158.629774524896
 20
139.233724199363
 11
156.358468302043
 21
139.233724199363
  0
LINE
  5
23B
100
AcDbEntity
  8
1
  6
CONTINUOUS
 62
           2
100
AcDbLine
 10
156.358468302043
 20
139.233724199363
 11
156.358468302043
 21
139.665724199363
  0
LINE
  5
23A
100
AcDbEntity
  8
1
  6
CONTINUOUS
 62
           2
100
AcDbLine
 10
158.629774524896
 20
139.665724199363
 11
158.629774524896
 21
139.233724199363
  0
LINE
  5
239
100
AcDbEntity
  8
1
  6
CONTINUOUS
 62
           2
100
AcDbLine
 10
156.358468302043
 20
139.665724199363
 11
158.629774524896
 21
139.665724199363
  0
LINE
  5
238
100
AcDbEntity
  8
1
  6
CONTINUOUS
 62
           2
100
AcDbLine
 10
163.831295468394
 20
140.267011139012
 11
164.240345844493
 21
140.267011139012
  0
LINE
  5
237
100
AcDbEntity
  8
1
  6
CONTINUOUS
 62
           2
100
AcDbLine
 10
159.156659244628
 20
138.691800538814
 11
159.61324930769
 21
138.691800538814
  0
LINE
  5
236
100
AcDbEntity
  8
1
  6
CONTINUOUS
 62
           2
100
AcDbLine
 10
153.606026600684
 20
141.149857745729
 11
154.08716207919
 21
141.149857745729
  0
LINE
  5
235
100
AcDbEntity
  8
1
  6
CONTINUOUS
 62
           2
100
AcDbLine
 10
153.606026600684
 20
141.149857745729
 11
153.606026600684
 21
137.749590653
  0
LINE
  5
234
100
AcDbEntity
  8
1
  6
CONTINUOUS
 62
           2
100
AcDbLine
 10
153.606026600684
 20
137.749590653
 11
155.877332823538
 21
137.749590653
  0
LINE
  5
233
100
AcDbEntity
  8
1
  6
CONTINUOUS
 62
           2
100
AcDbLine
 10
155.877332823538
 20
137.749590653
 11
155.877332823538
 21
138.181296453576
  0
LINE
  5
232
100
AcDbEntity
  8
1
  6
CONTINUOUS
 62
           2
100
AcDbLine
 10
155.877332823538
 20
138.181296453576
 11
154.08716207919
 21
138.181296453576
  0
LINE
  5
231
100
AcDbEntity
  8
1
  6
CONTINUOUS
 62
           2
100
AcDbLine
 10
154.08716207919
 20
138.181296453576
 11
154.08716207919
 21
141.149857745729
  0
LINE
  5
230
100
AcDbEntity
  8
1
  6
CONTINUOUS
 62
           2
100
AcDbLine
 10
152.082192990452
 20
139.140000022702
 11
150.997213160991
 21
139.1400000227
  0
LINE
  5
22F
100
AcDbEntity
  8
1
  6
CONTINUOUS
 62
           2
100
AcDbLine
 10
151.533758321759
 20
140.62017036813
 11
152.082192990452
 21
139.140000022702
  0
LINE
  5
22E
100
AcDbEntity
  8
1
  6
CONTINUOUS
 62
           2
100
AcDbLine
 10
150.997213160991
 20
139.1400000227
 11
151.533758321759
 21
140.62017036813
  0
LINE
  5
22D
100
AcDbEntity
  8
1
  6
CONTINUOUS
 62
           2
100
AcDbLine
 10
150.493205347899
 20
137.749590652999
 11
149.999827501577
 21
137.749590653
  0
LINE
  5
22C
100
AcDbEntity
  8
1
  6
CONTINUOUS
 62
           2
100
AcDbLine
 10
150.857391638648
 20
138.754273552397
 11
150.493205347899
 21
137.749590652999
  0
LINE
  5
22B
100
AcDbEntity
  8
1
  6
CONTINUOUS
 62
           2
100
AcDbLine
 10
152.225112870992
 20
138.754273552397
 11
150.857391638648
 21
138.754273552397
  0
LINE
  5
22A
100
AcDbEntity
  8
1
  6
CONTINUOUS
 62
           2
100
AcDbLine
 10
152.597369304024
 20
137.749590652999
 11
152.225112870992
 21
138.754273552397
  0
LINE
  5
229
100
AcDbEntity
  8
1
  6
CONTINUOUS
 62
           2
100
AcDbLine
 10
153.124891122179
 20
137.749590652999
 11
152.597369304024
 21
137.749590652999
  0
LINE
  5
228
100
AcDbEntity
  8
1
  6
CONTINUOUS
 62
           2
100
AcDbLine
 10
151.787330740511
 20
141.149857745727
 11
153.124891122179
 21
137.749590652999
  0
LINE
  5
227
100
AcDbEntity
  8
1
  6
CONTINUOUS
 62
           2
100
AcDbLine
 10
151.29950947316
 20
141.149857745727
 11
151.787330740511
 21
141.149857745727
  0
LINE
  5
226
100
AcDbEntity
  8
1
  6
CONTINUOUS
 62
           2
100
AcDbLine
 10
149.999827501577
 20
137.749590653
 11
151.29950947316
 21
141.149857745727
  0
LINE
  5
225
100
AcDbEntity
  8
2
  6
DOT_CENTER
 62
           2
100
AcDbLine
 10
117.499827501577
 20
142.049590653
 11
253.534922846341
 21
142.049590653
  0
LINE
  5
224
100
AcDbEntity
  8
1
  6
CONTINUOUS
 62
           7
100
AcDbLine
 10
172.842973252085
 20
291.226445220906
 11
178.499827501577
 21
285.569590971413
  0
LINE
  5
223
100
AcDbEntity
  8
1
  6
CONTINUOUS
 62
           7
100
AcDbLine
 10
178.499827501577
 20
296.883299470398
 11
172.842973252085
 21
291.226445220906
  0
LINE
  5
222
100
AcDbEntity
  8
1
  6
CONTINUOUS
 62
           7
100
AcDbLine
 10
184.156681751069
 20
291.226445220906
 11
178.499827501577
 21
296.883299470398
  0
LINE
  5
221
100
AcDbEntity
  8
1
  6
CONTINUOUS
 62
           7
100
AcDbLine
 10
178.499827501577
 20
285.569590971413
 11
184.156681751069
 21
291.226445220906
  0
LINE
  5
220
100
AcDbEntity
  8
1
  6
CONTINUOUS
 62
           7
100
AcDbLine
 10
172.842973252085
 20
309.226445220906
 11
178.499827501577
 21
303.569590971413
  0
LINE
  5
21F
100
AcDbEntity
  8
1
  6
CONTINUOUS
 62
           7
100
AcDbLine
 10
178.499827501577
 20
314.883299470398
 11
172.842973252085
 21
309.226445220906
  0
LINE
  5
21E
100
AcDbEntity
  8
1
  6
CONTINUOUS
 62
           7
100
AcDbLine
 10
184.156681751069
 20
309.226445220906
 11
178.499827501577
 21
314.883299470398
  0
LINE
  5
21D
100
AcDbEntity
  8
1
  6
CONTINUOUS
 62
           7
100
AcDbLine
 10
178.499827501577
 20
303.569590971413
 11
184.156681751069
 21
309.226445220906
  0
LINE
  5
21C
100
AcDbEntity
  8
1
  6
CONTINUOUS
 62
           2
100
AcDbLine
 10
165.499827501577
 20
137.049590653
 11
150.499827501577
 21
137.049590653
  0
LINE
  5
21B
100
AcDbEntity
  8
1
  6
CONTINUOUS
 62
           2
100
AcDbLine
 10
149.499827501577
 20
138.049590653
 11
149.499827501577
 21
146.049590653
  0
LINE
  5
21A
100
AcDbEntity
  8
1
  6
CONTINUOUS
 62
           2
100
AcDbLine
 10
150.499827501577
 20
147.049590653
 11
165.499827501577
 21
147.049590653
  0
LINE
  5
219
100
AcDbEntity
  8
1
  6
CONTINUOUS
 62
           2
100
AcDbLine
 10
166.499827501577
 20
146.049590653
 11
166.499827501577
 21
138.049590653
  0
LINE
  5
218
100
AcDbEntity
  8
1
  6
CONTINUOUS
 62
           7
100
AcDbLine
 10
166.999827501577
 20
146.049590653
 11
166.999827501577
 21
138.049590653
  0
LINE
  5
217
100
AcDbEntity
  8
1
  6
CONTINUOUS
 62
           7
100
AcDbLine
 10
148.999827501577
 20
138.049590653
 11
148.999827501577
 21
146.049590653
  0
LINE
  5
216
100
AcDbEntity
  8
1
  6
CONTINUOUS
 62
           2
100
AcDbLine
 10
158.386967548145
 20
144.938051050883
 11
158.146881826796
 21
145.711352037979
  0
LINE
  5
215
100
AcDbEntity
  8
1
  6
CONTINUOUS
 62
           2
100
AcDbLine
 10
164.61256837126
 20
143.526389263919
 11
164.111009632418
 21
142.049820737226
  0
LINE
  5
214
100
AcDbEntity
  8
1
  6
CONTINUOUS
 62
           2
100
AcDbLine
 10
164.850972187902
 20
142.765025497854
 11
164.61256837126
 21
143.526389263919
  0
LINE
  5
213
100
AcDbEntity
  8
1
  6
CONTINUOUS
 62
           2
100
AcDbLine
 10
164.416095750924
 20
142.765584329947
 11
164.850972187902
 21
142.765025497854
  0
LINE
  5
212
100
AcDbEntity
  8
1
  6
CONTINUOUS
 62
           2
100
AcDbLine
 10
164.416095750924
 20
142.765584329947
 11
164.52959256246
 21
142.407282636539
  0
LINE
  5
211
100
AcDbEntity
  8
1
  6
CONTINUOUS
 62
           2
100
AcDbLine
 10
164.52959256246
 20
142.407282636539
 11
164.974020062891
 21
142.407381068198
  0
LINE
  5
210
100
AcDbEntity
  8
1
  6
CONTINUOUS
 62
           2
100
AcDbLine
 10
164.974020062891
 20
142.407381068198
 11
165.095613820837
 21
142.049833105378
  0
LINE
  5
20F
100
AcDbEntity
  8
1
  6
CONTINUOUS
 62
           2
100
AcDbLine
 10
165.095613820837
 20
142.049833105378
 11
165.623582791025
 21
142.049824183199
  0
LINE
  5
20E
100
AcDbEntity
  8
1
  6
CONTINUOUS
 62
           2
100
AcDbLine
 10
165.623582791025
 20
142.049824183199
 11
165.007038868517
 21
143.711429077413
  0
LINE
  5
20D
100
AcDbEntity
  8
1
  6
CONTINUOUS
 62
           2
100
AcDbLine
 10
164.770410051746
 20
143.877604139722
 11
164.298604132383
 21
143.877603064845
  0
LINE
  5
20C
100
AcDbEntity
  8
1
  6
CONTINUOUS
 62
           2
100
AcDbLine
 10
164.298604132383
 20
143.877603064845
 11
163.618581813406
 21
142.049819615367
  0
LINE
  5
20B
100
AcDbEntity
  8
1
  6
CONTINUOUS
 62
           2
100
AcDbLine
 10
163.618581813406
 20
142.049819615367
 11
164.111009632418
 21
142.049820737226
  0
LINE
  5
20A
100
AcDbEntity
  8
1
  6
CONTINUOUS
 62
           2
100
AcDbLine
 10
149.999827501577
 20
142.049830263539
 11
152.13655137553
 21
142.049835249139
  0
LINE
  5
209
100
AcDbEntity
  8
1
  6
CONTINUOUS
 62
           2
100
AcDbLine
 10
152.13655137553
 20
142.049835249139
 11
153.588552948735
 21
144.148702881734
  0
LINE
  5
208
100
AcDbEntity
  8
1
  6
CONTINUOUS
 62
           2
100
AcDbLine
 10
153.968407173126
 20
144.360153263449
 11
154.36006153089
 21
144.360146644859
  0
LINE
  5
207
100
AcDbEntity
  8
1
  6
CONTINUOUS
 62
           2
100
AcDbLine
 10
154.36006153089
 20
144.360146644859
 11
153.821274952298
 21
146.049810056044
  0
LINE
  5
206
100
AcDbEntity
  8
1
  6
CONTINUOUS
 62
           2
100
AcDbLine
 10
149.999827501577
 20
142.049830263539
 11
152.22276493511
 21
145.209880551137
  0
LINE
  5
205
100
AcDbEntity
  8
1
  6
CONTINUOUS
 62
           2
100
AcDbLine
 10
153.46648863622
 20
146.049809239799
 11
153.821274952298
 21
146.049810056044
  0
LINE
  5
204
100
AcDbEntity
  8
1
  6
CONTINUOUS
 62
           2
100
AcDbLine
 10
154.420038089945
 20
146.049846712496
 11
154.420038089945
 21
142.04979851362
  0
LINE
  5
203
100
AcDbEntity
  8
1
  6
CONTINUOUS
 62
           2
100
AcDbLine
 10
154.420038089945
 20
142.04979851362
 11
156.254644421738
 21
142.049802706671
  0
LINE
  5
202
100
AcDbEntity
  8
1
  6
CONTINUOUS
 62
           2
100
AcDbLine
 10
156.254644421738
 20
142.049802706671
 11
156.254644421738
 21
146.049815613208
  0
LINE
  5
201
100
AcDbEntity
  8
1
  6
CONTINUOUS
 62
           2
100
AcDbLine
 10
156.254644421738
 20
146.049815613208
 11
154.420038089945
 21
146.049846712496
  0
LINE
  5
200
100
AcDbEntity
  8
1
  6
CONTINUOUS
 62
           2
100
AcDbLine
 10
162.830319866306
 20
142.049827483115
 11
163.328978740022
 21
142.049818932053
  0
LINE
  5
1FF
100
AcDbEntity
  8
1
  6
CONTINUOUS
 62
           2
100
AcDbLine
 10
162.830319866306
 20
143.527411009934
 11
162.830319866306
 21
142.049827483115
  0
LINE
  5
1FE
100
AcDbEntity
  8
1
  6
CONTINUOUS
 62
           2
100
AcDbLine
 10
162.267842567982
 20
143.527409728488
 11
162.830319866306
 21
143.527411009934
  0
LINE
  5
1FD
100
AcDbEntity
  8
1
  6
CONTINUOUS
 62
           2
100
AcDbLine
 10
162.267842567982
 20
143.877602383044
 11
162.267842567982
 21
143.527409728488
  0
LINE
  5
1FC
100
AcDbEntity
  8
1
  6
CONTINUOUS
 62
           2
100
AcDbLine
 10
163.96399564752
 20
143.877602265281
 11
162.267842567982
 21
143.877602383044
  0
LINE
  5
1FB
100
AcDbEntity
  8
1
  6
CONTINUOUS
 62
           2
100
AcDbLine
 10
163.96399564752
 20
143.742093218871
 11
163.96399564752
 21
143.877602265281
  0
LINE
  5
1FA
100
AcDbEntity
  8
1
  6
CONTINUOUS
 62
           2
100
AcDbLine
 10
163.328978740022
 20
143.526090784612
 11
163.74644234777
 21
143.526091721565
  0
LINE
  5
1F9
100
AcDbEntity
  8
1
  6
CONTINUOUS
 62
           2
100
AcDbLine
 10
163.328978740022
 20
142.049818932053
 11
163.328978740022
 21
143.526090784612
  0
LINE
  5
1F8
100
AcDbEntity
  8
1
  6
CONTINUOUS
 62
           2
100
AcDbLine
 10
161.930484387428
 20
142.407987770553
 11
161.490158321043
 21
142.407896950117
  0
LINE
  5
1F7
100
AcDbEntity
  8
1
  6
CONTINUOUS
 62
           2
100
AcDbLine
 10
162.053179171665
 20
142.049826000751
 11
161.930484387428
 21
142.407987770553
  0
LINE
  5
1F6
100
AcDbEntity
  8
1
  6
CONTINUOUS
 62
           2
100
AcDbLine
 10
162.570023948864
 20
142.049817165331
 11
162.053179171665
 21
142.049826000751
  0
LINE
  5
1F5
100
AcDbEntity
  8
1
  6
CONTINUOUS
 62
           2
100
AcDbLine
 10
161.959716467549
 20
143.701693195406
 11
162.570023948864
 21
142.049817165331
  0
LINE
  5
1F4
100
AcDbEntity
  8
1
  6
CONTINUOUS
 62
           2
100
AcDbLine
 10
161.24474322483
 20
143.877596032168
 11
161.722937626885
 21
143.877587849903
  0
LINE
  5
1F3
100
AcDbEntity
  8
1
  6
CONTINUOUS
 62
           2
100
AcDbLine
 10
160.767538362036
 20
142.584107992977
 11
160.555919921404
 21
143.664977904376
  0
LINE
  5
1F2
100
AcDbEntity
  8
1
  6
CONTINUOUS
 62
           2
100
AcDbLine
 10
161.24474322483
 20
143.877596032168
 11
160.767538362036
 21
142.584107992977
  0
LINE
  5
1F1
100
AcDbEntity
  8
1
  6
CONTINUOUS
 62
           2
100
AcDbLine
 10
160.860868760493
 20
142.049788244118
 11
160.472969396275
 21
142.049794967968
  0
LINE
  5
1F0
100
AcDbEntity
  8
1
  6
CONTINUOUS
 62
           2
100
AcDbLine
 10
161.565565525808
 20
143.543647028118
 11
161.124651767209
 21
142.235738830073
  0
LINE
  5
1EF
100
AcDbEntity
  8
1
  6
CONTINUOUS
 62
           2
100
AcDbLine
 10
161.805838668867
 20
142.763794996768
 11
161.565565525808
 21
143.543647028118
  0
LINE
  5
1EE
100
AcDbEntity
  8
1
  6
CONTINUOUS
 62
           2
100
AcDbLine
 10
161.377119763807
 20
142.763689260705
 11
161.805838668867
 21
142.763794996768
  0
LINE
  5
1ED
100
AcDbEntity
  8
1
  6
CONTINUOUS
 62
           2
100
AcDbLine
 10
161.490158321043
 20
142.407896950117
 11
161.377119763807
 21
142.763689260705
  0
LINE
  5
1EC
100
AcDbEntity
  8
1
  6
CONTINUOUS
 62
           2
100
AcDbLine
 10
160.215061647569
 20
143.444097356397
 11
160.472969396275
 21
142.049794967968
  0
LINE
  5
1EB
100
AcDbEntity
  8
1
  6
CONTINUOUS
 62
           2
100
AcDbLine
 10
159.972314573047
 20
142.272144682016
 11
160.215061647569
 21
143.444097356397
  0
LINE
  5
1EA
100
AcDbEntity
  8
1
  6
CONTINUOUS
 62
           2
100
AcDbLine
 10
159.368262415444
 20
142.049813636476
 11
159.699252497044
 21
142.049807874339
  0
LINE
  5
1E9
100
AcDbEntity
  8
1
  6
CONTINUOUS
 62
           2
100
AcDbLine
 10
158.747667147795
 20
143.877590319746
 11
159.368262415444
 21
142.049813636476
  0
LINE
  5
1E8
100
AcDbEntity
  8
1
  6
CONTINUOUS
 62
           2
100
AcDbLine
 10
159.098761998792
 20
143.877591143152
 11
158.747667147795
 21
143.877590319746
  0
LINE
  5
1E7
100
AcDbEntity
  8
1
  6
CONTINUOUS
 62
           2
100
AcDbLine
 10
159.655367235253
 20
142.580535667642
 11
159.291709355026
 21
143.735249321352
  0
LINE
  5
1E6
100
AcDbEntity
  8
1
  6
CONTINUOUS
 62
           2
100
AcDbLine
 10
159.884934348145
 20
143.87759291069
 11
159.655367235253
 21
142.580535667642
  0
LINE
  5
1E5
100
AcDbEntity
  8
1
  6
CONTINUOUS
 62
           2
100
AcDbLine
 10
160.312322988206
 20
143.877593896142
 11
159.884934348145
 21
143.87759291069
  0
LINE
  5
1E4
100
AcDbEntity
  8
1
  6
CONTINUOUS
 62
           2
100
AcDbLine
 10
158.591746651685
 20
142.049808064287
 11
158.089233521465
 21
142.049806801814
  0
LINE
  5
1E3
100
AcDbEntity
  8
1
  6
CONTINUOUS
 62
           2
100
AcDbLine
 10
158.591746651685
 20
143.625435396113
 11
158.591746651685
 21
142.049808064287
  0
LINE
  5
1E2
100
AcDbEntity
  8
1
  6
CONTINUOUS
 62
           2
100
AcDbLine
 10
158.089233521465
 20
143.877588820444
 11
158.40099835225
 21
143.877589529958
  0
LINE
  5
1E1
100
AcDbEntity
  8
1
  6
CONTINUOUS
 62
           2
100
AcDbLine
 10
158.089233521465
 20
142.049806801814
 11
158.089233521465
 21
143.877588820444
  0
LINE
  5
1E0
100
AcDbEntity
  8
1
  6
CONTINUOUS
 62
           2
100
AcDbLine
 10
166.079827501577
 20
146.049838148461
 11
164.481894754493
 21
146.049834477424
  0
LINE
  5
1DF
100
AcDbEntity
  8
1
  6
CONTINUOUS
 62
           2
100
AcDbLine
 10
166.079827501577
 20
146.049838148461
 11
166.079827501577
 21
145.920022497506
  0
LINE
  5
1DE
100
AcDbEntity
  8
1
  6
CONTINUOUS
 62
           2
100
AcDbLine
 10
165.48427132926
 20
145.707471677784
 11
165.863633328877
 21
145.706984183769
  0
LINE
  5
1DD
100
AcDbEntity
  8
1
  6
CONTINUOUS
 62
           2
100
AcDbLine
 10
164.481894754493
 20
145.70812498683
 11
164.481894754493
 21
146.049834477424
  0
LINE
  5
1DC
100
AcDbEntity
  8
1
  6
CONTINUOUS
 62
           2
100
AcDbLine
 10
164.988008494025
 20
145.708126139868
 11
164.481894754493
 21
145.70812498683
  0
LINE
  5
1DB
100
AcDbEntity
  8
1
  6
CONTINUOUS
 62
           2
100
AcDbLine
 10
164.988008494025
 20
144.232157868693
 11
164.988008494025
 21
145.708126139868
  0
LINE
  5
1DA
100
AcDbEntity
  8
1
  6
CONTINUOUS
 62
           2
100
AcDbLine
 10
165.48427132926
 20
144.232149262987
 11
164.988008494025
 21
144.232157868693
  0
LINE
  5
1D9
100
AcDbEntity
  8
1
  6
CONTINUOUS
 62
           2
100
AcDbLine
 10
165.48427132926
 20
145.707471677784
 11
165.48427132926
 21
144.232149262987
  0
LINE
  5
1D8
100
AcDbEntity
  8
1
  6
CONTINUOUS
 62
           2
100
AcDbLine
 10
164.242998128632
 20
146.049735201757
 11
163.63740256829
 21
146.049578597735
  0
LINE
  5
1D7
100
AcDbEntity
  8
1
  6
CONTINUOUS
 62
           2
100
AcDbLine
 10
162.974726059156
 20
144.588014275142
 11
163.726558983398
 21
144.588014222942
  0
LINE
  5
1D6
100
AcDbEntity
  8
1
  6
CONTINUOUS
 62
           2
100
AcDbLine
 10
162.974726059156
 20
144.232804814102
 11
163.780304156265
 21
144.232414098582
  0
LINE
  5
1D5
100
AcDbEntity
  8
1
  6
CONTINUOUS
 62
           2
100
AcDbLine
 10
164.242998128632
 20
145.703236402999
 11
163.636267675202
 21
145.703246512536
  0
LINE
  5
1D4
100
AcDbEntity
  8
1
  6
CONTINUOUS
 62
           2
100
AcDbLine
 10
162.974726059156
 20
144.588014275142
 11
162.974726059156
 21
144.232804814102
  0
LINE
  5
1D3
100
AcDbEntity
  8
1
  6
CONTINUOUS
 62
           2
100
AcDbLine
 10
164.242998128632
 20
146.049735201757
 11
164.242998128632
 21
145.703236402999
  0
LINE
  5
1D2
100
AcDbEntity
  8
1
  6
CONTINUOUS
 62
           2
100
AcDbLine
 10
161.8038997917
 20
144.587558132988
 11
162.764832807868
 21
144.58756034574
  0
LINE
  5
1D1
100
AcDbEntity
  8
1
  6
CONTINUOUS
 62
           2
100
AcDbLine
 10
161.773620636955
 20
145.704353325668
 11
161.773620636955
 21
144.618622632484
  0
LINE
  5
1D0
100
AcDbEntity
  8
1
  6
CONTINUOUS
 62
           2
100
AcDbLine
 10
162.766258021865
 20
145.70440572818
 11
161.773620636955
 21
145.704353325668
  0
LINE
  5
1CF
100
AcDbEntity
  8
1
  6
CONTINUOUS
 62
           2
100
AcDbLine
 10
162.766693297119
 20
146.049830530751
 11
162.766258021865
 21
145.70440572818
  0
LINE
  5
1CE
100
AcDbEntity
  8
1
  6
CONTINUOUS
 62
           2
100
AcDbLine
 10
161.269726808415
 20
146.049827096797
 11
162.766693297119
 21
146.049830530751
  0
LINE
  5
1CD
100
AcDbEntity
  8
1
  6
CONTINUOUS
 62
           2
100
AcDbLine
 10
161.269726808415
 20
144.504754772204
 11
161.269726808415
 21
146.049827096797
  0
LINE
  5
1CC
100
AcDbEntity
  8
1
  6
CONTINUOUS
 62
           2
100
AcDbLine
 10
162.764832807868
 20
144.232195727178
 11
161.546704376387
 21
144.232216472277
  0
LINE
  5
1CB
100
AcDbEntity
  8
1
  6
CONTINUOUS
 62
           2
100
AcDbLine
 10
162.764832807868
 20
144.58756034574
 11
162.764832807868
 21
144.232195727178
  0
LINE
  5
1CA
100
AcDbEntity
  8
1
  6
CONTINUOUS
 62
           2
100
AcDbLine
 10
161.957563860217
 20
144.974092461171
 11
162.699227174485
 21
144.973796624282
  0
LINE
  5
1C9
100
AcDbEntity
  8
1
  6
CONTINUOUS
 62
           2
100
AcDbLine
 10
161.845598588812
 20
145.3232657715
 11
161.957563860217
 21
144.974092461171
  0
LINE
  5
1C8
100
AcDbEntity
  8
1
  6
CONTINUOUS
 62
           2
100
AcDbLine
 10
162.699227174485
 20
145.323267739788
 11
161.845598588812
 21
145.3232657715
  0
LINE
  5
1C7
100
AcDbEntity
  8
1
  6
CONTINUOUS
 62
           2
100
AcDbLine
 10
162.699227174485
 20
144.973796624282
 11
162.699227174485
 21
145.323267739788
  0
LINE
  5
1C6
100
AcDbEntity
  8
1
  6
CONTINUOUS
 62
           2
100
AcDbLine
 10
159.674427539716
 20
144.232248358972
 11
159.221976207448
 21
144.232256004974
  0
LINE
  5
1C5
100
AcDbEntity
  8
1
  6
CONTINUOUS
 62
           2
100
AcDbLine
 10
159.674427539716
 20
145.612880777065
 11
159.674427539716
 21
144.232248358972
  0
LINE
  5
1C4
100
AcDbEntity
  8
1
  6
CONTINUOUS
 62
           2
100
AcDbLine
 10
160.22853444599
 20
144.390817669465
 11
159.674427539716
 21
145.612880777065
  0
LINE
  5
1C3
100
AcDbEntity
  8
1
  6
CONTINUOUS
 62
           2
100
AcDbLine
 10
160.998839973107
 20
144.232225893291
 11
160.481349595828
 21
144.23223467823
  0
LINE
  5
1C2
100
AcDbEntity
  8
1
  6
CONTINUOUS
 62
           2
100
AcDbLine
 10
160.998839973107
 20
146.049826463183
 11
160.998839973107
 21
144.232225893291
  0
LINE
  5
1C1
100
AcDbEntity
  8
1
  6
CONTINUOUS
 62
           2
100
AcDbLine
 10
160.551401109667
 20
146.049825432052
 11
160.998839973107
 21
146.049826463183
  0
LINE
  5
1C0
100
AcDbEntity
  8
1
  6
CONTINUOUS
 62
           2
100
AcDbLine
 10
160.551401109667
 20
144.699178092325
 11
160.551401109667
 21
146.049825432052
  0
LINE
  5
1BF
100
AcDbEntity
  8
1
  6
CONTINUOUS
 62
           2
100
AcDbLine
 10
160.011314597835
 20
145.886578366607
 11
160.551401109667
 21
144.699178092325
  0
LINE
  5
1BE
100
AcDbEntity
  8
1
  6
CONTINUOUS
 62
           2
100
AcDbLine
 10
159.221976207448
 20
146.04982240333
 11
159.758430650998
 21
146.049823625491
  0
LINE
  5
1BD
100
AcDbEntity
  8
1
  6
CONTINUOUS
 62
           2
100
AcDbLine
 10
159.221976207448
 20
144.232256004974
 11
159.221976207448
 21
146.04982240333
  0
LINE
  5
1BC
100
AcDbEntity
  8
1
  6
CONTINUOUS
 62
           2
100
AcDbLine
 10
158.511361738649
 20
144.589464030901
 11
158.081584968833
 21
144.589346772518
  0
LINE
  5
1BB
100
AcDbEntity
  8
1
  6
CONTINUOUS
 62
           2
100
AcDbLine
 10
158.633018759836
 20
144.240526094389
 11
158.511361738649
 21
144.589464030901
  0
LINE
  5
1BA
100
AcDbEntity
  8
1
  6
CONTINUOUS
 62
           2
100
AcDbLine
 10
159.15062252543
 20
144.232257166264
 11
158.647314877338
 21
144.232265840406
  0
LINE
  5
1B9
100
AcDbEntity
  8
1
  6
CONTINUOUS
 62
           2
100
AcDbLine
 10
158.536694982607
 20
145.881355883979
 11
158.542612859458
 21
145.865441633228
  0
LINE
  5
1B8
100
AcDbEntity
  8
1
  6
CONTINUOUS
 62
           2
100
AcDbLine
 10
158.281065308001
 20
146.049517289116
 11
157.837217089481
 21
146.04981922501
  0
LINE
  5
1B7
100
AcDbEntity
  8
1
  6
CONTINUOUS
 62
           2
100
AcDbLine
 10
157.162431788098
 20
144.232290933532
 11
157.837217089481
 21
146.04981922501
  0
LINE
  5
1B6
100
AcDbEntity
  8
1
  6
CONTINUOUS
 62
           2
100
AcDbLine
 10
157.649438860911
 20
144.232334648887
 11
157.162431788098
 21
144.232290933532
  0
LINE
  5
1B5
100
AcDbEntity
  8
1
  6
CONTINUOUS
 62
           2
100
AcDbLine
 10
158.146881826796
 20
145.711352037979
 11
157.649438860911
 21
144.232334648887
  0
LINE
  5
1B4
100
AcDbEntity
  8
1
  6
CONTINUOUS
 62
           2
100
AcDbLine
 10
157.950875596568
 20
144.938051081161
 11
158.386967548145
 21
144.938051050883
  0
LINE
  5
1B3
100
AcDbEntity
  8
1
  6
CONTINUOUS
 62
           2
100
AcDbLine
 10
158.058467198256
 20
144.60521515695
 11
157.950875596568
 21
144.938051081161
  0
LINE
  5
1B2
100
AcDbEntity
  8
1
  6
CONTINUOUS
 62
           2
100
AcDbLine
 10
158.542612859458
 20
145.865441633228
 11
159.15062252543
 21
144.232257166264
  0
LINE
  5
1B1
100
AcDbEntity
  8
60
  6
CONTINUOUS
 62
           7
100
AcDbLine
 10
241.999827501577
 20
301.08277794049
 11
248.01530760407
 21
301.083299470398
  0
LINE
  5
1B0
100
AcDbEntity
  8
60
  6
CONTINUOUS
 62
           7
100
AcDbLine
 10
241.999827501577
 20
305.026445220906
 11
248.01530760407
 21
305.026445220906
  0
LINE
  5
1AF
100
AcDbEntity
  8
60
  6
CONTINUOUS
 62
           7
100
AcDbLine
 10
248.01530760407
 20
305.026445220906
 11
248.534922846341
 21
304.126445220906
  0
LINE
  5
1AE
100
AcDbEntity
  8
60
  6
CONTINUOUS
 62
           7
100
AcDbLine
 10
248.534922846341
 20
304.126445220906
 11
248.534922846341
 21
296.326445220906
  0
LINE
  5
1AD
100
AcDbEntity
  8
60
  6
CONTINUOUS
 62
           7
100
AcDbLine
 10
248.01530760407
 20
301.083299470398
 11
248.04021781474
 21
300.226445220906
  0
LINE
  5
1AC
100
AcDbEntity
  8
60
  6
CONTINUOUS
 62
           7
100
AcDbLine
 10
248.01530760407
 20
295.426445220906
 11
241.999827501577
 21
295.426445220906
  0
LINE
  5
1AB
100
AcDbEntity
  8
60
  6
CONTINUOUS
 62
           7
100
AcDbLine
 10
248.534922846341
 20
296.326445220906
 11
248.01530760407
 21
295.426445220906
  0
LINE
  5
1AA
100
AcDbEntity
  8
60
  6
CONTINUOUS
 62
           7
100
AcDbLine
 10
248.04021781474
 20
300.226445220906
 11
248.01530760407
 21
299.369590971413
  0
LINE
  5
1A9
100
AcDbEntity
  8
60
  6
CONTINUOUS
 62
           7
100
AcDbLine
 10
248.01530760407
 20
299.369590971413
 11
241.999827501577
 21
299.370112501322
  0
LINE
  5
1A8
100
AcDbEntity
  8
1
  6
LONG_DASHED
 62
           3
100
AcDbLine
 10
125.499827501577
 20
307.526445220906
 11
125.499827501577
 21
292.926445220906
  0
LINE
  5
1A7
100
AcDbEntity
  8
1
  6
LONG_DASHED
 62
           3
100
AcDbLine
 10
114.499827501577
 20
305.326445220906
 11
120.499827501577
 21
305.326445220906
  0
LINE
  5
1A6
100
AcDbEntity
  8
1
  6
LONG_DASHED
 62
           3
100
AcDbLine
 10
116.199827501577
 20
302.726445220906
 11
114.499827501577
 21
302.726445220906
  0
LINE
  5
1A5
100
AcDbEntity
  8
1
  6
LONG_DASHED
 62
           3
100
AcDbLine
 10
120.499827501577
 20
295.126445220906
 11
114.499827501577
 21
295.126445220906
  0
LINE
  5
1A4
100
AcDbEntity
  8
1
  6
LONG_DASHED
 62
           3
100
AcDbLine
 10
114.499827501577
 20
297.726445220906
 11
116.199827501577
 21
297.726445220906
  0
LINE
  5
1A3
100
AcDbEntity
  8
1
  6
LONG_DASHED
 62
           3
100
AcDbLine
 10
126.999827501577
 20
293.276445220906
 11
126.999827501577
 21
307.176445220906
  0
LINE
  5
1A2
100
AcDbEntity
  8
1
  6
LONG_DASHED
 62
           3
100
AcDbLine
 10
125.499827501577
 20
307.176445220906
 11
125.799827501577
 21
307.476445220906
  0
LINE
  5
1A1
100
AcDbEntity
  8
1
  6
LONG_DASHED
 62
           3
100
AcDbLine
 10
126.699827501577
 20
307.476445220906
 11
126.999827501577
 21
307.176445220906
  0
LINE
  5
1A0
100
AcDbEntity
  8
1
  6
LONG_DASHED
 62
           3
100
AcDbLine
 10
126.699827501577
 20
307.476445220906
 11
125.799827501577
 21
307.476445220906
  0
LINE
  5
19F
100
AcDbEntity
  8
1
  6
LONG_DASHED
 62
           3
100
AcDbLine
 10
125.799827501577
 20
292.976445220906
 11
125.499827501577
 21
293.276445220906
  0
LINE
  5
19E
100
AcDbEntity
  8
1
  6
LONG_DASHED
 62
           3
100
AcDbLine
 10
126.999827501577
 20
293.276445220906
 11
126.699827501577
 21
292.976445220906
  0
LINE
  5
19D
100
AcDbEntity
  8
1
  6
LONG_DASHED
 62
           3
100
AcDbLine
 10
125.799827501577
 20
292.976445220906
 11
126.699827501577
 21
292.976445220906
  0
LINE
  5
19C
100
AcDbEntity
  8
1
  6
LONG_DASHED
 62
           3
100
AcDbLine
 10
125.299827501577
 20
292.726445220906
 11
123.699827501577
 21
292.726445220906
  0
LINE
  5
19B
100
AcDbEntity
  8
1
  6
LONG_DASHED
 62
           3
100
AcDbLine
 10
123.499827501577
 20
292.926445220906
 11
123.499827501577
 21
307.526445220906
  0
LINE
  5
19A
100
AcDbEntity
  8
1
  6
LONG_DASHED
 62
           3
100
AcDbLine
 10
123.499827501577
 20
293.976445220906
 11
120.499827501577
 21
293.976445220906
  0
LINE
  5
199
100
AcDbEntity
  8
1
  6
LONG_DASHED
 62
           3
100
AcDbLine
 10
120.499827501577
 20
293.976445220906
 11
120.499827501577
 21
295.126445220906
  0
LINE
  5
198
100
AcDbEntity
  8
1
  6
LONG_DASHED
 62
           3
100
AcDbLine
 10
114.499827501577
 20
295.126445220906
 11
114.499827501577
 21
297.726445220906
  0
LINE
  5
197
100
AcDbEntity
  8
1
  6
LONG_DASHED
 62
           3
100
AcDbLine
 10
117.699827501577
 20
299.226445220906
 11
117.699827501577
 21
301.226445220906
  0
LINE
  5
196
100
AcDbEntity
  8
1
  6
LONG_DASHED
 62
           3
100
AcDbLine
 10
114.999827501577
 20
295.126445220906
 11
114.999827501577
 21
297.726445220906
  0
LINE
  5
195
100
AcDbEntity
  8
1
  6
LONG_DASHED
 62
           3
100
AcDbLine
 10
125.299827501577
 20
292.726445220906
 11
125.499827501577
 21
292.926445220906
  0
LINE
  5
194
100
AcDbEntity
  8
1
  6
LONG_DASHED
 62
           3
100
AcDbLine
 10
123.499827501577
 20
292.926445220906
 11
123.699827501577
 21
292.726445220906
  0
LINE
  5
193
100
AcDbEntity
  8
1
  6
LONG_DASHED
 62
           3
100
AcDbLine
 10
125.299827501577
 20
292.726445220906
 11
125.299827501577
 21
307.726445220906
  0
LINE
  5
192
100
AcDbEntity
  8
1
  6
LONG_DASHED
 62
           3
100
AcDbLine
 10
123.699827501577
 20
292.726445220906
 11
123.699827501577
 21
307.726445220906
  0
LINE
  5
191
100
AcDbEntity
  8
1
  6
LONG_DASHED
 62
           3
100
AcDbLine
 10
123.699827501577
 20
307.726445220906
 11
125.299827501577
 21
307.726445220906
  0
LINE
  5
190
100
AcDbEntity
  8
1
  6
LONG_DASHED
 62
           3
100
AcDbLine
 10
120.499827501577
 20
306.476445220906
 11
123.499827501577
 21
306.476445220906
  0
LINE
  5
18F
100
AcDbEntity
  8
1
  6
LONG_DASHED
 62
           3
100
AcDbLine
 10
120.499827501577
 20
305.326445220906
 11
120.499827501577
 21
306.476445220906
  0
LINE
  5
18E
100
AcDbEntity
  8
1
  6
LONG_DASHED
 62
           3
100
AcDbLine
 10
114.499827501577
 20
302.726445220906
 11
114.499827501577
 21
305.326445220906
  0
LINE
  5
18D
100
AcDbEntity
  8
1
  6
LONG_DASHED
 62
           3
100
AcDbLine
 10
114.999827501577
 20
302.726445220906
 11
114.999827501577
 21
305.326445220906
  0
LINE
  5
18C
100
AcDbEntity
  8
1
  6
LONG_DASHED
 62
           3
100
AcDbLine
 10
125.499827501577
 20
307.526445220906
 11
125.299827501577
 21
307.726445220906
  0
LINE
  5
18B
100
AcDbEntity
  8
1
  6
LONG_DASHED
 62
           3
100
AcDbLine
 10
123.699827501577
 20
307.726445220906
 11
123.499827501577
 21
307.526445220906
  0
LINE
  5
18A
100
AcDbEntity
  8
1
  6
LONG_DASHED
 62
           3
100
AcDbLine
 10
116.699827501577
 20
298.706576805549
 11
116.699827501577
 21
301.746313636263
  0
LINE
  5
189
100
AcDbEntity
  8
1
  6
LONG_DASHED
 62
           3
100
AcDbLine
 10
116.998163761505
 20
301.957534401689
 11
117.365718461496
 21
302.170213343688
  0
LINE
  5
188
100
AcDbEntity
  8
1
  6
LONG_DASHED
 62
           3
100
AcDbLine
 10
117.365718461496
 20
298.282677098124
 11
116.998163761505
 21
298.495356040123
  0
LINE
  5
187
100
AcDbEntity
  8
1
  6
LONG_DASHED
 62
           3
100
AcDbLine
 10
182.499827501577
 20
176.349590653
 11
182.499827501577
 21
181.549590653
  0
LINE
  5
186
100
AcDbEntity
  8
1
  6
LONG_DASHED
 62
           3
100
AcDbLine
 10
175.176327501577
 20
176.349590653
 11
175.176327501577
 21
179.049590653
  0
LINE
  5
185
100
AcDbEntity
  8
1
  6
LONG_DASHED
 62
           3
100
AcDbLine
 10
174.499827501577
 20
189.549590653
 11
182.499827501577
 21
189.549590653
  0
LINE
  5
184
100
AcDbEntity
  8
1
  6
LONG_DASHED
 62
           3
100
AcDbLine
 10
183.999827501577
 20
181.549590653
 11
172.999827501577
 21
181.549590653
  0
LINE
  5
183
100
AcDbEntity
  8
1
  6
LONG_DASHED
 62
           3
100
AcDbLine
 10
181.823327501577
 20
179.049590653
 11
182.499827501577
 21
181.549590653
  0
LINE
  5
182
100
AcDbEntity
  8
1
  6
LONG_DASHED
 62
           3
100
AcDbLine
 10
174.499827501577
 20
179.049590653
 11
182.499827501577
 21
179.049590653
  0
LINE
  5
181
100
AcDbEntity
  8
1
  6
LONG_DASHED
 62
           3
100
AcDbLine
 10
183.999827501577
 20
189.147666864353
 11
183.999827501577
 21
181.549590653
  0
LINE
  5
180
100
AcDbEntity
  8
1
  6
LONG_DASHED
 62
           3
100
AcDbLine
 10
182.499827501577
 20
189.549590653
 11
183.999827501577
 21
189.147666864353
  0
LINE
  5
17F
100
AcDbEntity
  8
1
  6
LONG_DASHED
 62
           3
100
AcDbLine
 10
181.823327501577
 20
179.049590653
 11
181.823327501577
 21
176.349590653
  0
LINE
  5
17E
100
AcDbEntity
  8
1
  6
LONG_DASHED
 62
           3
100
AcDbLine
 10
174.499827501577
 20
181.549590653
 11
175.176327501577
 21
179.049590653
  0
LINE
  5
17D
100
AcDbEntity
  8
1
  6
LONG_DASHED
 62
           3
100
AcDbLine
 10
172.999827501577
 20
181.549590653
 11
172.999827501577
 21
189.147666864353
  0
LINE
  5
17C
100
AcDbEntity
  8
1
  6
LONG_DASHED
 62
           3
100
AcDbLine
 10
172.999827501577
 20
189.147666864353
 11
174.499827501577
 21
189.549590653
  0
LINE
  5
17B
100
AcDbEntity
  8
1
  6
LONG_DASHED
 62
           3
100
AcDbLine
 10
178.499827501577
 20
181.549590653
 11
178.499827501577
 21
189.147666864353
  0
LINE
  5
17A
100
AcDbEntity
  8
1
  6
LONG_DASHED
 62
           3
100
AcDbLine
 10
174.499827501577
 20
181.549590653
 11
174.499827501577
 21
176.349590653
  0
LINE
  5
179
100
AcDbEntity
  8
1
  6
LONG_DASHED
 62
           3
100
AcDbLine
 10
120.999827501577
 20
135.799590653
 11
117.699827501577
 21
135.799590653
  0
LINE
  5
178
100
AcDbEntity
  8
1
  6
LONG_DASHED
 62
           3
100
AcDbLine
 10
117.699827501577
 20
148.299590653
 11
120.999827501577
 21
148.299590653
  0
LINE
  5
177
100
AcDbEntity
  8
1
  6
LONG_DASHED
 62
           3
100
AcDbLine
 10
114.499827501577
 20
136.871511858698
 11
114.499827501577
 21
147.227669447302
  0
LINE
  5
176
100
AcDbEntity
  8
1
  6
LONG_DASHED
 62
           3
100
AcDbLine
 10
120.499827501577
 20
145.6624150329
 11
114.499827501577
 21
145.6624150329
  0
LINE
  5
175
100
AcDbEntity
  8
1
  6
LONG_DASHED
 62
           3
100
AcDbLine
 10
114.499827501577
 20
138.4367662731
 11
120.499827501577
 21
138.4367662731
  0
LINE
  5
174
100
AcDbEntity
  8
1
  6
LONG_DASHED
 62
           3
100
AcDbLine
 10
114.999827501577
 20
147.777810271695
 11
117.199827501577
 21
147.777810271695
  0
LINE
  5
173
100
AcDbEntity
  8
1
  6
LONG_DASHED
 62
           3
100
AcDbLine
 10
117.699827501577
 20
148.277810271695
 11
117.699827501577
 21
148.299590653
  0
LINE
  5
172
100
AcDbEntity
  8
1
  6
LONG_DASHED
 62
           3
100
AcDbLine
 10
114.499827501577
 20
147.227669447302
 11
114.999827501577
 21
147.777810271695
  0
LINE
  5
171
100
AcDbEntity
  8
1
  6
LONG_DASHED
 62
           3
100
AcDbLine
 10
114.999827501577
 20
145.6624150329
 11
114.999827501577
 21
147.777810271695
  0
LINE
  5
170
100
AcDbEntity
  8
1
  6
LONG_DASHED
 62
           3
100
AcDbLine
 10
120.499827501577
 20
142.049590653
 11
120.499827501577
 21
145.6624150329
  0
LINE
  5
16F
100
AcDbEntity
  8
1
  6
LONG_DASHED
 62
           3
100
AcDbLine
 10
120.499827501577
 20
138.4367662731
 11
114.499827501577
 21
145.6624150329
  0
LINE
  5
16E
100
AcDbEntity
  8
1
  6
LONG_DASHED
 62
           3
100
AcDbLine
 10
114.499827501577
 20
138.4367662731
 11
120.499827501577
 21
145.6624150329
  0
LINE
  5
16D
100
AcDbEntity
  8
1
  6
LONG_DASHED
 62
           3
100
AcDbLine
 10
117.199827501577
 20
136.321371034305
 11
114.999827501577
 21
136.321371034305
  0
LINE
  5
16C
100
AcDbEntity
  8
1
  6
LONG_DASHED
 62
           3
100
AcDbLine
 10
117.699827501577
 20
135.799590653
 11
117.699827501577
 21
135.821371034305
  0
LINE
  5
16B
100
AcDbEntity
  8
1
  6
LONG_DASHED
 62
           3
100
AcDbLine
 10
114.999827501577
 20
136.321371034305
 11
114.499827501577
 21
136.871511858698
  0
LINE
  5
16A
100
AcDbEntity
  8
1
  6
LONG_DASHED
 62
           3
100
AcDbLine
 10
114.999827501577
 20
136.321371034305
 11
114.999827501577
 21
138.4367662731
  0
LINE
  5
169
100
AcDbEntity
  8
1
  6
LONG_DASHED
 62
           3
100
AcDbLine
 10
120.499827501577
 20
138.4367662731
 11
120.499827501577
 21
142.049590653
  0
LINE
  5
168
100
AcDbEntity
  8
1
  6
CONTINUOUS
 62
           7
100
AcDbLine
 10
122.499827501577
 20
131.149590653
 11
122.499827501577
 21
152.449590652999
  0
LINE
  5
167
100
AcDbEntity
  8
1
  6
CONTINUOUS
 62
           7
100
AcDbLine
 10
123.999827501577
 20
132.049590653
 11
123.999827501577
 21
152.049590653
  0
LINE
  5
166
100
AcDbEntity
  8
1
  6
CONTINUOUS
 62
           7
100
AcDbLine
 10
137.79667794289
 20
135.218793542977
 11
126.826489622656
 21
135.218793542977
  0
LINE
  5
165
100
AcDbEntity
  8
1
  6
CONTINUOUS
 62
           7
100
AcDbLine
 10
137.79667794289
 20
136.658625989787
 11
137.79667794289
 21
135.218793542977
  0
LINE
  5
164
100
AcDbEntity
  8
1
  6
CONTINUOUS
 62
           7
100
AcDbLine
 10
126.826489622656
 20
136.658625989787
 11
137.79667794289
 21
136.658625989787
  0
LINE
  5
163
100
AcDbEntity
  8
1
  6
CONTINUOUS
 62
           7
100
AcDbLine
 10
126.826489622656
 20
135.218793542977
 11
126.826489622656
 21
136.658625989787
  0
LINE
  5
162
100
AcDbEntity
  8
1
  6
CONTINUOUS
 62
           7
100
AcDbLine
 10
126.826489622656
 20
147.440555316211
 11
126.826489622656
 21
148.880387763023
  0
LINE
  5
161
100
AcDbEntity
  8
1
  6
CONTINUOUS
 62
           7
100
AcDbLine
 10
137.79667794289
 20
147.440555316211
 11
126.826489622656
 21
147.440555316211
  0
LINE
  5
160
100
AcDbEntity
  8
1
  6
CONTINUOUS
 62
           7
100
AcDbLine
 10
137.79667794289
 20
148.880387763023
 11
137.79667794289
 21
147.440555316211
  0
LINE
  5
15F
100
AcDbEntity
  8
1
  6
CONTINUOUS
 62
           7
100
AcDbLine
 10
126.826489622656
 20
148.880387763023
 11
137.79667794289
 21
148.880387763023
  0
LINE
  5
15E
100
AcDbEntity
  8
1
  6
CONTINUOUS
 62
           7
100
AcDbLine
 10
137.77813966509
 20
154.299590653
 11
138.499827501577
 21
153.049590653
  0
LINE
  5
15D
100
AcDbEntity
  8
1
  6
CONTINUOUS
 62
           7
100
AcDbLine
 10
126.249827501577
 20
154.299590653
 11
137.77813966509
 21
154.299590653
  0
LINE
  5
15C
100
AcDbEntity
  8
1
  6
CONTINUOUS
 62
           7
100
AcDbLine
 10
123.999827501577
 20
152.049590653
 11
126.249827501577
 21
154.299590653
  0
LINE
  5
15B
100
AcDbEntity
  8
1
  6
CONTINUOUS
 62
           7
100
AcDbLine
 10
122.499827501577
 20
152.049590653
 11
123.999827501577
 21
152.049590653
  0
LINE
  5
15A
100
AcDbEntity
  8
1
  6
CONTINUOUS
 62
           7
100
AcDbLine
 10
122.499827501577
 20
152.949590652999
 11
122.499827501577
 21
152.049590653
  0
LINE
  5
159
100
AcDbEntity
  8
1
  6
CONTINUOUS
 62
           7
100
AcDbLine
 10
121.499827501577
 20
152.949590652999
 11
122.499827501577
 21
152.949590652999
  0
LINE
  5
158
100
AcDbEntity
  8
1
  6
CONTINUOUS
 62
           7
100
AcDbLine
 10
120.999827501577
 20
152.449590652999
 11
120.999827501577
 21
131.649590653
  0
LINE
  5
157
100
AcDbEntity
  8
1
  6
CONTINUOUS
 62
           7
100
AcDbLine
 10
120.999827501577
 20
152.449590652999
 11
121.499827501577
 21
152.949590652999
  0
LINE
  5
156
100
AcDbEntity
  8
1
  6
CONTINUOUS
 62
           7
100
AcDbLine
 10
138.499827501577
 20
131.549590653
 11
138.499827501577
 21
152.549590653
  0
LINE
  5
155
100
AcDbEntity
  8
1
  6
CONTINUOUS
 62
           7
100
AcDbLine
 10
138.499827501577
 20
152.549590653
 11
138.499827501577
 21
153.049590653
  0
LINE
  5
154
100
AcDbEntity
  8
1
  6
CONTINUOUS
 62
           7
100
AcDbLine
 10
138.499827501577
 20
131.049590653
 11
137.77813966509
 21
129.799590653
  0
LINE
  5
153
100
AcDbEntity
  8
1
  6
CONTINUOUS
 62
           7
100
AcDbLine
 10
137.77813966509
 20
129.799590653
 11
126.249827501577
 21
129.799590653
  0
LINE
  5
152
100
AcDbEntity
  8
1
  6
CONTINUOUS
 62
           7
100
AcDbLine
 10
126.249827501577
 20
129.799590653
 11
123.999827501577
 21
132.049590653
  0
LINE
  5
151
100
AcDbEntity
  8
1
  6
CONTINUOUS
 62
           7
100
AcDbLine
 10
123.999827501577
 20
132.049590653
 11
122.499827501577
 21
132.049590653
  0
LINE
  5
150
100
AcDbEntity
  8
1
  6
CONTINUOUS
 62
           7
100
AcDbLine
 10
122.499827501577
 20
131.149590653
 11
121.499827501577
 21
131.149590653
  0
LINE
  5
14F
100
AcDbEntity
  8
1
  6
CONTINUOUS
 62
           7
100
AcDbLine
 10
121.499827501577
 20
131.149590653
 11
120.999827501577
 21
131.649590653
  0
LINE
  5
14E
100
AcDbEntity
  8
1
  6
CONTINUOUS
 62
           7
100
AcDbLine
 10
138.499827501577
 20
131.049590653
 11
138.499827501577
 21
131.549590653
  0
LINE
  5
14D
100
AcDbEntity
  8
1
  6
CONTINUOUS
 62
           7
100
AcDbLine
 10
138.499827501577
 20
290.726445220906
 11
142.499827501577
 21
290.726445220906
  0
LINE
  5
14C
100
AcDbEntity
  8
1
  6
CONTINUOUS
 62
           7
100
AcDbLine
 10
138.499827501577
 20
298.809518127401
 11
142.164891011038
 21
298.809518127401
  0
LINE
  5
14B
100
AcDbEntity
  8
1
  6
CONTINUOUS
 62
           7
100
AcDbLine
 10
138.499827501577
 20
308.309518127399
 11
142.164891011038
 21
308.309518127399
  0
LINE
  5
14A
100
AcDbEntity
  8
1
  6
CONTINUOUS
 62
           7
100
AcDbLine
 10
144.999827501577
 20
291.226445220906
 11
142.499827501577
 21
291.226445220906
  0
LINE
  5
149
100
AcDbEntity
  8
1
  6
CONTINUOUS
 62
           2
100
AcDbLine
 10
144.999827501577
 20
308.414445220906
 11
144.499827501577
 21
308.414445220906
  0
LINE
  5
148
100
AcDbEntity
  8
1
  6
CONTINUOUS
 62
           7
100
AcDbLine
 10
144.999827501577
 20
133.049590652999
 11
142.499827501577
 21
133.049590652999
  0
LINE
  5
147
100
AcDbEntity
  8
1
  6
CONTINUOUS
 62
           2
100
AcDbLine
 10
144.999827501577
 20
150.237590653
 11
144.499827501577
 21
150.237590653
  0
LINE
  5
146
100
AcDbEntity
  8
1
  6
CONTINUOUS
 62
           7
100
AcDbLine
 10
138.499827501577
 20
132.549590652999
 11
142.499827501577
 21
132.549590652999
  0
LINE
  5
145
100
AcDbEntity
  8
1
  6
CONTINUOUS
 62
           7
100
AcDbLine
 10
138.499827501577
 20
140.632663559494
 11
142.164891011038
 21
140.632663559494
  0
LINE
  5
144
100
AcDbEntity
  8
1
  6
CONTINUOUS
 62
           7
100
AcDbLine
 10
138.499827501577
 20
150.132663559493
 11
142.164891011038
 21
150.132663559493
  0
LINE
  5
143
100
AcDbEntity
  8
1
  6
CONTINUOUS
 62
           7
100
AcDbLine
 10
142.164891011038
 20
133.966517746507
 11
138.499827501577
 21
133.966517746507
  0
LINE
  5
142
100
AcDbEntity
  8
1
  6
CONTINUOUS
 62
           7
100
AcDbLine
 10
142.164891011038
 20
132.549590652999
 11
142.164891011038
 21
133.966517746507
  0
LINE
  5
141
100
AcDbEntity
  8
1
  6
CONTINUOUS
 62
           7
100
AcDbLine
 10
142.164891011038
 20
140.632663559494
 11
142.164891011038
 21
143.466517746506
  0
LINE
  5
140
100
AcDbEntity
  8
1
  6
CONTINUOUS
 62
           7
100
AcDbLine
 10
142.499827501577
 20
132.549590652999
 11
142.499827501577
 21
151.549590652999
  0
LINE
  5
13F
100
AcDbEntity
  8
1
  6
CONTINUOUS
 62
           7
100
AcDbLine
 10
144.499827501577
 20
151.049590652999
 11
144.499827501577
 21
133.049590652999
  0
LINE
  5
13E
100
AcDbEntity
  8
1
  6
CONTINUOUS
 62
           2
100
AcDbLine
 10
144.499827501577
 20
133.861590653
 11
144.999827501577
 21
133.861590653
  0
LINE
  5
13D
100
AcDbEntity
  8
1
  6
CONTINUOUS
 62
           2
100
AcDbLine
 10
142.499827501577
 20
133.049590652999
 11
144.499827501577
 21
133.861590653
  0
LINE
  5
13C
100
AcDbEntity
  8
1
  6
CONTINUOUS
 62
           7
100
AcDbLine
 10
142.164891011038
 20
143.466517746506
 11
138.499827501577
 21
143.466517746506
  0
LINE
  5
13B
100
AcDbEntity
  8
1
  6
CONTINUOUS
 62
           7
100
AcDbLine
 10
142.164891011038
 20
150.132663559493
 11
142.164891011038
 21
151.549590652999
  0
LINE
  5
13A
100
AcDbEntity
  8
1
  6
CONTINUOUS
 62
           7
100
AcDbLine
 10
142.499827501577
 20
151.549590652999
 11
138.499827501577
 21
151.549590652999
  0
LINE
  5
139
100
AcDbEntity
  8
1
  6
CONTINUOUS
 62
           7
100
AcDbLine
 10
142.499827501577
 20
151.049590652999
 11
144.999827501577
 21
151.049590652999
  0
LINE
  5
138
100
AcDbEntity
  8
1
  6
CONTINUOUS
 62
           2
100
AcDbLine
 10
144.499827501577
 20
150.237590653
 11
142.499827501577
 21
151.049590652999
  0
LINE
  5
137
100
AcDbEntity
  8
1
  6
CONTINUOUS
 62
           7
100
AcDbLine
 10
142.499827501577
 20
309.226445220906
 11
144.999827501577
 21
309.226445220906
  0
LINE
  5
136
100
AcDbEntity
  8
1
  6
CONTINUOUS
 62
           7
100
AcDbLine
 10
144.499827501577
 20
309.226445220906
 11
144.499827501577
 21
291.226445220906
  0
LINE
  5
135
100
AcDbEntity
  8
1
  6
CONTINUOUS
 62
           2
100
AcDbLine
 10
144.499827501577
 20
308.414445220906
 11
142.499827501577
 21
309.226445220906
  0
LINE
  5
134
100
AcDbEntity
  8
1
  6
CONTINUOUS
 62
           7
100
AcDbLine
 10
142.499827501577
 20
309.726445220906
 11
142.499827501577
 21
290.726445220906
  0
LINE
  5
133
100
AcDbEntity
  8
1
  6
CONTINUOUS
 62
           7
100
AcDbLine
 10
142.499827501577
 20
309.726445220906
 11
138.499827501577
 21
309.726445220906
  0
LINE
  5
132
100
AcDbEntity
  8
1
  6
CONTINUOUS
 62
           7
100
AcDbLine
 10
142.164891011038
 20
298.809518127401
 11
142.164891011038
 21
301.643372314412
  0
LINE
  5
131
100
AcDbEntity
  8
1
  6
CONTINUOUS
 62
           7
100
AcDbLine
 10
142.164891011038
 20
308.309518127399
 11
142.164891011038
 21
309.726445220906
  0
LINE
  5
130
100
AcDbEntity
  8
1
  6
CONTINUOUS
 62
           7
100
AcDbLine
 10
142.164891011038
 20
301.643372314412
 11
138.499827501577
 21
301.643372314412
  0
LINE
  5
12F
100
AcDbEntity
  8
1
  6
CONTINUOUS
 62
           2
100
AcDbLine
 10
142.499827501577
 20
291.226445220906
 11
144.499827501577
 21
292.038445220906
  0
LINE
  5
12E
100
AcDbEntity
  8
1
  6
CONTINUOUS
 62
           2
100
AcDbLine
 10
144.499827501577
 20
292.038445220906
 11
144.999827501577
 21
292.038445220906
  0
LINE
  5
12D
100
AcDbEntity
  8
1
  6
CONTINUOUS
 62
           7
100
AcDbLine
 10
142.164891011038
 20
290.726445220906
 11
142.164891011038
 21
292.143372314414
  0
LINE
  5
12C
100
AcDbEntity
  8
1
  6
CONTINUOUS
 62
           7
100
AcDbLine
 10
142.164891011038
 20
292.143372314414
 11
138.499827501577
 21
292.143372314414
  0
LINE
  5
12B
100
AcDbEntity
  8
1
  6
CONTINUOUS
 62
           7
100
AcDbLine
 10
120.999827501577
 20
310.626445220906
 11
121.499827501577
 21
311.126445220906
  0
LINE
  5
12A
100
AcDbEntity
  8
1
  6
CONTINUOUS
 62
           7
100
AcDbLine
 10
120.999827501577
 20
310.626445220906
 11
120.999827501577
 21
289.826445220905
  0
LINE
  5
129
100
AcDbEntity
  8
1
  6
CONTINUOUS
 62
           7
100
AcDbLine
 10
121.499827501577
 20
311.126445220906
 11
122.499827501577
 21
311.126445220906
  0
LINE
  5
128
100
AcDbEntity
  8
1
  6
CONTINUOUS
 62
           7
100
AcDbLine
 10
122.499827501577
 20
311.126445220906
 11
122.499827501577
 21
289.326445220905
  0
LINE
  5
127
100
AcDbEntity
  8
1
  6
CONTINUOUS
 62
           7
100
AcDbLine
 10
122.499827501577
 20
310.226445220906
 11
123.999827501577
 21
310.226445220906
  0
LINE
  5
126
100
AcDbEntity
  8
1
  6
CONTINUOUS
 62
           7
100
AcDbLine
 10
123.999827501577
 20
310.226445220906
 11
124.999827501577
 21
311.226445220906
  0
LINE
  5
125
100
AcDbEntity
  8
1
  6
CONTINUOUS
 62
           7
100
AcDbLine
 10
123.999827501577
 20
310.226445220906
 11
123.999827501577
 21
290.226445220906
  0
LINE
  5
124
100
AcDbEntity
  8
1
  6
CONTINUOUS
 62
           7
100
AcDbLine
 10
124.999827501577
 20
311.226445220906
 11
138.499827501577
 21
311.226445220906
  0
LINE
  5
123
100
AcDbEntity
  8
1
  6
CONTINUOUS
 62
           7
100
AcDbLine
 10
138.499827501577
 20
311.226445220906
 11
138.499827501577
 21
289.226445220905
  0
LINE
  5
122
100
AcDbEntity
  8
1
  6
CONTINUOUS
 62
           7
100
AcDbLine
 10
126.826489622656
 20
301.057732871661
 11
137.79667794289
 21
301.057732871661
  0
LINE
  5
121
100
AcDbEntity
  8
1
  6
CONTINUOUS
 62
           7
100
AcDbLine
 10
126.826489622656
 20
311.226445220906
 11
126.826489622656
 21
310.395157570151
  0
LINE
  5
120
100
AcDbEntity
  8
1
  6
CONTINUOUS
 62
           7
100
AcDbLine
 10
126.826489622656
 20
301.057732871661
 11
126.826489622656
 21
299.39515757015
  0
LINE
  5
11F
100
AcDbEntity
  8
1
  6
CONTINUOUS
 62
           7
100
AcDbLine
 10
126.826489622656
 20
310.395157570151
 11
137.79667794289
 21
310.395157570151
  0
LINE
  5
11E
100
AcDbEntity
  8
1
  6
CONTINUOUS
 62
           7
100
AcDbLine
 10
137.79667794289
 20
311.226445220906
 11
137.79667794289
 21
310.395157570151
  0
LINE
  5
11D
100
AcDbEntity
  8
1
  6
CONTINUOUS
 62
           7
100
AcDbLine
 10
137.79667794289
 20
301.057732871661
 11
137.79667794289
 21
299.39515757015
  0
LINE
  5
11C
100
AcDbEntity
  8
1
  6
CONTINUOUS
 62
           7
100
AcDbLine
 10
121.499827501577
 20
289.326445220905
 11
120.999827501577
 21
289.826445220905
  0
LINE
  5
11B
100
AcDbEntity
  8
1
  6
CONTINUOUS
 62
           7
100
AcDbLine
 10
122.499827501577
 20
289.326445220905
 11
121.499827501577
 21
289.326445220905
  0
LINE
  5
11A
100
AcDbEntity
  8
1
  6
CONTINUOUS
 62
           7
100
AcDbLine
 10
123.999827501577
 20
290.226445220906
 11
122.499827501577
 21
290.226445220906
  0
LINE
  5
119
100
AcDbEntity
  8
1
  6
CONTINUOUS
 62
           7
100
AcDbLine
 10
124.999827501577
 20
289.226445220905
 11
123.999827501577
 21
290.226445220906
  0
LINE
  5
118
100
AcDbEntity
  8
1
  6
CONTINUOUS
 62
           7
100
AcDbLine
 10
138.499827501577
 20
289.226445220905
 11
124.999827501577
 21
289.226445220905
  0
LINE
  5
117
100
AcDbEntity
  8
1
  6
CONTINUOUS
 62
           7
100
AcDbLine
 10
137.79667794289
 20
299.39515757015
 11
126.826489622656
 21
299.39515757015
  0
LINE
  5
116
100
AcDbEntity
  8
1
  6
CONTINUOUS
 62
           7
100
AcDbLine
 10
126.826489622656
 20
290.05773287166
 11
126.826489622656
 21
289.226445220905
  0
LINE
  5
115
100
AcDbEntity
  8
1
  6
CONTINUOUS
 62
           7
100
AcDbLine
 10
137.79667794289
 20
290.05773287166
 11
126.826489622656
 21
290.05773287166
  0
LINE
  5
114
100
AcDbEntity
  8
1
  6
CONTINUOUS
 62
           7
100
AcDbLine
 10
137.79667794289
 20
290.05773287166
 11
137.79667794289
 21
289.226445220905
  0
LINE
  5
113
100
AcDbEntity
  8
1
  6
CONTINUOUS
 62
           7
100
AcDbLine
 10
188.458375617249
 20
114.126940922189
 11
188.458375617249
 21
118.97224038381
  0
LINE
  5
112
100
AcDbEntity
  8
1
  6
CONTINUOUS
 62
           7
100
AcDbLine
 10
184.499827501577
 20
114.126940922189
 11
184.499827501577
 21
118.97224038381
  0
LINE
  5
111
100
AcDbEntity
  8
1
  6
CONTINUOUS
 62
           7
100
AcDbLine
 10
184.499827501577
 20
118.97224038381
 11
184.633802097792
 21
119.049590653
  0
LINE
  5
110
100
AcDbEntity
  8
1
  6
CONTINUOUS
 62
           7
100
AcDbLine
 10
185.499827501577
 20
113.549590653
 11
184.499827501577
 21
114.126940922189
  0
LINE
  5
10F
100
AcDbEntity
  8
1
  6
CONTINUOUS
 62
           7
100
AcDbLine
 10
185.999827501577
 20
103.799590653
 11
198.999827501577
 21
103.799590653
  0
LINE
  5
10E
100
AcDbEntity
  8
1
  6
CONTINUOUS
 62
           7
100
AcDbLine
 10
185.999827501577
 20
103.799590653
 11
185.999827501577
 21
110.549590653
  0
LINE
  5
10D
100
AcDbEntity
  8
1
  6
CONTINUOUS
 62
           2
100
AcDbLine
 10
186.899827501577
 20
102.899590653
 11
186.899827501577
 21
110.549590653
  0
LINE
  5
10C
100
AcDbEntity
  8
1
  6
CONTINUOUS
 62
           7
100
AcDbLine
 10
185.999827501577
 20
103.799590653
 11
187.249827501577
 21
102.549590653
  0
LINE
  5
10B
100
AcDbEntity
  8
1
  6
CONTINUOUS
 62
           7
100
AcDbLine
 10
197.749827501577
 20
102.549590653
 11
187.249827501577
 21
102.549590653
  0
LINE
  5
10A
100
AcDbEntity
  8
1
  6
CONTINUOUS
 62
           7
100
AcDbLine
 10
198.999827501577
 20
110.549590653
 11
185.999827501577
 21
110.549590653
  0
LINE
  5
109
100
AcDbEntity
  8
1
  6
CONTINUOUS
 62
           7
100
AcDbLine
 10
199.499827501577
 20
113.549590653
 11
185.499827501577
 21
113.549590653
  0
LINE
  5
108
100
AcDbEntity
  8
1
  6
CONTINUOUS
 62
           7
100
AcDbLine
 10
186.899827501577
 20
110.549590653
 11
186.899827501577
 21
113.549590653
  0
LINE
  5
107
100
AcDbEntity
  8
1
  6
CONTINUOUS
 62
           7
100
AcDbLine
 10
196.541279385904
 20
118.97224038381
 11
196.541279385904
 21
114.126940922189
  0
LINE
  5
106
100
AcDbEntity
  8
1
  6
CONTINUOUS
 62
           7
100
AcDbLine
 10
200.499827501577
 20
118.97224038381
 11
200.499827501577
 21
114.126940922189
  0
LINE
  5
105
100
AcDbEntity
  8
1
  6
CONTINUOUS
 62
           7
100
AcDbLine
 10
200.499827501577
 20
114.126940922189
 11
199.499827501577
 21
113.549590653
  0
LINE
  5
104
100
AcDbEntity
  8
1
  6
CONTINUOUS
 62
           7
100
AcDbLine
 10
198.999827501577
 20
110.549590653
 11
198.999827501577
 21
103.799590653
  0
LINE
  5
103
100
AcDbEntity
  8
1
  6
CONTINUOUS
 62
           2
100
AcDbLine
 10
198.099827501577
 20
110.549590653
 11
198.099827501577
 21
102.899590653
  0
LINE
  5
102
100
AcDbEntity
  8
1
  6
CONTINUOUS
 62
           7
100
AcDbLine
 10
197.749827501577
 20
102.549590653
 11
198.999827501577
 21
103.799590653
  0
LINE
  5
101
100
AcDbEntity
  8
1
  6
CONTINUOUS
 62
           7
100
AcDbLine
 10
198.099827501577
 20
113.549590653
 11
198.099827501577
 21
110.549590653
  0
LINE
  5
100
100
AcDbEntity
  8
1
  6
CONTINUOUS
 62
           7
100
AcDbLine
 10
156.041327501577
 20
118.049590653
 11
156.041327501577
 21
116.616577951108
  0
LINE
  5
FF
100
AcDbEntity
  8
1
  6
CONTINUOUS
 62
           7
100
AcDbLine
 10
167.999827501577
 20
116.616577951108
 11
153.999827501577
 21
116.616577951108
  0
LINE
  5
FE
100
AcDbEntity
  8
1
  6
CONTINUOUS
 62
           7
100
AcDbLine
 10
153.449827501577
 20
110.434120599162
 11
153.449827501577
 21
116.299035303053
  0
LINE
  5
FD
100
AcDbEntity
  8
1
  6
CONTINUOUS
 62
           7
100
AcDbLine
 10
153.999827501577
 20
116.616577951108
 11
153.449827501577
 21
116.299035303053
  0
LINE
  5
FC
100
AcDbEntity
  8
1
  6
CONTINUOUS
 62
           7
100
AcDbLine
 10
153.999827501577
 20
110.116577951108
 11
167.999827501577
 21
110.116577951108
  0
LINE
  5
FB
100
AcDbEntity
  8
1
  6
CONTINUOUS
 62
           7
100
AcDbLine
 10
153.449827501577
 20
110.434120599162
 11
153.999827501577
 21
110.116577951108
  0
LINE
  5
FA
100
AcDbEntity
  8
1
  6
CONTINUOUS
 62
           7
100
AcDbLine
 10
154.421327501577
 20
106.5172002984
 11
155.277327501577
 21
107.116577951108
  0
LINE
  5
F9
100
AcDbEntity
  8
1
  6
CONTINUOUS
 62
           7
100
AcDbLine
 10
155.749827501577
 20
99.116577951107
 11
154.421327501577
 21
100.445077951108
  0
LINE
  5
F8
100
AcDbEntity
  8
1
  6
CONTINUOUS
 62
           2
100
AcDbLine
 10
155.277327501577
 20
107.116577951108
 11
155.277327501577
 21
99.589077951108
  0
LINE
  5
F7
100
AcDbEntity
  8
1
  6
CONTINUOUS
 62
           7
100
AcDbLine
 10
155.277327501577
 20
110.116577951108
 11
155.277327501577
 21
107.116577951108
  0
LINE
  5
F6
100
AcDbEntity
  8
1
  6
CONTINUOUS
 62
           7
100
AcDbLine
 10
154.421327501577
 20
106.5172002984
 11
154.421327501577
 21
100.445077951108
  0
LINE
  5
F5
100
AcDbEntity
  8
1
  6
CONTINUOUS
 62
           7
100
AcDbLine
 10
165.249827501577
 20
99.116577951107
 11
155.749827501577
 21
99.116577951107
  0
LINE
  5
F4
100
AcDbEntity
  8
1
  6
CONTINUOUS
 62
           7
100
AcDbLine
 10
166.722327501577
 20
107.116577951108
 11
155.277327501577
 21
107.116577951108
  0
LINE
  5
F3
100
AcDbEntity
  8
1
  6
CONTINUOUS
 62
           2
100
AcDbLine
 10
167.578327501577
 20
100.445077951108
 11
154.421327501577
 21
100.445077951108
  0
LINE
  5
F2
100
AcDbEntity
  8
1
  6
CONTINUOUS
 62
           2
100
AcDbLine
 10
167.578327501577
 20
106.5172002984
 11
154.421327501577
 21
106.5172002984
  0
LINE
  5
F1
100
AcDbEntity
  8
1
  6
CONTINUOUS
 62
           7
100
AcDbLine
 10
156.352084191067
 20
116.299035303053
 11
156.352084191067
 21
110.434120599162
  0
LINE
  5
F0
100
AcDbEntity
  8
1
  6
CONTINUOUS
 62
           7
100
AcDbLine
 10
158.170958469614
 20
116.299035303053
 11
158.170958469614
 21
110.434120599162
  0
LINE
  5
EF
100
AcDbEntity
  8
1
  6
CONTINUOUS
 62
           7
100
AcDbLine
 10
158.170958469614
 20
110.434120599162
 11
156.352084191067
 21
110.434120599162
  0
LINE
  5
EE
100
AcDbEntity
  8
1
  6
CONTINUOUS
 62
           7
100
AcDbLine
 10
158.170958469614
 20
116.299035303053
 11
156.352084191067
 21
116.299035303053
  0
LINE
  5
ED
100
AcDbEntity
  8
1
  6
CONTINUOUS
 62
           7
100
AcDbLine
 10
165.647570812086
 20
116.299035303053
 11
163.82869653354
 21
116.299035303053
  0
LINE
  5
EC
100
AcDbEntity
  8
1
  6
CONTINUOUS
 62
           7
100
AcDbLine
 10
165.647570812086
 20
110.434120599162
 11
163.82869653354
 21
110.434120599162
  0
LINE
  5
EB
100
AcDbEntity
  8
1
  6
CONTINUOUS
 62
           7
100
AcDbLine
 10
163.82869653354
 20
110.434120599162
 11
163.82869653354
 21
116.299035303053
  0
LINE
  5
EA
100
AcDbEntity
  8
1
  6
CONTINUOUS
 62
           7
100
AcDbLine
 10
165.647570812086
 20
110.434120599162
 11
165.647570812086
 21
116.299035303053
  0
LINE
  5
E9
100
AcDbEntity
  8
1
  6
CONTINUOUS
 62
           7
100
AcDbLine
 10
166.249827501577
 20
99.116577951107
 11
165.249827501577
 21
99.116577951107
  0
LINE
  5
E8
100
AcDbEntity
  8
1
  6
CONTINUOUS
 62
           7
100
AcDbLine
 10
167.578327501577
 20
100.445077951108
 11
167.578327501577
 21
106.5172002984
  0
LINE
  5
E7
100
AcDbEntity
  8
1
  6
CONTINUOUS
 62
           7
100
AcDbLine
 10
166.722327501577
 20
107.116577951108
 11
166.722327501577
 21
110.116577951108
  0
LINE
  5
E6
100
AcDbEntity
  8
1
  6
CONTINUOUS
 62
           2
100
AcDbLine
 10
166.722327501577
 20
99.589077951108
 11
166.722327501577
 21
107.116577951108
  0
LINE
  5
E5
100
AcDbEntity
  8
1
  6
CONTINUOUS
 62
           7
100
AcDbLine
 10
167.578327501577
 20
100.445077951108
 11
166.249827501577
 21
99.116577951107
  0
LINE
  5
E4
100
AcDbEntity
  8
1
  6
CONTINUOUS
 62
           7
100
AcDbLine
 10
166.722327501577
 20
107.116577951108
 11
167.578327501577
 21
106.5172002984
  0
LINE
  5
E3
100
AcDbEntity
  8
1
  6
CONTINUOUS
 62
           7
100
AcDbLine
 10
167.999827501577
 20
110.116577951108
 11
168.549827501577
 21
110.434120599162
  0
LINE
  5
E2
100
AcDbEntity
  8
1
  6
CONTINUOUS
 62
           7
100
AcDbLine
 10
168.549827501577
 20
116.299035303053
 11
167.999827501577
 21
116.616577951108
  0
LINE
  5
E1
100
AcDbEntity
  8
1
  6
CONTINUOUS
 62
           7
100
AcDbLine
 10
168.549827501577
 20
116.299035303053
 11
168.549827501577
 21
110.434120599162
  0
LINE
  5
E0
100
AcDbEntity
  8
1
  6
CONTINUOUS
 62
           7
100
AcDbLine
 10
165.958327501577
 20
116.616577951108
 11
165.958327501577
 21
118.049590653
  0
LINE
  5
DF
100
AcDbEntity
  8
1
  6
CONTINUOUS
 62
           2
100
AcDbLine
 10
202.999827501577
 20
118.861590653
 11
202.187827501577
 21
118.861590653
  0
LINE
  5
DE
100
AcDbEntity
  8
1
  6
CONTINUOUS
 62
           7
100
AcDbLine
 10
202.999827501577
 20
118.049590653
 11
202.999827501577
 21
166.049590653
  0
LINE
  5
DD
100
AcDbEntity
  8
1
  6
CONTINUOUS
 62
           2
100
AcDbLine
 10
202.187827501577
 20
165.237590653
 11
202.999827501577
 21
165.237590653
  0
LINE
  5
DC
100
AcDbEntity
  8
1
  6
CONTINUOUS
 62
           7
100
AcDbLine
 10
202.999827501577
 20
166.049590653
 11
201.999827501577
 21
165.049590653
  0
LINE
  5
DB
100
AcDbEntity
  8
1
  6
CONTINUOUS
 62
           7
100
AcDbLine
 10
145.999827501577
 20
157.049590653
 11
145.999827501577
 21
127.049590653
  0
LINE
  5
DA
100
AcDbEntity
  8
1
  6
CONTINUOUS
 62
           7
100
AcDbLine
 10
144.999827501577
 20
156.049590653
 11
145.999827501577
 21
157.049590653
  0
LINE
  5
D9
100
AcDbEntity
  8
1
  6
CONTINUOUS
 62
           7
100
AcDbLine
 10
145.999827501577
 20
127.049590653
 11
144.999827501577
 21
128.049590653
  0
LINE
  5
D8
100
AcDbEntity
  8
1
  6
CONTINUOUS
 62
           7
100
AcDbLine
 10
150.929072931858
 20
127.410506354316
 11
155.842657356857
 21
130.846054811396
  0
LINE
  5
D7
100
AcDbEntity
  8
1
  6
CONTINUOUS
 62
           7
100
AcDbLine
 10
166.156997646297
 20
130.846054811396
 11
171.070582071296
 21
127.410506354316
  0
LINE
  5
D6
100
AcDbEntity
  8
1
  6
CONTINUOUS
 62
           7
100
AcDbLine
 10
184.168080191405
 20
119.049590653
 11
201.999827501577
 21
119.049590653
  0
LINE
  5
D5
100
AcDbEntity
  8
1
  6
CONTINUOUS
 62
           7
100
AcDbLine
 10
196.088065627447
 20
149.599348578441
 11
196.088065627447
 21
154.039971709766
  0
LINE
  5
D4
100
AcDbEntity
  8
1
  6
CONTINUOUS
 62
           7
100
AcDbLine
 10
188.987915983278
 20
149.549590653
 11
194.499827501577
 21
149.549590653
  0
LINE
  5
D3
100
AcDbEntity
  8
1
  6
CONTINUOUS
 62
           7
100
AcDbLine
 10
196.499827501577
 20
136.549590653
 11
196.499827501577
 21
147.549590653
  0
LINE
  5
D2
100
AcDbEntity
  8
1
  6
CONTINUOUS
 62
           7
100
AcDbLine
 10
148.999827501577
 20
134.549590653
 11
194.499827501577
 21
134.549590653
  0
LINE
  5
D1
100
AcDbEntity
  8
1
  6
CONTINUOUS
 62
           7
100
AcDbLine
 10
148.999827501577
 20
149.549590653
 11
168.011739019876
 21
149.549590653
  0
LINE
  5
D0
100
AcDbEntity
  8
1
  6
CONTINUOUS
 62
           7
100
AcDbLine
 10
146.999827501577
 20
136.549590653
 11
146.999827501577
 21
147.549590653
  0
LINE
  5
CF
100
AcDbEntity
  8
1
  6
CONTINUOUS
 62
           7
100
AcDbLine
 10
201.999827501577
 20
119.049590653
 11
202.999827501577
 21
118.049590653
  0
LINE
  5
CE
100
AcDbEntity
  8
1
  6
CONTINUOUS
 62
           7
100
AcDbLine
 10
198.999827501577
 20
122.049590653
 11
198.999827501577
 21
161.818483524928
  0
LINE
  5
CD
100
AcDbEntity
  8
1
  6
CONTINUOUS
 62
           7
100
AcDbLine
 10
196.5670357926
 20
125.733630939651
 11
198.520857336425
 21
120.365550366348
  0
LINE
  5
CC
100
AcDbEntity
  8
1
  6
CONTINUOUS
 62
           7
100
AcDbLine
 10
197.543946564512
 20
159.039971709766
 11
196.5670357926
 21
156.355931423115
  0
LINE
  5
CB
100
AcDbEntity
  8
1
  6
CONTINUOUS
 62
           7
100
AcDbLine
 10
194.687650551028
 20
155.039971709766
 11
191.662274082665
 21
155.039971709766
  0
LINE
  5
CA
100
AcDbEntity
  8
1
  6
CONTINUOUS
 62
           7
100
AcDbLine
 10
196.088065627447
 20
128.049590653
 11
196.088065627447
 21
134.499832727559
  0
LINE
  5
C9
100
AcDbEntity
  8
1
  6
CONTINUOUS
 62
           7
100
AcDbLine
 10
145.999827501577
 20
127.049590653
 11
148.734685412846
 21
127.049590653
  0
LINE
  5
C8
100
AcDbEntity
  8
1
  6
CONTINUOUS
 62
           7
100
AcDbLine
 10
173.264969590308
 20
127.049590653
 11
180.168080191405
 21
127.049590653
  0
LINE
  5
C7
100
AcDbEntity
  8
3
  6
CONTINUOUS
 62
           7
100
AcDbLine
 10
144.999827501577
 20
142.049590653
 11
144.999827501577
 21
156.049590653
  0
LINE
  5
C6
100
AcDbEntity
  8
3
  6
CONTINUOUS
 62
           7
100
AcDbLine
 10
144.999827501577
 20
128.049590653
 11
144.999827501577
 21
142.049590653
  0
LINE
  5
C5
100
AcDbEntity
  8
2
  6
CONTINUOUS
 62
           7
100
AcDbLine
 10
191.962739519413
 20
163.049590653
 11
199.499827501577
 21
163.049590653
  0
LINE
  5
C4
100
AcDbEntity
  8
2
  6
CONTINUOUS
 62
           7
100
AcDbLine
 10
199.499827501577
 20
176.349590653
 11
199.499827501577
 21
167.049590653
  0
LINE
  5
C3
100
AcDbEntity
  8
2
  6
CONTINUOUS
 62
           7
100
AcDbLine
 10
147.999827501577
 20
157.049590653
 11
164.42994507687
 21
159.787943582215
  0
LINE
  5
C2
100
AcDbEntity
  8
2
  6
CONTINUOUS
 62
           7
100
AcDbLine
 10
170.291243745247
 20
119.702294297666
 11
171.295354084283
 21
125.396887008334
  0
LINE
  5
C1
100
AcDbEntity
  8
2
  6
CONTINUOUS
 62
           7
100
AcDbLine
 10
153.678026763932
 20
118.049590653
 11
168.321628239222
 21
118.049590653
  0
LINE
  5
C0
100
AcDbEntity
  8
2
  6
CONTINUOUS
 62
           7
100
AcDbLine
 10
150.704300918871
 20
125.396887008334
 11
151.708411257907
 21
119.702294297666
  0
LINE
  5
BF
100
AcDbEntity
  8
2
  6
CONTINUOUS
 62
           7
100
AcDbLine
 10
147.999827501577
 20
157.049590653
 11
145.999827501577
 21
157.049590653
  0
LINE
  5
BE
100
AcDbEntity
  8
2
  6
CONTINUOUS
 62
           7
100
AcDbLine
 10
199.499827501577
 20
176.349590653
 11
170.999827501577
 21
176.349590653
  0
LINE
  5
BD
100
AcDbEntity
  8
1
  6
CONTINUOUS
 62
           7
100
AcDbLine
 10
150.499827501577
 20
147.549590653
 11
165.499827501577
 21
147.549590653
  0
LINE
  5
BC
100
AcDbEntity
  8
1
  6
CONTINUOUS
 62
           7
100
AcDbLine
 10
165.499827501577
 20
136.549590653
 11
150.499827501577
 21
136.549590653
  0
LINE
  5
BB
100
AcDbEntity
  8
1
  6
CONTINUOUS
 62
           7
100
AcDbLine
 10
201.499827501577
 20
165.049590653
 11
201.999827501577
 21
165.049590653
  0
LINE
  5
BA
100
AcDbEntity
  8
1
  6
CONTINUOUS
 62
           7
100
AcDbLine
 10
201.999827501577
 20
165.049590653
 11
201.999827501577
 21
119.049590653
  0
LINE
  5
B9
100
AcDbEntity
  8
2
  6
CONTINUOUS
 62
           7
100
AcDbLine
 10
199.499827501577
 20
165.049590653
 11
199.499827501577
 21
163.049590653
  0
LINE
  5
B8
100
AcDbEntity
  8
1
  6
CONTINUOUS
 62
           7
100
AcDbLine
 10
199.499827501577
 20
167.049590653
 11
199.499827501577
 21
165.049590653
  0
LINE
  5
B7
100
AcDbEntity
  8
1
  6
CONTINUOUS
 62
           7
100
AcDbLine
 10
182.168080191405
 20
121.049590653
 11
182.168080191405
 21
125.049590653
  0
LINE
  5
B6
100
AcDbEntity
  8
1
  6
CONTINUOUS
 62
           7
100
AcDbLine
 10
182.168080191405
 20
127.049590653
 11
194.687650551028
 21
127.049590653
  0
LINE
  5
B5
100
AcDbEntity
  8
1
  6
CONTINUOUS
 62
           7
100
AcDbLine
 10
191.462762216159
 20
123.963508691722
 11
190.891023157144
 21
123.963508691722
  0
LINE
  5
B4
100
AcDbEntity
  8
1
  6
CONTINUOUS
 62
           7
100
AcDbLine
 10
190.952010663605
 20
122.615906903235
 11
191.48837204223
 21
122.615906903235
  0
LINE
  5
B3
100
AcDbEntity
  8
1
  6
CONTINUOUS
 62
           7
100
AcDbLine
 10
159.499827501577
 20
125.049953582432
 11
161.334522362117
 21
125.049953582432
  0
LINE
  5
B2
100
AcDbEntity
  8
1
  6
CONTINUOUS
 62
           7
100
AcDbLine
 10
161.334522362117
 20
122.685158458722
 11
160.099554561056
 21
122.685158458722
  0
LINE
  5
B1
100
AcDbEntity
  8
1
  6
CONTINUOUS
 62
           7
100
AcDbLine
 10
160.099554561056
 20
122.685158458722
 11
160.099554561056
 21
121.049590653
  0
LINE
  5
B0
100
AcDbEntity
  8
1
  6
CONTINUOUS
 62
           7
100
AcDbLine
 10
160.099554561056
 20
121.049590653
 11
159.499827501577
 21
121.049590653
  0
LINE
  5
AF
100
AcDbEntity
  8
1
  6
CONTINUOUS
 62
           7
100
AcDbLine
 10
159.499827501577
 20
121.049590653
 11
159.499827501577
 21
125.049953582432
  0
LINE
  5
AE
100
AcDbEntity
  8
1
  6
CONTINUOUS
 62
           7
100
AcDbLine
 10
160.099554561056
 20
124.572104572692
 11
161.251613566387
 21
124.572104572692
  0
LINE
  5
AD
100
AcDbEntity
  8
1
  6
CONTINUOUS
 62
           7
100
AcDbLine
 10
161.251613566387
 20
123.158113944653
 11
160.099554561056
 21
123.158113944653
  0
LINE
  5
AC
100
AcDbEntity
  8
1
  6
CONTINUOUS
 62
           7
100
AcDbLine
 10
160.099554561056
 20
123.158113944653
 11
160.099554561056
 21
124.572104572692
  0
LINE
  5
AB
100
AcDbEntity
  8
1
  6
CONTINUOUS
 62
           7
100
AcDbLine
 10
170.999827501577
 20
176.349590653
 11
170.999827501577
 21
169.641253699625
  0
LINE
  5
AA
100
AcDbEntity
  8
60
  6
CONTINUOUS
 62
           7
100
AcDbLine
 10
241.999827501577
 20
142.905932042381
 11
247.91530760407
 21
142.906444902492
  0
LINE
  5
A9
100
AcDbEntity
  8
60
  6
CONTINUOUS
 62
           7
100
AcDbLine
 10
241.999827501577
 20
146.849590653
 11
247.91530760407
 21
146.849590653
  0
LINE
  5
A8
100
AcDbEntity
  8
60
  6
CONTINUOUS
 62
           7
100
AcDbLine
 10
247.91530760407
 20
141.192736403507
 11
241.999827501577
 21
141.193249263619
  0
LINE
  5
A7
100
AcDbEntity
  8
60
  6
CONTINUOUS
 62
           7
100
AcDbLine
 10
247.94021781474
 20
142.049590653
 11
247.91530760407
 21
141.192736403507
  0
LINE
  5
A6
100
AcDbEntity
  8
60
  6
CONTINUOUS
 62
           7
100
AcDbLine
 10
248.434922846341
 20
138.149590653
 11
247.91530760407
 21
137.249590653
  0
LINE
  5
A5
100
AcDbEntity
  8
60
  6
CONTINUOUS
 62
           7
100
AcDbLine
 10
247.91530760407
 20
137.249590653
 11
241.999827501577
 21
137.249590653
  0
LINE
  5
A4
100
AcDbEntity
  8
60
  6
CONTINUOUS
 62
           7
100
AcDbLine
 10
247.91530760407
 20
142.906444902492
 11
247.94021781474
 21
142.049590653
  0
LINE
  5
A3
100
AcDbEntity
  8
60
  6
CONTINUOUS
 62
           7
100
AcDbLine
 10
248.434922846341
 20
145.949590653
 11
248.434922846341
 21
138.149590653
  0
LINE
  5
A2
100
AcDbEntity
  8
60
  6
CONTINUOUS
 62
           7
100
AcDbLine
 10
247.91530760407
 20
146.849590653
 11
248.434922846341
 21
145.949590653
  0
LINE
  5
A1
100
AcDbEntity
  8
1
  6
CONTINUOUS
 62
           7
100
AcDbLine
 10
234.999827501577
 20
126.799590653
 11
234.999827501577
 21
157.299590653
  0
LINE
  5
A0
100
AcDbEntity
  8
1
  6
CONTINUOUS
 62
           7
100
AcDbLine
 10
219.499827501577
 20
115.549590653
 11
219.499827501577
 21
168.549590653
  0
LINE
  5
9F
100
AcDbEntity
  8
1
  6
CONTINUOUS
 62
           7
100
AcDbLine
 10
202.999827501577
 20
167.049590653
 11
202.999827501577
 21
117.049590653
  0
LINE
  5
9E
100
AcDbEntity
  8
1
  6
CONTINUOUS
 62
           7
100
AcDbLine
 10
204.443203174551
 20
169.549590653
 11
202.999827501577
 21
167.049590653
  0
LINE
  5
9D
100
AcDbEntity
  8
1
  6
CONTINUOUS
 62
           7
100
AcDbLine
 10
202.999827501577
 20
117.049590653
 11
204.443203174551
 21
114.549590653
  0
LINE
  5
9C
100
AcDbEntity
  8
1
  6
CONTINUOUS
 62
           7
100
AcDbLine
 10
204.443203174551
 20
126.142075667355
 11
204.443203174551
 21
119.617449271012
  0
LINE
  5
9B
100
AcDbEntity
  8
1
  6
CONTINUOUS
 62
           7
100
AcDbLine
 10
204.443203174551
 20
146.663198222563
 11
204.443203174551
 21
137.435983083436
  0
LINE
  5
9A
100
AcDbEntity
  8
1
  6
CONTINUOUS
 62
           7
100
AcDbLine
 10
204.443203174551
 20
114.939359647085
 11
204.443203174551
 21
114.549590653
  0
LINE
  5
99
100
AcDbEntity
  8
1
  6
CONTINUOUS
 62
           7
100
AcDbLine
 10
234.999827501577
 20
134.966335751473
 11
240.425894460409
 21
134.966335751473
  0
LINE
  5
98
100
AcDbEntity
  8
1
  6
CONTINUOUS
 62
           7
100
AcDbLine
 10
204.443203174551
 20
137.435983083436
 11
218.499827501577
 21
137.435983083436
  0
LINE
  5
97
100
AcDbEntity
  8
1
  6
CONTINUOUS
 62
           7
100
AcDbLine
 10
218.499827501577
 20
126.142075667355
 11
204.443203174551
 21
126.142075667355
  0
LINE
  5
96
100
AcDbEntity
  8
1
  6
CONTINUOUS
 62
           7
100
AcDbLine
 10
204.443203174551
 20
119.617449271012
 11
218.499827501577
 21
119.617449271012
  0
LINE
  5
95
100
AcDbEntity
  8
1
  6
CONTINUOUS
 62
           7
100
AcDbLine
 10
218.499827501577
 20
114.939359647085
 11
204.443203174551
 21
114.939359647085
  0
LINE
  5
94
100
AcDbEntity
  8
1
  6
CONTINUOUS
 62
           7
100
AcDbLine
 10
218.499827501577
 20
114.549590653
 11
218.499827501577
 21
114.939359647085
  0
LINE
  5
93
100
AcDbEntity
  8
1
  6
CONTINUOUS
 62
           7
100
AcDbLine
 10
218.499827501577
 20
119.617449271012
 11
218.499827501577
 21
126.142075667355
  0
LINE
  5
92
100
AcDbEntity
  8
1
  6
CONTINUOUS
 62
           7
100
AcDbLine
 10
218.499827501577
 20
137.435983083436
 11
218.499827501577
 21
146.663198222563
  0
LINE
  5
91
100
AcDbEntity
  8
1
  6
CONTINUOUS
 62
           7
100
AcDbLine
 10
204.443203174551
 20
114.549590653
 11
218.499827501577
 21
114.549590653
  0
LINE
  5
90
100
AcDbEntity
  8
1
  6
CONTINUOUS
 62
           7
100
AcDbLine
 10
241.711152366982
 20
132.549590653
 11
241.999827501577
 21
133.049590653
  0
LINE
  5
8F
100
AcDbEntity
  8
1
  6
CONTINUOUS
 62
           7
100
AcDbLine
 10
234.999827501577
 20
132.549590653
 11
241.711152366982
 21
132.549590653
  0
LINE
  5
8E
100
AcDbEntity
  8
1
  6
CONTINUOUS
 62
           7
100
AcDbLine
 10
218.499827501577
 20
114.549590653
 11
219.499827501577
 21
115.549590653
  0
LINE
  5
8D
100
AcDbEntity
  8
1
  6
CONTINUOUS
 62
           7
100
AcDbLine
 10
221.499827501577
 20
124.799590653
 11
232.999827501577
 21
124.799590653
  0
LINE
  5
8C
100
AcDbEntity
  8
1
  6
CONTINUOUS
 62
           7
100
AcDbLine
 10
241.999827501577
 20
151.049590653
 11
241.999827501577
 21
133.049590653
  0
LINE
  5
8B
100
AcDbEntity
  8
1
  6
CONTINUOUS
 62
           7
100
AcDbLine
 10
204.443203174551
 20
164.481732034988
 11
204.443203174551
 21
157.957105638644
  0
LINE
  5
8A
100
AcDbEntity
  8
1
  6
CONTINUOUS
 62
           7
100
AcDbLine
 10
204.443203174551
 20
169.549590653
 11
204.443203174551
 21
169.159821658915
  0
LINE
  5
89
100
AcDbEntity
  8
1
  6
CONTINUOUS
 62
           7
100
AcDbLine
 10
240.425894460409
 20
149.132845554526
 11
234.999827501577
 21
149.132845554526
  0
LINE
  5
88
100
AcDbEntity
  8
1
  6
CONTINUOUS
 62
           7
100
AcDbLine
 10
218.499827501577
 20
146.663198222563
 11
204.443203174551
 21
146.663198222563
  0
LINE
  5
87
100
AcDbEntity
  8
1
  6
CONTINUOUS
 62
           7
100
AcDbLine
 10
204.443203174551
 20
157.957105638644
 11
218.499827501577
 21
157.957105638644
  0
LINE
  5
86
100
AcDbEntity
  8
1
  6
CONTINUOUS
 62
           7
100
AcDbLine
 10
218.499827501577
 20
164.481732034988
 11
204.443203174551
 21
164.481732034988
  0
LINE
  5
85
100
AcDbEntity
  8
1
  6
CONTINUOUS
 62
           7
100
AcDbLine
 10
204.443203174551
 20
169.159821658915
 11
218.499827501577
 21
169.159821658915
  0
LINE
  5
84
100
AcDbEntity
  8
1
  6
CONTINUOUS
 62
           7
100
AcDbLine
 10
218.499827501577
 20
169.159821658915
 11
218.499827501577
 21
169.549590653
  0
LINE
  5
83
100
AcDbEntity
  8
1
  6
CONTINUOUS
 62
           7
100
AcDbLine
 10
218.499827501577
 20
157.957105638644
 11
218.499827501577
 21
164.481732034988
  0
LINE
  5
82
100
AcDbEntity
  8
1
  6
CONTINUOUS
 62
           7
100
AcDbLine
 10
218.499827501577
 20
169.549590653
 11
204.443203174551
 21
169.549590653
  0
LINE
  5
81
100
AcDbEntity
  8
1
  6
CONTINUOUS
 62
           7
100
AcDbLine
 10
241.999827501577
 20
151.049590653
 11
241.711152366982
 21
151.549590653
  0
LINE
  5
80
100
AcDbEntity
  8
1
  6
CONTINUOUS
 62
           7
100
AcDbLine
 10
241.711152366982
 20
151.549590653
 11
234.999827501577
 21
151.549590653
  0
LINE
  5
7F
100
AcDbEntity
  8
1
  6
CONTINUOUS
 62
           7
100
AcDbLine
 10
219.499827501577
 20
168.549590653
 11
218.499827501577
 21
169.549590653
  0
LINE
  5
7E
100
AcDbEntity
  8
1
  6
CONTINUOUS
 62
           7
100
AcDbLine
 10
232.999827501577
 20
159.299590653
 11
221.499827501577
 21
159.299590653
  0
LINE
  5
7D
100
AcDbEntity
  8
1
  6
CONTINUOUS
 62
           7
100
AcDbLine
 10
202.999827501577
 20
325.226445220906
 11
202.999827501577
 21
275.226445220906
  0
LINE
  5
7C
100
AcDbEntity
  8
1
  6
CONTINUOUS
 62
           7
100
AcDbLine
 10
241.999827501577
 20
309.226445220906
 11
241.999827501577
 21
291.226445220906
  0
LINE
  5
7B
100
AcDbEntity
  8
1
  6
CONTINUOUS
 62
           7
100
AcDbLine
 10
232.999827501577
 20
317.476445220906
 11
221.499827501577
 21
317.476445220906
  0
LINE
  5
7A
100
AcDbEntity
  8
1
  6
CONTINUOUS
 62
           7
100
AcDbLine
 10
219.499827501577
 20
326.726445220906
 11
218.499827501577
 21
327.726445220906
  0
LINE
  5
79
100
AcDbEntity
  8
1
  6
CONTINUOUS
 62
           7
100
AcDbLine
 10
219.499827501577
 20
273.726445220906
 11
219.499827501577
 21
326.726445220906
  0
LINE
  5
78
100
AcDbEntity
  8
1
  6
CONTINUOUS
 62
           7
100
AcDbLine
 10
234.999827501577
 20
284.976445220906
 11
234.999827501577
 21
315.476445220906
  0
LINE
  5
77
100
AcDbEntity
  8
1
  6
CONTINUOUS
 62
           7
100
AcDbLine
 10
241.711152366982
 20
309.726445220906
 11
234.999827501577
 21
309.726445220906
  0
LINE
  5
76
100
AcDbEntity
  8
1
  6
CONTINUOUS
 62
           7
100
AcDbLine
 10
241.999827501577
 20
309.226445220906
 11
241.711152366982
 21
309.726445220906
  0
LINE
  5
75
100
AcDbEntity
  8
1
  6
CONTINUOUS
 62
           7
100
AcDbLine
 10
204.443203174551
 20
327.726445220906
 11
202.999827501577
 21
325.226445220906
  0
LINE
  5
74
100
AcDbEntity
  8
1
  6
CONTINUOUS
 62
           7
100
AcDbLine
 10
218.499827501577
 20
327.726445220906
 11
204.443203174551
 21
327.726445220906
  0
LINE
  5
73
100
AcDbEntity
  8
1
  6
CONTINUOUS
 62
           7
100
AcDbLine
 10
218.499827501577
 20
295.612837651342
 11
218.499827501577
 21
304.840052790469
  0
LINE
  5
72
100
AcDbEntity
  8
1
  6
CONTINUOUS
 62
           7
100
AcDbLine
 10
218.499827501577
 20
316.13396020655
 11
218.499827501577
 21
322.658586602894
  0
LINE
  5
71
100
AcDbEntity
  8
1
  6
CONTINUOUS
 62
           7
100
AcDbLine
 10
218.499827501577
 20
327.336676226821
 11
218.499827501577
 21
327.726445220906
  0
LINE
  5
70
100
AcDbEntity
  8
1
  6
CONTINUOUS
 62
           7
100
AcDbLine
 10
204.443203174551
 20
327.336676226821
 11
218.499827501577
 21
327.336676226821
  0
LINE
  5
6F
100
AcDbEntity
  8
1
  6
CONTINUOUS
 62
           7
100
AcDbLine
 10
218.499827501577
 20
322.658586602894
 11
204.443203174551
 21
322.658586602894
  0
LINE
  5
6E
100
AcDbEntity
  8
1
  6
CONTINUOUS
 62
           7
100
AcDbLine
 10
204.443203174551
 20
316.13396020655
 11
218.499827501577
 21
316.13396020655
  0
LINE
  5
6D
100
AcDbEntity
  8
1
  6
CONTINUOUS
 62
           7
100
AcDbLine
 10
218.499827501577
 20
304.840052790469
 11
204.443203174551
 21
304.840052790469
  0
LINE
  5
6C
100
AcDbEntity
  8
1
  6
CONTINUOUS
 62
           7
100
AcDbLine
 10
240.425894460409
 20
307.309700122432
 11
234.999827501577
 21
307.309700122432
  0
LINE
  5
6B
100
AcDbEntity
  8
1
  6
CONTINUOUS
 62
           7
100
AcDbLine
 10
204.443203174551
 20
327.726445220906
 11
204.443203174551
 21
327.336676226821
  0
LINE
  5
6A
100
AcDbEntity
  8
1
  6
CONTINUOUS
 62
           7
100
AcDbLine
 10
204.443203174551
 20
304.840052790469
 11
204.443203174551
 21
295.612837651342
  0
LINE
  5
69
100
AcDbEntity
  8
1
  6
CONTINUOUS
 62
           7
100
AcDbLine
 10
204.443203174551
 20
322.658586602894
 11
204.443203174551
 21
316.13396020655
  0
LINE
  5
68
100
AcDbEntity
  8
1
  6
CONTINUOUS
 62
           7
100
AcDbLine
 10
221.499827501577
 20
282.976445220906
 11
232.999827501577
 21
282.976445220906
  0
LINE
  5
67
100
AcDbEntity
  8
1
  6
CONTINUOUS
 62
           7
100
AcDbLine
 10
218.499827501577
 20
272.726445220906
 11
219.499827501577
 21
273.726445220906
  0
LINE
  5
66
100
AcDbEntity
  8
1
  6
CONTINUOUS
 62
           7
100
AcDbLine
 10
234.999827501577
 20
290.726445220906
 11
241.711152366982
 21
290.726445220906
  0
LINE
  5
65
100
AcDbEntity
  8
1
  6
CONTINUOUS
 62
           7
100
AcDbLine
 10
241.711152366982
 20
290.726445220906
 11
241.999827501577
 21
291.226445220906
  0
LINE
  5
64
100
AcDbEntity
  8
1
  6
CONTINUOUS
 62
           7
100
AcDbLine
 10
202.999827501577
 20
275.226445220906
 11
204.443203174551
 21
272.726445220906
  0
LINE
  5
63
100
AcDbEntity
  8
1
  6
CONTINUOUS
 62
           7
100
AcDbLine
 10
204.443203174551
 20
272.726445220906
 11
218.499827501577
 21
272.726445220906
  0
LINE
  5
62
100
AcDbEntity
  8
1
  6
CONTINUOUS
 62
           7
100
AcDbLine
 10
218.499827501577
 20
277.794303838918
 11
218.499827501577
 21
284.318930235262
  0
LINE
  5
61
100
AcDbEntity
  8
1
  6
CONTINUOUS
 62
           7
100
AcDbLine
 10
218.499827501577
 20
272.726445220906
 11
218.499827501577
 21
273.116214214991
  0
LINE
  5
60
100
AcDbEntity
  8
1
  6
CONTINUOUS
 62
           7
100
AcDbLine
 10
218.499827501577
 20
273.116214214991
 11
204.443203174551
 21
273.116214214991
  0
LINE
  5
5F
100
AcDbEntity
  8
1
  6
CONTINUOUS
 62
           7
100
AcDbLine
 10
204.443203174551
 20
277.794303838918
 11
218.499827501577
 21
277.794303838918
  0
LINE
  5
5E
100
AcDbEntity
  8
1
  6
CONTINUOUS
 62
           7
100
AcDbLine
 10
218.499827501577
 20
284.318930235262
 11
204.443203174551
 21
284.318930235262
  0
LINE
  5
5D
100
AcDbEntity
  8
1
  6
CONTINUOUS
 62
           7
100
AcDbLine
 10
204.443203174551
 20
295.612837651342
 11
218.499827501577
 21
295.612837651342
  0
LINE
  5
5C
100
AcDbEntity
  8
1
  6
CONTINUOUS
 62
           7
100
AcDbLine
 10
234.999827501577
 20
293.143190319379
 11
240.425894460409
 21
293.143190319379
  0
LINE
  5
5B
100
AcDbEntity
  8
1
  6
CONTINUOUS
 62
           7
100
AcDbLine
 10
204.443203174551
 20
273.116214214991
 11
204.443203174551
 21
272.726445220906
  0
LINE
  5
5A
100
AcDbEntity
  8
1
  6
CONTINUOUS
 62
           7
100
AcDbLine
 10
204.443203174551
 20
284.318930235262
 11
204.443203174551
 21
277.794303838918
  0
LINE
  5
59
100
AcDbEntity
  8
1
  6
CONTINUOUS
 62
           7
100
AcDbLine
 10
221.499827501577
 20
317.476445220906
 11
221.499827501577
 21
282.976445220906
  0
LINE
  5
58
100
AcDbEntity
  8
1
  6
CONTINUOUS
 62
           7
100
AcDbLine
 10
233.499827501577
 20
283.039953547802
 11
233.499827501577
 21
317.41293689401
  0
LINE
  5
57
100
AcDbEntity
  8
1
  6
DOT_CENTER
 62
           2
100
AcDbLine
 10
168.927390761206
 20
160.049590653
 11
188.312432425217
 21
160.049590653
  0
LINE
  5
56
100
AcDbEntity
  8
1
  6
CONTINUOUS
 62
           7
100
AcDbLine
 10
166.999827501577
 20
316.726445220906
 11
196.026568480542
 21
316.726445220906
  0
LINE
  5
55
100
AcDbEntity
  8
1
  6
CONTINUOUS
 62
           7
100
AcDbLine
 10
166.139044582378
 20
300.226445220906
 11
166.999827501577
 21
283.726445220906
  0
LINE
  5
54
100
AcDbEntity
  8
1
  6
CONTINUOUS
 62
           2
100
AcDbLine
 10
202.999827501577
 20
277.038445220906
 11
202.187827501577
 21
277.038445220906
  0
LINE
  5
53
100
AcDbEntity
  8
1
  6
CONTINUOUS
 62
           7
100
AcDbLine
 10
202.999827501577
 20
276.226445220906
 11
202.999827501577
 21
324.226445220906
  0
LINE
  5
52
100
AcDbEntity
  8
1
  6
CONTINUOUS
 62
           7
100
AcDbLine
 10
146.999827501577
 20
283.726445220906
 11
196.026568480542
 21
283.726445220906
  0
LINE
  5
51
100
AcDbEntity
  8
1
  6
CONTINUOUS
 62
           7
100
AcDbLine
 10
199.499827501577
 20
300.226445220906
 11
199.024740961599
 21
286.621746730798
  0
LINE
  5
50
100
AcDbEntity
  8
1
  6
CONTINUOUS
 62
           7
100
AcDbLine
 10
199.024740961599
 20
313.831143711013
 11
199.499827501577
 21
300.226445220906
  0
LINE
  5
4F
100
AcDbEntity
  8
1
  6
CONTINUOUS
 62
           7
100
AcDbLine
 10
202.999827501577
 20
324.226445220906
 11
201.999827501577
 21
323.226445220906
  0
LINE
  5
4E
100
AcDbEntity
  8
1
  6
CONTINUOUS
 62
           7
100
AcDbLine
 10
198.520857336425
 20
321.910485507557
 11
196.806520875176
 21
317.200384790929
  0
LINE
  5
4D
100
AcDbEntity
  8
1
  6
CONTINUOUS
 62
           7
100
AcDbLine
 10
201.999827501577
 20
277.226445220906
 11
202.999827501577
 21
276.226445220906
  0
LINE
  5
4C
100
AcDbEntity
  8
1
  6
CONTINUOUS
 62
           2
100
AcDbLine
 10
202.187827501577
 20
323.414445220906
 11
202.999827501577
 21
323.414445220906
  0
LINE
  5
4B
100
AcDbEntity
  8
1
  6
DOT_CENTER
 62
           2
100
AcDbLine
 10
160.999827501577
 20
329.226445220906
 11
160.999827501577
 21
319.226445220906
  0
LINE
  5
4A
100
AcDbEntity
  8
1
  6
DOT_CENTER
 62
           2
100
AcDbLine
 10
178.499827501577
 20
321.726445220906
 11
178.499827501577
 21
278.726445220906
  0
LINE
  5
49
100
AcDbEntity
  8
976
  6
DOT_CENTER
 62
           2
100
AcDbLine
 10
109.499827501577
 20
300.226445220906
 11
253.534922846341
 21
300.226445220906
  0
LINE
  5
48
100
AcDbEntity
  8
1
  6
CONTINUOUS
 62
           7
100
AcDbLine
 10
170.999827501577
 20
300.226445220906
 11
171.474914041555
 21
286.621746730798
  0
LINE
  5
47
100
AcDbEntity
  8
1
  6
CONTINUOUS
 62
           7
100
AcDbLine
 10
171.474914041555
 20
313.831143711013
 11
170.999827501577
 21
300.226445220906
  0
LINE
  5
46
100
AcDbEntity
  8
1
  6
CONTINUOUS
 62
           7
100
AcDbLine
 10
198.999827501577
 20
314.126108571532
 11
198.999827501577
 21
320.226445220906
  0
LINE
  5
45
100
AcDbEntity
  8
1
  6
CONTINUOUS
 62
           7
100
AcDbLine
 10
198.999827501577
 20
280.226445220906
 11
198.999827501577
 21
286.326781870279
  0
LINE
  5
44
100
AcDbEntity
  8
2
  6
CONTINUOUS
 62
           7
100
AcDbLine
 10
171.295354084283
 20
316.879148865572
 11
170.291243745247
 21
322.57374157624
  0
LINE
  5
43
100
AcDbEntity
  8
1
  6
CONTINUOUS
 62
           7
100
AcDbLine
 10
153.678026763932
 20
324.226445220906
 11
168.321628239222
 21
324.226445220906
  0
LINE
  5
42
100
AcDbEntity
  8
1
  6
CONTINUOUS
 62
           7
100
AcDbLine
 10
196.612959080781
 20
283.784312310252
 11
198.520857336425
 21
278.542404934254
  0
LINE
  5
41
100
AcDbEntity
  8
1
  6
CONTINUOUS
 62
           7
100
AcDbLine
 10
201.999827501577
 20
323.226445220906
 11
201.999827501577
 21
277.226445220906
  0
LINE
  5
40
100
AcDbEntity
  8
1
  6
CONTINUOUS
 62
           7
100
AcDbLine
 10
201.999827501577
 20
277.226445220906
 11
200.400242577996
 21
277.226445220906
  0
LINE
  5
3F
100
AcDbEntity
  8
3
  6
CONTINUOUS
 62
           7
100
AcDbLine
 10
144.999827501577
 20
286.226445220906
 11
144.999827501577
 21
314.226445220906
  0
LINE
  5
3E
100
AcDbEntity
  8
1
  6
CONTINUOUS
 62
           7
100
AcDbLine
 10
200.400242577996
 20
323.226445220906
 11
201.999827501577
 21
323.226445220906
  0
LINE
  5
3D
100
AcDbEntity
  8
2
  6
CONTINUOUS
 62
           7
100
AcDbLine
 10
151.708411257907
 20
322.57374157624
 11
150.704300918871
 21
316.879148865572
  0
LINE
  5
3C
100
AcDbEntity
  8
1
  6
CONTINUOUS
 62
           7
100
AcDbLine
 10
166.999827501577
 20
316.726445220906
 11
166.139044582378
 21
300.226445220906
  0
LINE
  5
3B
100
AcDbEntity
  8
1
  6
CONTINUOUS
 62
           7
100
AcDbLine
 10
145.999827501577
 20
285.226445220906
 11
146.947466320658
 21
285.226445220906
  0
LINE
  5
3A
100
AcDbEntity
  8
1
  6
CONTINUOUS
 62
           7
100
AcDbLine
 10
145.999827501577
 20
315.226445220906
 11
148.734685412846
 21
315.226445220906
  0
LINE
  5
39
100
AcDbEntity
  8
1
  6
CONTINUOUS
 62
           7
100
AcDbLine
 10
146.947758218163
 20
285.21751440901
 11
146.999827501577
 21
283.726445220906
  0
LINE
  5
38
100
AcDbEntity
  8
1
  6
CONTINUOUS
 62
           7
100
AcDbLine
 10
148.946539872201
 20
287.287313402415
 11
166.81406177381
 21
287.287313402415
  0
LINE
  5
37
100
AcDbEntity
  8
1
  6
CONTINUOUS
 62
           7
100
AcDbLine
 10
155.842657356857
 20
311.429981062509
 11
150.929072931858
 21
314.86552951959
  0
LINE
  5
36
100
AcDbEntity
  8
1
  6
CONTINUOUS
 62
           7
100
AcDbLine
 10
166.701921014219
 20
311.810988179507
 11
166.156997646297
 21
311.429981062509
  0
LINE
  5
35
100
AcDbEntity
  8
1
  6
CONTINUOUS
 62
           7
100
AcDbLine
 10
145.999827501577
 20
315.226445220906
 11
144.999827501577
 21
314.226445220906
  0
LINE
  5
34
100
AcDbEntity
  8
1
  6
CONTINUOUS
 62
           7
100
AcDbLine
 10
145.999827501577
 20
285.226445220906
 11
144.999827501577
 21
286.226445220906
  0
LINE
  5
33
100
AcDbEntity
  8
1
  6
CONTINUOUS
 62
           7
100
AcDbLine
 10
145.999827501577
 20
315.226445220906
 11
145.999827501577
 21
285.226445220906
  0
LINE
  5
32
100
AcDbEntity
  8
1
  6
DOT_CENTER
 62
           2
100
AcDbLine
 10
171.099827501577
 20
309.226445220906
 11
185.899827501577
 21
309.226445220906
  0
LINE
  5
31
100
AcDbEntity
  8
1
  6
DOT_CENTER
 62
           2
100
AcDbLine
 10
171.099827501577
 20
291.226445220906
 11
185.899827501577
 21
291.226445220906
  0
LINE
  5
30
100
AcDbEntity
  8
1
  6
DOT_CENTER
 62
           2
100
AcDbLine
 10
192.499827501577
 20
293.826445220906
 11
192.499827501577
 21
306.626445220906
  0
LINE
  5
2F
100
AcDbEntity
  8
21
  6
DOT_CENTER
 62
           2
100
AcDbLine
 10
160.999827501577
 20
141.299590653
 11
160.999827501577
 21
94.116577951107
  0
LINE
  5
2E
100
AcDbEntity
  8
1
  6
DOT_CENTER
 62
           2
100
AcDbLine
 10
192.499827501577
 20
137.849590653
 11
192.499827501577
 21
97.549590653
  0
LINE
  5
2D
100
AcDbEntity
  8
1
  6
DOT_CENTER
 62
           2
100
AcDbLine
 10
178.499827501577
 20
194.549590653
 11
178.499827501577
 21
150.049590653
  0
ENDSEC
  0
SECTION
  2
OBJECTS
  0
DICTIONARY
  5
19
100
AcDbDictionary
  3
ACAD_GROUP
350
1A
  3
ACAD_MLINESTYLE
350
1B
  0
DICTIONARY
  5
1A
102
{ACAD_REACTORS
330
19
102
}
100
AcDbDictionary
  0
DICTIONARY
  5
1B
102
{ACAD_REACTORS
330
19
102
}
100
AcDbDictionary
  3
STANDARD
350
1C
  0
MLINESTYLE
  5
1C
102
{ACAD_REACTORS
330
1B
102
}
100
AcDbMlineStyle
  2
STANDARD
 70
           0
  3

 62
           0
 51
90.0
 52
90.0
 71
           2
 49
0.5
 62
         256
  6
BYLAYER
 49
-0.5
 62
         256
  6
BYLAYER
  0
ENDSEC
  0
EOF
