  0
SECTION
  2
HEADER
  9
$ACADVER
  1
AC1014
  9
$ACADMAINTVER
 70
           0
  9
$DWGCODEPAGE
  3
DOS932
  9
$INSBASE
 10
0.0
 20
0.0
 30
0.0
  9
$EXTMIN
 10
1.000000000000E+20
 20
1.000000000000E+20
 30
1.000000000000E+20
  9
$EXTMAX
 10
-1.000000000000E+20
 20
-1.000000000000E+20
 30
-1.000000000000E+20
  9
$LIMMIN
 10
0.0
 20
0.0
  9
$LIMMAX
 10
0.0
 20
0.0
  9
$ORTHOMODE
 70
           0
  9
$REGENMODE
 70
           1
  9
$FILLMODE
 70
           1
  9
$QTEXTMODE
 70
           0
  9
$MIRRTEXT
 70
           1
  9
$DRAGMODE
 70
           2
  9
$LTSCALE
 40
1.0
  9
$OSMODE
 70
           0
  9
$ATTMODE
 70
           1
  9
$TEXTSIZE
 40
0.2
  9
$TRACEWID
 40
0.05
  9
$TEXTSTYLE
  7
STANDARD
  9
$CLAYER
  8
0
  9
$CELTYPE
  6
CONTINUOUS
  9
$CECOLOR
 62
         256
  9
$CELTSCALE
 40
1.0
  9
$DELOBJ
 70
           1
  9
$DISPSILH
 70
           0
  9
$DIMSCALE
 40
1.0
  9
$DIMASZ
 40
0.18
  9
$DIMEXO
 40
0.0625
  9
$DIMDLI
 40
0.38
  9
$DIMRND
 40
0.0
  9
$DIMDLE
 40
0.0
  9
$DIMEXE
 40
0.18
  9
$DIMTP
 40
0.0
  9
$DIMTM
 40
0.0
  9
$DIMTXT
 40
0.18
  9
$DIMCEN
 40
0.09
  9
$DIMTSZ
 40
0.0
  9
$DIMTOL
 70
           0
  9
$DIMLIM
 70
           0
  9
$DIMTIH
 70
           1
  9
$DIMTOH
 70
           1
  9
$DIMSE1
 70
           0
  9
$DIMSE2
 70
           0
  9
$DIMTAD
 70
           0
  9
$DIMZIN
 70
           0
  9
$DIMBLK
  1

  9
$DIMASO
 70
           1
  9
$DIMSHO
 70
           1
  9
$DIMPOST
  1

  9
$DIMAPOST
  1

  9
$DIMALT
 70
           0
  9
$DIMALTD
 70
           2
  9
$DIMALTF
 40
25.4
  9
$DIMLFAC
 40
1.0
  9
$DIMTOFL
 70
           0
  9
$DIMTVP
 40
0.0
  9
$DIMTIX
 70
           0
  9
$DIMSOXD
 70
           0
  9
$DIMSAH
 70
           0
  9
$DIMBLK1
  1

  9
$DIMBLK2
  1

  9
$DIMSTYLE
  2
STANDARD
  9
$DIMCLRD
 70
           0
  9
$DIMCLRE
 70
           0
  9
$DIMCLRT
 70
           0
  9
$DIMTFAC
 40
1.0
  9
$DIMGAP
 40
0.09
  9
$DIMJUST
 70
           0
  9
$DIMSD1
 70
           0
  9
$DIMSD2
 70
           0
  9
$DIMTOLJ
 70
           1
  9
$DIMTZIN
 70
           0
  9
$DIMALTZ
 70
           0
  9
$DIMALTTZ
 70
           0
  9
$DIMFIT
 70
           3
  9
$DIMUPT
 70
           0
  9
$DIMUNIT
 70
           2
  9
$DIMDEC
 70
           4
  9
$DIMTDEC
 70
           4
  9
$DIMALTU
 70
           2
  9
$DIMALTTD
 70
           2
  9
$DIMTXSTY
  7
STANDARD
  9
$DIMAUNIT
 70
           0
  9
$LUNITS
 70
           2
  9
$LUPREC
 70
           4
  9
$SKETCHINC
 40
0.1
  9
$FILLETRAD
 40
0.0
  9
$AUNITS
 70
           0
  9
$AUPREC
 70
           0
  9
$MENU
  1
acad
  9
$ELEVATION
 40
0.0
  9
$PELEVATION
 40
0.0
  9
$THICKNESS
 40
0.0
  9
$LIMCHECK
 70
           0
  9
$BLIPMODE
 70
           1
  9
$CHAMFERA
 40
0.0
  9
$CHAMFERB
 40
0.0
  9
$CHAMFERC
 40
0.0
  9
$CHAMFERD
 40
0.0
  9
$SKPOLY
 70
           0
  9
$TDCREATE
 40
0.000000000
  9
$TDUPDATE
 40
0.000000000
  9
$TDINDWG
 40
0.0000000000
  9
$TDUSRTIMER
 40
0.0000000000
  9
$USRTIMER
 70
           1
  9
$ANGBASE
 50
0.0
  9
$ANGDIR
 70
           0
  9
$PDMODE
 70
           0
  9
$PDSIZE
 40
0.0
  9
$PLINEWID
 40
0.0
  9
$COORDS
 70
           0
  9
$SPLFRAME
 70
           0
  9
$SPLINETYPE
 70
           6
  9
$SPLINESEGS
 70
           8
  9
$ATTDIA
 70
           0
  9
$ATTREQ
 70
           1
  9
$HANDLING
 70
           1
  9
$HANDSEED
  5
69B
  9
$SURFTAB1
 70
           6
  9
$SURFTAB2
 70
           6
  9
$SURFTYPE
 70
           6
  9
$SURFU
 70
           6
  9
$SURFV
 70
           6
  9
$UCSNAME
  2

  9
$UCSORG
 10
0.0
 20
0.0
 30
0.0
  9
$UCSXDIR
 10
1.0
 20
0.0
 30
0.0
  9
$UCSYDIR
 10
0.0
 20
1.0
 30
0.0
  9
$PUCSNAME
  2

  9
$PUCSORG
 10
0.0
 20
0.0
 30
0.0
  9
$PUCSXDIR
 10
1.0
 20
0.0
 30
0.0
  9
$PUCSYDIR
 10
0.0
 20
1.0
 30
0.0
  9
$USERI1
 70
           0
  9
$USERI2
 70
           0
  9
$USERI3
 70
           0
  9
$USERI4
 70
           0
  9
$USERI5
 70
           0
  9
$USERR1
 40
0.0
  9
$USERR2
 40
0.0
  9
$USERR3
 40
0.0
  9
$USERR4
 40
0.0
  9
$USERR5
 40
0.0
  9
$WORLDVIEW
 70
           1
  9
$SHADEDGE
 70
           3
  9
$SHADEDIF
 70
          70
  9
$TILEMODE
 70
           1
  9
$MAXACTVP
 70
          16
  9
$PINSBASE
 10
0.0
 20
0.0
 30
0.0
  9
$PLIMCHECK
 70
           0
  9
$PEXTMIN
 10
1.000000000000E+20
 20
1.000000000000E+20
 30
1.000000000000E+20
  9
$PEXTMAX
 10
-1.000000000000E+20
 20
-1.000000000000E+20
 30
-1.000000000000E+20
  9
$PLIMMIN
 10
0.0
 20
0.0
  9
$PLIMMAX
 10
12.0
 20
9.0
  9
$UNITMODE
 70
           0
  9
$VISRETAIN
 70
           0
  9
$PLINEGEN
 70
           1
  9
$PSLTSCALE
 70
           0
  9
$TREEDEPTH
 70
        3020
  9
$PICKSTYLE
 70
           1
  9
$CMLSTYLE
  2
STANDARD
  9
$CMLJUST
 70
           0
  9
$CMLSCALE
 40
1.0
  9
$PROXYGRAPHICS
 70
           0
  9
$MEASUREMENT
 70
           0
  0
ENDSEC
  0
SECTION
  2
CLASSES
  0
CLASS
  1
LWPOLYLINE
  2
AcDbPolyline
  3
"AutoCAD"
 90
        0
280
           0
281
           1
  0
CLASS
  1
IMAGE
  2
AcDbRasterImage
  3
ISM
 90
      127
280
           0
281
           1
  0
CLASS
  1
OLE2FRAME
  2
AcDbOle2Frame
  3
""
 90
        0
280
           0
281
           1
  0
CLASS
  1
HATCH
  2
AcDbHatch
  3
"ACAD_SEDONA"
 90
        0
280
           0
281
           1
  0
CLASS
  1
DICTIONARYVAR
  2
AcDbDictionaryVar
  3
"AutoCAD"
 90
        0
280
           0
281
           0
  0
CLASS
  1
RASTERVARIABLES
  2
AcDbRasterVariables
  3
ISM
 90
        0
280
           0
281
           0
  0
CLASS
  1
IMAGEDEF
  2
AcDbRasterImageDef
  3
ISM
 90
        0
280
           0
281
           0
  0
CLASS
  1
IMAGEDEF_REACTOR
  2
AcDbRasterImageDefReactor
  3
ISM
 90
        1
280
           0
281
           0
  0
CLASS
  1
IDBUFFER
  2
AcDbIdBuffer
  3
"Acad"
 90
        0
280
           0
281
           0
  0
CLASS
  1
SPATIAL_FILTER
  2
AcDbSpatialFilter
  3
"Acad"
 90
        0
280
           0
281
           0
  0
CLASS
  1
XRECORD
  2
AcDbXrecord
  3
"<Built In>"
 90
        0
280
           0
281
           0
  0
CLASS
  1
SORTENTSTABLE
  2
AcDbSortentsTable
  3
"AutoCAD"
 90
        0
280
           0
281
           0
  0
CLASS
  1
LAYER_INDEX
  2
AcDbLayerIndex
  3
"Acad"
 90
        0
280
           0
281
           0
  0
CLASS
  1
SPATIAL_INDEX
  2
AcDbSpatialIndex
  3
"Acad"
 90
        0
280
           0
281
           0
  0
CLASS
  1
OBJECT_PTR
  2
CAseDLPNTableRecord
  3
"ASE-LPNTableRecord"
 90
        1
280
           0
281
           0
  0
CLASS
  1
LAYOUT
  2
AcDbLayout
  3
"AutoCAD 2000"
 90
        1
280
           0
281
           0
  0
CLASS
  1
PLOTSETTINGS
  2
AcDbPlotSettings
  3
"AutoCAD 2000"
 90
        1
280
           0
281
           0
  0
CLASS
  1
ACDBDICTIONARYWDFLT
  2
AcDbDictionaryWithDefault
  3
"AutoCAD 2000"
 90
        1
280
           0
281
           0
  0
CLASS
  1
ACDBPLACEHOLDER
  2
AcDbPlaceHolder
  3
"AutoCAD 2000"
 90
        1
280
           0
281
           0
  0
CLASS
  1
VBA_PROJECT
  2
AcDbVbaProject
  3
"acadvba"
 90
        1
280
           0
281
           0
  0
CLASS
  1
WIPEOUT
  2
AcDbWipeout
  3
WipeOut|AutoCAD Express Tool|expresstools@autodesk.com
 90
      127
280
           0
281
           1
  0
CLASS
  1
WIPEOUTVARIABLES
  2
AcDbWipeoutVariables
  3
WipeOut|AutoCAD Express Tool|expresstools@autodesk.com
 90
        0
280
           0
281
           0
  0
CLASS
  1
RTEXT
  2
RText
  3
RText|AutoCAD Express Tool|expresstools@autodesk.com
 90
        0
280
           0
281
           1
  0
CLASS
  1
ARCALIGNEDTEXT
  2
AcDbArcAlignedText
  3
ATEXT|AutoCAD Express Tool|expresstools@autodesk.com
 90
        0
280
           0
281
           1
  0
ENDSEC
  0
SECTION
  2
TABLES
  0
TABLE
  2
VPORT
  5
7
100
AcDbSymbolTable
 70
           1
  0
VPORT
  5
15
100
AcDbSymbolTableRecord
100
AcDbViewportTableRecord
  2
*ACTIVE
 70
           0
 10
0.0
 20
0.0
 11
1.0
 21
1.0
 12
6.591288
 22
4.579184
 13
0.0
 23
0.0
 14
1.0
 24
1.0
 15
0.0
 25
0.0
 16
0.0
 26
0.0
 36
1.0
 17
0.0
 27
0.0
 37
0.0
 40
9.158369
 41
0.688564
 42
50.0
 43
0.0
 44
0.0
 50
0.0
 51
0.0
 71
           0
 72
         100
 73
           1
 74
           1
 75
           0
 76
           0
 77
           0
 78
           0
  0
ENDTAB
  0
TABLE
  2
LTYPE
  5
4
100
AcDbSymbolTable
 70
          10
  0
LTYPE
  5
11
100
AcDbSymbolTableRecord
100
AcDbLinetypeTableRecord
  2
BYBLOCK
 70
          64
  3

 72
          65
 73
           0
 40
0.0
  0
LTYPE
  5
12
100
AcDbSymbolTableRecord
100
AcDbLinetypeTableRecord
  2
BYLAYER
 70
          64
  3

 72
          65
 73
           0
 40
0.0
  0
LTYPE
  5
13
100
AcDbSymbolTableRecord
100
AcDbLinetypeTableRecord
  2
CONTINUOUS
 70
          64
  3
Solid line
 72
          65
 73
           0
 40
0.0
  0
LTYPE
  5
1D
100
AcDbSymbolTableRecord
100
AcDbLinetypeTableRecord
  2
DASHED
 70
          64
  3
Dashed
 72
          65
 73
           2
 40
15.0
 49
12.0
 74
           0
 49
-3.0
 74
           0
  0
LTYPE
  5
1E
100
AcDbSymbolTableRecord
100
AcDbLinetypeTableRecord
  2
DOTTED
 70
          64
  3
Dotted
 72
          65
 73
           2
 40
3.5
 49
0.5
 74
           0
 49
-3.0
 74
           0
  0
LTYPE
  5
1F
100
AcDbSymbolTableRecord
100
AcDbLinetypeTableRecord
  2
DOT_CENTER
 70
          64
  3
Dot_Center
 72
          65
 73
           4
 40
2.0
 49
1.25
 74
           0
 49
-0.25
 74
           0
 49
0.25
 74
           0
 49
-0.25
 74
           0
  0
LTYPE
  5
20
100
AcDbSymbolTableRecord
100
AcDbLinetypeTableRecord
  2
LONG_DASHED
 70
          64
  3
Long_Dashed
 72
          65
 73
           2
 40
2.0
 49
1.5
 74
           0
 49
-0.5
 74
           0
  0
LTYPE
  5
21
100
AcDbSymbolTableRecord
100
AcDbLinetypeTableRecord
  2
DASH_CENTER
 70
          64
  3
Dash_Center
 72
          65
 73
           4
 40
36.0
 49
24.0
 74
           0
 49
-3.0
 74
           0
 49
6.0
 74
           0
 49
-3.0
 74
           0
  0
LTYPE
  5
22
100
AcDbSymbolTableRecord
100
AcDbLinetypeTableRecord
  2
PHANTOM
 70
          64
  3
Phantom
 72
          65
 73
           6
 40
2.5
 49
1.25
 74
           0
 49
-0.25
 74
           0
 49
0.25
 74
           0
 49
-0.25
 74
           0
 49
0.25
 74
           0
 49
-0.25
 74
           0
  0
LTYPE
  5
23
100
AcDbSymbolTableRecord
100
AcDbLinetypeTableRecord
  2
CENTER_DASH_DASH
 70
          64
  3
Center_Dash_Dash
 72
          65
 73
           6
 40
22.0
 49
12.0
 74
           0
 49
-3.0
 74
           0
 49
0.5
 74
           0
 49
-3.0
 74
           0
 49
0.5
 74
           0
 49
-3.0
 74
           0
  0
ENDTAB
  0
TABLE
  2
LAYER
  5
2
100
AcDbSymbolTable
 70
           4
  0
LAYER
  5
14
100
AcDbSymbolTableRecord
100
AcDbLayerTableRecord
  2
0
 70
           0
 62
           7
  6
CONTINUOUS
  0
LAYER
  5
24
100
AcDbSymbolTableRecord
100
AcDbLayerTableRecord
  2
976
 70
           0
 62
           7
  6
CONTINUOUS
  0
LAYER
  5
25
100
AcDbSymbolTableRecord
100
AcDbLayerTableRecord
  2
1
 70
           0
 62
           7
  6
CONTINUOUS
  0
LAYER
  5
26
100
AcDbSymbolTableRecord
100
AcDbLayerTableRecord
  2
2
 70
           0
 62
           7
  6
CONTINUOUS
  0
ENDTAB
  0
TABLE
  2
STYLE
  5
3
100
AcDbSymbolTable
 70
           1
  0
STYLE
  5
17
100
AcDbSymbolTableRecord
100
AcDbTextStyleTableRecord
  2
STANDARD
 70
           0
 40
0.0
 41
1.0
 50
0.0
 71
           0
 42
0.0
  3
txt
  4

  0
ENDTAB
  0
TABLE
  2
VIEW
  5
5
100
AcDbSymbolTable
 70
           0
  0
ENDTAB
  0
TABLE
  2
UCS
  5
6
100
AcDbSymbolTable
 70
           0
  0
ENDTAB
  0
TABLE
  2
APPID
  5
8
100
AcDbSymbolTable
 70
           1
  0
APPID
  5
16
100
AcDbSymbolTableRecord
100
AcDbRegAppTableRecord
  2
ACAD
 70
           0
  0
ENDTAB
  0
TABLE
  2
DIMSTYLE
  5
9
100
AcDbSymbolTable
 70
           1
  0
DIMSTYLE
105
18
100
AcDbSymbolTableRecord
100
AcDbDimStyleTableRecord
  2
STANDARD
 70
           0
  3

  4

  5

  6

  7

 40
1.0
 41
0.18
 42
0.0625
 43
0.38
 44
0.18
 45
0.0
 46
0.0
 47
0.0
 48
0.0
 71
           0
 72
           0
 73
           1
 74
           1
 75
           0
 76
           0
 77
           0
 78
           0
140
0.18
141
0.09
142
0.0
143
25.4
144
1.0
145
0.0
146
1.0
147
0.09
170
           0
171
           2
172
           0
173
           0
174
           0
175
           0
176
           0
177
           0
178
           0
270
           2
271
           4
272
           4
273
           2
274
           2
275
           0
280
           0
281
           0
282
           0
283
           1
284
           0
285
           0
286
           0
287
           0
288
           0
340
17
  0
ENDTAB
  0
TABLE
  2
BLOCK_RECORD
  5
1
100
AcDbSymbolTable
 70
           0
  0
BLOCK_RECORD
  5
A
100
AcDbSymbolTableRecord
100
AcDbBlockTableRecord
  2
*MODEL_SPACE
  0
BLOCK_RECORD
  5
B
100
AcDbSymbolTableRecord
100
AcDbBlockTableRecord
  2
*PAPER_SPACE
  0
ENDTAB
  0
ENDSEC
  0
SECTION
  2
BLOCKS
  0
BLOCK
  5
D
100
AcDbEntity
  8
0
100
AcDbBlockBegin
  2
*MODEL_SPACE
 70
           0
 10
0.0
 20
0.0
 30
0.0
  3
*MODEL_SPACE
  1

  0
ENDBLK
  5
E
100
AcDbEntity
  8
0
100
AcDbBlockEnd
  0
BLOCK
  5
F
100
AcDbEntity
 67
           1
  8
0
100
AcDbBlockBegin
  2
*PAPER_SPACE
 70
           0
 10
0.0
 20
0.0
 30
0.0
  3
*PAPER_SPACE
  1

  0
ENDBLK
  5
10
100
AcDbEntity
 67
           1
  8
0
100
AcDbBlockEnd
  0
ENDSEC
  0
SECTION
  2
ENTITIES
  0
ARC
  5
699
100
AcDbEntity
  8
1
  6
CONTINUOUS
 62
           7
100
AcDbCircle
 10
577.839389845052
 20
1380.898613746087
 40
3.776792313377
100
AcDbArc
 50
90.0
 51
180.0
  0
ARC
  5
698
100
AcDbEntity
  8
1
  6
CONTINUOUS
 62
           7
100
AcDbCircle
 10
678.553851535124
 20
1380.898613746087
 40
3.776792313378
100
AcDbArc
 50
0.0
 51
90.0
  0
ARC
  5
697
100
AcDbEntity
  8
1
  6
CONTINUOUS
 62
           7
100
AcDbCircle
 10
678.553851535124
 20
1346.907482925687
 40
3.776792313377
100
AcDbArc
 50
-90.0
 51
0.0
  0
ARC
  5
696
100
AcDbEntity
  8
1
  6
CONTINUOUS
 62
           7
100
AcDbCircle
 10
577.839389845052
 20
1346.907482925687
 40
3.776792313378
100
AcDbArc
 50
180.0
 51
-90.0
  0
ARC
  5
695
100
AcDbEntity
  8
1
  6
CONTINUOUS
 62
           7
100
AcDbCircle
 10
-316.247523928143
 20
807.422791381402
 40
2.967479674797
100
AcDbArc
 50
-177.632418625404
 51
-90.0
  0
ARC
  5
694
100
AcDbEntity
  8
1
  6
CONTINUOUS
 62
           7
100
AcDbCircle
 10
-313.039730269322
 20
807.422791381402
 40
2.967479674797
100
AcDbArc
 50
-90.0
 51
-2.367581374596
  0
ARC
  5
693
100
AcDbEntity
  8
1
  6
CONTINUOUS
 62
           7
100
AcDbCircle
 10
-355.057145684372
 20
1491.996357320528
 40
11.869918699187
100
AcDbArc
 50
-32.005383208083
 51
0.0
  0
ARC
  5
692
100
AcDbEntity
  8
1
  6
CONTINUOUS
 62
           7
100
AcDbCircle
 10
-355.057145684372
 20
1491.996357320528
 40
5.934959349593
100
AcDbArc
 50
-32.005383208078
 51
0.0
  0
ARC
  5
691
100
AcDbEntity
  8
1
  6
CONTINUOUS
 62
           7
100
AcDbCircle
 10
-352.089666009575
 20
1463.15014808605
 40
5.934959349594
100
AcDbArc
 50
147.994616791912
 51
180.0
  0
ARC
  5
690
100
AcDbEntity
  8
1
  6
CONTINUOUS
 62
           7
100
AcDbCircle
 10
-352.089666009575
 20
1463.15014808605
 40
11.869918699187
100
AcDbArc
 50
147.994616791917
 51
180.0
  0
ARC
  5
68F
100
AcDbEntity
  8
1
  6
CONTINUOUS
 62
           7
100
AcDbCircle
 10
-971.849809744931
 20
1605.674823901727
 40
89.024390243902
100
AcDbArc
 50
28.893327442951
 51
90.0
  0
ARC
  5
68E
100
AcDbEntity
  8
1
  6
CONTINUOUS
 62
           7
100
AcDbCircle
 10
-978.628585677905
 20
1605.674823901727
 40
59.349593495935
100
AcDbArc
 50
28.893327442951
 51
90.0
  0
ARC
  5
68D
100
AcDbEntity
  8
1
  6
CONTINUOUS
 62
           7
100
AcDbCircle
 10
-658.449484800669
 20
1694.69921414563
 40
29.674796747967
100
AcDbArc
 50
90.0
 51
135.000000000001
  0
ARC
  5
68C
100
AcDbEntity
  8
1
  6
CONTINUOUS
 62
           7
100
AcDbCircle
 10
-475.309314112244
 20
1694.69921414563
 40
29.674796747967
100
AcDbArc
 50
44.999999999999
 51
90.0
  0
ARC
  5
68B
100
AcDbEntity
  8
1
  6
CONTINUOUS
 62
           7
100
AcDbCircle
 10
-433.342814090603
 20
1652.73271412399
 40
29.674796747967
100
AcDbArc
 50
0.0
 51
45.0
  0
ARC
  5
68A
100
AcDbEntity
  8
1
  6
CONTINUOUS
 62
           7
100
AcDbCircle
 10
-700.41598482231
 20
1652.73271412399
 40
29.674796747967
100
AcDbArc
 50
135.0
 51
180.0
  0
ARC
  5
689
100
AcDbEntity
  8
1
  6
CONTINUOUS
 62
           7
100
AcDbCircle
 10
611.896881362892
 20
807.422791381402
 40
2.967479674797
100
AcDbArc
 50
-90.0
 51
-2.367581374596
  0
ARC
  5
688
100
AcDbEntity
  8
1
  6
CONTINUOUS
 62
           7
100
AcDbCircle
 10
608.689087704071
 20
807.422791381402
 40
2.967479674797
100
AcDbArc
 50
-177.632418625404
 51
-90.0
  0
ARC
  5
687
100
AcDbEntity
  8
1
  6
CONTINUOUS
 62
           7
100
AcDbCircle
 10
806.146643070067
 20
1449.555802954114
 40
2.967479674797
100
AcDbArc
 50
180.0
 51
-90.0
  0
ARC
  5
686
100
AcDbEntity
  8
1
  6
CONTINUOUS
 62
           7
100
AcDbCircle
 10
809.114122744864
 20
1544.97422325093
 40
5.934959349594
100
AcDbArc
 50
90.0
 51
180.0
  0
ARC
  5
685
100
AcDbEntity
  8
1
  6
CONTINUOUS
 62
           7
100
AcDbCircle
 10
815.049082094457
 20
1544.97422325093
 40
5.934959349594
100
AcDbArc
 50
0.0
 51
90.0
  0
ARC
  5
684
100
AcDbEntity
  8
1
  6
CONTINUOUS
 62
           7
100
AcDbCircle
 10
838.788919492831
 20
1641.284579999288
 40
23.739837398374
100
AcDbArc
 50
0.0
 51
73.719222400536
  0
ARC
  5
683
100
AcDbEntity
  8
1
  6
CONTINUOUS
 62
           7
100
AcDbCircle
 10
838.788919492831
 20
1641.284579999288
 40
53.414634146342
100
AcDbArc
 50
0.0
 51
74.189609874831
  0
ARC
  5
682
100
AcDbEntity
  8
1
  6
CONTINUOUS
 62
           7
100
AcDbCircle
 10
1046.507246444021
 20
1590.469074484059
 40
213.658536585366
100
AcDbArc
 50
163.621791790206
 51
-179.993346574888
  0
ARC
  5
681
100
AcDbEntity
  8
1
  6
CONTINUOUS
 62
           7
100
AcDbCircle
 10
975.292984533482
 20
1600.73600236408
 40
178.048780487805
100
AcDbArc
 50
163.621791790206
 51
180.0
  0
ARC
  5
680
100
AcDbEntity
  8
1
  6
CONTINUOUS
 62
           7
100
AcDbCircle
 10
777.342004718482
 20
1705.975636909857
 40
77.154471544716
100
AcDbArc
 50
-16.378208209794
 51
90.0
  0
ARC
  5
67F
100
AcDbEntity
  8
1
  6
CONTINUOUS
 62
           7
100
AcDbCircle
 10
777.342004718482
 20
1705.975636909857
 40
41.544715447154
100
AcDbArc
 50
-16.378208209793
 51
90.0
  0
ARC
  5
67E
100
AcDbEntity
  8
1
  6
CONTINUOUS
 62
           7
100
AcDbCircle
 10
494.561277216408
 20
1652.73271412399
 40
29.674796747967
100
AcDbArc
 50
135.0
 51
180.0
  0
ARC
  5
67D
100
AcDbEntity
  8
1
  6
CONTINUOUS
 62
           7
100
AcDbCircle
 10
761.634447948116
 20
1652.73271412399
 40
29.674796747967
100
AcDbArc
 50
0.0
 51
45.0
  0
ARC
  5
67C
100
AcDbEntity
  8
1
  6
CONTINUOUS
 62
           7
100
AcDbCircle
 10
719.667947926475
 20
1694.69921414563
 40
29.674796747967
100
AcDbArc
 50
44.999999999999
 51
90.0
  0
ARC
  5
67B
100
AcDbEntity
  8
1
  6
CONTINUOUS
 62
           7
100
AcDbCircle
 10
536.527777238049
 20
1694.69921414563
 40
29.674796747967
100
AcDbArc
 50
90.0
 51
135.0
  0
ARC
  5
67A
100
AcDbEntity
  8
1
  6
CONTINUOUS
 62
           7
100
AcDbCircle
 10
417.406805671693
 20
1641.284579999288
 40
23.739837398374
100
AcDbArc
 50
90.0
 51
180.0
  0
ARC
  5
679
100
AcDbEntity
  8
1
  6
CONTINUOUS
 62
           7
100
AcDbCircle
 10
417.406805671693
 20
1641.284579999288
 40
53.414634146342
100
AcDbArc
 50
90.0
 51
180.0
  0
ARC
  5
678
100
AcDbEntity
  8
1
  6
CONTINUOUS
 62
           7
100
AcDbCircle
 10
889.236073964376
 20
1384.503484127588
 40
5.934959349594
100
AcDbArc
 50
0.0
 51
95.710593137499
  0
ARC
  5
677
100
AcDbEntity
  8
1
  6
CONTINUOUS
 62
           7
100
AcDbCircle
 10
889.236073964376
 20
1338.270003157537
 40
5.934959349594
100
AcDbArc
 50
-95.710593137499
 51
0.0
  0
ARC
  5
676
100
AcDbEntity
  8
1
  6
CONTINUOUS
 62
           7
100
AcDbCircle
 10
-173.338375642419
 20
804.783153306941
 40
5.934959349593
100
AcDbArc
 50
0.0
 51
90.0
  0
ARC
  5
675
100
AcDbEntity
  8
1
  6
CONTINUOUS
 62
           7
100
AcDbCircle
 10
-167.403416292825
 20
810.718112656535
 40
23.739837398374
100
AcDbArc
 50
0.0
 51
90.0
  0
ARC
  5
674
100
AcDbEntity
  8
1
  6
CONTINUOUS
 62
           7
100
AcDbCircle
 10
-366.823439923728
 20
703.561002763516
 40
59.349593495935
100
AcDbArc
 50
-64.476942861541
 51
-30.0
  0
ARC
  5
673
100
AcDbEntity
  8
1
  6
CONTINUOUS
 62
           7
100
AcDbCircle
 10
-366.823439923728
 20
703.561002763516
 40
35.609756097561
100
AcDbArc
 50
-68.861600474161
 51
-30.0
  0
ARC
  5
672
100
AcDbEntity
  8
1
  6
CONTINUOUS
 62
           7
100
AcDbCircle
 10
-366.823439923728
 20
703.561002763516
 40
59.349593495935
100
AcDbArc
 50
-65.750518481018
 51
-64.476942861541
  0
ARC
  5
671
100
AcDbEntity
  8
1
  6
CONTINUOUS
 62
           7
100
AcDbCircle
 10
-198.733191959775
 20
745.433559811006
 40
89.024390243902
100
AcDbArc
 50
90.0
 51
150.0
  0
ARC
  5
670
100
AcDbEntity
  8
1
  6
CONTINUOUS
 62
           7
100
AcDbCircle
 10
-198.733191959775
 20
745.433559811006
 40
65.284552845528
100
AcDbArc
 50
90.0
 51
150.0
  0
ARC
  5
66F
100
AcDbEntity
  8
1
  6
CONTINUOUS
 62
           7
100
AcDbCircle
 10
921.84440602311
 20
1256.940504597354
 40
0.186589688292
100
AcDbArc
 50
-80.537677791894
 51
0.0
  0
ARC
  5
66E
100
AcDbEntity
  8
1
  6
CONTINUOUS
 62
           7
100
AcDbCircle
 10
907.299209305296
 20
1256.088470646969
 40
0.186589688293
100
AcDbArc
 50
180.0
 51
-75.96375653209
  0
ARC
  5
66D
100
AcDbEntity
  8
1
  6
CONTINUOUS
 62
           7
100
AcDbCircle
 10
913.825448911031
 20
1256.069752718655
 40
0.186589688291
100
AcDbArc
 50
180.0
 51
-80.537677791894
  0
ARC
  5
66C
100
AcDbEntity
  8
1
  6
CONTINUOUS
 62
           7
100
AcDbCircle
 10
913.825448911031
 20
1266.824610531955
 40
0.186589688293
100
AcDbArc
 50
80.537677791951
 51
180.0
  0
ARC
  5
66B
100
AcDbEntity
  8
1
  6
CONTINUOUS
 62
           7
100
AcDbCircle
 10
907.299209305296
 20
1266.80589260364
 40
0.186589688294
100
AcDbArc
 50
75.96375653226
 51
180.0
  0
ARC
  5
66A
100
AcDbEntity
  8
1
  6
CONTINUOUS
 62
           7
100
AcDbCircle
 10
921.84440602311
 20
1265.953858653255
 40
0.186589688293
100
AcDbArc
 50
0.0
 51
80.53767779194
  0
CIRCLE
  5
669
100
AcDbEntity
  8
1
  6
CONTINUOUS
 62
           7
100
AcDbCircle
 10
577.20992445949
 20
1363.903048335887
 40
3.147326927815
  0
CIRCLE
  5
668
100
AcDbEntity
  8
1
  6
CONTINUOUS
 62
           7
100
AcDbCircle
 10
679.183316920687
 20
1363.903048335887
 40
3.147326927815
  0
CIRCLE
  5
667
100
AcDbEntity
  8
976
  6
CONTINUOUS
 62
           7
100
AcDbCircle
 10
-485.055511364635
 20
1259.876162973942
 40
2.727462936395
  0
CIRCLE
  5
666
100
AcDbEntity
  8
976
  6
CONTINUOUS
 62
           7
100
AcDbCircle
 10
-485.055511364635
 20
1329.69921414563
 40
2.727462936395
  0
CIRCLE
  5
665
100
AcDbEntity
  8
976
  6
CONTINUOUS
 62
           7
100
AcDbCircle
 10
-485.055511364635
 20
1399.522265317318
 40
2.727462936395
  0
CIRCLE
  5
664
100
AcDbEntity
  8
976
  6
CONTINUOUS
 62
           7
100
AcDbCircle
 10
-648.703287548278
 20
1259.876162973942
 40
2.727462936394
  0
CIRCLE
  5
663
100
AcDbEntity
  8
976
  6
CONTINUOUS
 62
           7
100
AcDbCircle
 10
-648.703287548278
 20
1329.69921414563
 40
2.727462936394
  0
CIRCLE
  5
662
100
AcDbEntity
  8
976
  6
CONTINUOUS
 62
           7
100
AcDbCircle
 10
-648.703287548278
 20
1399.522265317318
 40
2.727462936394
  0
CIRCLE
  5
661
100
AcDbEntity
  8
1
  6
CONTINUOUS
 62
           7
100
AcDbCircle
 10
-273.305584967956
 20
883.985118533281
 40
7.039281892961
  0
CIRCLE
  5
660
100
AcDbEntity
  8
1
  6
CONTINUOUS
 62
           7
100
AcDbCircle
 10
-495.659887261335
 20
1765.325230405792
 40
20.772357723577
  0
CIRCLE
  5
65F
100
AcDbEntity
  8
1
  6
CONTINUOUS
 62
           7
100
AcDbCircle
 10
-566.879399456457
 20
1768.886206015548
 40
20.772357723578
  0
CIRCLE
  5
65E
100
AcDbEntity
  8
1
  6
CONTINUOUS
 62
           7
100
AcDbCircle
 10
-943.439973283026
 20
739.170758861077
 40
29.674796747967
  0
CIRCLE
  5
65D
100
AcDbEntity
  8
1
  6
CONTINUOUS
 62
           7
100
AcDbCircle
 10
-943.439973283026
 20
739.170758861077
 40
118.699186991869
  0
CIRCLE
  5
65C
100
AcDbEntity
  8
1
  6
CONTINUOUS
 62
           7
100
AcDbCircle
 10
-874.127639366143
 20
1576.00002715376
 40
7.418699186992
  0
CIRCLE
  5
65B
100
AcDbEntity
  8
1
  6
CONTINUOUS
 62
           7
100
AcDbCircle
 10
-890.504498549249
 20
1605.674823901727
 40
7.418699186992
  0
CIRCLE
  5
65A
100
AcDbEntity
  8
1
  6
CONTINUOUS
 62
           7
100
AcDbCircle
 10
628.097862582262
 20
656.081327966768
 40
11.869918699187
  0
CIRCLE
  5
659
100
AcDbEntity
  8
1
  6
CONTINUOUS
 62
           7
100
AcDbCircle
 10
628.097862582262
 20
656.081327966768
 40
14.837398373984
  0
CIRCLE
  5
658
100
AcDbEntity
  8
1
  6
CONTINUOUS
 62
           7
100
AcDbCircle
 10
527.581422291187
 20
883.985118533281
 40
7.039281892961
  0
CIRCLE
  5
657
100
AcDbEntity
  8
1
  6
CONTINUOUS
 62
           7
100
AcDbCircle
 10
610.292984533482
 20
883.985118533281
 40
8.447138271554
  0
CIRCLE
  5
656
100
AcDbEntity
  8
1
  6
CONTINUOUS
 62
           7
100
AcDbCircle
 10
610.292984533482
 20
883.985118533281
 40
15.134456069867
  0
CIRCLE
  5
655
100
AcDbEntity
  8
1
  6
CONTINUOUS
 62
           7
100
AcDbCircle
 10
815.049082094457
 20
1450.014873657434
 40
2.877737279913
  0
CIRCLE
  5
654
100
AcDbEntity
  8
1
  6
CONTINUOUS
 62
           7
100
AcDbCircle
 10
815.049082094457
 20
1450.014873657434
 40
3.784800927935
  0
CIRCLE
  5
653
100
AcDbEntity
  8
1
  6
CONTINUOUS
 62
           7
100
AcDbCircle
 10
815.049082094457
 20
1450.014873657434
 40
5.934959349594
  0
CIRCLE
  5
652
100
AcDbEntity
  8
1
  6
CONTINUOUS
 62
           7
100
AcDbCircle
 10
628.097862582262
 20
982.50409219441
 40
8.90243902439
  0
CIRCLE
  5
651
100
AcDbEntity
  8
1
  6
CONTINUOUS
 62
           2
100
AcDbCircle
 10
628.097862582262
 20
982.50409219441
 40
5.934959349594
  0
CIRCLE
  5
650
100
AcDbEntity
  8
1
  6
CONTINUOUS
 62
           7
100
AcDbCircle
 10
628.097862582262
 20
982.50409219441
 40
7.107451427588
  0
CIRCLE
  5
64F
100
AcDbEntity
  8
1
  6
CONTINUOUS
 62
           7
100
AcDbCircle
 10
628.097862582262
 20
982.50409219441
 40
3.705348705036
  0
CIRCLE
  5
64E
100
AcDbEntity
  8
1
  6
CONTINUOUS
 62
           7
100
AcDbCircle
 10
815.049082094457
 20
1351.000564780774
 40
23.739837398374
  0
ARC
  5
64D
100
AcDbEntity
  8
1
  6
CONTINUOUS
 62
           7
100
AcDbCircle
 10
-943.439973283026
 20
739.170758861077
 40
178.108839916417
100
AcDbArc
 50
180.0
 51
-90.0
  0
ARC
  5
64C
100
AcDbEntity
  8
1
  6
CONTINUOUS
 62
           7
100
AcDbCircle
 10
-327.743944042649
 20
929.110112785179
 40
3.05237120929
100
AcDbArc
 50
-29.034936880346
 51
25.920556413237
  0
ARC
  5
64B
100
AcDbEntity
  8
1
  6
CONTINUOUS
 62
           7
100
AcDbCircle
 10
-301.543310154816
 20
929.110112785179
 40
3.052371209289
100
AcDbArc
 50
154.079443586753
 51
-150.965063119641
  0
ARC
  5
64A
100
AcDbEntity
  8
1
  6
CONTINUOUS
 62
           7
100
AcDbCircle
 10
-314.643627098733
 20
914.166493223383
 40
28.244665021477
100
AcDbArc
 50
72.412046226006
 51
90.0
  0
ARC
  5
649
100
AcDbEntity
  8
1
  6
CONTINUOUS
 62
           7
100
AcDbCircle
 10
-301.841613516953
 20
934.854872391131
 40
7.556285853728
100
AcDbArc
 50
55.615752531959
 51
124.384247468053
  0
ARC
  5
648
100
AcDbEntity
  8
1
  6
CONTINUOUS
 62
           7
100
AcDbCircle
 10
-314.643627098733
 20
958.689044048303
 40
28.244665021477
100
AcDbArc
 50
-90.0
 51
-72.412046226006
  0
ARC
  5
647
100
AcDbEntity
  8
1
  6
CONTINUOUS
 62
           7
100
AcDbCircle
 10
-301.841613516953
 20
938.000664880556
 40
7.55628585373
100
AcDbArc
 50
-124.384247468047
 51
-55.615752531966
  0
ARC
  5
646
100
AcDbEntity
  8
1
  6
CONTINUOUS
 62
           7
100
AcDbCircle
 10
-314.643627098733
 20
914.166493223383
 40
28.244665021477
100
AcDbArc
 50
90.0
 51
107.587953773993
  0
ARC
  5
645
100
AcDbEntity
  8
1
  6
CONTINUOUS
 62
           7
100
AcDbCircle
 10
-314.643627098733
 20
958.689044048303
 40
28.244665021477
100
AcDbArc
 50
-107.587953773993
 51
-90.0
  0
ARC
  5
644
100
AcDbEntity
  8
1
  6
CONTINUOUS
 62
           7
100
AcDbCircle
 10
-327.445640680511
 20
934.854872391131
 40
7.556285853728
100
AcDbArc
 50
55.615752531957
 51
124.384247468052
  0
ARC
  5
643
100
AcDbEntity
  8
1
  6
CONTINUOUS
 62
           7
100
AcDbCircle
 10
-327.445640680511
 20
938.000664880556
 40
7.55628585373
100
AcDbArc
 50
-124.384247468045
 51
-55.615752531963
  0
ARC
  5
642
100
AcDbEntity
  8
1
  6
CONTINUOUS
 62
           7
100
AcDbCircle
 10
-314.643627098733
 20
850.900493636365
 40
10.558922839442
100
AcDbArc
 50
-126.869897645844
 51
-53.130102354156
  0
ARC
  5
641
100
AcDbEntity
  8
1
  6
CONTINUOUS
 62
           7
100
AcDbCircle
 10
-301.841613516954
 20
920.072380415913
 40
7.556285853729
100
AcDbArc
 50
55.615752531954
 51
124.384247468045
  0
ARC
  5
640
100
AcDbEntity
  8
1
  6
CONTINUOUS
 62
           7
100
AcDbCircle
 10
-314.643627098733
 20
899.384001248164
 40
28.244665021477
100
AcDbArc
 50
72.412046226006
 51
90.0
  0
ARC
  5
63F
100
AcDbEntity
  8
1
  6
CONTINUOUS
 62
           7
100
AcDbCircle
 10
-314.643627098733
 20
899.384001248164
 40
28.244665021477
100
AcDbArc
 50
90.0
 51
107.587953773993
  0
ARC
  5
63E
100
AcDbEntity
  8
1
  6
CONTINUOUS
 62
           7
100
AcDbCircle
 10
-327.445640680511
 20
920.072380415913
 40
7.556285853729
100
AcDbArc
 50
55.615752531955
 51
124.384247468046
  0
ARC
  5
63D
100
AcDbEntity
  8
1
  6
CONTINUOUS
 62
           7
100
AcDbCircle
 10
-346.154706659982
 20
1547.941702925727
 40
2.967479674797
100
AcDbArc
 50
0.0
 51
180.0
  0
ARC
  5
63C
100
AcDbEntity
  8
1
  6
CONTINUOUS
 62
           7
100
AcDbCircle
 10
-354.409714636454
 20
1444.887685109469
 40
3.048183502225
100
AcDbArc
 50
-24.020677081033
 51
34.228495803054
  0
ARC
  5
63B
100
AcDbEntity
  8
1
  6
CONTINUOUS
 62
           7
100
AcDbCircle
 10
-362.655209892316
 20
1450.014873657434
 40
11.293667495686
100
AcDbArc
 50
-17.587953773993
 51
17.587953773992
  0
ARC
  5
63A
100
AcDbEntity
  8
1
  6
CONTINUOUS
 62
           7
100
AcDbCircle
 10
-354.409714636453
 20
1455.1420622054
 40
3.048183502225
100
AcDbArc
 50
-34.228495803075
 51
24.020677081016
  0
ARC
  5
639
100
AcDbEntity
  8
1
  6
CONTINUOUS
 62
           7
100
AcDbCircle
 10
-353.471885998772
 20
1444.887685109469
 40
3.048183502224
100
AcDbArc
 50
145.771504196941
 51
-155.979322918962
  0
ARC
  5
638
100
AcDbEntity
  8
1
  6
CONTINUOUS
 62
           7
100
AcDbCircle
 10
-345.226390742909
 20
1450.014873657434
 40
11.293667495686
100
AcDbArc
 50
162.412046226008
 51
-162.412046226007
  0
ARC
  5
637
100
AcDbEntity
  8
1
  6
CONTINUOUS
 62
           7
100
AcDbCircle
 10
-353.471885998772
 20
1455.1420622054
 40
3.048183502224
100
AcDbArc
 50
155.979322918984
 51
-145.771504196927
  0
ARC
  5
636
100
AcDbEntity
  8
1
  6
CONTINUOUS
 62
           7
100
AcDbCircle
 10
-396.601861131526
 20
1458.074916045524
 40
39.689403288186
100
AcDbArc
 50
72.41204622601
 51
100.255403173917
  0
ARC
  5
635
100
AcDbEntity
  8
1
  6
CONTINUOUS
 62
           7
100
AcDbCircle
 10
-396.601861131526
 20
1765.325230405792
 40
17.80487804878
100
AcDbArc
 50
-90.0
 51
90.0
  0
ARC
  5
634
100
AcDbEntity
  8
1
  6
CONTINUOUS
 62
           7
100
AcDbCircle
 10
-378.612471646411
 20
1493.275242961857
 40
10.618092881659
100
AcDbArc
 50
-124.384247468047
 51
-55.615752531952
  0
ARC
  5
633
100
AcDbEntity
  8
1
  6
CONTINUOUS
 62
           7
100
AcDbCircle
 10
-396.601861131526
 20
1522.346553368373
 40
39.689403288175
100
AcDbArc
 50
-100.25540317392
 51
-72.412046226004
  0
ARC
  5
632
100
AcDbEntity
  8
1
  6
CONTINUOUS
 62
           7
100
AcDbCircle
 10
-378.612471646411
 20
1487.146226452049
 40
10.618092881661
100
AcDbArc
 50
55.615752531961
 51
124.384247468038
  0
ARC
  5
631
100
AcDbEntity
  8
1
  6
CONTINUOUS
 62
           7
100
AcDbCircle
 10
-378.612471646411
 20
1405.936795624169
 40
10.618092881661
100
AcDbArc
 50
55.615752531961
 51
124.384247468038
  0
ARC
  5
630
100
AcDbEntity
  8
1
  6
CONTINUOUS
 62
           7
100
AcDbCircle
 10
-396.601861131526
 20
1376.865485217644
 40
39.689403288186
100
AcDbArc
 50
72.41204622601
 51
107.587953773991
  0
ARC
  5
62F
100
AcDbEntity
  8
1
  6
CONTINUOUS
 62
           7
100
AcDbCircle
 10
-414.591250616642
 20
1405.936795624167
 40
10.618092881663
100
AcDbArc
 50
55.615752531968
 51
124.384247468034
  0
ARC
  5
62E
100
AcDbEntity
  8
1
  6
CONTINUOUS
 62
           7
100
AcDbCircle
 10
-414.591250616642
 20
1412.065812133978
 40
10.61809288166
100
AcDbArc
 50
-124.384247468047
 51
-55.615752531956
  0
ARC
  5
62D
100
AcDbEntity
  8
1
  6
CONTINUOUS
 62
           7
100
AcDbCircle
 10
-396.601861131526
 20
1441.137122540493
 40
39.689403288175
100
AcDbArc
 50
-107.587953773996
 51
-72.412046226004
  0
ARC
  5
62C
100
AcDbEntity
  8
1
  6
CONTINUOUS
 62
           7
100
AcDbCircle
 10
-378.612471646411
 20
1412.065812133977
 40
10.618092881659
100
AcDbArc
 50
-124.384247468047
 51
-55.615752531952
  0
ARC
  5
62B
100
AcDbEntity
  8
1
  6
CONTINUOUS
 62
           7
100
AcDbCircle
 10
-376.042558862823
 20
1241.169403847526
 40
9.397018970189
100
AcDbArc
 50
-136.826448892743
 51
-43.173551107257
  0
ARC
  5
62A
100
AcDbEntity
  8
1
  6
CONTINUOUS
 62
           7
100
AcDbCircle
 10
-417.16116340023
 20
1281.724959403083
 40
9.397018970189
100
AcDbArc
 50
43.173551107256
 51
136.826448892744
  0
ARC
  5
629
100
AcDbEntity
  8
1
  6
CONTINUOUS
 62
           7
100
AcDbCircle
 10
-376.042558862823
 20
1281.724959403083
 40
9.397018970189
100
AcDbArc
 50
43.173551107256
 51
136.826448892743
  0
ARC
  5
628
100
AcDbEntity
  8
1
  6
CONTINUOUS
 62
           7
100
AcDbCircle
 10
-396.601861131526
 20
1264.9092412459
 40
33.136856368563
100
AcDbArc
 50
-102.312386153807
 51
-65.567302320545
  0
ARC
  5
627
100
AcDbEntity
  8
1
  6
CONTINUOUS
 62
           7
100
AcDbCircle
 10
-396.601861131526
 20
1257.985122004709
 40
33.136856368563
100
AcDbArc
 50
65.567302320545
 51
114.432697679456
  0
ARC
  5
626
100
AcDbEntity
  8
1
  6
CONTINUOUS
 62
           7
100
AcDbCircle
 10
628.097862582262
 20
1798.561002763516
 40
8.90243902439
100
AcDbArc
 50
0.0
 51
180.0
  0
ARC
  5
625
100
AcDbEntity
  8
1
  6
CONTINUOUS
 62
           7
100
AcDbCircle
 10
-481.502487012686
 20
1730.201176943411
 40
8.416767487407
100
AcDbArc
 50
65.97932291897
 51
124.22849580306
  0
ARC
  5
624
100
AcDbEntity
  8
1
  6
CONTINUOUS
 62
           7
100
AcDbCircle
 10
-495.659887261335
 20
1707.433382177622
 40
31.184531155
100
AcDbArc
 50
72.412046226006
 51
107.587953773993
  0
ARC
  5
623
100
AcDbEntity
  8
1
  6
CONTINUOUS
 62
           7
100
AcDbCircle
 10
-509.817287509984
 20
1730.201176943411
 40
8.416767487407
100
AcDbArc
 50
55.771504196936
 51
114.020677081026
  0
ARC
  5
622
100
AcDbEntity
  8
1
  6
CONTINUOUS
 62
           7
100
AcDbCircle
 10
-566.879399456457
 20
1777.788645039939
 40
29.674796747967
100
AcDbArc
 50
90.0
 51
-179.999999999998
  0
ARC
  5
621
100
AcDbEntity
  8
1
  6
CONTINUOUS
 62
           7
100
AcDbCircle
 10
-566.879399456457
 20
1777.788645039939
 40
29.674796747968
100
AcDbArc
 50
-0.000000000002
 51
90.0
  0
ARC
  5
620
100
AcDbEntity
  8
1
  6
CONTINUOUS
 62
           7
100
AcDbCircle
 10
-487.430496330348
 20
1779.446104536765
 40
109.13628656955
100
AcDbArc
 50
-179.129812019213
 51
-156.680673826761
  0
ARC
  5
61F
100
AcDbEntity
  8
1
  6
CONTINUOUS
 62
           7
100
AcDbCircle
 10
-646.328302582565
 20
1779.446104536765
 40
109.136286569551
100
AcDbArc
 50
-23.319326173238
 51
-0.870187980787
  0
ARC
  5
61E
100
AcDbEntity
  8
1
  6
CONTINUOUS
 62
           7
100
AcDbCircle
 10
-285.880437746931
 20
990.226310511855
 40
4.59096408404
100
AcDbArc
 50
-34.228495803066
 51
24.020677081025
  0
ARC
  5
61D
100
AcDbEntity
  8
1
  6
CONTINUOUS
 62
           7
100
AcDbCircle
 10
-298.299234891907
 20
982.50409219441
 40
17.009744266363
100
AcDbArc
 50
-17.587953773993
 51
17.587953773992
  0
ARC
  5
61C
100
AcDbEntity
  8
1
  6
CONTINUOUS
 62
           7
100
AcDbCircle
 10
-285.880437746931
 20
974.781873876965
 40
4.59096408404
100
AcDbArc
 50
-24.020677081027
 51
34.228495803064
  0
ARC
  5
61B
100
AcDbEntity
  8
1
  6
CONTINUOUS
 62
           7
100
AcDbCircle
 10
-285.263078616951
 20
974.781873876965
 40
4.59096408404
100
AcDbArc
 50
145.771504196936
 51
-155.979322918972
  0
ARC
  5
61A
100
AcDbEntity
  8
1
  6
CONTINUOUS
 62
           7
100
AcDbCircle
 10
-272.844281471975
 20
982.50409219441
 40
17.009744266363
100
AcDbArc
 50
162.412046226007
 51
-162.412046226007
  0
ARC
  5
619
100
AcDbEntity
  8
1
  6
CONTINUOUS
 62
           7
100
AcDbCircle
 10
-285.263078616951
 20
990.226310511855
 40
4.59096408404
100
AcDbArc
 50
155.979322918975
 51
-145.771504196934
  0
ARC
  5
618
100
AcDbEntity
  8
1
  6
CONTINUOUS
 62
           7
100
AcDbCircle
 10
-485.802235048215
 20
960.159906858657
 40
46.545390454865
100
AcDbArc
 50
-1.718257371635
 51
20.642901787686
  0
ARC
  5
617
100
AcDbEntity
  8
1
  6
CONTINUOUS
 62
           7
100
AcDbCircle
 10
-485.802235048215
 20
992.978358830977
 40
46.545390454865
100
AcDbArc
 50
-20.642901787686
 51
1.718257371635
  0
ARC
  5
616
100
AcDbEntity
  8
1
  6
CONTINUOUS
 62
           7
100
AcDbCircle
 10
-440.232986628926
 20
960.159906858657
 40
46.545390454866
100
AcDbArc
 50
159.357098212314
 51
-178.281742628365
  0
ARC
  5
615
100
AcDbEntity
  8
1
  6
CONTINUOUS
 62
           7
100
AcDbCircle
 10
-440.232986628926
 20
992.978358830977
 40
46.545390454866
100
AcDbArc
 50
178.281742628365
 51
-159.357098212314
  0
ARC
  5
614
100
AcDbEntity
  8
1
  6
CONTINUOUS
 62
           7
100
AcDbCircle
 10
-420.922944621919
 20
1006.582996308937
 40
45.433340165648
100
AcDbArc
 50
-90.0
 51
-79.154317022086
  0
ARC
  5
613
100
AcDbEntity
  8
2
  6
CONTINUOUS
 62
           7
100
AcDbCircle
 10
-425.629344750509
 20
989.922791381402
 40
5.139825567176
100
AcDbArc
 50
23.698499006298
 51
60.000000000001
  0
ARC
  5
612
100
AcDbEntity
  8
1
  6
CONTINUOUS
 62
           7
100
AcDbCircle
 10
-420.922944621919
 20
946.555269380697
 40
45.433340165648
100
AcDbArc
 50
79.154317022086
 51
90.0
  0
ARC
  5
611
100
AcDbEntity
  8
2
  6
CONTINUOUS
 62
           7
100
AcDbCircle
 10
-407.978101684286
 20
976.569132844817
 40
16.704433093322
100
AcDbArc
 50
-32.204227503972
 51
32.204227503972
  0
ARC
  5
610
100
AcDbEntity
  8
2
  6
CONTINUOUS
 62
           7
100
AcDbCircle
 10
-387.55405798314
 20
976.569132844817
 40
16.704433093322
100
AcDbArc
 50
147.795772496027
 51
-147.795772496027
  0
ARC
  5
60F
100
AcDbEntity
  8
2
  6
CONTINUOUS
 62
           7
100
AcDbCircle
 10
-396.41349415814
 20
963.215474308231
 40
5.139825567176
100
AcDbArc
 50
-60.000000000001
 51
60.000000000001
  0
ARC
  5
60E
100
AcDbEntity
  8
2
  6
CONTINUOUS
 62
           7
100
AcDbCircle
 10
-396.41349415814
 20
989.922791381402
 40
5.139825567176
100
AcDbArc
 50
-60.000000000001
 51
60.000000000001
  0
ARC
  5
60D
100
AcDbEntity
  8
2
  6
CONTINUOUS
 62
           7
100
AcDbCircle
 10
-399.118665509286
 20
963.215474308231
 40
5.139825567176
100
AcDbArc
 50
119.999999999999
 51
-119.999999999999
  0
ARC
  5
60C
100
AcDbEntity
  8
2
  6
CONTINUOUS
 62
           7
100
AcDbCircle
 10
-399.118665509286
 20
989.922791381402
 40
5.139825567176
100
AcDbArc
 50
119.999999999999
 51
-119.999999999999
  0
ARC
  5
60B
100
AcDbEntity
  8
2
  6
CONTINUOUS
 62
           7
100
AcDbCircle
 10
-428.334516101654
 20
989.922791381402
 40
5.139825567176
100
AcDbArc
 50
119.999999999998
 51
-119.999999999998
  0
ARC
  5
60A
100
AcDbEntity
  8
2
  6
CONTINUOUS
 62
           7
100
AcDbCircle
 10
-428.334516101654
 20
963.215474308231
 40
5.139825567176
100
AcDbArc
 50
119.999999999998
 51
-119.999999999998
  0
ARC
  5
609
100
AcDbEntity
  8
2
  6
CONTINUOUS
 62
           7
100
AcDbCircle
 10
-425.629344750509
 20
989.922791381402
 40
5.139825567176
100
AcDbArc
 50
-60.000000000001
 51
23.698499006298
  0
ARC
  5
608
100
AcDbEntity
  8
2
  6
CONTINUOUS
 62
           7
100
AcDbCircle
 10
-425.629344750509
 20
963.215474308231
 40
5.139825567176
100
AcDbArc
 50
-60.000000000001
 51
-23.698499006297
  0
ARC
  5
607
100
AcDbEntity
  8
2
  6
CONTINUOUS
 62
           7
100
AcDbCircle
 10
-416.769908575508
 20
976.569132844817
 40
16.704433093322
100
AcDbArc
 50
147.795772496027
 51
-147.795772496027
  0
ARC
  5
606
100
AcDbEntity
  8
2
  6
CONTINUOUS
 62
           7
100
AcDbCircle
 10
-437.193952276655
 20
976.569132844817
 40
16.704433093322
100
AcDbArc
 50
-32.204227503972
 51
32.204227503972
  0
ARC
  5
605
100
AcDbEntity
  8
2
  6
CONTINUOUS
 62
           7
100
AcDbCircle
 10
-425.629344750509
 20
963.215474308231
 40
5.139825567176
100
AcDbArc
 50
-23.698499006297
 51
60.000000000001
  0
ARC
  5
604
100
AcDbEntity
  8
1
  6
CONTINUOUS
 62
           7
100
AcDbCircle
 10
-506.238559692458
 20
976.569132844817
 40
28.351654333246
100
AcDbArc
 50
141.097178571933
 51
150.021218267626
  0
ARC
  5
603
100
AcDbEntity
  8
1
  6
CONTINUOUS
 62
           7
100
AcDbCircle
 10
-673.370424867332
 20
1242.498923500648
 40
5.30118869952
100
AcDbArc
 50
65.979322918971
 51
82.047039690333
  0
ARC
  5
602
100
AcDbEntity
  8
1
  6
CONTINUOUS
 62
           7
100
AcDbCircle
 10
-864.881333894593
 20
1559.245762342051
 40
17.80487804878
100
AcDbArc
 50
-151.106672557047
 51
28.893327442951
  0
ARC
  5
601
100
AcDbEntity
  8
1
  6
CONTINUOUS
 62
           7
100
AcDbCircle
 10
-1068.383464497107
 20
1679.861815771646
 40
14.837398373984
100
AcDbArc
 50
90.0
 51
-90.0
  0
ARC
  5
600
100
AcDbEntity
  8
1
  6
CONTINUOUS
 62
           7
100
AcDbCircle
 10
-442.554674748309
 20
1242.498923500648
 40
5.301188699521
100
AcDbArc
 50
65.979322918966
 51
124.228495803057
  0
ARC
  5
5FF
100
AcDbEntity
  8
1
  6
CONTINUOUS
 62
           7
100
AcDbCircle
 10
-460.388374045581
 20
1242.498923500648
 40
5.301188699521
100
AcDbArc
 50
55.771504196936
 51
114.020677081035
  0
ARC
  5
5FE
100
AcDbEntity
  8
1
  6
CONTINUOUS
 62
           7
100
AcDbCircle
 10
-451.471524396945
 20
1228.158931751322
 40
19.641160862063
100
AcDbArc
 50
72.412046226006
 51
107.587953773993
  0
ARC
  5
5FD
100
AcDbEntity
  8
1
  6
CONTINUOUS
 62
           7
100
AcDbCircle
 10
-586.168017342635
 20
821.147384877337
 40
64.17174796748
100
AcDbArc
 50
-103.034173059638
 51
-76.965826940361
  0
ARC
  5
5FC
100
AcDbEntity
  8
1
  6
CONTINUOUS
 62
           7
100
AcDbCircle
 10
-586.168017342635
 20
716.543726340752
 40
64.17174796748
100
AcDbArc
 50
76.965826940361
 51
103.034173059638
  0
ARC
  5
5FB
100
AcDbEntity
  8
1
  6
CONTINUOUS
 62
           7
100
AcDbCircle
 10
-547.590781570278
 20
821.147384877337
 40
64.17174796748
100
AcDbArc
 50
-103.034173059638
 51
-76.965826940362
  0
ARC
  5
5FA
100
AcDbEntity
  8
1
  6
CONTINUOUS
 62
           7
100
AcDbCircle
 10
-547.590781570278
 20
716.543726340752
 40
64.17174796748
100
AcDbArc
 50
76.965826940362
 51
103.034173059638
  0
ARC
  5
5F9
100
AcDbEntity
  8
1
  6
CONTINUOUS
 62
           7
100
AcDbCircle
 10
-681.887250135138
 20
1043.826344910408
 40
6.626485874401
100
AcDbArc
 50
55.771504196939
 51
114.020677081027
  0
ARC
  5
5F8
100
AcDbEntity
  8
1
  6
CONTINUOUS
 62
           7
100
AcDbCircle
 10
-670.741188074343
 20
1025.90135522375
 40
24.551451077579
100
AcDbArc
 50
72.412046226007
 51
107.587953773993
  0
ARC
  5
5F7
100
AcDbEntity
  8
1
  6
CONTINUOUS
 62
           7
100
AcDbCircle
 10
-659.595126013548
 20
1043.826344910408
 40
6.626485874401
100
AcDbArc
 50
65.979322918967
 51
124.228495803061
  0
ARC
  5
5F6
100
AcDbEntity
  8
1
  6
CONTINUOUS
 62
           7
100
AcDbCircle
 10
-681.887250135138
 20
1045.865102818412
 40
6.6264858744
100
AcDbArc
 50
-114.020677081027
 51
-55.771504196937
  0
ARC
  5
5F5
100
AcDbEntity
  8
1
  6
CONTINUOUS
 62
           7
100
AcDbCircle
 10
-670.741188074343
 20
1063.790092505069
 40
24.551451077578
100
AcDbArc
 50
-107.587953773994
 51
-72.412046226006
  0
ARC
  5
5F4
100
AcDbEntity
  8
1
  6
CONTINUOUS
 62
           7
100
AcDbCircle
 10
-659.595126013548
 20
1045.865102818412
 40
6.626485874401
100
AcDbArc
 50
-124.228495803062
 51
-65.979322918967
  0
ARC
  5
5F3
100
AcDbEntity
  8
1
  6
CONTINUOUS
 62
           7
100
AcDbCircle
 10
-499.351223574524
 20
1045.865102818412
 40
6.626485874401
100
AcDbArc
 50
-124.228495803061
 51
-65.979322918967
  0
ARC
  5
5F2
100
AcDbEntity
  8
1
  6
CONTINUOUS
 62
           7
100
AcDbCircle
 10
-510.497285635319
 20
1063.790092505069
 40
24.551451077578
100
AcDbArc
 50
-107.587953773993
 51
-72.412046226006
  0
ARC
  5
5F1
100
AcDbEntity
  8
1
  6
CONTINUOUS
 62
           7
100
AcDbCircle
 10
-521.643347696113
 20
1045.865102818412
 40
6.626485874401
100
AcDbArc
 50
-114.020677081029
 51
-55.771504196938
  0
ARC
  5
5F0
100
AcDbEntity
  8
1
  6
CONTINUOUS
 62
           7
100
AcDbCircle
 10
-499.351223574524
 20
1043.826344910408
 40
6.626485874401
100
AcDbArc
 50
65.979322918967
 51
124.22849580306
  0
ARC
  5
5EF
100
AcDbEntity
  8
1
  6
CONTINUOUS
 62
           7
100
AcDbCircle
 10
-510.497285635319
 20
1025.90135522375
 40
24.551451077579
100
AcDbArc
 50
72.412046226007
 51
107.587953773993
  0
ARC
  5
5EE
100
AcDbEntity
  8
1
  6
CONTINUOUS
 62
           7
100
AcDbCircle
 10
-521.643347696113
 20
1043.826344910408
 40
6.626485874401
100
AcDbArc
 50
55.771504196939
 51
114.020677081029
  0
ARC
  5
5ED
100
AcDbEntity
  8
1
  6
CONTINUOUS
 62
           7
100
AcDbCircle
 10
-715.253383196294
 20
1437.174455889531
 40
19.641160862063
100
AcDbArc
 50
-107.587953773993
 51
-72.412046226006
  0
ARC
  5
5EC
100
AcDbEntity
  8
1
  6
CONTINUOUS
 62
           7
100
AcDbCircle
 10
-724.17023284493
 20
1422.834464140205
 40
5.30118869952
100
AcDbArc
 50
-114.020677081027
 51
-55.771504196938
  0
ARC
  5
5EB
100
AcDbEntity
  8
1
  6
CONTINUOUS
 62
           7
100
AcDbCircle
 10
-706.336533547658
 20
1422.834464140205
 40
5.301188699521
100
AcDbArc
 50
-124.228495803061
 51
-65.979322918972
  0
ARC
  5
5EA
100
AcDbEntity
  8
1
  6
CONTINUOUS
 62
           7
100
AcDbCircle
 10
-686.916473825097
 20
1437.174455889531
 40
19.641160862063
100
AcDbArc
 50
-107.587953773993
 51
-72.412046226006
  0
ARC
  5
5E9
100
AcDbEntity
  8
1
  6
CONTINUOUS
 62
           7
100
AcDbCircle
 10
-695.833323473733
 20
1422.834464140205
 40
5.30118869952
100
AcDbArc
 50
-114.020677081027
 51
-55.771504196938
  0
ARC
  5
5E8
100
AcDbEntity
  8
1
  6
CONTINUOUS
 62
           7
100
AcDbCircle
 10
-677.999624176461
 20
1422.834464140205
 40
5.301188699521
100
AcDbArc
 50
-124.228495803061
 51
-65.979322918972
  0
ARC
  5
5E7
100
AcDbEntity
  8
1
  6
CONTINUOUS
 62
           7
100
AcDbCircle
 10
-612.729481955179
 20
1437.174455889531
 40
19.641160862063
100
AcDbArc
 50
-107.587953773993
 51
-72.412046226007
  0
ARC
  5
5E6
100
AcDbEntity
  8
1
  6
CONTINUOUS
 62
           7
100
AcDbCircle
 10
-621.646331603815
 20
1422.834464140205
 40
5.301188699521
100
AcDbArc
 50
-114.020677081034
 51
-55.771504196938
  0
ARC
  5
5E5
100
AcDbEntity
  8
1
  6
CONTINUOUS
 62
           7
100
AcDbCircle
 10
-603.812632306543
 20
1422.834464140205
 40
5.301188699521
100
AcDbArc
 50
-124.228495803062
 51
-65.979322918973
  0
ARC
  5
5E4
100
AcDbEntity
  8
1
  6
CONTINUOUS
 62
           7
100
AcDbCircle
 10
-529.946166606371
 20
1422.834464140205
 40
5.30118869952
100
AcDbArc
 50
-114.020677081027
 51
-55.771504196938
  0
ARC
  5
5E3
100
AcDbEntity
  8
1
  6
CONTINUOUS
 62
           7
100
AcDbCircle
 10
-512.112467309099
 20
1422.834464140205
 40
5.301188699521
100
AcDbArc
 50
-124.228495803062
 51
-65.979322918974
  0
ARC
  5
5E2
100
AcDbEntity
  8
1
  6
CONTINUOUS
 62
           7
100
AcDbCircle
 10
-521.029316957735
 20
1437.174455889531
 40
19.641160862063
100
AcDbArc
 50
-107.587953773993
 51
-72.412046226007
  0
ARC
  5
5E1
100
AcDbEntity
  8
1
  6
CONTINUOUS
 62
           7
100
AcDbCircle
 10
-455.759174736452
 20
1422.834464140205
 40
5.30118869952
100
AcDbArc
 50
-114.020677081028
 51
-55.771504196938
  0
ARC
  5
5E0
100
AcDbEntity
  8
1
  6
CONTINUOUS
 62
           7
100
AcDbCircle
 10
-437.92547543918
 20
1422.834464140205
 40
5.301188699521
100
AcDbArc
 50
-124.228495803061
 51
-65.979322918972
  0
ARC
  5
5DF
100
AcDbEntity
  8
1
  6
CONTINUOUS
 62
           7
100
AcDbCircle
 10
-446.842325087816
 20
1437.174455889531
 40
19.641160862063
100
AcDbArc
 50
-107.587953773993
 51
-72.412046226006
  0
ARC
  5
5DE
100
AcDbEntity
  8
1
  6
CONTINUOUS
 62
           7
100
AcDbCircle
 10
-427.422265365255
 20
1422.834464140205
 40
5.30118869952
100
AcDbArc
 50
-114.020677081028
 51
-55.771504196938
  0
ARC
  5
5DD
100
AcDbEntity
  8
1
  6
CONTINUOUS
 62
           7
100
AcDbCircle
 10
-409.588566067983
 20
1422.834464140205
 40
5.301188699521
100
AcDbArc
 50
-124.228495803061
 51
-65.979322918972
  0
ARC
  5
5DC
100
AcDbEntity
  8
1
  6
CONTINUOUS
 62
           7
100
AcDbCircle
 10
-418.505415716619
 20
1437.174455889531
 40
19.641160862063
100
AcDbArc
 50
-107.587953773993
 51
-72.412046226006
  0
ARC
  5
5DB
100
AcDbEntity
  8
1
  6
CONTINUOUS
 62
           7
100
AcDbCircle
 10
597.490970951703
 20
920.072380415913
 40
7.556285853728
100
AcDbArc
 50
55.615752531957
 51
124.384247468046
  0
ARC
  5
5DA
100
AcDbEntity
  8
1
  6
CONTINUOUS
 62
           7
100
AcDbCircle
 10
610.292984533482
 20
899.384001248164
 40
28.244665021477
100
AcDbArc
 50
90.0
 51
107.587953773994
  0
ARC
  5
5D9
100
AcDbEntity
  8
1
  6
CONTINUOUS
 62
           7
100
AcDbCircle
 10
610.292984533482
 20
899.384001248164
 40
28.244665021477
100
AcDbArc
 50
72.412046226006
 51
90.0
  0
ARC
  5
5D8
100
AcDbEntity
  8
1
  6
CONTINUOUS
 62
           7
100
AcDbCircle
 10
623.094998115261
 20
920.072380415913
 40
7.556285853729
100
AcDbArc
 50
55.615752531955
 51
124.384247468045
  0
ARC
  5
5D7
100
AcDbEntity
  8
1
  6
CONTINUOUS
 62
           7
100
AcDbCircle
 10
610.292984533482
 20
850.900493636365
 40
10.558922839442
100
AcDbArc
 50
-126.869897645844
 51
-53.130102354156
  0
ARC
  5
5D6
100
AcDbEntity
  8
1
  6
CONTINUOUS
 62
           7
100
AcDbCircle
 10
597.490970951704
 20
938.000664880556
 40
7.55628585373
100
AcDbArc
 50
-124.384247468044
 51
-55.615752531964
  0
ARC
  5
5D5
100
AcDbEntity
  8
1
  6
CONTINUOUS
 62
           7
100
AcDbCircle
 10
597.490970951704
 20
934.854872391131
 40
7.556285853728
100
AcDbArc
 50
55.615752531957
 51
124.384247468051
  0
ARC
  5
5D4
100
AcDbEntity
  8
1
  6
CONTINUOUS
 62
           7
100
AcDbCircle
 10
610.292984533482
 20
958.689044048303
 40
28.244665021477
100
AcDbArc
 50
-107.587953773993
 51
-90.0
  0
ARC
  5
5D3
100
AcDbEntity
  8
1
  6
CONTINUOUS
 62
           7
100
AcDbCircle
 10
610.292984533482
 20
914.166493223383
 40
28.244665021477
100
AcDbArc
 50
90.0
 51
107.587953773993
  0
ARC
  5
5D2
100
AcDbEntity
  8
1
  6
CONTINUOUS
 62
           7
100
AcDbCircle
 10
623.094998115261
 20
938.000664880556
 40
7.55628585373
100
AcDbArc
 50
-124.384247468045
 51
-55.615752531965
  0
ARC
  5
5D1
100
AcDbEntity
  8
1
  6
CONTINUOUS
 62
           7
100
AcDbCircle
 10
610.292984533482
 20
958.689044048303
 40
28.244665021477
100
AcDbArc
 50
-90.0
 51
-72.412046226006
  0
ARC
  5
5D0
100
AcDbEntity
  8
1
  6
CONTINUOUS
 62
           7
100
AcDbCircle
 10
623.094998115261
 20
934.854872391131
 40
7.556285853728
100
AcDbArc
 50
55.615752531959
 51
124.384247468052
  0
ARC
  5
5CF
100
AcDbEntity
  8
1
  6
CONTINUOUS
 62
           7
100
AcDbCircle
 10
610.292984533482
 20
914.166493223383
 40
28.244665021477
100
AcDbArc
 50
72.412046226006
 51
90.0
  0
ARC
  5
5CE
100
AcDbEntity
  8
1
  6
CONTINUOUS
 62
           7
100
AcDbCircle
 10
623.393301477398
 20
929.110112785179
 40
3.052371209289
100
AcDbArc
 50
154.079443586751
 51
-150.96506311964
  0
ARC
  5
5CD
100
AcDbEntity
  8
1
  6
CONTINUOUS
 62
           7
100
AcDbCircle
 10
597.192667589565
 20
929.110112785179
 40
3.05237120929
100
AcDbArc
 50
-29.034936880347
 51
25.920556413237
  0
ARC
  5
5CC
100
AcDbEntity
  8
1
  6
CONTINUOUS
 62
           7
100
AcDbCircle
 10
804.662903232669
 20
1512.656116566206
 40
29.998966486007
100
AcDbArc
 50
-110.256158000416
 51
-92.83498863564
  0
ARC
  5
5CB
100
AcDbEntity
  8
1
  6
CONTINUOUS
 62
           7
100
AcDbCircle
 10
825.435260956246
 20
1467.765352847702
 40
29.998966486006
100
AcDbArc
 50
69.743841999583
 51
98.533004440442
  0
ARC
  5
5CA
100
AcDbEntity
  8
1
  6
CONTINUOUS
 62
           7
100
AcDbCircle
 10
776.471846322099
 20
1437.174455889531
 40
19.641160862063
100
AcDbArc
 50
-107.587953773993
 51
-72.412046226006
  0
ARC
  5
5C9
100
AcDbEntity
  8
1
  6
CONTINUOUS
 62
           7
100
AcDbCircle
 10
785.388695970735
 20
1422.834464140205
 40
5.301188699521
100
AcDbArc
 50
-124.22849580306
 51
-65.979322918969
  0
ARC
  5
5C8
100
AcDbEntity
  8
1
  6
CONTINUOUS
 62
           7
100
AcDbCircle
 10
767.554996673464
 20
1422.834464140205
 40
5.30118869952
100
AcDbArc
 50
-114.02067708103
 51
-55.771504196938
  0
ARC
  5
5C7
100
AcDbEntity
  8
1
  6
CONTINUOUS
 62
           7
100
AcDbCircle
 10
748.134936950903
 20
1437.174455889531
 40
19.641160862063
100
AcDbArc
 50
-107.587953773993
 51
-72.412046226007
  0
ARC
  5
5C6
100
AcDbEntity
  8
1
  6
CONTINUOUS
 62
           7
100
AcDbCircle
 10
757.051786599539
 20
1422.834464140205
 40
5.301188699521
100
AcDbArc
 50
-124.228495803061
 51
-65.97932291897
  0
ARC
  5
5C5
100
AcDbEntity
  8
1
  6
CONTINUOUS
 62
           7
100
AcDbCircle
 10
739.218087302267
 20
1422.834464140205
 40
5.30118869952
100
AcDbArc
 50
-114.02067708103
 51
-55.771504196937
  0
ARC
  5
5C4
100
AcDbEntity
  8
1
  6
CONTINUOUS
 62
           7
100
AcDbCircle
 10
673.947945080984
 20
1437.174455889531
 40
19.641160862063
100
AcDbArc
 50
-107.587953773993
 51
-72.412046226007
  0
ARC
  5
5C3
100
AcDbEntity
  8
1
  6
CONTINUOUS
 62
           7
100
AcDbCircle
 10
682.86479472962
 20
1422.834464140205
 40
5.301188699521
100
AcDbArc
 50
-124.228495803061
 51
-65.979322918968
  0
ARC
  5
5C2
100
AcDbEntity
  8
1
  6
CONTINUOUS
 62
           7
100
AcDbCircle
 10
665.031095432348
 20
1422.834464140205
 40
5.30118869952
100
AcDbArc
 50
-114.02067708103
 51
-55.771504196938
  0
ARC
  5
5C1
100
AcDbEntity
  8
1
  6
CONTINUOUS
 62
           7
100
AcDbCircle
 10
591.164629732176
 20
1422.834464140205
 40
5.301188699521
100
AcDbArc
 50
-124.22849580306
 51
-65.979322918969
  0
ARC
  5
5C0
100
AcDbEntity
  8
1
  6
CONTINUOUS
 62
           7
100
AcDbCircle
 10
573.330930434904
 20
1422.834464140205
 40
5.301188699521
100
AcDbArc
 50
-114.020677081033
 51
-55.771504196939
  0
ARC
  5
5BF
100
AcDbEntity
  8
1
  6
CONTINUOUS
 62
           7
100
AcDbCircle
 10
582.24778008354
 20
1437.174455889531
 40
19.641160862063
100
AcDbArc
 50
-107.587953773993
 51
-72.412046226006
  0
ARC
  5
5BE
100
AcDbEntity
  8
1
  6
CONTINUOUS
 62
           7
100
AcDbCircle
 10
516.977637862257
 20
1422.834464140205
 40
5.301188699521
100
AcDbArc
 50
-124.228495803061
 51
-65.979322918969
  0
ARC
  5
5BD
100
AcDbEntity
  8
1
  6
CONTINUOUS
 62
           7
100
AcDbCircle
 10
499.143938564986
 20
1422.834464140205
 40
5.30118869952
100
AcDbArc
 50
-114.020677081031
 51
-55.771504196939
  0
ARC
  5
5BC
100
AcDbEntity
  8
1
  6
CONTINUOUS
 62
           7
100
AcDbCircle
 10
508.060788213622
 20
1437.174455889531
 40
19.641160862063
100
AcDbArc
 50
-107.587953773993
 51
-72.412046226007
  0
ARC
  5
5BB
100
AcDbEntity
  8
1
  6
CONTINUOUS
 62
           7
100
AcDbCircle
 10
488.64072849106
 20
1422.834464140205
 40
5.301188699521
100
AcDbArc
 50
-124.22849580306
 51
-65.979322918969
  0
ARC
  5
5BA
100
AcDbEntity
  8
1
  6
CONTINUOUS
 62
           7
100
AcDbCircle
 10
470.807029193789
 20
1422.834464140205
 40
5.30118869952
100
AcDbArc
 50
-114.02067708103
 51
-55.771504196938
  0
ARC
  5
5B9
100
AcDbEntity
  8
1
  6
CONTINUOUS
 62
           7
100
AcDbCircle
 10
479.723878842425
 20
1437.174455889531
 40
19.641160862063
100
AcDbArc
 50
-107.587953773993
 51
-72.412046226006
  0
ARC
  5
5B8
100
AcDbEntity
  8
1
  6
CONTINUOUS
 62
           7
100
AcDbCircle
 10
647.386480468441
 20
716.543726340752
 40
64.17174796748
100
AcDbArc
 50
76.965826940362
 51
103.034173059638
  0
ARC
  5
5B7
100
AcDbEntity
  8
1
  6
CONTINUOUS
 62
           7
100
AcDbCircle
 10
647.386480468441
 20
821.147384877337
 40
64.17174796748
100
AcDbArc
 50
-103.034173059638
 51
-76.965826940362
  0
ARC
  5
5B6
100
AcDbEntity
  8
1
  6
CONTINUOUS
 62
           7
100
AcDbCircle
 10
608.809244696083
 20
716.543726340752
 40
64.17174796748
100
AcDbArc
 50
76.965826940362
 51
103.034173059638
  0
ARC
  5
5B5
100
AcDbEntity
  8
1
  6
CONTINUOUS
 62
           7
100
AcDbCircle
 10
608.809244696083
 20
821.147384877337
 40
64.17174796748
100
AcDbArc
 50
-103.034173059638
 51
-76.965826940362
  0
ARC
  5
5B4
100
AcDbEntity
  8
1
  6
CONTINUOUS
 62
           7
100
AcDbCircle
 10
743.505737641774
 20
1228.158931751322
 40
19.641160862063
100
AcDbArc
 50
72.412046226006
 51
107.587953773993
  0
ARC
  5
5B3
100
AcDbEntity
  8
1
  6
CONTINUOUS
 62
           7
100
AcDbCircle
 10
734.588887993138
 20
1242.498923500648
 40
5.301188699521
100
AcDbArc
 50
55.771504196937
 51
114.02067708103
  0
ARC
  5
5B2
100
AcDbEntity
  8
1
  6
CONTINUOUS
 62
           7
100
AcDbCircle
 10
752.42258729041
 20
1242.498923500648
 40
5.30118869952
100
AcDbArc
 50
65.979322918969
 51
124.228495803062
  0
ARC
  5
5B1
100
AcDbEntity
  8
1
  6
CONTINUOUS
 62
           7
100
AcDbCircle
 10
512.68998752275
 20
1228.158931751322
 40
19.641160862063
100
AcDbArc
 50
72.412046226007
 51
107.587953773993
  0
ARC
  5
5B0
100
AcDbEntity
  8
1
  6
CONTINUOUS
 62
           7
100
AcDbCircle
 10
503.773137874114
 20
1242.498923500648
 40
5.301188699521
100
AcDbArc
 50
55.771504196936
 51
114.02067708103
  0
ARC
  5
5AF
100
AcDbEntity
  8
1
  6
CONTINUOUS
 62
           7
100
AcDbCircle
 10
521.606837171386
 20
1242.498923500648
 40
5.30118869952
100
AcDbArc
 50
65.97932291897
 51
124.228495803063
  0
ARC
  5
5AE
100
AcDbEntity
  8
1
  6
CONTINUOUS
 62
           7
100
AcDbCircle
 10
708.943670440166
 20
1045.865102818412
 40
6.626485874401
100
AcDbArc
 50
-114.02067708103
 51
-55.771504196938
  0
ARC
  5
5AD
100
AcDbEntity
  8
1
  6
CONTINUOUS
 62
           7
100
AcDbCircle
 10
720.089732500961
 20
1063.790092505069
 40
24.551451077578
100
AcDbArc
 50
-107.587953773994
 51
-72.412046226006
  0
ARC
  5
5AC
100
AcDbEntity
  8
1
  6
CONTINUOUS
 62
           7
100
AcDbCircle
 10
731.235794561756
 20
1045.865102818412
 40
6.626485874401
100
AcDbArc
 50
-124.228495803062
 51
-65.97932291897
  0
ARC
  5
5AB
100
AcDbEntity
  8
1
  6
CONTINUOUS
 62
           7
100
AcDbCircle
 10
708.943670440166
 20
1043.826344910408
 40
6.626485874401
100
AcDbArc
 50
55.771504196939
 51
114.02067708103
  0
ARC
  5
5AA
100
AcDbEntity
  8
1
  6
CONTINUOUS
 62
           7
100
AcDbCircle
 10
720.089732500961
 20
1025.90135522375
 40
24.551451077579
100
AcDbArc
 50
72.412046226007
 51
107.587953773993
  0
ARC
  5
5A9
100
AcDbEntity
  8
1
  6
CONTINUOUS
 62
           7
100
AcDbCircle
 10
731.235794561756
 20
1043.826344910408
 40
6.626485874401
100
AcDbArc
 50
65.97932291897
 51
124.228495803061
  0
ARC
  5
5A8
100
AcDbEntity
  8
1
  6
CONTINUOUS
 62
           7
100
AcDbCircle
 10
524.959930602768
 20
1043.826344910408
 40
6.626485874401
100
AcDbArc
 50
55.771504196939
 51
114.020677081031
  0
ARC
  5
5A7
100
AcDbEntity
  8
1
  6
CONTINUOUS
 62
           7
100
AcDbCircle
 10
536.105992663563
 20
1025.90135522375
 40
24.551451077579
100
AcDbArc
 50
72.412046226007
 51
107.587953773993
  0
ARC
  5
5A6
100
AcDbEntity
  8
1
  6
CONTINUOUS
 62
           7
100
AcDbCircle
 10
547.252054724358
 20
1043.826344910408
 40
6.626485874401
100
AcDbArc
 50
65.979322918969
 51
124.22849580306
  0
ARC
  5
5A5
100
AcDbEntity
  8
1
  6
CONTINUOUS
 62
           7
100
AcDbCircle
 10
524.959930602768
 20
1045.865102818412
 40
6.626485874401
100
AcDbArc
 50
-114.020677081031
 51
-55.771504196937
  0
ARC
  5
5A4
100
AcDbEntity
  8
1
  6
CONTINUOUS
 62
           7
100
AcDbCircle
 10
536.105992663563
 20
1063.790092505069
 40
24.551451077578
100
AcDbArc
 50
-107.587953773994
 51
-72.412046226006
  0
ARC
  5
5A3
100
AcDbEntity
  8
1
  6
CONTINUOUS
 62
           7
100
AcDbCircle
 10
547.252054724358
 20
1045.865102818412
 40
6.626485874401
100
AcDbArc
 50
-124.228495803061
 51
-65.979322918969
  0
ARC
  5
5A2
100
AcDbEntity
  8
1
  6
CONTINUOUS
 62
           7
100
AcDbCircle
 10
371.153480882058
 20
1605.674823901727
 40
14.730870646547
100
AcDbArc
 50
162.412046226007
 51
-162.412046226007
  0
ARC
  5
5A1
100
AcDbEntity
  8
1
  6
CONTINUOUS
 62
           7
100
AcDbCircle
 10
360.398487070063
 20
1598.987186665251
 40
3.97589152464
100
AcDbArc
 50
145.771504196943
 51
-155.979322918956
  0
ARC
  5
5A0
100
AcDbEntity
  8
1
  6
CONTINUOUS
 62
           7
100
AcDbCircle
 10
360.398487070063
 20
1612.362461138205
 40
3.97589152464
100
AcDbArc
 50
155.979322918985
 51
-145.771504196921
  0
ARC
  5
59F
100
AcDbEntity
  8
1
  6
CONTINUOUS
 62
           7
100
AcDbCircle
 10
360.398487070063
 20
1582.687664390237
 40
3.97589152464
100
AcDbArc
 50
155.97932291897
 51
-145.771504196935
  0
ARC
  5
59E
100
AcDbEntity
  8
1
  6
CONTINUOUS
 62
           7
100
AcDbCircle
 10
360.398487070063
 20
1569.312389917283
 40
3.97589152464
100
AcDbArc
 50
145.771504196932
 51
-155.979322918968
  0
ARC
  5
59D
100
AcDbEntity
  8
1
  6
CONTINUOUS
 62
           7
100
AcDbCircle
 10
371.153480882058
 20
1576.00002715376
 40
14.730870646547
100
AcDbArc
 50
162.412046226006
 51
-162.412046226007
  0
ARC
  5
59C
100
AcDbEntity
  8
1
  6
CONTINUOUS
 62
           7
100
AcDbCircle
 10
885.042244282467
 20
1576.00002715376
 40
14.730870646547
100
AcDbArc
 50
-17.587953773993
 51
17.587953773994
  0
ARC
  5
59B
100
AcDbEntity
  8
1
  6
CONTINUOUS
 62
           7
100
AcDbCircle
 10
895.797238094461
 20
1569.312389917283
 40
3.97589152464
100
AcDbArc
 50
-24.020677081031
 51
34.228495803067
  0
ARC
  5
59A
100
AcDbEntity
  8
1
  6
CONTINUOUS
 62
           7
100
AcDbCircle
 10
895.797238094461
 20
1582.687664390237
 40
3.97589152464
100
AcDbArc
 50
-34.228495803066
 51
24.020677081029
  0
ARC
  5
599
100
AcDbEntity
  8
1
  6
CONTINUOUS
 62
           7
100
AcDbCircle
 10
895.797238094461
 20
1612.362461138205
 40
3.975891524641
100
AcDbArc
 50
-34.228495803079
 51
24.020677081014
  0
ARC
  5
598
100
AcDbEntity
  8
1
  6
CONTINUOUS
 62
           7
100
AcDbCircle
 10
895.797238094461
 20
1598.987186665251
 40
3.975891524641
100
AcDbArc
 50
-24.020677081043
 51
34.228495803057
  0
ARC
  5
597
100
AcDbEntity
  8
1
  6
CONTINUOUS
 62
           7
100
AcDbCircle
 10
885.042244282467
 20
1605.674823901727
 40
14.730870646547
100
AcDbArc
 50
-17.587953773993
 51
17.587953773993
  0
ARC
  5
596
100
AcDbEntity
  8
1
  6
CONTINUOUS
 62
           7
100
AcDbCircle
 10
415.065530777388
 20
1612.362461138205
 40
3.975891524641
100
AcDbArc
 50
-34.228495803079
 51
24.020677081015
  0
ARC
  5
595
100
AcDbEntity
  8
1
  6
CONTINUOUS
 62
           7
100
AcDbCircle
 10
415.065530777388
 20
1598.987186665251
 40
3.975891524641
100
AcDbArc
 50
-24.020677081043
 51
34.228495803056
  0
ARC
  5
594
100
AcDbEntity
  8
1
  6
CONTINUOUS
 62
           7
100
AcDbCircle
 10
404.310536965393
 20
1605.674823901727
 40
14.730870646547
100
AcDbArc
 50
-17.587953773993
 51
17.587953773993
  0
ARC
  5
593
100
AcDbEntity
  8
1
  6
CONTINUOUS
 62
           7
100
AcDbCircle
 10
404.310536965393
 20
1576.00002715376
 40
14.730870646547
100
AcDbArc
 50
-17.587953773993
 51
17.587953773994
  0
ARC
  5
592
100
AcDbEntity
  8
1
  6
CONTINUOUS
 62
           7
100
AcDbCircle
 10
415.065530777388
 20
1569.312389917283
 40
3.97589152464
100
AcDbArc
 50
-24.020677081031
 51
34.228495803067
  0
ARC
  5
591
100
AcDbEntity
  8
1
  6
CONTINUOUS
 62
           7
100
AcDbCircle
 10
415.065530777388
 20
1582.687664390237
 40
3.97589152464
100
AcDbArc
 50
-34.228495803066
 51
24.02067708103
  0
ARC
  5
590
100
AcDbEntity
  8
1
  6
CONTINUOUS
 62
           7
100
AcDbCircle
 10
841.130194387136
 20
1582.687664390237
 40
3.97589152464
100
AcDbArc
 50
155.97932291897
 51
-145.771504196934
  0
ARC
  5
58F
100
AcDbEntity
  8
1
  6
CONTINUOUS
 62
           7
100
AcDbCircle
 10
841.130194387136
 20
1569.312389917283
 40
3.97589152464
100
AcDbArc
 50
145.771504196932
 51
-155.979322918969
  0
ARC
  5
58E
100
AcDbEntity
  8
1
  6
CONTINUOUS
 62
           7
100
AcDbCircle
 10
851.885188199131
 20
1576.00002715376
 40
14.730870646547
100
AcDbArc
 50
162.412046226006
 51
-162.412046226007
  0
ARC
  5
58D
100
AcDbEntity
  8
1
  6
CONTINUOUS
 62
           7
100
AcDbCircle
 10
851.885188199131
 20
1605.674823901727
 40
14.730870646547
100
AcDbArc
 50
162.412046226007
 51
-162.412046226007
  0
ARC
  5
58C
100
AcDbEntity
  8
1
  6
CONTINUOUS
 62
           7
100
AcDbCircle
 10
841.130194387136
 20
1598.987186665251
 40
3.97589152464
100
AcDbArc
 50
145.771504196943
 51
-155.979322918957
  0
ARC
  5
58B
100
AcDbEntity
  8
1
  6
CONTINUOUS
 62
           7
100
AcDbCircle
 10
841.130194387136
 20
1612.362461138205
 40
3.97589152464
100
AcDbArc
 50
155.979322918985
 51
-145.771504196921
  0
ARC
  5
58A
100
AcDbEntity
  8
1
  6
CONTINUOUS
 62
           7
100
AcDbCircle
 10
613.940462333613
 20
1730.201176943411
 40
8.416767487407
100
AcDbArc
 50
55.771504196937
 51
114.020677081028
  0
ARC
  5
589
100
AcDbEntity
  8
1
  6
CONTINUOUS
 62
           7
100
AcDbCircle
 10
628.097862582262
 20
1707.433382177622
 40
31.184531155
100
AcDbArc
 50
72.412046226006
 51
107.587953773993
  0
ARC
  5
588
100
AcDbEntity
  8
1
  6
CONTINUOUS
 62
           7
100
AcDbCircle
 10
642.255262830911
 20
1730.201176943411
 40
8.416767487407
100
AcDbArc
 50
65.979322918972
 51
124.228495803062
  0
ARC
  5
587
100
AcDbEntity
  8
1
  6
CONTINUOUS
 62
           7
100
AcDbCircle
 10
626.985057704213
 20
1775.711409267581
 40
19.659552845528
100
AcDbArc
 50
148.109208198156
 51
-148.109208198152
  0
ARC
  5
586
100
AcDbEntity
  8
1
  6
CONTINUOUS
 62
           7
100
AcDbCircle
 10
626.985057704213
 20
1754.939051544004
 40
19.659552845528
100
AcDbArc
 50
148.109208198156
 51
-148.109208198152
  0
ARC
  5
585
100
AcDbEntity
  8
1
  6
CONTINUOUS
 62
           7
100
AcDbCircle
 10
629.210667460311
 20
1754.939051544004
 40
19.659552845529
100
AcDbArc
 50
-31.890791801847
 51
31.890791801844
  0
ARC
  5
584
100
AcDbEntity
  8
1
  6
CONTINUOUS
 62
           7
100
AcDbCircle
 10
629.210667460311
 20
1775.711409267581
 40
19.659552845529
100
AcDbArc
 50
-31.890791801847
 51
31.890791801844
  0
ARC
  5
583
100
AcDbEntity
  8
1
  6
CONTINUOUS
 62
           7
100
AcDbCircle
 10
803.17916339527
 20
1256.995962113109
 40
25.223577235772
100
AcDbArc
 50
-118.072486935853
 51
-61.927513064147
  0
ARC
  5
582
100
AcDbEntity
  8
1
  6
CONTINUOUS
 62
           7
100
AcDbCircle
 10
826.919000793644
 20
1256.995962113109
 40
25.223577235772
100
AcDbArc
 50
-118.072486935853
 51
-61.927513064147
  0
ARC
  5
581
100
AcDbEntity
  8
1
  6
CONTINUOUS
 62
           7
100
AcDbCircle
 10
826.919000793644
 20
1265.898401137499
 40
25.223577235773
100
AcDbArc
 50
61.927513064148
 51
118.072486935852
  0
ARC
  5
580
100
AcDbEntity
  8
1
  6
CONTINUOUS
 62
           7
100
AcDbCircle
 10
803.17916339527
 20
1265.898401137499
 40
25.223577235773
100
AcDbArc
 50
61.927513064148
 51
118.072486935852
  0
ARC
  5
57F
100
AcDbEntity
  8
1
  6
CONTINUOUS
 62
           7
100
AcDbCircle
 10
815.049082094457
 20
1351.000564780774
 40
44.512195121951
100
AcDbArc
 50
117.818139284653
 51
-117.818139284653
  0
ARC
  5
57E
100
AcDbEntity
  8
1
  6
CONTINUOUS
 62
           7
100
AcDbCircle
 10
815.049082094457
 20
1351.000564780774
 40
44.512195121951
100
AcDbArc
 50
27.818139284654
 51
62.181860715346
  0
ARC
  5
57D
100
AcDbEntity
  8
1
  6
CONTINUOUS
 62
           7
100
AcDbCircle
 10
900.119576446549
 20
1372.164660767122
 40
49.46228955022
100
AcDbArc
 50
-179.546216238955
 51
-167.41418025773
  0
ARC
  5
57C
100
AcDbEntity
  8
1
  6
CONTINUOUS
 62
           7
100
AcDbCircle
 10
900.119576446549
 20
1350.608826518003
 40
49.46228955022
100
AcDbArc
 50
167.414180257732
 51
179.546216238955
  0
ARC
  5
57B
100
AcDbEntity
  8
1
  6
CONTINUOUS
 62
           7
100
AcDbCircle
 10
816.035498311471
 20
1372.164660767122
 40
49.46228955022
100
AcDbArc
 50
-12.58581974227
 51
-0.453783761045
  0
ARC
  5
57A
100
AcDbEntity
  8
1
  6
CONTINUOUS
 62
           7
100
AcDbCircle
 10
816.035498311471
 20
1350.608826518003
 40
49.46228955022
100
AcDbArc
 50
0.453783761045
 51
12.585819742268
  0
ARC
  5
579
100
AcDbEntity
  8
1
  6
CONTINUOUS
 62
           7
100
AcDbCircle
 10
815.049082094457
 20
1351.000564780774
 40
44.512195121951
100
AcDbArc
 50
-62.181860715346
 51
0.0
  0
ARC
  5
578
100
AcDbEntity
  8
1
  6
CONTINUOUS
 62
           7
100
AcDbCircle
 10
825.435260956246
 20
1386.555922019822
 40
29.998966486008
100
AcDbArc
 50
69.743841999585
 51
110.256158000415
  0
ARC
  5
577
100
AcDbEntity
  8
1
  6
CONTINUOUS
 62
           7
100
AcDbCircle
 10
804.662903232669
 20
1386.555922019822
 40
29.998966486008
100
AcDbArc
 50
69.743841999585
 51
110.256158000415
  0
ARC
  5
576
100
AcDbEntity
  8
1
  6
CONTINUOUS
 62
           7
100
AcDbCircle
 10
825.435260956246
 20
1431.446685738326
 40
29.998966486007
100
AcDbArc
 50
-110.256158000416
 51
-69.743841999584
  0
ARC
  5
575
100
AcDbEntity
  8
1
  6
CONTINUOUS
 62
           7
100
AcDbCircle
 10
804.662903232669
 20
1431.446685738326
 40
29.998966486007
100
AcDbArc
 50
-110.256158000416
 51
-69.743841999584
  0
ARC
  5
574
100
AcDbEntity
  8
2
  6
CONTINUOUS
 62
           7
100
AcDbCircle
 10
676.450325518656
 20
1748.091697621732
 40
6.63318986131
100
AcDbArc
 50
120.000000000002
 51
-156.3015009937
  0
ARC
  5
573
100
AcDbEntity
  8
2
  6
CONTINUOUS
 62
           7
100
AcDbCircle
 10
691.375002706605
 20
1765.325230405792
 40
21.557867049259
100
AcDbArc
 50
147.795772496026
 51
-147.795772496029
  0
ARC
  5
572
100
AcDbEntity
  8
2
  6
CONTINUOUS
 62
           7
100
AcDbCircle
 10
665.016800889292
 20
1765.325230405792
 40
21.557867049259
100
AcDbArc
 50
-32.204227503971
 51
32.204227503974
  0
ARC
  5
571
100
AcDbEntity
  8
2
  6
CONTINUOUS
 62
           7
100
AcDbCircle
 10
676.450325518656
 20
1748.091697621732
 40
6.633189861311
100
AcDbArc
 50
-156.3015009937
 51
-120.000000000002
  0
ARC
  5
570
100
AcDbEntity
  8
2
  6
CONTINUOUS
 62
           7
100
AcDbCircle
 10
676.450325518656
 20
1782.558763189853
 40
6.633189861311
100
AcDbArc
 50
156.3015009937
 51
-120.000000000002
  0
ARC
  5
56F
100
AcDbEntity
  8
2
  6
CONTINUOUS
 62
           7
100
AcDbCircle
 10
679.941478077241
 20
1748.091697621732
 40
6.63318986131
100
AcDbArc
 50
-59.999999999999
 51
59.999999999999
  0
ARC
  5
56E
100
AcDbEntity
  8
2
  6
CONTINUOUS
 62
           7
100
AcDbCircle
 10
679.941478077241
 20
1782.558763189853
 40
6.63318986131
100
AcDbArc
 50
-59.999999999999
 51
59.999999999999
  0
ARC
  5
56D
100
AcDbEntity
  8
1
  6
CONTINUOUS
 62
           7
100
AcDbCircle
 10
670.376491843133
 20
1726.59090912836
 40
58.633890861364
100
AcDbArc
 50
90.0
 51
100.845682977914
  0
ARC
  5
56C
100
AcDbEntity
  8
2
  6
CONTINUOUS
 62
           7
100
AcDbCircle
 10
676.450325518656
 20
1782.558763189853
 40
6.63318986131
100
AcDbArc
 50
120.000000000002
 51
156.3015009937
  0
ARC
  5
56B
100
AcDbEntity
  8
1
  6
CONTINUOUS
 62
           7
100
AcDbCircle
 10
670.376491843133
 20
1804.059551683225
 40
58.633890861364
100
AcDbArc
 50
-100.845682977914
 51
-90.0
  0
ARC
  5
56A
100
AcDbEntity
  8
1
  6
CONTINUOUS
 62
           7
100
AcDbCircle
 10
674.650350380851
 20
1754.939051544004
 40
29.998966486007
100
AcDbArc
 50
-20.256158000417
 51
20.256158000415
  0
ARC
  5
569
100
AcDbEntity
  8
1
  6
CONTINUOUS
 62
           7
100
AcDbCircle
 10
674.650350380851
 20
1775.711409267581
 40
29.998966486007
100
AcDbArc
 50
-20.256158000417
 51
20.256158000415
  0
ARC
  5
568
100
AcDbEntity
  8
1
  6
CONTINUOUS
 62
           7
100
AcDbCircle
 10
719.541114099355
 20
1754.939051544004
 40
29.998966486007
100
AcDbArc
 50
159.743841999585
 51
-159.743841999582
  0
ARC
  5
567
100
AcDbEntity
  8
1
  6
CONTINUOUS
 62
           7
100
AcDbCircle
 10
719.541114099355
 20
1775.711409267581
 40
29.998966486007
100
AcDbArc
 50
159.743841999585
 51
-159.743841999582
  0
ARC
  5
566
100
AcDbEntity
  8
1
  6
CONTINUOUS
 62
           7
100
AcDbCircle
 10
825.435260956246
 20
1512.656116566206
 40
29.998966486007
100
AcDbArc
 50
-98.533004440441
 51
-69.743841999584
  0
ARC
  5
565
100
AcDbEntity
  8
1
  6
CONTINUOUS
 62
           7
100
AcDbCircle
 10
804.662903232669
 20
1467.765352847702
 40
29.998966486007
100
AcDbArc
 50
92.83498863564
 51
110.256158000416
  0
ARC
  5
564
100
AcDbEntity
  8
1
  6
CONTINUOUS
 62
           7
100
AcDbCircle
 10
-943.439973283026
 20
739.170758861077
 40
178.108839916418
100
AcDbArc
 50
88.512017938747
 51
180.0
  0
ARC
  5
563
100
AcDbEntity
  8
1
  6
CONTINUOUS
 62
           7
100
AcDbCircle
 10
-943.439973283026
 20
739.170758861077
 40
178.108839916417
100
AcDbArc
 50
-90.0
 51
88.512017938747
  0
ARC
  5
562
100
AcDbEntity
  8
2
  6
CONTINUOUS
 62
           7
100
AcDbCircle
 10
-530.487678751853
 20
640.138568575887
 40
6.136370950633
100
AcDbArc
 50
-23.698499006296
 51
59.999999999998
  0
ARC
  5
561
100
AcDbEntity
  8
2
  6
CONTINUOUS
 62
           7
100
AcDbCircle
 10
-544.294513390779
 20
656.081327966768
 40
19.94320558956
100
AcDbArc
 50
-32.204227503971
 51
32.204227503971
  0
ARC
  5
560
100
AcDbEntity
  8
2
  6
CONTINUOUS
 62
           7
100
AcDbCircle
 10
-519.910513034313
 20
656.081327966768
 40
19.943205589559
100
AcDbArc
 50
147.795772496028
 51
-147.795772496028
  0
ARC
  5
55F
100
AcDbEntity
  8
2
  6
CONTINUOUS
 62
           7
100
AcDbCircle
 10
-530.487678751853
 20
640.138568575887
 40
6.136370950634
100
AcDbArc
 50
-59.999999999998
 51
-23.698499006296
  0
ARC
  5
55E
100
AcDbEntity
  8
2
  6
CONTINUOUS
 62
           7
100
AcDbCircle
 10
-530.487678751853
 20
672.024087357649
 40
6.136370950634
100
AcDbArc
 50
-59.999999999998
 51
23.698499006296
  0
ARC
  5
55D
100
AcDbEntity
  8
2
  6
CONTINUOUS
 62
           7
100
AcDbCircle
 10
-533.717347673239
 20
640.138568575887
 40
6.136370950634
100
AcDbArc
 50
119.999999999997
 51
-119.999999999997
  0
ARC
  5
55C
100
AcDbEntity
  8
2
  6
CONTINUOUS
 62
           7
100
AcDbCircle
 10
-533.717347673239
 20
672.024087357649
 40
6.136370950633
100
AcDbArc
 50
119.999999999997
 51
-119.999999999997
  0
ARC
  5
55B
100
AcDbEntity
  8
2
  6
CONTINUOUS
 62
           7
100
AcDbCircle
 10
-530.487678751853
 20
672.024087357649
 40
6.136370950633
100
AcDbArc
 50
23.698499006296
 51
59.999999999997
  0
ARC
  5
55A
100
AcDbEntity
  8
2
  6
CONTINUOUS
 62
           7
100
AcDbCircle
 10
-509.050308579605
 20
672.024087357649
 40
6.136370950633
100
AcDbArc
 50
23.698499006295
 51
60.000000000002
  0
ARC
  5
559
100
AcDbEntity
  8
2
  6
CONTINUOUS
 62
           7
100
AcDbCircle
 10
-512.279977500992
 20
672.024087357649
 40
6.136370950634
100
AcDbArc
 50
120.000000000002
 51
-120.000000000002
  0
ARC
  5
558
100
AcDbEntity
  8
2
  6
CONTINUOUS
 62
           7
100
AcDbCircle
 10
-512.279977500992
 20
640.138568575887
 40
6.136370950634
100
AcDbArc
 50
120.000000000001
 51
-120.000000000002
  0
ARC
  5
557
100
AcDbEntity
  8
2
  6
CONTINUOUS
 62
           7
100
AcDbCircle
 10
-509.050308579605
 20
672.024087357649
 40
6.136370950634
100
AcDbArc
 50
-60.000000000003
 51
23.698499006295
  0
ARC
  5
556
100
AcDbEntity
  8
2
  6
CONTINUOUS
 62
           7
100
AcDbCircle
 10
-509.050308579605
 20
640.138568575887
 40
6.136370950633
100
AcDbArc
 50
-60.000000000003
 51
-23.698499006295
  0
ARC
  5
555
100
AcDbEntity
  8
2
  6
CONTINUOUS
 62
           7
100
AcDbCircle
 10
-498.473142862066
 20
656.081327966768
 40
19.943205589559
100
AcDbArc
 50
147.795772496028
 51
-147.795772496028
  0
ARC
  5
554
100
AcDbEntity
  8
2
  6
CONTINUOUS
 62
           7
100
AcDbCircle
 10
-522.857143218531
 20
656.081327966768
 40
19.943205589559
100
AcDbArc
 50
-32.204227503972
 51
32.204227503972
  0
ARC
  5
553
100
AcDbEntity
  8
2
  6
CONTINUOUS
 62
           7
100
AcDbCircle
 10
-509.050308579605
 20
640.138568575887
 40
6.136370950633
100
AcDbArc
 50
-23.698499006295
 51
60.000000000003
  0
ARC
  5
552
100
AcDbEntity
  8
1
  6
CONTINUOUS
 62
           7
100
AcDbCircle
 10
-155.533497593638
 20
493.463441787906
 40
92.585365853658
100
AcDbArc
 50
67.380135051959
 51
112.61986494804
  0
ARC
  5
551
100
AcDbEntity
  8
2
  6
CONTINUOUS
 62
           7
100
AcDbCircle
 10
-185.409705942646
 20
806.645271964841
 40
6.136370950634
100
AcDbArc
 50
-23.698499006296
 51
59.999999999999
  0
ARC
  5
550
100
AcDbEntity
  8
2
  6
CONTINUOUS
 62
           7
100
AcDbCircle
 10
-199.216540581572
 20
822.588031355722
 40
19.943205589559
100
AcDbArc
 50
-32.204227503972
 51
32.204227503971
  0
ARC
  5
54F
100
AcDbEntity
  8
2
  6
CONTINUOUS
 62
           7
100
AcDbCircle
 10
-174.832540225107
 20
822.588031355722
 40
19.943205589559
100
AcDbArc
 50
147.795772496027
 51
-147.795772496028
  0
ARC
  5
54E
100
AcDbEntity
  8
2
  6
CONTINUOUS
 62
           7
100
AcDbCircle
 10
-185.409705942646
 20
806.645271964841
 40
6.136370950634
100
AcDbArc
 50
-59.999999999999
 51
-23.698499006296
  0
ARC
  5
54D
100
AcDbEntity
  8
2
  6
CONTINUOUS
 62
           7
100
AcDbCircle
 10
-185.409705942646
 20
838.530790746602
 40
6.136370950634
100
AcDbArc
 50
-59.999999999999
 51
23.698499006295
  0
ARC
  5
54C
100
AcDbEntity
  8
2
  6
CONTINUOUS
 62
           7
100
AcDbCircle
 10
-188.639374864033
 20
806.645271964841
 40
6.136370950634
100
AcDbArc
 50
119.999999999998
 51
-119.999999999999
  0
ARC
  5
54B
100
AcDbEntity
  8
2
  6
CONTINUOUS
 62
           7
100
AcDbCircle
 10
-188.639374864033
 20
838.530790746602
 40
6.136370950634
100
AcDbArc
 50
119.999999999999
 51
-119.999999999998
  0
ARC
  5
54A
100
AcDbEntity
  8
2
  6
CONTINUOUS
 62
           7
100
AcDbCircle
 10
-185.409705942646
 20
838.530790746602
 40
6.136370950633
100
AcDbArc
 50
23.698499006295
 51
59.999999999999
  0
ARC
  5
549
100
AcDbEntity
  8
1
  6
CONTINUOUS
 62
           7
100
AcDbCircle
 10
892.36521148646
 20
1252.963632592659
 40
4.769259291392
100
AcDbArc
 50
-23.634602796472
 51
36.365397203537
  0
ARC
  5
548
100
AcDbEntity
  8
1
  6
CONTINUOUS
 62
           7
100
AcDbCircle
 10
879.450638920073
 20
1261.447181625305
 40
17.683831857779
100
AcDbArc
 50
-18.652231954964
 51
0.0
  0
ARC
  5
547
100
AcDbEntity
  8
1
  6
CONTINUOUS
 62
           7
100
AcDbCircle
 10
894.821703690109
 20
1261.447181625305
 40
16.346201741521
100
AcDbArc
 50
180.0
 51
-159.757471523566
  0
ARC
  5
546
100
AcDbEntity
  8
1
  6
CONTINUOUS
 62
           7
100
AcDbCircle
 10
882.940652100318
 20
1252.963632592659
 40
4.465150151731
100
AcDbArc
 50
140.704825541754
 51
-159.295174458278
  0
ARC
  5
545
100
AcDbEntity
  8
1
  6
CONTINUOUS
 62
           7
100
AcDbCircle
 10
882.940652100318
 20
1269.930730657952
 40
4.465150151732
100
AcDbArc
 50
159.295174458276
 51
-140.704825541745
  0
ARC
  5
544
100
AcDbEntity
  8
1
  6
CONTINUOUS
 62
           7
100
AcDbCircle
 10
894.821703690109
 20
1261.447181625305
 40
16.346201741522
100
AcDbArc
 50
159.757471523566
 51
180.0
  0
ARC
  5
543
100
AcDbEntity
  8
1
  6
CONTINUOUS
 62
           7
100
AcDbCircle
 10
879.450638920073
 20
1261.447181625305
 40
17.683831857779
100
AcDbArc
 50
0.0
 51
18.652231954965
  0
ARC
  5
542
100
AcDbEntity
  8
1
  6
CONTINUOUS
 62
           7
100
AcDbCircle
 10
892.36521148646
 20
1269.930730657952
 40
4.769259291392
100
AcDbArc
 50
-36.365397203546
 51
23.634602796449
  0
ARC
  5
541
100
AcDbEntity
  8
1
  6
CONTINUOUS
 62
           7
100
AcDbCircle
 10
863.744449319036
 20
1261.447181625305
 40
19.608262180134
100
AcDbArc
 50
162.412046226005
 51
180.0
  0
ARC
  5
540
100
AcDbEntity
  8
1
  6
CONTINUOUS
 62
           7
100
AcDbCircle
 10
834.250229769806
 20
1261.447181625305
 40
19.608262180135
100
AcDbArc
 50
0.0
 51
17.587953773994
  0
ARC
  5
53F
100
AcDbEntity
  8
1
  6
CONTINUOUS
 62
           7
100
AcDbCircle
 10
849.381979008456
 20
1270.334709183316
 40
5.245791869554
100
AcDbArc
 50
145.615752531958
 51
-145.61575253195
  0
ARC
  5
53E
100
AcDbEntity
  8
1
  6
CONTINUOUS
 62
           7
100
AcDbCircle
 10
848.612700080384
 20
1270.334709183316
 40
5.245791869555
100
AcDbArc
 50
-34.384247468041
 51
34.384247468033
  0
ARC
  5
53D
100
AcDbEntity
  8
1
  6
CONTINUOUS
 62
           7
100
AcDbCircle
 10
848.612700080384
 20
1252.559654067295
 40
5.245791869556
100
AcDbArc
 50
-34.384247468043
 51
34.384247468041
  0
ARC
  5
53C
100
AcDbEntity
  8
1
  6
CONTINUOUS
 62
           7
100
AcDbCircle
 10
849.381979008456
 20
1252.559654067295
 40
5.245791869554
100
AcDbArc
 50
145.61575253195
 51
-145.615752531948
  0
ARC
  5
53B
100
AcDbEntity
  8
1
  6
CONTINUOUS
 62
           7
100
AcDbCircle
 10
834.250229769806
 20
1261.447181625305
 40
19.608262180134
100
AcDbArc
 50
-17.587953773991
 51
0.0
  0
ARC
  5
53A
100
AcDbEntity
  8
1
  6
CONTINUOUS
 62
           7
100
AcDbCircle
 10
863.744449319036
 20
1261.447181625305
 40
19.608262180133
100
AcDbArc
 50
180.0
 51
-162.412046226009
  0
LINE
  5
539
100
AcDbEntity
  8
1
  6
CONTINUOUS
 62
           7
100
AcDbLine
 10
-682.61110677353
 20
1439.495962113109
 11
-730.090781570278
 21
1439.495962113109
  0
LINE
  5
538
100
AcDbEntity
  8
1
  6
CONTINUOUS
 62
           7
100
AcDbLine
 10
-682.61110677353
 20
1608.598664169542
 11
-682.61110677353
 21
1439.495962113109
  0
LINE
  5
537
100
AcDbEntity
  8
1
  6
CONTINUOUS
 62
           7
100
AcDbLine
 10
-730.090781570278
 20
1608.598664169542
 11
-682.61110677353
 21
1608.598664169542
  0
LINE
  5
536
100
AcDbEntity
  8
1
  6
CONTINUOUS
 62
           7
100
AcDbLine
 10
-463.01761083857
 20
1576.00002715376
 11
-403.668017342635
 21
1576.00002715376
  0
LINE
  5
535
100
AcDbEntity
  8
1
  6
CONTINUOUS
 62
           7
100
AcDbLine
 10
-463.01761083857
 20
1630.549285881641
 11
-463.01761083857
 21
1576.00002715376
  0
LINE
  5
534
100
AcDbEntity
  8
1
  6
CONTINUOUS
 62
           7
100
AcDbLine
 10
-403.668017342635
 20
1630.549285881641
 11
-463.01761083857
 21
1630.549285881641
  0
LINE
  5
533
100
AcDbEntity
  8
1
  6
CONTINUOUS
 62
           7
100
AcDbLine
 10
529.909196872076
 20
1630.549285881641
 11
529.909196872076
 21
1576.00002715376
  0
LINE
  5
532
100
AcDbEntity
  8
1
  6
CONTINUOUS
 62
           7
100
AcDbLine
 10
726.286528292449
 20
1630.549285881641
 11
529.909196872076
 21
1630.549285881641
  0
LINE
  5
531
100
AcDbEntity
  8
1
  6
CONTINUOUS
 62
           7
100
AcDbLine
 10
726.286528292449
 20
1576.00002715376
 11
726.286528292449
 21
1630.549285881641
  0
LINE
  5
530
100
AcDbEntity
  8
1
  6
CONTINUOUS
 62
           7
100
AcDbLine
 10
529.909196872076
 20
1576.00002715376
 11
726.286528292449
 21
1576.00002715376
  0
LINE
  5
52F
100
AcDbEntity
  8
1
  6
CONTINUOUS
 62
           7
100
AcDbLine
 10
524.236073964376
 20
1255.512222275711
 11
500.496236566002
 21
1255.512222275711
  0
LINE
  5
52E
100
AcDbEntity
  8
1
  6
CONTINUOUS
 62
           7
100
AcDbLine
 10
524.236073964376
 20
1403.886206015548
 11
524.236073964376
 21
1255.512222275711
  0
LINE
  5
52D
100
AcDbEntity
  8
1
  6
CONTINUOUS
 62
           7
100
AcDbLine
 10
500.496236566002
 20
1403.886206015548
 11
524.236073964376
 21
1403.886206015548
  0
LINE
  5
52C
100
AcDbEntity
  8
1
  6
CONTINUOUS
 62
           7
100
AcDbLine
 10
577.839389845052
 20
1343.13069061231
 11
678.553851535124
 21
1343.13069061231
  0
LINE
  5
52B
100
AcDbEntity
  8
1
  6
CONTINUOUS
 62
           7
100
AcDbLine
 10
682.330643848502
 20
1346.907482925687
 11
682.330643848502
 21
1380.898613746087
  0
LINE
  5
52A
100
AcDbEntity
  8
1
  6
CONTINUOUS
 62
           7
100
AcDbLine
 10
678.553851535124
 20
1384.675406059464
 11
577.839389845052
 21
1384.675406059464
  0
LINE
  5
529
100
AcDbEntity
  8
1
  6
CONTINUOUS
 62
           7
100
AcDbLine
 10
574.062597531675
 20
1380.898613746087
 11
574.062597531675
 21
1346.907482925687
  0
LINE
  5
528
100
AcDbEntity
  8
1
  6
CONTINUOUS
 62
           7
100
AcDbLine
 10
582.875112929556
 20
1346.907482925687
 11
673.51812845062
 21
1346.907482925687
  0
LINE
  5
527
100
AcDbEntity
  8
1
  6
CONTINUOUS
 62
           7
100
AcDbLine
 10
673.51812845062
 20
1346.907482925687
 11
673.51812845062
 21
1380.898613746087
  0
LINE
  5
526
100
AcDbEntity
  8
1
  6
CONTINUOUS
 62
           7
100
AcDbLine
 10
673.51812845062
 20
1380.898613746087
 11
582.875112929556
 21
1380.898613746087
  0
LINE
  5
525
100
AcDbEntity
  8
1
  6
CONTINUOUS
 62
           7
100
AcDbLine
 10
582.875112929556
 20
1380.898613746087
 11
582.875112929556
 21
1346.907482925687
  0
LINE
  5
524
100
AcDbEntity
  8
1
  6
CONTINUOUS
 62
           7
100
AcDbLine
 10
-642.157376500933
 20
1329.69921414563
 11
-642.157376500933
 21
1307.879510654477
  0
LINE
  5
523
100
AcDbEntity
  8
1
  6
CONTINUOUS
 62
           7
100
AcDbLine
 10
-491.60142241198
 20
1329.69921414563
 11
-642.157376500933
 21
1329.69921414563
  0
LINE
  5
522
100
AcDbEntity
  8
1
  6
CONTINUOUS
 62
           7
100
AcDbLine
 10
-491.60142241198
 20
1307.879510654477
 11
-491.60142241198
 21
1329.69921414563
  0
LINE
  5
521
100
AcDbEntity
  8
1
  6
CONTINUOUS
 62
           7
100
AcDbLine
 10
-642.157376500933
 20
1307.879510654477
 11
-491.60142241198
 21
1307.879510654477
  0
LINE
  5
520
100
AcDbEntity
  8
1
  6
CONTINUOUS
 62
           7
100
AcDbLine
 10
-651.976243071951
 20
1403.886206015548
 11
-651.976243071951
 21
1255.512222275711
  0
LINE
  5
51F
100
AcDbEntity
  8
1
  6
CONTINUOUS
 62
           7
100
AcDbLine
 10
-481.782555840961
 20
1403.886206015548
 11
-651.976243071951
 21
1403.886206015548
  0
LINE
  5
51E
100
AcDbEntity
  8
1
  6
CONTINUOUS
 62
           7
100
AcDbLine
 10
-481.782555840961
 20
1255.512222275711
 11
-481.782555840961
 21
1403.886206015548
  0
LINE
  5
51D
100
AcDbEntity
  8
1
  6
CONTINUOUS
 62
           7
100
AcDbLine
 10
-651.976243071951
 20
1255.512222275711
 11
-497.05162246997
 21
1255.512222275711
  0
LINE
  5
51C
100
AcDbEntity
  8
1
  6
CONTINUOUS
 62
           7
100
AcDbLine
 10
-497.05162246997
 20
1255.512222275711
 11
-481.782555840961
 21
1255.512222275711
  0
LINE
  5
51B
100
AcDbEntity
  8
1
  6
CONTINUOUS
 62
           7
100
AcDbLine
 10
-284.966181524552
 20
889.61654404765
 11
-284.966181524552
 21
878.353693018914
  0
LINE
  5
51A
100
AcDbEntity
  8
1
  6
CONTINUOUS
 62
           7
100
AcDbLine
 10
-277.529154103732
 20
878.353693018912
 11
-291.110463016736
 21
874.130123883136
  0
LINE
  5
519
100
AcDbEntity
  8
1
  6
CONTINUOUS
 62
           7
100
AcDbLine
 10
-291.110463016736
 20
893.840113183427
 11
-277.529154103732
 21
889.61654404765
  0
LINE
  5
518
100
AcDbEntity
  8
1
  6
CONTINUOUS
 62
           7
100
AcDbLine
 10
-291.110463016736
 20
868.850662463415
 11
-297.04542236633
 21
868.850662463415
  0
LINE
  5
517
100
AcDbEntity
  8
1
  6
CONTINUOUS
 62
           7
100
AcDbLine
 10
-291.110463016736
 20
899.384001248164
 11
-291.110463016736
 21
868.850662463415
  0
LINE
  5
516
100
AcDbEntity
  8
1
  6
CONTINUOUS
 62
           7
100
AcDbLine
 10
-297.04542236633
 20
899.384001248164
 11
-291.110463016736
 21
899.384001248164
  0
LINE
  5
515
100
AcDbEntity
  8
1
  6
CONTINUOUS
 62
           2
100
AcDbLine
 10
-325.16735352871
 20
952.829295446442
 11
-325.321955075584
 21
947.620226845651
  0
LINE
  5
514
100
AcDbEntity
  8
1
  6
CONTINUOUS
 62
           7
100
AcDbLine
 10
-326.681681682531
 20
942.41115824486
 11
-326.372478588785
 21
952.829295446442
  0
LINE
  5
513
100
AcDbEntity
  8
1
  6
CONTINUOUS
 62
           2
100
AcDbLine
 10
-325.321955075584
 20
947.620226845651
 11
-326.587915740585
 21
945.57046184752
  0
LINE
  5
512
100
AcDbEntity
  8
1
  6
CONTINUOUS
 62
           7
100
AcDbLine
 10
-314.643627098733
 20
947.620226845651
 11
-326.527080135659
 21
947.620226845651
  0
LINE
  5
511
100
AcDbEntity
  8
1
  6
CONTINUOUS
 62
           2
100
AcDbLine
 10
-303.965299121882
 20
947.620226845651
 11
-304.119900668756
 21
952.829295446442
  0
LINE
  5
510
100
AcDbEntity
  8
1
  6
CONTINUOUS
 62
           7
100
AcDbLine
 10
-302.760174061807
 20
947.620226845651
 11
-314.643627098733
 21
947.620226845651
  0
LINE
  5
50F
100
AcDbEntity
  8
1
  6
CONTINUOUS
 62
           2
100
AcDbLine
 10
-303.965299121882
 20
947.620226845651
 11
-302.69933845688
 21
945.57046184752
  0
LINE
  5
50E
100
AcDbEntity
  8
1
  6
CONTINUOUS
 62
           7
100
AcDbLine
 10
-302.914775608681
 20
952.829295446442
 11
-302.605572514933
 21
942.41115824486
  0
LINE
  5
50D
100
AcDbEntity
  8
1
  6
CONTINUOUS
 62
           7
100
AcDbLine
 10
-306.108951377547
 20
931.764697955786
 11
-306.108951377547
 21
941.0908393159
  0
LINE
  5
50C
100
AcDbEntity
  8
1
  6
CONTINUOUS
 62
           7
100
AcDbLine
 10
-329.426119073951
 20
942.41115824486
 11
-326.681681682531
 21
942.41115824486
  0
LINE
  5
50B
100
AcDbEntity
  8
1
  6
CONTINUOUS
 62
           7
100
AcDbLine
 10
-331.712978541105
 20
941.0908393159
 11
-329.426119073951
 21
942.41115824486
  0
LINE
  5
50A
100
AcDbEntity
  8
1
  6
CONTINUOUS
 62
           7
100
AcDbLine
 10
-331.712978541105
 20
931.764697955786
 11
-331.712978541105
 21
941.0908393159
  0
LINE
  5
509
100
AcDbEntity
  8
1
  6
CONTINUOUS
 62
           7
100
AcDbLine
 10
-329.426119073951
 20
930.444379026826
 11
-331.712978541105
 21
931.764697955786
  0
LINE
  5
508
100
AcDbEntity
  8
1
  6
CONTINUOUS
 62
           7
100
AcDbLine
 10
-326.681681682531
 20
930.444379026826
 11
-329.426119073951
 21
930.444379026826
  0
LINE
  5
507
100
AcDbEntity
  8
1
  6
CONTINUOUS
 62
           7
100
AcDbLine
 10
-299.861135123514
 20
942.41115824486
 11
-314.643627098733
 21
942.41115824486
  0
LINE
  5
506
100
AcDbEntity
  8
1
  6
CONTINUOUS
 62
           7
100
AcDbLine
 10
-297.574275656361
 20
941.0908393159
 11
-299.861135123514
 21
942.41115824486
  0
LINE
  5
505
100
AcDbEntity
  8
1
  6
CONTINUOUS
 62
           7
100
AcDbLine
 10
-297.574275656361
 20
931.764697955786
 11
-297.574275656361
 21
941.0908393159
  0
LINE
  5
504
100
AcDbEntity
  8
1
  6
CONTINUOUS
 62
           7
100
AcDbLine
 10
-299.861135123514
 20
930.444379026826
 11
-297.574275656361
 21
931.764697955786
  0
LINE
  5
503
100
AcDbEntity
  8
1
  6
CONTINUOUS
 62
           7
100
AcDbLine
 10
-314.643627098733
 20
930.444379026826
 11
-299.861135123514
 21
930.444379026826
  0
LINE
  5
502
100
AcDbEntity
  8
1
  6
CONTINUOUS
 62
           7
100
AcDbLine
 10
-314.643627098733
 20
942.41115824486
 11
-329.426119073951
 21
942.41115824486
  0
LINE
  5
501
100
AcDbEntity
  8
1
  6
CONTINUOUS
 62
           7
100
AcDbLine
 10
-329.426119073951
 20
930.444379026826
 11
-314.643627098733
 21
930.444379026826
  0
LINE
  5
500
100
AcDbEntity
  8
1
  6
CONTINUOUS
 62
           7
100
AcDbLine
 10
-323.178302819918
 20
941.0908393159
 11
-323.178302819918
 21
931.764697955786
  0
LINE
  5
4FF
100
AcDbEntity
  8
1
  6
CONTINUOUS
 62
           7
100
AcDbLine
 10
-297.04542236633
 20
861.459416475807
 11
-332.241831831136
 21
861.459416475807
  0
LINE
  5
4FE
100
AcDbEntity
  8
1
  6
CONTINUOUS
 62
           7
100
AcDbLine
 10
-329.426119073951
 20
861.459416475807
 11
-329.426119073951
 21
842.453355364811
  0
LINE
  5
4FD
100
AcDbEntity
  8
1
  6
CONTINUOUS
 62
           7
100
AcDbLine
 10
-327.314334506063
 20
840.341570796923
 11
-301.972919691403
 21
840.341570796923
  0
LINE
  5
4FC
100
AcDbEntity
  8
1
  6
CONTINUOUS
 62
           7
100
AcDbLine
 10
-299.861135123514
 20
842.453355364811
 11
-299.861135123514
 21
861.459416475807
  0
LINE
  5
4FB
100
AcDbEntity
  8
1
  6
CONTINUOUS
 62
           7
100
AcDbLine
 10
-327.314334506063
 20
840.341570796923
 11
-329.426119073951
 21
842.453355364811
  0
LINE
  5
4FA
100
AcDbEntity
  8
1
  6
CONTINUOUS
 62
           7
100
AcDbLine
 10
-299.861135123514
 20
842.453355364811
 11
-301.972919691403
 21
840.341570796923
  0
LINE
  5
4F9
100
AcDbEntity
  8
1
  6
CONTINUOUS
 62
           7
100
AcDbLine
 10
-329.426119073951
 20
842.453355364811
 11
-320.978980802398
 21
842.453355364811
  0
LINE
  5
4F8
100
AcDbEntity
  8
1
  6
CONTINUOUS
 62
           7
100
AcDbLine
 10
-320.978980802398
 20
853.012278204253
 11
-308.308273395068
 21
853.012278204253
  0
LINE
  5
4F7
100
AcDbEntity
  8
1
  6
CONTINUOUS
 62
           7
100
AcDbLine
 10
-308.308273395068
 20
853.012278204253
 11
-308.308273395068
 21
842.453355364811
  0
LINE
  5
4F6
100
AcDbEntity
  8
1
  6
CONTINUOUS
 62
           7
100
AcDbLine
 10
-308.308273395068
 20
842.453355364811
 11
-299.861135123514
 21
842.453355364811
  0
LINE
  5
4F5
100
AcDbEntity
  8
1
  6
CONTINUOUS
 62
           7
100
AcDbLine
 10
-320.978980802398
 20
842.453355364811
 11
-320.978980802398
 21
853.012278204253
  0
LINE
  5
4F4
100
AcDbEntity
  8
1
  6
CONTINUOUS
 62
           7
100
AcDbLine
 10
-331.712978541105
 20
906.510820590757
 11
-297.574275656361
 21
906.510820590757
  0
LINE
  5
4F3
100
AcDbEntity
  8
1
  6
CONTINUOUS
 62
           7
100
AcDbLine
 10
-332.241831831136
 20
906.510820590757
 11
-297.04542236633
 21
906.510820590757
  0
LINE
  5
4F2
100
AcDbEntity
  8
1
  6
CONTINUOUS
 62
           7
100
AcDbLine
 10
-297.04542236633
 20
906.510820590757
 11
-297.04542236633
 21
861.459416475807
  0
LINE
  5
4F1
100
AcDbEntity
  8
1
  6
CONTINUOUS
 62
           7
100
AcDbLine
 10
-332.241831831136
 20
861.459416475807
 11
-332.241831831136
 21
906.510820590757
  0
LINE
  5
4F0
100
AcDbEntity
  8
1
  6
CONTINUOUS
 62
           7
100
AcDbLine
 10
-331.712978541105
 20
906.510820590757
 11
-331.712978541105
 21
926.308347340681
  0
LINE
  5
4EF
100
AcDbEntity
  8
1
  6
CONTINUOUS
 62
           7
100
AcDbLine
 10
-323.178302819919
 20
926.308347340681
 11
-323.178302819919
 21
906.510820590757
  0
LINE
  5
4EE
100
AcDbEntity
  8
1
  6
CONTINUOUS
 62
           7
100
AcDbLine
 10
-306.108951377547
 20
906.510820590757
 11
-306.108951377547
 21
926.308347340681
  0
LINE
  5
4ED
100
AcDbEntity
  8
1
  6
CONTINUOUS
 62
           7
100
AcDbLine
 10
-297.574275656361
 20
906.510820590757
 11
-297.574275656361
 21
926.308347340681
  0
LINE
  5
4EC
100
AcDbEntity
  8
1
  6
CONTINUOUS
 62
           7
100
AcDbLine
 10
-297.574275656361
 20
926.308347340681
 11
-299.861135123514
 21
927.628666269641
  0
LINE
  5
4EB
100
AcDbEntity
  8
1
  6
CONTINUOUS
 62
           7
100
AcDbLine
 10
-299.861135123514
 20
927.628666269641
 11
-314.643627098733
 21
927.628666269641
  0
LINE
  5
4EA
100
AcDbEntity
  8
1
  6
CONTINUOUS
 62
           7
100
AcDbLine
 10
-314.643627098733
 20
927.628666269641
 11
-329.426119073951
 21
927.628666269641
  0
LINE
  5
4E9
100
AcDbEntity
  8
1
  6
CONTINUOUS
 62
           7
100
AcDbLine
 10
-331.712978541105
 20
926.308347340681
 11
-329.426119073951
 21
927.628666269641
  0
LINE
  5
4E8
100
AcDbEntity
  8
1
  6
CONTINUOUS
 62
           7
100
AcDbLine
 10
-308.708667749139
 20
840.341570796923
 11
-310.074783742291
 21
807.300203811969
  0
LINE
  5
4E7
100
AcDbEntity
  8
1
  6
CONTINUOUS
 62
           7
100
AcDbLine
 10
-313.039730269322
 20
804.455311706605
 11
-316.247523928143
 21
804.455311706605
  0
LINE
  5
4E6
100
AcDbEntity
  8
1
  6
CONTINUOUS
 62
           7
100
AcDbLine
 10
-319.212470455174
 20
807.300203811969
 11
-320.578586448326
 21
840.341570796923
  0
LINE
  5
4E5
100
AcDbEntity
  8
1
  6
CONTINUOUS
 62
           7
100
AcDbLine
 10
-319.831000435
 20
822.260189755386
 11
-309.456253762465
 21
822.260189755386
  0
LINE
  5
4E4
100
AcDbEntity
  8
1
  6
CONTINUOUS
 62
           7
100
AcDbLine
 10
-319.585615826976
 20
816.325230405792
 11
-309.701638370489
 21
816.325230405792
  0
LINE
  5
4E3
100
AcDbEntity
  8
1
  6
CONTINUOUS
 62
           7
100
AcDbLine
 10
-319.340231218952
 20
810.390271056199
 11
-309.947022978513
 21
810.390271056199
  0
LINE
  5
4E2
100
AcDbEntity
  8
1
  6
CONTINUOUS
 62
           7
100
AcDbLine
 10
-343.187226985185
 20
1547.941702925727
 11
-343.187226985185
 21
1491.996357320528
  0
LINE
  5
4E1
100
AcDbEntity
  8
1
  6
CONTINUOUS
 62
           7
100
AcDbLine
 10
-375.829503407949
 20
1443.189670405402
 11
-363.959584708762
 21
1443.189670405402
  0
LINE
  5
4E0
100
AcDbEntity
  8
1
  6
CONTINUOUS
 62
           7
100
AcDbLine
 10
-375.829503407949
 20
1456.840076909467
 11
-363.959584708762
 21
1456.840076909467
  0
LINE
  5
4DF
100
AcDbEntity
  8
1
  6
DASH_CENTER
 62
           2
100
AcDbLine
 10
-359.690396099803
 20
1450.014873657434
 11
-349.695771655995
 21
1450.014873657434
  0
LINE
  5
4DE
100
AcDbEntity
  8
1
  6
CONTINUOUS
 62
           7
100
AcDbLine
 10
-355.992126929777
 20
1446.602272031418
 11
-351.889473705448
 21
1446.602272031418
  0
LINE
  5
4DD
100
AcDbEntity
  8
1
  6
CONTINUOUS
 62
           7
100
AcDbLine
 10
-355.992126929777
 20
1453.42747528345
 11
-351.889473705448
 21
1453.42747528345
  0
LINE
  5
4DC
100
AcDbEntity
  8
1
  6
CONTINUOUS
 62
           7
100
AcDbLine
 10
-351.889473705448
 20
1443.189670405402
 11
-355.992126929777
 21
1443.189670405402
  0
LINE
  5
4DB
100
AcDbEntity
  8
1
  6
CONTINUOUS
 62
           7
100
AcDbLine
 10
-351.36154239663
 20
1455.925673059687
 11
-351.36154239663
 21
1444.104074255182
  0
LINE
  5
4DA
100
AcDbEntity
  8
1
  6
CONTINUOUS
 62
           7
100
AcDbLine
 10
-355.992126929777
 20
1456.840076909467
 11
-351.889473705448
 21
1456.840076909467
  0
LINE
  5
4D9
100
AcDbEntity
  8
1
  6
CONTINUOUS
 62
           7
100
AcDbLine
 10
-355.992126929777
 20
1443.189670405402
 11
-356.520058238595
 21
1444.104074255182
  0
LINE
  5
4D8
100
AcDbEntity
  8
1
  6
CONTINUOUS
 62
           7
100
AcDbLine
 10
-351.36154239663
 20
1444.104074255182
 11
-351.889473705448
 21
1443.189670405402
  0
LINE
  5
4D7
100
AcDbEntity
  8
1
  6
CONTINUOUS
 62
           7
100
AcDbLine
 10
-351.889473705448
 20
1456.840076909467
 11
-351.36154239663
 21
1455.925673059687
  0
LINE
  5
4D6
100
AcDbEntity
  8
1
  6
CONTINUOUS
 62
           7
100
AcDbLine
 10
-356.520058238595
 20
1455.925673059687
 11
-355.992126929777
 21
1456.840076909467
  0
LINE
  5
4D5
100
AcDbEntity
  8
1
  6
CONTINUOUS
 62
           7
100
AcDbLine
 10
-356.520058238595
 20
1443.674197935018
 11
-358.024625359169
 21
1443.674197935018
  0
LINE
  5
4D4
100
AcDbEntity
  8
1
  6
CONTINUOUS
 62
           7
100
AcDbLine
 10
-356.520058238595
 20
1456.35554937985
 11
-356.520058238595
 21
1443.674197935018
  0
LINE
  5
4D3
100
AcDbEntity
  8
1
  6
CONTINUOUS
 62
           7
100
AcDbLine
 10
-358.024625359169
 20
1456.35554937985
 11
-356.520058238595
 21
1456.35554937985
  0
LINE
  5
4D2
100
AcDbEntity
  8
1
  6
CONTINUOUS
 62
           7
100
AcDbLine
 10
-358.024625359169
 20
1449.162285622443
 11
-356.520058238595
 21
1449.592161942606
  0
LINE
  5
4D1
100
AcDbEntity
  8
1
  6
CONTINUOUS
 62
           7
100
AcDbLine
 10
-358.024625359169
 20
1450.437585372262
 11
-356.520058238595
 21
1450.867461692426
  0
LINE
  5
4D0
100
AcDbEntity
  8
1
  6
CONTINUOUS
 62
           7
100
AcDbLine
 10
-358.024625359169
 20
1441.112434633044
 11
-363.959584708762
 21
1441.112434633044
  0
LINE
  5
4CF
100
AcDbEntity
  8
1
  6
CONTINUOUS
 62
           7
100
AcDbLine
 10
-358.024625359169
 20
1463.15014808605
 11
-358.024625359169
 21
1441.112434633044
  0
LINE
  5
4CE
100
AcDbEntity
  8
1
  6
CONTINUOUS
 62
           7
100
AcDbLine
 10
-344.991474758783
 20
1485.705312992035
 11
-357.12250147237
 21
1466.295670250297
  0
LINE
  5
4CD
100
AcDbEntity
  8
1
  6
CONTINUOUS
 62
           7
100
AcDbLine
 10
-349.122186334779
 20
1491.996357320528
 11
-349.122186334779
 21
1547.941702925727
  0
LINE
  5
4CC
100
AcDbEntity
  8
1
  6
CONTINUOUS
 62
           7
100
AcDbLine
 10
-362.155336935164
 20
1469.441192414543
 11
-350.024310221578
 21
1488.850835156282
  0
LINE
  5
4CB
100
AcDbEntity
  8
1
  6
CONTINUOUS
 62
           7
100
AcDbLine
 10
-363.959584708762
 20
1441.112434633044
 11
-363.959584708762
 21
1463.15014808605
  0
LINE
  5
4CA
100
AcDbEntity
  8
1
  6
CONTINUOUS
 62
           7
100
AcDbLine
 10
-409.955519668112
 20
1417.533295027468
 11
-409.955519668112
 21
1416.55488850583
  0
LINE
  5
4C9
100
AcDbEntity
  8
1
  6
CONTINUOUS
 62
           7
100
AcDbLine
 10
-411.43925950551
 20
1417.533295027468
 11
-411.43925950551
 21
1416.55488850583
  0
LINE
  5
4C8
100
AcDbEntity
  8
1
  6
CONTINUOUS
 62
           7
100
AcDbLine
 10
-406.635497017432
 20
1420.340076909467
 11
-375.829503407949
 21
1420.340076909467
  0
LINE
  5
4C7
100
AcDbEntity
  8
1
  6
CONTINUOUS
 62
           7
100
AcDbLine
 10
-403.668017342635
 20
1482.657150080199
 11
-378.612471646411
 21
1482.657150080199
  0
LINE
  5
4C6
100
AcDbEntity
  8
1
  6
CONTINUOUS
 62
           7
100
AcDbLine
 10
-378.796983082746
 20
1765.325230405792
 11
-378.796983082746
 21
1545.243994130457
  0
LINE
  5
4C5
100
AcDbEntity
  8
1
  6
CONTINUOUS
 62
           7
100
AcDbLine
 10
-414.406739180307
 20
1747.520352357012
 11
-414.406739180307
 21
1675.763139235334
  0
LINE
  5
4C4
100
AcDbEntity
  8
1
  6
CONTINUOUS
 62
           7
100
AcDbLine
 10
-481.953685748866
 20
1747.520352357012
 11
-396.601861131526
 21
1747.520352357012
  0
LINE
  5
4C3
100
AcDbEntity
  8
1
  6
CONTINUOUS
 62
           7
100
AcDbLine
 10
-481.953685748866
 20
1783.130108454573
 11
-396.601861131526
 21
1783.130108454573
  0
LINE
  5
4C2
100
AcDbEntity
  8
1
  6
CONTINUOUS
 62
           7
100
AcDbLine
 10
-378.796983082746
 20
1545.243994130457
 11
-403.668017342635
 21
1545.243994130457
  0
LINE
  5
4C1
100
AcDbEntity
  8
1
  6
CONTINUOUS
 62
           7
100
AcDbLine
 10
-378.796983082746
 20
1497.764319333709
 11
-378.796983082746
 21
1545.243994130457
  0
LINE
  5
4C0
100
AcDbEntity
  8
1
  6
CONTINUOUS
 62
           7
100
AcDbLine
 10
-383.248202594941
 20
1482.657150080199
 11
-383.248202594941
 21
1479.689670405402
  0
LINE
  5
4BF
100
AcDbEntity
  8
1
  6
CONTINUOUS
 62
           7
100
AcDbLine
 10
-381.764462757543
 20
1482.657150080199
 11
-381.764462757543
 21
1479.689670405402
  0
LINE
  5
4BE
100
AcDbEntity
  8
1
  6
CONTINUOUS
 62
           7
100
AcDbLine
 10
-384.608934808116
 20
1495.909007174736
 11
-384.608934808116
 21
1484.512462239173
  0
LINE
  5
4BD
100
AcDbEntity
  8
1
  6
CONTINUOUS
 62
           7
100
AcDbLine
 10
-372.616008484706
 20
1484.512462239173
 11
-372.616008484706
 21
1495.909007174736
  0
LINE
  5
4BC
100
AcDbEntity
  8
1
  6
CONTINUOUS
 62
           7
100
AcDbLine
 10
-378.612471646411
 20
1497.764319333709
 11
-403.668017342635
 21
1497.764319333709
  0
LINE
  5
4BB
100
AcDbEntity
  8
1
  6
CONTINUOUS
 62
           7
100
AcDbLine
 10
-383.248202594941
 20
1420.340076909467
 11
-383.248202594941
 21
1416.55488850583
  0
LINE
  5
4BA
100
AcDbEntity
  8
1
  6
CONTINUOUS
 62
           7
100
AcDbLine
 10
-381.764462757543
 20
1420.340076909467
 11
-381.764462757543
 21
1416.55488850583
  0
LINE
  5
4B9
100
AcDbEntity
  8
1
  6
CONTINUOUS
 62
           7
100
AcDbLine
 10
-411.43925950551
 20
1401.447719252318
 11
-411.43925950551
 21
1395.512759902725
  0
LINE
  5
4B8
100
AcDbEntity
  8
1
  6
CONTINUOUS
 62
           7
100
AcDbLine
 10
-409.955519668112
 20
1401.447719252318
 11
-409.955519668112
 21
1395.512759902725
  0
LINE
  5
4B7
100
AcDbEntity
  8
1
  6
CONTINUOUS
 62
           7
100
AcDbLine
 10
-383.248202594941
 20
1401.447719252318
 11
-383.248202594941
 21
1395.512759902725
  0
LINE
  5
4B6
100
AcDbEntity
  8
1
  6
CONTINUOUS
 62
           7
100
AcDbLine
 10
-381.764462757543
 20
1401.447719252318
 11
-381.764462757543
 21
1395.512759902725
  0
LINE
  5
4B5
100
AcDbEntity
  8
1
  6
CONTINUOUS
 62
           7
100
AcDbLine
 10
-375.829503407949
 20
1479.689670405402
 11
-403.668017342635
 21
1479.689670405402
  0
LINE
  5
4B4
100
AcDbEntity
  8
1
  6
CONTINUOUS
 62
           7
100
AcDbLine
 10
-375.829503407949
 20
1420.340076909467
 11
-375.829503407949
 21
1479.689670405402
  0
LINE
  5
4B3
100
AcDbEntity
  8
1
  6
CONTINUOUS
 62
           7
100
AcDbLine
 10
-420.587713778347
 20
1414.699576346856
 11
-420.587713778347
 21
1403.303031411293
  0
LINE
  5
4B2
100
AcDbEntity
  8
1
  6
CONTINUOUS
 62
           7
100
AcDbLine
 10
-414.591250616642
 20
1401.447719252318
 11
-378.612471646411
 21
1401.447719252318
  0
LINE
  5
4B1
100
AcDbEntity
  8
1
  6
CONTINUOUS
 62
           7
100
AcDbLine
 10
-378.612471646411
 20
1416.55488850583
 11
-414.591250616642
 21
1416.55488850583
  0
LINE
  5
4B0
100
AcDbEntity
  8
1
  6
CONTINUOUS
 62
           7
100
AcDbLine
 10
-372.616008484706
 20
1403.303031411293
 11
-372.616008484706
 21
1414.699576346856
  0
LINE
  5
4AF
100
AcDbEntity
  8
1
  6
CONTINUOUS
 62
           7
100
AcDbLine
 10
-408.594787454937
 20
1414.699576346856
 11
-408.594787454937
 21
1403.303031411293
  0
LINE
  5
4AE
100
AcDbEntity
  8
1
  6
CONTINUOUS
 62
           7
100
AcDbLine
 10
-384.608934808116
 20
1414.699576346856
 11
-384.608934808116
 21
1403.303031411293
  0
LINE
  5
4AD
100
AcDbEntity
  8
1
  6
CONTINUOUS
 62
           7
100
AcDbLine
 10
-378.998915850338
 20
1297.583826936215
 11
-378.774683677271
 21
1290.40839739809
  0
LINE
  5
4AC
100
AcDbEntity
  8
1
  6
CONTINUOUS
 62
           7
100
AcDbLine
 10
-414.204806412715
 20
1297.583826936215
 11
-414.429038585781
 21
1290.40839739809
  0
LINE
  5
4AB
100
AcDbEntity
  8
1
  6
CONTINUOUS
 62
           7
100
AcDbLine
 10
-396.601861131526
 20
1297.583826936215
 11
-414.204806412715
 21
1297.583826936215
  0
LINE
  5
4AA
100
AcDbEntity
  8
1
  6
CONTINUOUS
 62
           2
100
AcDbLine
 10
-412.13539068398
 20
1297.583826936215
 11
-414.406739180307
 21
1291.121978373272
  0
LINE
  5
4A9
100
AcDbEntity
  8
1
  6
CONTINUOUS
 62
           7
100
AcDbLine
 10
-413.926539452634
 20
1306.488369658822
 11
-414.204806412715
 21
1297.583826936215
  0
LINE
  5
4A8
100
AcDbEntity
  8
1
  6
CONTINUOUS
 62
           2
100
AcDbLine
 10
-381.068331579072
 20
1297.583826936215
 11
-378.796983082746
 21
1291.121978373272
  0
LINE
  5
4A7
100
AcDbEntity
  8
1
  6
CONTINUOUS
 62
           2
100
AcDbLine
 10
-411.857123723899
 20
1306.488369658822
 11
-412.13539068398
 21
1297.583826936215
  0
LINE
  5
4A6
100
AcDbEntity
  8
1
  6
CONTINUOUS
 62
           2
100
AcDbLine
 10
-381.346598539154
 20
1306.488369658822
 11
-381.068331579072
 21
1297.583826936215
  0
LINE
  5
4A5
100
AcDbEntity
  8
1
  6
CONTINUOUS
 62
           7
100
AcDbLine
 10
-379.27718281042
 20
1306.488369658822
 11
-378.998915850338
 21
1297.583826936215
  0
LINE
  5
4A4
100
AcDbEntity
  8
1
  6
CONTINUOUS
 62
           7
100
AcDbLine
 10
-396.601861131526
 20
1297.583826936215
 11
-378.998915850338
 21
1297.583826936215
  0
LINE
  5
4A3
100
AcDbEntity
  8
1
  6
CONTINUOUS
 62
           7
100
AcDbLine
 10
-384.731942432339
 20
1291.121978373272
 11
-408.471779830713
 21
1291.121978373272
  0
LINE
  5
4A2
100
AcDbEntity
  8
1
  6
CONTINUOUS
 62
           7
100
AcDbLine
 10
-439.277773440196
 20
1322.809507870204
 11
-429.24413755429
 21
1318.358288358009
  0
LINE
  5
4A1
100
AcDbEntity
  8
1
  6
CONTINUOUS
 62
           7
100
AcDbLine
 10
-429.24413755429
 20
1383.642841203538
 11
-439.277773440196
 21
1379.191621691343
  0
LINE
  5
4A0
100
AcDbEntity
  8
1
  6
CONTINUOUS
 62
           7
100
AcDbLine
 10
-371.224933096499
 20
1374.740402179148
 11
-371.224933096499
 21
1327.260727382399
  0
LINE
  5
49F
100
AcDbEntity
  8
1
  6
CONTINUOUS
 62
           7
100
AcDbLine
 10
-429.24413755429
 20
1306.488369658822
 11
-417.374218855103
 21
1306.488369658822
  0
LINE
  5
49E
100
AcDbEntity
  8
1
  6
CONTINUOUS
 62
           7
100
AcDbLine
 10
-429.24413755429
 20
1395.512759902725
 11
-429.24413755429
 21
1306.488369658822
  0
LINE
  5
49D
100
AcDbEntity
  8
1
  6
CONTINUOUS
 62
           7
100
AcDbLine
 10
-417.374218855103
 20
1395.512759902725
 11
-429.24413755429
 21
1395.512759902725
  0
LINE
  5
49C
100
AcDbEntity
  8
1
  6
CONTINUOUS
 62
           7
100
AcDbLine
 10
-396.601861131526
 20
1374.740402179148
 11
-396.601861131526
 21
1327.260727382399
  0
LINE
  5
49B
100
AcDbEntity
  8
1
  6
CONTINUOUS
 62
           7
100
AcDbLine
 10
-417.374218855103
 20
1395.512759902725
 11
-417.374218855103
 21
1306.488369658822
  0
LINE
  5
49A
100
AcDbEntity
  8
1
  6
CONTINUOUS
 62
           7
100
AcDbLine
 10
-375.829503407949
 20
1395.512759902725
 11
-417.374218855103
 21
1395.512759902725
  0
LINE
  5
499
100
AcDbEntity
  8
1
  6
CONTINUOUS
 62
           7
100
AcDbLine
 10
-375.829503407949
 20
1374.740402179148
 11
-375.829503407949
 21
1395.512759902725
  0
LINE
  5
498
100
AcDbEntity
  8
1
  6
CONTINUOUS
 62
           7
100
AcDbLine
 10
-363.959584708762
 20
1374.740402179148
 11
-396.601861131526
 21
1374.740402179148
  0
LINE
  5
497
100
AcDbEntity
  8
1
  6
CONTINUOUS
 62
           7
100
AcDbLine
 10
-363.959584708762
 20
1327.260727382399
 11
-363.959584708762
 21
1374.740402179148
  0
LINE
  5
496
100
AcDbEntity
  8
1
  6
CONTINUOUS
 62
           7
100
AcDbLine
 10
-396.601861131526
 20
1327.260727382399
 11
-363.959584708762
 21
1327.260727382399
  0
LINE
  5
495
100
AcDbEntity
  8
1
  6
CONTINUOUS
 62
           7
100
AcDbLine
 10
-375.829503407949
 20
1306.488369658822
 11
-375.829503407949
 21
1327.260727382399
  0
LINE
  5
494
100
AcDbEntity
  8
1
  6
CONTINUOUS
 62
           7
100
AcDbLine
 10
-417.374218855103
 20
1306.488369658822
 11
-375.829503407949
 21
1306.488369658822
  0
LINE
  5
493
100
AcDbEntity
  8
1
  6
CONTINUOUS
 62
           7
100
AcDbLine
 10
-410.308062643996
 20
1288.154498698475
 11
-410.308062643996
 21
1237.70734422693
  0
LINE
  5
492
100
AcDbEntity
  8
1
  6
CONTINUOUS
 62
           7
100
AcDbLine
 10
-382.895659619057
 20
1288.154498698475
 11
-382.895659619057
 21
1234.739864552134
  0
LINE
  5
491
100
AcDbEntity
  8
1
  6
CONTINUOUS
 62
           7
100
AcDbLine
 10
-376.042558862823
 20
1231.772384877337
 11
-403.668017342635
 21
1231.772384877337
  0
LINE
  5
490
100
AcDbEntity
  8
1
  6
CONTINUOUS
 62
           7
100
AcDbLine
 10
-417.16116340023
 20
1291.121978373272
 11
-376.042558862823
 21
1291.121978373272
  0
LINE
  5
48F
100
AcDbEntity
  8
1
  6
CONTINUOUS
 62
           7
100
AcDbLine
 10
-369.189458106589
 20
1288.154498698475
 11
-369.189458106589
 21
1234.739864552134
  0
LINE
  5
48E
100
AcDbEntity
  8
1
  6
CONTINUOUS
 62
           7
100
AcDbLine
 10
-424.014264156464
 20
1237.70734422693
 11
-424.014264156464
 21
1288.154498698475
  0
LINE
  5
48D
100
AcDbEntity
  8
1
  6
CONTINUOUS
 62
           7
100
AcDbLine
 10
637.000301606652
 20
1798.561002763516
 11
637.000301606652
 21
1786.097588129369
  0
LINE
  5
48C
100
AcDbEntity
  8
1
  6
CONTINUOUS
 62
           7
100
AcDbLine
 10
619.195423557872
 20
1786.097588129369
 11
619.195423557872
 21
1798.561002763516
  0
LINE
  5
48B
100
AcDbEntity
  8
1
  6
CONTINUOUS
 62
           7
100
AcDbLine
 10
-485.273708399546
 20
1744.552872682216
 11
-485.273708399546
 21
1738.617913332622
  0
LINE
  5
48A
100
AcDbEntity
  8
1
  6
CONTINUOUS
 62
           7
100
AcDbLine
 10
-486.757448236945
 20
1744.552872682216
 11
-486.757448236945
 21
1738.617913332622
  0
LINE
  5
489
100
AcDbEntity
  8
1
  6
CONTINUOUS
 62
           7
100
AcDbLine
 10
-504.562326285725
 20
1744.552872682216
 11
-504.562326285725
 21
1738.617913332622
  0
LINE
  5
488
100
AcDbEntity
  8
1
  6
CONTINUOUS
 62
           7
100
AcDbLine
 10
-506.046066123123
 20
1744.552872682216
 11
-506.046066123123
 21
1738.617913332622
  0
LINE
  5
487
100
AcDbEntity
  8
1
  6
CONTINUOUS
 62
           7
100
AcDbLine
 10
-486.236873721512
 20
1724.374010893597
 11
-486.236873721512
 21
1737.160168064856
  0
LINE
  5
486
100
AcDbEntity
  8
1
  6
CONTINUOUS
 62
           7
100
AcDbLine
 10
-505.082900801157
 20
1724.374010893597
 11
-505.082900801157
 21
1737.160168064856
  0
LINE
  5
485
100
AcDbEntity
  8
1
  6
CONTINUOUS
 62
           7
100
AcDbLine
 10
-476.81386018169
 20
1737.160168064856
 11
-476.81386018169
 21
1724.374010893597
  0
LINE
  5
484
100
AcDbEntity
  8
1
  6
CONTINUOUS
 62
           7
100
AcDbLine
 10
-511.981025472717
 20
1738.617913332622
 11
-479.338749049953
 21
1738.617913332622
  0
LINE
  5
483
100
AcDbEntity
  8
1
  6
CONTINUOUS
 62
           7
100
AcDbLine
 10
-514.50591434098
 20
1724.374010893597
 11
-514.50591434098
 21
1737.160168064856
  0
LINE
  5
482
100
AcDbEntity
  8
1
  6
CONTINUOUS
 62
           7
100
AcDbLine
 10
-479.338749049953
 20
1738.617913332622
 11
-476.81386018169
 21
1737.160168064856
  0
LINE
  5
481
100
AcDbEntity
  8
1
  6
CONTINUOUS
 62
           7
100
AcDbLine
 10
-514.50591434098
 20
1737.160168064856
 11
-511.981025472717
 21
1738.617913332622
  0
LINE
  5
480
100
AcDbEntity
  8
1
  6
CONTINUOUS
 62
           7
100
AcDbLine
 10
-471.674034614514
 20
1765.325230405791
 11
-483.666960937924
 21
1786.097588129369
  0
LINE
  5
47F
100
AcDbEntity
  8
1
  6
CONTINUOUS
 62
           7
100
AcDbLine
 10
-483.666960937925
 20
1744.552872682215
 11
-471.674034614514
 21
1765.325230405791
  0
LINE
  5
47E
100
AcDbEntity
  8
1
  6
CONTINUOUS
 62
           7
100
AcDbLine
 10
-507.652813584745
 20
1744.552872682216
 11
-483.666960937925
 21
1744.552872682215
  0
LINE
  5
47D
100
AcDbEntity
  8
1
  6
CONTINUOUS
 62
           7
100
AcDbLine
 10
-519.645739908156
 20
1765.325230405792
 11
-507.652813584745
 21
1744.552872682216
  0
LINE
  5
47C
100
AcDbEntity
  8
1
  6
CONTINUOUS
 62
           7
100
AcDbLine
 10
-507.652813584745
 20
1786.097588129369
 11
-519.645739908156
 21
1765.325230405792
  0
LINE
  5
47B
100
AcDbEntity
  8
1
  6
CONTINUOUS
 62
           7
100
AcDbLine
 10
-483.666960937924
 20
1786.097588129369
 11
-507.652813584745
 21
1786.097588129369
  0
LINE
  5
47A
100
AcDbEntity
  8
1
  6
CONTINUOUS
 62
           7
100
AcDbLine
 10
-546.107041732879
 20
1748.113848291971
 11
-546.107041732879
 21
1736.243929592784
  0
LINE
  5
479
100
AcDbEntity
  8
1
  6
CONTINUOUS
 62
           7
100
AcDbLine
 10
-587.651757180034
 20
1748.113848291971
 11
-546.107041732879
 21
1748.113848291971
  0
LINE
  5
478
100
AcDbEntity
  8
1
  6
CONTINUOUS
 62
           7
100
AcDbLine
 10
-587.651757180034
 20
1736.243929592784
 11
-587.651757180034
 21
1748.113848291971
  0
LINE
  5
477
100
AcDbEntity
  8
1
  6
CONTINUOUS
 62
           7
100
AcDbLine
 10
-543.139562058083
 20
1736.243929592784
 11
-543.139562058083
 21
1724.374010893597
  0
LINE
  5
476
100
AcDbEntity
  8
1
  6
CONTINUOUS
 62
           7
100
AcDbLine
 10
-590.619236854831
 20
1736.243929592784
 11
-543.139562058083
 21
1736.243929592784
  0
LINE
  5
475
100
AcDbEntity
  8
1
  6
CONTINUOUS
 62
           7
100
AcDbLine
 10
-590.619236854831
 20
1724.374010893597
 11
-590.619236854831
 21
1736.243929592784
  0
LINE
  5
474
100
AcDbEntity
  8
1
  6
CONTINUOUS
 62
           7
100
AcDbLine
 10
-292.791229630585
 20
990.505430958586
 11
-289.854025738338
 21
990.597218580219
  0
LINE
  5
473
100
AcDbEntity
  8
1
  6
CONTINUOUS
 62
           7
100
AcDbLine
 10
-292.791229630585
 20
974.502753430233
 11
-289.854025738338
 21
974.410965808601
  0
LINE
  5
472
100
AcDbEntity
  8
1
  6
CONTINUOUS
 62
           7
100
AcDbLine
 10
-292.791229630585
 20
982.50409219441
 11
-292.791229630585
 21
974.502753430233
  0
LINE
  5
471
100
AcDbEntity
  8
1
  6
CONTINUOUS
 62
           2
100
AcDbLine
 10
-292.791229630585
 20
975.443396943294
 11
-289.854025738338
 21
974.410965808601
  0
LINE
  5
470
100
AcDbEntity
  8
1
  6
CONTINUOUS
 62
           7
100
AcDbLine
 10
-296.838749049952
 20
974.629238412089
 11
-292.791229630585
 21
974.502753430233
  0
LINE
  5
46F
100
AcDbEntity
  8
1
  6
CONTINUOUS
 62
           2
100
AcDbLine
 10
-292.791229630585
 20
989.564787445525
 11
-289.854025738338
 21
990.597218580219
  0
LINE
  5
46E
100
AcDbEntity
  8
1
  6
CONTINUOUS
 62
           2
100
AcDbLine
 10
-296.838749049952
 20
975.56988192515
 11
-292.791229630585
 21
975.443396943294
  0
LINE
  5
46D
100
AcDbEntity
  8
1
  6
CONTINUOUS
 62
           2
100
AcDbLine
 10
-296.838749049952
 20
989.43830246367
 11
-292.791229630585
 21
989.564787445525
  0
LINE
  5
46C
100
AcDbEntity
  8
1
  6
CONTINUOUS
 62
           7
100
AcDbLine
 10
-296.838749049952
 20
990.378945976731
 11
-292.791229630585
 21
990.505430958586
  0
LINE
  5
46B
100
AcDbEntity
  8
1
  6
CONTINUOUS
 62
           7
100
AcDbLine
 10
-292.791229630585
 20
982.50409219441
 11
-292.791229630585
 21
990.505430958586
  0
LINE
  5
46A
100
AcDbEntity
  8
1
  6
CONTINUOUS
 62
           7
100
AcDbLine
 10
-271.83221158194
 20
990.597218580219
 11
-281.289490625544
 21
990.597218580219
  0
LINE
  5
469
100
AcDbEntity
  8
1
  6
CONTINUOUS
 62
           7
100
AcDbLine
 10
-271.009839491192
 20
989.787905941638
 11
-281.289490625544
 21
989.787905941638
  0
LINE
  5
468
100
AcDbEntity
  8
1
  6
CONTINUOUS
 62
           7
100
AcDbLine
 10
-271.009839491192
 20
975.220278447182
 11
-281.289490625544
 21
975.220278447182
  0
LINE
  5
467
100
AcDbEntity
  8
1
  6
CONTINUOUS
 62
           7
100
AcDbLine
 10
-271.83221158194
 20
974.410965808601
 11
-281.289490625544
 21
974.410965808601
  0
LINE
  5
466
100
AcDbEntity
  8
1
  6
CONTINUOUS
 62
           7
100
AcDbLine
 10
-282.084624407961
 20
992.783743328762
 11
-281.289490625544
 21
991.4065312188
  0
LINE
  5
465
100
AcDbEntity
  8
1
  6
CONTINUOUS
 62
           7
100
AcDbLine
 10
-281.289490625544
 20
973.60165317002
 11
-282.084624407961
 21
972.224441060058
  0
LINE
  5
464
100
AcDbEntity
  8
1
  6
CONTINUOUS
 62
           7
100
AcDbLine
 10
-289.058891955921
 20
992.783743328762
 11
-282.084624407961
 21
992.783743328762
  0
LINE
  5
463
100
AcDbEntity
  8
1
  6
CONTINUOUS
 62
           7
100
AcDbLine
 10
-281.289490625544
 20
991.4065312188
 11
-281.289490625544
 21
973.60165317002
  0
LINE
  5
462
100
AcDbEntity
  8
1
  6
CONTINUOUS
 62
           7
100
AcDbLine
 10
-282.084624407961
 20
972.224441060058
 11
-289.058891955921
 21
972.224441060058
  0
LINE
  5
461
100
AcDbEntity
  8
1
  6
CONTINUOUS
 62
           7
100
AcDbLine
 10
-289.058891955921
 20
987.643917761586
 11
-282.084624407961
 21
987.643917761586
  0
LINE
  5
460
100
AcDbEntity
  8
1
  6
CONTINUOUS
 62
           7
100
AcDbLine
 10
-289.058891955921
 20
977.364266627234
 11
-282.084624407961
 21
977.364266627234
  0
LINE
  5
45F
100
AcDbEntity
  8
1
  6
CONTINUOUS
 62
           7
100
AcDbLine
 10
-289.854025738338
 20
973.60165317002
 11
-289.854025738338
 21
991.4065312188
  0
LINE
  5
45E
100
AcDbEntity
  8
1
  6
CONTINUOUS
 62
           7
100
AcDbLine
 10
-289.058891955921
 20
972.224441060058
 11
-289.854025738338
 21
973.60165317002
  0
LINE
  5
45D
100
AcDbEntity
  8
1
  6
CONTINUOUS
 62
           7
100
AcDbLine
 10
-289.854025738338
 20
991.4065312188
 11
-289.058891955921
 21
992.783743328762
  0
LINE
  5
45C
100
AcDbEntity
  8
1
  6
CONTINUOUS
 62
           7
100
AcDbLine
 10
-271.009839491192
 20
989.774846489471
 11
-271.009839491192
 21
975.233337899349
  0
LINE
  5
45B
100
AcDbEntity
  8
1
  6
CONTINUOUS
 62
           7
100
AcDbLine
 10
-271.009839491192
 20
989.774846489471
 11
-271.83221158194
 21
990.597218580219
  0
LINE
  5
45A
100
AcDbEntity
  8
1
  6
CONTINUOUS
 62
           7
100
AcDbLine
 10
-271.009839491192
 20
975.233337899349
 11
-271.83221158194
 21
974.410965808601
  0
LINE
  5
459
100
AcDbEntity
  8
1
  6
CONTINUOUS
 62
           7
100
AcDbLine
 10
-271.83221158194
 20
990.597218580219
 11
-271.83221158194
 21
974.410965808601
  0
LINE
  5
458
100
AcDbEntity
  8
1
  6
CONTINUOUS
 62
           7
100
AcDbLine
 10
-528.302163684099
 20
986.215124010441
 11
-528.302163684099
 21
994.374010893597
  0
LINE
  5
457
100
AcDbEntity
  8
1
  6
CONTINUOUS
 62
           7
100
AcDbLine
 10
-492.692407586538
 20
963.215474308231
 11
-486.757448236945
 21
963.215474308231
  0
LINE
  5
456
100
AcDbEntity
  8
1
  6
CONTINUOUS
 62
           7
100
AcDbLine
 10
-492.692407586538
 20
964.69921414563
 11
-486.757448236945
 21
964.69921414563
  0
LINE
  5
455
100
AcDbEntity
  8
1
  6
CONTINUOUS
 62
           7
100
AcDbLine
 10
-492.692407586538
 20
988.439051544004
 11
-486.757448236945
 21
988.439051544004
  0
LINE
  5
454
100
AcDbEntity
  8
1
  6
CONTINUOUS
 62
           7
100
AcDbLine
 10
-492.692407586538
 20
989.922791381402
 11
-486.757448236945
 21
989.922791381402
  0
LINE
  5
453
100
AcDbEntity
  8
1
  6
CONTINUOUS
 62
           7
100
AcDbLine
 10
-439.277773440196
 20
963.215474308231
 11
-433.47434166883
 21
963.215474308231
  0
LINE
  5
452
100
AcDbEntity
  8
1
  6
CONTINUOUS
 62
           7
100
AcDbLine
 10
-439.277773440196
 20
964.69921414563
 11
-433.47434166883
 21
964.69921414563
  0
LINE
  5
451
100
AcDbEntity
  8
1
  6
CONTINUOUS
 62
           7
100
AcDbLine
 10
-439.277773440196
 20
988.439051544004
 11
-433.47434166883
 21
988.439051544004
  0
LINE
  5
450
100
AcDbEntity
  8
1
  6
CONTINUOUS
 62
           7
100
AcDbLine
 10
-439.277773440196
 20
989.922791381402
 11
-433.47434166883
 21
989.922791381402
  0
LINE
  5
44F
100
AcDbEntity
  8
1
  6
CONTINUOUS
 62
           7
100
AcDbLine
 10
-483.789968562148
 20
976.569132844817
 11
-442.245253114993
 21
976.569132844817
  0
LINE
  5
44E
100
AcDbEntity
  8
1
  6
CONTINUOUS
 62
           7
100
AcDbLine
 10
-486.757448236945
 20
994.374010893597
 11
-486.757448236945
 21
958.764254796036
  0
LINE
  5
44D
100
AcDbEntity
  8
1
  6
CONTINUOUS
 62
           7
100
AcDbLine
 10
-439.277773440196
 20
994.374010893597
 11
-486.757448236945
 21
994.374010893597
  0
LINE
  5
44C
100
AcDbEntity
  8
1
  6
CONTINUOUS
 62
           7
100
AcDbLine
 10
-439.277773440196
 20
958.764254796036
 11
-439.277773440196
 21
994.374010893597
  0
LINE
  5
44B
100
AcDbEntity
  8
1
  6
CONTINUOUS
 62
           7
100
AcDbLine
 10
-486.757448236945
 20
958.764254796036
 11
-439.277773440196
 21
958.764254796036
  0
LINE
  5
44A
100
AcDbEntity
  8
1
  6
CONTINUOUS
 62
           7
100
AcDbLine
 10
-405.070042481805
 20
969.265170196725
 11
-405.070042481805
 21
983.873095492909
  0
LINE
  5
449
100
AcDbEntity
  8
1
  6
CONTINUOUS
 62
           7
100
AcDbLine
 10
-412.374005129898
 20
962.772758953976
 11
-412.374005129898
 21
990.365506735657
  0
LINE
  5
448
100
AcDbEntity
  8
1
  6
CONTINUOUS
 62
           7
100
AcDbLine
 10
-405.070042481805
 20
962.772758953976
 11
-412.374005129898
 21
962.772758953976
  0
LINE
  5
447
100
AcDbEntity
  8
1
  6
CONTINUOUS
 62
           7
100
AcDbLine
 10
-412.374005129898
 20
962.772758953976
 11
-412.374005129898
 21
961.961207548632
  0
LINE
  5
446
100
AcDbEntity
  8
1
  6
CONTINUOUS
 62
           7
100
AcDbLine
 10
-405.070042481805
 20
962.772758953976
 11
-412.374005129898
 21
962.772758953976
  0
LINE
  5
445
100
AcDbEntity
  8
1
  6
CONTINUOUS
 62
           7
100
AcDbLine
 10
-405.070042481805
 20
969.265170196725
 11
-405.070042481805
 21
962.772758953976
  0
LINE
  5
444
100
AcDbEntity
  8
1
  6
CONTINUOUS
 62
           7
100
AcDbLine
 10
-404.258491076461
 20
969.265170196725
 11
-405.070042481805
 21
969.265170196725
  0
LINE
  5
443
100
AcDbEntity
  8
1
  6
CONTINUOUS
 62
           7
100
AcDbLine
 10
-412.374005129898
 20
991.177058141001
 11
-412.374005129898
 21
990.365506735657
  0
LINE
  5
442
100
AcDbEntity
  8
1
  6
CONTINUOUS
 62
           7
100
AcDbLine
 10
-412.374005129898
 20
990.365506735657
 11
-405.070042481805
 21
990.365506735657
  0
LINE
  5
441
100
AcDbEntity
  8
1
  6
CONTINUOUS
 62
           7
100
AcDbLine
 10
-405.070042481805
 20
990.365506735657
 11
-405.070042481805
 21
983.873095492909
  0
LINE
  5
440
100
AcDbEntity
  8
2
  6
CONTINUOUS
 62
           7
100
AcDbLine
 10
-404.258491076461
 20
985.471571869207
 11
-404.258491076461
 21
983.873095492909
  0
LINE
  5
43F
100
AcDbEntity
  8
1
  6
CONTINUOUS
 62
           7
100
AcDbLine
 10
-405.070042481805
 20
983.873095492909
 11
-404.258491076461
 21
983.873095492909
  0
LINE
  5
43E
100
AcDbEntity
  8
2
  6
CONTINUOUS
 62
           7
100
AcDbLine
 10
-391.273668590965
 20
985.471571869207
 11
-391.273668590965
 21
989.922791381402
  0
LINE
  5
43D
100
AcDbEntity
  8
2
  6
CONTINUOUS
 62
           7
100
AcDbLine
 10
-404.258491076461
 20
967.666693820426
 11
-404.258491076461
 21
963.215474308231
  0
LINE
  5
43C
100
AcDbEntity
  8
2
  6
CONTINUOUS
 62
           7
100
AcDbLine
 10
-401.688578292873
 20
985.471571869207
 11
-393.843581374552
 21
985.471571869207
  0
LINE
  5
43B
100
AcDbEntity
  8
2
  6
CONTINUOUS
 62
           7
100
AcDbLine
 10
-401.688578292873
 20
967.666693820426
 11
-393.843581374552
 21
967.666693820426
  0
LINE
  5
43A
100
AcDbEntity
  8
2
  6
CONTINUOUS
 62
           7
100
AcDbLine
 10
-401.688578292873
 20
958.764254796036
 11
-393.843581374552
 21
958.764254796036
  0
LINE
  5
439
100
AcDbEntity
  8
2
  6
CONTINUOUS
 62
           7
100
AcDbLine
 10
-393.843581374552
 20
994.374010893597
 11
-401.688578292873
 21
994.374010893597
  0
LINE
  5
438
100
AcDbEntity
  8
2
  6
CONTINUOUS
 62
           7
100
AcDbLine
 10
-404.258491076461
 20
983.873095492909
 11
-404.258491076461
 21
967.666693820426
  0
LINE
  5
437
100
AcDbEntity
  8
2
  6
CONTINUOUS
 62
           7
100
AcDbLine
 10
-391.273668590965
 20
963.215474308231
 11
-391.273668590965
 21
967.666693820426
  0
LINE
  5
436
100
AcDbEntity
  8
2
  6
CONTINUOUS
 62
           7
100
AcDbLine
 10
-404.258491076461
 20
989.922791381402
 11
-404.258491076461
 21
985.471571869207
  0
LINE
  5
435
100
AcDbEntity
  8
2
  6
CONTINUOUS
 62
           7
100
AcDbLine
 10
-391.273668590965
 20
967.666693820426
 11
-391.273668590965
 21
985.471571869207
  0
LINE
  5
434
100
AcDbEntity
  8
1
  6
CONTINUOUS
 62
           7
100
AcDbLine
 10
-390.273188018457
 20
987.569996187241
 11
-385.933660343804
 21
987.434385947408
  0
LINE
  5
433
100
AcDbEntity
  8
1
  6
CONTINUOUS
 62
           7
100
AcDbLine
 10
-390.273188018457
 20
965.568269502393
 11
-385.933660343804
 21
965.703879742226
  0
LINE
  5
432
100
AcDbEntity
  8
1
  6
CONTINUOUS
 62
           7
100
AcDbLine
 10
-385.933660343804
 20
965.703879742226
 11
-385.933660343804
 21
976.569132844817
  0
LINE
  5
431
100
AcDbEntity
  8
1
  6
CONTINUOUS
 62
           7
100
AcDbLine
 10
-391.273668590965
 20
965.537004484502
 11
-390.273188018457
 21
965.568269502393
  0
LINE
  5
430
100
AcDbEntity
  8
1
  6
CONTINUOUS
 62
           2
100
AcDbLine
 10
-390.273188018457
 20
965.568269502393
 11
-385.933660343804
 21
967.093255748174
  0
LINE
  5
42F
100
AcDbEntity
  8
1
  6
CONTINUOUS
 62
           2
100
AcDbLine
 10
-390.273188018457
 20
987.569996187241
 11
-385.933660343804
 21
986.04500994146
  0
LINE
  5
42E
100
AcDbEntity
  8
1
  6
CONTINUOUS
 62
           2
100
AcDbLine
 10
-385.933660343804
 20
967.093255748174
 11
-379.928179944261
 21
967.28092701066
  0
LINE
  5
42D
100
AcDbEntity
  8
1
  6
CONTINUOUS
 62
           7
100
AcDbLine
 10
-385.933660343804
 20
965.703879742226
 11
-379.928179944261
 21
965.891551004711
  0
LINE
  5
42C
100
AcDbEntity
  8
1
  6
CONTINUOUS
 62
           2
100
AcDbLine
 10
-385.933660343804
 20
986.04500994146
 11
-379.928179944261
 21
985.857338678974
  0
LINE
  5
42B
100
AcDbEntity
  8
1
  6
CONTINUOUS
 62
           7
100
AcDbLine
 10
-385.933660343804
 20
987.434385947408
 11
-379.928179944261
 21
987.246714684922
  0
LINE
  5
42A
100
AcDbEntity
  8
1
  6
CONTINUOUS
 62
           7
100
AcDbLine
 10
-385.933660343804
 20
987.434385947408
 11
-385.933660343804
 21
976.569132844817
  0
LINE
  5
429
100
AcDbEntity
  8
1
  6
CONTINUOUS
 62
           7
100
AcDbLine
 10
-391.273668590965
 20
987.601261205132
 11
-390.273188018457
 21
987.569996187241
  0
LINE
  5
428
100
AcDbEntity
  8
2
  6
CONTINUOUS
 62
           7
100
AcDbLine
 10
-420.489519183332
 20
967.666693820426
 11
-420.489519183332
 21
985.471571869207
  0
LINE
  5
427
100
AcDbEntity
  8
2
  6
CONTINUOUS
 62
           7
100
AcDbLine
 10
-433.47434166883
 20
989.922791381402
 11
-433.47434166883
 21
985.471571869207
  0
LINE
  5
426
100
AcDbEntity
  8
2
  6
CONTINUOUS
 62
           7
100
AcDbLine
 10
-420.489519183332
 20
963.215474308231
 11
-420.489519183332
 21
967.666693820426
  0
LINE
  5
425
100
AcDbEntity
  8
2
  6
CONTINUOUS
 62
           7
100
AcDbLine
 10
-433.47434166883
 20
985.471571869207
 11
-433.47434166883
 21
967.666693820426
  0
LINE
  5
424
100
AcDbEntity
  8
2
  6
CONTINUOUS
 62
           7
100
AcDbLine
 10
-423.059431966921
 20
994.374010893597
 11
-430.904428885242
 21
994.374010893597
  0
LINE
  5
423
100
AcDbEntity
  8
2
  6
CONTINUOUS
 62
           7
100
AcDbLine
 10
-430.904428885242
 20
958.764254796036
 11
-423.059431966921
 21
958.764254796036
  0
LINE
  5
422
100
AcDbEntity
  8
2
  6
CONTINUOUS
 62
           7
100
AcDbLine
 10
-430.904428885242
 20
967.666693820426
 11
-423.059431966921
 21
967.666693820426
  0
LINE
  5
421
100
AcDbEntity
  8
2
  6
CONTINUOUS
 62
           7
100
AcDbLine
 10
-430.904428885242
 20
985.471571869207
 11
-423.059431966921
 21
985.471571869207
  0
LINE
  5
420
100
AcDbEntity
  8
2
  6
CONTINUOUS
 62
           7
100
AcDbLine
 10
-433.47434166883
 20
967.666693820426
 11
-433.47434166883
 21
963.215474308231
  0
LINE
  5
41F
100
AcDbEntity
  8
2
  6
CONTINUOUS
 62
           7
100
AcDbLine
 10
-420.489519183332
 20
985.471571869207
 11
-420.489519183332
 21
989.922791381402
  0
LINE
  5
41E
100
AcDbEntity
  8
1
  6
CONTINUOUS
 62
           7
100
AcDbLine
 10
-528.302163684099
 20
994.374010893597
 11
-528.302163684099
 21
1053.723604389532
  0
LINE
  5
41D
100
AcDbEntity
  8
1
  6
CONTINUOUS
 62
           7
100
AcDbLine
 10
-329.481025472717
 20
1202.097588129369
 11
-329.481025472717
 21
1190.227669430183
  0
LINE
  5
41C
100
AcDbEntity
  8
1
  6
CONTINUOUS
 62
           7
100
AcDbLine
 10
-347.285903521497
 20
1202.097588129369
 11
-329.481025472717
 21
1202.097588129369
  0
LINE
  5
41B
100
AcDbEntity
  8
1
  6
CONTINUOUS
 62
           7
100
AcDbLine
 10
-347.285903521497
 20
1190.227669430183
 11
-347.285903521497
 21
1202.097588129369
  0
LINE
  5
41A
100
AcDbEntity
  8
1
  6
CONTINUOUS
 62
           7
100
AcDbLine
 10
-308.708667749139
 20
1190.227669430183
 11
-308.708667749139
 21
1041.853685690345
  0
LINE
  5
419
100
AcDbEntity
  8
1
  6
CONTINUOUS
 62
           7
100
AcDbLine
 10
-368.058261245074
 20
1190.227669430183
 11
-308.708667749139
 21
1190.227669430183
  0
LINE
  5
418
100
AcDbEntity
  8
1
  6
CONTINUOUS
 62
           7
100
AcDbLine
 10
-368.058261245074
 20
1041.853685690345
 11
-368.058261245074
 21
1190.227669430183
  0
LINE
  5
417
100
AcDbEntity
  8
1
  6
CONTINUOUS
 62
           7
100
AcDbLine
 10
-379.928179944261
 20
1041.853685690345
 11
-379.928179944261
 21
952.829295446443
  0
LINE
  5
416
100
AcDbEntity
  8
1
  6
CONTINUOUS
 62
           7
100
AcDbLine
 10
-296.838749049952
 20
1041.853685690345
 11
-379.928179944261
 21
1041.853685690345
  0
LINE
  5
415
100
AcDbEntity
  8
1
  6
CONTINUOUS
 62
           7
100
AcDbLine
 10
-296.838749049952
 20
952.829295446443
 11
-296.838749049952
 21
1041.853685690345
  0
LINE
  5
414
100
AcDbEntity
  8
1
  6
CONTINUOUS
 62
           7
100
AcDbLine
 10
-379.928179944261
 20
952.829295446443
 11
-296.838749049952
 21
952.829295446443
  0
LINE
  5
413
100
AcDbEntity
  8
1
  6
CONTINUOUS
 62
           7
100
AcDbLine
 10
-379.928179944261
 20
1035.918726340752
 11
-296.838749049952
 21
1035.918726340752
  0
LINE
  5
412
100
AcDbEntity
  8
1
  6
CONTINUOUS
 62
           7
100
AcDbLine
 10
-379.928179944261
 20
1027.016287316362
 11
-296.838749049952
 21
1027.016287316362
  0
LINE
  5
411
100
AcDbEntity
  8
1
  6
CONTINUOUS
 62
           7
100
AcDbLine
 10
-379.928179944261
 20
1018.113848291971
 11
-296.838749049952
 21
1018.113848291971
  0
LINE
  5
410
100
AcDbEntity
  8
1
  6
CONTINUOUS
 62
           7
100
AcDbLine
 10
-379.928179944261
 20
1009.211409267581
 11
-296.838749049952
 21
1009.211409267581
  0
LINE
  5
40F
100
AcDbEntity
  8
1
  6
CONTINUOUS
 62
           7
100
AcDbLine
 10
-379.928179944261
 20
1000.308970243191
 11
-296.838749049952
 21
1000.308970243191
  0
LINE
  5
40E
100
AcDbEntity
  8
1
  6
CONTINUOUS
 62
           7
100
AcDbLine
 10
-492.692407586538
 20
958.764254796036
 11
-513.152640558587
 21
958.764254796036
  0
LINE
  5
40D
100
AcDbEntity
  8
1
  6
CONTINUOUS
 62
           7
100
AcDbLine
 10
-492.692407586538
 20
994.374010893597
 11
-492.692407586538
 21
958.764254796036
  0
LINE
  5
40C
100
AcDbEntity
  8
1
  6
CONTINUOUS
 62
           7
100
AcDbLine
 10
-528.302163684099
 20
994.374010893597
 11
-492.692407586538
 21
994.374010893597
  0
LINE
  5
40B
100
AcDbEntity
  8
1
  6
CONTINUOUS
 62
           7
100
AcDbLine
 10
-565.558589944531
 20
1053.723604389532
 11
-495.659887261335
 21
1053.723604389532
  0
LINE
  5
40A
100
AcDbEntity
  8
1
  6
CONTINUOUS
 62
           7
100
AcDbLine
 10
-619.332732888858
 20
1077.463441787906
 11
-685.578586448327
 21
1077.463441787906
  0
LINE
  5
409
100
AcDbEntity
  8
1
  6
CONTINUOUS
 62
           7
100
AcDbLine
 10
-588.486192800881
 20
1095.268319836687
 11
-528.302163684099
 21
1095.268319836687
  0
LINE
  5
408
100
AcDbEntity
  8
1
  6
CONTINUOUS
 62
           7
100
AcDbLine
 10
-604.976063241067
 20
1125.147892484999
 11
-359.155822220684
 21
1196.162628779776
  0
LINE
  5
407
100
AcDbEntity
  8
1
  6
CONTINUOUS
 62
           7
100
AcDbLine
 10
-713.47984794033
 20
1119.008157235061
 11
-642.260335745208
 21
1119.008157235061
  0
LINE
  5
406
100
AcDbEntity
  8
1
  6
CONTINUOUS
 62
           7
100
AcDbLine
 10
-672.007623381617
 20
1247.800092613385
 11
-672.665079852056
 21
1247.800092613385
  0
LINE
  5
405
100
AcDbEntity
  8
1
  6
CONTINUOUS
 62
           7
100
AcDbLine
 10
-660.544373206554
 20
1225.837425527743
 11
-359.155822220684
 21
1225.837425527743
  0
LINE
  5
404
100
AcDbEntity
  8
1
  6
CONTINUOUS
 62
           7
100
AcDbLine
 10
-670.417355816781
 20
1243.72722655607
 11
-670.417355816781
 21
1246.881951206744
  0
LINE
  5
403
100
AcDbEntity
  8
1
  6
CONTINUOUS
 62
           7
100
AcDbLine
 10
-667.095116879797
 20
1237.70734422693
 11
-403.668017342635
 21
1237.70734422693
  0
LINE
  5
402
100
AcDbEntity
  8
1
  6
CONTINUOUS
 62
           7
100
AcDbLine
 10
-874.127639366141
 20
1584.566403099053
 11
-881.546338553134
 21
1580.283215126406
  0
LINE
  5
401
100
AcDbEntity
  8
1
  6
CONTINUOUS
 62
           7
100
AcDbLine
 10
-866.70894017915
 20
1580.283215126405
 11
-874.127639366141
 21
1584.566403099053
  0
LINE
  5
400
100
AcDbEntity
  8
1
  6
CONTINUOUS
 62
           7
100
AcDbLine
 10
-866.708940179151
 20
1571.716839181113
 11
-866.70894017915
 21
1580.283215126405
  0
LINE
  5
3FF
100
AcDbEntity
  8
1
  6
CONTINUOUS
 62
           7
100
AcDbLine
 10
-874.127639366142
 20
1567.433651208467
 11
-866.708940179151
 21
1571.716839181113
  0
LINE
  5
3FE
100
AcDbEntity
  8
1
  6
CONTINUOUS
 62
           7
100
AcDbLine
 10
-881.546338553134
 20
1571.716839181113
 11
-874.127639366142
 21
1567.433651208467
  0
LINE
  5
3FD
100
AcDbEntity
  8
1
  6
CONTINUOUS
 62
           7
100
AcDbLine
 10
-881.546338553134
 20
1580.283215126406
 11
-881.546338553134
 21
1571.716839181113
  0
LINE
  5
3FC
100
AcDbEntity
  8
1
  6
CONTINUOUS
 62
           7
100
AcDbLine
 10
-890.50449854925
 20
1614.24119984702
 11
-897.923197736241
 21
1609.958011874373
  0
LINE
  5
3FB
100
AcDbEntity
  8
1
  6
CONTINUOUS
 62
           7
100
AcDbLine
 10
-883.085799362257
 20
1609.958011874374
 11
-890.50449854925
 21
1614.24119984702
  0
LINE
  5
3FA
100
AcDbEntity
  8
1
  6
CONTINUOUS
 62
           7
100
AcDbLine
 10
-883.085799362257
 20
1601.39163592908
 11
-883.085799362257
 21
1609.958011874374
  0
LINE
  5
3F9
100
AcDbEntity
  8
1
  6
CONTINUOUS
 62
           7
100
AcDbLine
 10
-890.504498549249
 20
1597.108447956434
 11
-883.085799362257
 21
1601.39163592908
  0
LINE
  5
3F8
100
AcDbEntity
  8
1
  6
CONTINUOUS
 62
           7
100
AcDbLine
 10
-897.923197736241
 20
1601.39163592908
 11
-890.504498549249
 21
1597.108447956434
  0
LINE
  5
3F7
100
AcDbEntity
  8
1
  6
CONTINUOUS
 62
           7
100
AcDbLine
 10
-897.923197736241
 20
1609.958011874373
 11
-897.923197736241
 21
1601.39163592908
  0
LINE
  5
3F6
100
AcDbEntity
  8
1
  6
CONTINUOUS
 62
           7
100
AcDbLine
 10
-1068.383464497107
 20
1694.69921414563
 11
-971.849809744931
 21
1694.69921414563
  0
LINE
  5
3F5
100
AcDbEntity
  8
1
  6
CONTINUOUS
 62
           7
100
AcDbLine
 10
-893.907104093626
 20
1648.689666619706
 11
-879.994286260193
 21
1623.479701950508
  0
LINE
  5
3F4
100
AcDbEntity
  8
1
  6
CONTINUOUS
 62
           7
100
AcDbLine
 10
-978.628585677905
 20
1665.024417397662
 11
-1068.383464497107
 21
1665.024417397662
  0
LINE
  5
3F3
100
AcDbEntity
  8
1
  6
CONTINUOUS
 62
           7
100
AcDbLine
 10
-910.73304639323
 20
1605.479527097828
 11
-926.666781910368
 21
1634.351385713713
  0
LINE
  5
3F2
100
AcDbEntity
  8
1
  6
CONTINUOUS
 62
           7
100
AcDbLine
 10
-698.20641964169
 20
1220.382214977786
 11
-873.400892500617
 21
902.930601372991
  0
LINE
  5
3F1
100
AcDbEntity
  8
1
  6
CONTINUOUS
 62
           7
100
AcDbLine
 10
-677.870091842769
 20
1183.532878527762
 11
-842.223810240094
 21
885.7246642858
  0
LINE
  5
3F0
100
AcDbEntity
  8
1
  6
CONTINUOUS
 62
           7
100
AcDbLine
 10
-910.73304639323
 20
1605.479527097828
 11
-393.140318562446
 21
667.603782739736
  0
LINE
  5
3EF
100
AcDbEntity
  8
1
  6
CONTINUOUS
 62
           7
100
AcDbLine
 10
-296.978099341568
 20
567.056937722865
 11
-344.767508976257
 21
653.651137609345
  0
LINE
  5
3EE
100
AcDbEntity
  8
1
  6
CONTINUOUS
 62
           7
100
AcDbLine
 10
-353.220862871091
 20
567.056937722865
 11
-353.220862871091
 21
561.121978373272
  0
LINE
  5
3ED
100
AcDbEntity
  8
1
  6
CONTINUOUS
 62
           7
100
AcDbLine
 10
-282.001350675969
 20
567.056937722865
 11
-353.220862871091
 21
567.056937722865
  0
LINE
  5
3EC
100
AcDbEntity
  8
1
  6
CONTINUOUS
 62
           7
100
AcDbLine
 10
-282.001350675969
 20
561.121978373272
 11
-282.001350675969
 21
567.056937722865
  0
LINE
  5
3EB
100
AcDbEntity
  8
1
  6
CONTINUOUS
 62
           7
100
AcDbLine
 10
-353.220862871091
 20
561.121978373272
 11
-282.001350675969
 21
561.121978373272
  0
LINE
  5
3EA
100
AcDbEntity
  8
1
  6
CONTINUOUS
 62
           7
100
AcDbLine
 10
-543.139562058083
 20
1095.268319836687
 11
-543.139562058083
 21
1077.463441787906
  0
LINE
  5
3E9
100
AcDbEntity
  8
1
  6
CONTINUOUS
 62
           7
100
AcDbLine
 10
-537.204602708489
 20
1095.268319836687
 11
-537.204602708489
 21
1077.463441787906
  0
LINE
  5
3E8
100
AcDbEntity
  8
1
  6
CONTINUOUS
 62
           7
100
AcDbLine
 10
-543.139562058083
 20
1143.011770604527
 11
-543.139562058083
 21
1136.813035283841
  0
LINE
  5
3E7
100
AcDbEntity
  8
1
  6
CONTINUOUS
 62
           7
100
AcDbLine
 10
-564.596722783536
 20
1136.813035283841
 11
-528.302163684099
 21
1136.813035283841
  0
LINE
  5
3E6
100
AcDbEntity
  8
1
  6
CONTINUOUS
 62
           7
100
AcDbLine
 10
-528.302163684099
 20
1095.268319836687
 11
-528.302163684099
 21
1136.813035283841
  0
LINE
  5
3E5
100
AcDbEntity
  8
1
  6
CONTINUOUS
 62
           7
100
AcDbLine
 10
-461.751175531297
 20
1247.800092613385
 11
-463.341443096132
 21
1246.881951206744
  0
LINE
  5
3E4
100
AcDbEntity
  8
1
  6
CONTINUOUS
 62
           7
100
AcDbLine
 10
-439.601605697758
 20
1246.881951206744
 11
-441.191873262593
 21
1247.800092613385
  0
LINE
  5
3E3
100
AcDbEntity
  8
1
  6
CONTINUOUS
 62
           7
100
AcDbLine
 10
-439.601605697758
 20
1240.323982697493
 11
-439.601605697758
 21
1246.881951206744
  0
LINE
  5
3E2
100
AcDbEntity
  8
1
  6
CONTINUOUS
 62
           7
100
AcDbLine
 10
-441.191873262593
 20
1247.800092613385
 11
-461.751175531297
 21
1247.800092613385
  0
LINE
  5
3E1
100
AcDbEntity
  8
1
  6
CONTINUOUS
 62
           7
100
AcDbLine
 10
-463.341443096132
 20
1246.881951206744
 11
-463.341443096132
 21
1240.323982697493
  0
LINE
  5
3E0
100
AcDbEntity
  8
1
  6
CONTINUOUS
 62
           7
100
AcDbLine
 10
-445.536565047351
 20
1240.323982697493
 11
-445.536565047351
 21
1246.881951206744
  0
LINE
  5
3DF
100
AcDbEntity
  8
1
  6
CONTINUOUS
 62
           7
100
AcDbLine
 10
-457.406483746538
 20
1240.323982697493
 11
-457.406483746538
 21
1246.881951206744
  0
LINE
  5
3DE
100
AcDbEntity
  8
1
  6
CONTINUOUS
 62
           7
100
AcDbLine
 10
-439.601605697758
 20
1240.323982697493
 11
-463.341443096132
 21
1240.323982697493
  0
LINE
  5
3DD
100
AcDbEntity
  8
1
  6
CONTINUOUS
 62
           7
100
AcDbLine
 10
-440.444262271004
 20
1237.70734422693
 11
-440.444262271004
 21
1240.323982697493
  0
LINE
  5
3DC
100
AcDbEntity
  8
1
  6
CONTINUOUS
 62
           7
100
AcDbLine
 10
-462.498786522886
 20
1240.323982697493
 11
-462.498786522886
 21
1237.70734422693
  0
LINE
  5
3DB
100
AcDbEntity
  8
1
  6
CONTINUOUS
 62
           7
100
AcDbLine
 10
-450.736373588549
 20
1240.323982697493
 11
-449.98876259696
 21
1237.70734422693
  0
LINE
  5
3DA
100
AcDbEntity
  8
1
  6
CONTINUOUS
 62
           7
100
AcDbLine
 10
-452.95428619693
 20
1240.323982697493
 11
-452.206675205341
 21
1237.70734422693
  0
LINE
  5
3D9
100
AcDbEntity
  8
1
  6
CONTINUOUS
 62
           7
100
AcDbLine
 10
-439.601605697758
 20
1240.323982697493
 11
-440.444262271004
 21
1240.323982697493
  0
LINE
  5
3D8
100
AcDbEntity
  8
1
  6
CONTINUOUS
 62
           7
100
AcDbLine
 10
-462.498786522886
 20
1240.323982697493
 11
-463.341443096132
 21
1240.323982697493
  0
LINE
  5
3D7
100
AcDbEntity
  8
1
  6
CONTINUOUS
 62
           7
100
AcDbLine
 10
-670.417355816781
 20
1246.881951206744
 11
-672.007623381617
 21
1247.800092613385
  0
LINE
  5
3D6
100
AcDbEntity
  8
1
  6
CONTINUOUS
 62
           7
100
AcDbLine
 10
-670.417355816781
 20
1240.323982697493
 11
-671.260012390027
 21
1240.323982697493
  0
LINE
  5
3D5
100
AcDbEntity
  8
1
  6
CONTINUOUS
 62
           7
100
AcDbLine
 10
-694.481025472717
 20
1417.533295027468
 11
-694.481025472717
 21
1287.330490043045
  0
LINE
  5
3D4
100
AcDbEntity
  8
1
  6
CONTINUOUS
 62
           7
100
AcDbLine
 10
-439.277773440196
 20
1417.533295027468
 11
-439.277773440196
 21
1237.70734422693
  0
LINE
  5
3D3
100
AcDbEntity
  8
1
  6
CONTINUOUS
 62
           7
100
AcDbLine
 10
-540.172082383286
 20
644.211409267581
 11
-539.853718623872
 21
644.211409267581
  0
LINE
  5
3D2
100
AcDbEntity
  8
1
  6
CONTINUOUS
 62
           7
100
AcDbLine
 10
-540.172082383286
 20
667.951246665955
 11
-539.853718623872
 21
667.951246665955
  0
LINE
  5
3D1
100
AcDbEntity
  8
1
  6
CONTINUOUS
 62
           7
100
AcDbLine
 10
-540.172082383286
 20
644.211409267581
 11
-543.139562058083
 21
641.243929592784
  0
LINE
  5
3D0
100
AcDbEntity
  8
1
  6
CONTINUOUS
 62
           7
100
AcDbLine
 10
-540.172082383286
 20
670.918726340752
 11
-540.172082383286
 21
641.243929592784
  0
LINE
  5
3CF
100
AcDbEntity
  8
1
  6
CONTINUOUS
 62
           7
100
AcDbLine
 10
-543.139562058083
 20
670.918726340752
 11
-540.172082383286
 21
667.951246665955
  0
LINE
  5
3CE
100
AcDbEntity
  8
1
  6
CONTINUOUS
 62
           7
100
AcDbLine
 10
-543.139562058083
 20
670.918726340752
 11
-539.853718623872
 21
670.918726340752
  0
LINE
  5
3CD
100
AcDbEntity
  8
1
  6
CONTINUOUS
 62
           7
100
AcDbLine
 10
-587.651757180034
 20
697.626043413922
 11
-587.651757180034
 21
679.821165365142
  0
LINE
  5
3CC
100
AcDbEntity
  8
1
  6
CONTINUOUS
 62
           7
100
AcDbLine
 10
-546.107041732879
 20
697.626043413922
 11
-546.107041732879
 21
679.821165365142
  0
LINE
  5
3CB
100
AcDbEntity
  8
1
  6
CONTINUOUS
 62
           7
100
AcDbLine
 10
-590.619236854831
 20
679.821165365142
 11
-590.619236854831
 21
632.341490568394
  0
LINE
  5
3CA
100
AcDbEntity
  8
1
  6
CONTINUOUS
 62
           7
100
AcDbLine
 10
-543.139562058083
 20
679.821165365142
 11
-590.619236854831
 21
679.821165365142
  0
LINE
  5
3C9
100
AcDbEntity
  8
1
  6
CONTINUOUS
 62
           7
100
AcDbLine
 10
-543.139562058083
 20
632.341490568394
 11
-543.139562058083
 21
679.821165365142
  0
LINE
  5
3C8
100
AcDbEntity
  8
1
  6
CONTINUOUS
 62
           7
100
AcDbLine
 10
-590.619236854831
 20
632.341490568394
 11
-543.139562058083
 21
632.341490568394
  0
LINE
  5
3C7
100
AcDbEntity
  8
1
  6
CONTINUOUS
 62
           7
100
AcDbLine
 10
-537.204602708489
 20
697.626043413922
 11
-537.204602708489
 21
756.975636909857
  0
LINE
  5
3C6
100
AcDbEntity
  8
1
  6
CONTINUOUS
 62
           7
100
AcDbLine
 10
-596.554196204424
 20
697.626043413922
 11
-537.204602708489
 21
697.626043413922
  0
LINE
  5
3C5
100
AcDbEntity
  8
1
  6
CONTINUOUS
 62
           7
100
AcDbLine
 10
-596.554196204424
 20
756.975636909857
 11
-596.554196204424
 21
697.626043413922
  0
LINE
  5
3C4
100
AcDbEntity
  8
1
  6
CONTINUOUS
 62
           7
100
AcDbLine
 10
-600.640810284302
 20
758.628975575201
 11
-605.456635228814
 21
758.628975575201
  0
LINE
  5
3C3
100
AcDbEntity
  8
1
  6
CONTINUOUS
 62
           7
100
AcDbLine
 10
-600.640810284302
 20
779.062135642887
 11
-600.640810284302
 21
758.628975575201
  0
LINE
  5
3C2
100
AcDbEntity
  8
1
  6
CONTINUOUS
 62
           7
100
AcDbLine
 10
-605.456635228814
 20
779.062135642887
 11
-600.640810284302
 21
779.062135642887
  0
LINE
  5
3C1
100
AcDbEntity
  8
1
  6
CONTINUOUS
 62
           7
100
AcDbLine
 10
-533.11798862861
 20
779.062135642887
 11
-533.11798862861
 21
758.628975575201
  0
LINE
  5
3C0
100
AcDbEntity
  8
1
  6
CONTINUOUS
 62
           7
100
AcDbLine
 10
-571.695224400968
 20
779.062135642887
 11
-571.695224400968
 21
758.628975575201
  0
LINE
  5
3BF
100
AcDbEntity
  8
1
  6
CONTINUOUS
 62
           7
100
AcDbLine
 10
-562.063574511945
 20
779.062135642887
 11
-562.063574511945
 21
758.628975575201
  0
LINE
  5
3BE
100
AcDbEntity
  8
1
  6
CONTINUOUS
 62
           7
100
AcDbLine
 10
-533.11798862861
 20
758.628975575201
 11
-528.302163684099
 21
758.628975575201
  0
LINE
  5
3BD
100
AcDbEntity
  8
1
  6
CONTINUOUS
 62
           7
100
AcDbLine
 10
-533.11798862861
 20
779.062135642887
 11
-528.302163684099
 21
779.062135642887
  0
LINE
  5
3BC
100
AcDbEntity
  8
1
  6
CONTINUOUS
 62
           7
100
AcDbLine
 10
-562.063574511945
 20
758.628975575201
 11
-571.695224400968
 21
758.628975575201
  0
LINE
  5
3BB
100
AcDbEntity
  8
1
  6
CONTINUOUS
 62
           7
100
AcDbLine
 10
-571.695224400968
 20
779.062135642887
 11
-562.063574511945
 21
779.062135642887
  0
LINE
  5
3BA
100
AcDbEntity
  8
1
  6
CONTINUOUS
 62
           7
100
AcDbLine
 10
-528.302163684099
 20
756.975636909857
 11
-528.302163684099
 21
780.715474308231
  0
LINE
  5
3B9
100
AcDbEntity
  8
1
  6
CONTINUOUS
 62
           7
100
AcDbLine
 10
-605.456635228814
 20
756.975636909857
 11
-528.302163684099
 21
756.975636909857
  0
LINE
  5
3B8
100
AcDbEntity
  8
1
  6
CONTINUOUS
 62
           7
100
AcDbLine
 10
-605.456635228814
 20
780.715474308231
 11
-605.456635228814
 21
756.975636909857
  0
LINE
  5
3B7
100
AcDbEntity
  8
1
  6
CONTINUOUS
 62
           7
100
AcDbLine
 10
-528.302163684099
 20
780.715474308231
 11
-528.302163684099
 21
912.516451110391
  0
LINE
  5
3B6
100
AcDbEntity
  8
1
  6
CONTINUOUS
 62
           7
100
AcDbLine
 10
-605.456635228814
 20
780.715474308231
 11
-528.302163684099
 21
780.715474308231
  0
LINE
  5
3B5
100
AcDbEntity
  8
1
  6
CONTINUOUS
 62
           7
100
AcDbLine
 10
-605.456635228814
 20
1053.723604389532
 11
-605.456635228814
 21
780.715474308231
  0
LINE
  5
3B4
100
AcDbEntity
  8
1
  6
CONTINUOUS
 62
           7
100
AcDbLine
 10
-672.594640324325
 20
1050.452806301329
 11
-671.660126584838
 21
1053.723604389532
  0
LINE
  5
3B3
100
AcDbEntity
  8
1
  6
CONTINUOUS
 62
           7
100
AcDbLine
 10
-669.822249563847
 20
1050.452806301329
 11
-668.887735824361
 21
1053.723604389532
  0
LINE
  5
3B2
100
AcDbEntity
  8
1
  6
CONTINUOUS
 62
           7
100
AcDbLine
 10
-684.525265731769
 20
1050.452806301329
 11
-684.525265731769
 21
1053.723604389532
  0
LINE
  5
3B1
100
AcDbEntity
  8
1
  6
CONTINUOUS
 62
           7
100
AcDbLine
 10
-656.957110416916
 20
1050.452806301329
 11
-684.525265731769
 21
1050.452806301329
  0
LINE
  5
3B0
100
AcDbEntity
  8
1
  6
CONTINUOUS
 62
           7
100
AcDbLine
 10
-656.957110416916
 20
1053.723604389532
 11
-656.957110416916
 21
1050.452806301329
  0
LINE
  5
3AF
100
AcDbEntity
  8
1
  6
CONTINUOUS
 62
           7
100
AcDbLine
 10
-685.578586448327
 20
1049.305129543028
 11
-683.590751992283
 21
1050.452806301329
  0
LINE
  5
3AE
100
AcDbEntity
  8
1
  6
CONTINUOUS
 62
           7
100
AcDbLine
 10
-683.590751992283
 20
1039.238641427491
 11
-685.578586448327
 21
1040.386318185792
  0
LINE
  5
3AD
100
AcDbEntity
  8
1
  6
CONTINUOUS
 62
           7
100
AcDbLine
 10
-655.903789700359
 20
1040.386318185792
 11
-657.891624156403
 21
1039.238641427491
  0
LINE
  5
3AC
100
AcDbEntity
  8
1
  6
CONTINUOUS
 62
           7
100
AcDbLine
 10
-657.891624156403
 20
1050.452806301329
 11
-655.903789700359
 21
1049.305129543028
  0
LINE
  5
3AB
100
AcDbEntity
  8
1
  6
CONTINUOUS
 62
           7
100
AcDbLine
 10
-685.578586448327
 20
1040.386318185792
 11
-685.578586448327
 21
1049.305129543028
  0
LINE
  5
3AA
100
AcDbEntity
  8
1
  6
CONTINUOUS
 62
           7
100
AcDbLine
 10
-657.891624156403
 20
1039.238641427491
 11
-683.590751992283
 21
1039.238641427491
  0
LINE
  5
3A9
100
AcDbEntity
  8
1
  6
CONTINUOUS
 62
           7
100
AcDbLine
 10
-655.903789700359
 20
1049.305129543028
 11
-655.903789700359
 21
1040.386318185792
  0
LINE
  5
3A8
100
AcDbEntity
  8
1
  6
CONTINUOUS
 62
           7
100
AcDbLine
 10
-678.159887261335
 20
1040.386318185792
 11
-678.159887261335
 21
1049.305129543028
  0
LINE
  5
3A7
100
AcDbEntity
  8
1
  6
CONTINUOUS
 62
           7
100
AcDbLine
 10
-663.322488887351
 20
1040.386318185792
 11
-663.322488887351
 21
1049.305129543028
  0
LINE
  5
3A6
100
AcDbEntity
  8
1
  6
CONTINUOUS
 62
           7
100
AcDbLine
 10
-679.643627098733
 20
1028.852462565702
 11
-661.838749049953
 21
1028.852462565702
  0
LINE
  5
3A5
100
AcDbEntity
  8
1
  6
CONTINUOUS
 62
           7
100
AcDbLine
 10
-679.643627098733
 20
1028.852462565702
 11
-678.159887261335
 21
1027.368722728304
  0
LINE
  5
3A4
100
AcDbEntity
  8
1
  6
CONTINUOUS
 62
           7
100
AcDbLine
 10
-663.322488887351
 20
1027.368722728304
 11
-661.838749049953
 21
1028.852462565702
  0
LINE
  5
3A3
100
AcDbEntity
  8
1
  6
CONTINUOUS
 62
           7
100
AcDbLine
 10
-663.322488887351
 20
1027.368722728304
 11
-678.159887261335
 21
1027.368722728304
  0
LINE
  5
3A2
100
AcDbEntity
  8
1
  6
CONTINUOUS
 62
           7
100
AcDbLine
 10
-678.159887261335
 20
1027.368722728304
 11
-678.159887261335
 21
1039.238641427491
  0
LINE
  5
3A1
100
AcDbEntity
  8
1
  6
CONTINUOUS
 62
           7
100
AcDbLine
 10
-679.643627098733
 20
1028.852462565702
 11
-679.643627098733
 21
1039.238641427491
  0
LINE
  5
3A0
100
AcDbEntity
  8
1
  6
CONTINUOUS
 62
           7
100
AcDbLine
 10
-663.322488887351
 20
1027.368722728304
 11
-663.322488887351
 21
1039.238641427491
  0
LINE
  5
39F
100
AcDbEntity
  8
1
  6
CONTINUOUS
 62
           7
100
AcDbLine
 10
-661.838749049953
 20
1039.238641427491
 11
-661.838749049953
 21
1028.852462565702
  0
LINE
  5
39E
100
AcDbEntity
  8
1
  6
CONTINUOUS
 62
           7
100
AcDbLine
 10
-501.594846610928
 20
1039.238641427491
 11
-501.594846610928
 21
1028.852462565702
  0
LINE
  5
39D
100
AcDbEntity
  8
1
  6
CONTINUOUS
 62
           7
100
AcDbLine
 10
-503.078586448327
 20
1027.368722728304
 11
-503.078586448327
 21
1039.238641427491
  0
LINE
  5
39C
100
AcDbEntity
  8
1
  6
CONTINUOUS
 62
           7
100
AcDbLine
 10
-519.399724659709
 20
1028.852462565702
 11
-519.399724659709
 21
1039.238641427491
  0
LINE
  5
39B
100
AcDbEntity
  8
1
  6
CONTINUOUS
 62
           7
100
AcDbLine
 10
-517.91598482231
 20
1027.368722728304
 11
-517.91598482231
 21
1039.238641427491
  0
LINE
  5
39A
100
AcDbEntity
  8
1
  6
CONTINUOUS
 62
           7
100
AcDbLine
 10
-503.078586448327
 20
1027.368722728304
 11
-517.91598482231
 21
1027.368722728304
  0
LINE
  5
399
100
AcDbEntity
  8
1
  6
CONTINUOUS
 62
           7
100
AcDbLine
 10
-503.078586448327
 20
1027.368722728304
 11
-501.594846610928
 21
1028.852462565702
  0
LINE
  5
398
100
AcDbEntity
  8
1
  6
CONTINUOUS
 62
           7
100
AcDbLine
 10
-519.399724659709
 20
1028.852462565702
 11
-517.91598482231
 21
1027.368722728304
  0
LINE
  5
397
100
AcDbEntity
  8
1
  6
CONTINUOUS
 62
           7
100
AcDbLine
 10
-519.399724659709
 20
1028.852462565702
 11
-501.594846610928
 21
1028.852462565702
  0
LINE
  5
396
100
AcDbEntity
  8
1
  6
CONTINUOUS
 62
           7
100
AcDbLine
 10
-503.078586448327
 20
1040.386318185792
 11
-503.078586448327
 21
1049.305129543028
  0
LINE
  5
395
100
AcDbEntity
  8
1
  6
CONTINUOUS
 62
           7
100
AcDbLine
 10
-517.91598482231
 20
1040.386318185792
 11
-517.91598482231
 21
1049.305129543028
  0
LINE
  5
394
100
AcDbEntity
  8
1
  6
CONTINUOUS
 62
           7
100
AcDbLine
 10
-495.659887261335
 20
1049.305129543028
 11
-495.659887261335
 21
1040.386318185792
  0
LINE
  5
393
100
AcDbEntity
  8
1
  6
CONTINUOUS
 62
           7
100
AcDbLine
 10
-497.647721717379
 20
1039.238641427491
 11
-523.346849553258
 21
1039.238641427491
  0
LINE
  5
392
100
AcDbEntity
  8
1
  6
CONTINUOUS
 62
           7
100
AcDbLine
 10
-525.334684009302
 20
1040.386318185792
 11
-525.334684009302
 21
1049.305129543028
  0
LINE
  5
391
100
AcDbEntity
  8
1
  6
CONTINUOUS
 62
           7
100
AcDbLine
 10
-497.647721717379
 20
1050.452806301329
 11
-495.659887261335
 21
1049.305129543028
  0
LINE
  5
390
100
AcDbEntity
  8
1
  6
CONTINUOUS
 62
           7
100
AcDbLine
 10
-495.659887261335
 20
1040.386318185792
 11
-497.647721717379
 21
1039.238641427491
  0
LINE
  5
38F
100
AcDbEntity
  8
1
  6
CONTINUOUS
 62
           7
100
AcDbLine
 10
-523.346849553258
 20
1039.238641427491
 11
-525.334684009302
 21
1040.386318185792
  0
LINE
  5
38E
100
AcDbEntity
  8
1
  6
CONTINUOUS
 62
           7
100
AcDbLine
 10
-525.334684009302
 20
1049.305129543028
 11
-523.346849553258
 21
1050.452806301329
  0
LINE
  5
38D
100
AcDbEntity
  8
1
  6
CONTINUOUS
 62
           7
100
AcDbLine
 10
-496.713207977892
 20
1053.723604389532
 11
-496.713207977892
 21
1050.452806301329
  0
LINE
  5
38C
100
AcDbEntity
  8
1
  6
CONTINUOUS
 62
           7
100
AcDbLine
 10
-496.713207977892
 20
1050.452806301329
 11
-524.281363292745
 21
1050.452806301329
  0
LINE
  5
38B
100
AcDbEntity
  8
1
  6
CONTINUOUS
 62
           7
100
AcDbLine
 10
-524.281363292745
 20
1050.452806301329
 11
-524.281363292745
 21
1053.723604389532
  0
LINE
  5
38A
100
AcDbEntity
  8
1
  6
CONTINUOUS
 62
           7
100
AcDbLine
 10
-509.578347124823
 20
1050.452806301329
 11
-508.643833385337
 21
1053.723604389532
  0
LINE
  5
389
100
AcDbEntity
  8
1
  6
CONTINUOUS
 62
           7
100
AcDbLine
 10
-512.3507378853
 20
1050.452806301329
 11
-511.416224145813
 21
1053.723604389532
  0
LINE
  5
388
100
AcDbEntity
  8
1
  6
CONTINUOUS
 62
           7
100
AcDbLine
 10
-682.61110677353
 20
1119.008157235061
 11
-682.61110677353
 21
1077.463441787906
  0
LINE
  5
387
100
AcDbEntity
  8
1
  6
CONTINUOUS
 62
           7
100
AcDbLine
 10
-658.871269375156
 20
1119.008157235061
 11
-658.871269375156
 21
1077.463441787906
  0
LINE
  5
386
100
AcDbEntity
  8
1
  6
CONTINUOUS
 62
           7
100
AcDbLine
 10
-522.367204334505
 20
1149.012673946894
 11
-522.367204334505
 21
1077.463441787906
  0
LINE
  5
385
100
AcDbEntity
  8
1
  6
CONTINUOUS
 62
           7
100
AcDbLine
 10
-498.627366936132
 20
1155.870849195313
 11
-498.627366936132
 21
1077.463441787906
  0
LINE
  5
384
100
AcDbEntity
  8
1
  6
CONTINUOUS
 62
           7
100
AcDbLine
 10
-685.578586448327
 20
1077.463441787906
 11
-685.578586448327
 21
1053.723604389532
  0
LINE
  5
383
100
AcDbEntity
  8
1
  6
CONTINUOUS
 62
           7
100
AcDbLine
 10
-495.659887261335
 20
1077.463441787906
 11
-578.660077291016
 21
1077.463441787906
  0
LINE
  5
382
100
AcDbEntity
  8
1
  6
CONTINUOUS
 62
           7
100
AcDbLine
 10
-495.659887261335
 20
1053.723604389532
 11
-495.659887261335
 21
1077.463441787906
  0
LINE
  5
381
100
AcDbEntity
  8
1
  6
CONTINUOUS
 62
           7
100
AcDbLine
 10
-685.578586448327
 20
1053.723604389532
 11
-605.456635228814
 21
1053.723604389532
  0
LINE
  5
380
100
AcDbEntity
  8
1
  6
CONTINUOUS
 62
           7
100
AcDbLine
 10
-774.602976692229
 20
1119.008157235061
 11
-754.152503538171
 21
1119.008157235061
  0
LINE
  5
37F
100
AcDbEntity
  8
1
  6
CONTINUOUS
 62
           7
100
AcDbLine
 10
-774.602976692229
 20
1225.837425527743
 11
-774.602976692229
 21
1119.008157235061
  0
LINE
  5
37E
100
AcDbEntity
  8
1
  6
CONTINUOUS
 62
           7
100
AcDbLine
 10
-359.155822220684
 20
1225.837425527743
 11
-359.155822220684
 21
1196.162628779776
  0
LINE
  5
37D
100
AcDbEntity
  8
1
  6
CONTINUOUS
 62
           7
100
AcDbLine
 10
-774.602976692229
 20
1225.837425527743
 11
-701.217028804395
 21
1225.837425527743
  0
LINE
  5
37C
100
AcDbEntity
  8
1
  6
CONTINUOUS
 62
           7
100
AcDbLine
 10
-403.668017342635
 20
1237.70734422693
 11
-403.668017342635
 21
1225.837425527743
  0
LINE
  5
37B
100
AcDbEntity
  8
1
  6
CONTINUOUS
 62
           7
100
AcDbLine
 10
-730.090781570278
 20
1237.70734422693
 11
-707.767772477638
 21
1237.70734422693
  0
LINE
  5
37A
100
AcDbEntity
  8
1
  6
CONTINUOUS
 62
           7
100
AcDbLine
 10
-730.090781570278
 20
1225.837425527743
 11
-730.090781570278
 21
1237.70734422693
  0
LINE
  5
379
100
AcDbEntity
  8
1
  6
CONTINUOUS
 62
           7
100
AcDbLine
 10
-727.123301895481
 20
1425.00940494336
 11
-726.280645322235
 21
1425.00940494336
  0
LINE
  5
378
100
AcDbEntity
  8
1
  6
CONTINUOUS
 62
           7
100
AcDbLine
 10
-704.226121070353
 20
1425.00940494336
 11
-703.383464497107
 21
1425.00940494336
  0
LINE
  5
377
100
AcDbEntity
  8
1
  6
CONTINUOUS
 62
           7
100
AcDbLine
 10
-715.98853400469
 20
1427.626043413922
 11
-716.736144996279
 21
1425.00940494336
  0
LINE
  5
376
100
AcDbEntity
  8
1
  6
CONTINUOUS
 62
           7
100
AcDbLine
 10
-713.770621396309
 20
1427.626043413922
 11
-714.518232387898
 21
1425.00940494336
  0
LINE
  5
375
100
AcDbEntity
  8
1
  6
CONTINUOUS
 62
           7
100
AcDbLine
 10
-726.280645322235
 20
1427.626043413922
 11
-726.280645322235
 21
1425.00940494336
  0
LINE
  5
374
100
AcDbEntity
  8
1
  6
CONTINUOUS
 62
           7
100
AcDbLine
 10
-704.226121070353
 20
1425.00940494336
 11
-704.226121070353
 21
1427.626043413922
  0
LINE
  5
373
100
AcDbEntity
  8
1
  6
CONTINUOUS
 62
           7
100
AcDbLine
 10
-727.123301895481
 20
1425.00940494336
 11
-703.383464497107
 21
1425.00940494336
  0
LINE
  5
372
100
AcDbEntity
  8
1
  6
CONTINUOUS
 62
           7
100
AcDbLine
 10
-721.188342545888
 20
1418.451436434109
 11
-721.188342545888
 21
1425.00940494336
  0
LINE
  5
371
100
AcDbEntity
  8
1
  6
CONTINUOUS
 62
           7
100
AcDbLine
 10
-709.318423846701
 20
1418.451436434109
 11
-709.318423846701
 21
1425.00940494336
  0
LINE
  5
370
100
AcDbEntity
  8
1
  6
CONTINUOUS
 62
           7
100
AcDbLine
 10
-727.123301895481
 20
1425.00940494336
 11
-727.123301895481
 21
1418.451436434109
  0
LINE
  5
36F
100
AcDbEntity
  8
1
  6
CONTINUOUS
 62
           7
100
AcDbLine
 10
-725.533034330646
 20
1417.533295027468
 11
-704.973732061942
 21
1417.533295027468
  0
LINE
  5
36E
100
AcDbEntity
  8
1
  6
CONTINUOUS
 62
           7
100
AcDbLine
 10
-703.383464497107
 20
1418.451436434109
 11
-703.383464497107
 21
1425.00940494336
  0
LINE
  5
36D
100
AcDbEntity
  8
1
  6
CONTINUOUS
 62
           7
100
AcDbLine
 10
-704.973732061942
 20
1417.533295027468
 11
-703.383464497107
 21
1418.451436434109
  0
LINE
  5
36C
100
AcDbEntity
  8
1
  6
CONTINUOUS
 62
           7
100
AcDbLine
 10
-727.123301895481
 20
1418.451436434109
 11
-725.533034330646
 21
1417.533295027468
  0
LINE
  5
36B
100
AcDbEntity
  8
1
  6
CONTINUOUS
 62
           7
100
AcDbLine
 10
-698.786392524284
 20
1425.00940494336
 11
-697.943735951038
 21
1425.00940494336
  0
LINE
  5
36A
100
AcDbEntity
  8
1
  6
CONTINUOUS
 62
           7
100
AcDbLine
 10
-675.889211699156
 20
1425.00940494336
 11
-675.04655512591
 21
1425.00940494336
  0
LINE
  5
369
100
AcDbEntity
  8
1
  6
CONTINUOUS
 62
           7
100
AcDbLine
 10
-687.651624633493
 20
1427.626043413922
 11
-688.399235625083
 21
1425.00940494336
  0
LINE
  5
368
100
AcDbEntity
  8
1
  6
CONTINUOUS
 62
           7
100
AcDbLine
 10
-685.433712025112
 20
1427.626043413922
 11
-686.181323016701
 21
1425.00940494336
  0
LINE
  5
367
100
AcDbEntity
  8
1
  6
CONTINUOUS
 62
           7
100
AcDbLine
 10
-697.943735951038
 20
1427.626043413922
 11
-697.943735951038
 21
1425.00940494336
  0
LINE
  5
366
100
AcDbEntity
  8
1
  6
CONTINUOUS
 62
           7
100
AcDbLine
 10
-675.889211699156
 20
1425.00940494336
 11
-675.889211699156
 21
1427.626043413922
  0
LINE
  5
365
100
AcDbEntity
  8
1
  6
CONTINUOUS
 62
           7
100
AcDbLine
 10
-698.786392524284
 20
1425.00940494336
 11
-675.04655512591
 21
1425.00940494336
  0
LINE
  5
364
100
AcDbEntity
  8
1
  6
CONTINUOUS
 62
           7
100
AcDbLine
 10
-692.851433174691
 20
1418.451436434109
 11
-692.851433174691
 21
1425.00940494336
  0
LINE
  5
363
100
AcDbEntity
  8
1
  6
CONTINUOUS
 62
           7
100
AcDbLine
 10
-680.981514475504
 20
1418.451436434109
 11
-680.981514475504
 21
1425.00940494336
  0
LINE
  5
362
100
AcDbEntity
  8
1
  6
CONTINUOUS
 62
           7
100
AcDbLine
 10
-698.786392524284
 20
1425.00940494336
 11
-698.786392524284
 21
1418.451436434109
  0
LINE
  5
361
100
AcDbEntity
  8
1
  6
CONTINUOUS
 62
           7
100
AcDbLine
 10
-697.196124959449
 20
1417.533295027468
 11
-676.636822690745
 21
1417.533295027468
  0
LINE
  5
360
100
AcDbEntity
  8
1
  6
CONTINUOUS
 62
           7
100
AcDbLine
 10
-675.04655512591
 20
1418.451436434109
 11
-675.04655512591
 21
1425.00940494336
  0
LINE
  5
35F
100
AcDbEntity
  8
1
  6
CONTINUOUS
 62
           7
100
AcDbLine
 10
-676.636822690745
 20
1417.533295027468
 11
-675.04655512591
 21
1418.451436434109
  0
LINE
  5
35E
100
AcDbEntity
  8
1
  6
CONTINUOUS
 62
           7
100
AcDbLine
 10
-698.786392524284
 20
1418.451436434109
 11
-697.196124959449
 21
1417.533295027468
  0
LINE
  5
35D
100
AcDbEntity
  8
1
  6
CONTINUOUS
 62
           7
100
AcDbLine
 10
-624.599400654366
 20
1425.00940494336
 11
-623.756744081119
 21
1425.00940494336
  0
LINE
  5
35C
100
AcDbEntity
  8
1
  6
CONTINUOUS
 62
           7
100
AcDbLine
 10
-601.702219829238
 20
1425.00940494336
 11
-600.859563255992
 21
1425.00940494336
  0
LINE
  5
35B
100
AcDbEntity
  8
1
  6
CONTINUOUS
 62
           7
100
AcDbLine
 10
-613.464632763574
 20
1427.626043413922
 11
-614.212243755164
 21
1425.00940494336
  0
LINE
  5
35A
100
AcDbEntity
  8
1
  6
CONTINUOUS
 62
           7
100
AcDbLine
 10
-611.246720155193
 20
1427.626043413922
 11
-611.994331146783
 21
1425.00940494336
  0
LINE
  5
359
100
AcDbEntity
  8
1
  6
CONTINUOUS
 62
           7
100
AcDbLine
 10
-623.756744081119
 20
1427.626043413922
 11
-623.756744081119
 21
1425.00940494336
  0
LINE
  5
358
100
AcDbEntity
  8
1
  6
CONTINUOUS
 62
           7
100
AcDbLine
 10
-601.702219829238
 20
1425.00940494336
 11
-601.702219829238
 21
1427.626043413922
  0
LINE
  5
357
100
AcDbEntity
  8
1
  6
CONTINUOUS
 62
           7
100
AcDbLine
 10
-624.599400654366
 20
1425.00940494336
 11
-600.859563255992
 21
1425.00940494336
  0
LINE
  5
356
100
AcDbEntity
  8
1
  6
CONTINUOUS
 62
           7
100
AcDbLine
 10
-618.664441304772
 20
1418.451436434109
 11
-618.664441304772
 21
1425.00940494336
  0
LINE
  5
355
100
AcDbEntity
  8
1
  6
CONTINUOUS
 62
           7
100
AcDbLine
 10
-606.794522605585
 20
1418.451436434109
 11
-606.794522605585
 21
1425.00940494336
  0
LINE
  5
354
100
AcDbEntity
  8
1
  6
CONTINUOUS
 62
           7
100
AcDbLine
 10
-624.599400654366
 20
1425.00940494336
 11
-624.599400654366
 21
1418.451436434109
  0
LINE
  5
353
100
AcDbEntity
  8
1
  6
CONTINUOUS
 62
           7
100
AcDbLine
 10
-623.009133089531
 20
1417.533295027468
 11
-602.449830820827
 21
1417.533295027468
  0
LINE
  5
352
100
AcDbEntity
  8
1
  6
CONTINUOUS
 62
           7
100
AcDbLine
 10
-600.859563255992
 20
1418.451436434109
 11
-600.859563255992
 21
1425.00940494336
  0
LINE
  5
351
100
AcDbEntity
  8
1
  6
CONTINUOUS
 62
           7
100
AcDbLine
 10
-602.449830820827
 20
1417.533295027468
 11
-600.859563255992
 21
1418.451436434109
  0
LINE
  5
350
100
AcDbEntity
  8
1
  6
CONTINUOUS
 62
           7
100
AcDbLine
 10
-624.599400654366
 20
1418.451436434109
 11
-623.009133089531
 21
1417.533295027468
  0
LINE
  5
34F
100
AcDbEntity
  8
1
  6
CONTINUOUS
 62
           7
100
AcDbLine
 10
-510.749665823383
 20
1417.533295027468
 11
-509.159398258548
 21
1418.451436434109
  0
LINE
  5
34E
100
AcDbEntity
  8
1
  6
CONTINUOUS
 62
           7
100
AcDbLine
 10
-532.899235656922
 20
1418.451436434109
 11
-531.308968092087
 21
1417.533295027468
  0
LINE
  5
34D
100
AcDbEntity
  8
1
  6
CONTINUOUS
 62
           7
100
AcDbLine
 10
-532.899235656922
 20
1425.00940494336
 11
-532.899235656922
 21
1418.451436434109
  0
LINE
  5
34C
100
AcDbEntity
  8
1
  6
CONTINUOUS
 62
           7
100
AcDbLine
 10
-531.308968092087
 20
1417.533295027468
 11
-510.749665823383
 21
1417.533295027468
  0
LINE
  5
34B
100
AcDbEntity
  8
1
  6
CONTINUOUS
 62
           7
100
AcDbLine
 10
-509.159398258548
 20
1418.451436434109
 11
-509.159398258548
 21
1425.00940494336
  0
LINE
  5
34A
100
AcDbEntity
  8
1
  6
CONTINUOUS
 62
           7
100
AcDbLine
 10
-526.964276307328
 20
1425.00940494336
 11
-526.964276307328
 21
1418.451436434109
  0
LINE
  5
349
100
AcDbEntity
  8
1
  6
CONTINUOUS
 62
           7
100
AcDbLine
 10
-515.094357608141
 20
1425.00940494336
 11
-515.094357608141
 21
1418.451436434109
  0
LINE
  5
348
100
AcDbEntity
  8
1
  6
CONTINUOUS
 62
           7
100
AcDbLine
 10
-532.899235656922
 20
1425.00940494336
 11
-509.159398258548
 21
1425.00940494336
  0
LINE
  5
347
100
AcDbEntity
  8
1
  6
CONTINUOUS
 62
           7
100
AcDbLine
 10
-532.056579083676
 20
1427.626043413922
 11
-532.056579083676
 21
1425.00940494336
  0
LINE
  5
346
100
AcDbEntity
  8
1
  6
CONTINUOUS
 62
           7
100
AcDbLine
 10
-510.002054831794
 20
1425.00940494336
 11
-510.002054831794
 21
1427.626043413922
  0
LINE
  5
345
100
AcDbEntity
  8
1
  6
CONTINUOUS
 62
           7
100
AcDbLine
 10
-521.764467766131
 20
1425.00940494336
 11
-522.51207875772
 21
1427.626043413922
  0
LINE
  5
344
100
AcDbEntity
  8
1
  6
CONTINUOUS
 62
           7
100
AcDbLine
 10
-519.546555157749
 20
1425.00940494336
 11
-520.294166149339
 21
1427.626043413922
  0
LINE
  5
343
100
AcDbEntity
  8
1
  6
CONTINUOUS
 62
           7
100
AcDbLine
 10
-532.899235656922
 20
1425.00940494336
 11
-532.056579083676
 21
1425.00940494336
  0
LINE
  5
342
100
AcDbEntity
  8
1
  6
CONTINUOUS
 62
           7
100
AcDbLine
 10
-510.002054831794
 20
1425.00940494336
 11
-509.159398258548
 21
1425.00940494336
  0
LINE
  5
341
100
AcDbEntity
  8
1
  6
CONTINUOUS
 62
           7
100
AcDbLine
 10
-436.562673953464
 20
1417.533295027468
 11
-434.972406388629
 21
1418.451436434109
  0
LINE
  5
340
100
AcDbEntity
  8
1
  6
CONTINUOUS
 62
           7
100
AcDbLine
 10
-458.712243787003
 20
1418.451436434109
 11
-457.121976222168
 21
1417.533295027468
  0
LINE
  5
33F
100
AcDbEntity
  8
1
  6
CONTINUOUS
 62
           7
100
AcDbLine
 10
-458.712243787003
 20
1425.00940494336
 11
-458.712243787003
 21
1418.451436434109
  0
LINE
  5
33E
100
AcDbEntity
  8
1
  6
CONTINUOUS
 62
           7
100
AcDbLine
 10
-457.121976222168
 20
1417.533295027468
 11
-436.562673953464
 21
1417.533295027468
  0
LINE
  5
33D
100
AcDbEntity
  8
1
  6
CONTINUOUS
 62
           7
100
AcDbLine
 10
-434.972406388629
 20
1418.451436434109
 11
-434.972406388629
 21
1425.00940494336
  0
LINE
  5
33C
100
AcDbEntity
  8
1
  6
CONTINUOUS
 62
           7
100
AcDbLine
 10
-452.777284437409
 20
1425.00940494336
 11
-452.777284437409
 21
1418.451436434109
  0
LINE
  5
33B
100
AcDbEntity
  8
1
  6
CONTINUOUS
 62
           7
100
AcDbLine
 10
-440.907365738222
 20
1425.00940494336
 11
-440.907365738222
 21
1418.451436434109
  0
LINE
  5
33A
100
AcDbEntity
  8
1
  6
CONTINUOUS
 62
           7
100
AcDbLine
 10
-458.712243787003
 20
1425.00940494336
 11
-434.972406388629
 21
1425.00940494336
  0
LINE
  5
339
100
AcDbEntity
  8
1
  6
CONTINUOUS
 62
           7
100
AcDbLine
 10
-457.869587213757
 20
1427.626043413922
 11
-457.869587213757
 21
1425.00940494336
  0
LINE
  5
338
100
AcDbEntity
  8
1
  6
CONTINUOUS
 62
           7
100
AcDbLine
 10
-435.815062961875
 20
1425.00940494336
 11
-435.815062961875
 21
1427.626043413922
  0
LINE
  5
337
100
AcDbEntity
  8
1
  6
CONTINUOUS
 62
           7
100
AcDbLine
 10
-447.577475896212
 20
1425.00940494336
 11
-448.325086887801
 21
1427.626043413922
  0
LINE
  5
336
100
AcDbEntity
  8
1
  6
CONTINUOUS
 62
           7
100
AcDbLine
 10
-445.359563287831
 20
1425.00940494336
 11
-446.10717427942
 21
1427.626043413922
  0
LINE
  5
335
100
AcDbEntity
  8
1
  6
CONTINUOUS
 62
           7
100
AcDbLine
 10
-458.712243787003
 20
1425.00940494336
 11
-457.869587213757
 21
1425.00940494336
  0
LINE
  5
334
100
AcDbEntity
  8
1
  6
CONTINUOUS
 62
           7
100
AcDbLine
 10
-435.815062961875
 20
1425.00940494336
 11
-434.972406388629
 21
1425.00940494336
  0
LINE
  5
333
100
AcDbEntity
  8
1
  6
CONTINUOUS
 62
           7
100
AcDbLine
 10
-408.225764582267
 20
1417.533295027468
 11
-406.635497017432
 21
1418.451436434109
  0
LINE
  5
332
100
AcDbEntity
  8
1
  6
CONTINUOUS
 62
           7
100
AcDbLine
 10
-430.375334415806
 20
1418.451436434109
 11
-428.785066850971
 21
1417.533295027468
  0
LINE
  5
331
100
AcDbEntity
  8
1
  6
CONTINUOUS
 62
           7
100
AcDbLine
 10
-430.375334415806
 20
1425.00940494336
 11
-430.375334415806
 21
1418.451436434109
  0
LINE
  5
330
100
AcDbEntity
  8
1
  6
CONTINUOUS
 62
           7
100
AcDbLine
 10
-428.785066850971
 20
1417.533295027468
 11
-408.225764582267
 21
1417.533295027468
  0
LINE
  5
32F
100
AcDbEntity
  8
1
  6
CONTINUOUS
 62
           7
100
AcDbLine
 10
-406.635497017432
 20
1418.451436434109
 11
-406.635497017432
 21
1425.00940494336
  0
LINE
  5
32E
100
AcDbEntity
  8
1
  6
CONTINUOUS
 62
           7
100
AcDbLine
 10
-424.440375066213
 20
1425.00940494336
 11
-424.440375066213
 21
1418.451436434109
  0
LINE
  5
32D
100
AcDbEntity
  8
1
  6
CONTINUOUS
 62
           7
100
AcDbLine
 10
-412.570456367026
 20
1425.00940494336
 11
-412.570456367026
 21
1418.451436434109
  0
LINE
  5
32C
100
AcDbEntity
  8
1
  6
CONTINUOUS
 62
           7
100
AcDbLine
 10
-430.375334415806
 20
1425.00940494336
 11
-406.635497017432
 21
1425.00940494336
  0
LINE
  5
32B
100
AcDbEntity
  8
1
  6
CONTINUOUS
 62
           7
100
AcDbLine
 10
-429.53267784256
 20
1427.626043413922
 11
-429.53267784256
 21
1425.00940494336
  0
LINE
  5
32A
100
AcDbEntity
  8
1
  6
CONTINUOUS
 62
           7
100
AcDbLine
 10
-407.478153590678
 20
1425.00940494336
 11
-407.478153590678
 21
1427.626043413922
  0
LINE
  5
329
100
AcDbEntity
  8
1
  6
CONTINUOUS
 62
           7
100
AcDbLine
 10
-419.240566525015
 20
1425.00940494336
 11
-419.988177516605
 21
1427.626043413922
  0
LINE
  5
328
100
AcDbEntity
  8
1
  6
CONTINUOUS
 62
           7
100
AcDbLine
 10
-417.022653916634
 20
1425.00940494336
 11
-417.770264908223
 21
1427.626043413922
  0
LINE
  5
327
100
AcDbEntity
  8
1
  6
CONTINUOUS
 62
           7
100
AcDbLine
 10
-430.375334415806
 20
1425.00940494336
 11
-429.53267784256
 21
1425.00940494336
  0
LINE
  5
326
100
AcDbEntity
  8
1
  6
CONTINUOUS
 62
           7
100
AcDbLine
 10
-407.478153590678
 20
1425.00940494336
 11
-406.635497017432
 21
1425.00940494336
  0
LINE
  5
325
100
AcDbEntity
  8
1
  6
CONTINUOUS
 62
           7
100
AcDbLine
 10
-454.326064101423
 20
1715.68246415645
 11
-412.359564079783
 21
1673.71596413481
  0
LINE
  5
324
100
AcDbEntity
  8
1
  6
CONTINUOUS
 62
           7
100
AcDbLine
 10
-721.39923483313
 20
1673.71596413481
 11
-679.43273481149
 21
1715.68246415645
  0
LINE
  5
323
100
AcDbEntity
  8
1
  6
CONTINUOUS
 62
           7
100
AcDbLine
 10
-730.090781570278
 20
1652.73271412399
 11
-730.090781570278
 21
1427.626043413922
  0
LINE
  5
322
100
AcDbEntity
  8
1
  6
CONTINUOUS
 62
           7
100
AcDbLine
 10
-475.309314112244
 20
1724.374010893597
 11
-658.449484800669
 21
1724.374010893597
  0
LINE
  5
321
100
AcDbEntity
  8
1
  6
CONTINUOUS
 62
           7
100
AcDbLine
 10
-403.668017342635
 20
1427.626043413922
 11
-403.668017342635
 21
1652.73271412399
  0
LINE
  5
320
100
AcDbEntity
  8
1
  6
CONTINUOUS
 62
           7
100
AcDbLine
 10
-730.090781570278
 20
1427.626043413922
 11
-403.668017342635
 21
1427.626043413922
  0
LINE
  5
31F
100
AcDbEntity
  8
1
  6
CONTINUOUS
 62
           7
100
AcDbLine
 10
589.520626809904
 20
874.715496842208
 11
589.520626809904
 21
780.715474308231
  0
LINE
  5
31E
100
AcDbEntity
  8
1
  6
CONTINUOUS
 62
           7
100
AcDbLine
 10
605.596380413262
 20
810.390271056199
 11
614.989588653701
 21
810.390271056199
  0
LINE
  5
31D
100
AcDbEntity
  8
1
  6
CONTINUOUS
 62
           7
100
AcDbLine
 10
605.350995805238
 20
816.325230405792
 11
615.234973261725
 21
816.325230405792
  0
LINE
  5
31C
100
AcDbEntity
  8
1
  6
CONTINUOUS
 62
           7
100
AcDbLine
 10
605.105611197214
 20
822.260189755386
 11
615.480357869749
 21
822.260189755386
  0
LINE
  5
31B
100
AcDbEntity
  8
1
  6
CONTINUOUS
 62
           7
100
AcDbLine
 10
605.72414117704
 20
807.300203811969
 11
604.358025183888
 21
840.341570796923
  0
LINE
  5
31A
100
AcDbEntity
  8
1
  6
CONTINUOUS
 62
           7
100
AcDbLine
 10
611.896881362892
 20
804.455311706605
 11
608.689087704071
 21
804.455311706605
  0
LINE
  5
319
100
AcDbEntity
  8
1
  6
CONTINUOUS
 62
           7
100
AcDbLine
 10
616.227943883075
 20
840.341570796923
 11
614.861827889923
 21
807.300203811969
  0
LINE
  5
318
100
AcDbEntity
  8
1
  6
CONTINUOUS
 62
           7
100
AcDbLine
 10
593.22363309111
 20
926.308347340681
 11
595.510492558263
 21
927.628666269641
  0
LINE
  5
317
100
AcDbEntity
  8
1
  6
CONTINUOUS
 62
           7
100
AcDbLine
 10
610.292984533482
 20
927.628666269641
 11
595.510492558263
 21
927.628666269641
  0
LINE
  5
316
100
AcDbEntity
  8
1
  6
CONTINUOUS
 62
           7
100
AcDbLine
 10
625.0754765087
 20
927.628666269641
 11
610.292984533482
 21
927.628666269641
  0
LINE
  5
315
100
AcDbEntity
  8
1
  6
CONTINUOUS
 62
           7
100
AcDbLine
 10
627.362335975853
 20
926.308347340681
 11
625.0754765087
 21
927.628666269641
  0
LINE
  5
314
100
AcDbEntity
  8
1
  6
CONTINUOUS
 62
           7
100
AcDbLine
 10
627.362335975853
 20
906.510820590757
 11
627.362335975853
 21
926.308347340681
  0
LINE
  5
313
100
AcDbEntity
  8
1
  6
CONTINUOUS
 62
           7
100
AcDbLine
 10
618.827660254668
 20
906.510820590757
 11
618.827660254668
 21
926.308347340681
  0
LINE
  5
312
100
AcDbEntity
  8
1
  6
CONTINUOUS
 62
           7
100
AcDbLine
 10
601.758308812296
 20
926.308347340681
 11
601.758308812296
 21
906.510820590757
  0
LINE
  5
311
100
AcDbEntity
  8
1
  6
CONTINUOUS
 62
           7
100
AcDbLine
 10
593.22363309111
 20
906.510820590757
 11
593.22363309111
 21
926.308347340681
  0
LINE
  5
310
100
AcDbEntity
  8
1
  6
CONTINUOUS
 62
           7
100
AcDbLine
 10
598.806869394919
 20
874.130123883137
 11
531.804991426964
 21
878.353693018914
  0
LINE
  5
30F
100
AcDbEntity
  8
1
  6
CONTINUOUS
 62
           7
100
AcDbLine
 10
598.806869394919
 20
893.840113183427
 11
531.804991426964
 21
889.61654404765
  0
LINE
  5
30E
100
AcDbEntity
  8
1
  6
CONTINUOUS
 62
           7
100
AcDbLine
 10
592.694779801079
 20
893.454827968348
 11
592.694779801079
 21
906.510820590757
  0
LINE
  5
30D
100
AcDbEntity
  8
1
  6
CONTINUOUS
 62
           7
100
AcDbLine
 10
610.292984533482
 20
880.465477586801
 11
607.24488606163
 21
882.225298060041
  0
LINE
  5
30C
100
AcDbEntity
  8
1
  6
CONTINUOUS
 62
           7
100
AcDbLine
 10
610.292984533482
 20
880.465477586801
 11
613.341083005334
 21
882.225298060041
  0
LINE
  5
30B
100
AcDbEntity
  8
1
  6
CONTINUOUS
 62
           7
100
AcDbLine
 10
613.341083005334
 20
885.744939006522
 11
613.341083005334
 21
882.225298060041
  0
LINE
  5
30A
100
AcDbEntity
  8
1
  6
CONTINUOUS
 62
           7
100
AcDbLine
 10
613.341083005334
 20
885.744939006522
 11
610.292984533482
 21
887.504759479762
  0
LINE
  5
309
100
AcDbEntity
  8
1
  6
CONTINUOUS
 62
           7
100
AcDbLine
 10
607.24488606163
 20
885.744939006522
 11
610.292984533482
 21
887.504759479762
  0
LINE
  5
308
100
AcDbEntity
  8
1
  6
CONTINUOUS
 62
           7
100
AcDbLine
 10
607.24488606163
 20
885.744939006522
 11
607.24488606163
 21
882.225298060041
  0
LINE
  5
307
100
AcDbEntity
  8
1
  6
CONTINUOUS
 62
           7
100
AcDbLine
 10
627.891189265885
 20
906.510820590757
 11
627.891189265885
 21
861.459416475807
  0
LINE
  5
306
100
AcDbEntity
  8
1
  6
CONTINUOUS
 62
           7
100
AcDbLine
 10
592.694779801079
 20
906.510820590757
 11
627.891189265885
 21
906.510820590757
  0
LINE
  5
305
100
AcDbEntity
  8
1
  6
CONTINUOUS
 62
           7
100
AcDbLine
 10
592.694779801079
 20
861.459416475807
 11
592.694779801079
 21
874.515409098216
  0
LINE
  5
304
100
AcDbEntity
  8
1
  6
CONTINUOUS
 62
           7
100
AcDbLine
 10
593.22363309111
 20
906.510820590757
 11
627.362335975853
 21
906.510820590757
  0
LINE
  5
303
100
AcDbEntity
  8
1
  6
CONTINUOUS
 62
           7
100
AcDbLine
 10
603.957630829816
 20
842.453355364811
 11
603.957630829816
 21
853.012278204253
  0
LINE
  5
302
100
AcDbEntity
  8
1
  6
CONTINUOUS
 62
           7
100
AcDbLine
 10
616.628338237147
 20
842.453355364811
 11
625.0754765087
 21
842.453355364811
  0
LINE
  5
301
100
AcDbEntity
  8
1
  6
CONTINUOUS
 62
           7
100
AcDbLine
 10
616.628338237147
 20
853.012278204253
 11
616.628338237147
 21
842.453355364811
  0
LINE
  5
300
100
AcDbEntity
  8
1
  6
CONTINUOUS
 62
           7
100
AcDbLine
 10
603.957630829816
 20
853.012278204253
 11
616.628338237147
 21
853.012278204253
  0
LINE
  5
2FF
100
AcDbEntity
  8
1
  6
CONTINUOUS
 62
           7
100
AcDbLine
 10
595.510492558263
 20
842.453355364811
 11
603.957630829816
 21
842.453355364811
  0
LINE
  5
2FE
100
AcDbEntity
  8
1
  6
CONTINUOUS
 62
           7
100
AcDbLine
 10
625.0754765087
 20
842.453355364811
 11
622.963691940812
 21
840.341570796923
  0
LINE
  5
2FD
100
AcDbEntity
  8
1
  6
CONTINUOUS
 62
           7
100
AcDbLine
 10
597.622277126151
 20
840.341570796923
 11
595.510492558263
 21
842.453355364811
  0
LINE
  5
2FC
100
AcDbEntity
  8
1
  6
CONTINUOUS
 62
           7
100
AcDbLine
 10
625.0754765087
 20
842.453355364811
 11
625.0754765087
 21
861.459416475807
  0
LINE
  5
2FB
100
AcDbEntity
  8
1
  6
CONTINUOUS
 62
           7
100
AcDbLine
 10
597.622277126151
 20
840.341570796923
 11
622.963691940812
 21
840.341570796923
  0
LINE
  5
2FA
100
AcDbEntity
  8
1
  6
CONTINUOUS
 62
           7
100
AcDbLine
 10
595.510492558263
 20
861.459416475807
 11
595.510492558263
 21
842.453355364811
  0
LINE
  5
2F9
100
AcDbEntity
  8
1
  6
CONTINUOUS
 62
           7
100
AcDbLine
 10
627.891189265885
 20
861.459416475807
 11
592.694779801079
 21
861.459416475807
  0
LINE
  5
2F8
100
AcDbEntity
  8
1
  6
CONTINUOUS
 62
           7
100
AcDbLine
 10
601.758308812296
 20
941.0908393159
 11
601.758308812296
 21
931.764697955786
  0
LINE
  5
2F7
100
AcDbEntity
  8
1
  6
CONTINUOUS
 62
           7
100
AcDbLine
 10
595.510492558263
 20
930.444379026826
 11
610.292984533482
 21
930.444379026826
  0
LINE
  5
2F6
100
AcDbEntity
  8
1
  6
CONTINUOUS
 62
           7
100
AcDbLine
 10
610.292984533482
 20
942.41115824486
 11
595.510492558263
 21
942.41115824486
  0
LINE
  5
2F5
100
AcDbEntity
  8
1
  6
CONTINUOUS
 62
           7
100
AcDbLine
 10
610.292984533482
 20
930.444379026826
 11
625.0754765087
 21
930.444379026826
  0
LINE
  5
2F4
100
AcDbEntity
  8
1
  6
CONTINUOUS
 62
           7
100
AcDbLine
 10
625.0754765087
 20
930.444379026826
 11
627.362335975853
 21
931.764697955786
  0
LINE
  5
2F3
100
AcDbEntity
  8
1
  6
CONTINUOUS
 62
           7
100
AcDbLine
 10
627.362335975853
 20
931.764697955786
 11
627.362335975853
 21
941.0908393159
  0
LINE
  5
2F2
100
AcDbEntity
  8
1
  6
CONTINUOUS
 62
           7
100
AcDbLine
 10
627.362335975853
 20
941.0908393159
 11
625.0754765087
 21
942.41115824486
  0
LINE
  5
2F1
100
AcDbEntity
  8
1
  6
CONTINUOUS
 62
           7
100
AcDbLine
 10
625.0754765087
 20
942.41115824486
 11
610.292984533482
 21
942.41115824486
  0
LINE
  5
2F0
100
AcDbEntity
  8
1
  6
CONTINUOUS
 62
           7
100
AcDbLine
 10
598.254929949683
 20
930.444379026826
 11
595.510492558263
 21
930.444379026826
  0
LINE
  5
2EF
100
AcDbEntity
  8
1
  6
CONTINUOUS
 62
           7
100
AcDbLine
 10
595.510492558263
 20
930.444379026826
 11
593.22363309111
 21
931.764697955786
  0
LINE
  5
2EE
100
AcDbEntity
  8
1
  6
CONTINUOUS
 62
           7
100
AcDbLine
 10
593.22363309111
 20
931.764697955786
 11
593.22363309111
 21
941.0908393159
  0
LINE
  5
2ED
100
AcDbEntity
  8
1
  6
CONTINUOUS
 62
           7
100
AcDbLine
 10
593.22363309111
 20
941.0908393159
 11
595.510492558263
 21
942.41115824486
  0
LINE
  5
2EC
100
AcDbEntity
  8
1
  6
CONTINUOUS
 62
           7
100
AcDbLine
 10
595.510492558263
 20
942.41115824486
 11
598.254929949683
 21
942.41115824486
  0
LINE
  5
2EB
100
AcDbEntity
  8
1
  6
CONTINUOUS
 62
           7
100
AcDbLine
 10
618.827660254667
 20
931.764697955786
 11
618.827660254667
 21
941.0908393159
  0
LINE
  5
2EA
100
AcDbEntity
  8
1
  6
CONTINUOUS
 62
           7
100
AcDbLine
 10
622.021836023534
 20
952.829295446442
 11
622.331039117282
 21
942.41115824486
  0
LINE
  5
2E9
100
AcDbEntity
  8
1
  6
CONTINUOUS
 62
           2
100
AcDbLine
 10
620.971312510333
 20
947.620226845651
 11
622.237273175334
 21
945.57046184752
  0
LINE
  5
2E8
100
AcDbEntity
  8
1
  6
CONTINUOUS
 62
           7
100
AcDbLine
 10
622.176437570408
 20
947.620226845651
 11
610.292984533482
 21
947.620226845651
  0
LINE
  5
2E7
100
AcDbEntity
  8
1
  6
CONTINUOUS
 62
           2
100
AcDbLine
 10
620.971312510333
 20
947.620226845651
 11
620.816710963459
 21
952.829295446442
  0
LINE
  5
2E6
100
AcDbEntity
  8
1
  6
CONTINUOUS
 62
           7
100
AcDbLine
 10
610.292984533482
 20
947.620226845651
 11
598.409531496556
 21
947.620226845651
  0
LINE
  5
2E5
100
AcDbEntity
  8
1
  6
CONTINUOUS
 62
           2
100
AcDbLine
 10
599.614656556631
 20
947.620226845651
 11
598.348695891629
 21
945.57046184752
  0
LINE
  5
2E4
100
AcDbEntity
  8
1
  6
CONTINUOUS
 62
           7
100
AcDbLine
 10
598.254929949683
 20
942.41115824486
 11
598.56413304343
 21
952.829295446442
  0
LINE
  5
2E3
100
AcDbEntity
  8
1
  6
CONTINUOUS
 62
           2
100
AcDbLine
 10
599.769258103504
 20
952.829295446442
 11
599.614656556631
 21
947.620226845651
  0
LINE
  5
2E2
100
AcDbEntity
  8
1
  6
CONTINUOUS
 62
           7
100
AcDbLine
 10
844.723878842425
 20
1246.609783251321
 11
844.723878842425
 21
567.056937722865
  0
LINE
  5
2E1
100
AcDbEntity
  8
1
  6
CONTINUOUS
 62
           7
100
AcDbLine
 10
586.553147135108
 20
1000.308970243191
 11
669.642578029417
 21
1000.308970243191
  0
LINE
  5
2E0
100
AcDbEntity
  8
1
  6
CONTINUOUS
 62
           7
100
AcDbLine
 10
586.553147135108
 20
1009.211409267581
 11
669.642578029417
 21
1009.211409267581
  0
LINE
  5
2DF
100
AcDbEntity
  8
1
  6
CONTINUOUS
 62
           7
100
AcDbLine
 10
586.553147135108
 20
1018.113848291971
 11
669.642578029417
 21
1018.113848291971
  0
LINE
  5
2DE
100
AcDbEntity
  8
1
  6
CONTINUOUS
 62
           7
100
AcDbLine
 10
586.553147135108
 20
1027.016287316361
 11
669.642578029417
 21
1027.016287316361
  0
LINE
  5
2DD
100
AcDbEntity
  8
1
  6
CONTINUOUS
 62
           7
100
AcDbLine
 10
586.553147135108
 20
1035.918726340752
 11
669.642578029417
 21
1035.918726340752
  0
LINE
  5
2DC
100
AcDbEntity
  8
1
  6
CONTINUOUS
 62
           7
100
AcDbLine
 10
589.520626809904
 20
952.829295446443
 11
589.520626809904
 21
893.254740224356
  0
LINE
  5
2DB
100
AcDbEntity
  8
1
  6
CONTINUOUS
 62
           7
100
AcDbLine
 10
803.17916339527
 20
1479.689670405402
 11
794.27672437088
 21
1479.689670405402
  0
LINE
  5
2DA
100
AcDbEntity
  8
1
  6
CONTINUOUS
 62
           7
100
AcDbLine
 10
803.17916339527
 20
1482.657150080199
 11
794.27672437088
 21
1482.657150080199
  0
LINE
  5
2D9
100
AcDbEntity
  8
1
  6
CONTINUOUS
 62
           7
100
AcDbLine
 10
820.984041444051
 20
1497.764319333709
 11
835.821439818034
 21
1497.764319333709
  0
LINE
  5
2D8
100
AcDbEntity
  8
1
  6
CONTINUOUS
 62
           7
100
AcDbLine
 10
803.185297721819
 20
1545.243994130457
 11
797.244204045677
 21
1545.243994130457
  0
LINE
  5
2D7
100
AcDbEntity
  8
1
  6
CONTINUOUS
 62
           7
100
AcDbLine
 10
803.17916339527
 20
1488.592109429792
 11
820.984041444051
 21
1488.592109429792
  0
LINE
  5
2D6
100
AcDbEntity
  8
1
  6
CONTINUOUS
 62
           7
100
AcDbLine
 10
803.17916339527
 20
1464.852272031418
 11
820.984041444051
 21
1464.852272031418
  0
LINE
  5
2D5
100
AcDbEntity
  8
1
  6
CONTINUOUS
 62
           7
100
AcDbLine
 10
815.049082094457
 20
1550.909182600524
 11
809.114122744864
 21
1550.909182600524
  0
LINE
  5
2D4
100
AcDbEntity
  8
1
  6
CONTINUOUS
 62
           7
100
AcDbLine
 10
820.984041444051
 20
1453.441424035551
 11
820.984041444051
 21
1544.97422325093
  0
LINE
  5
2D3
100
AcDbEntity
  8
1
  6
CONTINUOUS
 62
           7
100
AcDbLine
 10
803.17916339527
 20
1449.555802954114
 11
803.17916339527
 21
1544.97422325093
  0
LINE
  5
2D2
100
AcDbEntity
  8
1
  6
CONTINUOUS
 62
           7
100
AcDbLine
 10
809.114122744864
 20
1446.588323279317
 11
806.146643070067
 21
1446.588323279317
  0
LINE
  5
2D1
100
AcDbEntity
  8
1
  6
CONTINUOUS
 62
           7
100
AcDbLine
 10
818.016561769254
 20
1441.112434633044
 11
818.016561769254
 21
1444.875048090258
  0
LINE
  5
2D0
100
AcDbEntity
  8
1
  6
CONTINUOUS
 62
           7
100
AcDbLine
 10
820.984041444051
 20
1441.112434633044
 11
818.016561769254
 21
1441.112434633044
  0
LINE
  5
2CF
100
AcDbEntity
  8
1
  6
CONTINUOUS
 62
           7
100
AcDbLine
 10
820.98404144405
 20
1446.588323279317
 11
820.984041444051
 21
1441.112434633044
  0
LINE
  5
2CE
100
AcDbEntity
  8
1
  6
CONTINUOUS
 62
           7
100
AcDbLine
 10
815.049082094457
 20
1456.867974413669
 11
809.114122744864
 21
1453.441424035551
  0
LINE
  5
2CD
100
AcDbEntity
  8
1
  6
CONTINUOUS
 62
           7
100
AcDbLine
 10
820.984041444051
 20
1453.441424035551
 11
815.049082094457
 21
1456.867974413669
  0
LINE
  5
2CC
100
AcDbEntity
  8
1
  6
CONTINUOUS
 62
           7
100
AcDbLine
 10
820.98404144405
 20
1446.588323279317
 11
820.984041444051
 21
1453.441424035551
  0
LINE
  5
2CB
100
AcDbEntity
  8
1
  6
CONTINUOUS
 62
           7
100
AcDbLine
 10
815.049082094457
 20
1443.161772901199
 11
820.98404144405
 21
1446.588323279317
  0
LINE
  5
2CA
100
AcDbEntity
  8
1
  6
CONTINUOUS
 62
           7
100
AcDbLine
 10
809.114122744864
 20
1446.588323279317
 11
815.049082094457
 21
1443.161772901199
  0
LINE
  5
2C9
100
AcDbEntity
  8
1
  6
CONTINUOUS
 62
           7
100
AcDbLine
 10
809.114122744864
 20
1453.441424035551
 11
809.114122744864
 21
1446.588323279317
  0
LINE
  5
2C8
100
AcDbEntity
  8
1
  6
CONTINUOUS
 62
           7
100
AcDbLine
 10
613.260464208278
 20
1744.552872682215
 11
613.260464208278
 21
1738.617913332622
  0
LINE
  5
2C7
100
AcDbEntity
  8
1
  6
CONTINUOUS
 62
           7
100
AcDbLine
 10
614.744204045677
 20
1744.552872682215
 11
614.744204045677
 21
1738.617913332622
  0
LINE
  5
2C6
100
AcDbEntity
  8
1
  6
CONTINUOUS
 62
           7
100
AcDbLine
 10
641.451521118848
 20
1744.552872682215
 11
641.451521118848
 21
1738.617913332622
  0
LINE
  5
2C5
100
AcDbEntity
  8
1
  6
CONTINUOUS
 62
           7
100
AcDbLine
 10
642.935260956246
 20
1744.552872682215
 11
642.935260956246
 21
1738.617913332622
  0
LINE
  5
2C4
100
AcDbEntity
  8
1
  6
CONTINUOUS
 62
           7
100
AcDbLine
 10
801.695423557872
 20
1420.340076909467
 11
801.695423557872
 21
1416.55488850583
  0
LINE
  5
2C3
100
AcDbEntity
  8
1
  6
CONTINUOUS
 62
           7
100
AcDbLine
 10
828.402740631043
 20
1420.340076909467
 11
828.402740631043
 21
1416.55488850583
  0
LINE
  5
2C2
100
AcDbEntity
  8
1
  6
CONTINUOUS
 62
           7
100
AcDbLine
 10
800.211683720474
 20
1401.447719252318
 11
800.211683720474
 21
1395.512759902725
  0
LINE
  5
2C1
100
AcDbEntity
  8
1
  6
CONTINUOUS
 62
           7
100
AcDbLine
 10
801.695423557872
 20
1401.447719252318
 11
801.695423557872
 21
1395.512759902725
  0
LINE
  5
2C0
100
AcDbEntity
  8
1
  6
CONTINUOUS
 62
           7
100
AcDbLine
 10
828.402740631043
 20
1401.447719252318
 11
828.402740631043
 21
1395.512759902725
  0
LINE
  5
2BF
100
AcDbEntity
  8
1
  6
CONTINUOUS
 62
           7
100
AcDbLine
 10
829.886480468441
 20
1401.447719252318
 11
829.886480468441
 21
1395.512759902725
  0
LINE
  5
2BE
100
AcDbEntity
  8
1
  6
CONTINUOUS
 62
           7
100
AcDbLine
 10
800.211683720474
 20
1420.340076909467
 11
800.211683720474
 21
1416.55488850583
  0
LINE
  5
2BD
100
AcDbEntity
  8
1
  6
CONTINUOUS
 62
           7
100
AcDbLine
 10
829.886480468441
 20
1420.340076909467
 11
829.886480468441
 21
1416.55488850583
  0
LINE
  5
2BC
100
AcDbEntity
  8
1
  6
CONTINUOUS
 62
           7
100
AcDbLine
 10
800.211683720474
 20
1482.657150080199
 11
800.211683720474
 21
1479.689670405402
  0
LINE
  5
2BB
100
AcDbEntity
  8
1
  6
CONTINUOUS
 62
           7
100
AcDbLine
 10
801.695423557872
 20
1482.657150080199
 11
801.695423557872
 21
1479.689670405402
  0
LINE
  5
2BA
100
AcDbEntity
  8
1
  6
CONTINUOUS
 62
           7
100
AcDbLine
 10
828.402740631043
 20
1482.657150080199
 11
828.402740631043
 21
1479.689670405402
  0
LINE
  5
2B9
100
AcDbEntity
  8
1
  6
CONTINUOUS
 62
           7
100
AcDbLine
 10
829.886480468441
 20
1482.657150080199
 11
829.886480468441
 21
1479.689670405402
  0
LINE
  5
2B8
100
AcDbEntity
  8
1
  6
CONTINUOUS
 62
           7
100
AcDbLine
 10
832.853960143238
 20
1579.264254796036
 11
837.154317552584
 21
1579.264254796036
  0
LINE
  5
2B7
100
AcDbEntity
  8
1
  6
CONTINUOUS
 62
           7
100
AcDbLine
 10
832.853960143238
 20
1580.451246665955
 11
837.154317552584
 21
1580.451246665955
  0
LINE
  5
2B6
100
AcDbEntity
  8
1
  6
CONTINUOUS
 62
           7
100
AcDbLine
 10
833.648536959994
 20
1608.939051544004
 11
837.154317552584
 21
1608.939051544004
  0
LINE
  5
2B5
100
AcDbEntity
  8
1
  6
CONTINUOUS
 62
           7
100
AcDbLine
 10
833.754869657554
 20
1610.126043413922
 11
837.154317552584
 21
1610.126043413922
  0
LINE
  5
2B4
100
AcDbEntity
  8
1
  6
CONTINUOUS
 62
           7
100
AcDbLine
 10
832.848711299229
 20
1590.44426356288
 11
832.853960143238
 21
1545.243994130457
  0
LINE
  5
2B3
100
AcDbEntity
  8
1
  6
CONTINUOUS
 62
           7
100
AcDbLine
 10
851.365647373801
 20
1684.219883478134
 11
841.518697552367
 21
1650.715776294983
  0
LINE
  5
2B2
100
AcDbEntity
  8
1
  6
CONTINUOUS
 62
           7
100
AcDbLine
 10
752.128991663606
 20
1783.130108454573
 11
777.342004718482
 21
1783.130108454573
  0
LINE
  5
2B1
100
AcDbEntity
  8
1
  6
CONTINUOUS
 62
           7
100
AcDbLine
 10
797.244204045677
 20
1600.73600236408
 11
797.244204045677
 21
1545.243994130457
  0
LINE
  5
2B0
100
AcDbEntity
  8
1
  6
CONTINUOUS
 62
           7
100
AcDbLine
 10
817.200889225192
 20
1694.261000446622
 11
804.469193790437
 21
1650.941587206517
  0
LINE
  5
2AF
100
AcDbEntity
  8
1
  6
CONTINUOUS
 62
           7
100
AcDbLine
 10
752.128991663606
 20
1747.520352357012
 11
777.342004718482
 21
1747.520352357012
  0
LINE
  5
2AE
100
AcDbEntity
  8
1
  6
CONTINUOUS
 62
           7
100
AcDbLine
 10
464.886480468441
 20
1427.626043413922
 11
791.309244696083
 21
1427.626043413922
  0
LINE
  5
2AD
100
AcDbEntity
  8
1
  6
CONTINUOUS
 62
           7
100
AcDbLine
 10
791.309244696083
 20
1427.626043413922
 11
791.309244696083
 21
1652.73271412399
  0
LINE
  5
2AC
100
AcDbEntity
  8
1
  6
CONTINUOUS
 62
           7
100
AcDbLine
 10
719.667947926475
 20
1724.374010893597
 11
536.527777238049
 21
1724.374010893597
  0
LINE
  5
2AB
100
AcDbEntity
  8
1
  6
CONTINUOUS
 62
           7
100
AcDbLine
 10
464.886480468441
 20
1652.73271412399
 11
464.886480468441
 21
1427.626043413922
  0
LINE
  5
2AA
100
AcDbEntity
  8
1
  6
CONTINUOUS
 62
           7
100
AcDbLine
 10
411.4718463221
 20
1225.837425527743
 11
844.723878842425
 21
1225.837425527743
  0
LINE
  5
2A9
100
AcDbEntity
  8
1
  6
CONTINUOUS
 62
           7
100
AcDbLine
 10
791.309244696083
 20
1225.837425527743
 11
791.309244696083
 21
1237.70734422693
  0
LINE
  5
2A8
100
AcDbEntity
  8
1
  6
CONTINUOUS
 62
           7
100
AcDbLine
 10
791.309244696083
 20
1237.70734422693
 11
464.886480468441
 21
1237.70734422693
  0
LINE
  5
2A7
100
AcDbEntity
  8
1
  6
CONTINUOUS
 62
           7
100
AcDbLine
 10
464.886480468441
 20
1237.70734422693
 11
464.886480468441
 21
1225.837425527743
  0
LINE
  5
2A6
100
AcDbEntity
  8
1
  6
CONTINUOUS
 62
           7
100
AcDbLine
 10
844.723878842425
 20
1225.837425527743
 11
844.723878842425
 21
1196.162628779776
  0
LINE
  5
2A5
100
AcDbEntity
  8
1
  6
CONTINUOUS
 62
           7
100
AcDbLine
 10
411.4718463221
 20
1225.837425527743
 11
411.4718463221
 21
1196.162628779776
  0
LINE
  5
2A4
100
AcDbEntity
  8
1
  6
CONTINUOUS
 62
           7
100
AcDbLine
 10
411.4718463221
 20
1196.162628779776
 11
619.195423557872
 21
1196.162628779776
  0
LINE
  5
2A3
100
AcDbEntity
  8
1
  6
CONTINUOUS
 62
           7
100
AcDbLine
 10
521.268594289579
 20
1053.723604389532
 11
598.423065834294
 21
1053.723604389532
  0
LINE
  5
2A2
100
AcDbEntity
  8
1
  6
CONTINUOUS
 62
           7
100
AcDbLine
 10
734.927130874945
 20
1053.723604389532
 11
734.927130874945
 21
1077.463441787906
  0
LINE
  5
2A1
100
AcDbEntity
  8
1
  6
CONTINUOUS
 62
           7
100
AcDbLine
 10
734.927130874945
 20
1077.463441787906
 11
657.77265933023
 21
1077.463441787906
  0
LINE
  5
2A0
100
AcDbEntity
  8
1
  6
CONTINUOUS
 62
           7
100
AcDbLine
 10
521.268594289579
 20
1077.463441787906
 11
521.268594289579
 21
1053.723604389532
  0
LINE
  5
29F
100
AcDbEntity
  8
1
  6
CONTINUOUS
 62
           7
100
AcDbLine
 10
731.959651200148
 20
1196.162628779776
 11
731.959651200148
 21
1077.463441787906
  0
LINE
  5
29E
100
AcDbEntity
  8
1
  6
CONTINUOUS
 62
           7
100
AcDbLine
 10
708.219813801774
 20
1196.162628779776
 11
708.219813801774
 21
1077.463441787906
  0
LINE
  5
29D
100
AcDbEntity
  8
1
  6
CONTINUOUS
 62
           7
100
AcDbLine
 10
547.97591136275
 20
1077.463441787906
 11
547.97591136275
 21
1196.162628779776
  0
LINE
  5
29C
100
AcDbEntity
  8
1
  6
CONTINUOUS
 62
           7
100
AcDbLine
 10
524.236073964376
 20
1077.463441787906
 11
524.236073964376
 21
1196.162628779776
  0
LINE
  5
29B
100
AcDbEntity
  8
1
  6
CONTINUOUS
 62
           7
100
AcDbLine
 10
473.578027205588
 20
1673.71596413481
 11
515.544527227229
 21
1715.68246415645
  0
LINE
  5
29A
100
AcDbEntity
  8
1
  6
CONTINUOUS
 62
           7
100
AcDbLine
 10
740.651197937295
 20
1715.68246415645
 11
782.617697958936
 21
1673.71596413481
  0
LINE
  5
299
100
AcDbEntity
  8
1
  6
CONTINUOUS
 62
           7
100
AcDbLine
 10
787.49910844804
 20
1425.00940494336
 11
788.341765021286
 21
1425.00940494336
  0
LINE
  5
298
100
AcDbEntity
  8
1
  6
CONTINUOUS
 62
           7
100
AcDbLine
 10
764.601927622912
 20
1425.00940494336
 11
765.444584196158
 21
1425.00940494336
  0
LINE
  5
297
100
AcDbEntity
  8
1
  6
CONTINUOUS
 62
           7
100
AcDbLine
 10
777.954608122085
 20
1425.00940494336
 11
777.206997130495
 21
1427.626043413922
  0
LINE
  5
296
100
AcDbEntity
  8
1
  6
CONTINUOUS
 62
           7
100
AcDbLine
 10
775.736695513703
 20
1425.00940494336
 11
774.989084522114
 21
1427.626043413922
  0
LINE
  5
295
100
AcDbEntity
  8
1
  6
CONTINUOUS
 62
           7
100
AcDbLine
 10
787.49910844804
 20
1425.00940494336
 11
787.49910844804
 21
1427.626043413922
  0
LINE
  5
294
100
AcDbEntity
  8
1
  6
CONTINUOUS
 62
           7
100
AcDbLine
 10
765.444584196158
 20
1427.626043413922
 11
765.444584196158
 21
1425.00940494336
  0
LINE
  5
293
100
AcDbEntity
  8
1
  6
CONTINUOUS
 62
           7
100
AcDbLine
 10
764.601927622912
 20
1425.00940494336
 11
788.341765021286
 21
1425.00940494336
  0
LINE
  5
292
100
AcDbEntity
  8
1
  6
CONTINUOUS
 62
           7
100
AcDbLine
 10
782.406805671693
 20
1425.00940494336
 11
782.406805671693
 21
1418.451436434109
  0
LINE
  5
291
100
AcDbEntity
  8
1
  6
CONTINUOUS
 62
           7
100
AcDbLine
 10
770.536886972506
 20
1425.00940494336
 11
770.536886972506
 21
1418.451436434109
  0
LINE
  5
290
100
AcDbEntity
  8
1
  6
CONTINUOUS
 62
           7
100
AcDbLine
 10
788.341765021286
 20
1418.451436434109
 11
788.341765021286
 21
1425.00940494336
  0
LINE
  5
28F
100
AcDbEntity
  8
1
  6
CONTINUOUS
 62
           7
100
AcDbLine
 10
766.192195187748
 20
1417.533295027468
 11
786.751497456451
 21
1417.533295027468
  0
LINE
  5
28E
100
AcDbEntity
  8
1
  6
CONTINUOUS
 62
           7
100
AcDbLine
 10
764.601927622912
 20
1425.00940494336
 11
764.601927622912
 21
1418.451436434109
  0
LINE
  5
28D
100
AcDbEntity
  8
1
  6
CONTINUOUS
 62
           7
100
AcDbLine
 10
764.601927622912
 20
1418.451436434109
 11
766.192195187748
 21
1417.533295027468
  0
LINE
  5
28C
100
AcDbEntity
  8
1
  6
CONTINUOUS
 62
           7
100
AcDbLine
 10
786.751497456451
 20
1417.533295027468
 11
788.341765021286
 21
1418.451436434109
  0
LINE
  5
28B
100
AcDbEntity
  8
1
  6
CONTINUOUS
 62
           7
100
AcDbLine
 10
759.162199076844
 20
1425.00940494336
 11
760.00485565009
 21
1425.00940494336
  0
LINE
  5
28A
100
AcDbEntity
  8
1
  6
CONTINUOUS
 62
           7
100
AcDbLine
 10
736.265018251716
 20
1425.00940494336
 11
737.107674824962
 21
1425.00940494336
  0
LINE
  5
289
100
AcDbEntity
  8
1
  6
CONTINUOUS
 62
           7
100
AcDbLine
 10
749.617698750888
 20
1425.00940494336
 11
748.870087759299
 21
1427.626043413922
  0
LINE
  5
288
100
AcDbEntity
  8
1
  6
CONTINUOUS
 62
           7
100
AcDbLine
 10
747.399786142507
 20
1425.00940494336
 11
746.652175150917
 21
1427.626043413922
  0
LINE
  5
287
100
AcDbEntity
  8
1
  6
CONTINUOUS
 62
           7
100
AcDbLine
 10
759.162199076844
 20
1425.00940494336
 11
759.162199076844
 21
1427.626043413922
  0
LINE
  5
286
100
AcDbEntity
  8
1
  6
CONTINUOUS
 62
           7
100
AcDbLine
 10
737.107674824962
 20
1427.626043413922
 11
737.107674824962
 21
1425.00940494336
  0
LINE
  5
285
100
AcDbEntity
  8
1
  6
CONTINUOUS
 62
           7
100
AcDbLine
 10
736.265018251716
 20
1425.00940494336
 11
760.00485565009
 21
1425.00940494336
  0
LINE
  5
284
100
AcDbEntity
  8
1
  6
CONTINUOUS
 62
           7
100
AcDbLine
 10
754.069896300496
 20
1425.00940494336
 11
754.069896300496
 21
1418.451436434109
  0
LINE
  5
283
100
AcDbEntity
  8
1
  6
CONTINUOUS
 62
           7
100
AcDbLine
 10
742.199977601309
 20
1425.00940494336
 11
742.199977601309
 21
1418.451436434109
  0
LINE
  5
282
100
AcDbEntity
  8
1
  6
CONTINUOUS
 62
           7
100
AcDbLine
 10
760.00485565009
 20
1418.451436434109
 11
760.00485565009
 21
1425.00940494336
  0
LINE
  5
281
100
AcDbEntity
  8
1
  6
CONTINUOUS
 62
           7
100
AcDbLine
 10
737.855285816551
 20
1417.533295027468
 11
758.414588085255
 21
1417.533295027468
  0
LINE
  5
280
100
AcDbEntity
  8
1
  6
CONTINUOUS
 62
           7
100
AcDbLine
 10
736.265018251716
 20
1425.00940494336
 11
736.265018251716
 21
1418.451436434109
  0
LINE
  5
27F
100
AcDbEntity
  8
1
  6
CONTINUOUS
 62
           7
100
AcDbLine
 10
736.265018251716
 20
1418.451436434109
 11
737.855285816551
 21
1417.533295027468
  0
LINE
  5
27E
100
AcDbEntity
  8
1
  6
CONTINUOUS
 62
           7
100
AcDbLine
 10
758.414588085255
 20
1417.533295027468
 11
760.00485565009
 21
1418.451436434109
  0
LINE
  5
27D
100
AcDbEntity
  8
1
  6
CONTINUOUS
 62
           7
100
AcDbLine
 10
684.975207206925
 20
1425.00940494336
 11
685.817863780171
 21
1425.00940494336
  0
LINE
  5
27C
100
AcDbEntity
  8
1
  6
CONTINUOUS
 62
           7
100
AcDbLine
 10
662.078026381797
 20
1425.00940494336
 11
662.920682955043
 21
1425.00940494336
  0
LINE
  5
27B
100
AcDbEntity
  8
1
  6
CONTINUOUS
 62
           7
100
AcDbLine
 10
675.430706880969
 20
1425.00940494336
 11
674.68309588938
 21
1427.626043413922
  0
LINE
  5
27A
100
AcDbEntity
  8
1
  6
CONTINUOUS
 62
           7
100
AcDbLine
 10
673.212794272588
 20
1425.00940494336
 11
672.465183280999
 21
1427.626043413922
  0
LINE
  5
279
100
AcDbEntity
  8
1
  6
CONTINUOUS
 62
           7
100
AcDbLine
 10
684.975207206925
 20
1425.00940494336
 11
684.975207206925
 21
1427.626043413922
  0
LINE
  5
278
100
AcDbEntity
  8
1
  6
CONTINUOUS
 62
           7
100
AcDbLine
 10
662.920682955043
 20
1427.626043413922
 11
662.920682955043
 21
1425.00940494336
  0
LINE
  5
277
100
AcDbEntity
  8
1
  6
CONTINUOUS
 62
           7
100
AcDbLine
 10
662.078026381797
 20
1425.00940494336
 11
685.817863780171
 21
1425.00940494336
  0
LINE
  5
276
100
AcDbEntity
  8
1
  6
CONTINUOUS
 62
           7
100
AcDbLine
 10
679.882904430577
 20
1425.00940494336
 11
679.882904430577
 21
1418.451436434109
  0
LINE
  5
275
100
AcDbEntity
  8
1
  6
CONTINUOUS
 62
           7
100
AcDbLine
 10
668.01298573139
 20
1425.00940494336
 11
668.01298573139
 21
1418.451436434109
  0
LINE
  5
274
100
AcDbEntity
  8
1
  6
CONTINUOUS
 62
           7
100
AcDbLine
 10
685.817863780171
 20
1418.451436434109
 11
685.817863780171
 21
1425.00940494336
  0
LINE
  5
273
100
AcDbEntity
  8
1
  6
CONTINUOUS
 62
           7
100
AcDbLine
 10
663.668293946632
 20
1417.533295027468
 11
684.227596215336
 21
1417.533295027468
  0
LINE
  5
272
100
AcDbEntity
  8
1
  6
CONTINUOUS
 62
           7
100
AcDbLine
 10
662.078026381797
 20
1425.00940494336
 11
662.078026381797
 21
1418.451436434109
  0
LINE
  5
271
100
AcDbEntity
  8
1
  6
CONTINUOUS
 62
           7
100
AcDbLine
 10
662.078026381797
 20
1418.451436434109
 11
663.668293946632
 21
1417.533295027468
  0
LINE
  5
270
100
AcDbEntity
  8
1
  6
CONTINUOUS
 62
           7
100
AcDbLine
 10
684.227596215336
 20
1417.533295027468
 11
685.817863780171
 21
1418.451436434109
  0
LINE
  5
26F
100
AcDbEntity
  8
1
  6
CONTINUOUS
 62
           7
100
AcDbLine
 10
570.377861384353
 20
1418.451436434109
 11
571.968128949188
 21
1417.533295027468
  0
LINE
  5
26E
100
AcDbEntity
  8
1
  6
CONTINUOUS
 62
           7
100
AcDbLine
 10
592.527431217892
 20
1417.533295027468
 11
594.117698782727
 21
1418.451436434109
  0
LINE
  5
26D
100
AcDbEntity
  8
1
  6
CONTINUOUS
 62
           7
100
AcDbLine
 10
594.117698782727
 20
1418.451436434109
 11
594.117698782727
 21
1425.00940494336
  0
LINE
  5
26C
100
AcDbEntity
  8
1
  6
CONTINUOUS
 62
           7
100
AcDbLine
 10
571.968128949188
 20
1417.533295027468
 11
592.527431217892
 21
1417.533295027468
  0
LINE
  5
26B
100
AcDbEntity
  8
1
  6
CONTINUOUS
 62
           7
100
AcDbLine
 10
570.377861384353
 20
1425.00940494336
 11
570.377861384353
 21
1418.451436434109
  0
LINE
  5
26A
100
AcDbEntity
  8
1
  6
CONTINUOUS
 62
           7
100
AcDbLine
 10
588.182739433134
 20
1418.451436434109
 11
588.182739433134
 21
1425.00940494336
  0
LINE
  5
269
100
AcDbEntity
  8
1
  6
CONTINUOUS
 62
           7
100
AcDbLine
 10
576.312820733947
 20
1418.451436434109
 11
576.312820733947
 21
1425.00940494336
  0
LINE
  5
268
100
AcDbEntity
  8
1
  6
CONTINUOUS
 62
           7
100
AcDbLine
 10
570.377861384353
 20
1425.00940494336
 11
594.117698782727
 21
1425.00940494336
  0
LINE
  5
267
100
AcDbEntity
  8
1
  6
CONTINUOUS
 62
           7
100
AcDbLine
 10
593.275042209481
 20
1425.00940494336
 11
593.275042209481
 21
1427.626043413922
  0
LINE
  5
266
100
AcDbEntity
  8
1
  6
CONTINUOUS
 62
           7
100
AcDbLine
 10
571.220517957599
 20
1427.626043413922
 11
571.220517957599
 21
1425.00940494336
  0
LINE
  5
265
100
AcDbEntity
  8
1
  6
CONTINUOUS
 62
           7
100
AcDbLine
 10
583.730541883525
 20
1427.626043413922
 11
582.982930891936
 21
1425.00940494336
  0
LINE
  5
264
100
AcDbEntity
  8
1
  6
CONTINUOUS
 62
           7
100
AcDbLine
 10
581.512629275144
 20
1427.626043413922
 11
580.765018283555
 21
1425.00940494336
  0
LINE
  5
263
100
AcDbEntity
  8
1
  6
CONTINUOUS
 62
           7
100
AcDbLine
 10
593.275042209481
 20
1425.00940494336
 11
594.117698782727
 21
1425.00940494336
  0
LINE
  5
262
100
AcDbEntity
  8
1
  6
CONTINUOUS
 62
           7
100
AcDbLine
 10
570.377861384353
 20
1425.00940494336
 11
571.220517957599
 21
1425.00940494336
  0
LINE
  5
261
100
AcDbEntity
  8
1
  6
CONTINUOUS
 62
           7
100
AcDbLine
 10
496.190869514435
 20
1418.451436434109
 11
497.78113707927
 21
1417.533295027468
  0
LINE
  5
260
100
AcDbEntity
  8
1
  6
CONTINUOUS
 62
           7
100
AcDbLine
 10
518.340439347973
 20
1417.533295027468
 11
519.930706912809
 21
1418.451436434109
  0
LINE
  5
25F
100
AcDbEntity
  8
1
  6
CONTINUOUS
 62
           7
100
AcDbLine
 10
519.930706912809
 20
1418.451436434109
 11
519.930706912809
 21
1425.00940494336
  0
LINE
  5
25E
100
AcDbEntity
  8
1
  6
CONTINUOUS
 62
           7
100
AcDbLine
 10
497.78113707927
 20
1417.533295027468
 11
518.340439347973
 21
1417.533295027468
  0
LINE
  5
25D
100
AcDbEntity
  8
1
  6
CONTINUOUS
 62
           7
100
AcDbLine
 10
496.190869514435
 20
1425.00940494336
 11
496.190869514435
 21
1418.451436434109
  0
LINE
  5
25C
100
AcDbEntity
  8
1
  6
CONTINUOUS
 62
           7
100
AcDbLine
 10
513.995747563215
 20
1418.451436434109
 11
513.995747563215
 21
1425.00940494336
  0
LINE
  5
25B
100
AcDbEntity
  8
1
  6
CONTINUOUS
 62
           7
100
AcDbLine
 10
502.125828864028
 20
1418.451436434109
 11
502.125828864028
 21
1425.00940494336
  0
LINE
  5
25A
100
AcDbEntity
  8
1
  6
CONTINUOUS
 62
           7
100
AcDbLine
 10
496.190869514435
 20
1425.00940494336
 11
519.930706912809
 21
1425.00940494336
  0
LINE
  5
259
100
AcDbEntity
  8
1
  6
CONTINUOUS
 62
           7
100
AcDbLine
 10
519.088050339563
 20
1425.00940494336
 11
519.088050339563
 21
1427.626043413922
  0
LINE
  5
258
100
AcDbEntity
  8
1
  6
CONTINUOUS
 62
           7
100
AcDbLine
 10
497.033526087681
 20
1427.626043413922
 11
497.033526087681
 21
1425.00940494336
  0
LINE
  5
257
100
AcDbEntity
  8
1
  6
CONTINUOUS
 62
           7
100
AcDbLine
 10
509.543550013607
 20
1427.626043413922
 11
508.795939022017
 21
1425.00940494336
  0
LINE
  5
256
100
AcDbEntity
  8
1
  6
CONTINUOUS
 62
           7
100
AcDbLine
 10
507.325637405225
 20
1427.626043413922
 11
506.578026413636
 21
1425.00940494336
  0
LINE
  5
255
100
AcDbEntity
  8
1
  6
CONTINUOUS
 62
           7
100
AcDbLine
 10
519.088050339563
 20
1425.00940494336
 11
519.930706912809
 21
1425.00940494336
  0
LINE
  5
254
100
AcDbEntity
  8
1
  6
CONTINUOUS
 62
           7
100
AcDbLine
 10
496.190869514435
 20
1425.00940494336
 11
497.033526087681
 21
1425.00940494336
  0
LINE
  5
253
100
AcDbEntity
  8
1
  6
CONTINUOUS
 62
           7
100
AcDbLine
 10
467.853960143238
 20
1418.451436434109
 11
469.444227708073
 21
1417.533295027468
  0
LINE
  5
252
100
AcDbEntity
  8
1
  6
CONTINUOUS
 62
           7
100
AcDbLine
 10
490.003529976777
 20
1417.533295027468
 11
491.593797541612
 21
1418.451436434109
  0
LINE
  5
251
100
AcDbEntity
  8
1
  6
CONTINUOUS
 62
           7
100
AcDbLine
 10
491.593797541612
 20
1418.451436434109
 11
491.593797541612
 21
1425.00940494336
  0
LINE
  5
250
100
AcDbEntity
  8
1
  6
CONTINUOUS
 62
           7
100
AcDbLine
 10
469.444227708073
 20
1417.533295027468
 11
490.003529976777
 21
1417.533295027468
  0
LINE
  5
24F
100
AcDbEntity
  8
1
  6
CONTINUOUS
 62
           7
100
AcDbLine
 10
467.853960143238
 20
1425.00940494336
 11
467.853960143238
 21
1418.451436434109
  0
LINE
  5
24E
100
AcDbEntity
  8
1
  6
CONTINUOUS
 62
           7
100
AcDbLine
 10
485.658838192018
 20
1418.451436434109
 11
485.658838192018
 21
1425.00940494336
  0
LINE
  5
24D
100
AcDbEntity
  8
1
  6
CONTINUOUS
 62
           7
100
AcDbLine
 10
473.788919492831
 20
1418.451436434109
 11
473.788919492831
 21
1425.00940494336
  0
LINE
  5
24C
100
AcDbEntity
  8
1
  6
CONTINUOUS
 62
           7
100
AcDbLine
 10
467.853960143238
 20
1425.00940494336
 11
491.593797541612
 21
1425.00940494336
  0
LINE
  5
24B
100
AcDbEntity
  8
1
  6
CONTINUOUS
 62
           7
100
AcDbLine
 10
490.751140968366
 20
1425.00940494336
 11
490.751140968366
 21
1427.626043413922
  0
LINE
  5
24A
100
AcDbEntity
  8
1
  6
CONTINUOUS
 62
           7
100
AcDbLine
 10
468.696616716484
 20
1427.626043413922
 11
468.696616716484
 21
1425.00940494336
  0
LINE
  5
249
100
AcDbEntity
  8
1
  6
CONTINUOUS
 62
           7
100
AcDbLine
 10
481.20664064241
 20
1427.626043413922
 11
480.459029650821
 21
1425.00940494336
  0
LINE
  5
248
100
AcDbEntity
  8
1
  6
CONTINUOUS
 62
           7
100
AcDbLine
 10
478.988728034029
 20
1427.626043413922
 11
478.241117042439
 21
1425.00940494336
  0
LINE
  5
247
100
AcDbEntity
  8
1
  6
CONTINUOUS
 62
           7
100
AcDbLine
 10
490.751140968366
 20
1425.00940494336
 11
491.593797541612
 21
1425.00940494336
  0
LINE
  5
246
100
AcDbEntity
  8
1
  6
CONTINUOUS
 62
           7
100
AcDbLine
 10
467.853960143238
 20
1425.00940494336
 11
468.696616716484
 21
1425.00940494336
  0
LINE
  5
245
100
AcDbEntity
  8
1
  6
CONTINUOUS
 62
           7
100
AcDbLine
 10
755.699488598522
 20
1417.533295027468
 11
755.699488598522
 21
1237.70734422693
  0
LINE
  5
244
100
AcDbEntity
  8
1
  6
CONTINUOUS
 62
           7
100
AcDbLine
 10
500.496236566002
 20
1417.533295027468
 11
500.496236566002
 21
1237.70734422693
  0
LINE
  5
243
100
AcDbEntity
  8
1
  6
CONTINUOUS
 62
           7
100
AcDbLine
 10
363.992171525351
 20
567.056937722865
 11
423.341765021286
 21
567.056937722865
  0
LINE
  5
242
100
AcDbEntity
  8
1
  6
CONTINUOUS
 62
           7
100
AcDbLine
 10
411.4718463221
 20
567.056937722865
 11
411.4718463221
 21
1623.479701950508
  0
LINE
  5
241
100
AcDbEntity
  8
1
  6
CONTINUOUS
 62
           7
100
AcDbLine
 10
411.4718463221
 20
1623.479701950508
 11
375.862090224538
 21
1623.479701950508
  0
LINE
  5
240
100
AcDbEntity
  8
1
  6
CONTINUOUS
 62
           7
100
AcDbLine
 10
375.862090224538
 20
1623.479701950508
 11
375.862090224538
 21
567.056937722865
  0
LINE
  5
23F
100
AcDbEntity
  8
1
  6
CONTINUOUS
 62
           7
100
AcDbLine
 10
832.853960143238
 20
567.056937722865
 11
892.203553639173
 21
567.056937722865
  0
LINE
  5
23E
100
AcDbEntity
  8
1
  6
CONTINUOUS
 62
           7
100
AcDbLine
 10
880.333634939986
 20
567.056937722865
 11
880.333634939986
 21
1250.13578291511
  0
LINE
  5
23D
100
AcDbEntity
  8
1
  6
CONTINUOUS
 62
           7
100
AcDbLine
 10
880.333634939986
 20
1623.479701950508
 11
844.723878842425
 21
1623.479701950508
  0
LINE
  5
23C
100
AcDbEntity
  8
1
  6
CONTINUOUS
 62
           7
100
AcDbLine
 10
844.723878842425
 20
1623.479701950508
 11
844.723878842425
 21
1384.177996154246
  0
LINE
  5
23B
100
AcDbEntity
  8
1
  6
CONTINUOUS
 62
           7
100
AcDbLine
 10
892.203553639173
 20
567.056937722865
 11
892.203553639173
 21
561.121978373272
  0
LINE
  5
23A
100
AcDbEntity
  8
1
  6
CONTINUOUS
 62
           7
100
AcDbLine
 10
832.853960143238
 20
567.056937722865
 11
832.853960143238
 21
561.121978373272
  0
LINE
  5
239
100
AcDbEntity
  8
1
  6
CONTINUOUS
 62
           7
100
AcDbLine
 10
832.853960143238
 20
561.121978373272
 11
892.203553639173
 21
561.121978373272
  0
LINE
  5
238
100
AcDbEntity
  8
1
  6
CONTINUOUS
 62
           7
100
AcDbLine
 10
423.341765021286
 20
567.056937722865
 11
423.341765021286
 21
561.121978373272
  0
LINE
  5
237
100
AcDbEntity
  8
1
  6
CONTINUOUS
 62
           7
100
AcDbLine
 10
363.992171525351
 20
567.056937722865
 11
363.992171525351
 21
561.121978373272
  0
LINE
  5
236
100
AcDbEntity
  8
1
  6
CONTINUOUS
 62
           7
100
AcDbLine
 10
363.992171525351
 20
561.121978373272
 11
423.341765021286
 21
561.121978373272
  0
LINE
  5
235
100
AcDbEntity
  8
1
  6
CONTINUOUS
 62
           7
100
AcDbLine
 10
589.520626809904
 20
1095.268319836687
 11
598.423065834294
 21
1095.268319836687
  0
LINE
  5
234
100
AcDbEntity
  8
1
  6
CONTINUOUS
 62
           7
100
AcDbLine
 10
666.67509835462
 20
1095.268319836687
 11
666.67509835462
 21
1136.813035283841
  0
LINE
  5
233
100
AcDbEntity
  8
1
  6
CONTINUOUS
 62
           7
100
AcDbLine
 10
666.67509835462
 20
1136.813035283841
 11
657.77265933023
 21
1136.813035283841
  0
LINE
  5
232
100
AcDbEntity
  8
1
  6
CONTINUOUS
 62
           7
100
AcDbLine
 10
589.520626809904
 20
1136.813035283841
 11
589.520626809904
 21
1095.268319836687
  0
LINE
  5
231
100
AcDbEntity
  8
1
  6
CONTINUOUS
 62
           7
100
AcDbLine
 10
411.4718463221
 20
751.040677560264
 11
598.423065834294
 21
751.040677560264
  0
LINE
  5
230
100
AcDbEntity
  8
1
  6
CONTINUOUS
 62
           7
100
AcDbLine
 10
411.4718463221
 20
727.30084016189
 11
598.423065834294
 21
727.30084016189
  0
LINE
  5
22F
100
AcDbEntity
  8
1
  6
CONTINUOUS
 62
           7
100
AcDbLine
 10
411.4718463221
 20
1119.008157235061
 11
524.236073964376
 21
1119.008157235061
  0
LINE
  5
22E
100
AcDbEntity
  8
1
  6
CONTINUOUS
 62
           7
100
AcDbLine
 10
547.97591136275
 20
1119.008157235061
 11
589.520626809904
 21
1119.008157235061
  0
LINE
  5
22D
100
AcDbEntity
  8
1
  6
CONTINUOUS
 62
           7
100
AcDbLine
 10
666.67509835462
 20
1119.008157235061
 11
708.219813801774
 21
1119.008157235061
  0
LINE
  5
22C
100
AcDbEntity
  8
1
  6
CONTINUOUS
 62
           7
100
AcDbLine
 10
731.959651200148
 20
1119.008157235061
 11
844.723878842425
 21
1119.008157235061
  0
LINE
  5
22B
100
AcDbEntity
  8
1
  6
CONTINUOUS
 62
           7
100
AcDbLine
 10
589.520626809904
 20
1053.723604389532
 11
589.520626809904
 21
1041.853685690345
  0
LINE
  5
22A
100
AcDbEntity
  8
1
  6
CONTINUOUS
 62
           7
100
AcDbLine
 10
589.520626809904
 20
780.715474308231
 11
666.67509835462
 21
780.715474308231
  0
LINE
  5
229
100
AcDbEntity
  8
1
  6
CONTINUOUS
 62
           7
100
AcDbLine
 10
666.67509835462
 20
780.715474308231
 11
666.67509835462
 21
952.829295446443
  0
LINE
  5
228
100
AcDbEntity
  8
1
  6
CONTINUOUS
 62
           7
100
AcDbLine
 10
904.07347233836
 20
561.121978373272
 11
993.097862582262
 21
561.121978373272
  0
LINE
  5
227
100
AcDbEntity
  8
1
  6
CONTINUOUS
 62
           7
100
AcDbLine
 10
993.097862582262
 20
561.121978373272
 11
993.097862582262
 21
917.219539348882
  0
LINE
  5
226
100
AcDbEntity
  8
1
  6
CONTINUOUS
 62
           7
100
AcDbLine
 10
993.097862582262
 20
917.219539348882
 11
904.07347233836
 21
917.219539348882
  0
LINE
  5
225
100
AcDbEntity
  8
1
  6
CONTINUOUS
 62
           7
100
AcDbLine
 10
904.07347233836
 20
917.219539348882
 11
904.07347233836
 21
561.121978373272
  0
LINE
  5
224
100
AcDbEntity
  8
1
  6
CONTINUOUS
 62
           7
100
AcDbLine
 10
352.122252826165
 20
561.121978373272
 11
352.122252826165
 21
917.219539348882
  0
LINE
  5
223
100
AcDbEntity
  8
1
  6
CONTINUOUS
 62
           7
100
AcDbLine
 10
352.122252826165
 20
917.219539348882
 11
263.097862582262
 21
917.219539348882
  0
LINE
  5
222
100
AcDbEntity
  8
1
  6
CONTINUOUS
 62
           7
100
AcDbLine
 10
263.097862582262
 20
917.219539348882
 11
263.097862582262
 21
561.121978373272
  0
LINE
  5
221
100
AcDbEntity
  8
1
  6
CONTINUOUS
 62
           7
100
AcDbLine
 10
263.097862582262
 20
561.121978373272
 11
352.122252826165
 21
561.121978373272
  0
LINE
  5
220
100
AcDbEntity
  8
1
  6
CONTINUOUS
 62
           7
100
AcDbLine
 10
880.333634939986
 20
751.040677560264
 11
904.07347233836
 21
751.040677560264
  0
LINE
  5
21F
100
AcDbEntity
  8
1
  6
CONTINUOUS
 62
           7
100
AcDbLine
 10
880.333634939986
 20
727.30084016189
 11
904.07347233836
 21
727.30084016189
  0
LINE
  5
21E
100
AcDbEntity
  8
1
  6
CONTINUOUS
 62
           7
100
AcDbLine
 10
352.122252826165
 20
727.30084016189
 11
375.862090224539
 21
727.30084016189
  0
LINE
  5
21D
100
AcDbEntity
  8
1
  6
CONTINUOUS
 62
           7
100
AcDbLine
 10
352.122252826165
 20
751.040677560264
 11
375.862090224539
 21
751.040677560264
  0
LINE
  5
21C
100
AcDbEntity
  8
1
  6
CONTINUOUS
 62
           7
100
AcDbLine
 10
589.520626809904
 20
780.715474308231
 11
589.520626809904
 21
756.975636909857
  0
LINE
  5
21B
100
AcDbEntity
  8
1
  6
CONTINUOUS
 62
           7
100
AcDbLine
 10
589.520626809904
 20
756.975636909857
 11
666.67509835462
 21
756.975636909857
  0
LINE
  5
21A
100
AcDbEntity
  8
1
  6
CONTINUOUS
 62
           7
100
AcDbLine
 10
666.67509835462
 20
756.975636909857
 11
666.67509835462
 21
780.715474308231
  0
LINE
  5
219
100
AcDbEntity
  8
1
  6
CONTINUOUS
 62
           7
100
AcDbLine
 10
623.28203763775
 20
779.062135642887
 11
632.913687526774
 21
779.062135642887
  0
LINE
  5
218
100
AcDbEntity
  8
1
  6
CONTINUOUS
 62
           7
100
AcDbLine
 10
632.913687526774
 20
758.628975575201
 11
623.28203763775
 21
758.628975575201
  0
LINE
  5
217
100
AcDbEntity
  8
1
  6
CONTINUOUS
 62
           7
100
AcDbLine
 10
661.859273410108
 20
779.062135642887
 11
666.67509835462
 21
779.062135642887
  0
LINE
  5
216
100
AcDbEntity
  8
1
  6
CONTINUOUS
 62
           7
100
AcDbLine
 10
661.859273410108
 20
758.628975575201
 11
666.67509835462
 21
758.628975575201
  0
LINE
  5
215
100
AcDbEntity
  8
1
  6
CONTINUOUS
 62
           7
100
AcDbLine
 10
632.913687526774
 20
779.062135642887
 11
632.913687526774
 21
758.628975575201
  0
LINE
  5
214
100
AcDbEntity
  8
1
  6
CONTINUOUS
 62
           7
100
AcDbLine
 10
623.28203763775
 20
779.062135642887
 11
623.28203763775
 21
758.628975575201
  0
LINE
  5
213
100
AcDbEntity
  8
1
  6
CONTINUOUS
 62
           7
100
AcDbLine
 10
661.859273410108
 20
779.062135642887
 11
661.859273410108
 21
758.628975575201
  0
LINE
  5
212
100
AcDbEntity
  8
1
  6
CONTINUOUS
 62
           7
100
AcDbLine
 10
589.520626809904
 20
779.062135642887
 11
594.336451754416
 21
779.062135642887
  0
LINE
  5
211
100
AcDbEntity
  8
1
  6
CONTINUOUS
 62
           7
100
AcDbLine
 10
594.336451754416
 20
779.062135642887
 11
594.336451754416
 21
758.628975575201
  0
LINE
  5
210
100
AcDbEntity
  8
1
  6
CONTINUOUS
 62
           7
100
AcDbLine
 10
594.336451754416
 20
758.628975575201
 11
589.520626809904
 21
758.628975575201
  0
LINE
  5
20F
100
AcDbEntity
  8
1
  6
CONTINUOUS
 62
           7
100
AcDbLine
 10
598.423065834294
 20
756.975636909857
 11
598.423065834294
 21
697.626043413922
  0
LINE
  5
20E
100
AcDbEntity
  8
1
  6
CONTINUOUS
 62
           7
100
AcDbLine
 10
598.423065834294
 20
697.626043413922
 11
657.77265933023
 21
697.626043413922
  0
LINE
  5
20D
100
AcDbEntity
  8
1
  6
CONTINUOUS
 62
           7
100
AcDbLine
 10
657.77265933023
 20
697.626043413922
 11
657.77265933023
 21
756.975636909857
  0
LINE
  5
20C
100
AcDbEntity
  8
1
  6
CONTINUOUS
 62
           7
100
AcDbLine
 10
657.77265933023
 20
751.040677560264
 11
844.723878842425
 21
751.040677560264
  0
LINE
  5
20B
100
AcDbEntity
  8
1
  6
CONTINUOUS
 62
           7
100
AcDbLine
 10
657.77265933023
 20
727.30084016189
 11
844.723878842425
 21
727.30084016189
  0
LINE
  5
20A
100
AcDbEntity
  8
1
  6
CONTINUOUS
 62
           7
100
AcDbLine
 10
604.358025183888
 20
632.341490568394
 11
651.837699980636
 21
632.341490568394
  0
LINE
  5
209
100
AcDbEntity
  8
1
  6
CONTINUOUS
 62
           7
100
AcDbLine
 10
651.837699980636
 20
632.341490568394
 11
651.837699980636
 21
679.821165365142
  0
LINE
  5
208
100
AcDbEntity
  8
1
  6
CONTINUOUS
 62
           7
100
AcDbLine
 10
651.837699980636
 20
679.821165365142
 11
604.358025183888
 21
679.821165365142
  0
LINE
  5
207
100
AcDbEntity
  8
1
  6
CONTINUOUS
 62
           7
100
AcDbLine
 10
604.358025183888
 20
679.821165365142
 11
604.358025183888
 21
632.341490568394
  0
LINE
  5
206
100
AcDbEntity
  8
1
  6
CONTINUOUS
 62
           7
100
AcDbLine
 10
648.870220305839
 20
697.626043413922
 11
648.870220305839
 21
679.821165365142
  0
LINE
  5
205
100
AcDbEntity
  8
1
  6
CONTINUOUS
 62
           7
100
AcDbLine
 10
607.325504858685
 20
697.626043413922
 11
607.325504858685
 21
679.821165365142
  0
LINE
  5
204
100
AcDbEntity
  8
1
  6
CONTINUOUS
 62
           7
100
AcDbLine
 10
363.992171525351
 20
1552.260189755386
 11
363.992171525351
 21
1641.284579999288
  0
LINE
  5
203
100
AcDbEntity
  8
1
  6
CONTINUOUS
 62
           7
100
AcDbLine
 10
417.406805671693
 20
1694.69921414563
 11
494.561277216408
 21
1694.69921414563
  0
LINE
  5
202
100
AcDbEntity
  8
1
  6
CONTINUOUS
 62
           7
100
AcDbLine
 10
892.203553639173
 20
1641.284579999288
 11
892.203553639173
 21
1552.260189755386
  0
LINE
  5
201
100
AcDbEntity
  8
1
  6
CONTINUOUS
 62
           7
100
AcDbLine
 10
892.203553639173
 20
1552.260189755386
 11
880.333634939986
 21
1552.260189755386
  0
LINE
  5
200
100
AcDbEntity
  8
1
  6
CONTINUOUS
 62
           7
100
AcDbLine
 10
393.666968273319
 20
1623.479701950508
 11
393.666968273319
 21
1641.284579999288
  0
LINE
  5
1FF
100
AcDbEntity
  8
1
  6
CONTINUOUS
 62
           7
100
AcDbLine
 10
417.406805671693
 20
1665.024417397662
 11
467.551878987918
 21
1665.024417397662
  0
LINE
  5
1FE
100
AcDbEntity
  8
1
  6
CONTINUOUS
 62
           7
100
AcDbLine
 10
862.528756891205
 20
1641.284579999288
 11
862.528756891205
 21
1623.479701950508
  0
LINE
  5
1FD
100
AcDbEntity
  8
1
  6
CONTINUOUS
 62
           7
100
AcDbLine
 10
363.992171525351
 20
1552.260189755386
 11
375.862090224538
 21
1552.260189755386
  0
LINE
  5
1FC
100
AcDbEntity
  8
1
  6
CONTINUOUS
 62
           7
100
AcDbLine
 10
761.634447948116
 20
1694.69921414563
 11
817.327072821805
 21
1694.69921414563
  0
LINE
  5
1FB
100
AcDbEntity
  8
1
  6
CONTINUOUS
 62
           7
100
AcDbLine
 10
788.643846176606
 20
1665.024417397662
 11
808.608176556876
 21
1665.024417397662
  0
LINE
  5
1FA
100
AcDbEntity
  8
1
  6
CONTINUOUS
 62
           7
100
AcDbLine
 10
586.553147135108
 20
952.829295446443
 11
669.642578029417
 21
952.829295446443
  0
LINE
  5
1F9
100
AcDbEntity
  8
1
  6
CONTINUOUS
 62
           7
100
AcDbLine
 10
669.642578029417
 20
952.829295446443
 11
669.642578029417
 21
1041.853685690345
  0
LINE
  5
1F8
100
AcDbEntity
  8
1
  6
CONTINUOUS
 62
           7
100
AcDbLine
 10
669.642578029417
 20
1041.853685690345
 11
586.553147135108
 21
1041.853685690345
  0
LINE
  5
1F7
100
AcDbEntity
  8
1
  6
CONTINUOUS
 62
           7
100
AcDbLine
 10
586.553147135108
 20
1041.853685690345
 11
586.553147135108
 21
952.829295446443
  0
LINE
  5
1F6
100
AcDbEntity
  8
1
  6
CONTINUOUS
 62
           7
100
AcDbLine
 10
598.423065834294
 20
1041.853685690345
 11
598.423065834294
 21
1190.227669430183
  0
LINE
  5
1F5
100
AcDbEntity
  8
1
  6
CONTINUOUS
 62
           7
100
AcDbLine
 10
598.423065834294
 20
1190.227669430183
 11
657.77265933023
 21
1190.227669430183
  0
LINE
  5
1F4
100
AcDbEntity
  8
1
  6
CONTINUOUS
 62
           7
100
AcDbLine
 10
657.77265933023
 20
1190.227669430183
 11
657.77265933023
 21
1041.853685690345
  0
LINE
  5
1F3
100
AcDbEntity
  8
1
  6
CONTINUOUS
 62
           7
100
AcDbLine
 10
666.67509835462
 20
1041.853685690345
 11
666.67509835462
 21
1053.723604389532
  0
LINE
  5
1F2
100
AcDbEntity
  8
1
  6
CONTINUOUS
 62
           7
100
AcDbLine
 10
619.195423557872
 20
1190.227669430183
 11
619.195423557872
 21
1202.097588129369
  0
LINE
  5
1F1
100
AcDbEntity
  8
1
  6
CONTINUOUS
 62
           7
100
AcDbLine
 10
619.195423557872
 20
1202.097588129369
 11
637.000301606652
 21
1202.097588129369
  0
LINE
  5
1F0
100
AcDbEntity
  8
1
  6
CONTINUOUS
 62
           7
100
AcDbLine
 10
637.000301606652
 20
1202.097588129369
 11
637.000301606652
 21
1190.227669430183
  0
LINE
  5
1EF
100
AcDbEntity
  8
1
  6
CONTINUOUS
 62
           7
100
AcDbLine
 10
637.000301606652
 20
1196.162628779776
 11
844.723878842425
 21
1196.162628779776
  0
LINE
  5
1EE
100
AcDbEntity
  8
1
  6
CONTINUOUS
 62
           7
100
AcDbLine
 10
598.423065834294
 20
1136.813035283841
 11
589.520626809904
 21
1136.813035283841
  0
LINE
  5
1ED
100
AcDbEntity
  8
1
  6
CONTINUOUS
 62
           7
100
AcDbLine
 10
657.77265933023
 20
1095.268319836687
 11
666.67509835462
 21
1095.268319836687
  0
LINE
  5
1EC
100
AcDbEntity
  8
1
  6
CONTINUOUS
 62
           7
100
AcDbLine
 10
598.423065834294
 20
1077.463441787906
 11
521.268594289579
 21
1077.463441787906
  0
LINE
  5
1EB
100
AcDbEntity
  8
1
  6
CONTINUOUS
 62
           7
100
AcDbLine
 10
657.77265933023
 20
1053.723604389532
 11
734.927130874945
 21
1053.723604389532
  0
LINE
  5
1EA
100
AcDbEntity
  8
1
  6
CONTINUOUS
 62
           7
100
AcDbLine
 10
844.723878842425
 20
840.065067804166
 11
797.244204045677
 21
751.040677560264
  0
LINE
  5
1E9
100
AcDbEntity
  8
1
  6
CONTINUOUS
 62
           7
100
AcDbLine
 10
458.951521118848
 20
751.040677560264
 11
411.4718463221
 21
840.065067804166
  0
LINE
  5
1E8
100
AcDbEntity
  8
1
  6
CONTINUOUS
 62
           7
100
AcDbLine
 10
619.195423557872
 20
987.643917761586
 11
619.195423557872
 21
977.364266627234
  0
LINE
  5
1E7
100
AcDbEntity
  8
1
  6
CONTINUOUS
 62
           7
100
AcDbLine
 10
619.195423557872
 20
977.364266627234
 11
628.097862582262
 21
972.224441060058
  0
LINE
  5
1E6
100
AcDbEntity
  8
1
  6
CONTINUOUS
 62
           7
100
AcDbLine
 10
628.097862582262
 20
972.224441060058
 11
637.000301606652
 21
977.364266627234
  0
LINE
  5
1E5
100
AcDbEntity
  8
1
  6
CONTINUOUS
 62
           7
100
AcDbLine
 10
637.000301606652
 20
977.364266627234
 11
637.000301606652
 21
987.643917761586
  0
LINE
  5
1E4
100
AcDbEntity
  8
1
  6
CONTINUOUS
 62
           7
100
AcDbLine
 10
637.000301606652
 20
987.643917761586
 11
628.097862582262
 21
992.783743328762
  0
LINE
  5
1E3
100
AcDbEntity
  8
1
  6
CONTINUOUS
 62
           7
100
AcDbLine
 10
628.097862582262
 20
992.783743328762
 11
619.195423557872
 21
987.643917761586
  0
LINE
  5
1E2
100
AcDbEntity
  8
1
  6
CONTINUOUS
 62
           7
100
AcDbLine
 10
732.478475515833
 20
1240.323982697493
 11
731.635818942587
 21
1240.323982697493
  0
LINE
  5
1E1
100
AcDbEntity
  8
1
  6
CONTINUOUS
 62
           7
100
AcDbLine
 10
755.375656340961
 20
1240.323982697493
 11
754.532999767715
 21
1240.323982697493
  0
LINE
  5
1E0
100
AcDbEntity
  8
1
  6
CONTINUOUS
 62
           7
100
AcDbLine
 10
742.022975841789
 20
1240.323982697493
 11
742.770586833378
 21
1237.70734422693
  0
LINE
  5
1DF
100
AcDbEntity
  8
1
  6
CONTINUOUS
 62
           7
100
AcDbLine
 10
744.24088845017
 20
1240.323982697493
 11
744.988499441759
 21
1237.70734422693
  0
LINE
  5
1DE
100
AcDbEntity
  8
1
  6
CONTINUOUS
 62
           7
100
AcDbLine
 10
732.478475515833
 20
1240.323982697493
 11
732.478475515833
 21
1237.70734422693
  0
LINE
  5
1DD
100
AcDbEntity
  8
1
  6
CONTINUOUS
 62
           7
100
AcDbLine
 10
754.532999767715
 20
1237.70734422693
 11
754.532999767715
 21
1240.323982697493
  0
LINE
  5
1DC
100
AcDbEntity
  8
1
  6
CONTINUOUS
 62
           7
100
AcDbLine
 10
755.375656340961
 20
1240.323982697493
 11
731.635818942587
 21
1240.323982697493
  0
LINE
  5
1DB
100
AcDbEntity
  8
1
  6
CONTINUOUS
 62
           7
100
AcDbLine
 10
737.57077829218
 20
1240.323982697493
 11
737.57077829218
 21
1246.881951206744
  0
LINE
  5
1DA
100
AcDbEntity
  8
1
  6
CONTINUOUS
 62
           7
100
AcDbLine
 10
749.440696991367
 20
1240.323982697493
 11
749.440696991367
 21
1246.881951206744
  0
LINE
  5
1D9
100
AcDbEntity
  8
1
  6
CONTINUOUS
 62
           7
100
AcDbLine
 10
731.635818942587
 20
1246.881951206744
 11
731.635818942587
 21
1240.323982697493
  0
LINE
  5
1D8
100
AcDbEntity
  8
1
  6
CONTINUOUS
 62
           7
100
AcDbLine
 10
753.785388776126
 20
1247.800092613385
 11
733.226086507422
 21
1247.800092613385
  0
LINE
  5
1D7
100
AcDbEntity
  8
1
  6
CONTINUOUS
 62
           7
100
AcDbLine
 10
755.375656340961
 20
1240.323982697493
 11
755.375656340961
 21
1246.881951206744
  0
LINE
  5
1D6
100
AcDbEntity
  8
1
  6
CONTINUOUS
 62
           7
100
AcDbLine
 10
755.375656340961
 20
1246.881951206744
 11
753.785388776126
 21
1247.800092613385
  0
LINE
  5
1D5
100
AcDbEntity
  8
1
  6
CONTINUOUS
 62
           7
100
AcDbLine
 10
733.226086507422
 20
1247.800092613385
 11
731.635818942587
 21
1246.881951206744
  0
LINE
  5
1D4
100
AcDbEntity
  8
1
  6
CONTINUOUS
 62
           7
100
AcDbLine
 10
501.662725396809
 20
1240.323982697493
 11
500.820068823563
 21
1240.323982697493
  0
LINE
  5
1D3
100
AcDbEntity
  8
1
  6
CONTINUOUS
 62
           7
100
AcDbLine
 10
524.559906221937
 20
1240.323982697493
 11
523.717249648691
 21
1240.323982697493
  0
LINE
  5
1D2
100
AcDbEntity
  8
1
  6
CONTINUOUS
 62
           7
100
AcDbLine
 10
511.207225722765
 20
1240.323982697493
 11
511.954836714354
 21
1237.70734422693
  0
LINE
  5
1D1
100
AcDbEntity
  8
1
  6
CONTINUOUS
 62
           7
100
AcDbLine
 10
513.425138331147
 20
1240.323982697493
 11
514.172749322736
 21
1237.70734422693
  0
LINE
  5
1D0
100
AcDbEntity
  8
1
  6
CONTINUOUS
 62
           7
100
AcDbLine
 10
501.662725396809
 20
1240.323982697493
 11
501.662725396809
 21
1237.70734422693
  0
LINE
  5
1CF
100
AcDbEntity
  8
1
  6
CONTINUOUS
 62
           7
100
AcDbLine
 10
523.717249648691
 20
1237.70734422693
 11
523.717249648691
 21
1240.323982697493
  0
LINE
  5
1CE
100
AcDbEntity
  8
1
  6
CONTINUOUS
 62
           7
100
AcDbLine
 10
524.559906221937
 20
1240.323982697493
 11
500.820068823563
 21
1240.323982697493
  0
LINE
  5
1CD
100
AcDbEntity
  8
1
  6
CONTINUOUS
 62
           7
100
AcDbLine
 10
506.755028173157
 20
1240.323982697493
 11
506.755028173157
 21
1246.881951206744
  0
LINE
  5
1CC
100
AcDbEntity
  8
1
  6
CONTINUOUS
 62
           7
100
AcDbLine
 10
518.624946872344
 20
1240.323982697493
 11
518.624946872344
 21
1246.881951206744
  0
LINE
  5
1CB
100
AcDbEntity
  8
1
  6
CONTINUOUS
 62
           7
100
AcDbLine
 10
500.820068823563
 20
1246.881951206744
 11
500.820068823563
 21
1240.323982697493
  0
LINE
  5
1CA
100
AcDbEntity
  8
1
  6
CONTINUOUS
 62
           7
100
AcDbLine
 10
522.969638657102
 20
1247.800092613385
 11
502.410336388398
 21
1247.800092613385
  0
LINE
  5
1C9
100
AcDbEntity
  8
1
  6
CONTINUOUS
 62
           7
100
AcDbLine
 10
524.559906221937
 20
1240.323982697493
 11
524.559906221937
 21
1246.881951206744
  0
LINE
  5
1C8
100
AcDbEntity
  8
1
  6
CONTINUOUS
 62
           7
100
AcDbLine
 10
524.559906221937
 20
1246.881951206744
 11
522.969638657102
 21
1247.800092613385
  0
LINE
  5
1C7
100
AcDbEntity
  8
1
  6
CONTINUOUS
 62
           7
100
AcDbLine
 10
502.410336388398
 20
1247.800092613385
 11
500.820068823563
 21
1246.881951206744
  0
LINE
  5
1C6
100
AcDbEntity
  8
1
  6
CONTINUOUS
 62
           7
100
AcDbLine
 10
712.671033313969
 20
1049.305129543028
 11
712.671033313969
 21
1040.386318185792
  0
LINE
  5
1C5
100
AcDbEntity
  8
1
  6
CONTINUOUS
 62
           7
100
AcDbLine
 10
727.508431687953
 20
1049.305129543028
 11
727.508431687953
 21
1040.386318185792
  0
LINE
  5
1C4
100
AcDbEntity
  8
1
  6
CONTINUOUS
 62
           7
100
AcDbLine
 10
705.252334126978
 20
1040.386318185792
 11
705.252334126978
 21
1049.305129543028
  0
LINE
  5
1C3
100
AcDbEntity
  8
1
  6
CONTINUOUS
 62
           7
100
AcDbLine
 10
732.939296418901
 20
1039.238641427491
 11
707.240168583021
 21
1039.238641427491
  0
LINE
  5
1C2
100
AcDbEntity
  8
1
  6
CONTINUOUS
 62
           7
100
AcDbLine
 10
734.927130874945
 20
1049.305129543028
 11
734.927130874945
 21
1040.386318185792
  0
LINE
  5
1C1
100
AcDbEntity
  8
1
  6
CONTINUOUS
 62
           7
100
AcDbLine
 10
705.252334126978
 20
1049.305129543028
 11
707.240168583021
 21
1050.452806301329
  0
LINE
  5
1C0
100
AcDbEntity
  8
1
  6
CONTINUOUS
 62
           7
100
AcDbLine
 10
707.240168583021
 20
1039.238641427491
 11
705.252334126978
 21
1040.386318185792
  0
LINE
  5
1BF
100
AcDbEntity
  8
1
  6
CONTINUOUS
 62
           7
100
AcDbLine
 10
734.927130874945
 20
1040.386318185792
 11
732.939296418901
 21
1039.238641427491
  0
LINE
  5
1BE
100
AcDbEntity
  8
1
  6
CONTINUOUS
 62
           7
100
AcDbLine
 10
732.939296418901
 20
1050.452806301329
 11
734.927130874945
 21
1049.305129543028
  0
LINE
  5
1BD
100
AcDbEntity
  8
1
  6
CONTINUOUS
 62
           7
100
AcDbLine
 10
706.305654843535
 20
1050.452806301329
 11
706.305654843535
 21
1053.723604389532
  0
LINE
  5
1BC
100
AcDbEntity
  8
1
  6
CONTINUOUS
 62
           7
100
AcDbLine
 10
733.873810158388
 20
1050.452806301329
 11
706.305654843535
 21
1050.452806301329
  0
LINE
  5
1BB
100
AcDbEntity
  8
1
  6
CONTINUOUS
 62
           7
100
AcDbLine
 10
733.873810158388
 20
1053.723604389532
 11
733.873810158388
 21
1050.452806301329
  0
LINE
  5
1BA
100
AcDbEntity
  8
1
  6
CONTINUOUS
 62
           7
100
AcDbLine
 10
718.23628025098
 20
1053.723604389532
 11
719.170793990466
 21
1050.452806301329
  0
LINE
  5
1B9
100
AcDbEntity
  8
1
  6
CONTINUOUS
 62
           7
100
AcDbLine
 10
721.008671011456
 20
1053.723604389532
 11
721.943184750943
 21
1050.452806301329
  0
LINE
  5
1B8
100
AcDbEntity
  8
1
  6
CONTINUOUS
 62
           7
100
AcDbLine
 10
534.252540413581
 20
1050.452806301329
 11
535.187054153068
 21
1053.723604389532
  0
LINE
  5
1B7
100
AcDbEntity
  8
1
  6
CONTINUOUS
 62
           7
100
AcDbLine
 10
537.024931174058
 20
1050.452806301329
 11
537.959444913545
 21
1053.723604389532
  0
LINE
  5
1B6
100
AcDbEntity
  8
1
  6
CONTINUOUS
 62
           7
100
AcDbLine
 10
522.321915006137
 20
1050.452806301329
 11
522.321915006137
 21
1053.723604389532
  0
LINE
  5
1B5
100
AcDbEntity
  8
1
  6
CONTINUOUS
 62
           7
100
AcDbLine
 10
549.890070320989
 20
1050.452806301329
 11
522.321915006137
 21
1050.452806301329
  0
LINE
  5
1B4
100
AcDbEntity
  8
1
  6
CONTINUOUS
 62
           7
100
AcDbLine
 10
549.890070320989
 20
1053.723604389532
 11
549.890070320989
 21
1050.452806301329
  0
LINE
  5
1B3
100
AcDbEntity
  8
1
  6
CONTINUOUS
 62
           7
100
AcDbLine
 10
521.268594289579
 20
1049.305129543028
 11
523.256428745623
 21
1050.452806301329
  0
LINE
  5
1B2
100
AcDbEntity
  8
1
  6
CONTINUOUS
 62
           7
100
AcDbLine
 10
523.256428745623
 20
1039.238641427491
 11
521.268594289579
 21
1040.386318185792
  0
LINE
  5
1B1
100
AcDbEntity
  8
1
  6
CONTINUOUS
 62
           7
100
AcDbLine
 10
550.943391037547
 20
1040.386318185792
 11
548.955556581503
 21
1039.238641427491
  0
LINE
  5
1B0
100
AcDbEntity
  8
1
  6
CONTINUOUS
 62
           7
100
AcDbLine
 10
548.955556581503
 20
1050.452806301329
 11
550.943391037547
 21
1049.305129543028
  0
LINE
  5
1AF
100
AcDbEntity
  8
1
  6
CONTINUOUS
 62
           7
100
AcDbLine
 10
521.268594289579
 20
1040.386318185792
 11
521.268594289579
 21
1049.305129543028
  0
LINE
  5
1AE
100
AcDbEntity
  8
1
  6
CONTINUOUS
 62
           7
100
AcDbLine
 10
548.955556581503
 20
1039.238641427491
 11
523.256428745623
 21
1039.238641427491
  0
LINE
  5
1AD
100
AcDbEntity
  8
1
  6
CONTINUOUS
 62
           7
100
AcDbLine
 10
550.943391037547
 20
1049.305129543028
 11
550.943391037547
 21
1040.386318185792
  0
LINE
  5
1AC
100
AcDbEntity
  8
1
  6
CONTINUOUS
 62
           7
100
AcDbLine
 10
528.687293476571
 20
1040.386318185792
 11
528.687293476571
 21
1049.305129543028
  0
LINE
  5
1AB
100
AcDbEntity
  8
1
  6
CONTINUOUS
 62
           7
100
AcDbLine
 10
543.524691850555
 20
1040.386318185792
 11
543.524691850555
 21
1049.305129543028
  0
LINE
  5
1AA
100
AcDbEntity
  8
1
  6
CONTINUOUS
 62
           7
100
AcDbLine
 10
728.992171525352
 20
1039.238641427491
 11
728.992171525352
 21
1028.852462565702
  0
LINE
  5
1A9
100
AcDbEntity
  8
1
  6
CONTINUOUS
 62
           7
100
AcDbLine
 10
727.508431687953
 20
1027.368722728304
 11
712.671033313969
 21
1027.368722728304
  0
LINE
  5
1A8
100
AcDbEntity
  8
1
  6
CONTINUOUS
 62
           7
100
AcDbLine
 10
711.187293476571
 20
1028.852462565702
 11
711.187293476571
 21
1039.238641427491
  0
LINE
  5
1A7
100
AcDbEntity
  8
1
  6
CONTINUOUS
 62
           7
100
AcDbLine
 10
712.671033313969
 20
1039.238641427491
 11
712.671033313969
 21
1027.368722728304
  0
LINE
  5
1A6
100
AcDbEntity
  8
1
  6
CONTINUOUS
 62
           7
100
AcDbLine
 10
727.508431687953
 20
1039.238641427491
 11
727.508431687953
 21
1027.368722728304
  0
LINE
  5
1A5
100
AcDbEntity
  8
1
  6
CONTINUOUS
 62
           7
100
AcDbLine
 10
711.187293476571
 20
1028.852462565702
 11
712.671033313969
 21
1027.368722728304
  0
LINE
  5
1A4
100
AcDbEntity
  8
1
  6
CONTINUOUS
 62
           7
100
AcDbLine
 10
727.508431687953
 20
1027.368722728304
 11
728.992171525352
 21
1028.852462565702
  0
LINE
  5
1A3
100
AcDbEntity
  8
1
  6
CONTINUOUS
 62
           7
100
AcDbLine
 10
711.187293476571
 20
1028.852462565702
 11
728.992171525352
 21
1028.852462565702
  0
LINE
  5
1A2
100
AcDbEntity
  8
1
  6
CONTINUOUS
 62
           7
100
AcDbLine
 10
527.203553639173
 20
1028.852462565702
 11
545.008431687953
 21
1028.852462565702
  0
LINE
  5
1A1
100
AcDbEntity
  8
1
  6
CONTINUOUS
 62
           7
100
AcDbLine
 10
527.203553639173
 20
1028.852462565702
 11
528.687293476571
 21
1027.368722728304
  0
LINE
  5
1A0
100
AcDbEntity
  8
1
  6
CONTINUOUS
 62
           7
100
AcDbLine
 10
543.524691850555
 20
1027.368722728304
 11
545.008431687953
 21
1028.852462565702
  0
LINE
  5
19F
100
AcDbEntity
  8
1
  6
CONTINUOUS
 62
           7
100
AcDbLine
 10
543.524691850555
 20
1027.368722728304
 11
528.687293476571
 21
1027.368722728304
  0
LINE
  5
19E
100
AcDbEntity
  8
1
  6
CONTINUOUS
 62
           7
100
AcDbLine
 10
528.687293476571
 20
1027.368722728304
 11
528.687293476571
 21
1039.238641427491
  0
LINE
  5
19D
100
AcDbEntity
  8
1
  6
CONTINUOUS
 62
           7
100
AcDbLine
 10
527.203553639173
 20
1028.852462565702
 11
527.203553639173
 21
1039.238641427491
  0
LINE
  5
19C
100
AcDbEntity
  8
1
  6
CONTINUOUS
 62
           7
100
AcDbLine
 10
543.524691850555
 20
1027.368722728304
 11
543.524691850555
 21
1039.238641427491
  0
LINE
  5
19B
100
AcDbEntity
  8
1
  6
CONTINUOUS
 62
           7
100
AcDbLine
 10
545.008431687953
 20
1039.238641427491
 11
545.008431687953
 21
1028.852462565702
  0
LINE
  5
19A
100
AcDbEntity
  8
1
  6
CONTINUOUS
 62
           7
100
AcDbLine
 10
362.02969267243
 20
1597.404377307272
 11
362.02969267243
 21
1596.772384877337
  0
LINE
  5
199
100
AcDbEntity
  8
1
  6
CONTINUOUS
 62
           7
100
AcDbLine
 10
362.02969267243
 20
1614.577262926117
 11
362.02969267243
 21
1613.945270496183
  0
LINE
  5
198
100
AcDbEntity
  8
1
  6
CONTINUOUS
 62
           7
100
AcDbLine
 10
362.02969267243
 20
1604.562752551738
 11
363.992171525351
 21
1605.12346079543
  0
LINE
  5
197
100
AcDbEntity
  8
1
  6
CONTINUOUS
 62
           7
100
AcDbLine
 10
362.02969267243
 20
1606.226187008024
 11
363.992171525351
 21
1606.786895251716
  0
LINE
  5
196
100
AcDbEntity
  8
1
  6
CONTINUOUS
 62
           7
100
AcDbLine
 10
362.02969267243
 20
1597.404377307272
 11
363.992171525351
 21
1597.404377307272
  0
LINE
  5
195
100
AcDbEntity
  8
1
  6
CONTINUOUS
 62
           7
100
AcDbLine
 10
363.992171525351
 20
1613.945270496183
 11
362.02969267243
 21
1613.945270496183
  0
LINE
  5
194
100
AcDbEntity
  8
1
  6
CONTINUOUS
 62
           7
100
AcDbLine
 10
362.02969267243
 20
1614.577262926117
 11
362.02969267243
 21
1596.772384877337
  0
LINE
  5
193
100
AcDbEntity
  8
1
  6
CONTINUOUS
 62
           7
100
AcDbLine
 10
362.02969267243
 20
1601.223604389532
 11
357.111216290491
 21
1601.223604389532
  0
LINE
  5
192
100
AcDbEntity
  8
1
  6
CONTINUOUS
 62
           7
100
AcDbLine
 10
362.02969267243
 20
1610.126043413922
 11
357.111216290491
 21
1610.126043413922
  0
LINE
  5
191
100
AcDbEntity
  8
1
  6
CONTINUOUS
 62
           7
100
AcDbLine
 10
357.111216290491
 20
1596.772384877337
 11
362.02969267243
 21
1596.772384877337
  0
LINE
  5
190
100
AcDbEntity
  8
1
  6
CONTINUOUS
 62
           7
100
AcDbLine
 10
356.42261023551
 20
1613.384562252491
 11
356.42261023551
 21
1597.965085550963
  0
LINE
  5
18F
100
AcDbEntity
  8
1
  6
CONTINUOUS
 62
           7
100
AcDbLine
 10
362.02969267243
 20
1614.577262926117
 11
357.111216290491
 21
1614.577262926117
  0
LINE
  5
18E
100
AcDbEntity
  8
1
  6
CONTINUOUS
 62
           7
100
AcDbLine
 10
357.111216290491
 20
1614.577262926117
 11
356.42261023551
 21
1613.384562252491
  0
LINE
  5
18D
100
AcDbEntity
  8
1
  6
CONTINUOUS
 62
           7
100
AcDbLine
 10
356.42261023551
 20
1597.965085550963
 11
357.111216290491
 21
1596.772384877337
  0
LINE
  5
18C
100
AcDbEntity
  8
1
  6
CONTINUOUS
 62
           7
100
AcDbLine
 10
356.42261023551
 20
1568.290288802996
 11
357.111216290491
 21
1567.097588129369
  0
LINE
  5
18B
100
AcDbEntity
  8
1
  6
CONTINUOUS
 62
           7
100
AcDbLine
 10
357.111216290491
 20
1584.90246617815
 11
356.42261023551
 21
1583.709765504524
  0
LINE
  5
18A
100
AcDbEntity
  8
1
  6
CONTINUOUS
 62
           7
100
AcDbLine
 10
362.02969267243
 20
1584.90246617815
 11
357.111216290491
 21
1584.90246617815
  0
LINE
  5
189
100
AcDbEntity
  8
1
  6
CONTINUOUS
 62
           7
100
AcDbLine
 10
356.42261023551
 20
1583.709765504524
 11
356.42261023551
 21
1568.290288802996
  0
LINE
  5
188
100
AcDbEntity
  8
1
  6
CONTINUOUS
 62
           7
100
AcDbLine
 10
357.111216290491
 20
1567.097588129369
 11
362.02969267243
 21
1567.097588129369
  0
LINE
  5
187
100
AcDbEntity
  8
1
  6
CONTINUOUS
 62
           7
100
AcDbLine
 10
362.02969267243
 20
1580.451246665955
 11
357.111216290491
 21
1580.451246665955
  0
LINE
  5
186
100
AcDbEntity
  8
1
  6
CONTINUOUS
 62
           7
100
AcDbLine
 10
362.02969267243
 20
1571.548807641565
 11
357.111216290491
 21
1571.548807641565
  0
LINE
  5
185
100
AcDbEntity
  8
1
  6
CONTINUOUS
 62
           7
100
AcDbLine
 10
362.02969267243
 20
1584.90246617815
 11
362.02969267243
 21
1567.097588129369
  0
LINE
  5
184
100
AcDbEntity
  8
1
  6
CONTINUOUS
 62
           7
100
AcDbLine
 10
363.992171525351
 20
1584.270473748215
 11
362.02969267243
 21
1584.270473748215
  0
LINE
  5
183
100
AcDbEntity
  8
1
  6
CONTINUOUS
 62
           7
100
AcDbLine
 10
362.02969267243
 20
1567.729580559304
 11
363.992171525351
 21
1567.729580559304
  0
LINE
  5
182
100
AcDbEntity
  8
1
  6
CONTINUOUS
 62
           7
100
AcDbLine
 10
362.02969267243
 20
1576.551390260057
 11
363.992171525351
 21
1577.112098503749
  0
LINE
  5
181
100
AcDbEntity
  8
1
  6
CONTINUOUS
 62
           7
100
AcDbLine
 10
362.02969267243
 20
1574.887955803771
 11
363.992171525351
 21
1575.448664047463
  0
LINE
  5
180
100
AcDbEntity
  8
1
  6
CONTINUOUS
 62
           7
100
AcDbLine
 10
362.02969267243
 20
1584.90246617815
 11
362.02969267243
 21
1584.270473748215
  0
LINE
  5
17F
100
AcDbEntity
  8
1
  6
CONTINUOUS
 62
           7
100
AcDbLine
 10
362.02969267243
 20
1567.729580559304
 11
362.02969267243
 21
1567.097588129369
  0
LINE
  5
17E
100
AcDbEntity
  8
1
  6
CONTINUOUS
 62
           7
100
AcDbLine
 10
894.166032492094
 20
1567.097588129369
 11
894.166032492094
 21
1567.729580559304
  0
LINE
  5
17D
100
AcDbEntity
  8
1
  6
CONTINUOUS
 62
           7
100
AcDbLine
 10
894.166032492094
 20
1584.270473748215
 11
894.166032492094
 21
1584.90246617815
  0
LINE
  5
17C
100
AcDbEntity
  8
1
  6
CONTINUOUS
 62
           7
100
AcDbLine
 10
892.203553639173
 20
1575.448664047463
 11
894.166032492094
 21
1574.887955803771
  0
LINE
  5
17B
100
AcDbEntity
  8
1
  6
CONTINUOUS
 62
           7
100
AcDbLine
 10
892.203553639173
 20
1577.112098503749
 11
894.166032492094
 21
1576.551390260057
  0
LINE
  5
17A
100
AcDbEntity
  8
1
  6
CONTINUOUS
 62
           7
100
AcDbLine
 10
892.203553639173
 20
1567.729580559304
 11
894.166032492094
 21
1567.729580559304
  0
LINE
  5
179
100
AcDbEntity
  8
1
  6
CONTINUOUS
 62
           7
100
AcDbLine
 10
894.166032492094
 20
1584.270473748215
 11
892.203553639173
 21
1584.270473748215
  0
LINE
  5
178
100
AcDbEntity
  8
1
  6
CONTINUOUS
 62
           7
100
AcDbLine
 10
894.166032492094
 20
1567.097588129369
 11
894.166032492094
 21
1584.90246617815
  0
LINE
  5
177
100
AcDbEntity
  8
1
  6
CONTINUOUS
 62
           7
100
AcDbLine
 10
899.084508874033
 20
1571.548807641565
 11
894.166032492094
 21
1571.548807641565
  0
LINE
  5
176
100
AcDbEntity
  8
1
  6
CONTINUOUS
 62
           7
100
AcDbLine
 10
899.084508874033
 20
1580.451246665955
 11
894.166032492094
 21
1580.451246665955
  0
LINE
  5
175
100
AcDbEntity
  8
1
  6
CONTINUOUS
 62
           7
100
AcDbLine
 10
894.166032492094
 20
1567.097588129369
 11
899.084508874033
 21
1567.097588129369
  0
LINE
  5
174
100
AcDbEntity
  8
1
  6
CONTINUOUS
 62
           7
100
AcDbLine
 10
899.773114929014
 20
1568.290288802996
 11
899.773114929014
 21
1583.709765504524
  0
LINE
  5
173
100
AcDbEntity
  8
1
  6
CONTINUOUS
 62
           7
100
AcDbLine
 10
899.084508874033
 20
1584.90246617815
 11
894.166032492094
 21
1584.90246617815
  0
LINE
  5
172
100
AcDbEntity
  8
1
  6
CONTINUOUS
 62
           7
100
AcDbLine
 10
899.773114929014
 20
1583.709765504524
 11
899.084508874033
 21
1584.90246617815
  0
LINE
  5
171
100
AcDbEntity
  8
1
  6
CONTINUOUS
 62
           7
100
AcDbLine
 10
899.084508874033
 20
1567.097588129369
 11
899.773114929014
 21
1568.290288802996
  0
LINE
  5
170
100
AcDbEntity
  8
1
  6
CONTINUOUS
 62
           7
100
AcDbLine
 10
899.084508874033
 20
1596.772384877337
 11
899.773114929014
 21
1597.965085550963
  0
LINE
  5
16F
100
AcDbEntity
  8
1
  6
CONTINUOUS
 62
           7
100
AcDbLine
 10
899.773114929014
 20
1613.384562252491
 11
899.084508874033
 21
1614.577262926117
  0
LINE
  5
16E
100
AcDbEntity
  8
1
  6
CONTINUOUS
 62
           7
100
AcDbLine
 10
899.084508874033
 20
1614.577262926117
 11
894.166032492094
 21
1614.577262926117
  0
LINE
  5
16D
100
AcDbEntity
  8
1
  6
CONTINUOUS
 62
           7
100
AcDbLine
 10
899.773114929014
 20
1597.965085550963
 11
899.773114929014
 21
1613.384562252491
  0
LINE
  5
16C
100
AcDbEntity
  8
1
  6
CONTINUOUS
 62
           7
100
AcDbLine
 10
894.166032492094
 20
1596.772384877337
 11
899.084508874033
 21
1596.772384877337
  0
LINE
  5
16B
100
AcDbEntity
  8
1
  6
CONTINUOUS
 62
           7
100
AcDbLine
 10
899.084508874033
 20
1610.126043413922
 11
894.166032492094
 21
1610.126043413922
  0
LINE
  5
16A
100
AcDbEntity
  8
1
  6
CONTINUOUS
 62
           7
100
AcDbLine
 10
899.084508874033
 20
1601.223604389532
 11
894.166032492094
 21
1601.223604389532
  0
LINE
  5
169
100
AcDbEntity
  8
1
  6
CONTINUOUS
 62
           7
100
AcDbLine
 10
894.166032492094
 20
1596.772384877337
 11
894.166032492094
 21
1614.577262926117
  0
LINE
  5
168
100
AcDbEntity
  8
1
  6
CONTINUOUS
 62
           7
100
AcDbLine
 10
894.166032492094
 20
1613.945270496183
 11
892.203553639173
 21
1613.945270496183
  0
LINE
  5
167
100
AcDbEntity
  8
1
  6
CONTINUOUS
 62
           7
100
AcDbLine
 10
892.203553639173
 20
1597.404377307272
 11
894.166032492094
 21
1597.404377307272
  0
LINE
  5
166
100
AcDbEntity
  8
1
  6
CONTINUOUS
 62
           7
100
AcDbLine
 10
892.203553639173
 20
1606.786895251716
 11
894.166032492094
 21
1606.226187008024
  0
LINE
  5
165
100
AcDbEntity
  8
1
  6
CONTINUOUS
 62
           7
100
AcDbLine
 10
892.203553639173
 20
1605.12346079543
 11
894.166032492094
 21
1604.562752551738
  0
LINE
  5
164
100
AcDbEntity
  8
1
  6
CONTINUOUS
 62
           7
100
AcDbLine
 10
894.166032492094
 20
1613.945270496183
 11
894.166032492094
 21
1614.577262926117
  0
LINE
  5
163
100
AcDbEntity
  8
1
  6
CONTINUOUS
 62
           7
100
AcDbLine
 10
894.166032492094
 20
1596.772384877337
 11
894.166032492094
 21
1597.404377307272
  0
LINE
  5
162
100
AcDbEntity
  8
1
  6
CONTINUOUS
 62
           7
100
AcDbLine
 10
418.35280155696
 20
1596.772384877337
 11
419.04140761194
 21
1597.965085550963
  0
LINE
  5
161
100
AcDbEntity
  8
1
  6
CONTINUOUS
 62
           7
100
AcDbLine
 10
419.04140761194
 20
1613.384562252491
 11
418.35280155696
 21
1614.577262926117
  0
LINE
  5
160
100
AcDbEntity
  8
1
  6
CONTINUOUS
 62
           7
100
AcDbLine
 10
418.35280155696
 20
1614.577262926117
 11
413.434325175021
 21
1614.577262926117
  0
LINE
  5
15F
100
AcDbEntity
  8
1
  6
CONTINUOUS
 62
           7
100
AcDbLine
 10
419.04140761194
 20
1597.965085550963
 11
419.04140761194
 21
1613.384562252491
  0
LINE
  5
15E
100
AcDbEntity
  8
1
  6
CONTINUOUS
 62
           7
100
AcDbLine
 10
413.434325175021
 20
1596.772384877337
 11
418.35280155696
 21
1596.772384877337
  0
LINE
  5
15D
100
AcDbEntity
  8
1
  6
CONTINUOUS
 62
           7
100
AcDbLine
 10
418.35280155696
 20
1610.126043413922
 11
413.434325175021
 21
1610.126043413922
  0
LINE
  5
15C
100
AcDbEntity
  8
1
  6
CONTINUOUS
 62
           7
100
AcDbLine
 10
418.35280155696
 20
1601.223604389532
 11
413.434325175021
 21
1601.223604389532
  0
LINE
  5
15B
100
AcDbEntity
  8
1
  6
CONTINUOUS
 62
           7
100
AcDbLine
 10
413.434325175021
 20
1596.772384877337
 11
413.434325175021
 21
1614.577262926117
  0
LINE
  5
15A
100
AcDbEntity
  8
1
  6
CONTINUOUS
 62
           7
100
AcDbLine
 10
413.434325175021
 20
1613.945270496183
 11
411.4718463221
 21
1613.945270496183
  0
LINE
  5
159
100
AcDbEntity
  8
1
  6
CONTINUOUS
 62
           7
100
AcDbLine
 10
411.4718463221
 20
1597.404377307272
 11
413.434325175021
 21
1597.404377307272
  0
LINE
  5
158
100
AcDbEntity
  8
1
  6
CONTINUOUS
 62
           7
100
AcDbLine
 10
411.4718463221
 20
1606.786895251716
 11
413.434325175021
 21
1606.226187008024
  0
LINE
  5
157
100
AcDbEntity
  8
1
  6
CONTINUOUS
 62
           7
100
AcDbLine
 10
411.4718463221
 20
1605.12346079543
 11
413.434325175021
 21
1604.562752551738
  0
LINE
  5
156
100
AcDbEntity
  8
1
  6
CONTINUOUS
 62
           7
100
AcDbLine
 10
413.434325175021
 20
1613.945270496183
 11
413.434325175021
 21
1614.577262926117
  0
LINE
  5
155
100
AcDbEntity
  8
1
  6
CONTINUOUS
 62
           7
100
AcDbLine
 10
413.434325175021
 20
1596.772384877337
 11
413.434325175021
 21
1597.404377307272
  0
LINE
  5
154
100
AcDbEntity
  8
1
  6
CONTINUOUS
 62
           7
100
AcDbLine
 10
413.434325175021
 20
1567.097588129369
 11
413.434325175021
 21
1567.729580559304
  0
LINE
  5
153
100
AcDbEntity
  8
1
  6
CONTINUOUS
 62
           7
100
AcDbLine
 10
413.434325175021
 20
1584.270473748215
 11
413.434325175021
 21
1584.90246617815
  0
LINE
  5
152
100
AcDbEntity
  8
1
  6
CONTINUOUS
 62
           7
100
AcDbLine
 10
411.4718463221
 20
1575.448664047463
 11
413.434325175021
 21
1574.887955803771
  0
LINE
  5
151
100
AcDbEntity
  8
1
  6
CONTINUOUS
 62
           7
100
AcDbLine
 10
411.4718463221
 20
1577.112098503749
 11
413.434325175021
 21
1576.551390260057
  0
LINE
  5
150
100
AcDbEntity
  8
1
  6
CONTINUOUS
 62
           7
100
AcDbLine
 10
411.4718463221
 20
1567.729580559304
 11
413.434325175021
 21
1567.729580559304
  0
LINE
  5
14F
100
AcDbEntity
  8
1
  6
CONTINUOUS
 62
           7
100
AcDbLine
 10
413.434325175021
 20
1584.270473748215
 11
411.4718463221
 21
1584.270473748215
  0
LINE
  5
14E
100
AcDbEntity
  8
1
  6
CONTINUOUS
 62
           7
100
AcDbLine
 10
413.434325175021
 20
1567.097588129369
 11
413.434325175021
 21
1584.90246617815
  0
LINE
  5
14D
100
AcDbEntity
  8
1
  6
CONTINUOUS
 62
           7
100
AcDbLine
 10
418.35280155696
 20
1571.548807641565
 11
413.434325175021
 21
1571.548807641565
  0
LINE
  5
14C
100
AcDbEntity
  8
1
  6
CONTINUOUS
 62
           7
100
AcDbLine
 10
418.35280155696
 20
1580.451246665955
 11
413.434325175021
 21
1580.451246665955
  0
LINE
  5
14B
100
AcDbEntity
  8
1
  6
CONTINUOUS
 62
           7
100
AcDbLine
 10
413.434325175021
 20
1567.097588129369
 11
418.35280155696
 21
1567.097588129369
  0
LINE
  5
14A
100
AcDbEntity
  8
1
  6
CONTINUOUS
 62
           7
100
AcDbLine
 10
419.04140761194
 20
1568.290288802996
 11
419.04140761194
 21
1583.709765504524
  0
LINE
  5
149
100
AcDbEntity
  8
1
  6
CONTINUOUS
 62
           7
100
AcDbLine
 10
418.35280155696
 20
1584.90246617815
 11
413.434325175021
 21
1584.90246617815
  0
LINE
  5
148
100
AcDbEntity
  8
1
  6
CONTINUOUS
 62
           7
100
AcDbLine
 10
419.04140761194
 20
1583.709765504524
 11
418.35280155696
 21
1584.90246617815
  0
LINE
  5
147
100
AcDbEntity
  8
1
  6
CONTINUOUS
 62
           7
100
AcDbLine
 10
418.35280155696
 20
1567.097588129369
 11
419.04140761194
 21
1568.290288802996
  0
LINE
  5
146
100
AcDbEntity
  8
1
  6
CONTINUOUS
 62
           7
100
AcDbLine
 10
419.04140761194
 20
1610.126043413922
 11
423.789375091615
 21
1610.126043413922
  0
LINE
  5
145
100
AcDbEntity
  8
1
  6
CONTINUOUS
 62
           7
100
AcDbLine
 10
424.976366961534
 20
1608.939051544004
 11
424.976366961534
 21
1602.410596259451
  0
LINE
  5
144
100
AcDbEntity
  8
1
  6
CONTINUOUS
 62
           7
100
AcDbLine
 10
423.789375091615
 20
1601.223604389532
 11
419.04140761194
 21
1601.223604389532
  0
LINE
  5
143
100
AcDbEntity
  8
1
  6
CONTINUOUS
 62
           7
100
AcDbLine
 10
419.04140761194
 20
1608.939051544004
 11
424.976366961534
 21
1608.939051544004
  0
LINE
  5
142
100
AcDbEntity
  8
1
  6
CONTINUOUS
 62
           7
100
AcDbLine
 10
424.976366961534
 20
1602.410596259451
 11
419.04140761194
 21
1602.410596259451
  0
LINE
  5
141
100
AcDbEntity
  8
1
  6
CONTINUOUS
 62
           7
100
AcDbLine
 10
424.976366961534
 20
1608.939051544004
 11
423.789375091615
 21
1610.126043413922
  0
LINE
  5
140
100
AcDbEntity
  8
1
  6
CONTINUOUS
 62
           7
100
AcDbLine
 10
423.789375091615
 20
1601.223604389532
 11
424.976366961534
 21
1602.410596259451
  0
LINE
  5
13F
100
AcDbEntity
  8
1
  6
CONTINUOUS
 62
           7
100
AcDbLine
 10
423.789375091615
 20
1610.126043413922
 11
423.789375091615
 21
1601.223604389532
  0
LINE
  5
13E
100
AcDbEntity
  8
1
  6
CONTINUOUS
 62
           7
100
AcDbLine
 10
423.789375091615
 20
1580.451246665955
 11
423.789375091615
 21
1571.548807641565
  0
LINE
  5
13D
100
AcDbEntity
  8
1
  6
CONTINUOUS
 62
           7
100
AcDbLine
 10
424.976366961534
 20
1579.264254796036
 11
423.789375091615
 21
1580.451246665955
  0
LINE
  5
13C
100
AcDbEntity
  8
1
  6
CONTINUOUS
 62
           7
100
AcDbLine
 10
423.789375091615
 20
1571.548807641565
 11
424.976366961534
 21
1572.735799511483
  0
LINE
  5
13B
100
AcDbEntity
  8
1
  6
CONTINUOUS
 62
           7
100
AcDbLine
 10
424.976366961534
 20
1579.264254796036
 11
424.976366961534
 21
1572.735799511483
  0
LINE
  5
13A
100
AcDbEntity
  8
1
  6
CONTINUOUS
 62
           7
100
AcDbLine
 10
423.789375091615
 20
1571.548807641565
 11
419.04140761194
 21
1571.548807641565
  0
LINE
  5
139
100
AcDbEntity
  8
1
  6
CONTINUOUS
 62
           7
100
AcDbLine
 10
424.976366961534
 20
1572.735799511483
 11
419.04140761194
 21
1572.735799511483
  0
LINE
  5
138
100
AcDbEntity
  8
1
  6
CONTINUOUS
 62
           7
100
AcDbLine
 10
419.04140761194
 20
1579.264254796036
 11
424.976366961534
 21
1579.264254796036
  0
LINE
  5
137
100
AcDbEntity
  8
1
  6
CONTINUOUS
 62
           7
100
AcDbLine
 10
419.04140761194
 20
1580.451246665955
 11
423.789375091615
 21
1580.451246665955
  0
LINE
  5
136
100
AcDbEntity
  8
1
  6
CONTINUOUS
 62
           7
100
AcDbLine
 10
837.154317552584
 20
1572.735799511483
 11
832.853960143238
 21
1572.735799511483
  0
LINE
  5
135
100
AcDbEntity
  8
1
  6
CONTINUOUS
 62
           7
100
AcDbLine
 10
837.154317552584
 20
1571.548807641565
 11
832.853960143238
 21
1571.548807641565
  0
LINE
  5
134
100
AcDbEntity
  8
1
  6
CONTINUOUS
 62
           7
100
AcDbLine
 10
837.154317552584
 20
1602.410596259451
 11
833.182680785286
 21
1602.410596259451
  0
LINE
  5
133
100
AcDbEntity
  8
1
  6
CONTINUOUS
 62
           7
100
AcDbLine
 10
837.154317552584
 20
1601.223604389532
 11
833.119546839961
 21
1601.223604389532
  0
LINE
  5
132
100
AcDbEntity
  8
1
  6
CONTINUOUS
 62
           7
100
AcDbLine
 10
837.154317552584
 20
1568.290288802996
 11
837.842923607565
 21
1567.097588129369
  0
LINE
  5
131
100
AcDbEntity
  8
1
  6
CONTINUOUS
 62
           7
100
AcDbLine
 10
837.842923607565
 20
1584.90246617815
 11
837.154317552584
 21
1583.709765504524
  0
LINE
  5
130
100
AcDbEntity
  8
1
  6
CONTINUOUS
 62
           7
100
AcDbLine
 10
842.761399989503
 20
1584.90246617815
 11
837.842923607565
 21
1584.90246617815
  0
LINE
  5
12F
100
AcDbEntity
  8
1
  6
CONTINUOUS
 62
           7
100
AcDbLine
 10
837.154317552584
 20
1583.709765504524
 11
837.154317552584
 21
1568.290288802996
  0
LINE
  5
12E
100
AcDbEntity
  8
1
  6
CONTINUOUS
 62
           7
100
AcDbLine
 10
837.842923607565
 20
1567.097588129369
 11
842.761399989503
 21
1567.097588129369
  0
LINE
  5
12D
100
AcDbEntity
  8
1
  6
CONTINUOUS
 62
           7
100
AcDbLine
 10
842.761399989503
 20
1580.451246665955
 11
837.842923607565
 21
1580.451246665955
  0
LINE
  5
12C
100
AcDbEntity
  8
1
  6
CONTINUOUS
 62
           7
100
AcDbLine
 10
842.761399989503
 20
1571.548807641565
 11
837.842923607565
 21
1571.548807641565
  0
LINE
  5
12B
100
AcDbEntity
  8
1
  6
CONTINUOUS
 62
           7
100
AcDbLine
 10
842.761399989503
 20
1584.90246617815
 11
842.761399989503
 21
1567.097588129369
  0
LINE
  5
12A
100
AcDbEntity
  8
1
  6
CONTINUOUS
 62
           7
100
AcDbLine
 10
844.723878842425
 20
1584.270473748215
 11
842.761399989503
 21
1584.270473748215
  0
LINE
  5
129
100
AcDbEntity
  8
1
  6
CONTINUOUS
 62
           7
100
AcDbLine
 10
842.761399989503
 20
1567.729580559304
 11
844.723878842425
 21
1567.729580559304
  0
LINE
  5
128
100
AcDbEntity
  8
1
  6
CONTINUOUS
 62
           7
100
AcDbLine
 10
842.761399989503
 20
1576.551390260057
 11
844.723878842425
 21
1577.112098503749
  0
LINE
  5
127
100
AcDbEntity
  8
1
  6
CONTINUOUS
 62
           7
100
AcDbLine
 10
842.761399989503
 20
1574.887955803771
 11
844.723878842425
 21
1575.448664047463
  0
LINE
  5
126
100
AcDbEntity
  8
1
  6
CONTINUOUS
 62
           7
100
AcDbLine
 10
842.761399989503
 20
1584.90246617815
 11
842.761399989503
 21
1584.270473748215
  0
LINE
  5
125
100
AcDbEntity
  8
1
  6
CONTINUOUS
 62
           7
100
AcDbLine
 10
842.761399989503
 20
1567.729580559304
 11
842.761399989503
 21
1567.097588129369
  0
LINE
  5
124
100
AcDbEntity
  8
1
  6
CONTINUOUS
 62
           7
100
AcDbLine
 10
842.761399989503
 20
1597.404377307272
 11
842.761399989503
 21
1596.772384877337
  0
LINE
  5
123
100
AcDbEntity
  8
1
  6
CONTINUOUS
 62
           7
100
AcDbLine
 10
842.761399989503
 20
1614.577262926117
 11
842.761399989503
 21
1613.945270496183
  0
LINE
  5
122
100
AcDbEntity
  8
1
  6
CONTINUOUS
 62
           7
100
AcDbLine
 10
842.761399989503
 20
1604.562752551738
 11
844.723878842425
 21
1605.12346079543
  0
LINE
  5
121
100
AcDbEntity
  8
1
  6
CONTINUOUS
 62
           7
100
AcDbLine
 10
842.761399989503
 20
1606.226187008024
 11
844.723878842425
 21
1606.786895251716
  0
LINE
  5
120
100
AcDbEntity
  8
1
  6
CONTINUOUS
 62
           7
100
AcDbLine
 10
842.761399989503
 20
1597.404377307272
 11
844.723878842425
 21
1597.404377307272
  0
LINE
  5
11F
100
AcDbEntity
  8
1
  6
CONTINUOUS
 62
           7
100
AcDbLine
 10
844.723878842425
 20
1613.945270496183
 11
842.761399989503
 21
1613.945270496183
  0
LINE
  5
11E
100
AcDbEntity
  8
1
  6
CONTINUOUS
 62
           7
100
AcDbLine
 10
842.761399989503
 20
1614.577262926117
 11
842.761399989503
 21
1596.772384877337
  0
LINE
  5
11D
100
AcDbEntity
  8
1
  6
CONTINUOUS
 62
           7
100
AcDbLine
 10
842.761399989503
 20
1601.223604389532
 11
837.842923607565
 21
1601.223604389532
  0
LINE
  5
11C
100
AcDbEntity
  8
1
  6
CONTINUOUS
 62
           7
100
AcDbLine
 10
842.761399989503
 20
1610.126043413922
 11
837.842923607565
 21
1610.126043413922
  0
LINE
  5
11B
100
AcDbEntity
  8
1
  6
CONTINUOUS
 62
           7
100
AcDbLine
 10
837.842923607565
 20
1596.772384877337
 11
842.761399989503
 21
1596.772384877337
  0
LINE
  5
11A
100
AcDbEntity
  8
1
  6
CONTINUOUS
 62
           7
100
AcDbLine
 10
837.154317552584
 20
1613.384562252491
 11
837.154317552584
 21
1597.965085550963
  0
LINE
  5
119
100
AcDbEntity
  8
1
  6
CONTINUOUS
 62
           7
100
AcDbLine
 10
842.761399989503
 20
1614.577262926117
 11
837.842923607565
 21
1614.577262926117
  0
LINE
  5
118
100
AcDbEntity
  8
1
  6
CONTINUOUS
 62
           7
100
AcDbLine
 10
837.842923607565
 20
1614.577262926117
 11
837.154317552584
 21
1613.384562252491
  0
LINE
  5
117
100
AcDbEntity
  8
1
  6
CONTINUOUS
 62
           7
100
AcDbLine
 10
837.154317552584
 20
1597.965085550963
 11
837.842923607565
 21
1596.772384877337
  0
LINE
  5
116
100
AcDbEntity
  8
1
  6
CONTINUOUS
 62
           7
100
AcDbLine
 10
609.251835502617
 20
1737.160168064856
 11
611.77672437088
 21
1738.617913332622
  0
LINE
  5
115
100
AcDbEntity
  8
1
  6
CONTINUOUS
 62
           7
100
AcDbLine
 10
644.419000793644
 20
1738.617913332622
 11
646.943889661907
 21
1737.160168064856
  0
LINE
  5
114
100
AcDbEntity
  8
1
  6
CONTINUOUS
 62
           7
100
AcDbLine
 10
609.251835502617
 20
1724.374010893597
 11
609.251835502617
 21
1737.160168064856
  0
LINE
  5
113
100
AcDbEntity
  8
1
  6
CONTINUOUS
 62
           7
100
AcDbLine
 10
611.77672437088
 20
1738.617913332622
 11
644.419000793644
 21
1738.617913332622
  0
LINE
  5
112
100
AcDbEntity
  8
1
  6
CONTINUOUS
 62
           7
100
AcDbLine
 10
646.943889661907
 20
1737.160168064856
 11
646.943889661907
 21
1724.374010893597
  0
LINE
  5
111
100
AcDbEntity
  8
1
  6
CONTINUOUS
 62
           7
100
AcDbLine
 10
618.67484904244
 20
1724.374010893597
 11
618.67484904244
 21
1737.160168064856
  0
LINE
  5
110
100
AcDbEntity
  8
1
  6
CONTINUOUS
 62
           7
100
AcDbLine
 10
637.520876122085
 20
1724.374010893597
 11
637.520876122085
 21
1737.160168064856
  0
LINE
  5
10F
100
AcDbEntity
  8
1
  6
CONTINUOUS
 62
           7
100
AcDbLine
 10
607.325504858685
 20
1775.711409267581
 11
607.325504858685
 21
1754.939051544004
  0
LINE
  5
10E
100
AcDbEntity
  8
1
  6
CONTINUOUS
 62
           7
100
AcDbLine
 10
610.292984533482
 20
1744.552872682215
 11
645.902740631042
 21
1744.552872682215
  0
LINE
  5
10D
100
AcDbEntity
  8
1
  6
CONTINUOUS
 62
           7
100
AcDbLine
 10
645.902740631042
 20
1786.097588129369
 11
610.292984533482
 21
1786.097588129369
  0
LINE
  5
10C
100
AcDbEntity
  8
1
  6
CONTINUOUS
 62
           7
100
AcDbLine
 10
648.870220305839
 20
1754.939051544004
 11
648.870220305839
 21
1775.711409267581
  0
LINE
  5
10B
100
AcDbEntity
  8
1
  6
CONTINUOUS
 62
           7
100
AcDbLine
 10
610.292984533482
 20
1765.325230405792
 11
645.902740631042
 21
1765.325230405792
  0
LINE
  5
10A
100
AcDbEntity
  8
1
  6
CONTINUOUS
 62
           7
100
AcDbLine
 10
815.049082094457
 20
1288.154498698475
 11
815.049082094457
 21
1234.739864552134
  0
LINE
  5
109
100
AcDbEntity
  8
1
  6
CONTINUOUS
 62
           7
100
AcDbLine
 10
838.788919492831
 20
1234.739864552134
 11
838.788919492831
 21
1288.154498698475
  0
LINE
  5
108
100
AcDbEntity
  8
1
  6
CONTINUOUS
 62
           7
100
AcDbLine
 10
803.17916339527
 20
1231.772384877337
 11
826.919000793644
 21
1231.772384877337
  0
LINE
  5
107
100
AcDbEntity
  8
1
  6
CONTINUOUS
 62
           7
100
AcDbLine
 10
791.309244696083
 20
1288.154498698475
 11
791.309244696083
 21
1234.739864552134
  0
LINE
  5
106
100
AcDbEntity
  8
1
  6
CONTINUOUS
 62
           7
100
AcDbLine
 10
826.919000793644
 20
1291.121978373272
 11
803.17916339527
 21
1291.121978373272
  0
LINE
  5
105
100
AcDbEntity
  8
1
  6
CONTINUOUS
 62
           7
100
AcDbLine
 10
815.049082094457
 20
1297.583826936215
 11
832.652027375646
 21
1297.583826936215
  0
LINE
  5
104
100
AcDbEntity
  8
1
  6
CONTINUOUS
 62
           7
100
AcDbLine
 10
832.373760415564
 20
1306.488369658822
 11
832.652027375646
 21
1297.583826936215
  0
LINE
  5
103
100
AcDbEntity
  8
1
  6
CONTINUOUS
 62
           2
100
AcDbLine
 10
830.30434468683
 20
1306.488369658822
 11
830.582611646911
 21
1297.583826936215
  0
LINE
  5
102
100
AcDbEntity
  8
1
  6
CONTINUOUS
 62
           2
100
AcDbLine
 10
799.793819502084
 20
1306.488369658822
 11
799.515552542003
 21
1297.583826936215
  0
LINE
  5
101
100
AcDbEntity
  8
1
  6
CONTINUOUS
 62
           2
100
AcDbLine
 10
830.582611646911
 20
1297.583826936215
 11
832.853960143238
 21
1291.121978373272
  0
LINE
  5
100
100
AcDbEntity
  8
1
  6
CONTINUOUS
 62
           7
100
AcDbLine
 10
797.72440377335
 20
1306.488369658822
 11
797.446136813269
 21
1297.583826936215
  0
LINE
  5
FF
100
AcDbEntity
  8
1
  6
CONTINUOUS
 62
           2
100
AcDbLine
 10
799.515552542003
 20
1297.583826936215
 11
797.244204045677
 21
1291.121978373272
  0
LINE
  5
FE
100
AcDbEntity
  8
1
  6
CONTINUOUS
 62
           7
100
AcDbLine
 10
815.049082094457
 20
1297.583826936215
 11
797.446136813269
 21
1297.583826936215
  0
LINE
  5
FD
100
AcDbEntity
  8
1
  6
CONTINUOUS
 62
           7
100
AcDbLine
 10
797.446136813269
 20
1297.583826936215
 11
797.221904640202
 21
1290.40839739809
  0
LINE
  5
FC
100
AcDbEntity
  8
1
  6
CONTINUOUS
 62
           7
100
AcDbLine
 10
832.652027375646
 20
1297.583826936215
 11
832.876259548712
 21
1290.40839739809
  0
LINE
  5
FB
100
AcDbEntity
  8
1
  6
CONTINUOUS
 62
           7
100
AcDbLine
 10
832.373760415564
 20
1232.369260221949
 11
832.373760415564
 21
1225.837425527743
  0
LINE
  5
FA
100
AcDbEntity
  8
1
  6
CONTINUOUS
 62
           7
100
AcDbLine
 10
797.72440377335
 20
1232.369260221949
 11
797.72440377335
 21
1225.837425527743
  0
LINE
  5
F9
100
AcDbEntity
  8
1
  6
CONTINUOUS
 62
           7
100
AcDbLine
 10
794.27672437088
 20
1339.507565420077
 11
794.27672437088
 21
1306.488369658822
  0
LINE
  5
F8
100
AcDbEntity
  8
1
  6
CONTINUOUS
 62
           7
100
AcDbLine
 10
794.27672437088
 20
1306.488369658822
 11
835.821439818034
 21
1306.488369658822
  0
LINE
  5
F7
100
AcDbEntity
  8
1
  6
CONTINUOUS
 62
           7
100
AcDbLine
 10
835.821439818034
 20
1306.488369658822
 11
835.821439818034
 21
1339.507565420077
  0
LINE
  5
F6
100
AcDbEntity
  8
1
  6
CONTINUOUS
 62
           7
100
AcDbLine
 10
794.27672437088
 20
1395.512759902725
 11
794.27672437088
 21
1374.740402179148
  0
LINE
  5
F5
100
AcDbEntity
  8
1
  6
CONTINUOUS
 62
           7
100
AcDbLine
 10
794.27672437088
 20
1395.512759902725
 11
835.821439818034
 21
1395.512759902725
  0
LINE
  5
F4
100
AcDbEntity
  8
1
  6
CONTINUOUS
 62
           7
100
AcDbLine
 10
779.439325996896
 20
1351.000564780774
 11
779.439325996896
 21
1374.740402179148
  0
LINE
  5
F3
100
AcDbEntity
  8
1
  6
CONTINUOUS
 62
           7
100
AcDbLine
 10
779.439325996896
 20
1374.740402179148
 11
850.658838192018
 21
1374.740402179148
  0
LINE
  5
F2
100
AcDbEntity
  8
1
  6
CONTINUOUS
 62
           7
100
AcDbLine
 10
850.658838192018
 20
1374.740402179148
 11
850.658838192018
 21
1351.000564780774
  0
LINE
  5
F1
100
AcDbEntity
  8
1
  6
CONTINUOUS
 62
           7
100
AcDbLine
 10
835.821439818034
 20
1374.740402179148
 11
835.821439818034
 21
1395.512759902725
  0
LINE
  5
F0
100
AcDbEntity
  8
1
  6
CONTINUOUS
 62
           7
100
AcDbLine
 10
844.723878842425
 20
1317.823133407302
 11
844.723878842425
 21
1276.284579999288
  0
LINE
  5
EF
100
AcDbEntity
  8
1
  6
CONTINUOUS
 62
           7
100
AcDbLine
 10
850.658838192018
 20
1371.772922504351
 11
865.496236566002
 21
1371.772922504351
  0
LINE
  5
EE
100
AcDbEntity
  8
1
  6
CONTINUOUS
 62
           7
100
AcDbLine
 10
865.496236566002
 20
1388.094060715733
 11
865.496236566002
 21
1334.679426569392
  0
LINE
  5
ED
100
AcDbEntity
  8
1
  6
CONTINUOUS
 62
           7
100
AcDbLine
 10
851.845830061937
 20
1361.386743642562
 11
864.309244696083
 21
1361.386743642562
  0
LINE
  5
EC
100
AcDbEntity
  8
1
  6
CONTINUOUS
 62
           7
100
AcDbLine
 10
895.171033313969
 20
1384.503484127588
 11
895.171033313969
 21
1338.270003157537
  0
LINE
  5
EB
100
AcDbEntity
  8
1
  6
CONTINUOUS
 62
           7
100
AcDbLine
 10
865.496236566002
 20
1388.094060715733
 11
888.645523436853
 21
1390.408989402818
  0
LINE
  5
EA
100
AcDbEntity
  8
1
  6
CONTINUOUS
 62
           7
100
AcDbLine
 10
865.496236566002
 20
1334.679426569392
 11
888.645523436853
 21
1332.364497882307
  0
LINE
  5
E9
100
AcDbEntity
  8
1
  6
CONTINUOUS
 62
           7
100
AcDbLine
 10
880.333634939986
 20
1389.577800553131
 11
880.333634939986
 21
1623.479701950508
  0
LINE
  5
E8
100
AcDbEntity
  8
1
  6
CONTINUOUS
 62
           7
100
AcDbLine
 10
794.27672437088
 20
1416.55488850583
 11
835.821439818034
 21
1416.55488850583
  0
LINE
  5
E7
100
AcDbEntity
  8
1
  6
CONTINUOUS
 62
           7
100
AcDbLine
 10
835.821439818034
 20
1416.55488850583
 11
835.821439818034
 21
1403.303031411293
  0
LINE
  5
E6
100
AcDbEntity
  8
1
  6
CONTINUOUS
 62
           7
100
AcDbLine
 10
835.821439818034
 20
1401.447719252318
 11
794.27672437088
 21
1401.447719252318
  0
LINE
  5
E5
100
AcDbEntity
  8
1
  6
CONTINUOUS
 62
           7
100
AcDbLine
 10
815.049082094457
 20
1414.699576346856
 11
815.049082094457
 21
1403.303031411293
  0
LINE
  5
E4
100
AcDbEntity
  8
1
  6
CONTINUOUS
 62
           7
100
AcDbLine
 10
794.27672437088
 20
1401.447719252318
 11
794.27672437088
 21
1416.55488850583
  0
LINE
  5
E3
100
AcDbEntity
  8
1
  6
CONTINUOUS
 62
           7
100
AcDbLine
 10
835.821439818034
 20
1403.303031411293
 11
835.821439818034
 21
1401.447719252318
  0
LINE
  5
E2
100
AcDbEntity
  8
1
  6
CONTINUOUS
 62
           7
100
AcDbLine
 10
794.27672437088
 20
1420.340076909467
 11
835.821439818034
 21
1420.340076909467
  0
LINE
  5
E1
100
AcDbEntity
  8
1
  6
CONTINUOUS
 62
           7
100
AcDbLine
 10
835.821439818034
 20
1420.340076909467
 11
835.821439818034
 21
1479.689670405402
  0
LINE
  5
E0
100
AcDbEntity
  8
1
  6
CONTINUOUS
 62
           7
100
AcDbLine
 10
835.821439818034
 20
1479.689670405402
 11
820.984041444051
 21
1479.689670405402
  0
LINE
  5
DF
100
AcDbEntity
  8
1
  6
CONTINUOUS
 62
           7
100
AcDbLine
 10
794.27672437088
 20
1479.689670405402
 11
794.27672437088
 21
1420.340076909467
  0
LINE
  5
DE
100
AcDbEntity
  8
2
  6
CONTINUOUS
 62
           7
100
AcDbLine
 10
669.817135657346
 20
1782.558763189853
 11
669.817135657346
 21
1776.814252261833
  0
LINE
  5
DD
100
AcDbEntity
  8
2
  6
CONTINUOUS
 62
           7
100
AcDbLine
 10
686.574667938551
 20
1748.091697621732
 11
686.574667938551
 21
1753.836208549752
  0
LINE
  5
DC
100
AcDbEntity
  8
2
  6
CONTINUOUS
 62
           7
100
AcDbLine
 10
673.133730588001
 20
1776.814252261833
 11
683.258073007896
 21
1776.814252261833
  0
LINE
  5
DB
100
AcDbEntity
  8
2
  6
CONTINUOUS
 62
           7
100
AcDbLine
 10
673.133730588001
 20
1753.836208549752
 11
683.258073007896
 21
1753.836208549752
  0
LINE
  5
DA
100
AcDbEntity
  8
2
  6
CONTINUOUS
 62
           7
100
AcDbLine
 10
673.133730588001
 20
1742.347186693712
 11
683.258073007896
 21
1742.347186693712
  0
LINE
  5
D9
100
AcDbEntity
  8
2
  6
CONTINUOUS
 62
           7
100
AcDbLine
 10
683.258073007896
 20
1788.303274117873
 11
673.133730588001
 21
1788.303274117873
  0
LINE
  5
D8
100
AcDbEntity
  8
2
  6
CONTINUOUS
 62
           7
100
AcDbLine
 10
686.574667938551
 20
1753.836208549752
 11
686.574667938551
 21
1776.814252261833
  0
LINE
  5
D7
100
AcDbEntity
  8
2
  6
CONTINUOUS
 62
           7
100
AcDbLine
 10
669.817135657346
 20
1753.836208549752
 11
669.817135657346
 21
1748.091697621732
  0
LINE
  5
D6
100
AcDbEntity
  8
2
  6
CONTINUOUS
 62
           7
100
AcDbLine
 10
686.574667938551
 20
1776.814252261833
 11
686.574667938551
 21
1782.558763189853
  0
LINE
  5
D5
100
AcDbEntity
  8
2
  6
CONTINUOUS
 62
           7
100
AcDbLine
 10
669.817135657346
 20
1776.814252261833
 11
669.817135657346
 21
1753.836208549752
  0
LINE
  5
D4
100
AcDbEntity
  8
1
  6
CONTINUOUS
 62
           7
100
AcDbLine
 10
648.870220305839
 20
1774.751342313971
 11
649.917566073415
 21
1774.751342313971
  0
LINE
  5
D3
100
AcDbEntity
  8
1
  6
CONTINUOUS
 62
           7
100
AcDbLine
 10
649.917566073415
 20
1774.751342313971
 11
649.917566073415
 21
1783.130108454573
  0
LINE
  5
D2
100
AcDbEntity
  8
1
  6
CONTINUOUS
 62
           7
100
AcDbLine
 10
649.917566073415
 20
1783.130108454573
 11
659.343677981592
 21
1783.130108454573
  0
LINE
  5
D1
100
AcDbEntity
  8
1
  6
CONTINUOUS
 62
           7
100
AcDbLine
 10
659.343677981592
 20
1783.130108454573
 11
659.343677981592
 21
1784.177454222148
  0
LINE
  5
D0
100
AcDbEntity
  8
1
  6
CONTINUOUS
 62
           7
100
AcDbLine
 10
649.917566073415
 20
1755.899118497615
 11
648.870220305839
 21
1755.899118497615
  0
LINE
  5
CF
100
AcDbEntity
  8
1
  6
CONTINUOUS
 62
           7
100
AcDbLine
 10
649.917566073415
 20
1747.520352357012
 11
649.917566073415
 21
1755.899118497615
  0
LINE
  5
CE
100
AcDbEntity
  8
1
  6
CONTINUOUS
 62
           7
100
AcDbLine
 10
659.343677981592
 20
1747.520352357012
 11
649.917566073415
 21
1747.520352357012
  0
LINE
  5
CD
100
AcDbEntity
  8
1
  6
CONTINUOUS
 62
           7
100
AcDbLine
 10
659.343677981592
 20
1746.473006589436
 11
659.343677981592
 21
1747.520352357012
  0
LINE
  5
CC
100
AcDbEntity
  8
1
  6
CONTINUOUS
 62
           7
100
AcDbLine
 10
659.343677981592
 20
1747.520352357012
 11
649.917566073415
 21
1747.520352357012
  0
LINE
  5
CB
100
AcDbEntity
  8
1
  6
CONTINUOUS
 62
           7
100
AcDbLine
 10
659.343677981592
 20
1783.130108454573
 11
659.343677981592
 21
1747.520352357012
  0
LINE
  5
CA
100
AcDbEntity
  8
1
  6
CONTINUOUS
 62
           7
100
AcDbLine
 10
649.917566073415
 20
1774.751342313971
 11
649.917566073415
 21
1755.899118497615
  0
LINE
  5
C9
100
AcDbEntity
  8
1
  6
CONTINUOUS
 62
           7
100
AcDbLine
 10
702.794004707884
 20
1786.097588129369
 11
704.649316866858
 21
1786.097588129369
  0
LINE
  5
C8
100
AcDbEntity
  8
1
  6
CONTINUOUS
 62
           7
100
AcDbLine
 10
704.649316866858
 20
1744.552872682215
 11
689.542147613348
 21
1744.552872682215
  0
LINE
  5
C7
100
AcDbEntity
  8
1
  6
CONTINUOUS
 62
           7
100
AcDbLine
 10
691.397459772322
 20
1765.325230405792
 11
702.794004707884
 21
1765.325230405792
  0
LINE
  5
C6
100
AcDbEntity
  8
1
  6
CONTINUOUS
 62
           7
100
AcDbLine
 10
704.649316866858
 20
1786.097588129369
 11
704.649316866858
 21
1744.552872682215
  0
LINE
  5
C5
100
AcDbEntity
  8
1
  6
CONTINUOUS
 62
           7
100
AcDbLine
 10
689.542147613348
 20
1786.097588129369
 11
702.794004707884
 21
1786.097588129369
  0
LINE
  5
C4
100
AcDbEntity
  8
1
  6
CONTINUOUS
 62
           7
100
AcDbLine
 10
689.542147613348
 20
1744.552872682215
 11
689.542147613348
 21
1786.097588129369
  0
LINE
  5
C3
100
AcDbEntity
  8
1
  6
CONTINUOUS
 62
           7
100
AcDbLine
 10
686.574667938551
 20
1780.162628779776
 11
689.542147613348
 21
1780.162628779776
  0
LINE
  5
C2
100
AcDbEntity
  8
1
  6
CONTINUOUS
 62
           7
100
AcDbLine
 10
686.574667938551
 20
1750.487832031809
 11
689.542147613348
 21
1750.487832031809
  0
LINE
  5
C1
100
AcDbEntity
  8
1
  6
CONTINUOUS
 62
           7
100
AcDbLine
 10
832.853960143238
 20
1497.764319333709
 11
832.853960143238
 21
1545.243994130457
  0
LINE
  5
C0
100
AcDbEntity
  8
1
  6
CONTINUOUS
 62
           7
100
AcDbLine
 10
832.853960143238
 20
1545.243994130457
 11
820.977907117502
 21
1545.243994130457
  0
LINE
  5
BF
100
AcDbEntity
  8
1
  6
CONTINUOUS
 62
           7
100
AcDbLine
 10
797.244204045677
 20
1545.243994130457
 11
797.244204045677
 21
1497.764319333709
  0
LINE
  5
BE
100
AcDbEntity
  8
1
  6
CONTINUOUS
 62
           7
100
AcDbLine
 10
704.649316866858
 20
1783.130108454573
 11
752.128991663606
 21
1783.130108454573
  0
LINE
  5
BD
100
AcDbEntity
  8
1
  6
CONTINUOUS
 62
           7
100
AcDbLine
 10
752.128991663606
 20
1783.130108454573
 11
752.128991663606
 21
1747.520352357012
  0
LINE
  5
BC
100
AcDbEntity
  8
1
  6
CONTINUOUS
 62
           7
100
AcDbLine
 10
752.128991663606
 20
1747.520352357012
 11
704.649316866858
 21
1747.520352357012
  0
LINE
  5
BB
100
AcDbEntity
  8
1
  6
CONTINUOUS
 62
           7
100
AcDbLine
 10
835.821439818034
 20
1482.657150080199
 11
820.984041444051
 21
1482.657150080199
  0
LINE
  5
BA
100
AcDbEntity
  8
1
  6
CONTINUOUS
 62
           7
100
AcDbLine
 10
794.27672437088
 20
1482.657150080199
 11
794.27672437088
 21
1495.909007174735
  0
LINE
  5
B9
100
AcDbEntity
  8
1
  6
CONTINUOUS
 62
           7
100
AcDbLine
 10
794.27672437088
 20
1497.764319333709
 11
803.17916339527
 21
1497.764319333709
  0
LINE
  5
B8
100
AcDbEntity
  8
1
  6
CONTINUOUS
 62
           7
100
AcDbLine
 10
835.821439818034
 20
1497.764319333709
 11
835.821439818034
 21
1482.657150080199
  0
LINE
  5
B7
100
AcDbEntity
  8
1
  6
CONTINUOUS
 62
           7
100
AcDbLine
 10
794.27672437088
 20
1495.909007174735
 11
794.27672437088
 21
1497.764319333709
  0
LINE
  5
B6
100
AcDbEntity
  8
2
  6
CONTINUOUS
 62
           7
100
AcDbLine
 10
-524.351307801219
 20
666.709834227355
 11
-524.351307801219
 21
672.024087357648
  0
LINE
  5
B5
100
AcDbEntity
  8
2
  6
CONTINUOUS
 62
           7
100
AcDbLine
 10
-539.853718623872
 20
645.452821706181
 11
-539.853718623872
 21
640.138568575887
  0
LINE
  5
B4
100
AcDbEntity
  8
2
  6
CONTINUOUS
 62
           7
100
AcDbLine
 10
-536.785533148555
 20
666.709834227355
 11
-527.419493276536
 21
666.709834227355
  0
LINE
  5
B3
100
AcDbEntity
  8
2
  6
CONTINUOUS
 62
           7
100
AcDbLine
 10
-536.785533148555
 20
645.452821706181
 11
-527.419493276536
 21
645.452821706181
  0
LINE
  5
B2
100
AcDbEntity
  8
2
  6
CONTINUOUS
 62
           7
100
AcDbLine
 10
-536.785533148555
 20
634.824315445594
 11
-527.419493276536
 21
634.824315445594
  0
LINE
  5
B1
100
AcDbEntity
  8
2
  6
CONTINUOUS
 62
           7
100
AcDbLine
 10
-527.419493276536
 20
677.338340487942
 11
-536.785533148555
 21
677.338340487942
  0
LINE
  5
B0
100
AcDbEntity
  8
2
  6
CONTINUOUS
 62
           7
100
AcDbLine
 10
-539.853718623872
 20
666.709834227355
 11
-539.853718623872
 21
645.452821706181
  0
LINE
  5
AF
100
AcDbEntity
  8
2
  6
CONTINUOUS
 62
           7
100
AcDbLine
 10
-524.351307801219
 20
640.138568575887
 11
-524.351307801219
 21
645.452821706181
  0
LINE
  5
AE
100
AcDbEntity
  8
2
  6
CONTINUOUS
 62
           7
100
AcDbLine
 10
-539.853718623872
 20
672.024087357649
 11
-539.853718623872
 21
666.709834227355
  0
LINE
  5
AD
100
AcDbEntity
  8
2
  6
CONTINUOUS
 62
           7
100
AcDbLine
 10
-524.351307801219
 20
645.452821706181
 11
-524.351307801219
 21
666.709834227355
  0
LINE
  5
AC
100
AcDbEntity
  8
1
  6
CONTINUOUS
 62
           7
100
AcDbLine
 10
-539.853718623872
 20
641.243929592784
 11
-543.139562058083
 21
641.243929592784
  0
LINE
  5
AB
100
AcDbEntity
  8
1
  6
CONTINUOUS
 62
           7
100
AcDbLine
 10
-524.868768799816
 20
674.490440818669
 11
-517.898887453028
 21
674.490440818669
  0
LINE
  5
AA
100
AcDbEntity
  8
1
  6
CONTINUOUS
 62
           7
100
AcDbLine
 10
-524.868768799816
 20
637.672215114867
 11
-517.898887453028
 21
637.672215114867
  0
LINE
  5
A9
100
AcDbEntity
  8
2
  6
CONTINUOUS
 62
           7
100
AcDbLine
 10
-502.913937628971
 20
645.452821706181
 11
-502.913937628971
 21
666.709834227355
  0
LINE
  5
A8
100
AcDbEntity
  8
2
  6
CONTINUOUS
 62
           7
100
AcDbLine
 10
-518.416348451625
 20
672.024087357649
 11
-518.416348451625
 21
666.709834227355
  0
LINE
  5
A7
100
AcDbEntity
  8
2
  6
CONTINUOUS
 62
           7
100
AcDbLine
 10
-502.913937628971
 20
640.138568575887
 11
-502.913937628971
 21
645.452821706181
  0
LINE
  5
A6
100
AcDbEntity
  8
2
  6
CONTINUOUS
 62
           7
100
AcDbLine
 10
-518.416348451625
 20
666.709834227355
 11
-518.416348451625
 21
645.452821706181
  0
LINE
  5
A5
100
AcDbEntity
  8
2
  6
CONTINUOUS
 62
           7
100
AcDbLine
 10
-505.982123104289
 20
677.338340487942
 11
-515.348162976309
 21
677.338340487942
  0
LINE
  5
A4
100
AcDbEntity
  8
2
  6
CONTINUOUS
 62
           7
100
AcDbLine
 10
-515.348162976309
 20
634.824315445594
 11
-505.982123104289
 21
634.824315445594
  0
LINE
  5
A3
100
AcDbEntity
  8
2
  6
CONTINUOUS
 62
           7
100
AcDbLine
 10
-515.348162976309
 20
645.452821706181
 11
-505.982123104289
 21
645.452821706181
  0
LINE
  5
A2
100
AcDbEntity
  8
2
  6
CONTINUOUS
 62
           7
100
AcDbLine
 10
-515.348162976309
 20
666.709834227355
 11
-505.982123104289
 21
666.709834227355
  0
LINE
  5
A1
100
AcDbEntity
  8
2
  6
CONTINUOUS
 62
           7
100
AcDbLine
 10
-518.416348451625
 20
645.452821706181
 11
-518.416348451625
 21
640.138568575887
  0
LINE
  5
A0
100
AcDbEntity
  8
2
  6
CONTINUOUS
 62
           7
100
AcDbLine
 10
-502.913937628971
 20
666.709834227355
 11
-502.913937628971
 21
672.024087357648
  0
LINE
  5
9F
100
AcDbEntity
  8
1
  6
CONTINUOUS
 62
           7
100
AcDbLine
 10
-191.143253691199
 20
578.926856422052
 11
-119.923741496077
 21
578.926856422052
  0
LINE
  5
9E
100
AcDbEntity
  8
1
  6
CONTINUOUS
 62
           7
100
AcDbLine
 10
-119.923741496077
 20
578.926856422052
 11
-119.923741496077
 21
561.121978373272
  0
LINE
  5
9D
100
AcDbEntity
  8
1
  6
CONTINUOUS
 62
           7
100
AcDbLine
 10
-119.923741496077
 20
561.121978373272
 11
-191.143253691199
 21
561.121978373272
  0
LINE
  5
9C
100
AcDbEntity
  8
1
  6
CONTINUOUS
 62
           7
100
AcDbLine
 10
-191.143253691199
 20
561.121978373272
 11
-191.143253691199
 21
578.926856422052
  0
LINE
  5
9B
100
AcDbEntity
  8
1
  6
CONTINUOUS
 62
           7
100
AcDbLine
 10
-167.403416292825
 20
585.284762843152
 11
-167.403416292825
 21
596.731734470833
  0
LINE
  5
9A
100
AcDbEntity
  8
1
  6
CONTINUOUS
 62
           7
100
AcDbLine
 10
-167.403416292825
 20
596.731734470833
 11
-143.663578894451
 21
596.731734470833
  0
LINE
  5
99
100
AcDbEntity
  8
1
  6
CONTINUOUS
 62
           7
100
AcDbLine
 10
-143.663578894451
 20
596.731734470833
 11
-143.663578894451
 21
585.284762843152
  0
LINE
  5
98
100
AcDbEntity
  8
1
  6
CONTINUOUS
 62
           7
100
AcDbLine
 10
-164.435936618029
 20
596.731734470833
 11
-164.435936618029
 21
798.848193957348
  0
LINE
  5
97
100
AcDbEntity
  8
1
  6
CONTINUOUS
 62
           7
100
AcDbLine
 10
-146.631058569248
 20
798.848193957348
 11
-146.631058569248
 21
596.731734470833
  0
LINE
  5
96
100
AcDbEntity
  8
1
  6
CONTINUOUS
 62
           7
100
AcDbLine
 10
-179.273334992012
 20
834.457950054909
 11
-167.403416292825
 21
834.457950054909
  0
LINE
  5
95
100
AcDbEntity
  8
1
  6
CONTINUOUS
 62
           7
100
AcDbLine
 10
-179.273334992012
 20
834.457950054909
 11
-179.273334992012
 21
810.718112656535
  0
LINE
  5
94
100
AcDbEntity
  8
1
  6
CONTINUOUS
 62
           7
100
AcDbLine
 10
-179.273334992012
 20
810.718112656535
 11
-173.338375642419
 21
810.718112656535
  0
LINE
  5
93
100
AcDbEntity
  8
1
  6
CONTINUOUS
 62
           7
100
AcDbLine
 10
-167.403416292825
 20
798.848193957348
 11
-143.663578894451
 21
798.848193957348
  0
LINE
  5
92
100
AcDbEntity
  8
2
  6
CONTINUOUS
 62
           7
100
AcDbLine
 10
-179.273334992012
 20
833.216537616309
 11
-179.273334992012
 21
838.530790746602
  0
LINE
  5
91
100
AcDbEntity
  8
2
  6
CONTINUOUS
 62
           7
100
AcDbLine
 10
-194.775745814666
 20
811.959525095135
 11
-194.775745814666
 21
806.645271964841
  0
LINE
  5
90
100
AcDbEntity
  8
2
  6
CONTINUOUS
 62
           7
100
AcDbLine
 10
-191.707560339349
 20
833.216537616309
 11
-182.34152046733
 21
833.216537616309
  0
LINE
  5
8F
100
AcDbEntity
  8
2
  6
CONTINUOUS
 62
           7
100
AcDbLine
 10
-191.707560339349
 20
811.959525095135
 11
-182.34152046733
 21
811.959525095135
  0
LINE
  5
8E
100
AcDbEntity
  8
2
  6
CONTINUOUS
 62
           7
100
AcDbLine
 10
-191.707560339349
 20
801.331018834547
 11
-182.34152046733
 21
801.331018834547
  0
LINE
  5
8D
100
AcDbEntity
  8
2
  6
CONTINUOUS
 62
           7
100
AcDbLine
 10
-182.34152046733
 20
843.845043876896
 11
-191.707560339349
 21
843.845043876896
  0
LINE
  5
8C
100
AcDbEntity
  8
2
  6
CONTINUOUS
 62
           7
100
AcDbLine
 10
-194.775745814666
 20
833.216537616309
 11
-194.775745814666
 21
811.959525095135
  0
LINE
  5
8B
100
AcDbEntity
  8
2
  6
CONTINUOUS
 62
           7
100
AcDbLine
 10
-179.273334992012
 20
806.645271964841
 11
-179.273334992012
 21
811.959525095135
  0
LINE
  5
8A
100
AcDbEntity
  8
2
  6
CONTINUOUS
 62
           7
100
AcDbLine
 10
-194.775745814666
 20
838.530790746602
 11
-194.775745814666
 21
833.216537616309
  0
LINE
  5
89
100
AcDbEntity
  8
2
  6
CONTINUOUS
 62
           7
100
AcDbLine
 10
-179.273334992012
 20
811.959525095135
 11
-179.273334992012
 21
833.216537616309
  0
LINE
  5
88
100
AcDbEntity
  8
1
  6
CONTINUOUS
 62
           7
100
AcDbLine
 10
-198.733191959775
 20
834.457950054909
 11
-194.775745814666
 21
834.457950054909
  0
LINE
  5
87
100
AcDbEntity
  8
1
  6
CONTINUOUS
 62
           7
100
AcDbLine
 10
-502.913937628971
 20
644.211409267581
 11
-408.448451749789
 21
644.211409267581
  0
LINE
  5
86
100
AcDbEntity
  8
1
  6
CONTINUOUS
 62
           7
100
AcDbLine
 10
-198.733191959775
 20
810.718112656535
 11
-194.775745814666
 21
810.718112656535
  0
LINE
  5
85
100
AcDbEntity
  8
1
  6
CONTINUOUS
 62
           7
100
AcDbLine
 10
-379.967370583979
 20
643.734458990787
 11
-337.650754939409
 21
567.056937722865
  0
LINE
  5
84
100
AcDbEntity
  8
1
  6
CONTINUOUS
 62
           7
100
AcDbLine
 10
-358.270282186647
 20
678.118103226632
 11
-879.994286260193
 21
1623.479701950508
  0
LINE
  5
83
100
AcDbEntity
  8
1
  6
CONTINUOUS
 62
           7
100
AcDbLine
 10
-393.140318562446
 20
667.603782739736
 11
-379.967370583979
 21
643.734458990787
  0
LINE
  5
82
100
AcDbEntity
  8
1
  6
CONTINUOUS
 62
           7
100
AcDbLine
 10
-344.767508976257
 20
653.651137609345
 11
-358.270282186647
 21
678.118103226632
  0
LINE
  5
81
100
AcDbEntity
  8
1
  6
CONTINUOUS
 62
           7
100
AcDbLine
 10
-502.913937628971
 20
667.951246665955
 11
-408.859111723312
 21
667.951246665955
  0
LINE
  5
80
100
AcDbEntity
  8
1
  6
CONTINUOUS
 62
           7
100
AcDbLine
 10
-167.403416292825
 20
804.783153306941
 11
-167.403416292825
 21
798.848193957348
  0
LINE
  5
7F
100
AcDbEntity
  8
1
  6
CONTINUOUS
 62
           7
100
AcDbLine
 10
-143.663578894451
 20
810.718112656535
 11
-143.663578894451
 21
798.848193957348
  0
LINE
  5
7E
100
AcDbEntity
  8
1
  6
CONTINUOUS
 62
           7
100
AcDbLine
 10
-408.859111723312
 20
677.338340487942
 11
-398.512604101794
 21
677.338340487942
  0
LINE
  5
7D
100
AcDbEntity
  8
1
  6
CONTINUOUS
 62
           7
100
AcDbLine
 10
-393.356700900659
 20
634.824315445594
 11
-408.859111723312
 21
634.824315445594
  0
LINE
  5
7C
100
AcDbEntity
  8
1
  6
CONTINUOUS
 62
           7
100
AcDbLine
 10
-408.859111723312
 20
634.824315445594
 11
-408.859111723312
 21
677.338340487942
  0
LINE
  5
7B
100
AcDbEntity
  8
1
  6
CONTINUOUS
 62
           7
100
AcDbLine
 10
-393.356700900659
 20
644.211409267581
 11
-380.230588815489
 21
644.211409267581
  0
LINE
  5
7A
100
AcDbEntity
  8
1
  6
CONTINUOUS
 62
           7
100
AcDbLine
 10
-393.356700900659
 20
667.995866584051
 11
-393.356700900659
 21
634.824315445594
  0
LINE
  5
79
100
AcDbEntity
  8
1
  6
CONTINUOUS
 62
           7
100
AcDbLine
 10
-275.830575467414
 20
789.945754932957
 11
-335.984486520672
 21
685.756124714735
  0
LINE
  5
78
100
AcDbEntity
  8
1
  6
CONTINUOUS
 62
           7
100
AcDbLine
 10
-315.425184251969
 20
673.886206015548
 11
-255.271273198711
 21
778.07583623377
  0
LINE
  5
77
100
AcDbEntity
  8
1
  6
DOT_CENTER
 62
           2
100
AcDbLine
 10
-1178.06577720825
 20
739.170758861077
 11
-710.441358578711
 21
739.170758861077
  0
LINE
  5
76
100
AcDbEntity
  8
1
  6
DOT_CENTER
 62
           2
100
AcDbLine
 10
-943.439973283026
 20
993.777289180477
 11
-943.439973283026
 21
486.149601700623
  0
LINE
  5
75
100
AcDbEntity
  8
1
  6
DOT_CENTER
 62
           2
100
AcDbLine
 10
-566.879399456457
 20
1839.764485276651
 11
-566.879399456457
 21
549.724892023007
  0
LINE
  5
74
100
AcDbEntity
  8
1
  6
DOT_CENTER
 62
           2
100
AcDbLine
 10
628.097862582262
 20
1825.02723445664
 11
628.097862582262
 21
530.62016921604
  0
LINE
  5
73
100
AcDbEntity
  8
1
  6
DOT_CENTER
 62
           2
100
AcDbLine
 10
1020.588692092881
 20
739.170758861077
 11
230.993254625873
 21
739.170758861077
  0
LINE
  5
72
100
AcDbEntity
  8
1
  6
CONTINUOUS
 62
           7
100
AcDbLine
 10
897.134470777852
 20
1251.744517834088
 11
896.205667239325
 21
1250.13578291511
  0
LINE
  5
71
100
AcDbEntity
  8
1
  6
CONTINUOUS
 62
           7
100
AcDbLine
 10
872.877811299808
 20
1261.447181625305
 11
872.877811299808
 21
1251.884460100307
  0
LINE
  5
70
100
AcDbEntity
  8
1
  6
CONTINUOUS
 62
           7
100
AcDbLine
 10
872.877811299808
 20
1251.884460100307
 11
878.475501948588
 21
1251.884460100307
  0
LINE
  5
6F
100
AcDbEntity
  8
1
  6
CONTINUOUS
 62
           7
100
AcDbLine
 10
878.475501948588
 20
1251.884460100307
 11
879.485101192186
 21
1250.13578291511
  0
LINE
  5
6E
100
AcDbEntity
  8
1
  6
CONTINUOUS
 62
           7
100
AcDbLine
 10
879.485101192186
 20
1250.13578291511
 11
896.205667239325
 21
1250.13578291511
  0
LINE
  5
6D
100
AcDbEntity
  8
1
  6
CONTINUOUS
 62
           7
100
AcDbLine
 10
897.134470777852
 20
1251.744517834088
 11
897.134470777852
 21
1261.447181625305
  0
LINE
  5
6C
100
AcDbEntity
  8
1
  6
CONTINUOUS
 62
           7
100
AcDbLine
 10
878.475501948588
 20
1251.884460100307
 11
878.475501948588
 21
1261.447181625305
  0
LINE
  5
6B
100
AcDbEntity
  8
1
  6
CONTINUOUS
 62
           7
100
AcDbLine
 10
879.485101192186
 20
1255.791482270207
 11
896.205667239325
 21
1255.791482270207
  0
LINE
  5
6A
100
AcDbEntity
  8
1
  6
CONTINUOUS
 62
           7
100
AcDbLine
 10
896.205667239325
 20
1267.102880980403
 11
879.485101192186
 21
1267.102880980403
  0
LINE
  5
69
100
AcDbEntity
  8
1
  6
CONTINUOUS
 62
           7
100
AcDbLine
 10
878.475501948588
 20
1261.447181625305
 11
878.475501948588
 21
1271.009903150303
  0
LINE
  5
68
100
AcDbEntity
  8
1
  6
CONTINUOUS
 62
           7
100
AcDbLine
 10
897.134470777852
 20
1261.447181625305
 11
897.134470777852
 21
1271.149845416522
  0
LINE
  5
67
100
AcDbEntity
  8
1
  6
CONTINUOUS
 62
           7
100
AcDbLine
 10
896.205667239325
 20
1272.7585803355
 11
879.485101192186
 21
1272.7585803355
  0
LINE
  5
66
100
AcDbEntity
  8
1
  6
CONTINUOUS
 62
           7
100
AcDbLine
 10
879.485101192186
 20
1272.7585803355
 11
878.475501948588
 21
1271.009903150303
  0
LINE
  5
65
100
AcDbEntity
  8
1
  6
CONTINUOUS
 62
           7
100
AcDbLine
 10
878.475501948588
 20
1271.009903150303
 11
872.877811299808
 21
1271.009903150303
  0
LINE
  5
64
100
AcDbEntity
  8
1
  6
CONTINUOUS
 62
           7
100
AcDbLine
 10
872.877811299808
 20
1271.009903150303
 11
872.877811299808
 21
1261.447181625305
  0
LINE
  5
63
100
AcDbEntity
  8
1
  6
CONTINUOUS
 62
           7
100
AcDbLine
 10
896.205667239325
 20
1272.7585803355
 11
897.134470777852
 21
1271.149845416522
  0
LINE
  5
62
100
AcDbEntity
  8
1
  6
CONTINUOUS
 62
           7
100
AcDbLine
 10
907.344463951971
 20
1255.907452060268
 11
907.344463951971
 21
1261.447181625305
  0
LINE
  5
61
100
AcDbEntity
  8
1
  6
CONTINUOUS
 62
           7
100
AcDbLine
 10
913.856124066828
 20
1255.885701783874
 11
913.856124066828
 21
1261.447181625305
  0
LINE
  5
60
100
AcDbEntity
  8
1
  6
CONTINUOUS
 62
           7
100
AcDbLine
 10
913.63885922274
 20
1256.782439417989
 11
913.63885922274
 21
1261.447181625305
  0
LINE
  5
5F
100
AcDbEntity
  8
1
  6
CONTINUOUS
 62
           7
100
AcDbLine
 10
907.112619617003
 20
1256.782439417988
 11
907.112619617003
 21
1261.447181625305
  0
LINE
  5
5E
100
AcDbEntity
  8
1
  6
CONTINUOUS
 62
           7
100
AcDbLine
 10
900.586380011265
 20
1255.849490976525
 11
900.586380011265
 21
1261.447181625305
  0
LINE
  5
5D
100
AcDbEntity
  8
1
  6
CONTINUOUS
 62
           7
100
AcDbLine
 10
922.030995711403
 20
1257.248913638721
 11
922.030995711403
 21
1261.447181625305
  0
LINE
  5
5C
100
AcDbEntity
  8
1
  6
CONTINUOUS
 62
           7
100
AcDbLine
 10
922.030995711403
 20
1257.248913638721
 11
922.030995711403
 21
1256.940504597354
  0
LINE
  5
5B
100
AcDbEntity
  8
1
  6
CONTINUOUS
 62
           7
100
AcDbLine
 10
921.875081178907
 20
1256.756453662573
 11
913.856124066828
 21
1255.885701783874
  0
LINE
  5
5A
100
AcDbEntity
  8
1
  6
CONTINUOUS
 62
           7
100
AcDbLine
 10
913.63885922274
 20
1256.782439417989
 11
913.63885922274
 21
1256.069752718655
  0
LINE
  5
59
100
AcDbEntity
  8
1
  6
CONTINUOUS
 62
           7
100
AcDbLine
 10
913.63885922274
 20
1256.782439417989
 11
907.344463951971
 21
1255.907452060268
  0
LINE
  5
58
100
AcDbEntity
  8
1
  6
CONTINUOUS
 62
           7
100
AcDbLine
 10
907.112619617003
 20
1256.782439417988
 11
907.112619617003
 21
1256.088470646969
  0
LINE
  5
57
100
AcDbEntity
  8
1
  6
CONTINUOUS
 62
           7
100
AcDbLine
 10
907.112619617003
 20
1256.782439417988
 11
900.586380011265
 21
1255.849490976525
  0
LINE
  5
56
100
AcDbEntity
  8
1
  6
CONTINUOUS
 62
           7
100
AcDbLine
 10
900.586380011265
 20
1255.849490976525
 11
897.134470777852
 21
1255.849490976525
  0
LINE
  5
55
100
AcDbEntity
  8
1
  6
CONTINUOUS
 62
           7
100
AcDbLine
 10
897.134470777852
 20
1267.044872274084
 11
900.586380011265
 21
1267.044872274084
  0
LINE
  5
54
100
AcDbEntity
  8
1
  6
CONTINUOUS
 62
           7
100
AcDbLine
 10
900.586380011265
 20
1267.044872274084
 11
907.112619617003
 21
1266.11192383262
  0
LINE
  5
53
100
AcDbEntity
  8
1
  6
CONTINUOUS
 62
           7
100
AcDbLine
 10
907.112619617003
 20
1266.80589260364
 11
907.112619617003
 21
1266.11192383262
  0
LINE
  5
52
100
AcDbEntity
  8
1
  6
CONTINUOUS
 62
           7
100
AcDbLine
 10
907.344463951971
 20
1266.986911190343
 11
913.638859222739
 21
1266.111923832621
  0
LINE
  5
51
100
AcDbEntity
  8
1
  6
CONTINUOUS
 62
           7
100
AcDbLine
 10
913.63885922274
 20
1266.824610531955
 11
913.638859222739
 21
1266.111923832621
  0
LINE
  5
50
100
AcDbEntity
  8
1
  6
CONTINUOUS
 62
           7
100
AcDbLine
 10
913.856124066828
 20
1267.008661466737
 11
921.875081178907
 21
1266.137909588037
  0
LINE
  5
4F
100
AcDbEntity
  8
1
  6
CONTINUOUS
 62
           7
100
AcDbLine
 10
922.030995711403
 20
1265.953858653255
 11
922.030995711403
 21
1265.64544961189
  0
LINE
  5
4E
100
AcDbEntity
  8
1
  6
CONTINUOUS
 62
           7
100
AcDbLine
 10
922.030995711403
 20
1261.447181625305
 11
922.030995711403
 21
1265.64544961189
  0
LINE
  5
4D
100
AcDbEntity
  8
1
  6
CONTINUOUS
 62
           7
100
AcDbLine
 10
900.586380011265
 20
1261.447181625305
 11
900.586380011265
 21
1267.044872274084
  0
LINE
  5
4C
100
AcDbEntity
  8
1
  6
CONTINUOUS
 62
           7
100
AcDbLine
 10
907.112619617003
 20
1261.447181625305
 11
907.112619617003
 21
1266.11192383262
  0
LINE
  5
4B
100
AcDbEntity
  8
1
  6
CONTINUOUS
 62
           7
100
AcDbLine
 10
913.63885922274
 20
1261.447181625305
 11
913.638859222739
 21
1266.111923832621
  0
LINE
  5
4A
100
AcDbEntity
  8
1
  6
CONTINUOUS
 62
           7
100
AcDbLine
 10
913.856124066828
 20
1261.447181625305
 11
913.856124066828
 21
1267.008661466737
  0
LINE
  5
49
100
AcDbEntity
  8
1
  6
CONTINUOUS
 62
           7
100
AcDbLine
 10
907.344463951971
 20
1261.447181625305
 11
907.344463951971
 21
1266.986911190343
  0
LINE
  5
48
100
AcDbEntity
  8
1
  6
CONTINUOUS
 62
           7
100
AcDbLine
 10
872.877811299808
 20
1271.009903150303
 11
872.877811299808
 21
1273.297218369319
  0
LINE
  5
47
100
AcDbEntity
  8
1
  6
CONTINUOUS
 62
           7
100
AcDbLine
 10
872.877811299808
 20
1273.297218369319
 11
859.041030915563
 21
1273.297218369319
  0
LINE
  5
46
100
AcDbEntity
  8
1
  6
CONTINUOUS
 62
           7
100
AcDbLine
 10
872.877811299808
 20
1249.597144881291
 11
872.877811299808
 21
1251.884460100307
  0
LINE
  5
45
100
AcDbEntity
  8
1
  6
CONTINUOUS
 62
           7
100
AcDbLine
 10
859.041030915563
 20
1273.297218369319
 11
859.041030915563
 21
1249.597144881291
  0
LINE
  5
44
100
AcDbEntity
  8
1
  6
CONTINUOUS
 62
           7
100
AcDbLine
 10
859.041030915563
 20
1249.597144881291
 11
872.877811299808
 21
1249.597144881291
  0
LINE
  5
43
100
AcDbEntity
  8
1
  6
CONTINUOUS
 62
           7
100
AcDbLine
 10
859.041030915563
 20
1273.297218369319
 11
859.041030915563
 21
1274.50845980579
  0
LINE
  5
42
100
AcDbEntity
  8
1
  6
CONTINUOUS
 62
           7
100
AcDbLine
 10
859.041030915563
 20
1274.50845980579
 11
853.858491949941
 21
1274.50845980579
  0
LINE
  5
41
100
AcDbEntity
  8
1
  6
CONTINUOUS
 62
           7
100
AcDbLine
 10
853.858491949941
 20
1274.50845980579
 11
853.858491949941
 21
1248.38590344482
  0
LINE
  5
40
100
AcDbEntity
  8
1
  6
CONTINUOUS
 62
           7
100
AcDbLine
 10
853.858491949941
 20
1248.38590344482
 11
859.041030915563
 21
1248.38590344482
  0
LINE
  5
3F
100
AcDbEntity
  8
1
  6
CONTINUOUS
 62
           7
100
AcDbLine
 10
859.041030915563
 20
1248.38590344482
 11
859.041030915563
 21
1249.597144881291
  0
LINE
  5
3E
100
AcDbEntity
  8
1
  6
CONTINUOUS
 62
           7
100
AcDbLine
 10
852.941888417883
 20
1267.372199997312
 11
845.052790670959
 21
1267.372199997312
  0
LINE
  5
3D
100
AcDbEntity
  8
1
  6
CONTINUOUS
 62
           7
100
AcDbLine
 10
853.858491949941
 20
1271.7096144814
 11
852.941888417883
 21
1273.297218369319
  0
LINE
  5
3C
100
AcDbEntity
  8
1
  6
CONTINUOUS
 62
           7
100
AcDbLine
 10
853.858491949941
 20
1261.447181625305
 11
853.858491949941
 21
1271.7096144814
  0
LINE
  5
3B
100
AcDbEntity
  8
1
  6
CONTINUOUS
 62
           7
100
AcDbLine
 10
844.136187138902
 20
1271.7096144814
 11
844.136187138902
 21
1261.447181625305
  0
LINE
  5
3A
100
AcDbEntity
  8
1
  6
CONTINUOUS
 62
           7
100
AcDbLine
 10
845.052790670959
 20
1273.297218369319
 11
844.136187138902
 21
1271.7096144814
  0
LINE
  5
39
100
AcDbEntity
  8
1
  6
CONTINUOUS
 62
           7
100
AcDbLine
 10
852.941888417883
 20
1273.297218369319
 11
845.052790670959
 21
1273.297218369319
  0
LINE
  5
38
100
AcDbEntity
  8
1
  6
CONTINUOUS
 62
           7
100
AcDbLine
 10
838.788919492831
 20
1269.640722532352
 11
840.361715664519
 21
1270.612101246125
  0
LINE
  5
37
100
AcDbEntity
  8
1
  6
CONTINUOUS
 62
           7
100
AcDbLine
 10
838.788919492831
 20
1270.56542174549
 11
838.788919492831
 21
1261.447181625305
  0
LINE
  5
36
100
AcDbEntity
  8
1
  6
CONTINUOUS
 62
           7
100
AcDbLine
 10
844.136187138902
 20
1270.724124944274
 11
838.788919492831
 21
1270.56542174549
  0
LINE
  5
35
100
AcDbEntity
  8
1
  6
CONTINUOUS
 62
           7
100
AcDbLine
 10
838.788919492831
 20
1261.447181625305
 11
838.788919492831
 21
1252.328941505121
  0
LINE
  5
34
100
AcDbEntity
  8
1
  6
CONTINUOUS
 62
           7
100
AcDbLine
 10
840.361715664519
 20
1252.282262004486
 11
838.788919492831
 21
1253.253640718259
  0
LINE
  5
33
100
AcDbEntity
  8
1
  6
CONTINUOUS
 62
           7
100
AcDbLine
 10
845.052790670959
 20
1249.597144881291
 11
852.941888417883
 21
1249.597144881291
  0
LINE
  5
32
100
AcDbEntity
  8
1
  6
CONTINUOUS
 62
           7
100
AcDbLine
 10
844.136187138902
 20
1251.18474876921
 11
845.052790670959
 21
1249.597144881291
  0
LINE
  5
31
100
AcDbEntity
  8
1
  6
CONTINUOUS
 62
           7
100
AcDbLine
 10
844.136187138902
 20
1261.447181625305
 11
844.136187138902
 21
1251.18474876921
  0
LINE
  5
30
100
AcDbEntity
  8
1
  6
CONTINUOUS
 62
           7
100
AcDbLine
 10
853.858491949941
 20
1251.18474876921
 11
853.858491949941
 21
1261.447181625305
  0
LINE
  5
2F
100
AcDbEntity
  8
1
  6
CONTINUOUS
 62
           7
100
AcDbLine
 10
852.941888417883
 20
1249.597144881291
 11
853.858491949941
 21
1251.18474876921
  0
LINE
  5
2E
100
AcDbEntity
  8
1
  6
CONTINUOUS
 62
           7
100
AcDbLine
 10
845.052790670959
 20
1255.522163253299
 11
852.941888417883
 21
1255.522163253299
  0
LINE
  5
2D
100
AcDbEntity
  8
1
  6
CONTINUOUS
 62
           7
100
AcDbLine
 10
838.788919492831
 20
1252.328941505121
 11
844.136187138902
 21
1252.170238306337
  0
LINE
  5
2C
100
AcDbEntity
  8
1
  6
CONTINUOUS
 62
           7
100
AcDbLine
 10
880.333634939986
 20
1272.7585803355
 11
880.333634939986
 21
1333.195686731993
  0
POINT
  5
2B
100
AcDbEntity
  8
1
 62
         250
100
AcDbPoint
 10
-594.07792436381
 20
1371.998175281274
  0
POINT
  5
2A
100
AcDbEntity
  8
1
 62
         250
100
AcDbPoint
 10
-594.07792436381
 20
1380.263781797233
  0
ENDSEC
  0
SECTION
  2
OBJECTS
  0
DICTIONARY
  5
19
100
AcDbDictionary
  3
ACAD_GROUP
350
1A
  3
ACAD_MLINESTYLE
350
1B
  0
DICTIONARY
  5
1A
102
{ACAD_REACTORS
330
19
102
}
100
AcDbDictionary
  0
DICTIONARY
  5
1B
102
{ACAD_REACTORS
330
19
102
}
100
AcDbDictionary
  3
STANDARD
350
1C
  0
MLINESTYLE
  5
1C
102
{ACAD_REACTORS
330
1B
102
}
100
AcDbMlineStyle
  2
STANDARD
 70
           0
  3

 62
           0
 51
90.0
 52
90.0
 71
           2
 49
0.5
 62
         256
  6
BYLAYER
 49
-0.5
 62
         256
  6
BYLAYER
  0
ENDSEC
  0
EOF
