  0
SECTION
  2
HEADER
  9
$ACADVER
  1
AC1014
  9
$ACADMAINTVER
 70
           0
  9
$DWGCODEPAGE
  3
DOS932
  9
$INSBASE
 10
0.0
 20
0.0
 30
0.0
  9
$EXTMIN
 10
1.000000000000E+20
 20
1.000000000000E+20
 30
1.000000000000E+20
  9
$EXTMAX
 10
-1.000000000000E+20
 20
-1.000000000000E+20
 30
-1.000000000000E+20
  9
$LIMMIN
 10
0.0
 20
0.0
  9
$LIMMAX
 10
0.0
 20
0.0
  9
$ORTHOMODE
 70
           0
  9
$REGENMODE
 70
           1
  9
$FILLMODE
 70
           1
  9
$QTEXTMODE
 70
           0
  9
$MIRRTEXT
 70
           1
  9
$DRAGMODE
 70
           2
  9
$LTSCALE
 40
1.0
  9
$OSMODE
 70
           0
  9
$ATTMODE
 70
           1
  9
$TEXTSIZE
 40
0.2
  9
$TRACEWID
 40
0.05
  9
$TEXTSTYLE
  7
STANDARD
  9
$CLAYER
  8
0
  9
$CELTYPE
  6
CONTINUOUS
  9
$CECOLOR
 62
         256
  9
$CELTSCALE
 40
1.0
  9
$DELOBJ
 70
           1
  9
$DISPSILH
 70
           0
  9
$DIMSCALE
 40
1.0
  9
$DIMASZ
 40
0.18
  9
$DIMEXO
 40
0.0625
  9
$DIMDLI
 40
0.38
  9
$DIMRND
 40
0.0
  9
$DIMDLE
 40
0.0
  9
$DIMEXE
 40
0.18
  9
$DIMTP
 40
0.0
  9
$DIMTM
 40
0.0
  9
$DIMTXT
 40
0.18
  9
$DIMCEN
 40
0.09
  9
$DIMTSZ
 40
0.0
  9
$DIMTOL
 70
           0
  9
$DIMLIM
 70
           0
  9
$DIMTIH
 70
           1
  9
$DIMTOH
 70
           1
  9
$DIMSE1
 70
           0
  9
$DIMSE2
 70
           0
  9
$DIMTAD
 70
           0
  9
$DIMZIN
 70
           0
  9
$DIMBLK
  1

  9
$DIMASO
 70
           1
  9
$DIMSHO
 70
           1
  9
$DIMPOST
  1

  9
$DIMAPOST
  1

  9
$DIMALT
 70
           0
  9
$DIMALTD
 70
           2
  9
$DIMALTF
 40
25.4
  9
$DIMLFAC
 40
1.0
  9
$DIMTOFL
 70
           0
  9
$DIMTVP
 40
0.0
  9
$DIMTIX
 70
           0
  9
$DIMSOXD
 70
           0
  9
$DIMSAH
 70
           0
  9
$DIMBLK1
  1

  9
$DIMBLK2
  1

  9
$DIMSTYLE
  2
STANDARD
  9
$DIMCLRD
 70
           0
  9
$DIMCLRE
 70
           0
  9
$DIMCLRT
 70
           0
  9
$DIMTFAC
 40
1.0
  9
$DIMGAP
 40
0.09
  9
$DIMJUST
 70
           0
  9
$DIMSD1
 70
           0
  9
$DIMSD2
 70
           0
  9
$DIMTOLJ
 70
           1
  9
$DIMTZIN
 70
           0
  9
$DIMALTZ
 70
           0
  9
$DIMALTTZ
 70
           0
  9
$DIMFIT
 70
           3
  9
$DIMUPT
 70
           0
  9
$DIMUNIT
 70
           2
  9
$DIMDEC
 70
           4
  9
$DIMTDEC
 70
           4
  9
$DIMALTU
 70
           2
  9
$DIMALTTD
 70
           2
  9
$DIMTXSTY
  7
STANDARD
  9
$DIMAUNIT
 70
           0
  9
$LUNITS
 70
           2
  9
$LUPREC
 70
           4
  9
$SKETCHINC
 40
0.1
  9
$FILLETRAD
 40
0.0
  9
$AUNITS
 70
           0
  9
$AUPREC
 70
           0
  9
$MENU
  1
acad
  9
$ELEVATION
 40
0.0
  9
$PELEVATION
 40
0.0
  9
$THICKNESS
 40
0.0
  9
$LIMCHECK
 70
           0
  9
$BLIPMODE
 70
           1
  9
$CHAMFERA
 40
0.0
  9
$CHAMFERB
 40
0.0
  9
$CHAMFERC
 40
0.0
  9
$CHAMFERD
 40
0.0
  9
$SKPOLY
 70
           0
  9
$TDCREATE
 40
0.000000000
  9
$TDUPDATE
 40
0.000000000
  9
$TDINDWG
 40
0.0000000000
  9
$TDUSRTIMER
 40
0.0000000000
  9
$USRTIMER
 70
           1
  9
$ANGBASE
 50
0.0
  9
$ANGDIR
 70
           0
  9
$PDMODE
 70
           0
  9
$PDSIZE
 40
0.0
  9
$PLINEWID
 40
0.0
  9
$COORDS
 70
           0
  9
$SPLFRAME
 70
           0
  9
$SPLINETYPE
 70
           6
  9
$SPLINESEGS
 70
           8
  9
$ATTDIA
 70
           0
  9
$ATTREQ
 70
           1
  9
$HANDLING
 70
           1
  9
$HANDSEED
  5
326
  9
$SURFTAB1
 70
           6
  9
$SURFTAB2
 70
           6
  9
$SURFTYPE
 70
           6
  9
$SURFU
 70
           6
  9
$SURFV
 70
           6
  9
$UCSNAME
  2

  9
$UCSORG
 10
0.0
 20
0.0
 30
0.0
  9
$UCSXDIR
 10
1.0
 20
0.0
 30
0.0
  9
$UCSYDIR
 10
0.0
 20
1.0
 30
0.0
  9
$PUCSNAME
  2

  9
$PUCSORG
 10
0.0
 20
0.0
 30
0.0
  9
$PUCSXDIR
 10
1.0
 20
0.0
 30
0.0
  9
$PUCSYDIR
 10
0.0
 20
1.0
 30
0.0
  9
$USERI1
 70
           0
  9
$USERI2
 70
           0
  9
$USERI3
 70
           0
  9
$USERI4
 70
           0
  9
$USERI5
 70
           0
  9
$USERR1
 40
0.0
  9
$USERR2
 40
0.0
  9
$USERR3
 40
0.0
  9
$USERR4
 40
0.0
  9
$USERR5
 40
0.0
  9
$WORLDVIEW
 70
           1
  9
$SHADEDGE
 70
           3
  9
$SHADEDIF
 70
          70
  9
$TILEMODE
 70
           1
  9
$MAXACTVP
 70
          16
  9
$PINSBASE
 10
0.0
 20
0.0
 30
0.0
  9
$PLIMCHECK
 70
           0
  9
$PEXTMIN
 10
1.000000000000E+20
 20
1.000000000000E+20
 30
1.000000000000E+20
  9
$PEXTMAX
 10
-1.000000000000E+20
 20
-1.000000000000E+20
 30
-1.000000000000E+20
  9
$PLIMMIN
 10
0.0
 20
0.0
  9
$PLIMMAX
 10
12.0
 20
9.0
  9
$UNITMODE
 70
           0
  9
$VISRETAIN
 70
           0
  9
$PLINEGEN
 70
           1
  9
$PSLTSCALE
 70
           0
  9
$TREEDEPTH
 70
        3020
  9
$PICKSTYLE
 70
           1
  9
$CMLSTYLE
  2
STANDARD
  9
$CMLJUST
 70
           0
  9
$CMLSCALE
 40
1.0
  9
$PROXYGRAPHICS
 70
           0
  9
$MEASUREMENT
 70
           0
  0
ENDSEC
  0
SECTION
  2
CLASSES
  0
CLASS
  1
LWPOLYLINE
  2
AcDbPolyline
  3
"AutoCAD"
 90
        0
280
           0
281
           1
  0
CLASS
  1
IMAGE
  2
AcDbRasterImage
  3
ISM
 90
      127
280
           0
281
           1
  0
CLASS
  1
OLE2FRAME
  2
AcDbOle2Frame
  3
""
 90
        0
280
           0
281
           1
  0
CLASS
  1
HATCH
  2
AcDbHatch
  3
"ACAD_SEDONA"
 90
        0
280
           0
281
           1
  0
CLASS
  1
DICTIONARYVAR
  2
AcDbDictionaryVar
  3
"AutoCAD"
 90
        0
280
           0
281
           0
  0
CLASS
  1
RASTERVARIABLES
  2
AcDbRasterVariables
  3
ISM
 90
        0
280
           0
281
           0
  0
CLASS
  1
IMAGEDEF
  2
AcDbRasterImageDef
  3
ISM
 90
        0
280
           0
281
           0
  0
CLASS
  1
IMAGEDEF_REACTOR
  2
AcDbRasterImageDefReactor
  3
ISM
 90
        1
280
           0
281
           0
  0
CLASS
  1
IDBUFFER
  2
AcDbIdBuffer
  3
"Acad"
 90
        0
280
           0
281
           0
  0
CLASS
  1
SPATIAL_FILTER
  2
AcDbSpatialFilter
  3
"Acad"
 90
        0
280
           0
281
           0
  0
CLASS
  1
XRECORD
  2
AcDbXrecord
  3
"<Built In>"
 90
        0
280
           0
281
           0
  0
CLASS
  1
SORTENTSTABLE
  2
AcDbSortentsTable
  3
"AutoCAD"
 90
        0
280
           0
281
           0
  0
CLASS
  1
LAYER_INDEX
  2
AcDbLayerIndex
  3
"Acad"
 90
        0
280
           0
281
           0
  0
CLASS
  1
SPATIAL_INDEX
  2
AcDbSpatialIndex
  3
"Acad"
 90
        0
280
           0
281
           0
  0
CLASS
  1
OBJECT_PTR
  2
CAseDLPNTableRecord
  3
"ASE-LPNTableRecord"
 90
        1
280
           0
281
           0
  0
CLASS
  1
LAYOUT
  2
AcDbLayout
  3
"AutoCAD 2000"
 90
        1
280
           0
281
           0
  0
CLASS
  1
PLOTSETTINGS
  2
AcDbPlotSettings
  3
"AutoCAD 2000"
 90
        1
280
           0
281
           0
  0
CLASS
  1
ACDBDICTIONARYWDFLT
  2
AcDbDictionaryWithDefault
  3
"AutoCAD 2000"
 90
        1
280
           0
281
           0
  0
CLASS
  1
ACDBPLACEHOLDER
  2
AcDbPlaceHolder
  3
"AutoCAD 2000"
 90
        1
280
           0
281
           0
  0
CLASS
  1
VBA_PROJECT
  2
AcDbVbaProject
  3
"acadvba"
 90
        1
280
           0
281
           0
  0
CLASS
  1
WIPEOUT
  2
AcDbWipeout
  3
WipeOut|AutoCAD Express Tool|expresstools@autodesk.com
 90
      127
280
           0
281
           1
  0
CLASS
  1
WIPEOUTVARIABLES
  2
AcDbWipeoutVariables
  3
WipeOut|AutoCAD Express Tool|expresstools@autodesk.com
 90
        0
280
           0
281
           0
  0
CLASS
  1
RTEXT
  2
RText
  3
RText|AutoCAD Express Tool|expresstools@autodesk.com
 90
        0
280
           0
281
           1
  0
CLASS
  1
ARCALIGNEDTEXT
  2
AcDbArcAlignedText
  3
ATEXT|AutoCAD Express Tool|expresstools@autodesk.com
 90
        0
280
           0
281
           1
  0
ENDSEC
  0
SECTION
  2
TABLES
  0
TABLE
  2
VPORT
  5
7
100
AcDbSymbolTable
 70
           1
  0
VPORT
  5
15
100
AcDbSymbolTableRecord
100
AcDbViewportTableRecord
  2
*ACTIVE
 70
           0
 10
0.0
 20
0.0
 11
1.0
 21
1.0
 12
6.591288
 22
4.579184
 13
0.0
 23
0.0
 14
1.0
 24
1.0
 15
0.0
 25
0.0
 16
0.0
 26
0.0
 36
1.0
 17
0.0
 27
0.0
 37
0.0
 40
9.158369
 41
0.688564
 42
50.0
 43
0.0
 44
0.0
 50
0.0
 51
0.0
 71
           0
 72
         100
 73
           1
 74
           1
 75
           0
 76
           0
 77
           0
 78
           0
  0
ENDTAB
  0
TABLE
  2
LTYPE
  5
4
100
AcDbSymbolTable
 70
          10
  0
LTYPE
  5
11
100
AcDbSymbolTableRecord
100
AcDbLinetypeTableRecord
  2
BYBLOCK
 70
          64
  3

 72
          65
 73
           0
 40
0.0
  0
LTYPE
  5
12
100
AcDbSymbolTableRecord
100
AcDbLinetypeTableRecord
  2
BYLAYER
 70
          64
  3

 72
          65
 73
           0
 40
0.0
  0
LTYPE
  5
13
100
AcDbSymbolTableRecord
100
AcDbLinetypeTableRecord
  2
CONTINUOUS
 70
          64
  3
Solid line
 72
          65
 73
           0
 40
0.0
  0
LTYPE
  5
1D
100
AcDbSymbolTableRecord
100
AcDbLinetypeTableRecord
  2
DASHED
 70
          64
  3
Dashed
 72
          65
 73
           2
 40
15.0
 49
12.0
 74
           0
 49
-3.0
 74
           0
  0
LTYPE
  5
1E
100
AcDbSymbolTableRecord
100
AcDbLinetypeTableRecord
  2
DOTTED
 70
          64
  3
Dotted
 72
          65
 73
           2
 40
3.5
 49
0.5
 74
           0
 49
-3.0
 74
           0
  0
LTYPE
  5
1F
100
AcDbSymbolTableRecord
100
AcDbLinetypeTableRecord
  2
DOT_CENTER
 70
          64
  3
Dot_Center
 72
          65
 73
           4
 40
2.0
 49
1.25
 74
           0
 49
-0.25
 74
           0
 49
0.25
 74
           0
 49
-0.25
 74
           0
  0
LTYPE
  5
20
100
AcDbSymbolTableRecord
100
AcDbLinetypeTableRecord
  2
LONG_DASHED
 70
          64
  3
Long_Dashed
 72
          65
 73
           2
 40
2.0
 49
1.5
 74
           0
 49
-0.5
 74
           0
  0
LTYPE
  5
21
100
AcDbSymbolTableRecord
100
AcDbLinetypeTableRecord
  2
DASH_CENTER
 70
          64
  3
Dash_Center
 72
          65
 73
           4
 40
36.0
 49
24.0
 74
           0
 49
-3.0
 74
           0
 49
6.0
 74
           0
 49
-3.0
 74
           0
  0
LTYPE
  5
22
100
AcDbSymbolTableRecord
100
AcDbLinetypeTableRecord
  2
PHANTOM
 70
          64
  3
Phantom
 72
          65
 73
           6
 40
2.5
 49
1.25
 74
           0
 49
-0.25
 74
           0
 49
0.25
 74
           0
 49
-0.25
 74
           0
 49
0.25
 74
           0
 49
-0.25
 74
           0
  0
LTYPE
  5
23
100
AcDbSymbolTableRecord
100
AcDbLinetypeTableRecord
  2
CENTER_DASH_DASH
 70
          64
  3
Center_Dash_Dash
 72
          65
 73
           6
 40
22.0
 49
12.0
 74
           0
 49
-3.0
 74
           0
 49
0.5
 74
           0
 49
-3.0
 74
           0
 49
0.5
 74
           0
 49
-3.0
 74
           0
  0
ENDTAB
  0
TABLE
  2
LAYER
  5
2
100
AcDbSymbolTable
 70
           2
  0
LAYER
  5
14
100
AcDbSymbolTableRecord
100
AcDbLayerTableRecord
  2
0
 70
           0
 62
           7
  6
CONTINUOUS
  0
LAYER
  5
24
100
AcDbSymbolTableRecord
100
AcDbLayerTableRecord
  2
1
 70
           0
 62
           7
  6
CONTINUOUS
  0
ENDTAB
  0
TABLE
  2
STYLE
  5
3
100
AcDbSymbolTable
 70
           1
  0
STYLE
  5
17
100
AcDbSymbolTableRecord
100
AcDbTextStyleTableRecord
  2
STANDARD
 70
           0
 40
0.0
 41
1.0
 50
0.0
 71
           0
 42
0.0
  3
txt
  4

  0
ENDTAB
  0
TABLE
  2
VIEW
  5
5
100
AcDbSymbolTable
 70
           0
  0
ENDTAB
  0
TABLE
  2
UCS
  5
6
100
AcDbSymbolTable
 70
           0
  0
ENDTAB
  0
TABLE
  2
APPID
  5
8
100
AcDbSymbolTable
 70
           1
  0
APPID
  5
16
100
AcDbSymbolTableRecord
100
AcDbRegAppTableRecord
  2
ACAD
 70
           0
  0
ENDTAB
  0
TABLE
  2
DIMSTYLE
  5
9
100
AcDbSymbolTable
 70
           1
  0
DIMSTYLE
105
18
100
AcDbSymbolTableRecord
100
AcDbDimStyleTableRecord
  2
STANDARD
 70
           0
  3

  4

  5

  6

  7

 40
1.0
 41
0.18
 42
0.0625
 43
0.38
 44
0.18
 45
0.0
 46
0.0
 47
0.0
 48
0.0
 71
           0
 72
           0
 73
           1
 74
           1
 75
           0
 76
           0
 77
           0
 78
           0
140
0.18
141
0.09
142
0.0
143
25.4
144
1.0
145
0.0
146
1.0
147
0.09
170
           0
171
           2
172
           0
173
           0
174
           0
175
           0
176
           0
177
           0
178
           0
270
           2
271
           4
272
           4
273
           2
274
           2
275
           0
280
           0
281
           0
282
           0
283
           1
284
           0
285
           0
286
           0
287
           0
288
           0
340
17
  0
ENDTAB
  0
TABLE
  2
BLOCK_RECORD
  5
1
100
AcDbSymbolTable
 70
           1
  0
BLOCK_RECORD
  5
A
100
AcDbSymbolTableRecord
100
AcDbBlockTableRecord
  2
*MODEL_SPACE
  0
BLOCK_RECORD
  5
B
100
AcDbSymbolTableRecord
100
AcDbBlockTableRecord
  2
*PAPER_SPACE
  0
BLOCK_RECORD
  5
25
100
AcDbSymbolTableRecord
100
AcDbBlockTableRecord
  2
CUE_232B_600K
  0
ENDTAB
  0
ENDSEC
  0
SECTION
  2
BLOCKS
  0
BLOCK
  5
D
100
AcDbEntity
  8
0
100
AcDbBlockBegin
  2
*MODEL_SPACE
 70
           0
 10
0.0
 20
0.0
 30
0.0
  3
*MODEL_SPACE
  1

  0
ENDBLK
  5
E
100
AcDbEntity
  8
0
100
AcDbBlockEnd
  0
BLOCK
  5
F
100
AcDbEntity
 67
           1
  8
0
100
AcDbBlockBegin
  2
*PAPER_SPACE
 70
           0
 10
0.0
 20
0.0
 30
0.0
  3
*PAPER_SPACE
  1

  0
ENDBLK
  5
10
100
AcDbEntity
 67
           1
  8
0
100
AcDbBlockEnd
  0
BLOCK
  5
26
100
AcDbEntity
  8
0
100
AcDbBlockBegin
  2
CUE_232B_600K
 70
           0
 10
0.0
 20
0.0
 30
0.0
  3
CUE_232B_600K
  1

  0
ENDBLK
  5
2A
100
AcDbEntity
  8
0
100
AcDbBlockEnd
  0
ENDSEC
  0
SECTION
  2
ENTITIES
  0
HATCH
  5
324
100
AcDbEntity
  8
0
  6
CONTINUOUS
 62
           4
100
AcDbHatch
 10
0.0
 20
0.0
 30
0.0
210
0.0
220
0.0
230
1.0
  2
USER
 70
           0
 71
           1
 91
        1
 92
        1
 93
       13
 72
           1
 10
3388.3206651776691
 20
-1998.2375138975401
 11
3385.3503852898798
 21
-2053.07776343257
 72
           1
 10
3385.3503852898798
 20
-2053.07776343257
 11
3301.32066517767
 21
-2053.0777634325691
 72
           1
 10
3301.32066517767
 20
-2053.0777634325691
 11
3301.32066517767
 21
-1763.07776343257
 72
           1
 10
3571.3206651776709
 20
-1763.07776343257
 11
3571.3206651776709
 21
-1864.6183039731091
 72
           1
 10
3571.3206651776709
 20
-1864.6183039731091
 11
3489.809882586509
 21
-1877.836268717622
 72
           1
 10
3489.809882586509
 20
-1877.836268717622
 11
3460.3649011214061
 21
-1886.0039211753351
 72
           1
 10
3460.3649011214061
 20
-1886.0039211753351
 11
3442.171382382206
 21
-1895.638518195293
 72
           1
 10
3442.171382382206
 20
-1895.638518195293
 11
3424.2088922078492
 21
-1909.9195896623789
 72
           1
 10
3424.2088922078492
 20
-1909.9195896623789
 11
3411.2114637448922
 21
-1924.8015431026311
 72
           1
 10
3411.2114637448922
 20
-1924.8015431026311
 11
3394.9013245322458
 21
-1955.7158673750041
 72
           1
 10
3394.9013245322458
 20
-1955.7158673750041
 11
3389.5592039279741
 21
-1977.3169386887771
 72
           1
 10
3389.5592039279741
 20
-1977.3169386887771
 11
3388.3206651776691
 21
-1998.2375138975401
 72
           1
 10
3571.3206651776709
 20
-1763.07776343257
 11
3301.32066517767
 21
-1763.07776343257
 97
        3
330
2ED
330
2EE
330
2A9
 75
           1
 76
           0
 52
45.0
 41
30.0
 77
           0
 78
           2
 53
45.0
 43
0.0
 44
0.0
 45
-21.213203435596427
 46
21.213203435596427
 79
           0
 53
135.0
 43
0.0
 44
0.0
 45
-21.213203435596419
 46
-21.213203435596434
 79
           0
 98
        1
 10
0.0
 20
0.0
  0
HATCH
  5
323
100
AcDbEntity
  8
0
  6
CONTINUOUS
 62
           4
100
AcDbHatch
 10
0.0
 20
0.0
 30
0.0
210
0.0
220
0.0
230
1.0
  2
USER
 70
           0
 71
           1
 91
        1
 92
        1
 93
        1
 72
           2
 10
1375.999999999998
 20
-1553.0777634325659
 40
5.0
 50
-180.0
 51
180.0
 73
           1
 97
        1
330
2E5
 75
           1
 76
           0
 52
45.0
 41
1.0
 77
           0
 78
           2
 53
45.0
 43
0.0
 44
0.0
 45
-0.7071067811865475
 46
0.7071067811865476
 79
           0
 53
135.0
 43
0.0
 44
0.0
 45
-0.7071067811865472
 46
-0.7071067811865478
 79
           0
 98
        1
 10
0.0
 20
0.0
  0
ARC
  5
322
100
AcDbEntity
  8
1
  6
CONTINUOUS
 62
           3
100
AcDbCircle
 10
1213.247297421605
 20
-2431.077763432566
 40
5.0
100
AcDbArc
 50
-90.0
 51
0.0
  0
ARC
  5
321
100
AcDbEntity
  8
1
  6
CONTINUOUS
 62
           3
100
AcDbCircle
 10
1213.247297421605
 20
-2421.077763432566
 40
5.0
100
AcDbArc
 50
0.0
 51
90.0
  0
ARC
  5
320
100
AcDbEntity
  8
1
  6
CONTINUOUS
 62
           3
100
AcDbCircle
 10
1247.999999999998
 20
-1427.077763432566
 40
2.0
100
AcDbArc
 50
90.0
 51
180.0
  0
ARC
  5
31F
100
AcDbEntity
  8
1
  6
CONTINUOUS
 62
           3
100
AcDbCircle
 10
1274.999999999998
 20
-1400.077763432566
 40
2.0
100
AcDbArc
 50
90.0
 51
180.0
  0
ARC
  5
31E
100
AcDbEntity
  8
1
  6
CONTINUOUS
 62
           3
100
AcDbCircle
 10
1268.999999999998
 20
-1421.077763432566
 40
4.0
100
AcDbArc
 50
-90.0
 51
0.0
  0
ARC
  5
31D
100
AcDbEntity
  8
1
  6
CONTINUOUS
 62
           3
100
AcDbCircle
 10
1247.999999999998
 20
-1429.077763432566
 40
2.0
100
AcDbArc
 50
180.0
 51
-90.0
  0
ARC
  5
31C
100
AcDbEntity
  8
1
  6
CONTINUOUS
 62
           3
100
AcDbCircle
 10
1274.999999999998
 20
-1456.077763432566
 40
2.0
100
AcDbArc
 50
180.0
 51
-90.0
  0
ARC
  5
31B
100
AcDbEntity
  8
1
  6
CONTINUOUS
 62
           3
100
AcDbCircle
 10
1268.999999999998
 20
-1435.077763432566
 40
4.0
100
AcDbArc
 50
0.0
 51
90.0
  0
ARC
  5
31A
100
AcDbEntity
  8
1
  6
CONTINUOUS
 62
           3
100
AcDbCircle
 10
1504.0
 20
-1427.077763432566
 40
2.0
100
AcDbArc
 50
0.0
 51
90.0
  0
ARC
  5
319
100
AcDbEntity
  8
1
  6
CONTINUOUS
 62
           3
100
AcDbCircle
 10
1477.0
 20
-1400.077763432566
 40
2.0
100
AcDbArc
 50
0.0
 51
90.0
  0
ARC
  5
318
100
AcDbEntity
  8
1
  6
CONTINUOUS
 62
           3
100
AcDbCircle
 10
1483.0
 20
-1421.077763432566
 40
4.0
100
AcDbArc
 50
180.0
 51
-90.0
  0
ARC
  5
317
100
AcDbEntity
  8
1
  6
CONTINUOUS
 62
           3
100
AcDbCircle
 10
1504.0
 20
-1429.077763432566
 40
2.0
100
AcDbArc
 50
-90.0
 51
0.0
  0
ARC
  5
316
100
AcDbEntity
  8
1
  6
CONTINUOUS
 62
           3
100
AcDbCircle
 10
1477.0
 20
-1456.077763432566
 40
2.0
100
AcDbArc
 50
-90.0
 51
0.0
  0
ARC
  5
315
100
AcDbEntity
  8
1
  6
CONTINUOUS
 62
           3
100
AcDbCircle
 10
1483.0
 20
-1435.077763432566
 40
4.0
100
AcDbArc
 50
90.0
 51
180.0
  0
ARC
  5
314
100
AcDbEntity
  8
1
  6
CONTINUOUS
 62
           3
100
AcDbCircle
 10
1247.999999999998
 20
-1677.077763432566
 40
2.0
100
AcDbArc
 50
90.0
 51
180.0
  0
ARC
  5
313
100
AcDbEntity
  8
1
  6
CONTINUOUS
 62
           3
100
AcDbCircle
 10
1274.999999999998
 20
-1650.077763432566
 40
2.0
100
AcDbArc
 50
90.0
 51
180.0
  0
ARC
  5
312
100
AcDbEntity
  8
1
  6
CONTINUOUS
 62
           3
100
AcDbCircle
 10
1268.999999999998
 20
-1671.077763432566
 40
4.0
100
AcDbArc
 50
-90.0
 51
0.0
  0
ARC
  5
311
100
AcDbEntity
  8
1
  6
CONTINUOUS
 62
           3
100
AcDbCircle
 10
1504.0
 20
-1677.077763432566
 40
2.0
100
AcDbArc
 50
0.0
 51
90.0
  0
ARC
  5
310
100
AcDbEntity
  8
1
  6
CONTINUOUS
 62
           3
100
AcDbCircle
 10
1477.0
 20
-1650.077763432566
 40
2.0
100
AcDbArc
 50
0.0
 51
90.0
  0
ARC
  5
30F
100
AcDbEntity
  8
1
  6
CONTINUOUS
 62
           3
100
AcDbCircle
 10
1483.0
 20
-1671.077763432566
 40
4.0
100
AcDbArc
 50
180.0
 51
-90.0
  0
ARC
  5
30E
100
AcDbEntity
  8
1
  6
CONTINUOUS
 62
           3
100
AcDbCircle
 10
2168.999999999997
 20
157.000000075023
 40
3.0
100
AcDbArc
 50
-90.0
 51
0.0
  0
ARC
  5
30D
100
AcDbEntity
  8
1
  6
CONTINUOUS
 62
           3
100
AcDbCircle
 10
2168.999999999997
 20
345.000000075023
 40
3.0
100
AcDbArc
 50
0.0
 51
90.0
  0
ARC
  5
30C
100
AcDbEntity
  8
1
  6
CONTINUOUS
 62
           3
100
AcDbCircle
 10
2035.999999999997
 20
345.000000075023
 40
3.0
100
AcDbArc
 50
90.0
 51
180.0
  0
ARC
  5
30B
100
AcDbEntity
  8
1
  6
CONTINUOUS
 62
           3
100
AcDbCircle
 10
2035.999999999997
 20
157.000000075023
 40
3.0
100
AcDbArc
 50
180.0
 51
-90.0
  0
ARC
  5
30A
100
AcDbEntity
  8
1
  6
CONTINUOUS
 62
           2
100
AcDbCircle
 10
2035.999999999997
 20
345.000000075023
 40
6.0
100
AcDbArc
 50
90.0
 51
180.0
  0
ARC
  5
309
100
AcDbEntity
  8
1
  6
CONTINUOUS
 62
           2
100
AcDbCircle
 10
2169.999999999997
 20
345.000000075023
 40
6.0
100
AcDbArc
 50
0.0
 51
90.0
  0
ARC
  5
308
100
AcDbEntity
  8
1
  6
CONTINUOUS
 62
           2
100
AcDbCircle
 10
2169.999999999997
 20
157.000000075023
 40
6.0
100
AcDbArc
 50
-90.0
 51
0.0
  0
ARC
  5
307
100
AcDbEntity
  8
1
  6
CONTINUOUS
 62
           2
100
AcDbCircle
 10
2035.999999999997
 20
157.000000075023
 40
6.0
100
AcDbArc
 50
180.0
 51
-90.0
  0
ARC
  5
306
100
AcDbEntity
  8
1
  6
CONTINUOUS
 62
           2
100
AcDbCircle
 10
2200.999999999997
 20
315.500000075023
 40
2.0
100
AcDbArc
 50
0.0
 51
90.0
  0
ARC
  5
305
100
AcDbEntity
  8
1
  6
CONTINUOUS
 62
           2
100
AcDbCircle
 10
2200.999999999997
 20
296.500000075023
 40
2.0
100
AcDbArc
 50
-90.0
 51
0.0
  0
ARC
  5
304
100
AcDbEntity
  8
1
  6
CONTINUOUS
 62
           2
100
AcDbCircle
 10
2200.999999999997
 20
205.500000075023
 40
2.0
100
AcDbArc
 50
0.0
 51
90.0
  0
ARC
  5
303
100
AcDbEntity
  8
1
  6
CONTINUOUS
 62
           2
100
AcDbCircle
 10
2200.999999999997
 20
186.500000075023
 40
2.0
100
AcDbArc
 50
-90.0
 51
0.0
  0
ARC
  5
302
100
AcDbEntity
  8
1
  6
CONTINUOUS
 62
           2
100
AcDbCircle
 10
2166.999999999997
 20
559.500000075023
 40
2.0
100
AcDbArc
 50
-90.0
 51
0.0
  0
ARC
  5
301
100
AcDbEntity
  8
1
  6
CONTINUOUS
 62
           2
100
AcDbCircle
 10
2132.999999999997
 20
559.500000075023
 40
2.0
100
AcDbArc
 50
180.0
 51
-90.0
  0
ARC
  5
300
100
AcDbEntity
  8
1
  6
CONTINUOUS
 62
           2
100
AcDbCircle
 10
2132.999999999997
 20
597.500000075023
 40
2.0
100
AcDbArc
 50
90.0
 51
180.0
  0
ARC
  5
2FF
100
AcDbEntity
  8
1
  6
CONTINUOUS
 62
           2
100
AcDbCircle
 10
2166.999999999997
 20
597.500000075023
 40
2.0
100
AcDbArc
 50
0.0
 51
90.0
  0
ARC
  5
2FE
100
AcDbEntity
  8
1
  6
CONTINUOUS
 62
           2
100
AcDbCircle
 10
2166.999999999997
 20
644.500000075023
 40
2.0
100
AcDbArc
 50
-90.0
 51
0.0
  0
ARC
  5
2FD
100
AcDbEntity
  8
1
  6
CONTINUOUS
 62
           2
100
AcDbCircle
 10
2132.999999999997
 20
644.500000075023
 40
2.0
100
AcDbArc
 50
180.0
 51
-90.0
  0
ARC
  5
2FC
100
AcDbEntity
  8
1
  6
CONTINUOUS
 62
           2
100
AcDbCircle
 10
2132.999999999997
 20
682.500000075023
 40
2.0
100
AcDbArc
 50
90.0
 51
180.0
  0
ARC
  5
2FB
100
AcDbEntity
  8
1
  6
CONTINUOUS
 62
           2
100
AcDbCircle
 10
2166.999999999997
 20
682.500000075023
 40
2.0
100
AcDbArc
 50
0.0
 51
90.0
  0
ARC
  5
2FA
100
AcDbEntity
  8
1
  6
CONTINUOUS
 62
           2
100
AcDbCircle
 10
2211.77330345292
 20
621.000000075023
 40
50.0
100
AcDbArc
 50
178.285069804473
 51
-178.285069804474
  0
ARC
  5
2F9
100
AcDbEntity
  8
1
  6
CONTINUOUS
 62
           2
100
AcDbCircle
 10
2088.226696547074
 20
621.000000075023
 40
50.000000000001
100
AcDbArc
 50
-1.714930195525
 51
1.714930195526
  0
ARC
  5
2F8
100
AcDbEntity
  8
1
  6
CONTINUOUS
 62
           2
100
AcDbCircle
 10
2036.999999999997
 20
559.500000075023
 40
2.0
100
AcDbArc
 50
-90.0
 51
0.0
  0
ARC
  5
2F7
100
AcDbEntity
  8
1
  6
CONTINUOUS
 62
           2
100
AcDbCircle
 10
2002.999999999997
 20
559.500000075023
 40
2.0
100
AcDbArc
 50
180.0
 51
-90.0
  0
ARC
  5
2F6
100
AcDbEntity
  8
1
  6
CONTINUOUS
 62
           2
100
AcDbCircle
 10
2002.999999999997
 20
597.500000075023
 40
2.0
100
AcDbArc
 50
90.0
 51
180.0
  0
ARC
  5
2F5
100
AcDbEntity
  8
1
  6
CONTINUOUS
 62
           2
100
AcDbCircle
 10
2036.999999999997
 20
597.500000075023
 40
2.0
100
AcDbArc
 50
0.0
 51
90.0
  0
ARC
  5
2F4
100
AcDbEntity
  8
1
  6
CONTINUOUS
 62
           2
100
AcDbCircle
 10
2036.999999999997
 20
644.500000075023
 40
2.0
100
AcDbArc
 50
-90.0
 51
0.0
  0
ARC
  5
2F3
100
AcDbEntity
  8
1
  6
CONTINUOUS
 62
           2
100
AcDbCircle
 10
2002.999999999997
 20
644.500000075023
 40
2.0
100
AcDbArc
 50
180.0
 51
-90.0
  0
ARC
  5
2F2
100
AcDbEntity
  8
1
  6
CONTINUOUS
 62
           2
100
AcDbCircle
 10
2002.999999999997
 20
682.500000075023
 40
2.0
100
AcDbArc
 50
90.0
 51
180.0
  0
ARC
  5
2F1
100
AcDbEntity
  8
1
  6
CONTINUOUS
 62
           2
100
AcDbCircle
 10
2036.999999999997
 20
682.500000075023
 40
2.0
100
AcDbArc
 50
0.0
 51
90.0
  0
ARC
  5
2F0
100
AcDbEntity
  8
1
  6
CONTINUOUS
 62
           2
100
AcDbCircle
 10
2081.77330345292
 20
621.000000075023
 40
50.000000000001
100
AcDbArc
 50
178.285069804473
 51
-178.285069804474
  0
ARC
  5
2EF
100
AcDbEntity
  8
1
  6
CONTINUOUS
 62
           2
100
AcDbCircle
 10
1958.226696547075
 20
621.000000075023
 40
50.0
100
AcDbArc
 50
-1.714930195525
 51
1.714930195526
  0
LWPOLYLINE
  5
2EE
100
AcDbEntity
  8
1
  6
CONTINUOUS
 62
           7
 60
           1
100
AcDbPolyline
 90
       10
 70
           0
 10
3571.320665177671
 20
-1763.07776343257
 10
3571.320665177671
 20
-1864.618303973109
 10
3489.809882586509
 20
-1877.836268717622
 10
3460.364901121406
 20
-1886.003921175335
 10
3442.171382382206
 20
-1895.638518195293
 10
3424.208892207849
 20
-1909.919589662379
 10
3411.211463744892
 20
-1924.801543102631
 10
3394.901324532246
 20
-1955.715867375004
 10
3389.559203927974
 20
-1977.316938688777
 10
3388.320665177669
 20
-1998.23751389754
  0
LWPOLYLINE
  5
2ED
100
AcDbEntity
  8
1
  6
CONTINUOUS
 62
           7
 60
           1
100
AcDbPolyline
 90
        4
 70
           0
 10
3388.320665177669
 20
-1998.23751389754
 10
3385.35038528988
 20
-2053.07776343257
 10
3301.32066517767
 20
-2053.077763432569
 10
3301.32066517767
 20
-1763.07776343257
  0
CIRCLE
  5
2EC
100
AcDbEntity
  8
1
  6
PHANTOM
 62
           3
100
AcDbCircle
 10
3858.32066517767
 20
-1918.077763432569
 40
62.5
  0
CIRCLE
  5
2EB
100
AcDbEntity
  8
1
  6
PHANTOM
 62
           3
100
AcDbCircle
 10
3488.320665177669
 20
-2027.077763432569
 40
87.5
  0
CIRCLE
  5
2EA
100
AcDbEntity
  8
1
  6
CONTINUOUS
 62
           3
100
AcDbCircle
 10
2075.000000000002
 20
-1976.077763432556
 40
15.0
  0
CIRCLE
  5
2E9
100
AcDbEntity
  8
1
  6
CONTINUOUS
 62
           3
100
AcDbCircle
 10
953.999999999998
 20
-2426.077763432566
 40
4.464352242057
  0
CIRCLE
  5
2E8
100
AcDbEntity
  8
1
  6
CONTINUOUS
 62
           2
100
AcDbCircle
 10
3486.32066517767
 20
-1553.377876272318
 40
10.317611070937
  0
CIRCLE
  5
2E7
100
AcDbEntity
  8
1
  6
CONTINUOUS
 62
           3
100
AcDbCircle
 10
1500.999999999998
 20
-1628.077763432566
 40
25.0
  0
CIRCLE
  5
2E6
100
AcDbEntity
  8
1
  6
CONTINUOUS
 62
           3
100
AcDbCircle
 10
1500.999999999998
 20
621.000000075023
 40
25.0
  0
CIRCLE
  5
2E5
100
AcDbEntity
  8
1
  6
CONTINUOUS
 62
           3
100
AcDbCircle
 10
1375.999999999998
 20
-1553.077763432566
 40
5.0
  0
CIRCLE
  5
2E4
100
AcDbEntity
  8
1
  6
CONTINUOUS
 62
           3
100
AcDbCircle
 10
1826.999999999998
 20
-2421.891325743884
 40
9.315647355264
  0
CIRCLE
  5
2E3
100
AcDbEntity
  8
1
  6
CONTINUOUS
 62
           3
100
AcDbCircle
 10
1826.999999999998
 20
-2421.891325743884
 40
14.14339921204
  0
CIRCLE
  5
2E2
100
AcDbEntity
  8
1
  6
CONTINUOUS
 62
           3
100
AcDbCircle
 10
2075.000000000002
 20
-1976.077763432556
 40
13.0
  0
ARC
  5
2E1
100
AcDbEntity
  8
1
  6
CONTINUOUS
 62
           2
100
AcDbCircle
 10
3395.561475799113
 20
-2113.077763432569
 40
16.240810621443
100
AcDbArc
 50
162.412046226002
 51
-162.412046226003
  0
ARC
  5
2E0
100
AcDbEntity
  8
1
  6
CONTINUOUS
 62
           2
100
AcDbCircle
 10
3506.291462944484
 20
-1994.724665064322
 40
118.023087710259
100
AcDbArc
 50
98.758215559221
 51
-178.294391837118
  0
ARC
  5
2DF
100
AcDbEntity
  8
1
  6
CONTINUOUS
 62
           2
100
AcDbCircle
 10
3858.32066517767
 20
-1918.077763432569
 40
100.0
100
AcDbArc
 50
0.0
 51
90.0
  0
ARC
  5
2DE
100
AcDbEntity
  8
1
  6
PHANTOM
 62
           3
100
AcDbCircle
 10
1601.999999999998
 20
-102.000000000001
 40
777.0
100
AcDbArc
 50
180.0
 51
-90.0
  0
ARC
  5
2DD
100
AcDbEntity
  8
1
  6
PHANTOM
 62
           3
100
AcDbCircle
 10
48.0
 20
-102.0
 40
776.999999999998
100
AcDbArc
 50
-130.421892738858
 51
-90.0
  0
ARC
  5
2DC
100
AcDbEntity
  8
1
  6
PHANTOM
 62
           3
100
AcDbCircle
 10
48.0
 20
-102.0
 40
777.0
100
AcDbArc
 50
-90.0
 51
0.0
  0
ARC
  5
2DB
100
AcDbEntity
  8
1
  6
PHANTOM
 62
           3
100
AcDbCircle
 10
2219.999999999999
 20
-348.999999924977
 40
440.000000000001
100
AcDbArc
 50
180.0
 51
-99.795085792136
  0
ARC
  5
2DA
100
AcDbEntity
  8
1
  6
CONTINUOUS
 62
           3
100
AcDbCircle
 10
48.0
 20
-102.0
 40
9.999999999996
100
AcDbArc
 50
-33.367012969245
 51
-90.0
  0
ARC
  5
2D9
100
AcDbEntity
  8
1
  6
CONTINUOUS
 62
           3
100
AcDbCircle
 10
48.0
 20
-102.0
 40
5.500000000001
100
AcDbArc
 50
-40.165348630493
 51
-90.0
  0
ARC
  5
2D8
100
AcDbEntity
  8
1
  6
CONTINUOUS
 62
           3
100
AcDbCircle
 10
1601.999999999998
 20
-102.000000000001
 40
9.999999999999
100
AcDbArc
 50
-90.0
 51
-146.632987030769
  0
ARC
  5
2D7
100
AcDbEntity
  8
1
  6
CONTINUOUS
 62
           3
100
AcDbCircle
 10
1601.999999999998
 20
-102.000000000001
 40
5.499999999999
100
AcDbArc
 50
-90.0
 51
-139.834651369512
  0
ARC
  5
2D6
100
AcDbEntity
  8
1
  6
CONTINUOUS
 62
           3
100
AcDbCircle
 10
3888.32066517767
 20
-1628.077763432569
 40
25.0
100
AcDbArc
 50
-6.892102579346
 51
180.0
  0
ARC
  5
2D5
100
AcDbEntity
  8
1
  6
CONTINUOUS
 62
           3
100
AcDbCircle
 10
3888.32066517767
 20
-1628.077763432569
 40
25.0
100
AcDbArc
 50
180.0
 51
-173.107897420653
  0
LINE
  5
2D4
100
AcDbEntity
  8
1
  6
CONTINUOUS
 62
           2
100
AcDbLine
 10
3238.320665177669
 20
-3138.07776343257
 11
4238.32066517767
 21
-3138.07776343257
  0
LINE
  5
2D3
100
AcDbEntity
  8
1
  6
CONTINUOUS
 62
           2
100
AcDbLine
 10
3738.32066517767
 20
-2188.07776343257
 11
3738.32066517767
 21
-3138.07776343257
  0
LINE
  5
2D2
100
AcDbEntity
  8
1
  6
CONTINUOUS
 62
           2
100
AcDbLine
 10
3238.320665177669
 20
-3158.07776343257
 11
4238.32066517767
 21
-3158.07776343257
  0
LINE
  5
2D1
100
AcDbEntity
  8
1
  6
CONTINUOUS
 62
           2
100
AcDbLine
 10
1979.999999999997
 20
-1678.077763432564
 11
1979.999999999997
 21
-1628.077763432568
  0
LINE
  5
2D0
100
AcDbEntity
  8
1
  6
CONTINUOUS
 62
           2
100
AcDbLine
 10
4108.32066517767
 20
-2186.077763432569
 11
4133.32066517767
 21
-2186.077763432569
  0
LINE
  5
2CF
100
AcDbEntity
  8
1
  6
CONTINUOUS
 62
           2
100
AcDbLine
 10
3618.339227674264
 20
-2128.077763432569
 11
3618.339227674264
 21
-1631.077763432569
  0
LINE
  5
2CE
100
AcDbEntity
  8
1
  6
CONTINUOUS
 62
           2
100
AcDbLine
 10
4133.32066517767
 20
-1631.077763432569
 11
4133.32066517767
 21
-2186.077763432569
  0
LINE
  5
2CD
100
AcDbEntity
  8
1
  6
CONTINUOUS
 62
           2
100
AcDbLine
 10
3618.339227674264
 20
-1631.077763432569
 11
4133.32066517767
 21
-1631.077763432569
  0
LINE
  5
2CC
100
AcDbEntity
  8
1
  6
DOT_CENTER
 62
           3
100
AcDbLine
 10
3264.087733911149
 20
-1918.077763432569
 11
3474.906884143849
 21
-1918.077763432569
  0
LINE
  5
2CB
100
AcDbEntity
  8
1
  6
PHANTOM
 62
           3
100
AcDbLine
 10
3879.160507306894
 20
-1977.001026920168
 11
3517.496444158583
 21
-2109.570332315208
  0
LINE
  5
2CA
100
AcDbEntity
  8
1
  6
PHANTOM
 62
           3
100
AcDbLine
 10
3470.0981127804
 20
-1941.496290062869
 11
3845.304556322478
 21
-1856.948139597069
  0
LINE
  5
2C9
100
AcDbEntity
  8
1
  6
CONTINUOUS
 62
           2
100
AcDbLine
 10
3318.320665177669
 20
-2188.077763432569
 11
4108.32066517767
 21
-2188.077763432569
  0
LINE
  5
2C8
100
AcDbEntity
  8
1
  6
CONTINUOUS
 62
           2
100
AcDbLine
 10
4108.32066517767
 20
-2188.077763432569
 11
4108.32066517767
 21
-2128.077763432569
  0
LINE
  5
2C7
100
AcDbEntity
  8
1
  6
CONTINUOUS
 62
           2
100
AcDbLine
 10
4108.32066517767
 20
-2128.077763432569
 11
3318.320665177669
 21
-2128.077763432569
  0
LINE
  5
2C6
100
AcDbEntity
  8
1
  6
CONTINUOUS
 62
           2
100
AcDbLine
 10
3318.320665177669
 20
-2128.077763432569
 11
3318.320665177669
 21
-2188.077763432569
  0
LINE
  5
2C5
100
AcDbEntity
  8
1
  6
DOT_CENTER
 62
           3
100
AcDbLine
 10
3959.32066517767
 20
-2197.539090740225
 11
3959.32066517767
 21
-2116.466549531093
  0
LINE
  5
2C4
100
AcDbEntity
  8
1
  6
DASHED
 62
           3
100
AcDbLine
 10
4087.620665177671
 20
-2185.777763432569
 11
4108.32066517767
 21
-2185.777763432569
  0
LINE
  5
2C3
100
AcDbEntity
  8
1
  6
CONTINUOUS
 62
           2
100
AcDbLine
 10
3968.32066517767
 20
-1951.377763432569
 11
3968.32066517767
 21
-2128.077763432569
  0
LINE
  5
2C2
100
AcDbEntity
  8
1
  6
CONTINUOUS
 62
           3
100
AcDbLine
 10
4108.32066517767
 20
-2130.377763432569
 11
3318.320665177669
 21
-2130.377763432569
  0
LINE
  5
2C1
100
AcDbEntity
  8
1
  6
CONTINUOUS
 62
           3
100
AcDbLine
 10
4108.32066517767
 20
-2185.777763432569
 11
3318.320665177669
 21
-2185.777763432569
  0
LINE
  5
2C0
100
AcDbEntity
  8
1
  6
DOT_CENTER
 62
           3
100
AcDbLine
 10
3649.937667246867
 20
-1918.077763432569
 11
4013.940638366838
 21
-1918.077763432569
  0
LINE
  5
2BF
100
AcDbEntity
  8
1
  6
DOT_CENTER
 62
           3
100
AcDbLine
 10
3858.32066517767
 20
-1688.451349560776
 11
3858.32066517767
 21
-2143.41254120881
  0
LINE
  5
2BE
100
AcDbEntity
  8
1
  6
CONTINUOUS
 62
           2
100
AcDbLine
 10
3386.320665177669
 20
-2103.262808856345
 11
3386.320665177669
 21
-2122.892718008793
  0
LINE
  5
2BD
100
AcDbEntity
  8
1
  6
CONTINUOUS
 62
           2
100
AcDbLine
 10
3386.320665177669
 20
-2117.985240720681
 11
3380.079854556225
 21
-2117.985240720681
  0
LINE
  5
2BC
100
AcDbEntity
  8
1
  6
CONTINUOUS
 62
           2
100
AcDbLine
 10
3386.320665177669
 20
-2108.170286144457
 11
3380.079854556225
 21
-2108.170286144457
  0
LINE
  5
2BB
100
AcDbEntity
  8
1
  6
CONTINUOUS
 62
           2
100
AcDbLine
 10
3380.079854556225
 20
-2122.892718008793
 11
3386.320665177669
 21
-2122.892718008793
  0
LINE
  5
2BA
100
AcDbEntity
  8
1
  6
CONTINUOUS
 62
           2
100
AcDbLine
 10
3379.320665177669
 20
-2121.577763432569
 11
3380.079854556225
 21
-2122.892718008793
  0
LINE
  5
2B9
100
AcDbEntity
  8
1
  6
CONTINUOUS
 62
           2
100
AcDbLine
 10
3379.320665177669
 20
-2104.577763432569
 11
3379.320665177669
 21
-2121.577763432569
  0
LINE
  5
2B8
100
AcDbEntity
  8
1
  6
CONTINUOUS
 62
           2
100
AcDbLine
 10
3380.079854556225
 20
-2103.262808856345
 11
3379.320665177669
 21
-2104.577763432569
  0
LINE
  5
2B7
100
AcDbEntity
  8
1
  6
CONTINUOUS
 62
           2
100
AcDbLine
 10
3386.320665177669
 20
-2103.262808856345
 11
3380.079854556225
 21
-2103.262808856345
  0
LINE
  5
2B6
100
AcDbEntity
  8
1
  6
CONTINUOUS
 62
           2
100
AcDbLine
 10
3388.320665177669
 20
-2128.077763432569
 11
3386.320665177669
 21
-2128.077763432569
  0
LINE
  5
2B5
100
AcDbEntity
  8
1
  6
CONTINUOUS
 62
           2
100
AcDbLine
 10
3386.320665177669
 20
-2098.077763432569
 11
3386.320665177669
 21
-2128.077763432569
  0
LINE
  5
2B4
100
AcDbEntity
  8
1
  6
CONTINUOUS
 62
           2
100
AcDbLine
 10
3393.130640301893
 20
-2098.077763432569
 11
3386.320665177669
 21
-2098.077763432569
  0
LINE
  5
2B3
100
AcDbEntity
  8
1
  6
DOT_CENTER
 62
           3
100
AcDbLine
 10
3398.192756669801
 20
-2027.077763432569
 11
3578.617577323265
 21
-2027.077763432569
  0
LINE
  5
2B2
100
AcDbEntity
  8
1
  6
DOT_CENTER
 62
           3
100
AcDbLine
 10
3488.320665177669
 20
-2108.1820918031
 11
3488.320665177669
 21
-1928.368974192996
  0
LINE
  5
2B1
100
AcDbEntity
  8
1
  6
CONTINUOUS
 62
           2
100
AcDbLine
 10
3958.32066517767
 20
-1918.077763432569
 11
3958.32066517767
 21
-2128.077763432569
  0
LINE
  5
2B0
100
AcDbEntity
  8
1
  6
CONTINUOUS
 62
           2
100
AcDbLine
 10
3488.320665177669
 20
-1878.077763432569
 11
3858.32066517767
 21
-1818.077763432569
  0
LINE
  5
2AF
100
AcDbEntity
  8
1
  6
CONTINUOUS
 62
           2
100
AcDbLine
 10
3388.320665177669
 20
-1998.23751389754
 11
3388.320665177669
 21
-2128.077763432569
  0
LINE
  5
2AE
100
AcDbEntity
  8
1
  6
CONTINUOUS
 62
           2
100
AcDbLine
 10
3958.32066517767
 20
-1951.37776343257
 11
3968.32066517767
 21
-1951.377763432569
  0
LINE
  5
2AD
100
AcDbEntity
  8
1
  6
DOT_CENTER
 62
           3
100
AcDbLine
 10
3436.32066517767
 20
-1730.348306631826
 11
3436.32066517767
 21
-1942.412109046309
  0
LINE
  5
2AC
100
AcDbEntity
  8
1
  6
CONTINUOUS
 62
           2
100
AcDbLine
 10
3571.320665177671
 20
-1763.07776343257
 11
3571.320665177671
 21
-1864.618303973109
  0
LINE
  5
2AB
100
AcDbEntity
  8
1
  6
CONTINUOUS
 62
           2
100
AcDbLine
 10
3591.320665177671
 20
-1763.077763432569
 11
3591.320665177672
 21
-1861.375060729866
  0
LINE
  5
2AA
100
AcDbEntity
  8
1
  6
CONTINUOUS
 62
           2
100
AcDbLine
 10
3281.32066517767
 20
-1763.077763432569
 11
3281.320665177669
 21
-2073.077763432569
  0
LINE
  5
2A9
100
AcDbEntity
  8
1
  6
CONTINUOUS
 62
           2
100
AcDbLine
 10
3571.320665177671
 20
-1763.07776343257
 11
3301.32066517767
 21
-1763.07776343257
  0
LINE
  5
2A8
100
AcDbEntity
  8
1
  6
CONTINUOUS
 62
           2
100
AcDbLine
 10
3591.320665177671
 20
-1763.077763432569
 11
3571.320665177671
 21
-1763.07776343257
  0
LINE
  5
2A7
100
AcDbEntity
  8
1
  6
CONTINUOUS
 62
           2
100
AcDbLine
 10
3301.32066517767
 20
-1763.07776343257
 11
3281.32066517767
 21
-1763.077763432569
  0
LINE
  5
2A6
100
AcDbEntity
  8
1
  6
CONTINUOUS
 62
           2
100
AcDbLine
 10
3388.320665177669
 20
-2073.077763432569
 11
3281.320665177669
 21
-2073.077763432569
  0
LINE
  5
2A5
100
AcDbEntity
  8
1
  6
CONTINUOUS
 62
           2
100
AcDbLine
 10
3388.320665177669
 20
-2053.07776343257
 11
3301.32066517767
 21
-2053.077763432569
  0
LINE
  5
2A4
100
AcDbEntity
  8
1
  6
CONTINUOUS
 62
           2
100
AcDbLine
 10
3301.32066517767
 20
-1763.07776343257
 11
3301.32066517767
 21
-2053.077763432569
  0
LINE
  5
2A3
100
AcDbEntity
  8
1
  6
CONTINUOUS
 62
           2
100
AcDbLine
 10
4133.32066517767
 20
-1678.077763432569
 11
4313.32066517767
 21
-1678.077763432569
  0
LINE
  5
2A2
100
AcDbEntity
  8
1
  6
CONTINUOUS
 62
           3
100
AcDbLine
 10
1939.999999999998
 20
-2328.077763432566
 11
1939.999999999998
 21
-2274.077763432566
  0
LINE
  5
2A1
100
AcDbEntity
  8
1
  6
CONTINUOUS
 62
           3
100
AcDbLine
 10
2059.999999999999
 20
-2328.077763432566
 11
1939.999999999998
 21
-2328.077763432566
  0
LINE
  5
2A0
100
AcDbEntity
  8
1
  6
CONTINUOUS
 62
           3
100
AcDbLine
 10
2059.999999999999
 20
-2274.077763432566
 11
2059.999999999999
 21
-2328.077763432566
  0
LINE
  5
29F
100
AcDbEntity
  8
1
  6
CONTINUOUS
 62
           3
100
AcDbLine
 10
1939.999999999998
 20
-2274.077763432566
 11
2059.999999999999
 21
-2274.077763432566
  0
LINE
  5
29E
100
AcDbEntity
  8
1
  6
CONTINUOUS
 62
           3
100
AcDbLine
 10
1799.999999999998
 20
-2328.077763432566
 11
1799.999999999998
 21
-2308.577763432565
  0
LINE
  5
29D
100
AcDbEntity
  8
1
  6
CONTINUOUS
 62
           3
100
AcDbLine
 10
1824.999999999998
 20
-2328.077763432566
 11
1799.999999999998
 21
-2328.077763432566
  0
LINE
  5
29C
100
AcDbEntity
  8
1
  6
CONTINUOUS
 62
           3
100
AcDbLine
 10
1824.999999999998
 20
-2308.577763432565
 11
1824.999999999998
 21
-2328.077763432566
  0
LINE
  5
29B
100
AcDbEntity
  8
1
  6
CONTINUOUS
 62
           3
100
AcDbLine
 10
1799.999999999998
 20
-2308.577763432565
 11
1824.999999999998
 21
-2308.577763432565
  0
LINE
  5
29A
100
AcDbEntity
  8
1
  6
CONTINUOUS
 62
           2
100
AcDbLine
 10
3238.320665177669
 20
-1754.077763432568
 11
3618.339227674264
 21
-1754.077763432568
  0
LINE
  5
299
100
AcDbEntity
  8
1
  6
CONTINUOUS
 62
           2
100
AcDbLine
 10
3238.320665177669
 20
-2188.077763432569
 11
4238.32066517767
 21
-2188.077763432569
  0
LINE
  5
298
100
AcDbEntity
  8
1
  6
CONTINUOUS
 62
           2
100
AcDbLine
 10
1750.0
 20
-2185.853270117771
 11
1674.999999999998
 21
-2185.853270117771
  0
LINE
  5
297
100
AcDbEntity
  8
1
  6
CONTINUOUS
 62
           3
100
AcDbLine
 10
1805.000000000002
 20
-2073.077763432567
 11
1805.000000000002
 21
-1988.077763432567
  0
LINE
  5
296
100
AcDbEntity
  8
1
  6
CONTINUOUS
 62
           3
100
AcDbLine
 10
1835.000000000002
 20
-2073.077763432567
 11
1805.000000000002
 21
-2073.077763432567
  0
LINE
  5
295
100
AcDbEntity
  8
1
  6
CONTINUOUS
 62
           3
100
AcDbLine
 10
1835.000000000002
 20
-1988.077763432567
 11
1835.000000000002
 21
-2073.077763432567
  0
LINE
  5
294
100
AcDbEntity
  8
1
  6
CONTINUOUS
 62
           3
100
AcDbLine
 10
1805.000000000002
 20
-1988.077763432567
 11
1835.000000000002
 21
-1988.077763432567
  0
LINE
  5
293
100
AcDbEntity
  8
1
  6
CONTINUOUS
 62
           3
100
AcDbLine
 10
2051.999999999999
 20
-1906.077763432567
 11
2099.999999999999
 21
-1906.077763432567
  0
LINE
  5
292
100
AcDbEntity
  8
1
  6
CONTINUOUS
 62
           3
100
AcDbLine
 10
2099.999999999999
 20
-1906.077763432567
 11
2099.999999999999
 21
-1858.077763432567
  0
LINE
  5
291
100
AcDbEntity
  8
1
  6
CONTINUOUS
 62
           3
100
AcDbLine
 10
2099.999999999999
 20
-1858.077763432567
 11
2051.999999999999
 21
-1858.077763432567
  0
LINE
  5
290
100
AcDbEntity
  8
1
  6
CONTINUOUS
 62
           3
100
AcDbLine
 10
2051.999999999999
 20
-1858.077763432567
 11
2051.999999999999
 21
-1906.077763432567
  0
LINE
  5
28F
100
AcDbEntity
  8
1
  6
CONTINUOUS
 62
           3
100
AcDbLine
 10
1983.999999999999
 20
-1906.077763432567
 11
2031.999999999999
 21
-1906.077763432567
  0
LINE
  5
28E
100
AcDbEntity
  8
1
  6
CONTINUOUS
 62
           3
100
AcDbLine
 10
2031.999999999999
 20
-1906.077763432567
 11
2031.999999999999
 21
-1858.077763432567
  0
LINE
  5
28D
100
AcDbEntity
  8
1
  6
CONTINUOUS
 62
           3
100
AcDbLine
 10
2031.999999999999
 20
-1858.077763432567
 11
1983.999999999999
 21
-1858.077763432567
  0
LINE
  5
28C
100
AcDbEntity
  8
1
  6
CONTINUOUS
 62
           3
100
AcDbLine
 10
1983.999999999999
 20
-1858.077763432567
 11
1983.999999999999
 21
-1906.077763432567
  0
LINE
  5
28B
100
AcDbEntity
  8
1
  6
CONTINUOUS
 62
           3
100
AcDbLine
 10
2056.999999999999
 20
-1848.077763432567
 11
2094.999999999999
 21
-1848.077763432567
  0
LINE
  5
28A
100
AcDbEntity
  8
1
  6
CONTINUOUS
 62
           3
100
AcDbLine
 10
2094.999999999999
 20
-1848.077763432567
 11
2094.999999999999
 21
-1838.077763432567
  0
LINE
  5
289
100
AcDbEntity
  8
1
  6
CONTINUOUS
 62
           3
100
AcDbLine
 10
2094.999999999999
 20
-1838.077763432567
 11
2056.999999999999
 21
-1838.077763432567
  0
LINE
  5
288
100
AcDbEntity
  8
1
  6
CONTINUOUS
 62
           3
100
AcDbLine
 10
2056.999999999999
 20
-1838.077763432567
 11
2056.999999999999
 21
-1848.077763432567
  0
LINE
  5
287
100
AcDbEntity
  8
1
  6
CONTINUOUS
 62
           3
100
AcDbLine
 10
1988.999999999999
 20
-1848.077763432567
 11
2026.999999999999
 21
-1848.077763432567
  0
LINE
  5
286
100
AcDbEntity
  8
1
  6
CONTINUOUS
 62
           3
100
AcDbLine
 10
2026.999999999999
 20
-1848.077763432567
 11
2026.999999999999
 21
-1838.077763432567
  0
LINE
  5
285
100
AcDbEntity
  8
1
  6
CONTINUOUS
 62
           3
100
AcDbLine
 10
2026.999999999999
 20
-1838.077763432567
 11
1988.999999999999
 21
-1838.077763432567
  0
LINE
  5
284
100
AcDbEntity
  8
1
  6
CONTINUOUS
 62
           3
100
AcDbLine
 10
1988.999999999999
 20
-1838.077763432567
 11
1988.999999999999
 21
-1848.077763432567
  0
LINE
  5
283
100
AcDbEntity
  8
1
  6
CONTINUOUS
 62
           3
100
AcDbLine
 10
1898.999999999999
 20
-1906.077763432567
 11
1958.999999999999
 21
-1906.077763432567
  0
LINE
  5
282
100
AcDbEntity
  8
1
  6
CONTINUOUS
 62
           3
100
AcDbLine
 10
1958.999999999999
 20
-1906.077763432567
 11
1958.999999999999
 21
-1846.077763432567
  0
LINE
  5
281
100
AcDbEntity
  8
1
  6
CONTINUOUS
 62
           3
100
AcDbLine
 10
1958.999999999999
 20
-1846.077763432567
 11
1898.999999999999
 21
-1846.077763432567
  0
LINE
  5
280
100
AcDbEntity
  8
1
  6
CONTINUOUS
 62
           3
100
AcDbLine
 10
1898.999999999999
 20
-1846.077763432567
 11
1898.999999999999
 21
-1906.077763432567
  0
LINE
  5
27F
100
AcDbEntity
  8
1
  6
CONTINUOUS
 62
           3
100
AcDbLine
 10
1909.999999999999
 20
-1836.077763432567
 11
1947.999999999999
 21
-1836.077763432567
  0
LINE
  5
27E
100
AcDbEntity
  8
1
  6
CONTINUOUS
 62
           3
100
AcDbLine
 10
1947.999999999999
 20
-1836.077763432567
 11
1947.999999999999
 21
-1826.077763432567
  0
LINE
  5
27D
100
AcDbEntity
  8
1
  6
CONTINUOUS
 62
           3
100
AcDbLine
 10
1947.999999999999
 20
-1826.077763432567
 11
1909.999999999999
 21
-1826.077763432567
  0
LINE
  5
27C
100
AcDbEntity
  8
1
  6
CONTINUOUS
 62
           3
100
AcDbLine
 10
1909.999999999999
 20
-1826.077763432567
 11
1909.999999999999
 21
-1836.077763432567
  0
LINE
  5
27B
100
AcDbEntity
  8
1
  6
CONTINUOUS
 62
           3
100
AcDbLine
 10
1974.999999999999
 20
-1783.077763432567
 11
2034.999999999999
 21
-1783.077763432567
  0
LINE
  5
27A
100
AcDbEntity
  8
1
  6
CONTINUOUS
 62
           3
100
AcDbLine
 10
2034.999999999999
 20
-1783.077763432567
 11
2034.999999999999
 21
-1768.077763432567
  0
LINE
  5
279
100
AcDbEntity
  8
1
  6
CONTINUOUS
 62
           3
100
AcDbLine
 10
2034.999999999999
 20
-1768.077763432567
 11
1974.999999999999
 21
-1768.077763432567
  0
LINE
  5
278
100
AcDbEntity
  8
1
  6
CONTINUOUS
 62
           3
100
AcDbLine
 10
1974.999999999999
 20
-1768.077763432567
 11
1974.999999999999
 21
-1783.077763432567
  0
LINE
  5
277
100
AcDbEntity
  8
1
  6
CONTINUOUS
 62
           3
100
AcDbLine
 10
1994.999999999999
 20
-1768.077763432567
 11
1994.999999999999
 21
-1783.077763432567
  0
LINE
  5
276
100
AcDbEntity
  8
1
  6
CONTINUOUS
 62
           3
100
AcDbLine
 10
2014.999999999999
 20
-1768.077763432567
 11
2014.999999999999
 21
-1783.077763432567
  0
LINE
  5
275
100
AcDbEntity
  8
1
  6
CONTINUOUS
 62
           3
100
AcDbLine
 10
1865.000000000002
 20
-1986.077763432567
 11
1890.000000000002
 21
-1986.077763432556
  0
LINE
  5
274
100
AcDbEntity
  8
1
  6
CONTINUOUS
 62
           3
100
AcDbLine
 10
1890.000000000002
 20
-1986.077763432556
 11
1890.000000000002
 21
-1966.077763432567
  0
LINE
  5
273
100
AcDbEntity
  8
1
  6
CONTINUOUS
 62
           3
100
AcDbLine
 10
1890.000000000002
 20
-1966.077763432567
 11
1865.000000000002
 21
-1966.077763432567
  0
LINE
  5
272
100
AcDbEntity
  8
1
  6
CONTINUOUS
 62
           3
100
AcDbLine
 10
1865.000000000002
 20
-1966.077763432567
 11
1865.000000000002
 21
-1986.077763432567
  0
LINE
  5
271
100
AcDbEntity
  8
1
  6
CONTINUOUS
 62
           3
100
AcDbLine
 10
1915.000000000002
 20
-1986.077763432567
 11
1940.000000000002
 21
-1986.077763432556
  0
LINE
  5
270
100
AcDbEntity
  8
1
  6
CONTINUOUS
 62
           3
100
AcDbLine
 10
1940.000000000002
 20
-1986.077763432556
 11
1940.000000000002
 21
-1966.077763432567
  0
LINE
  5
26F
100
AcDbEntity
  8
1
  6
CONTINUOUS
 62
           3
100
AcDbLine
 10
1940.000000000002
 20
-1966.077763432567
 11
1915.000000000002
 21
-1966.077763432567
  0
LINE
  5
26E
100
AcDbEntity
  8
1
  6
CONTINUOUS
 62
           3
100
AcDbLine
 10
1915.000000000002
 20
-1966.077763432567
 11
1915.000000000002
 21
-1986.077763432567
  0
LINE
  5
26D
100
AcDbEntity
  8
1
  6
CONTINUOUS
 62
           3
100
AcDbLine
 10
1965.000000000002
 20
-1986.077763432567
 11
1990.000000000002
 21
-1986.077763432556
  0
LINE
  5
26C
100
AcDbEntity
  8
1
  6
CONTINUOUS
 62
           3
100
AcDbLine
 10
1990.000000000002
 20
-1986.077763432556
 11
1990.000000000002
 21
-1966.077763432567
  0
LINE
  5
26B
100
AcDbEntity
  8
1
  6
CONTINUOUS
 62
           3
100
AcDbLine
 10
1990.000000000002
 20
-1966.077763432567
 11
1965.000000000002
 21
-1966.077763432567
  0
LINE
  5
26A
100
AcDbEntity
  8
1
  6
CONTINUOUS
 62
           3
100
AcDbLine
 10
1965.000000000002
 20
-1966.077763432567
 11
1965.000000000002
 21
-1986.077763432567
  0
LINE
  5
269
100
AcDbEntity
  8
1
  6
CONTINUOUS
 62
           3
100
AcDbLine
 10
2015.000000000002
 20
-1986.077763432567
 11
2040.000000000002
 21
-1986.077763432556
  0
LINE
  5
268
100
AcDbEntity
  8
1
  6
CONTINUOUS
 62
           3
100
AcDbLine
 10
2040.000000000002
 20
-1986.077763432556
 11
2040.000000000002
 21
-1966.077763432567
  0
LINE
  5
267
100
AcDbEntity
  8
1
  6
CONTINUOUS
 62
           3
100
AcDbLine
 10
2040.000000000002
 20
-1966.077763432567
 11
2015.000000000002
 21
-1966.077763432567
  0
LINE
  5
266
100
AcDbEntity
  8
1
  6
CONTINUOUS
 62
           3
100
AcDbLine
 10
2015.000000000002
 20
-1966.077763432567
 11
2015.000000000002
 21
-1986.077763432567
  0
LINE
  5
265
100
AcDbEntity
  8
1
  6
CONTINUOUS
 62
           3
100
AcDbLine
 10
1865.000000000002
 20
-2036.077763432556
 11
1890.000000000002
 21
-2036.077763432556
  0
LINE
  5
264
100
AcDbEntity
  8
1
  6
CONTINUOUS
 62
           3
100
AcDbLine
 10
1890.000000000002
 20
-2036.077763432556
 11
1890.000000000002
 21
-2016.077763432556
  0
LINE
  5
263
100
AcDbEntity
  8
1
  6
CONTINUOUS
 62
           3
100
AcDbLine
 10
1890.000000000002
 20
-2016.077763432556
 11
1865.000000000002
 21
-2016.077763432556
  0
LINE
  5
262
100
AcDbEntity
  8
1
  6
CONTINUOUS
 62
           3
100
AcDbLine
 10
1865.000000000002
 20
-2016.077763432556
 11
1865.000000000002
 21
-2036.077763432556
  0
LINE
  5
261
100
AcDbEntity
  8
1
  6
CONTINUOUS
 62
           3
100
AcDbLine
 10
1915.000000000002
 20
-2036.077763432556
 11
1940.000000000002
 21
-2036.077763432556
  0
LINE
  5
260
100
AcDbEntity
  8
1
  6
CONTINUOUS
 62
           3
100
AcDbLine
 10
1940.000000000002
 20
-2036.077763432556
 11
1940.000000000002
 21
-2016.077763432556
  0
LINE
  5
25F
100
AcDbEntity
  8
1
  6
CONTINUOUS
 62
           3
100
AcDbLine
 10
1940.000000000002
 20
-2016.077763432556
 11
1915.000000000002
 21
-2016.077763432556
  0
LINE
  5
25E
100
AcDbEntity
  8
1
  6
CONTINUOUS
 62
           3
100
AcDbLine
 10
1915.000000000002
 20
-2016.077763432556
 11
1915.000000000002
 21
-2036.077763432556
  0
LINE
  5
25D
100
AcDbEntity
  8
1
  6
CONTINUOUS
 62
           3
100
AcDbLine
 10
1965.000000000002
 20
-2036.077763432556
 11
1990.000000000002
 21
-2036.077763432556
  0
LINE
  5
25C
100
AcDbEntity
  8
1
  6
CONTINUOUS
 62
           3
100
AcDbLine
 10
1990.000000000002
 20
-2036.077763432556
 11
1990.000000000002
 21
-2016.077763432556
  0
LINE
  5
25B
100
AcDbEntity
  8
1
  6
CONTINUOUS
 62
           3
100
AcDbLine
 10
1990.000000000002
 20
-2016.077763432556
 11
1965.000000000002
 21
-2016.077763432556
  0
LINE
  5
25A
100
AcDbEntity
  8
1
  6
CONTINUOUS
 62
           3
100
AcDbLine
 10
1965.000000000002
 20
-2016.077763432556
 11
1965.000000000002
 21
-2036.077763432556
  0
LINE
  5
259
100
AcDbEntity
  8
1
  6
CONTINUOUS
 62
           3
100
AcDbLine
 10
2015.000000000002
 20
-2036.077763432556
 11
2040.000000000002
 21
-2036.077763432556
  0
LINE
  5
258
100
AcDbEntity
  8
1
  6
CONTINUOUS
 62
           3
100
AcDbLine
 10
2040.000000000002
 20
-2036.077763432556
 11
2040.000000000002
 21
-2016.077763432556
  0
LINE
  5
257
100
AcDbEntity
  8
1
  6
CONTINUOUS
 62
           3
100
AcDbLine
 10
2040.000000000002
 20
-2016.077763432556
 11
2015.000000000002
 21
-2016.077763432556
  0
LINE
  5
256
100
AcDbEntity
  8
1
  6
CONTINUOUS
 62
           3
100
AcDbLine
 10
2015.000000000002
 20
-2016.077763432556
 11
2015.000000000002
 21
-2036.077763432556
  0
LINE
  5
255
100
AcDbEntity
  8
1
  6
CONTINUOUS
 62
           3
100
AcDbLine
 10
2115.000000000002
 20
-1986.077763432567
 11
2140.000000000002
 21
-1986.077763432556
  0
LINE
  5
254
100
AcDbEntity
  8
1
  6
CONTINUOUS
 62
           3
100
AcDbLine
 10
2140.000000000002
 20
-1986.077763432556
 11
2140.000000000002
 21
-1966.077763432567
  0
LINE
  5
253
100
AcDbEntity
  8
1
  6
CONTINUOUS
 62
           3
100
AcDbLine
 10
2140.000000000002
 20
-1966.077763432567
 11
2115.000000000002
 21
-1966.077763432567
  0
LINE
  5
252
100
AcDbEntity
  8
1
  6
CONTINUOUS
 62
           3
100
AcDbLine
 10
2115.000000000002
 20
-1966.077763432567
 11
2115.000000000002
 21
-1986.077763432567
  0
LINE
  5
251
100
AcDbEntity
  8
1
  6
CONTINUOUS
 62
           3
100
AcDbLine
 10
2115.000000000002
 20
-2036.077763432556
 11
2140.000000000002
 21
-2036.077763432556
  0
LINE
  5
250
100
AcDbEntity
  8
1
  6
CONTINUOUS
 62
           3
100
AcDbLine
 10
2140.000000000002
 20
-2036.077763432556
 11
2140.000000000002
 21
-2016.077763432556
  0
LINE
  5
24F
100
AcDbEntity
  8
1
  6
CONTINUOUS
 62
           3
100
AcDbLine
 10
2140.000000000002
 20
-2016.077763432556
 11
2115.000000000002
 21
-2016.077763432556
  0
LINE
  5
24E
100
AcDbEntity
  8
1
  6
CONTINUOUS
 62
           3
100
AcDbLine
 10
2115.000000000002
 20
-2016.077763432556
 11
2115.000000000002
 21
-2036.077763432556
  0
LINE
  5
24D
100
AcDbEntity
  8
1
  6
CONTINUOUS
 62
           3
100
AcDbLine
 10
2065.000000000002
 20
-2036.077763432556
 11
2090.000000000002
 21
-2036.077763432556
  0
LINE
  5
24C
100
AcDbEntity
  8
1
  6
CONTINUOUS
 62
           3
100
AcDbLine
 10
2090.000000000002
 20
-2036.077763432556
 11
2090.000000000002
 21
-2016.077763432556
  0
LINE
  5
24B
100
AcDbEntity
  8
1
  6
CONTINUOUS
 62
           3
100
AcDbLine
 10
2090.000000000002
 20
-2016.077763432556
 11
2065.000000000002
 21
-2016.077763432556
  0
LINE
  5
24A
100
AcDbEntity
  8
1
  6
CONTINUOUS
 62
           3
100
AcDbLine
 10
2065.000000000002
 20
-2016.077763432556
 11
2065.000000000002
 21
-2036.077763432556
  0
LINE
  5
249
100
AcDbEntity
  8
1
  6
CONTINUOUS
 62
           3
100
AcDbLine
 10
1907.500000000002
 20
-2011.077763432556
 11
1947.500000000002
 21
-2011.077763432556
  0
LINE
  5
248
100
AcDbEntity
  8
1
  6
CONTINUOUS
 62
           3
100
AcDbLine
 10
1947.500000000002
 20
-2011.077763432556
 11
1947.500000000002
 21
-2001.077763432556
  0
LINE
  5
247
100
AcDbEntity
  8
1
  6
CONTINUOUS
 62
           3
100
AcDbLine
 10
1947.500000000002
 20
-2001.077763432556
 11
1907.500000000002
 21
-2001.077763432556
  0
LINE
  5
246
100
AcDbEntity
  8
1
  6
CONTINUOUS
 62
           3
100
AcDbLine
 10
1907.500000000002
 20
-2001.077763432556
 11
1907.500000000002
 21
-2011.077763432556
  0
LINE
  5
245
100
AcDbEntity
  8
1
  6
CONTINUOUS
 62
           3
100
AcDbLine
 10
1957.500000000002
 20
-2011.077763432556
 11
1997.500000000002
 21
-2011.077763432556
  0
LINE
  5
244
100
AcDbEntity
  8
1
  6
CONTINUOUS
 62
           3
100
AcDbLine
 10
1997.500000000002
 20
-2011.077763432556
 11
1997.500000000002
 21
-2001.077763432556
  0
LINE
  5
243
100
AcDbEntity
  8
1
  6
CONTINUOUS
 62
           3
100
AcDbLine
 10
1997.500000000002
 20
-2001.077763432556
 11
1957.500000000002
 21
-2001.077763432556
  0
LINE
  5
242
100
AcDbEntity
  8
1
  6
CONTINUOUS
 62
           3
100
AcDbLine
 10
1957.500000000002
 20
-2001.077763432556
 11
1957.500000000002
 21
-2011.077763432556
  0
LINE
  5
241
100
AcDbEntity
  8
1
  6
CONTINUOUS
 62
           3
100
AcDbLine
 10
2007.500000000002
 20
-2011.077763432556
 11
2047.500000000002
 21
-2011.077763432556
  0
LINE
  5
240
100
AcDbEntity
  8
1
  6
CONTINUOUS
 62
           3
100
AcDbLine
 10
2047.500000000002
 20
-2011.077763432556
 11
2047.500000000002
 21
-2001.077763432556
  0
LINE
  5
23F
100
AcDbEntity
  8
1
  6
CONTINUOUS
 62
           3
100
AcDbLine
 10
2047.500000000002
 20
-2001.077763432556
 11
2007.500000000002
 21
-2001.077763432556
  0
LINE
  5
23E
100
AcDbEntity
  8
1
  6
CONTINUOUS
 62
           3
100
AcDbLine
 10
2007.500000000002
 20
-2001.077763432556
 11
2007.500000000002
 21
-2011.077763432556
  0
LINE
  5
23D
100
AcDbEntity
  8
1
  6
CONTINUOUS
 62
           3
100
AcDbLine
 10
2107.500000000002
 20
-1961.077763432567
 11
2147.500000000002
 21
-1961.077763432567
  0
LINE
  5
23C
100
AcDbEntity
  8
1
  6
CONTINUOUS
 62
           3
100
AcDbLine
 10
2147.500000000002
 20
-1961.077763432567
 11
2147.500000000002
 21
-1951.077763432567
  0
LINE
  5
23B
100
AcDbEntity
  8
1
  6
CONTINUOUS
 62
           3
100
AcDbLine
 10
2147.500000000002
 20
-1951.077763432567
 11
2107.500000000002
 21
-1951.077763432567
  0
LINE
  5
23A
100
AcDbEntity
  8
1
  6
CONTINUOUS
 62
           3
100
AcDbLine
 10
2107.500000000002
 20
-1951.077763432567
 11
2107.500000000002
 21
-1961.077763432567
  0
LINE
  5
239
100
AcDbEntity
  8
1
  6
CONTINUOUS
 62
           3
100
AcDbLine
 10
1806.000000000002
 20
-2072.077763432567
 11
1806.000000000002
 21
-2052.077763432567
  0
LINE
  5
238
100
AcDbEntity
  8
1
  6
CONTINUOUS
 62
           3
100
AcDbLine
 10
1834.000000000002
 20
-2072.077763432567
 11
1806.000000000002
 21
-2072.077763432567
  0
LINE
  5
237
100
AcDbEntity
  8
1
  6
CONTINUOUS
 62
           3
100
AcDbLine
 10
1834.000000000002
 20
-1989.077763432567
 11
1834.000000000001
 21
-2051.077763432567
  0
LINE
  5
236
100
AcDbEntity
  8
1
  6
CONTINUOUS
 62
           3
100
AcDbLine
 10
1806.000000000002
 20
-1989.077763432567
 11
1834.000000000002
 21
-1989.077763432567
  0
LINE
  5
235
100
AcDbEntity
  8
1
  6
CONTINUOUS
 62
           3
100
AcDbLine
 10
1834.000000000002
 20
-2052.077763432567
 11
1806.000000000002
 21
-2052.077763432567
  0
LINE
  5
234
100
AcDbEntity
  8
1
  6
CONTINUOUS
 62
           3
100
AcDbLine
 10
1834.000000000001
 20
-2051.077763432567
 11
1806.000000000002
 21
-2051.077763432567
  0
LINE
  5
233
100
AcDbEntity
  8
1
  6
CONTINUOUS
 62
           3
100
AcDbLine
 10
1806.000000000002
 20
-2051.077763432567
 11
1806.000000000002
 21
-1989.077763432567
  0
LINE
  5
232
100
AcDbEntity
  8
1
  6
CONTINUOUS
 62
           3
100
AcDbLine
 10
1834.000000000002
 20
-2052.077763432567
 11
1834.000000000002
 21
-2072.077763432567
  0
LINE
  5
231
100
AcDbEntity
  8
1
  6
CONTINUOUS
 62
           3
100
AcDbLine
 10
75.0
 20
500.306666704177
 11
1074.999999999998
 21
500.306666704177
  0
LINE
  5
230
100
AcDbEntity
  8
1
  6
CONTINUOUS
 62
           3
100
AcDbLine
 10
1074.999999999998
 20
1000.0
 11
1074.999999999998
 21
0.0
  0
LINE
  5
22F
100
AcDbEntity
  8
1
  6
CONTINUOUS
 62
           3
100
AcDbLine
 10
1769.999999999998
 20
-1698.077763432564
 11
1769.999999999998
 21
-2358.077763432566
  0
LINE
  5
22E
100
AcDbEntity
  8
1
  6
CONTINUOUS
 62
           3
100
AcDbLine
 10
2229.999999999999
 20
-1698.077763432564
 11
1769.999999999998
 21
-1698.077763432564
  0
LINE
  5
22D
100
AcDbEntity
  8
1
  6
CONTINUOUS
 62
           3
100
AcDbLine
 10
2229.999999999999
 20
-2358.077763432566
 11
2229.999999999999
 21
-1698.077763432564
  0
LINE
  5
22C
100
AcDbEntity
  8
1
  6
CONTINUOUS
 62
           3
100
AcDbLine
 10
1769.999999999998
 20
-2358.077763432566
 11
2229.999999999999
 21
-2358.077763432566
  0
LINE
  5
22B
100
AcDbEntity
  8
1
  6
CONTINUOUS
 62
           3
100
AcDbLine
 10
1749.999999999998
 20
-318.999999924977
 11
2249.999999999998
 21
-318.999999924977
  0
LINE
  5
22A
100
AcDbEntity
  8
1
  6
PHANTOM
 62
           3
100
AcDbLine
 10
2219.999999999999
 20
-348.999999924977
 11
2145.145008366932
 21
-782.585897098322
  0
LINE
  5
229
100
AcDbEntity
  8
1
  6
CONTINUOUS
 62
           3
100
AcDbLine
 10
822.0
 20
-107.5
 11
821.999999999998
 21
-82.5
  0
LINE
  5
228
100
AcDbEntity
  8
1
  6
CONTINUOUS
 62
           3
100
AcDbLine
 10
831.999999999998
 20
-82.5
 11
831.999999999998
 21
-107.5
  0
LINE
  5
227
100
AcDbEntity
  8
1
  6
CONTINUOUS
 62
           3
100
AcDbLine
 10
60.0
 20
-82.5
 11
821.999999999998
 21
-82.5
  0
LINE
  5
226
100
AcDbEntity
  8
1
  6
CONTINUOUS
 62
           3
100
AcDbLine
 10
60.0
 20
-82.5
 11
60.0
 21
-107.5
  0
LINE
  5
225
100
AcDbEntity
  8
1
  6
DOT_CENTER
 62
           3
100
AcDbLine
 10
92.0
 20
-98.5
 11
92.0
 21
-125.190852612287
  0
LINE
  5
224
100
AcDbEntity
  8
1
  6
DOT_CENTER
 62
           3
100
AcDbLine
 10
181.999999999998
 20
-98.5
 11
181.999999999998
 21
-122.281654312289
  0
LINE
  5
223
100
AcDbEntity
  8
1
  6
DOT_CENTER
 62
           3
100
AcDbLine
 10
137.0
 20
-98.5
 11
137.0
 21
-123.848145704599
  0
LINE
  5
222
100
AcDbEntity
  8
1
  6
CONTINUOUS
 62
           3
100
AcDbLine
 10
194.999999999998
 20
-107.5
 11
194.999999999998
 21
-112.0
  0
LINE
  5
221
100
AcDbEntity
  8
1
  6
CONTINUOUS
 62
           3
100
AcDbLine
 10
48.0
 20
-112.0
 11
194.999999999998
 21
-112.0
  0
LINE
  5
220
100
AcDbEntity
  8
1
  6
DOT_CENTER
 62
           3
100
AcDbLine
 10
48.0
 20
-89.105064695817
 11
48.0
 21
-115.366243809417
  0
LINE
  5
21F
100
AcDbEntity
  8
1
  6
DOT_CENTER
 62
           3
100
AcDbLine
 10
35.101834248149
 20
-102.0
 11
59.18085234657
 21
-102.0
  0
LINE
  5
21E
100
AcDbEntity
  8
1
  6
CONTINUOUS
 62
           3
100
AcDbLine
 10
52.20302437029
 20
-105.547476024268
 11
56.351646544241
 21
-107.5
  0
LINE
  5
21D
100
AcDbEntity
  8
1
  6
CONTINUOUS
 62
           3
100
AcDbLine
 10
-12.0
 20
-96.5
 11
37.98965057934
 21
-96.5
  0
LINE
  5
21C
100
AcDbEntity
  8
1
  6
CONTINUOUS
 62
           3
100
AcDbLine
 10
-12.0
 20
-92.0
 11
42.104421207399
 21
-92.0
  0
LINE
  5
21B
100
AcDbEntity
  8
1
  6
CONTINUOUS
 62
           3
100
AcDbLine
 10
-12.0
 20
-92.0
 11
-12.0
 21
-96.5
  0
LINE
  5
21A
100
AcDbEntity
  8
1
  6
CONTINUOUS
 62
           3
100
AcDbLine
 10
1574.999999999998
 20
-82.5
 11
1589.999999999998
 21
-82.5
  0
LINE
  5
219
100
AcDbEntity
  8
1
  6
CONTINUOUS
 62
           3
100
AcDbLine
 10
831.999999999998
 20
-82.5
 11
1589.999999999998
 21
-82.5
  0
LINE
  5
218
100
AcDbEntity
  8
1
  6
DOT_CENTER
 62
           3
100
AcDbLine
 10
1557.999999999998
 20
-125.190852612287
 11
1557.999999999998
 21
-98.5
  0
LINE
  5
217
100
AcDbEntity
  8
1
  6
CONTINUOUS
 62
           1
100
AcDbLine
 10
1573.999999999998
 20
-105.5
 11
1573.999999999998
 21
-106.5
  0
LINE
  5
216
100
AcDbEntity
  8
1
  6
CONTINUOUS
 62
           3
100
AcDbLine
 10
1601.999999999998
 20
-107.5
 11
1454.999999999998
 21
-107.5
  0
LINE
  5
215
100
AcDbEntity
  8
1
  6
CONTINUOUS
 62
           3
100
AcDbLine
 10
1454.999999999998
 20
-112.0
 11
1601.999999999998
 21
-112.0
  0
LINE
  5
214
100
AcDbEntity
  8
1
  6
CONTINUOUS
 62
           3
100
AcDbLine
 10
1454.999999999998
 20
-112.0
 11
1454.999999999998
 21
-107.5
  0
LINE
  5
213
100
AcDbEntity
  8
1
  6
DOT_CENTER
 62
           3
100
AcDbLine
 10
1467.999999999998
 20
-122.281654312289
 11
1467.999999999998
 21
-98.5
  0
LINE
  5
212
100
AcDbEntity
  8
1
  6
DOT_CENTER
 62
           3
100
AcDbLine
 10
1512.999999999998
 20
-123.848145704599
 11
1512.999999999998
 21
-98.5
  0
LINE
  5
211
100
AcDbEntity
  8
1
  6
CONTINUOUS
 62
           1
100
AcDbLine
 10
1661.999999999998
 20
-76.0
 11
1661.999999999998
 21
-92.318849123812
  0
LINE
  5
210
100
AcDbEntity
  8
1
  6
CONTINUOUS
 62
           3
100
AcDbLine
 10
1661.999999999998
 20
-96.5
 11
1661.999999999998
 21
-92.0
  0
LINE
  5
20F
100
AcDbEntity
  8
1
  6
DOT_CENTER
 62
           3
100
AcDbLine
 10
1636.999999999998
 20
-102.122386817079
 11
1636.999999999998
 21
-74.379153548849
  0
LINE
  5
20E
100
AcDbEntity
  8
1
  6
CONTINUOUS
 62
           3
100
AcDbLine
 10
1607.895578792593
 20
-92.0
 11
1661.999999999998
 21
-92.0
  0
LINE
  5
20D
100
AcDbEntity
  8
1
  6
CONTINUOUS
 62
           1
100
AcDbLine
 10
1611.999999999998
 20
-76.0
 11
1611.999999999998
 21
-92.0
  0
LINE
  5
20C
100
AcDbEntity
  8
1
  6
DOT_CENTER
 62
           3
100
AcDbLine
 10
1601.999999999998
 20
-115.366243809417
 11
1601.999999999998
 21
-89.105064695817
  0
LINE
  5
20B
100
AcDbEntity
  8
1
  6
DOT_CENTER
 62
           3
100
AcDbLine
 10
1590.819147653418
 20
-102.0
 11
1614.898165751843
 21
-102.0
  0
LINE
  5
20A
100
AcDbEntity
  8
1
  6
CONTINUOUS
 62
           3
100
AcDbLine
 10
1593.648353455754
 20
-107.5
 11
1597.796975629708
 21
-105.547476024268
  0
LINE
  5
209
100
AcDbEntity
  8
1
  6
CONTINUOUS
 62
           3
100
AcDbLine
 10
1589.999999999998
 20
-107.5
 11
1589.999999999998
 21
-82.5
  0
LINE
  5
208
100
AcDbEntity
  8
1
  6
CONTINUOUS
 62
           3
100
AcDbLine
 10
1612.010349420654
 20
-96.5
 11
1661.999999999998
 21
-96.5
  0
LINE
  5
207
100
AcDbEntity
  8
1
  6
CONTINUOUS
 62
           3
100
AcDbLine
 10
75.0
 20
0.0
 11
1574.999999999998
 21
0.0
  0
LINE
  5
206
100
AcDbEntity
  8
1
  6
DOT_CENTER
 62
           3
100
AcDbLine
 10
1630.497535108718
 20
201.000000075023
 11
1713.520185655214
 21
201.000000075023
  0
LINE
  5
205
100
AcDbEntity
  8
1
  6
CONTINUOUS
 62
           2
100
AcDbLine
 10
1649.999999999998
 20
356.000076945171
 11
1684.999999999998
 21
356.000076945171
  0
LINE
  5
204
100
AcDbEntity
  8
1
  6
CONTINUOUS
 62
           2
100
AcDbLine
 10
1649.999999999998
 20
46.000000075023
 11
1684.999999999998
 21
46.000000075023
  0
LINE
  5
203
100
AcDbEntity
  8
1
  6
CONTINUOUS
 62
           2
100
AcDbLine
 10
1684.999999999998
 20
356.000076945171
 11
1684.999999999998
 21
45.953830343931
  0
LINE
  5
202
100
AcDbEntity
  8
1
  6
CONTINUOUS
 62
           3
100
AcDbLine
 10
1649.999999999998
 20
356.000076945171
 11
1684.999999999998
 21
45.953830343931
  0
LINE
  5
201
100
AcDbEntity
  8
1
  6
CONTINUOUS
 62
           3
100
AcDbLine
 10
1684.999999999998
 20
356.000076945171
 11
1649.999999999998
 21
46.000000075023
  0
LINE
  5
200
100
AcDbEntity
  8
1
  6
CONTINUOUS
 62
           2
100
AcDbLine
 10
1649.999999999998
 20
1.001416265603
 11
2249.999999999999
 21
1.000000075023
  0
LINE
  5
1FF
100
AcDbEntity
  8
1
  6
CONTINUOUS
 62
           2
100
AcDbLine
 10
1749.999999999998
 20
-48.999999924977
 11
2250.0
 21
-48.999999924977
  0
LINE
  5
1FE
100
AcDbEntity
  8
1
  6
CONTINUOUS
 62
           2
100
AcDbLine
 10
2250.0
 20
-275.999999924977
 11
2249.999999999999
 21
-348.999999924977
  0
LINE
  5
1FD
100
AcDbEntity
  8
1
  6
CONTINUOUS
 62
           2
100
AcDbLine
 10
1749.999999999998
 20
-348.999999924977
 11
1749.999999999998
 21
-48.999999924977
  0
LINE
  5
1FC
100
AcDbEntity
  8
1
  6
CONTINUOUS
 62
           2
100
AcDbLine
 10
1749.999999999998
 20
-348.999999924977
 11
2249.999999999999
 21
-348.999999924977
  0
LINE
  5
1FB
100
AcDbEntity
  8
1
  6
CONTINUOUS
 62
           2
100
AcDbLine
 10
2249.999999999999
 20
1001.000000075023
 11
2250.0
 21
-275.999999924977
  0
LINE
  5
1FA
100
AcDbEntity
  8
1
  6
CONTINUOUS
 62
           2
100
AcDbLine
 10
1649.999999999998
 20
1001.000000075023
 11
2249.999999999999
 21
1001.000000075023
  0
LINE
  5
1F9
100
AcDbEntity
  8
1
  6
CONTINUOUS
 62
           3
100
AcDbLine
 10
1424.999999999998
 20
349.0
 11
1224.999999999998
 21
149.0
  0
LINE
  5
1F8
100
AcDbEntity
  8
1
  6
CONTINUOUS
 62
           3
100
AcDbLine
 10
1224.999999999998
 20
349.0
 11
1424.999999999998
 21
149.0
  0
LINE
  5
1F7
100
AcDbEntity
  8
1
  6
DOT_CENTER
 62
           3
100
AcDbLine
 10
1324.999999999998
 20
397.599953890719
 11
1324.999999999998
 21
69.316838989223
  0
LINE
  5
1F6
100
AcDbEntity
  8
1
  6
DOT_CENTER
 62
           3
100
AcDbLine
 10
1166.013587492946
 20
249.0
 11
1488.141558964728
 21
249.0
  0
LINE
  5
1F5
100
AcDbEntity
  8
1
  6
CONTINUOUS
 62
           2
100
AcDbLine
 10
1194.999999999998
 20
119.0
 11
1194.999999999998
 21
379.0
  0
LINE
  5
1F4
100
AcDbEntity
  8
1
  6
CONTINUOUS
 62
           2
100
AcDbLine
 10
1454.999999999998
 20
119.0
 11
1194.999999999998
 21
119.0
  0
LINE
  5
1F3
100
AcDbEntity
  8
1
  6
CONTINUOUS
 62
           2
100
AcDbLine
 10
1454.999999999998
 20
379.0
 11
1454.999999999998
 21
119.0
  0
LINE
  5
1F2
100
AcDbEntity
  8
1
  6
CONTINUOUS
 62
           2
100
AcDbLine
 10
1194.999999999998
 20
379.0
 11
1454.999999999998
 21
379.0
  0
LINE
  5
1F1
100
AcDbEntity
  8
1
  6
CONTINUOUS
 62
           2
100
AcDbLine
 10
1224.999999999998
 20
149.0
 11
1224.999999999998
 21
349.0
  0
LINE
  5
1F0
100
AcDbEntity
  8
1
  6
CONTINUOUS
 62
           2
100
AcDbLine
 10
1424.999999999998
 20
149.0
 11
1224.999999999998
 21
149.0
  0
LINE
  5
1EF
100
AcDbEntity
  8
1
  6
CONTINUOUS
 62
           2
100
AcDbLine
 10
1424.999999999998
 20
349.0
 11
1424.999999999998
 21
149.0
  0
LINE
  5
1EE
100
AcDbEntity
  8
1
  6
CONTINUOUS
 62
           2
100
AcDbLine
 10
1224.999999999998
 20
349.0
 11
1424.999999999998
 21
349.0
  0
LINE
  5
1ED
100
AcDbEntity
  8
1
  6
DOT_CENTER
 62
           3
100
AcDbLine
 10
824.999999999998
 20
1138.07853079206
 11
824.999999999998
 21
-237.928912222966
  0
LINE
  5
1EC
100
AcDbEntity
  8
1
  6
CONTINUOUS
 62
           2
100
AcDbLine
 10
0.0
 20
1076.000000075023
 11
1649.999999999998
 21
1076.000005029113
  0
LINE
  5
1EB
100
AcDbEntity
  8
1
  6
CONTINUOUS
 62
           2
100
AcDbLine
 10
1674.999999999998
 20
-1.0
 11
1649.999999999998
 21
-0.999999999999
  0
LINE
  5
1EA
100
AcDbEntity
  8
1
  6
CONTINUOUS
 62
           2
100
AcDbLine
 10
1649.999999999998
 20
1076.000005029113
 11
1649.999999999998
 21
-0.999999999999
  0
LINE
  5
1E9
100
AcDbEntity
  8
1
  6
CONTINUOUS
 62
           2
100
AcDbLine
 10
1674.999999999998
 20
-1.0
 11
1674.999999999998
 21
-76.0
  0
LINE
  5
1E8
100
AcDbEntity
  8
1
  6
CONTINUOUS
 62
           3
100
AcDbLine
 10
1574.999999999998
 20
1000.920000075021
 11
1574.999999999998
 21
-1.0
  0
LINE
  5
1E7
100
AcDbEntity
  8
1
  6
CONTINUOUS
 62
           2
100
AcDbLine
 10
-25.0
 20
-76.0
 11
1674.999999999998
 21
-76.0
  0
LINE
  5
1E6
100
AcDbEntity
  8
1
  6
CONTINUOUS
 62
           3
100
AcDbLine
 10
75.0
 20
1000.000000075021
 11
75.0
 21
0.0
  0
LINE
  5
1E5
100
AcDbEntity
  8
1
  6
CONTINUOUS
 62
           2
100
AcDbLine
 10
0.0
 20
1076.000000075023
 11
0.0
 21
-1.0
  0
LINE
  5
1E4
100
AcDbEntity
  8
1
  6
CONTINUOUS
 62
           2
100
AcDbLine
 10
0.0
 20
-1.0
 11
-25.0
 21
-1.0
  0
LINE
  5
1E3
100
AcDbEntity
  8
1
  6
CONTINUOUS
 62
           2
100
AcDbLine
 10
-25.0
 20
-1.0
 11
-25.0
 21
-76.0
  0
LINE
  5
1E2
100
AcDbEntity
  8
1
  6
CONTINUOUS
 62
           3
100
AcDbLine
 10
1574.999999999998
 20
-1813.764798641919
 11
1574.999999999998
 21
-1678.077763432566
  0
LINE
  5
1E1
100
AcDbEntity
  8
1
  6
CONTINUOUS
 62
           2
100
AcDbLine
 10
2249.999999999999
 20
-1678.077763432564
 11
1750.000000000005
 21
-1678.077763432564
  0
LINE
  5
1E0
100
AcDbEntity
  8
1
  6
CONTINUOUS
 62
           3
100
AcDbLine
 10
201.999999999994
 20
-3031.077763432566
 11
201.999999999994
 21
-2956.077763432566
  0
LINE
  5
1DF
100
AcDbEntity
  8
1
  6
CONTINUOUS
 62
           3
100
AcDbLine
 10
-12.000000000009
 20
-3106.077763432567
 11
-12.000000000009
 21
-3031.077763432566
  0
LINE
  5
1DE
100
AcDbEntity
  8
1
  6
CONTINUOUS
 62
           3
100
AcDbLine
 10
-12.000000000009
 20
-3106.077763432567
 11
59.999999999991
 21
-3106.077763432567
  0
LINE
  5
1DD
100
AcDbEntity
  8
1
  6
CONTINUOUS
 62
           3
100
AcDbLine
 10
-12.000000000009
 20
-3031.077763432566
 11
201.999999999994
 21
-3031.077763432566
  0
LINE
  5
1DC
100
AcDbEntity
  8
1
  6
CONTINUOUS
 62
           3
100
AcDbLine
 10
43.999999999991
 20
-2956.077763432566
 11
201.999999999994
 21
-2956.077763432566
  0
LINE
  5
1DB
100
AcDbEntity
  8
1
  6
CONTINUOUS
 62
           3
100
AcDbLine
 10
201.999999999994
 20
-2530.077763432564
 11
201.999999999994
 21
-2455.077763432567
  0
LINE
  5
1DA
100
AcDbEntity
  8
1
  6
CONTINUOUS
 62
           3
100
AcDbLine
 10
43.999999999991
 20
-2605.077763432564
 11
43.999999999991
 21
-2455.077763432567
  0
LINE
  5
1D9
100
AcDbEntity
  8
1
  6
CONTINUOUS
 62
           3
100
AcDbLine
 10
-12.000000000009
 20
-2605.077763432564
 11
-12.000000000009
 21
-2530.077763432564
  0
LINE
  5
1D8
100
AcDbEntity
  8
1
  6
CONTINUOUS
 62
           3
100
AcDbLine
 10
-12.000000000009
 20
-2605.077763432564
 11
59.999999999991
 21
-2605.077763432564
  0
LINE
  5
1D7
100
AcDbEntity
  8
1
  6
CONTINUOUS
 62
           3
100
AcDbLine
 10
-12.000000000009
 20
-2530.077763432564
 11
201.999999999994
 21
-2530.077763432564
  0
LINE
  5
1D6
100
AcDbEntity
  8
1
  6
CONTINUOUS
 62
           3
100
AcDbLine
 10
43.999999999991
 20
-2455.077763432567
 11
201.999999999994
 21
-2455.077763432567
  0
LINE
  5
1D5
100
AcDbEntity
  8
1
  6
CONTINUOUS
 62
           3
100
AcDbLine
 10
-12.000000000009
 20
-2106.077763432566
 11
-12.000000000009
 21
-2031.077763432566
  0
LINE
  5
1D4
100
AcDbEntity
  8
1
  6
CONTINUOUS
 62
           3
100
AcDbLine
 10
-12.000000000009
 20
-2106.077763432566
 11
59.999999999991
 21
-2106.077763432566
  0
LINE
  5
1D3
100
AcDbEntity
  8
1
  6
CONTINUOUS
 62
           3
100
AcDbLine
 10
201.999999999994
 20
-2031.077763432566
 11
201.999999999994
 21
-1956.077763432566
  0
LINE
  5
1D2
100
AcDbEntity
  8
1
  6
CONTINUOUS
 62
           3
100
AcDbLine
 10
43.999999999991
 20
-2106.077763432566
 11
43.999999999991
 21
-1956.077763432566
  0
LINE
  5
1D1
100
AcDbEntity
  8
1
  6
CONTINUOUS
 62
           3
100
AcDbLine
 10
-12.000000000009
 20
-2031.077763432566
 11
201.999999999994
 21
-2031.077763432566
  0
LINE
  5
1D0
100
AcDbEntity
  8
1
  6
CONTINUOUS
 62
           3
100
AcDbLine
 10
43.999999999991
 20
-1956.077763432566
 11
201.999999999994
 21
-1956.077763432566
  0
LINE
  5
1CF
100
AcDbEntity
  8
1
  6
CONTINUOUS
 62
           3
100
AcDbLine
 10
1589.999999999998
 20
-3171.077763432566
 11
902.631989907361
 21
-3171.077763432566
  0
LINE
  5
1CE
100
AcDbEntity
  8
1
  6
PHANTOM
 62
           3
100
AcDbLine
 10
2264.999999999996
 20
-1766.077763432567
 11
2264.999999999996
 21
-2126.077763432569
  0
LINE
  5
1CD
100
AcDbEntity
  8
1
  6
PHANTOM
 62
           3
100
AcDbLine
 10
2264.999999999996
 20
-2126.077763432569
 11
2249.999999999999
 21
-2126.077763432569
  0
LINE
  5
1CC
100
AcDbEntity
  8
1
  6
PHANTOM
 62
           3
100
AcDbLine
 10
2249.999999999999
 20
-1766.077763432567
 11
2264.999999999996
 21
-1766.077763432567
  0
LINE
  5
1CB
100
AcDbEntity
  8
1
  6
DOT_CENTER
 62
           3
100
AcDbLine
 10
1760.953427218985
 20
-1916.077763432568
 11
1571.639556675596
 21
-1916.077763432568
  0
LINE
  5
1CA
100
AcDbEntity
  8
1
  6
CONTINUOUS
 62
           3
100
AcDbLine
 10
1661.999999999998
 20
-2031.077763432566
 11
1661.999999999998
 21
-2106.077763432566
  0
LINE
  5
1C9
100
AcDbEntity
  8
1
  6
CONTINUOUS
 62
           3
100
AcDbLine
 10
1589.999999999998
 20
-2106.077763432566
 11
1661.999999999998
 21
-2106.077763432566
  0
LINE
  5
1C8
100
AcDbEntity
  8
1
  6
DOT_CENTER
 62
           3
100
AcDbLine
 10
1783.992290820613
 20
-2933.077763432568
 11
2076.501740016618
 21
-2933.077763432568
  0
LINE
  5
1C7
100
AcDbEntity
  8
1
  6
DOT_CENTER
 62
           3
100
AcDbLine
 10
1924.999999999999
 20
-2813.83779183736
 11
1924.999999999999
 21
-3078.059185009449
  0
LINE
  5
1C6
100
AcDbEntity
  8
1
  6
CONTINUOUS
 62
           2
100
AcDbLine
 10
1799.999999999999
 20
-3033.077763432568
 11
1799.999999999999
 21
-2833.077763432568
  0
LINE
  5
1C5
100
AcDbEntity
  8
1
  6
CONTINUOUS
 62
           2
100
AcDbLine
 10
2050.0
 20
-3033.077763432568
 11
1799.999999999999
 21
-3033.077763432568
  0
LINE
  5
1C4
100
AcDbEntity
  8
1
  6
CONTINUOUS
 62
           2
100
AcDbLine
 10
2050.0
 20
-2833.077763432568
 11
2050.0
 21
-3033.077763432568
  0
LINE
  5
1C3
100
AcDbEntity
  8
1
  6
CONTINUOUS
 62
           2
100
AcDbLine
 10
1799.999999999999
 20
-2833.077763432568
 11
2050.0
 21
-2833.077763432568
  0
LINE
  5
1C2
100
AcDbEntity
  8
1
  6
CONTINUOUS
 62
           2
100
AcDbLine
 10
1749.999999999998
 20
-2378.077763432566
 11
2249.999999999999
 21
-2378.077763432566
  0
LINE
  5
1C1
100
AcDbEntity
  8
1
  6
CONTINUOUS
 62
           2
100
AcDbLine
 10
2249.999999999999
 20
-1678.077763432564
 11
2249.999999999999
 21
-3258.077763432568
  0
LINE
  5
1C0
100
AcDbEntity
  8
1
  6
CONTINUOUS
 62
           3
100
AcDbLine
 10
1447.999999999998
 20
-2455.077763432567
 11
1447.999999999998
 21
-2530.077763432564
  0
LINE
  5
1BF
100
AcDbEntity
  8
1
  6
CONTINUOUS
 62
           3
100
AcDbLine
 10
1605.999999999998
 20
-2455.077763432567
 11
1605.999999999998
 21
-2605.077763432564
  0
LINE
  5
1BE
100
AcDbEntity
  8
1
  6
CONTINUOUS
 62
           3
100
AcDbLine
 10
1661.999999999998
 20
-2530.077763432564
 11
1661.999999999998
 21
-2605.077763432564
  0
LINE
  5
1BD
100
AcDbEntity
  8
1
  6
CONTINUOUS
 62
           3
100
AcDbLine
 10
1589.999999999998
 20
-2605.077763432564
 11
1661.999999999998
 21
-2605.077763432564
  0
LINE
  5
1BC
100
AcDbEntity
  8
1
  6
CONTINUOUS
 62
           3
100
AcDbLine
 10
1447.999999999998
 20
-2530.077763432564
 11
1661.999999999998
 21
-2530.077763432564
  0
LINE
  5
1BB
100
AcDbEntity
  8
1
  6
CONTINUOUS
 62
           3
100
AcDbLine
 10
1447.999999999998
 20
-2455.077763432567
 11
1605.999999999998
 21
-2455.077763432567
  0
LINE
  5
1BA
100
AcDbEntity
  8
1
  6
CONTINUOUS
 62
           3
100
AcDbLine
 10
1447.999999999998
 20
-2956.077763432566
 11
1447.999999999998
 21
-3031.077763432566
  0
LINE
  5
1B9
100
AcDbEntity
  8
1
  6
CONTINUOUS
 62
           3
100
AcDbLine
 10
1605.999999999998
 20
-2956.077763432566
 11
1605.999999999998
 21
-3106.077763432567
  0
LINE
  5
1B8
100
AcDbEntity
  8
1
  6
CONTINUOUS
 62
           3
100
AcDbLine
 10
1661.999999999998
 20
-3031.077763432566
 11
1661.999999999998
 21
-3106.077763432567
  0
LINE
  5
1B7
100
AcDbEntity
  8
1
  6
CONTINUOUS
 62
           3
100
AcDbLine
 10
1447.999999999998
 20
-3031.077763432566
 11
1661.999999999998
 21
-3031.077763432566
  0
LINE
  5
1B6
100
AcDbEntity
  8
1
  6
CONTINUOUS
 62
           3
100
AcDbLine
 10
1447.999999999998
 20
-2956.077763432566
 11
1605.999999999998
 21
-2956.077763432566
  0
LINE
  5
1B5
100
AcDbEntity
  8
1
  6
CONTINUOUS
 62
           2
100
AcDbLine
 10
1589.999999999998
 20
-1813.764798641919
 11
1589.999999999998
 21
-3258.077763432566
  0
LINE
  5
1B4
100
AcDbEntity
  8
1
  6
CONTINUOUS
 62
           2
100
AcDbLine
 10
903.570635868256
 20
-1813.764798641919
 11
1589.999999999998
 21
-1813.764798641919
  0
LINE
  5
1B3
100
AcDbEntity
  8
1
  6
CONTINUOUS
 62
           2
100
AcDbLine
 10
1674.999999999998
 20
-1678.077763432566
 11
1674.999999999998
 21
-3258.077763432566
  0
LINE
  5
1B2
100
AcDbEntity
  8
1
  6
CONTINUOUS
 62
           3
100
AcDbLine
 10
1447.999999999998
 20
-1956.077763432566
 11
1447.999999999998
 21
-2031.077763432566
  0
LINE
  5
1B1
100
AcDbEntity
  8
1
  6
CONTINUOUS
 62
           3
100
AcDbLine
 10
1605.999999999998
 20
-1956.077763432566
 11
1605.999999999998
 21
-2106.077763432566
  0
LINE
  5
1B0
100
AcDbEntity
  8
1
  6
CONTINUOUS
 62
           3
100
AcDbLine
 10
1447.999999999998
 20
-2031.077763432566
 11
1661.999999999998
 21
-2031.077763432566
  0
LINE
  5
1AF
100
AcDbEntity
  8
1
  6
CONTINUOUS
 62
           3
100
AcDbLine
 10
1447.999999999998
 20
-1956.077763432566
 11
1605.999999999998
 21
-1956.077763432566
  0
LINE
  5
1AE
100
AcDbEntity
  8
1
  6
CONTINUOUS
 62
           2
100
AcDbLine
 10
824.999999999998
 20
-3171.077763432566
 11
824.999999999998
 21
-1813.764798641919
  0
LINE
  5
1AD
100
AcDbEntity
  8
1
  6
CONTINUOUS
 62
           3
100
AcDbLine
 10
868.999999999998
 20
-1820.443463117677
 11
868.999999999998
 21
-1801.264798641919
  0
LINE
  5
1AC
100
AcDbEntity
  8
1
  6
CONTINUOUS
 62
           3
100
AcDbLine
 10
898.999999999998
 20
-1801.264798641919
 11
898.999999999998
 21
-1820.443463117677
  0
LINE
  5
1AB
100
AcDbEntity
  8
1
  6
DASHED
 62
           3
100
AcDbLine
 10
858.999999999998
 20
-1801.264798641919
 11
845.528879768555
 21
-1801.264798641919
  0
LINE
  5
1AA
100
AcDbEntity
  8
1
  6
DASHED
 62
           3
100
AcDbLine
 10
858.999999999998
 20
-1778.3742044206
 11
845.127290396258
 21
-1778.3742044206
  0
LINE
  5
1A9
100
AcDbEntity
  8
1
  6
DASHED
 62
           3
100
AcDbLine
 10
845.127290396258
 20
-1779.177383165208
 11
845.127290396258
 21
-1800.46161989731
  0
LINE
  5
1A8
100
AcDbEntity
  8
1
  6
CONTINUOUS
 62
           3
100
AcDbLine
 10
903.759338752598
 20
-1778.3742044206
 11
903.759338752598
 21
-1801.264798641919
  0
LINE
  5
1A7
100
AcDbEntity
  8
1
  6
CONTINUOUS
 62
           3
100
AcDbLine
 10
858.999999999998
 20
-1801.264798641919
 11
903.759338752598
 21
-1801.264798641919
  0
LINE
  5
1A6
100
AcDbEntity
  8
1
  6
CONTINUOUS
 62
           3
100
AcDbLine
 10
858.999999999998
 20
-1778.3742044206
 11
903.759338752598
 21
-1778.3742044206
  0
LINE
  5
1A5
100
AcDbEntity
  8
1
  6
CONTINUOUS
 62
           3
100
AcDbLine
 10
858.999999999998
 20
-1820.443463117677
 11
858.999999999998
 21
-1830.443463117677
  0
LINE
  5
1A4
100
AcDbEntity
  8
1
  6
CONTINUOUS
 62
           3
100
AcDbLine
 10
908.999999999998
 20
-1819.605961138597
 11
908.999999999998
 21
-1830.443463117677
  0
LINE
  5
1A3
100
AcDbEntity
  8
1
  6
CONTINUOUS
 62
           3
100
AcDbLine
 10
858.999999999998
 20
-1820.443463117677
 11
908.999999999998
 21
-1820.443463117677
  0
LINE
  5
1A2
100
AcDbEntity
  8
1
  6
CONTINUOUS
 62
           3
100
AcDbLine
 10
843.999999999998
 20
-1830.443463117677
 11
843.999999999998
 21
-1870.443463117677
  0
LINE
  5
1A1
100
AcDbEntity
  8
1
  6
CONTINUOUS
 62
           3
100
AcDbLine
 10
923.999999999998
 20
-1830.443463117677
 11
923.999999999998
 21
-1870.443463117677
  0
LINE
  5
1A0
100
AcDbEntity
  8
1
  6
CONTINUOUS
 62
           3
100
AcDbLine
 10
843.999999999998
 20
-1870.443463117677
 11
923.999999999998
 21
-1870.443463117677
  0
LINE
  5
19F
100
AcDbEntity
  8
1
  6
CONTINUOUS
 62
           3
100
AcDbLine
 10
843.999999999998
 20
-1830.443463117677
 11
923.999999999998
 21
-1830.443463117677
  0
LINE
  5
19E
100
AcDbEntity
  8
1
  6
CONTINUOUS
 62
           3
100
AcDbLine
 10
826.796816523018
 20
-1773.34193937515
 11
826.796816523018
 21
-1805.34193937515
  0
LINE
  5
19D
100
AcDbEntity
  8
1
  6
CONTINUOUS
 62
           3
100
AcDbLine
 10
748.999999999998
 20
-1773.34193937515
 11
748.999999999998
 21
-1805.34193937515
  0
LINE
  5
19C
100
AcDbEntity
  8
1
  6
CONTINUOUS
 62
           3
100
AcDbLine
 10
858.999999999998
 20
-1773.34193937515
 11
858.999999999998
 21
-1805.34193937515
  0
LINE
  5
19B
100
AcDbEntity
  8
1
  6
CONTINUOUS
 62
           3
100
AcDbLine
 10
748.999999999998
 20
-1805.34193937515
 11
858.999999999998
 21
-1805.34193937515
  0
LINE
  5
19A
100
AcDbEntity
  8
1
  6
CONTINUOUS
 62
           3
100
AcDbLine
 10
748.999999999998
 20
-1773.34193937515
 11
858.999999999998
 21
-1773.34193937515
  0
LINE
  5
199
100
AcDbEntity
  8
1
  6
DOT_CENTER
 62
           3
100
AcDbLine
 10
883.999999999998
 20
-1586.260004372639
 11
883.999999999998
 21
-3279.077763432566
  0
LINE
  5
198
100
AcDbEntity
  8
1
  6
CONTINUOUS
 62
           3
100
AcDbLine
 10
1218.247297421605
 20
-2421.077763432566
 11
1218.247297421605
 21
-2431.077763432566
  0
LINE
  5
197
100
AcDbEntity
  8
1
  6
CONTINUOUS
 62
           3
100
AcDbLine
 10
1047.142496987302
 20
-2436.077763432566
 11
1213.247297421605
 21
-2436.077763432566
  0
LINE
  5
196
100
AcDbEntity
  8
1
  6
CONTINUOUS
 62
           3
100
AcDbLine
 10
1047.142496987302
 20
-2416.077763432566
 11
1213.247297421605
 21
-2416.077763432566
  0
LINE
  5
195
100
AcDbEntity
  8
1
  6
CONTINUOUS
 62
           3
100
AcDbLine
 10
973.999999999998
 20
-2436.077763432566
 11
1021.773646449727
 21
-2436.077763432566
  0
LINE
  5
194
100
AcDbEntity
  8
1
  6
CONTINUOUS
 62
           3
100
AcDbLine
 10
973.999999999998
 20
-2416.077763432566
 11
1020.154358117548
 21
-2416.077763432566
  0
LINE
  5
193
100
AcDbEntity
  8
1
  6
CONTINUOUS
 62
           3
100
AcDbLine
 10
963.999999999998
 20
-2441.077763432566
 11
973.999999999998
 21
-2436.077763432566
  0
LINE
  5
192
100
AcDbEntity
  8
1
  6
CONTINUOUS
 62
           3
100
AcDbLine
 10
963.999999999998
 20
-2411.077763432566
 11
973.999999999998
 21
-2416.077763432566
  0
LINE
  5
191
100
AcDbEntity
  8
1
  6
CONTINUOUS
 62
           3
100
AcDbLine
 10
898.999999999998
 20
-2441.077763432566
 11
963.999999999998
 21
-2441.077763432566
  0
LINE
  5
190
100
AcDbEntity
  8
1
  6
CONTINUOUS
 62
           3
100
AcDbLine
 10
898.999999999998
 20
-2411.077763432566
 11
963.999999999998
 21
-2411.077763432566
  0
LINE
  5
18F
100
AcDbEntity
  8
1
  6
CONTINUOUS
 62
           3
100
AcDbLine
 10
1023.999999999998
 20
-2446.077763432566
 11
1023.999999999998
 21
-2386.077763432566
  0
LINE
  5
18E
100
AcDbEntity
  8
1
  6
CONTINUOUS
 62
           3
100
AcDbLine
 10
1043.999999999998
 20
-2446.077763432566
 11
1023.999999999998
 21
-2446.077763432566
  0
LINE
  5
18D
100
AcDbEntity
  8
1
  6
CONTINUOUS
 62
           3
100
AcDbLine
 10
1043.999999999998
 20
-2386.077763432566
 11
1043.999999999998
 21
-2446.077763432566
  0
LINE
  5
18C
100
AcDbEntity
  8
1
  6
CONTINUOUS
 62
           3
100
AcDbLine
 10
1023.999999999998
 20
-2386.077763432566
 11
1043.999999999998
 21
-2386.077763432566
  0
LINE
  5
18B
100
AcDbEntity
  8
1
  6
CONTINUOUS
 62
           3
100
AcDbLine
 10
868.999999999998
 20
-3099.077763432566
 11
868.999999999998
 21
-1870.443463117677
  0
LINE
  5
18A
100
AcDbEntity
  8
1
  6
CONTINUOUS
 62
           3
100
AcDbLine
 10
868.999999999998
 20
-3149.077763432566
 11
868.999999999998
 21
-3178.577763432566
  0
LINE
  5
189
100
AcDbEntity
  8
1
  6
CONTINUOUS
 62
           3
100
AcDbLine
 10
898.999999999998
 20
-3149.077763432566
 11
898.999999999998
 21
-3178.577763432566
  0
LINE
  5
188
100
AcDbEntity
  8
1
  6
CONTINUOUS
 62
           3
100
AcDbLine
 10
898.999999999998
 20
-1870.443463117678
 11
898.999999999998
 21
-3095.862179597976
  0
LINE
  5
187
100
AcDbEntity
  8
1
  6
DASHED
 62
           3
100
AcDbLine
 10
847.669878225102
 20
-3178.577763432566
 11
847.669878225102
 21
-3199.697105820076
  0
LINE
  5
186
100
AcDbEntity
  8
1
  6
DASHED
 62
           3
100
AcDbLine
 10
859.754316036478
 20
-3199.697105820076
 11
847.009898775495
 21
-3199.697105820076
  0
LINE
  5
185
100
AcDbEntity
  8
1
  6
DASHED
 62
           3
100
AcDbLine
 10
859.754316036478
 20
-3178.577763432566
 11
847.669878225102
 21
-3178.577763432566
  0
LINE
  5
184
100
AcDbEntity
  8
1
  6
CONTINUOUS
 62
           3
100
AcDbLine
 10
905.088090341165
 20
-3178.577763432566
 11
905.088090341165
 21
-3199.697105820076
  0
LINE
  5
183
100
AcDbEntity
  8
1
  6
CONTINUOUS
 62
           3
100
AcDbLine
 10
859.754316036478
 20
-3199.697105820076
 11
905.088090341165
 21
-3199.697105820076
  0
LINE
  5
182
100
AcDbEntity
  8
1
  6
CONTINUOUS
 62
           3
100
AcDbLine
 10
859.754316036478
 20
-3178.577763432566
 11
905.088090341165
 21
-3178.577763432566
  0
LINE
  5
181
100
AcDbEntity
  8
1
  6
CONTINUOUS
 62
           3
100
AcDbLine
 10
858.999999999998
 20
-3139.077763432566
 11
858.999999999998
 21
-3149.077763432566
  0
LINE
  5
180
100
AcDbEntity
  8
1
  6
CONTINUOUS
 62
           3
100
AcDbLine
 10
908.999999999998
 20
-3139.077763432566
 11
908.999999999998
 21
-3149.077763432566
  0
LINE
  5
17F
100
AcDbEntity
  8
1
  6
CONTINUOUS
 62
           3
100
AcDbLine
 10
858.999999999998
 20
-3149.077763432566
 11
908.999999999998
 21
-3149.077763432566
  0
LINE
  5
17E
100
AcDbEntity
  8
1
  6
CONTINUOUS
 62
           3
100
AcDbLine
 10
843.999999999998
 20
-2512.795423896472
 11
843.999999999998
 21
-2552.795423896471
  0
LINE
  5
17D
100
AcDbEntity
  8
1
  6
CONTINUOUS
 62
           3
100
AcDbLine
 10
923.999999999998
 20
-2512.795423896472
 11
923.999999999998
 21
-2552.795423896471
  0
LINE
  5
17C
100
AcDbEntity
  8
1
  6
CONTINUOUS
 62
           3
100
AcDbLine
 10
843.999999999998
 20
-2552.795423896471
 11
923.999999999998
 21
-2552.795423896471
  0
LINE
  5
17B
100
AcDbEntity
  8
1
  6
CONTINUOUS
 62
           3
100
AcDbLine
 10
843.999999999998
 20
-2512.795423896472
 11
923.999999999998
 21
-2512.795423896472
  0
LINE
  5
17A
100
AcDbEntity
  8
1
  6
CONTINUOUS
 62
           3
100
AcDbLine
 10
843.999999999998
 20
-3099.077763432566
 11
843.999999999998
 21
-3139.077763432566
  0
LINE
  5
179
100
AcDbEntity
  8
1
  6
CONTINUOUS
 62
           3
100
AcDbLine
 10
923.999999999998
 20
-3099.077763432566
 11
923.999999999998
 21
-3139.077763432566
  0
LINE
  5
178
100
AcDbEntity
  8
1
  6
CONTINUOUS
 62
           3
100
AcDbLine
 10
843.999999999998
 20
-3139.077763432566
 11
923.999999999998
 21
-3139.077763432566
  0
LINE
  5
177
100
AcDbEntity
  8
1
  6
CONTINUOUS
 62
           3
100
AcDbLine
 10
843.999999999998
 20
-3099.077763432566
 11
923.999999999998
 21
-3099.077763432566
  0
LINE
  5
176
100
AcDbEntity
  8
1
  6
CONTINUOUS
 62
           3
100
AcDbLine
 10
827.551132559498
 20
-3172.106453215638
 11
827.551132559498
 21
-3204.106453215638
  0
LINE
  5
175
100
AcDbEntity
  8
1
  6
CONTINUOUS
 62
           3
100
AcDbLine
 10
749.754316036478
 20
-3172.106453215638
 11
749.754316036478
 21
-3204.106453215638
  0
LINE
  5
174
100
AcDbEntity
  8
1
  6
CONTINUOUS
 62
           3
100
AcDbLine
 10
859.754316036478
 20
-3172.106453215638
 11
859.754316036478
 21
-3204.106453215638
  0
LINE
  5
173
100
AcDbEntity
  8
1
  6
CONTINUOUS
 62
           3
100
AcDbLine
 10
749.754316036478
 20
-3204.106453215638
 11
859.754316036478
 21
-3204.106453215638
  0
LINE
  5
172
100
AcDbEntity
  8
1
  6
CONTINUOUS
 62
           3
100
AcDbLine
 10
749.754316036478
 20
-3172.106453215638
 11
859.754316036478
 21
-3172.106453215638
  0
LINE
  5
171
100
AcDbEntity
  8
1
  6
DOT_CENTER
 62
           3
100
AcDbLine
 10
953.999999999998
 20
-2416.709756925624
 11
953.999999999998
 21
-2436.021943694515
  0
LINE
  5
170
100
AcDbEntity
  8
1
  6
CONTINUOUS
 62
           3
100
AcDbLine
 10
738.999999999998
 20
-2536.077763432566
 11
738.999999999998
 21
-2556.077763432566
  0
LINE
  5
16F
100
AcDbEntity
  8
1
  6
CONTINUOUS
 62
           3
100
AcDbLine
 10
768.999999999998
 20
-2536.077763432566
 11
768.999999999998
 21
-2556.077763432566
  0
LINE
  5
16E
100
AcDbEntity
  8
1
  6
CONTINUOUS
 62
           3
100
AcDbLine
 10
738.999999999998
 20
-2556.077763432566
 11
768.999999999998
 21
-2556.077763432566
  0
LINE
  5
16D
100
AcDbEntity
  8
1
  6
CONTINUOUS
 62
           3
100
AcDbLine
 10
745.999999999998
 20
-2526.077763432565
 11
738.999999999998
 21
-2536.077763432566
  0
LINE
  5
16C
100
AcDbEntity
  8
1
  6
CONTINUOUS
 62
           3
100
AcDbLine
 10
761.999999999998
 20
-2526.077763432565
 11
768.999999999998
 21
-2536.077763432566
  0
LINE
  5
16B
100
AcDbEntity
  8
1
  6
CONTINUOUS
 62
           3
100
AcDbLine
 10
738.999999999998
 20
-2316.077763432566
 11
745.999999999998
 21
-2326.077763432566
  0
LINE
  5
16A
100
AcDbEntity
  8
1
  6
CONTINUOUS
 62
           3
100
AcDbLine
 10
768.999999999998
 20
-2316.077763432566
 11
761.999999999998
 21
-2326.077763432566
  0
LINE
  5
169
100
AcDbEntity
  8
1
  6
CONTINUOUS
 62
           3
100
AcDbLine
 10
738.999999999998
 20
-2296.077763432566
 11
738.999999999998
 21
-2316.077763432566
  0
LINE
  5
168
100
AcDbEntity
  8
1
  6
CONTINUOUS
 62
           3
100
AcDbLine
 10
768.999999999998
 20
-2296.077763432566
 11
768.999999999998
 21
-2316.077763432566
  0
LINE
  5
167
100
AcDbEntity
  8
1
  6
CONTINUOUS
 62
           3
100
AcDbLine
 10
738.999999999998
 20
-2296.077763432566
 11
768.999999999998
 21
-2296.077763432566
  0
LINE
  5
166
100
AcDbEntity
  8
1
  6
DOT_CENTER
 62
           3
100
AcDbLine
 10
753.999999999998
 20
-2290.010629503283
 11
753.999999999998
 21
-2564.659623948465
  0
LINE
  5
165
100
AcDbEntity
  8
1
  6
DOT_CENTER
 62
           3
100
AcDbLine
 10
887.915659139426
 20
-2426.077763432566
 11
1221.342616110216
 21
-2426.077763432566
  0
LINE
  5
164
100
AcDbEntity
  8
1
  6
DOT_CENTER
 62
           3
100
AcDbLine
 10
728.190712015288
 20
-2426.077763432566
 11
777.861274840476
 21
-2426.077763432566
  0
LINE
  5
163
100
AcDbEntity
  8
1
  6
CONTINUOUS
 62
           3
100
AcDbLine
 10
745.999999999998
 20
-2546.077763432566
 11
761.999999999998
 21
-2546.077763432566
  0
LINE
  5
162
100
AcDbEntity
  8
1
  6
CONTINUOUS
 62
           3
100
AcDbLine
 10
745.999999999998
 20
-2306.077763432566
 11
761.999999999998
 21
-2306.077763432566
  0
LINE
  5
161
100
AcDbEntity
  8
1
  6
CONTINUOUS
 62
           3
100
AcDbLine
 10
745.999999999998
 20
-2306.077763432566
 11
745.999999999998
 21
-2546.077763432566
  0
LINE
  5
160
100
AcDbEntity
  8
1
  6
CONTINUOUS
 62
           3
100
AcDbLine
 10
761.999999999998
 20
-2306.077763432566
 11
761.999999999998
 21
-2546.077763432566
  0
LINE
  5
15F
100
AcDbEntity
  8
1
  6
CONTINUOUS
 62
           2
100
AcDbLine
 10
-173.46645362368
 20
-3258.077763432566
 11
2418.516702116314
 21
-3258.077763432568
  0
LINE
  5
15E
100
AcDbEntity
  8
1
  6
CONTINUOUS
 62
           3
100
AcDbLine
 10
60.0
 20
-3171.077763432566
 11
824.999999999998
 21
-3171.077763432566
  0
LINE
  5
15D
100
AcDbEntity
  8
1
  6
CONTINUOUS
 62
           2
100
AcDbLine
 10
60.0
 20
-1813.764798641919
 11
861.140262574902
 21
-1813.764798641919
  0
LINE
  5
15C
100
AcDbEntity
  8
1
  6
CONTINUOUS
 62
           2
100
AcDbLine
 10
60.0
 20
-1813.764798641919
 11
60.0
 21
-3258.077763432566
  0
LINE
  5
15B
100
AcDbEntity
  8
1
  6
CONTINUOUS
 62
           2
100
AcDbLine
 10
-25.0
 20
-1678.077763432566
 11
-25.0
 21
-3258.077763432566
  0
LINE
  5
15A
100
AcDbEntity
  8
1
  6
CONTINUOUS
 62
           3
100
AcDbLine
 10
75.0
 20
-1678.077763432566
 11
75.0
 21
-1814.504598443669
  0
LINE
  5
159
100
AcDbEntity
  8
1
  6
CONTINUOUS
 62
           2
100
AcDbLine
 10
3161.32066517767
 20
-3258.077763432568
 11
4313.32066517767
 21
-3258.077763432568
  0
LINE
  5
158
100
AcDbEntity
  8
1
  6
CONTINUOUS
 62
           2
100
AcDbLine
 10
4238.32066517767
 20
-2188.080703046425
 11
4238.32066517767
 21
-1679.077763432568
  0
LINE
  5
157
100
AcDbEntity
  8
1
  6
CONTINUOUS
 62
           2
100
AcDbLine
 10
4313.32066517767
 20
-1678.077763432569
 11
4313.32066517767
 21
-3258.077763432568
  0
LINE
  5
156
100
AcDbEntity
  8
1
  6
CONTINUOUS
 62
           2
100
AcDbLine
 10
4238.32066517767
 20
-2188.080703046425
 11
4238.32066517767
 21
-3258.077763432568
  0
LINE
  5
155
100
AcDbEntity
  8
1
  6
CONTINUOUS
 62
           2
100
AcDbLine
 10
3238.320665177669
 20
-2189.077763432569
 11
3238.320665177669
 21
-3258.077763432568
  0
LINE
  5
154
100
AcDbEntity
  8
1
  6
CONTINUOUS
 62
           2
100
AcDbLine
 10
3076.320665177669
 20
-2833.077763432568
 11
3238.320665177669
 21
-2833.077763432568
  0
LINE
  5
153
100
AcDbEntity
  8
1
  6
CONTINUOUS
 62
           2
100
AcDbLine
 10
3076.320665177669
 20
-3033.077763432568
 11
3238.32066517767
 21
-3033.077763432565
  0
LINE
  5
152
100
AcDbEntity
  8
1
  6
CONTINUOUS
 62
           2
100
AcDbLine
 10
3226.320665177669
 20
-2833.077763432568
 11
3226.320665177668
 21
-3033.077763432568
  0
LINE
  5
151
100
AcDbEntity
  8
1
  6
DOT_CENTER
 62
           3
100
AcDbLine
 10
3275.320665177669
 20
-2933.077763432568
 11
3052.301492105165
 21
-2933.077763432568
  0
LINE
  5
150
100
AcDbEntity
  8
1
  6
CONTINUOUS
 62
           2
100
AcDbLine
 10
3356.32066517767
 20
-1428.077876272318
 11
3616.320665177671
 21
-1428.077876272318
  0
LINE
  5
14F
100
AcDbEntity
  8
1
  6
CONTINUOUS
 62
           2
100
AcDbLine
 10
3386.32066517767
 20
-1398.077876272318
 11
3586.320665177671
 21
-1398.077876272318
  0
LINE
  5
14E
100
AcDbEntity
  8
1
  6
CONTINUOUS
 62
           2
100
AcDbLine
 10
3386.32066517767
 20
-1458.077876272318
 11
3586.320665177671
 21
-1458.077876272318
  0
LINE
  5
14D
100
AcDbEntity
  8
1
  6
CONTINUOUS
 62
           2
100
AcDbLine
 10
3386.32066517767
 20
-1648.377876272318
 11
3586.320665177671
 21
-1648.377876272318
  0
LINE
  5
14C
100
AcDbEntity
  8
1
  6
CONTINUOUS
 62
           2
100
AcDbLine
 10
3586.320665177671
 20
-1398.077876272318
 11
3586.320665177671
 21
-1678.377876272318
  0
LINE
  5
14B
100
AcDbEntity
  8
1
  6
CONTINUOUS
 62
           2
100
AcDbLine
 10
3386.32066517767
 20
-1398.077876272318
 11
3386.32066517767
 21
-1678.077763432572
  0
LINE
  5
14A
100
AcDbEntity
  8
1
  6
DASHED
 62
           3
100
AcDbLine
 10
3486.32066517767
 20
-1553.377876272318
 11
3567.645591850851
 21
-1483.281282357679
  0
LINE
  5
149
100
AcDbEntity
  8
1
  6
DASHED
 62
           3
100
AcDbLine
 10
3486.32066517767
 20
-1553.377876272318
 11
3416.75504619607
 21
-1609.763063274181
  0
LINE
  5
148
100
AcDbEntity
  8
1
  6
DOT_CENTER
 62
           3
100
AcDbLine
 10
3486.32066517767
 20
-1366.175459391558
 11
3486.32066517767
 21
-1713.181889850476
  0
LINE
  5
147
100
AcDbEntity
  8
1
  6
CONTINUOUS
 62
           2
100
AcDbLine
 10
3076.320665177669
 20
-2833.077763432568
 11
3076.320665177669
 21
-3033.077763432568
  0
LINE
  5
146
100
AcDbEntity
  8
1
  6
CONTINUOUS
 62
           2
100
AcDbLine
 10
3618.339227674264
 20
-1678.077763432574
 11
2888.320665177669
 21
-1678.077763432569
  0
LINE
  5
145
100
AcDbEntity
  8
1
  6
CONTINUOUS
 62
           2
100
AcDbLine
 10
2888.320665177669
 20
-1678.077763432569
 11
2888.320665177669
 21
-2378.077763432566
  0
LINE
  5
144
100
AcDbEntity
  8
1
  6
CONTINUOUS
 62
           2
100
AcDbLine
 10
2888.320665177669
 20
-2378.077763432566
 11
3188.320665177669
 21
-2378.077763432566
  0
LINE
  5
143
100
AcDbEntity
  8
1
  6
CONTINUOUS
 62
           2
100
AcDbLine
 10
3188.320665177669
 20
-2378.077763432566
 11
3188.320665177669
 21
-1678.077763432569
  0
LINE
  5
142
100
AcDbEntity
  8
1
  6
CONTINUOUS
 62
           3
100
AcDbLine
 10
2918.320665177669
 20
-1678.077763432569
 11
2918.320665177669
 21
-2378.077763432566
  0
LINE
  5
141
100
AcDbEntity
  8
1
  6
CONTINUOUS
 62
           2
100
AcDbLine
 10
3161.32066517767
 20
-2428.077763432566
 11
3161.32066517767
 21
-2833.077763432568
  0
LINE
  5
140
100
AcDbEntity
  8
1
  6
CONTINUOUS
 62
           2
100
AcDbLine
 10
1650.999999999996
 20
-1628.077763432568
 11
1979.999999999997
 21
-1628.077763432568
  0
LINE
  5
13F
100
AcDbEntity
  8
1
  6
CONTINUOUS
 62
           2
100
AcDbLine
 10
1650.999999999996
 20
-1678.077763432566
 11
1650.999999999996
 21
-1628.077763432568
  0
LINE
  5
13E
100
AcDbEntity
  8
1
  6
CONTINUOUS
 62
           3
100
AcDbLine
 10
1498.499999999998
 20
-1652.952449360231
 11
1498.499999999998
 21
-1658.077763432566
  0
LINE
  5
13D
100
AcDbEntity
  8
1
  6
CONTINUOUS
 62
           3
100
AcDbLine
 10
1503.499999999998
 20
-1652.952449360231
 11
1503.499999999998
 21
-1658.077763432566
  0
LINE
  5
13C
100
AcDbEntity
  8
1
  6
CONTINUOUS
 62
           3
100
AcDbLine
 10
1510.999999999998
 20
-1658.077763432566
 11
1510.999999999998
 21
-1668.077763432566
  0
LINE
  5
13B
100
AcDbEntity
  8
1
  6
CONTINUOUS
 62
           3
100
AcDbLine
 10
1490.999999999998
 20
-1658.077763432566
 11
1510.999999999998
 21
-1658.077763432566
  0
LINE
  5
13A
100
AcDbEntity
  8
1
  6
CONTINUOUS
 62
           3
100
AcDbLine
 10
1490.999999999998
 20
-1668.077763432566
 11
1490.999999999998
 21
-1658.077763432566
  0
LINE
  5
139
100
AcDbEntity
  8
1
  6
CONTINUOUS
 62
           3
100
AcDbLine
 10
1525.999999999998
 20
-1668.077763432566
 11
1525.999999999998
 21
-1678.077763432566
  0
LINE
  5
138
100
AcDbEntity
  8
1
  6
DOT_CENTER
 62
           3
100
AcDbLine
 10
1500.999999999998
 20
-1593.077763432566
 11
1500.999999999998
 21
-1678.077763432566
  0
LINE
  5
137
100
AcDbEntity
  8
1
  6
DOT_CENTER
 62
           3
100
AcDbLine
 10
1465.999999999998
 20
-1628.077763432566
 11
1535.999999999998
 21
-1628.077763432566
  0
LINE
  5
136
100
AcDbEntity
  8
1
  6
DOT_CENTER
 62
           3
100
AcDbLine
 10
1500.999999999998
 20
586.000000075023
 11
1500.999999999998
 21
656.000000075023
  0
LINE
  5
135
100
AcDbEntity
  8
1
  6
DOT_CENTER
 62
           3
100
AcDbLine
 10
1465.999999999998
 20
621.000000075023
 11
1535.999999999998
 21
621.000000075023
  0
LINE
  5
134
100
AcDbEntity
  8
1
  6
DOT_CENTER
 62
           3
100
AcDbLine
 10
1375.999999999998
 20
-1388.45662479187
 11
1375.999999999998
 21
-1689.77265047549
  0
LINE
  5
133
100
AcDbEntity
  8
1
  6
CONTINUOUS
 62
           3
100
AcDbLine
 10
1275.999999999998
 20
-1398.077763432566
 11
1274.999999999998
 21
-1398.077763432566
  0
LINE
  5
132
100
AcDbEntity
  8
1
  6
CONTINUOUS
 62
           3
100
AcDbLine
 10
1272.999999999998
 20
-1400.077763432566
 11
1272.999999999998
 21
-1421.077763432566
  0
LINE
  5
131
100
AcDbEntity
  8
1
  6
CONTINUOUS
 62
           3
100
AcDbLine
 10
1268.999999999998
 20
-1425.077763432566
 11
1247.999999999998
 21
-1425.077763432566
  0
LINE
  5
130
100
AcDbEntity
  8
1
  6
CONTINUOUS
 62
           3
100
AcDbLine
 10
1245.999999999998
 20
-1427.077763432566
 11
1245.999999999998
 21
-1429.077763432566
  0
LINE
  5
12F
100
AcDbEntity
  8
1
  6
CONTINUOUS
 62
           3
100
AcDbLine
 10
1274.999999999998
 20
-1458.077763432566
 11
1275.999999999998
 21
-1458.077763432566
  0
LINE
  5
12E
100
AcDbEntity
  8
1
  6
CONTINUOUS
 62
           3
100
AcDbLine
 10
1272.999999999998
 20
-1435.077763432566
 11
1272.999999999998
 21
-1456.077763432566
  0
LINE
  5
12D
100
AcDbEntity
  8
1
  6
CONTINUOUS
 62
           3
100
AcDbLine
 10
1247.999999999998
 20
-1431.077763432566
 11
1268.999999999998
 21
-1431.077763432566
  0
LINE
  5
12C
100
AcDbEntity
  8
1
  6
CONTINUOUS
 62
           2
100
AcDbLine
 10
1245.999999999998
 20
-1428.077763432566
 11
1506.0
 21
-1428.077763432566
  0
LINE
  5
12B
100
AcDbEntity
  8
1
  6
CONTINUOUS
 62
           3
100
AcDbLine
 10
1477.0
 20
-1398.077763432566
 11
1476.0
 21
-1398.077763432566
  0
LINE
  5
12A
100
AcDbEntity
  8
1
  6
CONTINUOUS
 62
           3
100
AcDbLine
 10
1479.0
 20
-1421.077763432566
 11
1479.0
 21
-1400.077763432566
  0
LINE
  5
129
100
AcDbEntity
  8
1
  6
CONTINUOUS
 62
           3
100
AcDbLine
 10
1504.0
 20
-1425.077763432566
 11
1483.0
 21
-1425.077763432566
  0
LINE
  5
128
100
AcDbEntity
  8
1
  6
CONTINUOUS
 62
           3
100
AcDbLine
 10
1506.0
 20
-1429.077763432566
 11
1506.0
 21
-1427.077763432566
  0
LINE
  5
127
100
AcDbEntity
  8
1
  6
CONTINUOUS
 62
           3
100
AcDbLine
 10
1274.999999999998
 20
-1398.077763432566
 11
1476.0
 21
-1398.077763432566
  0
LINE
  5
126
100
AcDbEntity
  8
1
  6
CONTINUOUS
 62
           3
100
AcDbLine
 10
1476.0
 20
-1458.077763432566
 11
1477.0
 21
-1458.077763432566
  0
LINE
  5
125
100
AcDbEntity
  8
1
  6
CONTINUOUS
 62
           3
100
AcDbLine
 10
1479.0
 20
-1456.077763432566
 11
1479.0
 21
-1435.077763432566
  0
LINE
  5
124
100
AcDbEntity
  8
1
  6
CONTINUOUS
 62
           3
100
AcDbLine
 10
1483.0
 20
-1431.077763432566
 11
1504.0
 21
-1431.077763432566
  0
LINE
  5
123
100
AcDbEntity
  8
1
  6
CONTINUOUS
 62
           3
100
AcDbLine
 10
1476.0
 20
-1458.077763432566
 11
1272.999999999998
 21
-1458.077763432566
  0
LINE
  5
122
100
AcDbEntity
  8
1
  6
CONTINUOUS
 62
           3
100
AcDbLine
 10
1275.999999999998
 20
-1648.077763432566
 11
1274.999999999998
 21
-1648.077763432566
  0
LINE
  5
121
100
AcDbEntity
  8
1
  6
CONTINUOUS
 62
           3
100
AcDbLine
 10
1272.999999999998
 20
-1650.077763432566
 11
1272.999999999998
 21
-1671.077763432566
  0
LINE
  5
120
100
AcDbEntity
  8
1
  6
CONTINUOUS
 62
           3
100
AcDbLine
 10
1268.999999999998
 20
-1675.077763432566
 11
1247.999999999998
 21
-1675.077763432566
  0
LINE
  5
11F
100
AcDbEntity
  8
1
  6
CONTINUOUS
 62
           3
100
AcDbLine
 10
1245.999999999998
 20
-1677.077763432566
 11
1245.999999999998
 21
-1678.077763432566
  0
LINE
  5
11E
100
AcDbEntity
  8
1
  6
CONTINUOUS
 62
           3
100
AcDbLine
 10
1477.0
 20
-1648.077763432566
 11
1476.0
 21
-1648.077763432566
  0
LINE
  5
11D
100
AcDbEntity
  8
1
  6
CONTINUOUS
 62
           3
100
AcDbLine
 10
1479.0
 20
-1671.077763432566
 11
1479.0
 21
-1650.077763432566
  0
LINE
  5
11C
100
AcDbEntity
  8
1
  6
CONTINUOUS
 62
           3
100
AcDbLine
 10
1504.0
 20
-1675.077763432566
 11
1483.0
 21
-1675.077763432566
  0
LINE
  5
11B
100
AcDbEntity
  8
1
  6
CONTINUOUS
 62
           3
100
AcDbLine
 10
1506.0
 20
-1678.077763432566
 11
1506.0
 21
-1677.077763432566
  0
LINE
  5
11A
100
AcDbEntity
  8
1
  6
CONTINUOUS
 62
           3
100
AcDbLine
 10
1275.999999999995
 20
-1648.077763432566
 11
1476.0
 21
-1648.077763432566
  0
LINE
  5
119
100
AcDbEntity
  8
1
  6
CONTINUOUS
 62
           2
100
AcDbLine
 10
1476.0
 20
-1648.077763432566
 11
1476.0
 21
-1458.077763432566
  0
LINE
  5
118
100
AcDbEntity
  8
1
  6
CONTINUOUS
 62
           2
100
AcDbLine
 10
1275.999999999995
 20
-1458.077763432566
 11
1275.999999999995
 21
-1648.077763432566
  0
LINE
  5
117
100
AcDbEntity
  8
1
  6
CONTINUOUS
 62
           3
100
AcDbLine
 10
1479.0
 20
-1668.077763432566
 11
1525.999999999998
 21
-1668.077763432566
  0
LINE
  5
116
100
AcDbEntity
  8
1
  6
DOT_CENTER
 62
           3
100
AcDbLine
 10
3888.32066517767
 20
-1593.077763432569
 11
3888.32066517767
 21
-1678.077763432569
  0
LINE
  5
115
100
AcDbEntity
  8
1
  6
DOT_CENTER
 62
           3
100
AcDbLine
 10
3853.32066517767
 20
-1628.077763432569
 11
3923.32066517767
 21
-1628.077763432569
  0
LINE
  5
114
100
AcDbEntity
  8
1
  6
CONTINUOUS
 62
           2
100
AcDbLine
 10
3238.320665177669
 20
-3208.077763432568
 11
4238.32066517767
 21
-3208.077763432568
  0
LINE
  5
113
100
AcDbEntity
  8
1
  6
CONTINUOUS
 62
           2
100
AcDbLine
 10
2888.320665177669
 20
-2428.077763432566
 11
3238.320665177669
 21
-2428.077763432566
  0
LINE
  5
112
100
AcDbEntity
  8
1
  6
CONTINUOUS
 62
           2
100
AcDbLine
 10
3238.320665177669
 20
-2189.077763432569
 11
3238.320665177669
 21
-1678.077763432569
  0
LINE
  5
111
100
AcDbEntity
  8
1
  6
CONTINUOUS
 62
           2
100
AcDbLine
 10
3161.32066517767
 20
-3033.077763432566
 11
3161.32066517767
 21
-3258.077763432568
  0
LINE
  5
110
100
AcDbEntity
  8
1
  6
CONTINUOUS
 62
           2
100
AcDbLine
 10
2888.320665177669
 20
-2428.077763432566
 11
2888.320665177669
 21
-2378.077763432566
  0
LINE
  5
10F
100
AcDbEntity
  8
1
  6
CONTINUOUS
 62
           2
100
AcDbLine
 10
3125.32066517767
 20
-3171.077763432566
 11
3161.32066517767
 21
-3171.077763432566
  0
LINE
  5
10E
100
AcDbEntity
  8
1
  6
CONTINUOUS
 62
           2
100
AcDbLine
 10
3125.32066517767
 20
-2428.077763432566
 11
3125.32066517767
 21
-2833.077763432568
  0
LINE
  5
10D
100
AcDbEntity
  8
1
  6
CONTINUOUS
 62
           2
100
AcDbLine
 10
3125.320665177672
 20
-3033.077763432568
 11
3125.32066517767
 21
-3171.077763432566
  0
LINE
  5
10C
100
AcDbEntity
  8
1
  6
CONTINUOUS
 62
           2
100
AcDbLine
 10
1749.999999999998
 20
-48.999999924977
 11
1749.999999999998
 21
1.000000075023
  0
LINE
  5
10B
100
AcDbEntity
  8
1
  6
CONTINUOUS
 62
           2
100
AcDbLine
 10
1674.999999999998
 20
-3208.077763432568
 11
2249.999999999999
 21
-3208.077763432568
  0
LINE
  5
10A
100
AcDbEntity
  8
1
  6
CONTINUOUS
 62
           3
100
AcDbLine
 10
1855.637427209256
 20
-2471.515793617644
 11
1856.022971212782
 21
-2471.515793617644
  0
LINE
  5
109
100
AcDbEntity
  8
1
  6
CONTINUOUS
 62
           3
100
AcDbLine
 10
1810.548055990677
 20
-2422.693888792325
 11
1843.107247092963
 21
-2422.693888792325
  0
LINE
  5
108
100
AcDbEntity
  8
1
  6
DOT_CENTER
 62
           3
100
AcDbLine
 10
1826.999999999998
 20
-2399.827977977235
 11
1826.999999999998
 21
-2487.801682213657
  0
LINE
  5
107
100
AcDbEntity
  8
1
  6
CONTINUOUS
 62
           3
100
AcDbLine
 10
1791.999999999998
 20
-2482.142887685074
 11
1791.999999999998
 21
-2407.142887685074
  0
LINE
  5
106
100
AcDbEntity
  8
1
  6
CONTINUOUS
 62
           3
100
AcDbLine
 10
1861.999999999998
 20
-2482.142887685074
 11
1791.999999999998
 21
-2482.142887685074
  0
LINE
  5
105
100
AcDbEntity
  8
1
  6
CONTINUOUS
 62
           3
100
AcDbLine
 10
1861.999999999998
 20
-2407.142887685074
 11
1861.999999999998
 21
-2482.142887685074
  0
LINE
  5
104
100
AcDbEntity
  8
1
  6
CONTINUOUS
 62
           3
100
AcDbLine
 10
1791.999999999998
 20
-2407.142887685074
 11
1861.999999999998
 21
-2407.142887685074
  0
LINE
  5
103
100
AcDbEntity
  8
1
  6
DOT_CENTER
 62
           3
100
AcDbLine
 10
1864.806438656092
 20
-2446.142887685074
 11
1812.658454166781
 21
-2446.142887685074
  0
LINE
  5
102
100
AcDbEntity
  8
1
  6
CONTINUOUS
 62
           3
100
AcDbLine
 10
1853.999999999998
 20
-2468.694405217545
 11
1853.999999999998
 21
-2477.238419020426
  0
LINE
  5
101
100
AcDbEntity
  8
1
  6
CONTINUOUS
 62
           3
100
AcDbLine
 10
1850.299027010476
 20
-2472.142887685074
 11
1857.992043998941
 21
-2472.142887685074
  0
LINE
  5
100
100
AcDbEntity
  8
1
  6
CONTINUOUS
 62
           3
100
AcDbLine
 10
1853.999999999998
 20
-2413.694405217545
 11
1853.999999999998
 21
-2422.238419020426
  0
LINE
  5
FF
100
AcDbEntity
  8
1
  6
CONTINUOUS
 62
           3
100
AcDbLine
 10
1850.299027010476
 20
-2417.142887685074
 11
1857.992043998941
 21
-2417.142887685074
  0
LINE
  5
FE
100
AcDbEntity
  8
1
  6
CONTINUOUS
 62
           3
100
AcDbLine
 10
75.0
 20
1000.0
 11
1574.999999999998
 21
1000.0
  0
LINE
  5
FD
100
AcDbEntity
  8
1
  6
PHANTOM
 62
           3
100
AcDbLine
 10
1601.999999999998
 20
-112.0
 11
1601.999999999998
 21
-879.0
  0
LINE
  5
FC
100
AcDbEntity
  8
1
  6
PHANTOM
 62
           3
100
AcDbLine
 10
-340.500000000001
 20
-774.901738740509
 11
42.999999999999
 21
-110.660254037844
  0
LINE
  5
FB
100
AcDbEntity
  8
1
  6
CONTINUOUS
 62
           2
100
AcDbLine
 10
331.999999999994
 20
-1863.76479864192
 11
251.999999999994
 21
-1863.76479864192
  0
LINE
  5
FA
100
AcDbEntity
  8
1
  6
CONTINUOUS
 62
           2
100
AcDbLine
 10
251.999999999994
 20
-1863.76479864192
 11
251.999999999994
 21
-1963.76479864192
  0
LINE
  5
F9
100
AcDbEntity
  8
1
  6
CONTINUOUS
 62
           2
100
AcDbLine
 10
251.999999999994
 20
-1963.76479864192
 11
331.999999999994
 21
-1963.76479864192
  0
LINE
  5
F8
100
AcDbEntity
  8
1
  6
CONTINUOUS
 62
           2
100
AcDbLine
 10
331.999999999994
 20
-1963.76479864192
 11
331.999999999994
 21
-1863.76479864192
  0
LINE
  5
F7
100
AcDbEntity
  8
1
  6
CONTINUOUS
 62
           2
100
AcDbLine
 10
1397.999999999998
 20
-1863.76479864192
 11
1317.999999999998
 21
-1863.76479864192
  0
LINE
  5
F6
100
AcDbEntity
  8
1
  6
CONTINUOUS
 62
           2
100
AcDbLine
 10
1317.999999999998
 20
-1863.76479864192
 11
1317.999999999998
 21
-1963.76479864192
  0
LINE
  5
F5
100
AcDbEntity
  8
1
  6
CONTINUOUS
 62
           2
100
AcDbLine
 10
1317.999999999998
 20
-1963.76479864192
 11
1397.999999999998
 21
-1963.76479864192
  0
LINE
  5
F4
100
AcDbEntity
  8
1
  6
CONTINUOUS
 62
           2
100
AcDbLine
 10
1397.999999999998
 20
-1963.76479864192
 11
1397.999999999998
 21
-1863.76479864192
  0
LINE
  5
F3
100
AcDbEntity
  8
1
  6
CONTINUOUS
 62
           2
100
AcDbLine
 10
3288.320665177669
 20
-2335.07776343257
 11
3368.320665177669
 21
-2335.07776343257
  0
LINE
  5
F2
100
AcDbEntity
  8
1
  6
CONTINUOUS
 62
           2
100
AcDbLine
 10
3368.320665177669
 20
-2335.07776343257
 11
3368.320665177669
 21
-2235.07776343257
  0
LINE
  5
F1
100
AcDbEntity
  8
1
  6
CONTINUOUS
 62
           2
100
AcDbLine
 10
3368.320665177669
 20
-2235.07776343257
 11
3288.320665177669
 21
-2235.07776343257
  0
LINE
  5
F0
100
AcDbEntity
  8
1
  6
CONTINUOUS
 62
           2
100
AcDbLine
 10
3288.320665177669
 20
-2235.07776343257
 11
3288.320665177669
 21
-2335.07776343257
  0
LINE
  5
EF
100
AcDbEntity
  8
1
  6
CONTINUOUS
 62
           3
100
AcDbLine
 10
43.999999999991
 20
-3106.077763432567
 11
43.999999999991
 21
-2956.077763432566
  0
LINE
  5
EE
100
AcDbEntity
  8
1
  6
CONTINUOUS
 62
           2
100
AcDbLine
 10
4133.32066517767
 20
-1754.077763432568
 11
4238.320665177672
 21
-1754.077763432568
  0
LINE
  5
ED
100
AcDbEntity
  8
1
  6
CONTINUOUS
 62
           3
100
AcDbLine
 10
2032.999999999997
 20
177.200000075023
 11
2032.999999999997
 21
157.000000075023
  0
LINE
  5
EC
100
AcDbEntity
  8
1
  6
CONTINUOUS
 62
           2
100
AcDbLine
 10
2029.999999999997
 20
177.200000075023
 11
2029.999999999997
 21
157.000000075023
  0
LINE
  5
EB
100
AcDbEntity
  8
1
  6
CONTINUOUS
 62
           2
100
AcDbLine
 10
2179.999999999997
 20
207.500000075023
 11
2200.999999999997
 21
207.500000075023
  0
LINE
  5
EA
100
AcDbEntity
  8
1
  6
CONTINUOUS
 62
           3
100
AcDbLine
 10
2171.999999999997
 20
315.600000075023
 11
2171.999999999997
 21
345.000000075023
  0
LINE
  5
E9
100
AcDbEntity
  8
1
  6
CONTINUOUS
 62
           3
100
AcDbLine
 10
2032.999999999997
 20
345.000000075023
 11
2032.999999999997
 21
324.800000075024
  0
LINE
  5
E8
100
AcDbEntity
  8
1
  6
CONTINUOUS
 62
           3
100
AcDbLine
 10
2168.999999999997
 20
348.000000075023
 11
2035.999999999997
 21
348.000000075023
  0
LINE
  5
E7
100
AcDbEntity
  8
1
  6
CONTINUOUS
 62
           3
100
AcDbLine
 10
2171.999999999997
 20
157.000000075023
 11
2171.999999999997
 21
186.400000075023
  0
LINE
  5
E6
100
AcDbEntity
  8
1
  6
CONTINUOUS
 62
           3
100
AcDbLine
 10
2035.999999999997
 20
154.000000075023
 11
2168.999999999997
 21
154.000000075023
  0
LINE
  5
E5
100
AcDbEntity
  8
1
  6
DOT_CENTER
 62
           3
100
AcDbLine
 10
1977.2912959374
 20
251.000000075023
 11
2227.03395557801
 21
251.000000075023
  0
LINE
  5
E4
100
AcDbEntity
  8
1
  6
CONTINUOUS
 62
           2
100
AcDbLine
 10
2029.999999999997
 20
345.000000075023
 11
2029.999999999997
 21
324.800000075024
  0
LINE
  5
E3
100
AcDbEntity
  8
1
  6
CONTINUOUS
 62
           2
100
AcDbLine
 10
2200.999999999997
 20
184.500000075023
 11
2174.999999999997
 21
184.500000075023
  0
LINE
  5
E2
100
AcDbEntity
  8
1
  6
CONTINUOUS
 62
           2
100
AcDbLine
 10
2202.999999999997
 20
205.500000075023
 11
2202.999999999997
 21
186.500000075023
  0
LINE
  5
E1
100
AcDbEntity
  8
1
  6
CONTINUOUS
 62
           2
100
AcDbLine
 10
2175.999999999997
 20
317.500000075023
 11
2175.999999999997
 21
345.000000075023
  0
LINE
  5
E0
100
AcDbEntity
  8
1
  6
CONTINUOUS
 62
           2
100
AcDbLine
 10
2200.999999999997
 20
294.500000075023
 11
2179.999999999997
 21
294.500000075023
  0
LINE
  5
DF
100
AcDbEntity
  8
1
  6
CONTINUOUS
 62
           2
100
AcDbLine
 10
2202.999999999997
 20
315.500000075023
 11
2202.999999999997
 21
296.500000075023
  0
LINE
  5
DE
100
AcDbEntity
  8
1
  6
CONTINUOUS
 62
           2
100
AcDbLine
 10
2174.999999999997
 20
317.500000075023
 11
2200.999999999997
 21
317.500000075023
  0
LINE
  5
DD
100
AcDbEntity
  8
1
  6
CONTINUOUS
 62
           2
100
AcDbLine
 10
2094.499999999997
 20
149.000000075023
 11
2111.499999999997
 21
149.000000075023
  0
LINE
  5
DC
100
AcDbEntity
  8
1
  6
CONTINUOUS
 62
           2
100
AcDbLine
 10
2102.999999999997
 20
149.000000075023
 11
2102.999999999997
 21
142.759189453578
  0
LINE
  5
DB
100
AcDbEntity
  8
1
  6
CONTINUOUS
 62
           2
100
AcDbLine
 10
2111.499999999997
 20
142.000000075023
 11
2111.499999999997
 21
149.000000075023
  0
LINE
  5
DA
100
AcDbEntity
  8
1
  6
CONTINUOUS
 62
           2
100
AcDbLine
 10
2094.499999999997
 20
142.000000075023
 11
2111.499999999997
 21
142.000000075023
  0
LINE
  5
D9
100
AcDbEntity
  8
1
  6
CONTINUOUS
 62
           2
100
AcDbLine
 10
2094.499999999997
 20
149.000000075023
 11
2094.499999999997
 21
142.000000075023
  0
LINE
  5
D8
100
AcDbEntity
  8
1
  6
CONTINUOUS
 62
           2
100
AcDbLine
 10
2114.999999999997
 20
151.000000075023
 11
2169.999999999997
 21
151.000000075023
  0
LINE
  5
D7
100
AcDbEntity
  8
1
  6
CONTINUOUS
 62
           2
100
AcDbLine
 10
2090.999999999997
 20
154.000000075023
 11
2090.999999999997
 21
149.000000075023
  0
LINE
  5
D6
100
AcDbEntity
  8
1
  6
CONTINUOUS
 62
           2
100
AcDbLine
 10
2114.999999999997
 20
149.000000075023
 11
2114.999999999997
 21
154.000000075023
  0
LINE
  5
D5
100
AcDbEntity
  8
1
  6
CONTINUOUS
 62
           2
100
AcDbLine
 10
2090.999999999997
 20
149.000000075023
 11
2114.999999999997
 21
149.000000075023
  0
LINE
  5
D4
100
AcDbEntity
  8
1
  6
CONTINUOUS
 62
           2
100
AcDbLine
 10
2175.999999999997
 20
157.000000075023
 11
2175.999999999997
 21
184.500000075023
  0
LINE
  5
D3
100
AcDbEntity
  8
1
  6
CONTINUOUS
 62
           2
100
AcDbLine
 10
2035.999999999997
 20
151.000000075023
 11
2090.999999999997
 21
151.000000075023
  0
LINE
  5
D2
100
AcDbEntity
  8
1
  6
CONTINUOUS
 62
           2
100
AcDbLine
 10
2169.999999999997
 20
351.000000075023
 11
2035.999999999997
 21
351.000000075023
  0
LINE
  5
D1
100
AcDbEntity
  8
1
  6
CONTINUOUS
 62
           2
100
AcDbLine
 10
2167.499999999997
 20
218.148888385105
 11
2143.499999999997
 21
218.148888385105
  0
LINE
  5
D0
100
AcDbEntity
  8
1
  6
CONTINUOUS
 62
           2
100
AcDbLine
 10
2143.499999999997
 20
215.173754385189
 11
2131.499999999997
 21
215.173754385189
  0
LINE
  5
CF
100
AcDbEntity
  8
1
  6
CONTINUOUS
 62
           3
100
AcDbLine
 10
2167.499999999997
 20
207.798157889268
 11
2107.499999999997
 21
207.798157889268
  0
LINE
  5
CE
100
AcDbEntity
  8
1
  6
CONTINUOUS
 62
           2
100
AcDbLine
 10
2143.499999999997
 20
225.036340115041
 11
2131.499999999997
 21
225.036340115041
  0
LINE
  5
CD
100
AcDbEntity
  8
1
  6
CONTINUOUS
 62
           2
100
AcDbLine
 10
2143.499999999997
 20
215.173754385189
 11
2143.499999999997
 21
226.37123265797
  0
LINE
  5
CC
100
AcDbEntity
  8
1
  6
CONTINUOUS
 62
           2
100
AcDbLine
 10
2143.499999999997
 20
226.37123265797
 11
2131.499999999997
 21
226.37123265797
  0
LINE
  5
CB
100
AcDbEntity
  8
1
  6
CONTINUOUS
 62
           2
100
AcDbLine
 10
2131.499999999997
 20
215.173754385189
 11
2131.499999999997
 21
226.37123265797
  0
LINE
  5
CA
100
AcDbEntity
  8
1
  6
CONTINUOUS
 62
           2
100
AcDbLine
 10
2179.999999999997
 20
186.400000075023
 11
2167.499999999997
 21
186.400000075023
  0
LINE
  5
C9
100
AcDbEntity
  8
1
  6
CONTINUOUS
 62
           2
100
AcDbLine
 10
2167.499999999997
 20
174.5641391735
 11
2167.499999999997
 21
218.148888385105
  0
LINE
  5
C8
100
AcDbEntity
  8
1
  6
CONTINUOUS
 62
           2
100
AcDbLine
 10
2131.499999999997
 20
218.148888385105
 11
2107.499999999997
 21
218.148888385105
  0
LINE
  5
C7
100
AcDbEntity
  8
1
  6
CONTINUOUS
 62
           2
100
AcDbLine
 10
2107.499999999997
 20
218.148888385105
 11
2107.499999999997
 21
174.5641391735
  0
LINE
  5
C6
100
AcDbEntity
  8
1
  6
CONTINUOUS
 62
           2
100
AcDbLine
 10
2107.499999999997
 20
174.5641391735
 11
2167.499999999997
 21
174.5641391735
  0
LINE
  5
C5
100
AcDbEntity
  8
1
  6
DOT_CENTER
 62
           3
100
AcDbLine
 10
2102.999999999997
 20
332.441759397767
 11
2102.999999999997
 21
177.911241708458
  0
LINE
  5
C4
100
AcDbEntity
  8
1
  6
CONTINUOUS
 62
           2
100
AcDbLine
 10
2039.999999999997
 20
315.600000075023
 11
2179.999999999997
 21
315.600000075023
  0
LINE
  5
C3
100
AcDbEntity
  8
1
  6
CONTINUOUS
 62
           2
100
AcDbLine
 10
2222.999999999997
 20
258.000000075023
 11
2192.999999999997
 21
258.000000075023
  0
LINE
  5
C2
100
AcDbEntity
  8
1
  6
CONTINUOUS
 62
           2
100
AcDbLine
 10
2222.999999999997
 20
244.000000075023
 11
2222.999999999997
 21
258.000000075023
  0
LINE
  5
C1
100
AcDbEntity
  8
1
  6
CONTINUOUS
 62
           2
100
AcDbLine
 10
2192.999999999997
 20
244.000000075023
 11
2222.999999999997
 21
244.000000075023
  0
LINE
  5
C0
100
AcDbEntity
  8
1
  6
CONTINUOUS
 62
           2
100
AcDbLine
 10
2192.999999999997
 20
258.000000075023
 11
2192.999999999997
 21
244.000000075023
  0
LINE
  5
BF
100
AcDbEntity
  8
1
  6
CONTINUOUS
 62
           2
100
AcDbLine
 10
2192.999999999997
 20
241.000000075023
 11
2192.999999999997
 21
244.000000075023
  0
LINE
  5
BE
100
AcDbEntity
  8
1
  6
CONTINUOUS
 62
           2
100
AcDbLine
 10
2189.999999999997
 20
241.000000075023
 11
2192.999999999997
 21
241.000000075023
  0
LINE
  5
BD
100
AcDbEntity
  8
1
  6
CONTINUOUS
 62
           2
100
AcDbLine
 10
2192.999999999997
 20
261.000000075023
 11
2192.999999999997
 21
258.000000075023
  0
LINE
  5
BC
100
AcDbEntity
  8
1
  6
CONTINUOUS
 62
           2
100
AcDbLine
 10
2189.999999999997
 20
261.000000075023
 11
2192.999999999997
 21
261.000000075023
  0
LINE
  5
BB
100
AcDbEntity
  8
1
  6
CONTINUOUS
 62
           2
100
AcDbLine
 10
1998.799999999998
 20
177.200000075023
 11
2039.999999999997
 21
177.200000075023
  0
LINE
  5
BA
100
AcDbEntity
  8
1
  6
CONTINUOUS
 62
           2
100
AcDbLine
 10
2039.999999999997
 20
177.200000075023
 11
2039.999999999997
 21
324.800000075024
  0
LINE
  5
B9
100
AcDbEntity
  8
1
  6
CONTINUOUS
 62
           3
100
AcDbLine
 10
1998.799999999998
 20
177.200000075023
 11
1998.799999999998
 21
324.800000075024
  0
LINE
  5
B8
100
AcDbEntity
  8
1
  6
CONTINUOUS
 62
           2
100
AcDbLine
 10
1987.999999999997
 20
191.000000075023
 11
1998.799999999998
 21
180.200000075023
  0
LINE
  5
B7
100
AcDbEntity
  8
1
  6
CONTINUOUS
 62
           3
100
AcDbLine
 10
1987.999999999997
 20
311.000000075023
 11
1987.999999999997
 21
191.000000075023
  0
LINE
  5
B6
100
AcDbEntity
  8
1
  6
CONTINUOUS
 62
           2
100
AcDbLine
 10
1998.799999999998
 20
321.800000075024
 11
1987.999999999997
 21
311.000000075023
  0
LINE
  5
B5
100
AcDbEntity
  8
1
  6
CONTINUOUS
 62
           2
100
AcDbLine
 10
1998.799999999998
 20
324.800000075024
 11
1998.799999999998
 21
321.800000075024
  0
LINE
  5
B4
100
AcDbEntity
  8
1
  6
CONTINUOUS
 62
           2
100
AcDbLine
 10
1984.999999999997
 20
191.000000075023
 11
1987.999999999997
 21
191.000000075023
  0
LINE
  5
B3
100
AcDbEntity
  8
1
  6
CONTINUOUS
 62
           2
100
AcDbLine
 10
1987.999999999997
 20
311.000000075023
 11
1984.999999999997
 21
311.000000075023
  0
LINE
  5
B2
100
AcDbEntity
  8
1
  6
CONTINUOUS
 62
           2
100
AcDbLine
 10
1984.999999999997
 20
311.000000075023
 11
1984.999999999997
 21
191.000000075023
  0
LINE
  5
B1
100
AcDbEntity
  8
1
  6
CONTINUOUS
 62
           2
100
AcDbLine
 10
2039.999999999997
 20
324.800000075024
 11
1998.799999999998
 21
324.800000075024
  0
LINE
  5
B0
100
AcDbEntity
  8
1
  6
CONTINUOUS
 62
           2
100
AcDbLine
 10
1998.799999999998
 20
180.200000075023
 11
1998.799999999998
 21
177.200000075023
  0
LINE
  5
AF
100
AcDbEntity
  8
1
  6
CONTINUOUS
 62
           2
100
AcDbLine
 10
2189.999999999997
 20
231.000000075023
 11
2179.999999999997
 21
231.000000075023
  0
LINE
  5
AE
100
AcDbEntity
  8
1
  6
CONTINUOUS
 62
           2
100
AcDbLine
 10
2189.999999999997
 20
271.000000075023
 11
2189.999999999997
 21
231.000000075023
  0
LINE
  5
AD
100
AcDbEntity
  8
1
  6
CONTINUOUS
 62
           2
100
AcDbLine
 10
2179.999999999997
 20
271.000000075023
 11
2189.999999999997
 21
271.000000075023
  0
LINE
  5
AC
100
AcDbEntity
  8
1
  6
CONTINUOUS
 62
           2
100
AcDbLine
 10
2107.499999999997
 20
186.400000075023
 11
2039.999999999997
 21
186.400000075023
  0
LINE
  5
AB
100
AcDbEntity
  8
1
  6
CONTINUOUS
 62
           2
100
AcDbLine
 10
2179.999999999997
 20
315.600000075023
 11
2179.999999999997
 21
186.400000075023
  0
LINE
  5
AA
100
AcDbEntity
  8
1
  6
CONTINUOUS
 62
           2
100
AcDbLine
 10
1979.999999999997
 20
631.000000075023
 11
2007.299999999998
 21
631.000000075023
  0
LINE
  5
A9
100
AcDbEntity
  8
1
  6
CONTINUOUS
 62
           2
100
AcDbLine
 10
1979.999999999997
 20
611.000000075023
 11
2007.299999999998
 21
611.000000075023
  0
LINE
  5
A8
100
AcDbEntity
  8
1
  6
CONTINUOUS
 62
           2
100
AcDbLine
 10
1979.999999999997
 20
871.000000075023
 11
2224.999999999997
 21
871.000000075023
  0
LINE
  5
A7
100
AcDbEntity
  8
1
  6
CONTINUOUS
 62
           2
100
AcDbLine
 10
1979.999999999997
 20
756.000000075023
 11
2199.999999999997
 21
756.000000075023
  0
LINE
  5
A6
100
AcDbEntity
  8
1
  6
CONTINUOUS
 62
           2
100
AcDbLine
 10
1979.999999999997
 20
731.000000075023
 11
2179.999999999997
 21
731.000000075023
  0
LINE
  5
A5
100
AcDbEntity
  8
1
  6
CONTINUOUS
 62
           2
100
AcDbLine
 10
1724.999999999998
 20
81.000000075023
 11
1724.999999999998
 21
386.000000075023
  0
LINE
  5
A4
100
AcDbEntity
  8
1
  6
CONTINUOUS
 62
           2
100
AcDbLine
 10
2090.999999999997
 20
151.000000075023
 11
1749.999999999998
 21
151.000000075023
  0
LINE
  5
A3
100
AcDbEntity
  8
1
  6
CONTINUOUS
 62
           2
100
AcDbLine
 10
2199.999999999997
 20
207.500000075023
 11
2199.999999999997
 21
294.500000075023
  0
LINE
  5
A2
100
AcDbEntity
  8
1
  6
CONTINUOUS
 62
           2
100
AcDbLine
 10
2199.999999999997
 20
317.500000075023
 11
2199.999999999997
 21
846.000000075023
  0
LINE
  5
A1
100
AcDbEntity
  8
1
  6
CONTINUOUS
 62
           2
100
AcDbLine
 10
1984.999999999997
 20
286.000000075023
 11
1749.999999999998
 21
286.000000075023
  0
LINE
  5
A0
100
AcDbEntity
  8
1
  6
PHANTOM
 62
           3
100
AcDbLine
 10
2239.999999999997
 20
163.500000075023
 11
2214.999999999997
 21
163.500000075023
  0
LINE
  5
9F
100
AcDbEntity
  8
1
  6
PHANTOM
 62
           3
100
AcDbLine
 10
2214.999999999997
 20
163.500000075023
 11
2214.999999999997
 21
338.500000075023
  0
LINE
  5
9E
100
AcDbEntity
  8
1
  6
PHANTOM
 62
           3
100
AcDbLine
 10
2214.999999999997
 20
338.500000075023
 11
2239.999999999997
 21
338.500000075023
  0
LINE
  5
9D
100
AcDbEntity
  8
1
  6
PHANTOM
 62
           3
100
AcDbLine
 10
2239.999999999997
 20
338.500000075023
 11
2239.999999999997
 21
163.500000075023
  0
LINE
  5
9C
100
AcDbEntity
  8
1
  6
PHANTOM
 62
           3
100
AcDbLine
 10
2214.999999999997
 20
226.000000075023
 11
2194.999999999997
 21
226.000000075023
  0
LINE
  5
9B
100
AcDbEntity
  8
1
  6
PHANTOM
 62
           3
100
AcDbLine
 10
2194.999999999997
 20
226.000000075023
 11
2194.999999999997
 21
276.000000075023
  0
LINE
  5
9A
100
AcDbEntity
  8
1
  6
PHANTOM
 62
           3
100
AcDbLine
 10
2194.999999999997
 20
276.000000075023
 11
2214.999999999997
 21
276.000000075023
  0
LINE
  5
99
100
AcDbEntity
  8
1
  6
CONTINUOUS
 62
           2
100
AcDbLine
 10
2179.999999999997
 20
731.000000075023
 11
2179.999999999997
 21
631.000000075023
  0
LINE
  5
98
100
AcDbEntity
  8
1
  6
CONTINUOUS
 62
           2
100
AcDbLine
 10
2179.999999999997
 20
511.000000075023
 11
1979.999999999997
 21
511.000000075023
  0
LINE
  5
97
100
AcDbEntity
  8
1
  6
DOT_CENTER
 62
           3
100
AcDbLine
 10
1625.50996871923
 20
621.000000075023
 11
2253.595442954304
 21
621.000000075023
  0
LINE
  5
96
100
AcDbEntity
  8
1
  6
CONTINUOUS
 62
           2
100
AcDbLine
 10
1724.999999999998
 20
81.000000075023
 11
1749.999999999998
 21
81.000000075023
  0
LINE
  5
95
100
AcDbEntity
  8
1
  6
CONTINUOUS
 62
           2
100
AcDbLine
 10
1749.999999999998
 20
81.000000075023
 11
1749.999999999998
 21
386.000000075023
  0
LINE
  5
94
100
AcDbEntity
  8
1
  6
CONTINUOUS
 62
           2
100
AcDbLine
 10
2224.999999999997
 20
871.000000075023
 11
2224.999999999997
 21
631.000000075023
  0
LINE
  5
93
100
AcDbEntity
  8
1
  6
CONTINUOUS
 62
           2
100
AcDbLine
 10
2224.999999999997
 20
81.000000075023
 11
2199.999999999997
 21
81.000000075023
  0
LINE
  5
92
100
AcDbEntity
  8
1
  6
CONTINUOUS
 62
           2
100
AcDbLine
 10
2199.999999999997
 20
81.000000075023
 11
2199.999999999997
 21
184.500000075023
  0
LINE
  5
91
100
AcDbEntity
  8
1
  6
CONTINUOUS
 62
           2
100
AcDbLine
 10
2199.999999999997
 20
846.000000075023
 11
2199.999999999997
 21
871.000000075023
  0
LINE
  5
90
100
AcDbEntity
  8
1
  6
CONTINUOUS
 62
           2
100
AcDbLine
 10
2199.999999999997
 20
846.000000075023
 11
1979.999999999997
 21
846.000000075023
  0
LINE
  5
8F
100
AcDbEntity
  8
1
  6
CONTINUOUS
 62
           2
100
AcDbLine
 10
2199.999999999997
 20
486.000000075023
 11
1979.999999999997
 21
486.000000075023
  0
LINE
  5
8E
100
AcDbEntity
  8
1
  6
CONTINUOUS
 62
           2
100
AcDbLine
 10
1749.999999999998
 20
351.000000075023
 11
2199.999999999997
 21
351.000000075023
  0
LINE
  5
8D
100
AcDbEntity
  8
1
  6
CONTINUOUS
 62
           2
100
AcDbLine
 10
1749.999999999998
 20
216.000000075023
 11
1984.999999999997
 21
216.000000075023
  0
LINE
  5
8C
100
AcDbEntity
  8
1
  6
CONTINUOUS
 62
           2
100
AcDbLine
 10
2199.999999999997
 20
151.000000075023
 11
2114.999999999997
 21
151.000000075023
  0
LINE
  5
8B
100
AcDbEntity
  8
1
  6
PHANTOM
 62
           3
100
AcDbLine
 10
2264.999999999997
 20
121.000000075023
 11
2264.999999999997
 21
771.000000075023
  0
LINE
  5
8A
100
AcDbEntity
  8
1
  6
PHANTOM
 62
           3
100
AcDbLine
 10
2264.999999999997
 20
771.000000075023
 11
2182.999999999997
 21
771.000000075023
  0
LINE
  5
89
100
AcDbEntity
  8
1
  6
PHANTOM
 62
           3
100
AcDbLine
 10
2182.999999999997
 20
771.000000075023
 11
2182.999999999997
 21
121.000000075023
  0
LINE
  5
88
100
AcDbEntity
  8
1
  6
PHANTOM
 62
           3
100
AcDbLine
 10
2182.999999999997
 20
121.000000075023
 11
2264.999999999997
 21
121.000000075023
  0
LINE
  5
87
100
AcDbEntity
  8
1
  6
CONTINUOUS
 62
           2
100
AcDbLine
 10
2239.999999999997
 20
611.000000075023
 11
2239.999999999997
 21
631.000000075023
  0
LINE
  5
86
100
AcDbEntity
  8
1
  6
PHANTOM
 62
           3
100
AcDbLine
 10
2239.999999999997
 20
558.500000075023
 11
2214.999999999997
 21
558.500000075023
  0
LINE
  5
85
100
AcDbEntity
  8
1
  6
PHANTOM
 62
           3
100
AcDbLine
 10
2214.999999999997
 20
558.500000075023
 11
2214.999999999997
 21
683.500000075023
  0
LINE
  5
84
100
AcDbEntity
  8
1
  6
PHANTOM
 62
           3
100
AcDbLine
 10
2214.999999999997
 20
683.500000075023
 11
2239.999999999997
 21
683.500000075023
  0
LINE
  5
83
100
AcDbEntity
  8
1
  6
PHANTOM
 62
           3
100
AcDbLine
 10
2239.999999999997
 20
683.500000075023
 11
2239.999999999997
 21
558.500000075023
  0
LINE
  5
82
100
AcDbEntity
  8
1
  6
PHANTOM
 62
           3
100
AcDbLine
 10
2214.999999999997
 20
596.000000075023
 11
2194.999999999997
 21
596.000000075023
  0
LINE
  5
81
100
AcDbEntity
  8
1
  6
PHANTOM
 62
           3
100
AcDbLine
 10
2194.999999999997
 20
596.000000075023
 11
2194.999999999997
 21
646.000000075023
  0
LINE
  5
80
100
AcDbEntity
  8
1
  6
PHANTOM
 62
           3
100
AcDbLine
 10
2194.999999999997
 20
646.000000075023
 11
2214.999999999997
 21
646.000000075023
  0
LINE
  5
7F
100
AcDbEntity
  8
1
  6
CONTINUOUS
 62
           2
100
AcDbLine
 10
2166.999999999997
 20
611.000000075023
 11
2239.999999999997
 21
611.000000075023
  0
LINE
  5
7E
100
AcDbEntity
  8
1
  6
CONTINUOUS
 62
           2
100
AcDbLine
 10
2239.999999999997
 20
631.000000075023
 11
2166.999999999997
 21
631.000000075023
  0
LINE
  5
7D
100
AcDbEntity
  8
1
  6
CONTINUOUS
 62
           2
100
AcDbLine
 10
2036.999999999997
 20
611.000000075023
 11
2137.299999999998
 21
611.000000075023
  0
LINE
  5
7C
100
AcDbEntity
  8
1
  6
CONTINUOUS
 62
           2
100
AcDbLine
 10
2036.999999999997
 20
631.000000075023
 11
2137.299999999998
 21
631.000000075023
  0
LINE
  5
7B
100
AcDbEntity
  8
1
  6
CONTINUOUS
 62
           2
100
AcDbLine
 10
2168.999999999997
 20
644.500000075023
 11
2168.999999999997
 21
682.500000075023
  0
LINE
  5
7A
100
AcDbEntity
  8
1
  6
CONTINUOUS
 62
           2
100
AcDbLine
 10
2166.999999999997
 20
684.500000075023
 11
2132.999999999997
 21
684.500000075023
  0
LINE
  5
79
100
AcDbEntity
  8
1
  6
CONTINUOUS
 62
           2
100
AcDbLine
 10
2130.999999999997
 20
682.500000075023
 11
2130.999999999997
 21
644.500000075023
  0
LINE
  5
78
100
AcDbEntity
  8
1
  6
CONTINUOUS
 62
           2
100
AcDbLine
 10
2132.999999999997
 20
642.500000075023
 11
2137.605389221554
 21
642.500000075023
  0
LINE
  5
77
100
AcDbEntity
  8
1
  6
CONTINUOUS
 62
           2
100
AcDbLine
 10
2130.999999999997
 20
559.500000075023
 11
2130.999999999997
 21
597.500000075023
  0
LINE
  5
76
100
AcDbEntity
  8
1
  6
CONTINUOUS
 62
           2
100
AcDbLine
 10
2132.999999999997
 20
599.500000075023
 11
2137.605389221554
 21
599.500000075023
  0
LINE
  5
75
100
AcDbEntity
  8
1
  6
CONTINUOUS
 62
           2
100
AcDbLine
 10
2168.999999999997
 20
597.500000075023
 11
2168.999999999997
 21
559.500000075023
  0
LINE
  5
74
100
AcDbEntity
  8
1
  6
CONTINUOUS
 62
           2
100
AcDbLine
 10
2166.999999999997
 20
557.500000075023
 11
2132.999999999997
 21
557.500000075023
  0
LINE
  5
73
100
AcDbEntity
  8
1
  6
CONTINUOUS
 62
           2
100
AcDbLine
 10
2166.999999999997
 20
606.500000075023
 11
2166.999999999997
 21
635.500000075023
  0
LINE
  5
72
100
AcDbEntity
  8
1
  6
CONTINUOUS
 62
           2
100
AcDbLine
 10
2166.499999999997
 20
636.000000075023
 11
2162.199999999998
 21
636.000000075023
  0
LINE
  5
71
100
AcDbEntity
  8
1
  6
CONTINUOUS
 62
           2
100
AcDbLine
 10
2137.299999999998
 20
635.500000075023
 11
2137.299999999998
 21
606.500000075023
  0
LINE
  5
70
100
AcDbEntity
  8
1
  6
CONTINUOUS
 62
           2
100
AcDbLine
 10
2166.499999999997
 20
606.000000075023
 11
2166.999999999997
 21
606.500000075023
  0
LINE
  5
6F
100
AcDbEntity
  8
1
  6
CONTINUOUS
 62
           2
100
AcDbLine
 10
2137.799999999998
 20
606.000000075023
 11
2137.299999999998
 21
606.500000075023
  0
LINE
  5
6E
100
AcDbEntity
  8
1
  6
CONTINUOUS
 62
           2
100
AcDbLine
 10
2137.299999999998
 20
635.500000075023
 11
2137.799999999998
 21
636.000000075023
  0
LINE
  5
6D
100
AcDbEntity
  8
1
  6
CONTINUOUS
 62
           2
100
AcDbLine
 10
2166.499999999997
 20
636.000000075023
 11
2166.999999999997
 21
635.500000075023
  0
LINE
  5
6C
100
AcDbEntity
  8
1
  6
CONTINUOUS
 62
           2
100
AcDbLine
 10
2137.299999999998
 20
652.700000075023
 11
2162.699999999998
 21
652.700000075023
  0
LINE
  5
6B
100
AcDbEntity
  8
1
  6
CONTINUOUS
 62
           2
100
AcDbLine
 10
2162.699999999998
 20
589.30000007502
 11
2137.299999999998
 21
589.30000007502
  0
LINE
  5
6A
100
AcDbEntity
  8
1
  6
CONTINUOUS
 62
           2
100
AcDbLine
 10
2137.299999999998
 20
652.700000075023
 11
2138.204301333152
 21
622.49633554766
  0
LINE
  5
69
100
AcDbEntity
  8
1
  6
CONTINUOUS
 62
           2
100
AcDbLine
 10
2138.204301333152
 20
619.503664602387
 11
2137.299999999998
 21
589.30000007502
  0
LINE
  5
68
100
AcDbEntity
  8
1
  6
CONTINUOUS
 62
           2
100
AcDbLine
 10
2162.699999999998
 20
589.30000007502
 11
2161.795698666843
 21
619.503664602387
  0
LINE
  5
67
100
AcDbEntity
  8
1
  6
CONTINUOUS
 62
           2
100
AcDbLine
 10
2161.795698666843
 20
622.49633554766
 11
2162.699999999998
 21
652.700000075023
  0
LINE
  5
66
100
AcDbEntity
  8
1
  6
CONTINUOUS
 62
           2
100
AcDbLine
 10
2162.39461077844
 20
642.500000075023
 11
2166.999999999997
 21
642.500000075023
  0
LINE
  5
65
100
AcDbEntity
  8
1
  6
CONTINUOUS
 62
           2
100
AcDbLine
 10
2162.39461077844
 20
599.500000075023
 11
2166.999999999997
 21
599.500000075023
  0
LINE
  5
64
100
AcDbEntity
  8
1
  6
CONTINUOUS
 62
           2
100
AcDbLine
 10
2162.199999999998
 20
606.000000075023
 11
2166.499999999997
 21
606.000000075023
  0
LINE
  5
63
100
AcDbEntity
  8
1
  6
CONTINUOUS
 62
           3
100
AcDbLine
 10
2162.699999999998
 20
599.500000075023
 11
2162.699999999998
 21
606.000000075023
  0
LINE
  5
62
100
AcDbEntity
  8
1
  6
CONTINUOUS
 62
           3
100
AcDbLine
 10
2162.699999999998
 20
636.000000075023
 11
2162.699999999998
 21
642.500000075023
  0
LINE
  5
61
100
AcDbEntity
  8
1
  6
CONTINUOUS
 62
           3
100
AcDbLine
 10
2137.299999999998
 20
599.500000075023
 11
2137.299999999998
 21
606.500000075023
  0
LINE
  5
60
100
AcDbEntity
  8
1
  6
CONTINUOUS
 62
           3
100
AcDbLine
 10
2137.299999999998
 20
635.500000075023
 11
2137.299999999998
 21
642.500000075023
  0
LINE
  5
5F
100
AcDbEntity
  8
1
  6
CONTINUOUS
 62
           2
100
AcDbLine
 10
2038.999999999997
 20
644.500000075023
 11
2038.999999999997
 21
682.500000075023
  0
LINE
  5
5E
100
AcDbEntity
  8
1
  6
CONTINUOUS
 62
           2
100
AcDbLine
 10
2036.999999999997
 20
684.500000075023
 11
2002.999999999997
 21
684.500000075023
  0
LINE
  5
5D
100
AcDbEntity
  8
1
  6
CONTINUOUS
 62
           2
100
AcDbLine
 10
2000.999999999997
 20
682.500000075023
 11
2000.999999999997
 21
644.500000075023
  0
LINE
  5
5C
100
AcDbEntity
  8
1
  6
CONTINUOUS
 62
           2
100
AcDbLine
 10
2002.999999999997
 20
642.500000075023
 11
2007.605389221554
 21
642.500000075023
  0
LINE
  5
5B
100
AcDbEntity
  8
1
  6
CONTINUOUS
 62
           2
100
AcDbLine
 10
2000.999999999997
 20
559.500000075023
 11
2000.999999999997
 21
597.500000075023
  0
LINE
  5
5A
100
AcDbEntity
  8
1
  6
CONTINUOUS
 62
           2
100
AcDbLine
 10
2002.999999999997
 20
599.500000075023
 11
2007.605389221554
 21
599.500000075023
  0
LINE
  5
59
100
AcDbEntity
  8
1
  6
CONTINUOUS
 62
           2
100
AcDbLine
 10
2038.999999999997
 20
597.500000075023
 11
2038.999999999997
 21
559.500000075023
  0
LINE
  5
58
100
AcDbEntity
  8
1
  6
CONTINUOUS
 62
           2
100
AcDbLine
 10
2036.999999999997
 20
557.500000075023
 11
2002.999999999997
 21
557.500000075023
  0
LINE
  5
57
100
AcDbEntity
  8
1
  6
CONTINUOUS
 62
           2
100
AcDbLine
 10
2036.999999999997
 20
606.500000075023
 11
2036.999999999997
 21
635.500000075023
  0
LINE
  5
56
100
AcDbEntity
  8
1
  6
CONTINUOUS
 62
           2
100
AcDbLine
 10
2036.499999999997
 20
636.000000075023
 11
2032.199999999998
 21
636.000000075023
  0
LINE
  5
55
100
AcDbEntity
  8
1
  6
CONTINUOUS
 62
           2
100
AcDbLine
 10
2007.299999999998
 20
635.500000075023
 11
2007.299999999998
 21
606.500000075023
  0
LINE
  5
54
100
AcDbEntity
  8
1
  6
CONTINUOUS
 62
           2
100
AcDbLine
 10
2036.499999999997
 20
606.000000075023
 11
2036.999999999997
 21
606.500000075023
  0
LINE
  5
53
100
AcDbEntity
  8
1
  6
CONTINUOUS
 62
           2
100
AcDbLine
 10
2007.799999999998
 20
606.000000075023
 11
2007.299999999998
 21
606.500000075023
  0
LINE
  5
52
100
AcDbEntity
  8
1
  6
CONTINUOUS
 62
           2
100
AcDbLine
 10
2007.299999999998
 20
635.500000075023
 11
2007.799999999998
 21
636.000000075023
  0
LINE
  5
51
100
AcDbEntity
  8
1
  6
CONTINUOUS
 62
           2
100
AcDbLine
 10
2036.499999999997
 20
636.000000075023
 11
2036.999999999997
 21
635.500000075023
  0
LINE
  5
50
100
AcDbEntity
  8
1
  6
CONTINUOUS
 62
           2
100
AcDbLine
 10
2007.299999999998
 20
652.700000075023
 11
2032.699999999998
 21
652.700000075023
  0
LINE
  5
4F
100
AcDbEntity
  8
1
  6
CONTINUOUS
 62
           2
100
AcDbLine
 10
2032.699999999998
 20
589.30000007502
 11
2007.299999999998
 21
589.30000007502
  0
LINE
  5
4E
100
AcDbEntity
  8
1
  6
CONTINUOUS
 62
           2
100
AcDbLine
 10
2007.299999999998
 20
652.700000075023
 11
2008.204301333152
 21
622.49633554766
  0
LINE
  5
4D
100
AcDbEntity
  8
1
  6
CONTINUOUS
 62
           2
100
AcDbLine
 10
2008.204301333152
 20
619.503664602387
 11
2007.299999999998
 21
589.30000007502
  0
LINE
  5
4C
100
AcDbEntity
  8
1
  6
CONTINUOUS
 62
           2
100
AcDbLine
 10
2032.699999999998
 20
589.30000007502
 11
2031.795698666842
 21
619.503664602387
  0
LINE
  5
4B
100
AcDbEntity
  8
1
  6
CONTINUOUS
 62
           2
100
AcDbLine
 10
2031.795698666842
 20
622.49633554766
 11
2032.699999999998
 21
652.700000075023
  0
LINE
  5
4A
100
AcDbEntity
  8
1
  6
CONTINUOUS
 62
           2
100
AcDbLine
 10
2032.39461077844
 20
642.500000075023
 11
2036.999999999997
 21
642.500000075023
  0
LINE
  5
49
100
AcDbEntity
  8
1
  6
CONTINUOUS
 62
           2
100
AcDbLine
 10
2032.39461077844
 20
599.500000075023
 11
2036.999999999997
 21
599.500000075023
  0
LINE
  5
48
100
AcDbEntity
  8
1
  6
CONTINUOUS
 62
           2
100
AcDbLine
 10
2032.199999999998
 20
606.000000075023
 11
2036.499999999997
 21
606.000000075023
  0
LINE
  5
47
100
AcDbEntity
  8
1
  6
CONTINUOUS
 62
           3
100
AcDbLine
 10
2032.699999999998
 20
599.500000075023
 11
2032.699999999998
 21
606.000000075023
  0
LINE
  5
46
100
AcDbEntity
  8
1
  6
CONTINUOUS
 62
           3
100
AcDbLine
 10
2032.699999999998
 20
636.000000075023
 11
2032.699999999998
 21
642.500000075023
  0
LINE
  5
45
100
AcDbEntity
  8
1
  6
CONTINUOUS
 62
           3
100
AcDbLine
 10
2007.299999999998
 20
599.500000075023
 11
2007.299999999998
 21
606.500000075023
  0
LINE
  5
44
100
AcDbEntity
  8
1
  6
CONTINUOUS
 62
           3
100
AcDbLine
 10
2007.299999999998
 20
635.500000075023
 11
2007.299999999998
 21
642.500000075023
  0
LINE
  5
43
100
AcDbEntity
  8
1
  6
CONTINUOUS
 62
           2
100
AcDbLine
 10
2179.999999999997
 20
611.000000075023
 11
2179.999999999997
 21
511.000000075023
  0
LINE
  5
42
100
AcDbEntity
  8
1
  6
CONTINUOUS
 62
           2
100
AcDbLine
 10
2224.999999999997
 20
611.000000075023
 11
2224.999999999997
 21
81.000000075023
  0
LINE
  5
41
100
AcDbEntity
  8
1
  6
CONTINUOUS
 62
           2
100
AcDbLine
 10
1649.999999999998
 20
896.000000075023
 11
1979.999999999997
 21
896.000000075023
  0
LINE
  5
40
100
AcDbEntity
  8
1
  6
CONTINUOUS
 62
           2
100
AcDbLine
 10
1979.999999999997
 20
896.000000075023
 11
1979.999999999997
 21
386.000000075023
  0
LINE
  5
3F
100
AcDbEntity
  8
1
  6
CONTINUOUS
 62
           2
100
AcDbLine
 10
1979.999999999997
 20
386.000000075023
 11
1649.999999999998
 21
386.000000075023
  0
LINE
  5
3E
100
AcDbEntity
  8
1
  6
CONTINUOUS
 62
           2
100
AcDbLine
 10
1750.000000000005
 20
-1678.077763432564
 11
1749.999999999998
 21
-2378.077763432566
  0
LINE
  5
3D
100
AcDbEntity
  8
1
  6
CONTINUOUS
 62
           3
100
AcDbLine
 10
1589.999999999998
 20
-1956.077763432566
 11
1589.999999999998
 21
-2106.077763432566
  0
LINE
  5
3C
100
AcDbEntity
  8
1
  6
CONTINUOUS
 62
           3
100
AcDbLine
 10
1589.999999999998
 20
-2455.077763432567
 11
1589.999999999998
 21
-2605.077763432564
  0
LINE
  5
3B
100
AcDbEntity
  8
1
  6
CONTINUOUS
 62
           3
100
AcDbLine
 10
60.0
 20
-2106.077763432566
 11
60.0
 21
-1956.077763432566
  0
LINE
  5
3A
100
AcDbEntity
  8
1
  6
CONTINUOUS
 62
           3
100
AcDbLine
 10
60.0
 20
-2605.077763432564
 11
60.0
 21
-2455.077763432567
  0
LINE
  5
39
100
AcDbEntity
  8
1
  6
CONTINUOUS
 62
           3
100
AcDbLine
 10
60.0
 20
-3106.077763432567
 11
60.0
 21
-2956.077763432566
  0
LINE
  5
38
100
AcDbEntity
  8
1
  6
CONTINUOUS
 62
           3
100
AcDbLine
 10
820.999999999998
 20
-107.5
 11
820.999999999998
 21
-106.5
  0
LINE
  5
37
100
AcDbEntity
  8
1
  6
CONTINUOUS
 62
           3
100
AcDbLine
 10
832.999999999998
 20
-106.5
 11
832.999999999998
 21
-107.5
  0
LINE
  5
36
100
AcDbEntity
  8
1
  6
CONTINUOUS
 62
           3
100
AcDbLine
 10
1454.875049137396
 20
-107.5
 11
60.0
 21
-107.5
  0
LINE
  5
35
100
AcDbEntity
  8
1
  6
DOT_CENTER
 62
           3
100
AcDbLine
 10
12.999999999999
 20
-74.379153548849
 11
12.999999999999
 21
-102.122386817079
  0
LINE
  5
34
100
AcDbEntity
  8
1
  6
CONTINUOUS
 62
           1
100
AcDbLine
 10
37.999999999999
 20
-92.0
 11
37.999999999999
 21
-76.0
  0
LINE
  5
33
100
AcDbEntity
  8
1
  6
CONTINUOUS
 62
           1
100
AcDbLine
 10
-12.000000000001
 20
-92.318849123812
 11
-12.000000000001
 21
-76.0
  0
LINE
  5
32
100
AcDbEntity
  8
1
  6
CONTINUOUS
 62
           7
100
AcDbLine
 10
-576.582342601884
 20
1201.96529116117
 11
4528.62873263405
 21
1201.96529116117
  0
LINE
  5
31
100
AcDbEntity
  8
1
  6
CONTINUOUS
 62
           7
100
AcDbLine
 10
4528.62873263405
 20
1201.96529116117
 11
4528.62873263405
 21
-3392.72467655117
  0
LINE
  5
30
100
AcDbEntity
  8
1
  6
CONTINUOUS
 62
           7
100
AcDbLine
 10
4528.62873263405
 20
-3392.72467655117
 11
-576.582342601884
 21
-3392.72467655117
  0
LINE
  5
2F
100
AcDbEntity
  8
1
  6
CONTINUOUS
 62
           7
100
AcDbLine
 10
-576.582342601884
 20
-3392.72467655117
 11
-576.582342601884
 21
1201.96529116117
  0
LINE
  5
2E
100
AcDbEntity
  8
1
  6
CONTINUOUS
 62
           2
100
AcDbLine
 10
-25.0
 20
-1678.077763432566
 11
1674.999999999998
 21
-1678.077763432566
  0
LINE
  5
2D
100
AcDbEntity
  8
1
  6
CONTINUOUS
 62
           3
100
AcDbLine
 10
1589.999999999998
 20
-2956.077763432566
 11
1589.999999999998
 21
-3106.077763432567
  0
LINE
  5
2C
100
AcDbEntity
  8
1
  6
CONTINUOUS
 62
           3
100
AcDbLine
 10
1589.999999999998
 20
-3106.077763432567
 11
1661.999999999998
 21
-3106.077763432567
  0
INSERT
  5
29
100
AcDbEntity
  8
0
100
AcDbBlockReference
  2
CUE_232B_600K
 10
0.0
 20
0.0
  0
ENDSEC
  0
SECTION
  2
OBJECTS
  0
DICTIONARY
  5
19
100
AcDbDictionary
  3
ACAD_GROUP
350
1A
  3
ACAD_MLINESTYLE
350
1B
  0
DICTIONARY
  5
1A
102
{ACAD_REACTORS
330
19
102
}
100
AcDbDictionary
  0
DICTIONARY
  5
1B
102
{ACAD_REACTORS
330
19
102
}
100
AcDbDictionary
  3
STANDARD
350
1C
  0
MLINESTYLE
  5
1C
102
{ACAD_REACTORS
330
1B
102
}
100
AcDbMlineStyle
  2
STANDARD
 70
           0
  3

 62
           0
 51
90.0
 52
90.0
 71
           2
 49
0.5
 62
         256
  6
BYLAYER
 49
-0.5
 62
         256
  6
BYLAYER
  0
ENDSEC
  0
EOF
