  0
SECTION
  2
HEADER
  9
$ACADVER
  1
AC1014
  9
$ACADMAINTVER
 70
           0
  9
$DWGCODEPAGE
  3
DOS932
  9
$INSBASE
 10
0.0
 20
0.0
 30
0.0
  9
$EXTMIN
 10
1.000000000000E+20
 20
1.000000000000E+20
 30
1.000000000000E+20
  9
$EXTMAX
 10
-1.000000000000E+20
 20
-1.000000000000E+20
 30
-1.000000000000E+20
  9
$LIMMIN
 10
0.0
 20
0.0
  9
$LIMMAX
 10
0.0
 20
0.0
  9
$ORTHOMODE
 70
           0
  9
$REGENMODE
 70
           1
  9
$FILLMODE
 70
           1
  9
$QTEXTMODE
 70
           0
  9
$MIRRTEXT
 70
           1
  9
$DRAGMODE
 70
           2
  9
$LTSCALE
 40
1.0
  9
$OSMODE
 70
           0
  9
$ATTMODE
 70
           1
  9
$TEXTSIZE
 40
0.2
  9
$TRACEWID
 40
0.05
  9
$TEXTSTYLE
  7
STANDARD
  9
$CLAYER
  8
0
  9
$CELTYPE
  6
CONTINUOUS
  9
$CECOLOR
 62
         256
  9
$CELTSCALE
 40
1.0
  9
$DELOBJ
 70
           1
  9
$DISPSILH
 70
           0
  9
$DIMSCALE
 40
1.0
  9
$DIMASZ
 40
0.18
  9
$DIMEXO
 40
0.0625
  9
$DIMDLI
 40
0.38
  9
$DIMRND
 40
0.0
  9
$DIMDLE
 40
0.0
  9
$DIMEXE
 40
0.18
  9
$DIMTP
 40
0.0
  9
$DIMTM
 40
0.0
  9
$DIMTXT
 40
0.18
  9
$DIMCEN
 40
0.09
  9
$DIMTSZ
 40
0.0
  9
$DIMTOL
 70
           0
  9
$DIMLIM
 70
           0
  9
$DIMTIH
 70
           1
  9
$DIMTOH
 70
           1
  9
$DIMSE1
 70
           0
  9
$DIMSE2
 70
           0
  9
$DIMTAD
 70
           0
  9
$DIMZIN
 70
           0
  9
$DIMBLK
  1

  9
$DIMASO
 70
           1
  9
$DIMSHO
 70
           1
  9
$DIMPOST
  1

  9
$DIMAPOST
  1

  9
$DIMALT
 70
           0
  9
$DIMALTD
 70
           2
  9
$DIMALTF
 40
25.4
  9
$DIMLFAC
 40
1.0
  9
$DIMTOFL
 70
           0
  9
$DIMTVP
 40
0.0
  9
$DIMTIX
 70
           0
  9
$DIMSOXD
 70
           0
  9
$DIMSAH
 70
           0
  9
$DIMBLK1
  1

  9
$DIMBLK2
  1

  9
$DIMSTYLE
  2
STANDARD
  9
$DIMCLRD
 70
           0
  9
$DIMCLRE
 70
           0
  9
$DIMCLRT
 70
           0
  9
$DIMTFAC
 40
1.0
  9
$DIMGAP
 40
0.09
  9
$DIMJUST
 70
           0
  9
$DIMSD1
 70
           0
  9
$DIMSD2
 70
           0
  9
$DIMTOLJ
 70
           1
  9
$DIMTZIN
 70
           0
  9
$DIMALTZ
 70
           0
  9
$DIMALTTZ
 70
           0
  9
$DIMFIT
 70
           3
  9
$DIMUPT
 70
           0
  9
$DIMUNIT
 70
           2
  9
$DIMDEC
 70
           4
  9
$DIMTDEC
 70
           4
  9
$DIMALTU
 70
           2
  9
$DIMALTTD
 70
           2
  9
$DIMTXSTY
  7
STANDARD
  9
$DIMAUNIT
 70
           0
  9
$LUNITS
 70
           2
  9
$LUPREC
 70
           4
  9
$SKETCHINC
 40
0.1
  9
$FILLETRAD
 40
0.0
  9
$AUNITS
 70
           0
  9
$AUPREC
 70
           0
  9
$MENU
  1
acad
  9
$ELEVATION
 40
0.0
  9
$PELEVATION
 40
0.0
  9
$THICKNESS
 40
0.0
  9
$LIMCHECK
 70
           0
  9
$BLIPMODE
 70
           1
  9
$CHAMFERA
 40
0.0
  9
$CHAMFERB
 40
0.0
  9
$CHAMFERC
 40
0.0
  9
$CHAMFERD
 40
0.0
  9
$SKPOLY
 70
           0
  9
$TDCREATE
 40
0.000000000
  9
$TDUPDATE
 40
0.000000000
  9
$TDINDWG
 40
0.0000000000
  9
$TDUSRTIMER
 40
0.0000000000
  9
$USRTIMER
 70
           1
  9
$ANGBASE
 50
0.0
  9
$ANGDIR
 70
           0
  9
$PDMODE
 70
           0
  9
$PDSIZE
 40
0.0
  9
$PLINEWID
 40
0.0
  9
$COORDS
 70
           0
  9
$SPLFRAME
 70
           0
  9
$SPLINETYPE
 70
           6
  9
$SPLINESEGS
 70
           8
  9
$ATTDIA
 70
           0
  9
$ATTREQ
 70
           1
  9
$HANDLING
 70
           1
  9
$HANDSEED
  5
38A
  9
$SURFTAB1
 70
           6
  9
$SURFTAB2
 70
           6
  9
$SURFTYPE
 70
           6
  9
$SURFU
 70
           6
  9
$SURFV
 70
           6
  9
$UCSNAME
  2

  9
$UCSORG
 10
0.0
 20
0.0
 30
0.0
  9
$UCSXDIR
 10
1.0
 20
0.0
 30
0.0
  9
$UCSYDIR
 10
0.0
 20
1.0
 30
0.0
  9
$PUCSNAME
  2

  9
$PUCSORG
 10
0.0
 20
0.0
 30
0.0
  9
$PUCSXDIR
 10
1.0
 20
0.0
 30
0.0
  9
$PUCSYDIR
 10
0.0
 20
1.0
 30
0.0
  9
$USERI1
 70
           0
  9
$USERI2
 70
           0
  9
$USERI3
 70
           0
  9
$USERI4
 70
           0
  9
$USERI5
 70
           0
  9
$USERR1
 40
0.0
  9
$USERR2
 40
0.0
  9
$USERR3
 40
0.0
  9
$USERR4
 40
0.0
  9
$USERR5
 40
0.0
  9
$WORLDVIEW
 70
           1
  9
$SHADEDGE
 70
           3
  9
$SHADEDIF
 70
          70
  9
$TILEMODE
 70
           1
  9
$MAXACTVP
 70
          16
  9
$PINSBASE
 10
0.0
 20
0.0
 30
0.0
  9
$PLIMCHECK
 70
           0
  9
$PEXTMIN
 10
1.000000000000E+20
 20
1.000000000000E+20
 30
1.000000000000E+20
  9
$PEXTMAX
 10
-1.000000000000E+20
 20
-1.000000000000E+20
 30
-1.000000000000E+20
  9
$PLIMMIN
 10
0.0
 20
0.0
  9
$PLIMMAX
 10
12.0
 20
9.0
  9
$UNITMODE
 70
           0
  9
$VISRETAIN
 70
           0
  9
$PLINEGEN
 70
           1
  9
$PSLTSCALE
 70
           0
  9
$TREEDEPTH
 70
        3020
  9
$PICKSTYLE
 70
           1
  9
$CMLSTYLE
  2
STANDARD
  9
$CMLJUST
 70
           0
  9
$CMLSCALE
 40
1.0
  9
$PROXYGRAPHICS
 70
           0
  9
$MEASUREMENT
 70
           0
  0
ENDSEC
  0
SECTION
  2
CLASSES
  0
CLASS
  1
LWPOLYLINE
  2
AcDbPolyline
  3
"AutoCAD"
 90
        0
280
           0
281
           1
  0
CLASS
  1
IMAGE
  2
AcDbRasterImage
  3
ISM
 90
      127
280
           0
281
           1
  0
CLASS
  1
OLE2FRAME
  2
AcDbOle2Frame
  3
""
 90
        0
280
           0
281
           1
  0
CLASS
  1
HATCH
  2
AcDbHatch
  3
"ACAD_SEDONA"
 90
        0
280
           0
281
           1
  0
CLASS
  1
DICTIONARYVAR
  2
AcDbDictionaryVar
  3
"AutoCAD"
 90
        0
280
           0
281
           0
  0
CLASS
  1
RASTERVARIABLES
  2
AcDbRasterVariables
  3
ISM
 90
        0
280
           0
281
           0
  0
CLASS
  1
IMAGEDEF
  2
AcDbRasterImageDef
  3
ISM
 90
        0
280
           0
281
           0
  0
CLASS
  1
IMAGEDEF_REACTOR
  2
AcDbRasterImageDefReactor
  3
ISM
 90
        1
280
           0
281
           0
  0
CLASS
  1
IDBUFFER
  2
AcDbIdBuffer
  3
"Acad"
 90
        0
280
           0
281
           0
  0
CLASS
  1
SPATIAL_FILTER
  2
AcDbSpatialFilter
  3
"Acad"
 90
        0
280
           0
281
           0
  0
CLASS
  1
XRECORD
  2
AcDbXrecord
  3
"<Built In>"
 90
        0
280
           0
281
           0
  0
CLASS
  1
SORTENTSTABLE
  2
AcDbSortentsTable
  3
"AutoCAD"
 90
        0
280
           0
281
           0
  0
CLASS
  1
LAYER_INDEX
  2
AcDbLayerIndex
  3
"Acad"
 90
        0
280
           0
281
           0
  0
CLASS
  1
SPATIAL_INDEX
  2
AcDbSpatialIndex
  3
"Acad"
 90
        0
280
           0
281
           0
  0
CLASS
  1
OBJECT_PTR
  2
CAseDLPNTableRecord
  3
"ASE-LPNTableRecord"
 90
        1
280
           0
281
           0
  0
CLASS
  1
LAYOUT
  2
AcDbLayout
  3
"AutoCAD 2000"
 90
        1
280
           0
281
           0
  0
CLASS
  1
PLOTSETTINGS
  2
AcDbPlotSettings
  3
"AutoCAD 2000"
 90
        1
280
           0
281
           0
  0
CLASS
  1
ACDBDICTIONARYWDFLT
  2
AcDbDictionaryWithDefault
  3
"AutoCAD 2000"
 90
        1
280
           0
281
           0
  0
CLASS
  1
ACDBPLACEHOLDER
  2
AcDbPlaceHolder
  3
"AutoCAD 2000"
 90
        1
280
           0
281
           0
  0
CLASS
  1
VBA_PROJECT
  2
AcDbVbaProject
  3
"acadvba"
 90
        1
280
           0
281
           0
  0
CLASS
  1
WIPEOUT
  2
AcDbWipeout
  3
WipeOut|AutoCAD Express Tool|expresstools@autodesk.com
 90
      127
280
           0
281
           1
  0
CLASS
  1
WIPEOUTVARIABLES
  2
AcDbWipeoutVariables
  3
WipeOut|AutoCAD Express Tool|expresstools@autodesk.com
 90
        0
280
           0
281
           0
  0
CLASS
  1
RTEXT
  2
RText
  3
RText|AutoCAD Express Tool|expresstools@autodesk.com
 90
        0
280
           0
281
           1
  0
CLASS
  1
ARCALIGNEDTEXT
  2
AcDbArcAlignedText
  3
ATEXT|AutoCAD Express Tool|expresstools@autodesk.com
 90
        0
280
           0
281
           1
  0
ENDSEC
  0
SECTION
  2
TABLES
  0
TABLE
  2
VPORT
  5
7
100
AcDbSymbolTable
 70
           1
  0
VPORT
  5
15
100
AcDbSymbolTableRecord
100
AcDbViewportTableRecord
  2
*ACTIVE
 70
           0
 10
0.0
 20
0.0
 11
1.0
 21
1.0
 12
6.591288
 22
4.579184
 13
0.0
 23
0.0
 14
1.0
 24
1.0
 15
0.0
 25
0.0
 16
0.0
 26
0.0
 36
1.0
 17
0.0
 27
0.0
 37
0.0
 40
9.158369
 41
0.688564
 42
50.0
 43
0.0
 44
0.0
 50
0.0
 51
0.0
 71
           0
 72
         100
 73
           1
 74
           1
 75
           0
 76
           0
 77
           0
 78
           0
  0
ENDTAB
  0
TABLE
  2
LTYPE
  5
4
100
AcDbSymbolTable
 70
          10
  0
LTYPE
  5
11
100
AcDbSymbolTableRecord
100
AcDbLinetypeTableRecord
  2
BYBLOCK
 70
          64
  3

 72
          65
 73
           0
 40
0.0
  0
LTYPE
  5
12
100
AcDbSymbolTableRecord
100
AcDbLinetypeTableRecord
  2
BYLAYER
 70
          64
  3

 72
          65
 73
           0
 40
0.0
  0
LTYPE
  5
13
100
AcDbSymbolTableRecord
100
AcDbLinetypeTableRecord
  2
CONTINUOUS
 70
          64
  3
Solid line
 72
          65
 73
           0
 40
0.0
  0
LTYPE
  5
1D
100
AcDbSymbolTableRecord
100
AcDbLinetypeTableRecord
  2
DASHED
 70
          64
  3
Dashed
 72
          65
 73
           2
 40
15.0
 49
12.0
 74
           0
 49
-3.0
 74
           0
  0
LTYPE
  5
1E
100
AcDbSymbolTableRecord
100
AcDbLinetypeTableRecord
  2
DOTTED
 70
          64
  3
Dotted
 72
          65
 73
           2
 40
3.5
 49
0.5
 74
           0
 49
-3.0
 74
           0
  0
LTYPE
  5
1F
100
AcDbSymbolTableRecord
100
AcDbLinetypeTableRecord
  2
DOT_CENTER
 70
          64
  3
Dot_Center
 72
          65
 73
           4
 40
2.0
 49
1.25
 74
           0
 49
-0.25
 74
           0
 49
0.25
 74
           0
 49
-0.25
 74
           0
  0
LTYPE
  5
20
100
AcDbSymbolTableRecord
100
AcDbLinetypeTableRecord
  2
LONG_DASHED
 70
          64
  3
Long_Dashed
 72
          65
 73
           2
 40
2.0
 49
1.5
 74
           0
 49
-0.5
 74
           0
  0
LTYPE
  5
21
100
AcDbSymbolTableRecord
100
AcDbLinetypeTableRecord
  2
DASH_CENTER
 70
          64
  3
Dash_Center
 72
          65
 73
           4
 40
36.0
 49
24.0
 74
           0
 49
-3.0
 74
           0
 49
6.0
 74
           0
 49
-3.0
 74
           0
  0
LTYPE
  5
22
100
AcDbSymbolTableRecord
100
AcDbLinetypeTableRecord
  2
PHANTOM
 70
          64
  3
Phantom
 72
          65
 73
           6
 40
2.5
 49
1.25
 74
           0
 49
-0.25
 74
           0
 49
0.25
 74
           0
 49
-0.25
 74
           0
 49
0.25
 74
           0
 49
-0.25
 74
           0
  0
LTYPE
  5
23
100
AcDbSymbolTableRecord
100
AcDbLinetypeTableRecord
  2
CENTER_DASH_DASH
 70
          64
  3
Center_Dash_Dash
 72
          65
 73
           6
 40
22.0
 49
12.0
 74
           0
 49
-3.0
 74
           0
 49
0.5
 74
           0
 49
-3.0
 74
           0
 49
0.5
 74
           0
 49
-3.0
 74
           0
  0
ENDTAB
  0
TABLE
  2
LAYER
  5
2
100
AcDbSymbolTable
 70
           2
  0
LAYER
  5
14
100
AcDbSymbolTableRecord
100
AcDbLayerTableRecord
  2
0
 70
           0
 62
           7
  6
CONTINUOUS
  0
LAYER
  5
24
100
AcDbSymbolTableRecord
100
AcDbLayerTableRecord
  2
1
 70
           0
 62
           7
  6
CONTINUOUS
  0
ENDTAB
  0
TABLE
  2
STYLE
  5
3
100
AcDbSymbolTable
 70
           1
  0
STYLE
  5
17
100
AcDbSymbolTableRecord
100
AcDbTextStyleTableRecord
  2
STANDARD
 70
           0
 40
0.0
 41
1.0
 50
0.0
 71
           0
 42
0.0
  3
txt
  4

  0
ENDTAB
  0
TABLE
  2
VIEW
  5
5
100
AcDbSymbolTable
 70
           0
  0
ENDTAB
  0
TABLE
  2
UCS
  5
6
100
AcDbSymbolTable
 70
           0
  0
ENDTAB
  0
TABLE
  2
APPID
  5
8
100
AcDbSymbolTable
 70
           1
  0
APPID
  5
16
100
AcDbSymbolTableRecord
100
AcDbRegAppTableRecord
  2
ACAD
 70
           0
  0
ENDTAB
  0
TABLE
  2
DIMSTYLE
  5
9
100
AcDbSymbolTable
 70
           1
  0
DIMSTYLE
105
18
100
AcDbSymbolTableRecord
100
AcDbDimStyleTableRecord
  2
STANDARD
 70
           0
  3

  4

  5

  6

  7

 40
1.0
 41
0.18
 42
0.0625
 43
0.38
 44
0.18
 45
0.0
 46
0.0
 47
0.0
 48
0.0
 71
           0
 72
           0
 73
           1
 74
           1
 75
           0
 76
           0
 77
           0
 78
           0
140
0.18
141
0.09
142
0.0
143
25.4
144
1.0
145
0.0
146
1.0
147
0.09
170
           0
171
           2
172
           0
173
           0
174
           0
175
           0
176
           0
177
           0
178
           0
270
           2
271
           4
272
           4
273
           2
274
           2
275
           0
280
           0
281
           0
282
           0
283
           1
284
           0
285
           0
286
           0
287
           0
288
           0
340
17
  0
ENDTAB
  0
TABLE
  2
BLOCK_RECORD
  5
1
100
AcDbSymbolTable
 70
           5
  0
BLOCK_RECORD
  5
A
100
AcDbSymbolTableRecord
100
AcDbBlockTableRecord
  2
*MODEL_SPACE
  0
BLOCK_RECORD
  5
B
100
AcDbSymbolTableRecord
100
AcDbBlockTableRecord
  2
*PAPER_SPACE
  0
BLOCK_RECORD
  5
25
100
AcDbSymbolTableRecord
100
AcDbBlockTableRecord
  2
CUE_332B_600K__1
  0
BLOCK_RECORD
  5
27
100
AcDbSymbolTableRecord
100
AcDbBlockTableRecord
  2
1__2
  0
BLOCK_RECORD
  5
2A
100
AcDbSymbolTableRecord
100
AcDbBlockTableRecord
  2
CUE_232B_600K
  0
BLOCK_RECORD
  5
2C
100
AcDbSymbolTableRecord
100
AcDbBlockTableRecord
  2
CUE_332B_600K__3
  0
BLOCK_RECORD
  5
2E
100
AcDbSymbolTableRecord
100
AcDbBlockTableRecord
  2
1__4
  0
ENDTAB
  0
ENDSEC
  0
SECTION
  2
BLOCKS
  0
BLOCK
  5
D
100
AcDbEntity
  8
0
100
AcDbBlockBegin
  2
*MODEL_SPACE
 70
           0
 10
0.0
 20
0.0
 30
0.0
  3
*MODEL_SPACE
  1

  0
ENDBLK
  5
E
100
AcDbEntity
  8
0
100
AcDbBlockEnd
  0
BLOCK
  5
F
100
AcDbEntity
 67
           1
  8
0
100
AcDbBlockBegin
  2
*PAPER_SPACE
 70
           0
 10
0.0
 20
0.0
 30
0.0
  3
*PAPER_SPACE
  1

  0
ENDBLK
  5
10
100
AcDbEntity
 67
           1
  8
0
100
AcDbBlockEnd
  0
BLOCK
  5
26
100
AcDbEntity
  8
0
100
AcDbBlockBegin
  2
CUE_332B_600K__1
 70
           0
 10
0.0
 20
0.0
 30
0.0
  3
CUE_332B_600K__1
  1

  0
ENDBLK
  5
36
100
AcDbEntity
  8
0
100
AcDbBlockEnd
  0
BLOCK
  5
28
100
AcDbEntity
  8
0
100
AcDbBlockBegin
  2
1__2
 70
           0
 10
0.0
 20
0.0
 30
0.0
  3
1__2
  1

  0
INSERT
  5
29
100
AcDbEntity
  8
0
100
AcDbBlockReference
  2
CUE_332B_600K__1
 10
0.0
 20
0.0
  0
ENDBLK
  5
37
100
AcDbEntity
  8
0
100
AcDbBlockEnd
  0
BLOCK
  5
2B
100
AcDbEntity
  8
0
100
AcDbBlockBegin
  2
CUE_232B_600K
 70
           0
 10
0.0
 20
0.0
 30
0.0
  3
CUE_232B_600K
  1

  0
ENDBLK
  5
38
100
AcDbEntity
  8
0
100
AcDbBlockEnd
  0
BLOCK
  5
2D
100
AcDbEntity
  8
0
100
AcDbBlockBegin
  2
CUE_332B_600K__3
 70
           0
 10
0.0
 20
0.0
 30
0.0
  3
CUE_332B_600K__3
  1

  0
ENDBLK
  5
39
100
AcDbEntity
  8
0
100
AcDbBlockEnd
  0
BLOCK
  5
2F
100
AcDbEntity
  8
0
100
AcDbBlockBegin
  2
1__4
 70
           0
 10
0.0
 20
0.0
 30
0.0
  3
1__4
  1

  0
INSERT
  5
30
100
AcDbEntity
  8
0
100
AcDbBlockReference
  2
CUE_332B_600K__3
 10
0.0
 20
0.0
  0
ENDBLK
  5
3A
100
AcDbEntity
  8
0
100
AcDbBlockEnd
  0
ENDSEC
  0
SECTION
  2
ENTITIES
  0
HATCH
  5
388
100
AcDbEntity
  8
0
  6
CONTINUOUS
 62
           4
100
AcDbHatch
 10
0.0
 20
0.0
 30
0.0
210
0.0
220
0.0
230
1.0
  2
USER
 70
           0
 71
           1
 91
        1
 92
        1
 93
        7
 72
           1
 10
-17078.785268070071
 20
-1357.690049672427
 11
-17348.785268070071
 21
-1357.690049672427
 72
           1
 10
-17078.785268070071
 20
-1357.690049672427
 11
-17078.785268070071
 21
-1459.3657253481019
 72
           1
 10
-17239.785268070071
 20
-1647.690049672427
 11
-17239.785268070071
 21
-1512.690049672427
 72
           1
 10
-17239.785268070071
 20
-1512.690049672427
 11
-17213.785268070071
 21
-1468.641143746087
 72
           1
 10
-17213.785268070071
 20
-1468.641143746087
 11
-17078.785268070071
 21
-1459.3657253481019
 72
           1
 10
-17239.785268070071
 20
-1647.690049672427
 11
-17348.785268070071
 21
-1647.690049672427
 72
           1
 10
-17348.785268070071
 20
-1357.690049672427
 11
-17348.785268070071
 21
-1647.690049672427
 97
        5
330
341
330
52
330
342
330
78
330
4E
 75
           1
 76
           0
 52
45.0
 41
50.0
 77
           0
 78
           2
 53
45.0
 43
0.0
 44
0.0
 45
-35.355339059327378
 46
35.355339059327378
 79
           0
 53
135.0
 43
0.0
 44
0.0
 45
-35.355339059327363
 46
-35.355339059327392
 79
           0
 98
        1
 10
0.0
 20
0.0
  0
ARC
  5
387
100
AcDbEntity
  8
1
  6
CONTINUOUS
 62
           3
100
AcDbCircle
 10
-19333.438929694032
 20
1165.425925599789
 40
3.0
100
AcDbArc
 50
-90.0
 51
0.0
  0
ARC
  5
386
100
AcDbEntity
  8
1
  6
CONTINUOUS
 62
           3
100
AcDbCircle
 10
-19333.438929694032
 20
1353.425925599789
 40
3.0
100
AcDbArc
 50
0.0
 51
90.0
  0
ARC
  5
385
100
AcDbEntity
  8
1
  6
CONTINUOUS
 62
           2
100
AcDbCircle
 10
-19332.438929694032
 20
1353.425925599789
 40
6.0
100
AcDbArc
 50
0.0
 51
90.0
  0
ARC
  5
384
100
AcDbEntity
  8
1
  6
CONTINUOUS
 62
           2
100
AcDbCircle
 10
-19332.438929694032
 20
1165.425925599789
 40
6.0
100
AcDbArc
 50
-90.0
 51
0.0
  0
ARC
  5
383
100
AcDbEntity
  8
1
  6
CONTINUOUS
 62
           2
100
AcDbCircle
 10
-19301.438929694032
 20
1323.925925599789
 40
2.0
100
AcDbArc
 50
0.0
 51
90.0
  0
ARC
  5
382
100
AcDbEntity
  8
1
  6
CONTINUOUS
 62
           2
100
AcDbCircle
 10
-19301.438929694032
 20
1304.925925599789
 40
2.0
100
AcDbArc
 50
-90.0
 51
0.0
  0
ARC
  5
381
100
AcDbEntity
  8
1
  6
CONTINUOUS
 62
           2
100
AcDbCircle
 10
-19301.438929694032
 20
1213.925925599789
 40
2.0
100
AcDbArc
 50
0.0
 51
90.0
  0
ARC
  5
380
100
AcDbEntity
  8
1
  6
CONTINUOUS
 62
           2
100
AcDbCircle
 10
-19301.438929694032
 20
1194.925925599789
 40
2.0
100
AcDbArc
 50
-90.0
 51
0.0
  0
ARC
  5
37F
100
AcDbEntity
  8
1
  6
CONTINUOUS
 62
           2
100
AcDbCircle
 10
-19414.212233146951
 20
1629.425925599789
 40
50.000000000002
100
AcDbArc
 50
-1.714930195529
 51
1.714930195529
  0
ARC
  5
37E
100
AcDbEntity
  8
1
  6
CONTINUOUS
 62
           2
100
AcDbCircle
 10
-19290.665626241102
 20
1629.425925599789
 40
50.000000000002
100
AcDbArc
 50
178.285069804471
 51
-178.285069804471
  0
ARC
  5
37D
100
AcDbEntity
  8
1
  6
CONTINUOUS
 62
           2
100
AcDbCircle
 10
-19335.438929694032
 20
1690.925925599789
 40
2.0
100
AcDbArc
 50
0.0
 51
90.0
  0
ARC
  5
37C
100
AcDbEntity
  8
1
  6
CONTINUOUS
 62
           2
100
AcDbCircle
 10
-19369.438929694032
 20
1690.925925599789
 40
2.0
100
AcDbArc
 50
90.0
 51
180.0
  0
ARC
  5
37B
100
AcDbEntity
  8
1
  6
CONTINUOUS
 62
           2
100
AcDbCircle
 10
-19369.438929694032
 20
1652.925925599789
 40
2.0
100
AcDbArc
 50
180.0
 51
-90.0
  0
ARC
  5
37A
100
AcDbEntity
  8
1
  6
CONTINUOUS
 62
           2
100
AcDbCircle
 10
-19335.438929694032
 20
1652.925925599789
 40
2.0
100
AcDbArc
 50
-90.0
 51
0.0
  0
ARC
  5
379
100
AcDbEntity
  8
1
  6
CONTINUOUS
 62
           2
100
AcDbCircle
 10
-19335.438929694032
 20
1605.925925599789
 40
2.0
100
AcDbArc
 50
0.0
 51
90.0
  0
ARC
  5
378
100
AcDbEntity
  8
1
  6
CONTINUOUS
 62
           2
100
AcDbCircle
 10
-19369.438929694032
 20
1605.925925599789
 40
2.0
100
AcDbArc
 50
90.0
 51
180.0
  0
ARC
  5
377
100
AcDbEntity
  8
1
  6
CONTINUOUS
 62
           2
100
AcDbCircle
 10
-19369.438929694032
 20
1567.925925599789
 40
2.0
100
AcDbArc
 50
180.0
 51
-90.0
  0
ARC
  5
376
100
AcDbEntity
  8
1
  6
CONTINUOUS
 62
           2
100
AcDbCircle
 10
-19335.438929694032
 20
1567.925925599789
 40
2.0
100
AcDbArc
 50
-90.0
 51
0.0
  0
ARC
  5
375
100
AcDbEntity
  8
1
  6
CONTINUOUS
 62
           2
100
AcDbCircle
 10
-19544.212233146951
 20
1629.425925599789
 40
50.000000000002
100
AcDbArc
 50
-1.714930195529
 51
1.714930195529
  0
ARC
  5
374
100
AcDbEntity
  8
1
  6
CONTINUOUS
 62
           2
100
AcDbCircle
 10
-19420.665626241102
 20
1629.425925599789
 40
50.000000000002
100
AcDbArc
 50
178.285069804471
 51
-178.285069804471
  0
ARC
  5
373
100
AcDbEntity
  8
1
  6
CONTINUOUS
 62
           2
100
AcDbCircle
 10
-19465.438929694032
 20
1690.925925599789
 40
2.0
100
AcDbArc
 50
0.0
 51
90.0
  0
ARC
  5
372
100
AcDbEntity
  8
1
  6
CONTINUOUS
 62
           2
100
AcDbCircle
 10
-19499.438929694032
 20
1690.925925599789
 40
2.0
100
AcDbArc
 50
90.0
 51
180.0
  0
ARC
  5
371
100
AcDbEntity
  8
1
  6
CONTINUOUS
 62
           2
100
AcDbCircle
 10
-19499.438929694032
 20
1652.925925599789
 40
2.0
100
AcDbArc
 50
180.0
 51
-90.0
  0
ARC
  5
370
100
AcDbEntity
  8
1
  6
CONTINUOUS
 62
           2
100
AcDbCircle
 10
-19465.438929694032
 20
1652.925925599789
 40
2.0
100
AcDbArc
 50
-90.0
 51
0.0
  0
ARC
  5
36F
100
AcDbEntity
  8
1
  6
CONTINUOUS
 62
           2
100
AcDbCircle
 10
-19465.438929694032
 20
1605.925925599789
 40
2.0
100
AcDbArc
 50
0.0
 51
90.0
  0
ARC
  5
36E
100
AcDbEntity
  8
1
  6
CONTINUOUS
 62
           2
100
AcDbCircle
 10
-19499.438929694032
 20
1605.925925599789
 40
2.0
100
AcDbArc
 50
90.0
 51
180.0
  0
ARC
  5
36D
100
AcDbEntity
  8
1
  6
CONTINUOUS
 62
           2
100
AcDbCircle
 10
-19499.438929694032
 20
1567.925925599789
 40
2.0
100
AcDbArc
 50
180.0
 51
-90.0
  0
ARC
  5
36C
100
AcDbEntity
  8
1
  6
CONTINUOUS
 62
           2
100
AcDbCircle
 10
-19465.438929694032
 20
1567.925925599789
 40
2.0
100
AcDbArc
 50
-90.0
 51
0.0
  0
ARC
  5
36B
100
AcDbEntity
  8
1
  6
CONTINUOUS
 62
           3
100
AcDbCircle
 10
-19466.438929694032
 20
1353.425925599789
 40
3.0
100
AcDbArc
 50
90.0
 51
180.0
  0
ARC
  5
36A
100
AcDbEntity
  8
1
  6
CONTINUOUS
 62
           3
100
AcDbCircle
 10
-19466.438929694032
 20
1165.425925599789
 40
3.0
100
AcDbArc
 50
180.0
 51
-90.0
  0
ARC
  5
369
100
AcDbEntity
  8
1
  6
CONTINUOUS
 62
           2
100
AcDbCircle
 10
-19466.438929694032
 20
1353.425925599789
 40
6.0
100
AcDbArc
 50
90.0
 51
180.0
  0
ARC
  5
368
100
AcDbEntity
  8
1
  6
CONTINUOUS
 62
           2
100
AcDbCircle
 10
-19466.438929694032
 20
1165.425925599789
 40
6.0
100
AcDbArc
 50
180.0
 51
-90.0
  0
ARC
  5
367
100
AcDbEntity
  8
1
  6
CONTINUOUS
 62
           3
100
AcDbCircle
 10
-19479.182336543388
 20
-1693.513145085616
 40
5.000000000002
100
AcDbArc
 50
93.601026959809
 51
162.897271031015
  0
ARC
  5
366
100
AcDbEntity
  8
1
  6
CONTINUOUS
 62
           3
100
AcDbCircle
 10
-19485.94502661192
 20
-1699.490049672425
 40
1.0
100
AcDbArc
 50
90.0
 51
180.0
  0
ARC
  5
365
100
AcDbEntity
  8
1
  6
CONTINUOUS
 62
           3
100
AcDbCircle
 10
-19485.94502661192
 20
-1700.690049672426
 40
1.0
100
AcDbArc
 50
180.0
 51
-90.0
  0
ARC
  5
364
100
AcDbEntity
  8
1
  6
CONTINUOUS
 62
           3
100
AcDbCircle
 10
-19454.230188442471
 20
-1700.567049672426
 40
1.123
100
AcDbArc
 50
-90.0
 51
-45.000000000008
  0
ARC
  5
363
100
AcDbEntity
  8
1
  6
CONTINUOUS
 62
           3
100
AcDbCircle
 10
-19454.920552505129
 20
-1695.490049672425
 40
3.0
100
AcDbArc
 50
-90.0
 51
-4.864514438112
  0
ARC
  5
362
100
AcDbEntity
  8
1
  6
CONTINUOUS
 62
           3
100
AcDbCircle
 10
-19445.57248345657
 20
-1679.990049672425
 40
5.0
100
AcDbArc
 50
90.0
 51
175.135485562271
  0
ARC
  5
361
100
AcDbEntity
  8
1
  6
CONTINUOUS
 62
           3
100
AcDbCircle
 10
-19403.31756976727
 20
-1679.990049672425
 40
5.000000000001
100
AcDbArc
 50
4.864514437729
 51
90.0
  0
ARC
  5
360
100
AcDbEntity
  8
1
  6
CONTINUOUS
 62
           3
100
AcDbCircle
 10
-19393.969500718711
 20
-1695.490049672425
 40
3.000000000002
100
AcDbArc
 50
-175.135485561887
 51
-90.0
  0
ARC
  5
35F
100
AcDbEntity
  8
1
  6
CONTINUOUS
 62
           3
100
AcDbCircle
 10
-19451.70069792607
 20
-1701.213882817126
 40
1.122999999999
100
AcDbArc
 50
89.897416429533
 51
135.000000000246
  0
ARC
  5
35E
100
AcDbEntity
  8
1
  6
CONTINUOUS
 62
           3
100
AcDbCircle
 10
-19397.19018844247
 20
-1701.213049672427
 40
1.123000000003
100
AcDbArc
 50
44.999999999713
 51
90.0
  0
ARC
  5
35D
100
AcDbEntity
  8
1
  6
CONTINUOUS
 62
           3
100
AcDbCircle
 10
-19394.659864781381
 20
-1700.567049672426
 40
1.123000000001
100
AcDbArc
 50
-134.999999999598
 51
-90.0
  0
ARC
  5
35C
100
AcDbEntity
  8
1
  6
CONTINUOUS
 62
           3
100
AcDbCircle
 10
-19369.707716680459
 20
-1693.513145085616
 40
5.000000000007
100
AcDbArc
 50
17.10272896896
 51
86.398973040107
  0
ARC
  5
35B
100
AcDbEntity
  8
1
  6
CONTINUOUS
 62
           3
100
AcDbCircle
 10
-19362.94502661192
 20
-1700.690049672426
 40
1.0
100
AcDbArc
 50
-90.0
 51
0.0
  0
ARC
  5
35A
100
AcDbEntity
  8
1
  6
CONTINUOUS
 62
           3
100
AcDbCircle
 10
-19362.94502661192
 20
-1699.490049672425
 40
1.0
100
AcDbArc
 50
0.0
 51
90.0
  0
ARC
  5
359
100
AcDbEntity
  8
1
  6
CONTINUOUS
 62
           2
100
AcDbCircle
 10
-19298.138929694029
 20
-1726.990049672425
 40
2.0
100
AcDbArc
 50
90.0
 51
180.0
  0
ARC
  5
358
100
AcDbEntity
  8
1
  6
CONTINUOUS
 62
           2
100
AcDbCircle
 10
-19756.738929694031
 20
-1726.990049672425
 40
2.0
100
AcDbArc
 50
0.0
 51
90.0
  0
ARC
  5
357
100
AcDbEntity
  8
1
  6
CONTINUOUS
 62
           2
100
AcDbCircle
 10
-19756.738929694031
 20
-1778.390049672427
 40
2.0
100
AcDbArc
 50
-90.0
 51
0.0
  0
ARC
  5
356
100
AcDbEntity
  8
1
  6
CONTINUOUS
 62
           3
100
AcDbCircle
 10
-20005.438929694021
 20
-1270.690049672426
 40
4.0
100
AcDbArc
 50
180.0
 51
-90.0
  0
ARC
  5
355
100
AcDbEntity
  8
1
  6
CONTINUOUS
 62
           3
100
AcDbCircle
 10
-20011.438929694021
 20
-1249.690049672426
 40
2.0
100
AcDbArc
 50
0.0
 51
90.0
  0
ARC
  5
354
100
AcDbEntity
  8
1
  6
CONTINUOUS
 62
           3
100
AcDbCircle
 10
-19984.438929694021
 20
-1276.690049672426
 40
2.0
100
AcDbArc
 50
0.0
 51
90.0
  0
ARC
  5
353
100
AcDbEntity
  8
1
  6
CONTINUOUS
 62
           3
100
AcDbCircle
 10
-20219.438929694032
 20
-1270.690049672426
 40
4.0
100
AcDbArc
 50
-90.0
 51
0.0
  0
ARC
  5
352
100
AcDbEntity
  8
1
  6
CONTINUOUS
 62
           3
100
AcDbCircle
 10
-20213.438929694032
 20
-1249.690049672426
 40
2.0
100
AcDbArc
 50
90.0
 51
180.0
  0
ARC
  5
351
100
AcDbEntity
  8
1
  6
CONTINUOUS
 62
           3
100
AcDbCircle
 10
-20240.438929694032
 20
-1276.690049672426
 40
2.0
100
AcDbArc
 50
90.0
 51
180.0
  0
ARC
  5
350
100
AcDbEntity
  8
1
  6
CONTINUOUS
 62
           3
100
AcDbCircle
 10
-20005.438929694021
 20
-1034.690049672426
 40
4.0
100
AcDbArc
 50
90.0
 51
180.0
  0
ARC
  5
34F
100
AcDbEntity
  8
1
  6
CONTINUOUS
 62
           3
100
AcDbCircle
 10
-20011.438929694021
 20
-1055.690049672426
 40
2.0
100
AcDbArc
 50
-90.0
 51
0.0
  0
ARC
  5
34E
100
AcDbEntity
  8
1
  6
CONTINUOUS
 62
           3
100
AcDbCircle
 10
-19984.438929694021
 20
-1028.690049672426
 40
2.0
100
AcDbArc
 50
-90.0
 51
0.0
  0
ARC
  5
34D
100
AcDbEntity
  8
1
  6
CONTINUOUS
 62
           3
100
AcDbCircle
 10
-20005.438929694021
 20
-1020.690049672426
 40
4.0
100
AcDbArc
 50
180.0
 51
-90.0
  0
ARC
  5
34C
100
AcDbEntity
  8
1
  6
CONTINUOUS
 62
           3
100
AcDbCircle
 10
-20011.438929694021
 20
-999.690049672426
 40
2.0
100
AcDbArc
 50
0.0
 51
90.0
  0
ARC
  5
34B
100
AcDbEntity
  8
1
  6
CONTINUOUS
 62
           3
100
AcDbCircle
 10
-19984.438929694021
 20
-1026.690049672426
 40
2.0
100
AcDbArc
 50
0.0
 51
90.0
  0
ARC
  5
34A
100
AcDbEntity
  8
1
  6
CONTINUOUS
 62
           3
100
AcDbCircle
 10
-20219.438929694032
 20
-1034.690049672426
 40
4.0
100
AcDbArc
 50
0.0
 51
90.0
  0
ARC
  5
349
100
AcDbEntity
  8
1
  6
CONTINUOUS
 62
           3
100
AcDbCircle
 10
-20213.438929694032
 20
-1055.690049672426
 40
2.0
100
AcDbArc
 50
180.0
 51
-90.0
  0
ARC
  5
348
100
AcDbEntity
  8
1
  6
CONTINUOUS
 62
           3
100
AcDbCircle
 10
-20240.438929694032
 20
-1028.690049672426
 40
2.0
100
AcDbArc
 50
180.0
 51
-90.0
  0
ARC
  5
347
100
AcDbEntity
  8
1
  6
CONTINUOUS
 62
           3
100
AcDbCircle
 10
-20219.438929694032
 20
-1020.690049672426
 40
4.0
100
AcDbArc
 50
-90.0
 51
0.0
  0
ARC
  5
346
100
AcDbEntity
  8
1
  6
CONTINUOUS
 62
           3
100
AcDbCircle
 10
-20213.438929694032
 20
-999.690049672426
 40
2.0
100
AcDbArc
 50
90.0
 51
180.0
  0
ARC
  5
345
100
AcDbEntity
  8
1
  6
CONTINUOUS
 62
           3
100
AcDbCircle
 10
-20240.438929694032
 20
-1026.690049672426
 40
2.0
100
AcDbArc
 50
90.0
 51
180.0
  0
ARC
  5
344
100
AcDbEntity
  8
1
  6
CONTINUOUS
 62
           3
100
AcDbCircle
 10
-20224.19163227241
 20
-2270.690049672426
 40
5.0
100
AcDbArc
 50
0.0
 51
90.0
  0
ARC
  5
343
100
AcDbEntity
  8
1
  6
CONTINUOUS
 62
           3
100
AcDbCircle
 10
-20224.19163227241
 20
-2280.690049672426
 40
5.0
100
AcDbArc
 50
-90.0
 51
0.0
  0
LWPOLYLINE
  5
342
100
AcDbEntity
  8
1
  6
CONTINUOUS
 62
           2
 60
           1
100
AcDbPolyline
 90
        4
 70
           0
 10
-17239.785268070071
 20
-1647.690049672427
 10
-17239.785268070071
 20
-1512.690049672427
 10
-17213.785268070071
 20
-1468.641143746087
 10
-17078.785268070071
 20
-1459.365725348102
  0
LWPOLYLINE
  5
341
100
AcDbEntity
  8
1
  6
CONTINUOUS
 62
           2
 60
           1
100
AcDbPolyline
 90
        2
 70
           0
 10
-17078.785268070071
 20
-1357.690049672427
 10
-17348.785268070071
 20
-1357.690049672427
  0
CIRCLE
  5
340
100
AcDbEntity
  8
1
  6
PHANTOM
 62
           3
100
AcDbCircle
 10
-17135.40839383889
 20
-1623.690049672427
 40
87.5
  0
CIRCLE
  5
33F
100
AcDbEntity
  8
1
  6
PHANTOM
 62
           3
100
AcDbCircle
 10
-16793.40839383889
 20
-1514.690049672427
 40
62.5
  0
CIRCLE
  5
33E
100
AcDbEntity
  8
1
  6
CONTINUOUS
 62
           3
100
AcDbCircle
 10
-19362.438929694021
 20
-2075.690049672416
 40
15.0
  0
CIRCLE
  5
33D
100
AcDbEntity
  8
1
  6
CONTINUOUS
 62
           3
100
AcDbCircle
 10
-19362.438929694021
 20
-2075.690049672416
 40
13.0
  0
CIRCLE
  5
33C
100
AcDbEntity
  8
1
  6
DOT_CENTER
 62
           3
100
AcDbCircle
 10
-19515.438929694021
 20
-2546.438487731236
 40
14.143399212038
  0
CIRCLE
  5
33B
100
AcDbEntity
  8
1
  6
DOT_CENTER
 62
           3
100
AcDbCircle
 10
-19515.438929694021
 20
-2546.438487731236
 40
9.315647355259
  0
CIRCLE
  5
33A
100
AcDbEntity
  8
1
  6
CONTINUOUS
 62
           3
100
AcDbCircle
 10
-19936.438929694032
 20
1629.425925599789
 40
25.0
  0
CIRCLE
  5
339
100
AcDbEntity
  8
1
  6
CONTINUOUS
 62
           3
100
AcDbCircle
 10
-19936.438929694032
 20
-1227.690049672426
 40
25.0
  0
CIRCLE
  5
338
100
AcDbEntity
  8
1
  6
CONTINUOUS
 62
           3
100
AcDbCircle
 10
-20483.438929694021
 20
-2275.690049672426
 40
4.464352242057
  0
CIRCLE
  5
337
100
AcDbEntity
  8
1
  6
CONTINUOUS
 62
           2
100
AcDbCircle
 10
-17666.40839383889
 20
-1152.690049672427
 40
10.317611070932
  0
ARC
  5
336
100
AcDbEntity
  8
1
  6
CONTINUOUS
 62
           3
100
AcDbCircle
 10
-17228.167583217451
 20
-1709.690049672427
 40
16.240810621433
100
AcDbArc
 50
162.412046225999
 51
-162.412046225995
  0
ARC
  5
335
100
AcDbEntity
  8
1
  6
CONTINUOUS
 62
           2
100
AcDbCircle
 10
-16793.40839383889
 20
-1514.690049672427
 40
100.0
100
AcDbArc
 50
0.0
 51
90.0
  0
ARC
  5
334
100
AcDbEntity
  8
1
  6
CONTINUOUS
 62
           2
100
AcDbCircle
 10
-17120.084349474469
 20
-1589.315391252802
 40
120.602855206268
100
AcDbArc
 50
97.299851412832
 51
-176.103296451813
  0
ARC
  5
333
100
AcDbEntity
  8
1
  6
CONTINUOUS
 62
           3
100
AcDbCircle
 10
-19835.438929694032
 20
406.425925599789
 40
5.5
100
AcDbArc
 50
-90.0
 51
-139.834651369475
  0
ARC
  5
332
100
AcDbEntity
  8
1
  6
CONTINUOUS
 62
           3
100
AcDbCircle
 10
-19835.438929694032
 20
406.425925599789
 40
10.0
100
AcDbArc
 50
-90.0
 51
-146.632987030743
  0
ARC
  5
331
100
AcDbEntity
  8
1
  6
CONTINUOUS
 62
           3
100
AcDbCircle
 10
-21389.438929694021
 20
406.425925599789
 40
5.499999999993
100
AcDbArc
 50
-40.165348630574
 51
-90.0
  0
ARC
  5
330
100
AcDbEntity
  8
1
  6
CONTINUOUS
 62
           3
100
AcDbCircle
 10
-21389.438929694021
 20
406.425925599789
 40
9.999999999987
100
AcDbArc
 50
-33.367012969279
 51
-90.0
  0
ARC
  5
32F
100
AcDbEntity
  8
1
  6
PHANTOM
 62
           3
100
AcDbCircle
 10
-19217.438929694032
 20
507.425925599785
 40
440.0
100
AcDbArc
 50
179.999999999999
 51
-99.795085792136
  0
ARC
  5
32E
100
AcDbEntity
  8
1
  6
PHANTOM
 62
           3
100
AcDbCircle
 10
-19839.213477232901
 20
404.925925599789
 40
778.509150369553
100
AcDbArc
 50
-89.722204304525
 51
-46.376594654663
  0
ARC
  5
32D
100
AcDbEntity
  8
1
  6
PHANTOM
 62
           3
100
AcDbCircle
 10
-19833.938929694032
 20
404.925925599788
 40
778.501445085364
100
AcDbArc
 50
179.889603644296
 51
-90.110396355703
  0
ARC
  5
32C
100
AcDbEntity
  8
1
  6
PHANTOM
 62
           3
100
AcDbCircle
 10
-21390.938929694021
 20
404.925925599789
 40
778.501445085365
100
AcDbArc
 50
-89.889603644298
 51
0.110396355703
  0
ARC
  5
32B
100
AcDbEntity
  8
1
  6
PHANTOM
 62
           3
100
AcDbCircle
 10
-21385.664382155159
 20
404.925925599789
 40
778.509150369556
100
AcDbArc
 50
-133.623405345337
 51
-90.277795695475
  0
ARC
  5
32A
100
AcDbEntity
  8
1
  6
CONTINUOUS
 62
           3
100
AcDbCircle
 10
-16793.40839383889
 20
-1227.690049672427
 40
25.0
100
AcDbArc
 50
0.0
 51
180.0
  0
LINE
  5
329
100
AcDbEntity
  8
1
  6
CONTINUOUS
 62
           7
100
AcDbLine
 10
-22299.291312949201
 20
-3547.77090619522
 11
-22299.291312949201
 21
2277.41621581616
  0
LINE
  5
328
100
AcDbEntity
  8
1
  6
CONTINUOUS
 62
           7
100
AcDbLine
 10
-15935.980669274
 20
-3547.77090619522
 11
-22299.291312949201
 21
-3547.77090619522
  0
LINE
  5
327
100
AcDbEntity
  8
1
  6
CONTINUOUS
 62
           7
100
AcDbLine
 10
-15935.980669274
 20
2277.41621581616
 11
-15935.980669274
 21
-3547.77090619522
  0
LINE
  5
326
100
AcDbEntity
  8
1
  6
CONTINUOUS
 62
           7
100
AcDbLine
 10
-22299.291312949201
 20
2277.41621581616
 11
-15935.980669274
 21
2277.41621581616
  0
LINE
  5
325
100
AcDbEntity
  8
1
  6
CONTINUOUS
 62
           2
100
AcDbLine
 10
-19522.438929694032
 20
1904.425925599789
 11
-19522.438929694032
 21
1394.425925599789
  0
LINE
  5
324
100
AcDbEntity
  8
1
  6
CONTINUOUS
 62
           2
100
AcDbLine
 10
-19787.438929694032
 20
1904.425925599789
 11
-19522.438929694032
 21
1904.425925599789
  0
LINE
  5
323
100
AcDbEntity
  8
1
  6
CONTINUOUS
 62
           2
100
AcDbLine
 10
-19522.438929694032
 20
1394.425925599789
 11
-19787.438929694032
 21
1394.425925599789
  0
LINE
  5
322
100
AcDbEntity
  8
1
  6
CONTINUOUS
 62
           2
100
AcDbLine
 10
-19522.438929694032
 20
1764.425925599789
 11
-19302.438929694032
 21
1764.425925599789
  0
LINE
  5
321
100
AcDbEntity
  8
1
  6
CONTINUOUS
 62
           2
100
AcDbLine
 10
-19522.438929694032
 20
1739.425925599789
 11
-19322.438929694032
 21
1739.425925599789
  0
LINE
  5
320
100
AcDbEntity
  8
1
  6
CONTINUOUS
 62
           2
100
AcDbLine
 10
-19302.438929694032
 20
1854.425925599789
 11
-19522.438929694032
 21
1854.425925599789
  0
LINE
  5
31F
100
AcDbEntity
  8
1
  6
CONTINUOUS
 62
           2
100
AcDbLine
 10
-19522.438929694032
 20
1879.425925599789
 11
-19277.438929694032
 21
1879.425925599789
  0
LINE
  5
31E
100
AcDbEntity
  8
1
  6
CONTINUOUS
 62
           2
100
AcDbLine
 10
-19302.438929694032
 20
1325.925925599789
 11
-19302.438929694032
 21
1854.425925599789
  0
LINE
  5
31D
100
AcDbEntity
  8
1
  6
CONTINUOUS
 62
           2
100
AcDbLine
 10
-19277.438929694032
 20
1879.425925599789
 11
-19277.438929694032
 21
1639.425925599789
  0
LINE
  5
31C
100
AcDbEntity
  8
1
  6
CONTINUOUS
 62
           2
100
AcDbLine
 10
-19302.438929694032
 20
1854.425925599789
 11
-19302.438929694032
 21
1879.425925599789
  0
LINE
  5
31B
100
AcDbEntity
  8
1
  6
CONTINUOUS
 62
           2
100
AcDbLine
 10
-19322.438929694032
 20
1215.925925599789
 11
-19301.438929694032
 21
1215.925925599789
  0
LINE
  5
31A
100
AcDbEntity
  8
1
  6
CONTINUOUS
 62
           3
100
AcDbLine
 10
-19330.438929694032
 20
1324.025925599791
 11
-19330.438929694032
 21
1353.425925599789
  0
LINE
  5
319
100
AcDbEntity
  8
1
  6
CONTINUOUS
 62
           3
100
AcDbLine
 10
-19330.438929694032
 20
1165.425925599789
 11
-19330.438929694032
 21
1194.82592559979
  0
LINE
  5
318
100
AcDbEntity
  8
1
  6
CONTINUOUS
 62
           2
100
AcDbLine
 10
-19301.438929694032
 20
1192.925925599789
 11
-19327.438929694032
 21
1192.925925599789
  0
LINE
  5
317
100
AcDbEntity
  8
1
  6
CONTINUOUS
 62
           2
100
AcDbLine
 10
-19299.438929694032
 20
1213.925925599789
 11
-19299.438929694032
 21
1194.925925599789
  0
LINE
  5
316
100
AcDbEntity
  8
1
  6
CONTINUOUS
 62
           2
100
AcDbLine
 10
-19326.438929694032
 20
1325.925925599789
 11
-19326.438929694032
 21
1353.425925599789
  0
LINE
  5
315
100
AcDbEntity
  8
1
  6
CONTINUOUS
 62
           2
100
AcDbLine
 10
-19301.438929694032
 20
1302.925925599789
 11
-19322.438929694032
 21
1302.925925599789
  0
LINE
  5
314
100
AcDbEntity
  8
1
  6
CONTINUOUS
 62
           2
100
AcDbLine
 10
-19299.438929694032
 20
1323.925925599789
 11
-19299.438929694032
 21
1304.925925599789
  0
LINE
  5
313
100
AcDbEntity
  8
1
  6
CONTINUOUS
 62
           2
100
AcDbLine
 10
-19326.438929694032
 20
1325.925925599789
 11
-19301.438929694032
 21
1325.925925599789
  0
LINE
  5
312
100
AcDbEntity
  8
1
  6
CONTINUOUS
 62
           2
100
AcDbLine
 10
-19326.438929694032
 20
1165.425925599789
 11
-19326.438929694032
 21
1192.925925599789
  0
LINE
  5
311
100
AcDbEntity
  8
1
  6
CONTINUOUS
 62
           2
100
AcDbLine
 10
-19334.938929694032
 20
1226.574813909868
 11
-19358.938929694032
 21
1226.574813909868
  0
LINE
  5
310
100
AcDbEntity
  8
1
  6
CONTINUOUS
 62
           2
100
AcDbLine
 10
-19358.938929694032
 20
1223.599679909959
 11
-19370.938929694032
 21
1223.599679909959
  0
LINE
  5
30F
100
AcDbEntity
  8
1
  6
CONTINUOUS
 62
           2
100
AcDbLine
 10
-19358.938929694032
 20
1233.462265639809
 11
-19370.938929694032
 21
1233.462265639809
  0
LINE
  5
30E
100
AcDbEntity
  8
1
  6
CONTINUOUS
 62
           2
100
AcDbLine
 10
-19358.938929694032
 20
1223.599679909959
 11
-19358.938929694032
 21
1234.79715818274
  0
LINE
  5
30D
100
AcDbEntity
  8
1
  6
CONTINUOUS
 62
           2
100
AcDbLine
 10
-19358.938929694032
 20
1234.79715818274
 11
-19370.938929694032
 21
1234.79715818274
  0
LINE
  5
30C
100
AcDbEntity
  8
1
  6
CONTINUOUS
 62
           2
100
AcDbLine
 10
-19370.938929694032
 20
1223.599679909959
 11
-19370.938929694032
 21
1234.79715818274
  0
LINE
  5
30B
100
AcDbEntity
  8
1
  6
CONTINUOUS
 62
           2
100
AcDbLine
 10
-19322.438929694032
 20
1194.82592559979
 11
-19334.938929694032
 21
1194.82592559979
  0
LINE
  5
30A
100
AcDbEntity
  8
1
  6
CONTINUOUS
 62
           2
100
AcDbLine
 10
-19334.938929694032
 20
1182.990064698271
 11
-19334.938929694032
 21
1226.574813909868
  0
LINE
  5
309
100
AcDbEntity
  8
1
  6
CONTINUOUS
 62
           2
100
AcDbLine
 10
-19279.438929694032
 20
1266.425925599789
 11
-19309.438929694032
 21
1266.425925599789
  0
LINE
  5
308
100
AcDbEntity
  8
1
  6
CONTINUOUS
 62
           2
100
AcDbLine
 10
-19279.438929694032
 20
1252.425925599789
 11
-19279.438929694032
 21
1266.425925599789
  0
LINE
  5
307
100
AcDbEntity
  8
1
  6
CONTINUOUS
 62
           2
100
AcDbLine
 10
-19309.438929694032
 20
1252.425925599789
 11
-19279.438929694032
 21
1252.425925599789
  0
LINE
  5
306
100
AcDbEntity
  8
1
  6
CONTINUOUS
 62
           2
100
AcDbLine
 10
-19312.438929694032
 20
1249.425925599789
 11
-19309.438929694032
 21
1249.425925599789
  0
LINE
  5
305
100
AcDbEntity
  8
1
  6
CONTINUOUS
 62
           2
100
AcDbLine
 10
-19309.438929694032
 20
1269.425925599789
 11
-19309.438929694032
 21
1249.425925599789
  0
LINE
  5
304
100
AcDbEntity
  8
1
  6
CONTINUOUS
 62
           2
100
AcDbLine
 10
-19312.438929694032
 20
1269.425925599789
 11
-19309.438929694032
 21
1269.425925599789
  0
LINE
  5
303
100
AcDbEntity
  8
1
  6
CONTINUOUS
 62
           2
100
AcDbLine
 10
-19312.438929694032
 20
1239.425925599789
 11
-19322.438929694032
 21
1239.425925599789
  0
LINE
  5
302
100
AcDbEntity
  8
1
  6
CONTINUOUS
 62
           2
100
AcDbLine
 10
-19312.438929694032
 20
1279.425925599789
 11
-19312.438929694032
 21
1239.425925599789
  0
LINE
  5
301
100
AcDbEntity
  8
1
  6
CONTINUOUS
 62
           2
100
AcDbLine
 10
-19322.438929694032
 20
1279.425925599789
 11
-19312.438929694032
 21
1279.425925599789
  0
LINE
  5
300
100
AcDbEntity
  8
1
  6
CONTINUOUS
 62
           2
100
AcDbLine
 10
-19322.438929694032
 20
1324.025925599791
 11
-19322.438929694032
 21
1194.82592559979
  0
LINE
  5
2FF
100
AcDbEntity
  8
1
  6
CONTINUOUS
 62
           2
100
AcDbLine
 10
-19277.438929694032
 20
1619.425925599789
 11
-19277.438929694032
 21
1089.425925599789
  0
LINE
  5
2FE
100
AcDbEntity
  8
1
  6
CONTINUOUS
 62
           2
100
AcDbLine
 10
-19322.438929694032
 20
1619.425925599789
 11
-19322.438929694032
 21
1519.425925599789
  0
LINE
  5
2FD
100
AcDbEntity
  8
1
  6
CONTINUOUS
 62
           2
100
AcDbLine
 10
-19340.238929694031
 20
1614.425925599789
 11
-19335.938929694032
 21
1614.425925599789
  0
LINE
  5
2FC
100
AcDbEntity
  8
1
  6
CONTINUOUS
 62
           2
100
AcDbLine
 10
-19340.044318915589
 20
1607.925925599789
 11
-19335.438929694032
 21
1607.925925599789
  0
LINE
  5
2FB
100
AcDbEntity
  8
1
  6
CONTINUOUS
 62
           2
100
AcDbLine
 10
-19340.044318915589
 20
1650.925925599789
 11
-19335.438929694032
 21
1650.925925599789
  0
LINE
  5
2FA
100
AcDbEntity
  8
1
  6
CONTINUOUS
 62
           2
100
AcDbLine
 10
-19340.643231027181
 20
1630.922261072428
 11
-19339.738929694031
 21
1661.12592559979
  0
LINE
  5
2F9
100
AcDbEntity
  8
1
  6
CONTINUOUS
 62
           2
100
AcDbLine
 10
-19339.738929694031
 20
1597.725925599788
 11
-19340.643231027181
 21
1627.92959012715
  0
LINE
  5
2F8
100
AcDbEntity
  8
1
  6
CONTINUOUS
 62
           2
100
AcDbLine
 10
-19364.234628360871
 20
1627.92959012715
 11
-19365.138929694029
 21
1597.725925599788
  0
LINE
  5
2F7
100
AcDbEntity
  8
1
  6
CONTINUOUS
 62
           2
100
AcDbLine
 10
-19365.138929694029
 20
1661.12592559979
 11
-19364.234628360871
 21
1630.922261072428
  0
LINE
  5
2F6
100
AcDbEntity
  8
1
  6
CONTINUOUS
 62
           2
100
AcDbLine
 10
-19339.738929694031
 20
1597.725925599788
 11
-19365.138929694029
 21
1597.725925599788
  0
LINE
  5
2F5
100
AcDbEntity
  8
1
  6
CONTINUOUS
 62
           2
100
AcDbLine
 10
-19365.138929694029
 20
1661.12592559979
 11
-19339.738929694031
 21
1661.12592559979
  0
LINE
  5
2F4
100
AcDbEntity
  8
1
  6
CONTINUOUS
 62
           2
100
AcDbLine
 10
-19335.938929694032
 20
1644.425925599789
 11
-19335.438929694032
 21
1643.925925599789
  0
LINE
  5
2F3
100
AcDbEntity
  8
1
  6
CONTINUOUS
 62
           2
100
AcDbLine
 10
-19365.138929694029
 20
1643.925925599789
 11
-19364.638929694029
 21
1644.425925599789
  0
LINE
  5
2F2
100
AcDbEntity
  8
1
  6
CONTINUOUS
 62
           2
100
AcDbLine
 10
-19364.638929694029
 20
1614.425925599789
 11
-19365.138929694029
 21
1614.925925599789
  0
LINE
  5
2F1
100
AcDbEntity
  8
1
  6
CONTINUOUS
 62
           2
100
AcDbLine
 10
-19335.938929694032
 20
1614.425925599789
 11
-19335.438929694032
 21
1614.925925599789
  0
LINE
  5
2F0
100
AcDbEntity
  8
1
  6
CONTINUOUS
 62
           2
100
AcDbLine
 10
-19365.138929694029
 20
1643.925925599789
 11
-19365.138929694029
 21
1614.925925599789
  0
LINE
  5
2EF
100
AcDbEntity
  8
1
  6
CONTINUOUS
 62
           2
100
AcDbLine
 10
-19335.938929694032
 20
1644.425925599789
 11
-19340.238929694031
 21
1644.425925599789
  0
LINE
  5
2EE
100
AcDbEntity
  8
1
  6
CONTINUOUS
 62
           2
100
AcDbLine
 10
-19335.438929694032
 20
1614.925925599789
 11
-19335.438929694032
 21
1643.925925599789
  0
LINE
  5
2ED
100
AcDbEntity
  8
1
  6
CONTINUOUS
 62
           2
100
AcDbLine
 10
-19335.438929694032
 20
1565.925925599789
 11
-19369.438929694032
 21
1565.925925599789
  0
LINE
  5
2EC
100
AcDbEntity
  8
1
  6
CONTINUOUS
 62
           2
100
AcDbLine
 10
-19333.438929694032
 20
1605.925925599789
 11
-19333.438929694032
 21
1567.925925599789
  0
LINE
  5
2EB
100
AcDbEntity
  8
1
  6
CONTINUOUS
 62
           2
100
AcDbLine
 10
-19369.438929694032
 20
1607.925925599789
 11
-19364.833540472471
 21
1607.925925599789
  0
LINE
  5
2EA
100
AcDbEntity
  8
1
  6
CONTINUOUS
 62
           2
100
AcDbLine
 10
-19371.438929694032
 20
1567.925925599789
 11
-19371.438929694032
 21
1605.925925599789
  0
LINE
  5
2E9
100
AcDbEntity
  8
1
  6
CONTINUOUS
 62
           2
100
AcDbLine
 10
-19369.438929694032
 20
1650.925925599789
 11
-19364.833540472471
 21
1650.925925599789
  0
LINE
  5
2E8
100
AcDbEntity
  8
1
  6
CONTINUOUS
 62
           2
100
AcDbLine
 10
-19371.438929694032
 20
1690.925925599789
 11
-19371.438929694032
 21
1652.925925599789
  0
LINE
  5
2E7
100
AcDbEntity
  8
1
  6
CONTINUOUS
 62
           2
100
AcDbLine
 10
-19335.438929694032
 20
1692.925925599789
 11
-19369.438929694032
 21
1692.925925599789
  0
LINE
  5
2E6
100
AcDbEntity
  8
1
  6
CONTINUOUS
 62
           2
100
AcDbLine
 10
-19333.438929694032
 20
1652.925925599789
 11
-19333.438929694032
 21
1690.925925599789
  0
LINE
  5
2E5
100
AcDbEntity
  8
1
  6
CONTINUOUS
 62
           2
100
AcDbLine
 10
-19262.438929694032
 20
1639.425925599789
 11
-19335.438929694032
 21
1639.425925599789
  0
LINE
  5
2E4
100
AcDbEntity
  8
1
  6
CONTINUOUS
 62
           2
100
AcDbLine
 10
-19335.438929694032
 20
1619.425925599789
 11
-19262.438929694032
 21
1619.425925599789
  0
LINE
  5
2E3
100
AcDbEntity
  8
1
  6
PHANTOM
 62
           3
100
AcDbLine
 10
-19307.438929694032
 20
1654.425925599789
 11
-19287.438929694032
 21
1654.425925599789
  0
LINE
  5
2E2
100
AcDbEntity
  8
1
  6
PHANTOM
 62
           3
100
AcDbLine
 10
-19307.438929694032
 20
1604.425925599789
 11
-19307.438929694032
 21
1654.425925599789
  0
LINE
  5
2E1
100
AcDbEntity
  8
1
  6
PHANTOM
 62
           3
100
AcDbLine
 10
-19287.438929694032
 20
1604.425925599789
 11
-19307.438929694032
 21
1604.425925599789
  0
LINE
  5
2E0
100
AcDbEntity
  8
1
  6
PHANTOM
 62
           3
100
AcDbLine
 10
-19262.438929694032
 20
1691.925925599789
 11
-19262.438929694032
 21
1566.925925599789
  0
LINE
  5
2DF
100
AcDbEntity
  8
1
  6
PHANTOM
 62
           3
100
AcDbLine
 10
-19287.438929694032
 20
1691.925925599789
 11
-19262.438929694032
 21
1691.925925599789
  0
LINE
  5
2DE
100
AcDbEntity
  8
1
  6
PHANTOM
 62
           3
100
AcDbLine
 10
-19287.438929694032
 20
1566.925925599789
 11
-19287.438929694032
 21
1691.925925599789
  0
LINE
  5
2DD
100
AcDbEntity
  8
1
  6
PHANTOM
 62
           3
100
AcDbLine
 10
-19262.438929694032
 20
1566.925925599789
 11
-19287.438929694032
 21
1566.925925599789
  0
LINE
  5
2DC
100
AcDbEntity
  8
1
  6
CONTINUOUS
 62
           2
100
AcDbLine
 10
-19262.438929694032
 20
1619.425925599789
 11
-19262.438929694032
 21
1639.425925599789
  0
LINE
  5
2DB
100
AcDbEntity
  8
1
  6
PHANTOM
 62
           3
100
AcDbLine
 10
-19319.438929694032
 20
1129.425925599789
 11
-19239.438929694032
 21
1129.425925599789
  0
LINE
  5
2DA
100
AcDbEntity
  8
1
  6
PHANTOM
 62
           3
100
AcDbLine
 10
-19319.438929694032
 20
1779.425925599789
 11
-19319.438929694032
 21
1129.425925599789
  0
LINE
  5
2D9
100
AcDbEntity
  8
1
  6
PHANTOM
 62
           3
100
AcDbLine
 10
-19239.438929694032
 20
1779.425925599789
 11
-19319.438929694032
 21
1779.425925599789
  0
LINE
  5
2D8
100
AcDbEntity
  8
1
  6
PHANTOM
 62
           3
100
AcDbLine
 10
-19239.438929694032
 20
1129.425925599789
 11
-19239.438929694032
 21
1779.425925599789
  0
LINE
  5
2D7
100
AcDbEntity
  8
1
  6
CONTINUOUS
 62
           2
100
AcDbLine
 10
-19302.438929694032
 20
1089.425925599789
 11
-19302.438929694032
 21
1192.925925599789
  0
LINE
  5
2D6
100
AcDbEntity
  8
1
  6
CONTINUOUS
 62
           2
100
AcDbLine
 10
-19277.438929694032
 20
1089.425925599789
 11
-19302.438929694032
 21
1089.425925599789
  0
LINE
  5
2D5
100
AcDbEntity
  8
1
  6
CONTINUOUS
 62
           2
100
AcDbLine
 10
-19322.438929694032
 20
1739.425925599789
 11
-19322.438929694032
 21
1639.425925599789
  0
LINE
  5
2D4
100
AcDbEntity
  8
1
  6
PHANTOM
 62
           3
100
AcDbLine
 10
-19307.438929694032
 20
1284.425925599789
 11
-19287.438929694032
 21
1284.425925599789
  0
LINE
  5
2D3
100
AcDbEntity
  8
1
  6
PHANTOM
 62
           3
100
AcDbLine
 10
-19307.438929694032
 20
1234.425925599789
 11
-19307.438929694032
 21
1284.425925599789
  0
LINE
  5
2D2
100
AcDbEntity
  8
1
  6
PHANTOM
 62
           3
100
AcDbLine
 10
-19287.438929694032
 20
1234.425925599789
 11
-19307.438929694032
 21
1234.425925599789
  0
LINE
  5
2D1
100
AcDbEntity
  8
1
  6
PHANTOM
 62
           3
100
AcDbLine
 10
-19262.438929694032
 20
1346.925925599789
 11
-19262.438929694032
 21
1171.925925599789
  0
LINE
  5
2D0
100
AcDbEntity
  8
1
  6
PHANTOM
 62
           3
100
AcDbLine
 10
-19287.438929694032
 20
1346.925925599789
 11
-19262.438929694032
 21
1346.925925599789
  0
LINE
  5
2CF
100
AcDbEntity
  8
1
  6
PHANTOM
 62
           3
100
AcDbLine
 10
-19287.438929694032
 20
1171.925925599789
 11
-19287.438929694032
 21
1346.925925599789
  0
LINE
  5
2CE
100
AcDbEntity
  8
1
  6
PHANTOM
 62
           3
100
AcDbLine
 10
-19262.438929694032
 20
1171.925925599789
 11
-19287.438929694032
 21
1171.925925599789
  0
LINE
  5
2CD
100
AcDbEntity
  8
1
  6
CONTINUOUS
 62
           2
100
AcDbLine
 10
-19302.438929694032
 20
1215.925925599789
 11
-19302.438929694032
 21
1302.925925599789
  0
LINE
  5
2CC
100
AcDbEntity
  8
1
  6
CONTINUOUS
 62
           2
100
AcDbLine
 10
-19470.238929694031
 20
1614.425925599789
 11
-19465.938929694032
 21
1614.425925599789
  0
LINE
  5
2CB
100
AcDbEntity
  8
1
  6
CONTINUOUS
 62
           2
100
AcDbLine
 10
-19470.044318915589
 20
1607.925925599789
 11
-19465.438929694032
 21
1607.925925599789
  0
LINE
  5
2CA
100
AcDbEntity
  8
1
  6
CONTINUOUS
 62
           2
100
AcDbLine
 10
-19470.044318915589
 20
1650.925925599789
 11
-19465.438929694032
 21
1650.925925599789
  0
LINE
  5
2C9
100
AcDbEntity
  8
1
  6
CONTINUOUS
 62
           2
100
AcDbLine
 10
-19470.643231027181
 20
1630.922261072428
 11
-19469.738929694031
 21
1661.12592559979
  0
LINE
  5
2C8
100
AcDbEntity
  8
1
  6
CONTINUOUS
 62
           2
100
AcDbLine
 10
-19469.738929694031
 20
1597.725925599788
 11
-19470.643231027181
 21
1627.92959012715
  0
LINE
  5
2C7
100
AcDbEntity
  8
1
  6
CONTINUOUS
 62
           2
100
AcDbLine
 10
-19494.234628360871
 20
1627.92959012715
 11
-19495.138929694029
 21
1597.725925599788
  0
LINE
  5
2C6
100
AcDbEntity
  8
1
  6
CONTINUOUS
 62
           2
100
AcDbLine
 10
-19495.138929694029
 20
1661.12592559979
 11
-19494.234628360871
 21
1630.922261072428
  0
LINE
  5
2C5
100
AcDbEntity
  8
1
  6
CONTINUOUS
 62
           2
100
AcDbLine
 10
-19469.738929694031
 20
1597.725925599788
 11
-19495.138929694029
 21
1597.725925599788
  0
LINE
  5
2C4
100
AcDbEntity
  8
1
  6
CONTINUOUS
 62
           2
100
AcDbLine
 10
-19495.138929694029
 20
1661.12592559979
 11
-19469.738929694031
 21
1661.12592559979
  0
LINE
  5
2C3
100
AcDbEntity
  8
1
  6
CONTINUOUS
 62
           2
100
AcDbLine
 10
-19465.938929694032
 20
1644.425925599789
 11
-19465.438929694032
 21
1643.925925599789
  0
LINE
  5
2C2
100
AcDbEntity
  8
1
  6
CONTINUOUS
 62
           2
100
AcDbLine
 10
-19495.138929694029
 20
1643.925925599789
 11
-19494.638929694029
 21
1644.425925599789
  0
LINE
  5
2C1
100
AcDbEntity
  8
1
  6
CONTINUOUS
 62
           2
100
AcDbLine
 10
-19494.638929694029
 20
1614.425925599789
 11
-19495.138929694029
 21
1614.925925599789
  0
LINE
  5
2C0
100
AcDbEntity
  8
1
  6
CONTINUOUS
 62
           2
100
AcDbLine
 10
-19465.938929694032
 20
1614.425925599789
 11
-19465.438929694032
 21
1614.925925599789
  0
LINE
  5
2BF
100
AcDbEntity
  8
1
  6
CONTINUOUS
 62
           2
100
AcDbLine
 10
-19495.138929694029
 20
1643.925925599789
 11
-19495.138929694029
 21
1614.925925599789
  0
LINE
  5
2BE
100
AcDbEntity
  8
1
  6
CONTINUOUS
 62
           2
100
AcDbLine
 10
-19465.938929694032
 20
1644.425925599789
 11
-19470.238929694031
 21
1644.425925599789
  0
LINE
  5
2BD
100
AcDbEntity
  8
1
  6
CONTINUOUS
 62
           2
100
AcDbLine
 10
-19465.438929694032
 20
1614.925925599789
 11
-19465.438929694032
 21
1643.925925599789
  0
LINE
  5
2BC
100
AcDbEntity
  8
1
  6
CONTINUOUS
 62
           2
100
AcDbLine
 10
-19465.438929694032
 20
1565.925925599789
 11
-19499.438929694032
 21
1565.925925599789
  0
LINE
  5
2BB
100
AcDbEntity
  8
1
  6
CONTINUOUS
 62
           2
100
AcDbLine
 10
-19463.438929694032
 20
1605.925925599789
 11
-19463.438929694032
 21
1567.925925599789
  0
LINE
  5
2BA
100
AcDbEntity
  8
1
  6
CONTINUOUS
 62
           2
100
AcDbLine
 10
-19499.438929694032
 20
1607.925925599789
 11
-19494.833540472471
 21
1607.925925599789
  0
LINE
  5
2B9
100
AcDbEntity
  8
1
  6
CONTINUOUS
 62
           2
100
AcDbLine
 10
-19501.438929694032
 20
1567.925925599789
 11
-19501.438929694032
 21
1605.925925599789
  0
LINE
  5
2B8
100
AcDbEntity
  8
1
  6
CONTINUOUS
 62
           2
100
AcDbLine
 10
-19499.438929694032
 20
1650.925925599789
 11
-19494.833540472471
 21
1650.925925599789
  0
LINE
  5
2B7
100
AcDbEntity
  8
1
  6
CONTINUOUS
 62
           2
100
AcDbLine
 10
-19501.438929694032
 20
1690.925925599789
 11
-19501.438929694032
 21
1652.925925599789
  0
LINE
  5
2B6
100
AcDbEntity
  8
1
  6
CONTINUOUS
 62
           2
100
AcDbLine
 10
-19465.438929694032
 20
1692.925925599789
 11
-19499.438929694032
 21
1692.925925599789
  0
LINE
  5
2B5
100
AcDbEntity
  8
1
  6
CONTINUOUS
 62
           2
100
AcDbLine
 10
-19463.438929694032
 20
1652.925925599789
 11
-19463.438929694032
 21
1690.925925599789
  0
LINE
  5
2B4
100
AcDbEntity
  8
1
  6
CONTINUOUS
 62
           2
100
AcDbLine
 10
-19465.438929694032
 20
1639.425925599789
 11
-19365.138929694029
 21
1639.425925599789
  0
LINE
  5
2B3
100
AcDbEntity
  8
1
  6
CONTINUOUS
 62
           2
100
AcDbLine
 10
-19465.438929694032
 20
1619.425925599789
 11
-19365.138929694029
 21
1619.425925599789
  0
LINE
  5
2B2
100
AcDbEntity
  8
1
  6
CONTINUOUS
 62
           2
100
AcDbLine
 10
-19302.438929694032
 20
1494.425925599789
 11
-19522.438929694032
 21
1494.425925599789
  0
LINE
  5
2B1
100
AcDbEntity
  8
1
  6
CONTINUOUS
 62
           2
100
AcDbLine
 10
-19322.438929694032
 20
1519.425925599789
 11
-19522.438929694032
 21
1519.425925599789
  0
LINE
  5
2B0
100
AcDbEntity
  8
1
  6
CONTINUOUS
 62
           2
100
AcDbLine
 10
-19522.438929694032
 20
1619.425925599789
 11
-19495.138929694029
 21
1619.425925599789
  0
LINE
  5
2AF
100
AcDbEntity
  8
1
  6
CONTINUOUS
 62
           2
100
AcDbLine
 10
-19522.438929694032
 20
1639.425925599789
 11
-19495.138929694029
 21
1639.425925599789
  0
LINE
  5
2AE
100
AcDbEntity
  8
1
  6
CONTINUOUS
 62
           2
100
AcDbLine
 10
-19517.438929694032
 20
1294.425925599789
 11
-19752.438929694032
 21
1294.425925599789
  0
LINE
  5
2AD
100
AcDbEntity
  8
1
  6
CONTINUOUS
 62
           2
100
AcDbLine
 10
-19752.438929694032
 20
1359.425925599789
 11
-19302.438929694032
 21
1359.425925599789
  0
LINE
  5
2AC
100
AcDbEntity
  8
1
  6
CONTINUOUS
 62
           2
100
AcDbLine
 10
-19752.438929694032
 20
1089.425925599789
 11
-19752.438929694032
 21
1394.425925599789
  0
LINE
  5
2AB
100
AcDbEntity
  8
1
  6
CONTINUOUS
 62
           2
100
AcDbLine
 10
-19777.438929694032
 20
1089.425925599789
 11
-19777.438929694032
 21
1394.425925599789
  0
LINE
  5
2AA
100
AcDbEntity
  8
1
  6
CONTINUOUS
 62
           2
100
AcDbLine
 10
-19777.438929694032
 20
1089.425925599789
 11
-19752.438929694032
 21
1089.425925599789
  0
LINE
  5
2A9
100
AcDbEntity
  8
1
  6
CONTINUOUS
 62
           2
100
AcDbLine
 10
-19411.438929694032
 20
1159.425925599789
 11
-19752.438929694032
 21
1159.425925599789
  0
LINE
  5
2A8
100
AcDbEntity
  8
1
  6
CONTINUOUS
 62
           2
100
AcDbLine
 10
-19752.438929694032
 20
1224.425925599789
 11
-19517.438929694032
 21
1224.425925599789
  0
LINE
  5
2A7
100
AcDbEntity
  8
1
  6
CONTINUOUS
 62
           3
100
AcDbLine
 10
-19469.438929694032
 20
1185.62592559979
 11
-19469.438929694032
 21
1165.425925599789
  0
LINE
  5
2A6
100
AcDbEntity
  8
1
  6
CONTINUOUS
 62
           2
100
AcDbLine
 10
-19472.438929694032
 20
1185.62592559979
 11
-19472.438929694032
 21
1165.425925599789
  0
LINE
  5
2A5
100
AcDbEntity
  8
1
  6
CONTINUOUS
 62
           3
100
AcDbLine
 10
-19469.438929694032
 20
1353.425925599789
 11
-19469.438929694032
 21
1333.225925599788
  0
LINE
  5
2A4
100
AcDbEntity
  8
1
  6
CONTINUOUS
 62
           3
100
AcDbLine
 10
-19333.438929694032
 20
1356.425925599789
 11
-19466.438929694032
 21
1356.425925599789
  0
LINE
  5
2A3
100
AcDbEntity
  8
1
  6
CONTINUOUS
 62
           3
100
AcDbLine
 10
-19466.438929694032
 20
1162.425925599789
 11
-19333.438929694032
 21
1162.425925599789
  0
LINE
  5
2A2
100
AcDbEntity
  8
1
  6
DOT_CENTER
 62
           3
100
AcDbLine
 10
-19399.438929694032
 20
1333.41764040363
 11
-19399.438929694032
 21
1182.173751369478
  0
LINE
  5
2A1
100
AcDbEntity
  8
1
  6
CONTINUOUS
 62
           2
100
AcDbLine
 10
-19472.438929694032
 20
1353.425925599789
 11
-19472.438929694032
 21
1333.225925599788
  0
LINE
  5
2A0
100
AcDbEntity
  8
1
  6
CONTINUOUS
 62
           2
100
AcDbLine
 10
-19407.938929694032
 20
1157.425925599789
 11
-19390.938929694032
 21
1157.425925599789
  0
LINE
  5
29F
100
AcDbEntity
  8
1
  6
CONTINUOUS
 62
           2
100
AcDbLine
 10
-19399.438929694032
 20
1157.425925599789
 11
-19399.438929694032
 21
1151.18511497835
  0
LINE
  5
29E
100
AcDbEntity
  8
1
  6
CONTINUOUS
 62
           2
100
AcDbLine
 10
-19390.938929694032
 20
1150.425925599789
 11
-19390.938929694032
 21
1157.425925599789
  0
LINE
  5
29D
100
AcDbEntity
  8
1
  6
CONTINUOUS
 62
           2
100
AcDbLine
 10
-19407.938929694032
 20
1150.425925599789
 11
-19390.938929694032
 21
1150.425925599789
  0
LINE
  5
29C
100
AcDbEntity
  8
1
  6
CONTINUOUS
 62
           2
100
AcDbLine
 10
-19407.938929694032
 20
1157.425925599789
 11
-19407.938929694032
 21
1150.425925599789
  0
LINE
  5
29B
100
AcDbEntity
  8
1
  6
CONTINUOUS
 62
           2
100
AcDbLine
 10
-19387.438929694032
 20
1159.425925599789
 11
-19332.438929694032
 21
1159.425925599789
  0
LINE
  5
29A
100
AcDbEntity
  8
1
  6
CONTINUOUS
 62
           2
100
AcDbLine
 10
-19411.438929694032
 20
1162.425925599789
 11
-19411.438929694032
 21
1157.425925599789
  0
LINE
  5
299
100
AcDbEntity
  8
1
  6
CONTINUOUS
 62
           2
100
AcDbLine
 10
-19387.438929694032
 20
1157.425925599789
 11
-19387.438929694032
 21
1162.425925599789
  0
LINE
  5
298
100
AcDbEntity
  8
1
  6
CONTINUOUS
 62
           2
100
AcDbLine
 10
-19411.438929694032
 20
1157.425925599789
 11
-19387.438929694032
 21
1157.425925599789
  0
LINE
  5
297
100
AcDbEntity
  8
1
  6
CONTINUOUS
 62
           2
100
AcDbLine
 10
-19466.438929694032
 20
1159.425925599789
 11
-19411.438929694032
 21
1159.425925599789
  0
LINE
  5
296
100
AcDbEntity
  8
1
  6
CONTINUOUS
 62
           3
100
AcDbLine
 10
-19334.938929694032
 20
1216.224083414039
 11
-19394.938929694032
 21
1216.224083414039
  0
LINE
  5
295
100
AcDbEntity
  8
1
  6
CONTINUOUS
 62
           2
100
AcDbLine
 10
-19370.938929694032
 20
1226.574813909868
 11
-19394.938929694032
 21
1226.574813909868
  0
LINE
  5
294
100
AcDbEntity
  8
1
  6
CONTINUOUS
 62
           2
100
AcDbLine
 10
-19394.938929694032
 20
1226.574813909868
 11
-19394.938929694032
 21
1182.990064698271
  0
LINE
  5
293
100
AcDbEntity
  8
1
  6
CONTINUOUS
 62
           2
100
AcDbLine
 10
-19394.938929694032
 20
1182.990064698271
 11
-19334.938929694032
 21
1182.990064698271
  0
LINE
  5
292
100
AcDbEntity
  8
1
  6
CONTINUOUS
 62
           2
100
AcDbLine
 10
-19462.438929694032
 20
1324.025925599791
 11
-19322.438929694032
 21
1324.025925599791
  0
LINE
  5
291
100
AcDbEntity
  8
1
  6
DOT_CENTER
 62
           3
100
AcDbLine
 10
-19260.97220509281
 20
1259.425925599789
 11
-19538.765273903751
 21
1259.425925599789
  0
LINE
  5
290
100
AcDbEntity
  8
1
  6
CONTINUOUS
 62
           2
100
AcDbLine
 10
-19503.638929694029
 20
1185.62592559979
 11
-19462.438929694032
 21
1185.62592559979
  0
LINE
  5
28F
100
AcDbEntity
  8
1
  6
CONTINUOUS
 62
           2
100
AcDbLine
 10
-19462.438929694032
 20
1185.62592559979
 11
-19462.438929694032
 21
1333.225925599788
  0
LINE
  5
28E
100
AcDbEntity
  8
1
  6
CONTINUOUS
 62
           2
100
AcDbLine
 10
-19503.638929694029
 20
1185.62592559979
 11
-19503.638929694029
 21
1333.225925599788
  0
LINE
  5
28D
100
AcDbEntity
  8
1
  6
CONTINUOUS
 62
           2
100
AcDbLine
 10
-19514.438929694032
 20
1199.425925599789
 11
-19503.638929694029
 21
1188.62592559979
  0
LINE
  5
28C
100
AcDbEntity
  8
1
  6
CONTINUOUS
 62
           3
100
AcDbLine
 10
-19514.438929694032
 20
1319.425925599789
 11
-19514.438929694032
 21
1199.425925599789
  0
LINE
  5
28B
100
AcDbEntity
  8
1
  6
CONTINUOUS
 62
           2
100
AcDbLine
 10
-19503.638929694029
 20
1330.225925599788
 11
-19514.438929694032
 21
1319.425925599789
  0
LINE
  5
28A
100
AcDbEntity
  8
1
  6
CONTINUOUS
 62
           2
100
AcDbLine
 10
-19517.438929694032
 20
1199.425925599789
 11
-19514.438929694032
 21
1199.425925599789
  0
LINE
  5
289
100
AcDbEntity
  8
1
  6
CONTINUOUS
 62
           2
100
AcDbLine
 10
-19514.438929694032
 20
1319.425925599789
 11
-19517.438929694032
 21
1319.425925599789
  0
LINE
  5
288
100
AcDbEntity
  8
1
  6
CONTINUOUS
 62
           2
100
AcDbLine
 10
-19517.438929694032
 20
1319.425925599789
 11
-19517.438929694032
 21
1199.425925599789
  0
LINE
  5
287
100
AcDbEntity
  8
1
  6
CONTINUOUS
 62
           2
100
AcDbLine
 10
-19462.438929694032
 20
1333.225925599788
 11
-19503.638929694029
 21
1333.225925599788
  0
LINE
  5
286
100
AcDbEntity
  8
1
  6
CONTINUOUS
 62
           2
100
AcDbLine
 10
-19394.938929694032
 20
1194.82592559979
 11
-19462.438929694032
 21
1194.82592559979
  0
LINE
  5
285
100
AcDbEntity
  8
1
  6
CONTINUOUS
 62
           2
100
AcDbLine
 10
-19302.438929694032
 20
1159.425925599789
 11
-19387.438929694032
 21
1159.425925599789
  0
LINE
  5
284
100
AcDbEntity
  8
1
  6
DOT_CENTER
 62
           3
100
AcDbLine
 10
-19879.361787115191
 20
1629.425925599789
 11
-19248.843486739719
 21
1629.425925599789
  0
LINE
  5
283
100
AcDbEntity
  8
1
  6
DOT_CENTER
 62
           3
100
AcDbLine
 10
-19662.438929694032
 20
1369.90880918199
 11
-19662.438929694032
 21
1933.651406413401
  0
LINE
  5
282
100
AcDbEntity
  8
1
  6
CONTINUOUS
 62
           3
100
AcDbLine
 10
-17240.40839383889
 20
-1714.597526960538
 11
-17243.649204460329
 21
-1714.597526960538
  0
LINE
  5
281
100
AcDbEntity
  8
1
  6
CONTINUOUS
 62
           3
100
AcDbLine
 10
-17240.40839383889
 20
-1704.782572384317
 11
-17243.649204460329
 21
-1704.782572384317
  0
LINE
  5
280
100
AcDbEntity
  8
1
  6
CONTINUOUS
 62
           3
100
AcDbLine
 10
-17240.40839383889
 20
-1699.875095096207
 11
-17243.649204460329
 21
-1699.875095096207
  0
LINE
  5
27F
100
AcDbEntity
  8
1
  6
CONTINUOUS
 62
           2
100
AcDbLine
 10
-17013.83400179731
 20
-1450.138612355798
 11
-17013.83400179731
 21
-1227.690049672427
  0
LINE
  5
27E
100
AcDbEntity
  8
1
  6
CONTINUOUS
 62
           2
100
AcDbLine
 10
-16523.40839383889
 20
-1784.690049672427
 11
-16516.40839383889
 21
-1784.690049672427
  0
LINE
  5
27D
100
AcDbEntity
  8
1
  6
CONTINUOUS
 62
           2
100
AcDbLine
 10
-17035.40839383889
 20
-1724.690049672427
 11
-17235.40839383889
 21
-1724.690049672427
  0
LINE
  5
27C
100
AcDbEntity
  8
1
  6
CONTINUOUS
 62
           3
100
AcDbLine
 10
-17235.40839383889
 20
-1724.690049672427
 11
-17237.40839383889
 21
-1724.690049672427
  0
LINE
  5
27B
100
AcDbEntity
  8
1
  6
CONTINUOUS
 62
           3
100
AcDbLine
 10
-17243.649204460329
 20
-1699.875095096207
 11
-17244.40839383889
 21
-1701.190049672427
  0
LINE
  5
27A
100
AcDbEntity
  8
1
  6
CONTINUOUS
 62
           3
100
AcDbLine
 10
-17244.40839383889
 20
-1701.190049672427
 11
-17244.40839383889
 21
-1718.190049672427
  0
LINE
  5
279
100
AcDbEntity
  8
1
  6
CONTINUOUS
 62
           3
100
AcDbLine
 10
-17244.40839383889
 20
-1718.190049672427
 11
-17243.649204460329
 21
-1719.505004248648
  0
LINE
  5
278
100
AcDbEntity
  8
1
  6
CONTINUOUS
 62
           3
100
AcDbLine
 10
-17243.649204460329
 20
-1719.505004248648
 11
-17240.40839383889
 21
-1719.505004248648
  0
LINE
  5
277
100
AcDbEntity
  8
1
  6
DOT_CENTER
 62
           3
100
AcDbLine
 10
-17231.603180064059
 20
-1623.690049672427
 11
-17032.977726258589
 21
-1623.690049672427
  0
LINE
  5
276
100
AcDbEntity
  8
1
  6
DOT_CENTER
 62
           3
100
AcDbLine
 10
-17135.40839383889
 20
-1736.528815333597
 11
-17135.40839383889
 21
-1519.37068606507
  0
LINE
  5
275
100
AcDbEntity
  8
1
  6
DOT_CENTER
 62
           3
100
AcDbLine
 10
-16793.40839383889
 20
-1292.476851175687
 11
-16793.40839383889
 21
-1740.024827448667
  0
LINE
  5
274
100
AcDbEntity
  8
1
  6
DOT_CENTER
 62
           3
100
AcDbLine
 10
-16938.2505355131
 20
-1514.690049672427
 11
-16619.141382339691
 21
-1514.690049672427
  0
LINE
  5
273
100
AcDbEntity
  8
1
  6
CONTINUOUS
 62
           3
100
AcDbLine
 10
-16568.40839383889
 20
-1699.690049672427
 11
-16567.40839383889
 21
-1699.690049672427
  0
LINE
  5
272
100
AcDbEntity
  8
1
  6
CONTINUOUS
 62
           3
100
AcDbLine
 10
-16543.40839383889
 20
-1782.390049672428
 11
-17333.40839383889
 21
-1782.390049672428
  0
LINE
  5
271
100
AcDbEntity
  8
1
  6
CONTINUOUS
 62
           3
100
AcDbLine
 10
-16543.40839383889
 20
-1726.990049672427
 11
-17333.40839383889
 21
-1726.990049672427
  0
LINE
  5
270
100
AcDbEntity
  8
1
  6
CONTINUOUS
 62
           2
100
AcDbLine
 10
-16683.40839383889
 20
-1547.990049672427
 11
-16683.40839383889
 21
-1724.690049672427
  0
LINE
  5
26F
100
AcDbEntity
  8
1
  6
DOT_CENTER
 62
           3
100
AcDbLine
 10
-16692.40839383889
 20
-1794.151376980089
 11
-16692.40839383889
 21
-1713.078835770947
  0
LINE
  5
26E
100
AcDbEntity
  8
1
  6
CONTINUOUS
 62
           2
100
AcDbLine
 10
-17333.40839383889
 20
-1724.690049672427
 11
-17333.40839383889
 21
-1784.690049672427
  0
LINE
  5
26D
100
AcDbEntity
  8
1
  6
CONTINUOUS
 62
           2
100
AcDbLine
 10
-16543.40839383889
 20
-1724.690049672427
 11
-17333.40839383889
 21
-1724.690049672427
  0
LINE
  5
26C
100
AcDbEntity
  8
1
  6
CONTINUOUS
 62
           2
100
AcDbLine
 10
-16543.40839383889
 20
-1784.690049672427
 11
-16543.40839383889
 21
-1724.690049672427
  0
LINE
  5
26B
100
AcDbEntity
  8
1
  6
CONTINUOUS
 62
           2
100
AcDbLine
 10
-17333.40839383889
 20
-1784.690049672427
 11
-16523.40839383889
 21
-1784.690049672427
  0
LINE
  5
26A
100
AcDbEntity
  8
1
  6
PHANTOM
 62
           3
100
AcDbLine
 10
-17153.630946236171
 20
-1538.108576302727
 11
-16814.45698381299
 21
-1455.841032177631
  0
LINE
  5
269
100
AcDbEntity
  8
1
  6
PHANTOM
 62
           3
100
AcDbLine
 10
-16776.096079481678
 20
-1574.744473086498
 11
-17106.23261485797
 21
-1706.182618555068
  0
LINE
  5
268
100
AcDbEntity
  8
1
  6
CONTINUOUS
 62
           2
100
AcDbLine
 10
-16523.40839383889
 20
-1227.690049672427
 11
-16523.40839383889
 21
-1784.690049672427
  0
LINE
  5
267
100
AcDbEntity
  8
1
  6
CONTINUOUS
 62
           2
100
AcDbLine
 10
-17013.83400179731
 20
-1227.690049672427
 11
-16523.40839383889
 21
-1227.690049672427
  0
LINE
  5
266
100
AcDbEntity
  8
1
  6
CONTINUOUS
 62
           2
100
AcDbLine
 10
-17135.40839383889
 20
-1469.690049672427
 11
-16793.40839383889
 21
-1414.690049672427
  0
LINE
  5
265
100
AcDbEntity
  8
1
  6
CONTINUOUS
 62
           2
100
AcDbLine
 10
-17240.40839383889
 20
-1597.511306802203
 11
-17240.40839383889
 21
-1724.690049672427
  0
LINE
  5
264
100
AcDbEntity
  8
1
  6
CONTINUOUS
 62
           2
100
AcDbLine
 10
-16693.40839383889
 20
-1514.690049672427
 11
-16693.40839383889
 21
-1724.690049672427
  0
LINE
  5
263
100
AcDbEntity
  8
1
  6
CONTINUOUS
 62
           2
100
AcDbLine
 10
-16693.40839383889
 20
-1547.990049672427
 11
-16683.40839383889
 21
-1547.990049672427
  0
LINE
  5
262
100
AcDbEntity
  8
1
  6
CONTINUOUS
 62
           3
100
AcDbLine
 10
-19667.438929694021
 20
-1797.690049672426
 11
-19207.438929694021
 21
-1797.690049672426
  0
LINE
  5
261
100
AcDbEntity
  8
1
  6
CONTINUOUS
 62
           3
100
AcDbLine
 10
-19667.438929694032
 20
-2457.690049672426
 11
-19667.438929694021
 21
-1797.690049672426
  0
LINE
  5
260
100
AcDbEntity
  8
1
  6
CONTINUOUS
 62
           3
100
AcDbLine
 10
-19207.438929694021
 20
-1797.690049672426
 11
-19207.438929694032
 21
-2457.690049672426
  0
LINE
  5
25F
100
AcDbEntity
  8
1
  6
CONTINUOUS
 62
           3
100
AcDbLine
 10
-19207.438929694032
 20
-2457.690049672426
 11
-19667.438929694032
 21
-2457.690049672426
  0
LINE
  5
25E
100
AcDbEntity
  8
1
  6
CONTINUOUS
 62
           2
100
AcDbLine
 10
-19687.438929694021
 20
-1777.690049672426
 11
-19687.438929694032
 21
-2477.690049672426
  0
LINE
  5
25D
100
AcDbEntity
  8
1
  6
CONTINUOUS
 62
           2
100
AcDbLine
 10
-19687.438929694032
 20
-2477.690049672426
 11
-19187.438929694032
 21
-2477.690049672426
  0
LINE
  5
25C
100
AcDbEntity
  8
1
  6
CONTINUOUS
 62
           2
100
AcDbLine
 10
-19187.438929694032
 20
-1777.690049672426
 11
-19687.438929694021
 21
-1777.690049672426
  0
LINE
  5
25B
100
AcDbEntity
  8
1
  6
CONTINUOUS
 62
           2
100
AcDbLine
 10
-19187.438929694032
 20
-1777.690049672426
 11
-19187.438929694032
 21
-2477.690049672426
  0
LINE
  5
25A
100
AcDbEntity
  8
1
  6
CONTINUOUS
 62
           3
100
AcDbLine
 10
-19632.438929694021
 20
-2172.690049672426
 11
-19632.438929694021
 21
-2087.690049672426
  0
LINE
  5
259
100
AcDbEntity
  8
1
  6
CONTINUOUS
 62
           3
100
AcDbLine
 10
-19602.438929694021
 20
-2172.690049672426
 11
-19632.438929694021
 21
-2172.690049672426
  0
LINE
  5
258
100
AcDbEntity
  8
1
  6
CONTINUOUS
 62
           3
100
AcDbLine
 10
-19602.438929694021
 20
-2087.690049672426
 11
-19602.438929694021
 21
-2172.690049672426
  0
LINE
  5
257
100
AcDbEntity
  8
1
  6
CONTINUOUS
 62
           3
100
AcDbLine
 10
-19632.438929694021
 20
-2087.690049672426
 11
-19602.438929694021
 21
-2087.690049672426
  0
LINE
  5
256
100
AcDbEntity
  8
1
  6
CONTINUOUS
 62
           3
100
AcDbLine
 10
-19385.438929694021
 20
-2005.690049672426
 11
-19337.438929694021
 21
-2005.690049672426
  0
LINE
  5
255
100
AcDbEntity
  8
1
  6
CONTINUOUS
 62
           3
100
AcDbLine
 10
-19337.438929694021
 20
-2005.690049672426
 11
-19337.438929694021
 21
-1957.690049672426
  0
LINE
  5
254
100
AcDbEntity
  8
1
  6
CONTINUOUS
 62
           3
100
AcDbLine
 10
-19337.438929694021
 20
-1957.690049672426
 11
-19385.438929694021
 21
-1957.690049672426
  0
LINE
  5
253
100
AcDbEntity
  8
1
  6
CONTINUOUS
 62
           3
100
AcDbLine
 10
-19385.438929694021
 20
-1957.690049672426
 11
-19385.438929694021
 21
-2005.690049672426
  0
LINE
  5
252
100
AcDbEntity
  8
1
  6
CONTINUOUS
 62
           3
100
AcDbLine
 10
-19453.438929694021
 20
-2005.690049672426
 11
-19405.438929694021
 21
-2005.690049672426
  0
LINE
  5
251
100
AcDbEntity
  8
1
  6
CONTINUOUS
 62
           3
100
AcDbLine
 10
-19405.438929694021
 20
-2005.690049672426
 11
-19405.438929694021
 21
-1957.690049672426
  0
LINE
  5
250
100
AcDbEntity
  8
1
  6
CONTINUOUS
 62
           3
100
AcDbLine
 10
-19405.438929694021
 20
-1957.690049672426
 11
-19453.438929694021
 21
-1957.690049672426
  0
LINE
  5
24F
100
AcDbEntity
  8
1
  6
CONTINUOUS
 62
           3
100
AcDbLine
 10
-19453.438929694021
 20
-1957.690049672426
 11
-19453.438929694021
 21
-2005.690049672426
  0
LINE
  5
24E
100
AcDbEntity
  8
1
  6
CONTINUOUS
 62
           3
100
AcDbLine
 10
-19380.438929694021
 20
-1947.690049672426
 11
-19342.438929694021
 21
-1947.690049672426
  0
LINE
  5
24D
100
AcDbEntity
  8
1
  6
CONTINUOUS
 62
           3
100
AcDbLine
 10
-19342.438929694021
 20
-1947.690049672426
 11
-19342.438929694021
 21
-1937.690049672426
  0
LINE
  5
24C
100
AcDbEntity
  8
1
  6
CONTINUOUS
 62
           3
100
AcDbLine
 10
-19342.438929694021
 20
-1937.690049672426
 11
-19380.438929694021
 21
-1937.690049672426
  0
LINE
  5
24B
100
AcDbEntity
  8
1
  6
CONTINUOUS
 62
           3
100
AcDbLine
 10
-19380.438929694021
 20
-1937.690049672426
 11
-19380.438929694021
 21
-1947.690049672426
  0
LINE
  5
24A
100
AcDbEntity
  8
1
  6
CONTINUOUS
 62
           3
100
AcDbLine
 10
-19448.438929694021
 20
-1947.690049672426
 11
-19410.438929694021
 21
-1947.690049672426
  0
LINE
  5
249
100
AcDbEntity
  8
1
  6
CONTINUOUS
 62
           3
100
AcDbLine
 10
-19410.438929694021
 20
-1947.690049672426
 11
-19410.438929694021
 21
-1937.690049672426
  0
LINE
  5
248
100
AcDbEntity
  8
1
  6
CONTINUOUS
 62
           3
100
AcDbLine
 10
-19410.438929694021
 20
-1937.690049672426
 11
-19448.438929694021
 21
-1937.690049672426
  0
LINE
  5
247
100
AcDbEntity
  8
1
  6
CONTINUOUS
 62
           3
100
AcDbLine
 10
-19448.438929694021
 20
-1937.690049672426
 11
-19448.438929694021
 21
-1947.690049672426
  0
LINE
  5
246
100
AcDbEntity
  8
1
  6
CONTINUOUS
 62
           3
100
AcDbLine
 10
-19538.438929694021
 20
-2005.690049672426
 11
-19478.438929694021
 21
-2005.690049672426
  0
LINE
  5
245
100
AcDbEntity
  8
1
  6
CONTINUOUS
 62
           3
100
AcDbLine
 10
-19478.438929694021
 20
-2005.690049672426
 11
-19478.438929694021
 21
-1945.690049672426
  0
LINE
  5
244
100
AcDbEntity
  8
1
  6
CONTINUOUS
 62
           3
100
AcDbLine
 10
-19478.438929694021
 20
-1945.690049672426
 11
-19538.438929694021
 21
-1945.690049672426
  0
LINE
  5
243
100
AcDbEntity
  8
1
  6
CONTINUOUS
 62
           3
100
AcDbLine
 10
-19538.438929694021
 20
-1945.690049672426
 11
-19538.438929694021
 21
-2005.690049672426
  0
LINE
  5
242
100
AcDbEntity
  8
1
  6
CONTINUOUS
 62
           3
100
AcDbLine
 10
-19527.438929694021
 20
-1935.690049672426
 11
-19489.438929694021
 21
-1935.690049672426
  0
LINE
  5
241
100
AcDbEntity
  8
1
  6
CONTINUOUS
 62
           3
100
AcDbLine
 10
-19489.438929694021
 20
-1935.690049672426
 11
-19489.438929694021
 21
-1925.690049672426
  0
LINE
  5
240
100
AcDbEntity
  8
1
  6
CONTINUOUS
 62
           3
100
AcDbLine
 10
-19489.438929694021
 20
-1925.690049672426
 11
-19527.438929694021
 21
-1925.690049672426
  0
LINE
  5
23F
100
AcDbEntity
  8
1
  6
CONTINUOUS
 62
           3
100
AcDbLine
 10
-19527.438929694021
 20
-1925.690049672426
 11
-19527.438929694021
 21
-1935.690049672426
  0
LINE
  5
23E
100
AcDbEntity
  8
1
  6
CONTINUOUS
 62
           3
100
AcDbLine
 10
-19462.438929694021
 20
-1882.690049672426
 11
-19402.438929694021
 21
-1882.690049672426
  0
LINE
  5
23D
100
AcDbEntity
  8
1
  6
CONTINUOUS
 62
           3
100
AcDbLine
 10
-19402.438929694021
 20
-1882.690049672426
 11
-19402.438929694021
 21
-1867.690049672426
  0
LINE
  5
23C
100
AcDbEntity
  8
1
  6
CONTINUOUS
 62
           3
100
AcDbLine
 10
-19402.438929694021
 20
-1867.690049672426
 11
-19462.438929694021
 21
-1867.690049672426
  0
LINE
  5
23B
100
AcDbEntity
  8
1
  6
CONTINUOUS
 62
           3
100
AcDbLine
 10
-19462.438929694021
 20
-1867.690049672426
 11
-19462.438929694021
 21
-1882.690049672426
  0
LINE
  5
23A
100
AcDbEntity
  8
1
  6
CONTINUOUS
 62
           3
100
AcDbLine
 10
-19442.438929694021
 20
-1867.690049672426
 11
-19442.438929694021
 21
-1882.690049672426
  0
LINE
  5
239
100
AcDbEntity
  8
1
  6
CONTINUOUS
 62
           3
100
AcDbLine
 10
-19422.438929694021
 20
-1867.690049672426
 11
-19422.438929694021
 21
-1882.690049672426
  0
LINE
  5
238
100
AcDbEntity
  8
1
  6
CONTINUOUS
 62
           3
100
AcDbLine
 10
-19572.438929694021
 20
-2085.690049672426
 11
-19547.438929694021
 21
-2085.690049672416
  0
LINE
  5
237
100
AcDbEntity
  8
1
  6
CONTINUOUS
 62
           3
100
AcDbLine
 10
-19547.438929694021
 20
-2085.690049672416
 11
-19547.438929694021
 21
-2065.690049672426
  0
LINE
  5
236
100
AcDbEntity
  8
1
  6
CONTINUOUS
 62
           3
100
AcDbLine
 10
-19547.438929694021
 20
-2065.690049672426
 11
-19572.438929694021
 21
-2065.690049672426
  0
LINE
  5
235
100
AcDbEntity
  8
1
  6
CONTINUOUS
 62
           3
100
AcDbLine
 10
-19572.438929694021
 20
-2065.690049672426
 11
-19572.438929694021
 21
-2085.690049672426
  0
LINE
  5
234
100
AcDbEntity
  8
1
  6
CONTINUOUS
 62
           3
100
AcDbLine
 10
-19522.438929694021
 20
-2085.690049672426
 11
-19497.438929694021
 21
-2085.690049672416
  0
LINE
  5
233
100
AcDbEntity
  8
1
  6
CONTINUOUS
 62
           3
100
AcDbLine
 10
-19497.438929694021
 20
-2085.690049672416
 11
-19497.438929694021
 21
-2065.690049672426
  0
LINE
  5
232
100
AcDbEntity
  8
1
  6
CONTINUOUS
 62
           3
100
AcDbLine
 10
-19497.438929694021
 20
-2065.690049672426
 11
-19522.438929694021
 21
-2065.690049672426
  0
LINE
  5
231
100
AcDbEntity
  8
1
  6
CONTINUOUS
 62
           3
100
AcDbLine
 10
-19522.438929694021
 20
-2065.690049672426
 11
-19522.438929694021
 21
-2085.690049672426
  0
LINE
  5
230
100
AcDbEntity
  8
1
  6
CONTINUOUS
 62
           3
100
AcDbLine
 10
-19472.438929694021
 20
-2085.690049672426
 11
-19447.438929694021
 21
-2085.690049672416
  0
LINE
  5
22F
100
AcDbEntity
  8
1
  6
CONTINUOUS
 62
           3
100
AcDbLine
 10
-19447.438929694021
 20
-2085.690049672416
 11
-19447.438929694021
 21
-2065.690049672426
  0
LINE
  5
22E
100
AcDbEntity
  8
1
  6
CONTINUOUS
 62
           3
100
AcDbLine
 10
-19447.438929694021
 20
-2065.690049672426
 11
-19472.438929694021
 21
-2065.690049672426
  0
LINE
  5
22D
100
AcDbEntity
  8
1
  6
CONTINUOUS
 62
           3
100
AcDbLine
 10
-19472.438929694021
 20
-2065.690049672426
 11
-19472.438929694021
 21
-2085.690049672426
  0
LINE
  5
22C
100
AcDbEntity
  8
1
  6
CONTINUOUS
 62
           3
100
AcDbLine
 10
-19422.438929694021
 20
-2085.690049672426
 11
-19397.438929694021
 21
-2085.690049672416
  0
LINE
  5
22B
100
AcDbEntity
  8
1
  6
CONTINUOUS
 62
           3
100
AcDbLine
 10
-19397.438929694021
 20
-2085.690049672416
 11
-19397.438929694021
 21
-2065.690049672426
  0
LINE
  5
22A
100
AcDbEntity
  8
1
  6
CONTINUOUS
 62
           3
100
AcDbLine
 10
-19397.438929694021
 20
-2065.690049672426
 11
-19422.438929694021
 21
-2065.690049672426
  0
LINE
  5
229
100
AcDbEntity
  8
1
  6
CONTINUOUS
 62
           3
100
AcDbLine
 10
-19422.438929694021
 20
-2065.690049672426
 11
-19422.438929694021
 21
-2085.690049672426
  0
LINE
  5
228
100
AcDbEntity
  8
1
  6
CONTINUOUS
 62
           3
100
AcDbLine
 10
-19572.438929694021
 20
-2135.690049672416
 11
-19547.438929694021
 21
-2135.690049672416
  0
LINE
  5
227
100
AcDbEntity
  8
1
  6
CONTINUOUS
 62
           3
100
AcDbLine
 10
-19547.438929694021
 20
-2135.690049672416
 11
-19547.438929694021
 21
-2115.690049672416
  0
LINE
  5
226
100
AcDbEntity
  8
1
  6
CONTINUOUS
 62
           3
100
AcDbLine
 10
-19547.438929694021
 20
-2115.690049672416
 11
-19572.438929694021
 21
-2115.690049672416
  0
LINE
  5
225
100
AcDbEntity
  8
1
  6
CONTINUOUS
 62
           3
100
AcDbLine
 10
-19572.438929694021
 20
-2115.690049672416
 11
-19572.438929694021
 21
-2135.690049672416
  0
LINE
  5
224
100
AcDbEntity
  8
1
  6
CONTINUOUS
 62
           3
100
AcDbLine
 10
-19522.438929694021
 20
-2135.690049672416
 11
-19497.438929694021
 21
-2135.690049672416
  0
LINE
  5
223
100
AcDbEntity
  8
1
  6
CONTINUOUS
 62
           3
100
AcDbLine
 10
-19497.438929694021
 20
-2135.690049672416
 11
-19497.438929694021
 21
-2115.690049672416
  0
LINE
  5
222
100
AcDbEntity
  8
1
  6
CONTINUOUS
 62
           3
100
AcDbLine
 10
-19497.438929694021
 20
-2115.690049672416
 11
-19522.438929694021
 21
-2115.690049672416
  0
LINE
  5
221
100
AcDbEntity
  8
1
  6
CONTINUOUS
 62
           3
100
AcDbLine
 10
-19522.438929694021
 20
-2115.690049672416
 11
-19522.438929694021
 21
-2135.690049672416
  0
LINE
  5
220
100
AcDbEntity
  8
1
  6
CONTINUOUS
 62
           3
100
AcDbLine
 10
-19472.438929694021
 20
-2135.690049672416
 11
-19447.438929694021
 21
-2135.690049672416
  0
LINE
  5
21F
100
AcDbEntity
  8
1
  6
CONTINUOUS
 62
           3
100
AcDbLine
 10
-19447.438929694021
 20
-2135.690049672416
 11
-19447.438929694021
 21
-2115.690049672416
  0
LINE
  5
21E
100
AcDbEntity
  8
1
  6
CONTINUOUS
 62
           3
100
AcDbLine
 10
-19447.438929694021
 20
-2115.690049672416
 11
-19472.438929694021
 21
-2115.690049672416
  0
LINE
  5
21D
100
AcDbEntity
  8
1
  6
CONTINUOUS
 62
           3
100
AcDbLine
 10
-19472.438929694021
 20
-2115.690049672416
 11
-19472.438929694021
 21
-2135.690049672416
  0
LINE
  5
21C
100
AcDbEntity
  8
1
  6
CONTINUOUS
 62
           3
100
AcDbLine
 10
-19422.438929694021
 20
-2135.690049672416
 11
-19397.438929694021
 21
-2135.690049672416
  0
LINE
  5
21B
100
AcDbEntity
  8
1
  6
CONTINUOUS
 62
           3
100
AcDbLine
 10
-19397.438929694021
 20
-2135.690049672416
 11
-19397.438929694021
 21
-2115.690049672416
  0
LINE
  5
21A
100
AcDbEntity
  8
1
  6
CONTINUOUS
 62
           3
100
AcDbLine
 10
-19397.438929694021
 20
-2115.690049672416
 11
-19422.438929694021
 21
-2115.690049672416
  0
LINE
  5
219
100
AcDbEntity
  8
1
  6
CONTINUOUS
 62
           3
100
AcDbLine
 10
-19422.438929694021
 20
-2115.690049672416
 11
-19422.438929694021
 21
-2135.690049672416
  0
LINE
  5
218
100
AcDbEntity
  8
1
  6
CONTINUOUS
 62
           3
100
AcDbLine
 10
-19322.438929694021
 20
-2085.690049672426
 11
-19297.438929694021
 21
-2085.690049672416
  0
LINE
  5
217
100
AcDbEntity
  8
1
  6
CONTINUOUS
 62
           3
100
AcDbLine
 10
-19297.438929694021
 20
-2085.690049672416
 11
-19297.438929694021
 21
-2065.690049672426
  0
LINE
  5
216
100
AcDbEntity
  8
1
  6
CONTINUOUS
 62
           3
100
AcDbLine
 10
-19297.438929694021
 20
-2065.690049672426
 11
-19322.438929694021
 21
-2065.690049672426
  0
LINE
  5
215
100
AcDbEntity
  8
1
  6
CONTINUOUS
 62
           3
100
AcDbLine
 10
-19322.438929694021
 20
-2065.690049672426
 11
-19322.438929694021
 21
-2085.690049672426
  0
LINE
  5
214
100
AcDbEntity
  8
1
  6
CONTINUOUS
 62
           3
100
AcDbLine
 10
-19322.438929694021
 20
-2135.690049672416
 11
-19297.438929694021
 21
-2135.690049672416
  0
LINE
  5
213
100
AcDbEntity
  8
1
  6
CONTINUOUS
 62
           3
100
AcDbLine
 10
-19297.438929694021
 20
-2135.690049672416
 11
-19297.438929694021
 21
-2115.690049672416
  0
LINE
  5
212
100
AcDbEntity
  8
1
  6
CONTINUOUS
 62
           3
100
AcDbLine
 10
-19297.438929694021
 20
-2115.690049672416
 11
-19322.438929694021
 21
-2115.690049672416
  0
LINE
  5
211
100
AcDbEntity
  8
1
  6
CONTINUOUS
 62
           3
100
AcDbLine
 10
-19322.438929694021
 20
-2115.690049672416
 11
-19322.438929694021
 21
-2135.690049672416
  0
LINE
  5
210
100
AcDbEntity
  8
1
  6
CONTINUOUS
 62
           3
100
AcDbLine
 10
-19372.438929694021
 20
-2135.690049672416
 11
-19347.438929694021
 21
-2135.690049672416
  0
LINE
  5
20F
100
AcDbEntity
  8
1
  6
CONTINUOUS
 62
           3
100
AcDbLine
 10
-19347.438929694021
 20
-2135.690049672416
 11
-19347.438929694021
 21
-2115.690049672416
  0
LINE
  5
20E
100
AcDbEntity
  8
1
  6
CONTINUOUS
 62
           3
100
AcDbLine
 10
-19347.438929694021
 20
-2115.690049672416
 11
-19372.438929694021
 21
-2115.690049672416
  0
LINE
  5
20D
100
AcDbEntity
  8
1
  6
CONTINUOUS
 62
           3
100
AcDbLine
 10
-19372.438929694021
 20
-2115.690049672416
 11
-19372.438929694021
 21
-2135.690049672416
  0
LINE
  5
20C
100
AcDbEntity
  8
1
  6
CONTINUOUS
 62
           3
100
AcDbLine
 10
-19529.938929694021
 20
-2110.690049672416
 11
-19489.938929694021
 21
-2110.690049672416
  0
LINE
  5
20B
100
AcDbEntity
  8
1
  6
CONTINUOUS
 62
           3
100
AcDbLine
 10
-19489.938929694021
 20
-2110.690049672416
 11
-19489.938929694021
 21
-2100.690049672416
  0
LINE
  5
20A
100
AcDbEntity
  8
1
  6
CONTINUOUS
 62
           3
100
AcDbLine
 10
-19489.938929694021
 20
-2100.690049672416
 11
-19529.938929694021
 21
-2100.690049672416
  0
LINE
  5
209
100
AcDbEntity
  8
1
  6
CONTINUOUS
 62
           3
100
AcDbLine
 10
-19529.938929694021
 20
-2100.690049672416
 11
-19529.938929694021
 21
-2110.690049672416
  0
LINE
  5
208
100
AcDbEntity
  8
1
  6
CONTINUOUS
 62
           3
100
AcDbLine
 10
-19479.938929694021
 20
-2110.690049672416
 11
-19439.938929694021
 21
-2110.690049672416
  0
LINE
  5
207
100
AcDbEntity
  8
1
  6
CONTINUOUS
 62
           3
100
AcDbLine
 10
-19439.938929694021
 20
-2110.690049672416
 11
-19439.938929694021
 21
-2100.690049672416
  0
LINE
  5
206
100
AcDbEntity
  8
1
  6
CONTINUOUS
 62
           3
100
AcDbLine
 10
-19439.938929694021
 20
-2100.690049672416
 11
-19479.938929694021
 21
-2100.690049672416
  0
LINE
  5
205
100
AcDbEntity
  8
1
  6
CONTINUOUS
 62
           3
100
AcDbLine
 10
-19479.938929694021
 20
-2100.690049672416
 11
-19479.938929694021
 21
-2110.690049672416
  0
LINE
  5
204
100
AcDbEntity
  8
1
  6
CONTINUOUS
 62
           3
100
AcDbLine
 10
-19429.938929694021
 20
-2110.690049672416
 11
-19389.938929694021
 21
-2110.690049672416
  0
LINE
  5
203
100
AcDbEntity
  8
1
  6
CONTINUOUS
 62
           3
100
AcDbLine
 10
-19389.938929694021
 20
-2110.690049672416
 11
-19389.938929694021
 21
-2100.690049672416
  0
LINE
  5
202
100
AcDbEntity
  8
1
  6
CONTINUOUS
 62
           3
100
AcDbLine
 10
-19389.938929694021
 20
-2100.690049672416
 11
-19429.938929694021
 21
-2100.690049672416
  0
LINE
  5
201
100
AcDbEntity
  8
1
  6
CONTINUOUS
 62
           3
100
AcDbLine
 10
-19429.938929694021
 20
-2100.690049672416
 11
-19429.938929694021
 21
-2110.690049672416
  0
LINE
  5
200
100
AcDbEntity
  8
1
  6
CONTINUOUS
 62
           3
100
AcDbLine
 10
-19329.938929694021
 20
-2060.690049672426
 11
-19289.938929694021
 21
-2060.690049672426
  0
LINE
  5
1FF
100
AcDbEntity
  8
1
  6
CONTINUOUS
 62
           3
100
AcDbLine
 10
-19289.938929694021
 20
-2060.690049672426
 11
-19289.938929694021
 21
-2050.690049672426
  0
LINE
  5
1FE
100
AcDbEntity
  8
1
  6
CONTINUOUS
 62
           3
100
AcDbLine
 10
-19289.938929694021
 20
-2050.690049672426
 11
-19329.938929694021
 21
-2050.690049672426
  0
LINE
  5
1FD
100
AcDbEntity
  8
1
  6
CONTINUOUS
 62
           3
100
AcDbLine
 10
-19329.938929694021
 20
-2050.690049672426
 11
-19329.938929694021
 21
-2060.690049672426
  0
LINE
  5
1FC
100
AcDbEntity
  8
1
  6
CONTINUOUS
 62
           3
100
AcDbLine
 10
-19631.438929694021
 20
-2171.690049672426
 11
-19631.438929694021
 21
-2151.690049672426
  0
LINE
  5
1FB
100
AcDbEntity
  8
1
  6
CONTINUOUS
 62
           3
100
AcDbLine
 10
-19603.438929694021
 20
-2171.690049672426
 11
-19631.438929694021
 21
-2171.690049672426
  0
LINE
  5
1FA
100
AcDbEntity
  8
1
  6
CONTINUOUS
 62
           3
100
AcDbLine
 10
-19603.438929694021
 20
-2088.690049672426
 11
-19603.438929694021
 21
-2150.690049672426
  0
LINE
  5
1F9
100
AcDbEntity
  8
1
  6
CONTINUOUS
 62
           3
100
AcDbLine
 10
-19631.438929694021
 20
-2088.690049672426
 11
-19603.438929694021
 21
-2088.690049672426
  0
LINE
  5
1F8
100
AcDbEntity
  8
1
  6
CONTINUOUS
 62
           3
100
AcDbLine
 10
-19603.438929694021
 20
-2151.690049672426
 11
-19631.438929694021
 21
-2151.690049672426
  0
LINE
  5
1F7
100
AcDbEntity
  8
1
  6
CONTINUOUS
 62
           3
100
AcDbLine
 10
-19603.438929694021
 20
-2150.690049672426
 11
-19631.438929694021
 21
-2150.690049672426
  0
LINE
  5
1F6
100
AcDbEntity
  8
1
  6
CONTINUOUS
 62
           3
100
AcDbLine
 10
-19631.438929694021
 20
-2150.690049672426
 11
-19631.438929694021
 21
-2088.690049672426
  0
LINE
  5
1F5
100
AcDbEntity
  8
1
  6
CONTINUOUS
 62
           3
100
AcDbLine
 10
-19603.438929694021
 20
-2151.690049672426
 11
-19603.438929694021
 21
-2171.690049672426
  0
LINE
  5
1F4
100
AcDbEntity
  8
1
  6
CONTINUOUS
 62
           2
100
AcDbLine
 10
-19787.438929694032
 20
2009.425925599789
 11
-19187.438929694032
 21
2009.425925599789
  0
LINE
  5
1F3
100
AcDbEntity
  8
1
  6
CONTINUOUS
 62
           3
100
AcDbLine
 10
-19637.438929694032
 20
-2408.190049672426
 11
-19612.438929694032
 21
-2408.190049672426
  0
LINE
  5
1F2
100
AcDbEntity
  8
1
  6
CONTINUOUS
 62
           3
100
AcDbLine
 10
-19612.438929694032
 20
-2408.190049672426
 11
-19612.438929694032
 21
-2427.690049672426
  0
LINE
  5
1F1
100
AcDbEntity
  8
1
  6
CONTINUOUS
 62
           3
100
AcDbLine
 10
-19612.438929694032
 20
-2427.690049672426
 11
-19637.438929694032
 21
-2427.690049672426
  0
LINE
  5
1F0
100
AcDbEntity
  8
1
  6
CONTINUOUS
 62
           3
100
AcDbLine
 10
-19637.438929694032
 20
-2427.690049672426
 11
-19637.438929694032
 21
-2408.190049672426
  0
LINE
  5
1EF
100
AcDbEntity
  8
1
  6
CONTINUOUS
 62
           3
100
AcDbLine
 10
-19297.438929694032
 20
-2377.690049672426
 11
-19237.438929694032
 21
-2377.690049672426
  0
LINE
  5
1EE
100
AcDbEntity
  8
1
  6
CONTINUOUS
 62
           3
100
AcDbLine
 10
-19237.438929694032
 20
-2377.690049672426
 11
-19237.438929694032
 21
-2427.690049672426
  0
LINE
  5
1ED
100
AcDbEntity
  8
1
  6
CONTINUOUS
 62
           3
100
AcDbLine
 10
-19237.438929694032
 20
-2427.690049672426
 11
-19297.438929694032
 21
-2427.690049672426
  0
LINE
  5
1EC
100
AcDbEntity
  8
1
  6
CONTINUOUS
 62
           3
100
AcDbLine
 10
-19297.438929694032
 20
-2427.690049672426
 11
-19297.438929694032
 21
-2377.690049672426
  0
LINE
  5
1EB
100
AcDbEntity
  8
1
  6
CONTINUOUS
 62
           3
100
AcDbLine
 10
-19497.438929694032
 20
-2373.690049672428
 11
-19377.438929694032
 21
-2373.690049672428
  0
LINE
  5
1EA
100
AcDbEntity
  8
1
  6
CONTINUOUS
 62
           3
100
AcDbLine
 10
-19377.438929694032
 20
-2373.690049672428
 11
-19377.438929694032
 21
-2427.690049672426
  0
LINE
  5
1E9
100
AcDbEntity
  8
1
  6
CONTINUOUS
 62
           3
100
AcDbLine
 10
-19377.438929694032
 20
-2427.690049672426
 11
-19497.438929694032
 21
-2427.690049672426
  0
LINE
  5
1E8
100
AcDbEntity
  8
1
  6
CONTINUOUS
 62
           3
100
AcDbLine
 10
-19497.438929694032
 20
-2427.690049672426
 11
-19497.438929694032
 21
-2373.690049672428
  0
LINE
  5
1E7
100
AcDbEntity
  8
1
  6
DOT_CENTER
 62
           3
100
AcDbLine
 10
-19476.09738386083
 20
-2567.690049672426
 11
-19553.245368350119
 21
-2567.690049672426
  0
LINE
  5
1E6
100
AcDbEntity
  8
1
  6
DOT_CENTER
 62
           3
100
AcDbLine
 10
-19550.438929694021
 20
-2528.690049672426
 11
-19480.438929694021
 21
-2528.690049672426
  0
LINE
  5
1E5
100
AcDbEntity
  8
1
  6
DOT_CENTER
 62
           3
100
AcDbLine
 10
-19550.438929694021
 20
-2603.690049672426
 11
-19550.438929694021
 21
-2528.690049672426
  0
LINE
  5
1E4
100
AcDbEntity
  8
1
  6
DOT_CENTER
 62
           3
100
AcDbLine
 10
-19480.438929694021
 20
-2603.690049672426
 11
-19550.438929694021
 21
-2603.690049672426
  0
LINE
  5
1E3
100
AcDbEntity
  8
1
  6
DOT_CENTER
 62
           3
100
AcDbLine
 10
-19480.438929694021
 20
-2528.690049672426
 11
-19480.438929694021
 21
-2603.690049672426
  0
LINE
  5
1E2
100
AcDbEntity
  8
1
  6
DOT_CENTER
 62
           3
100
AcDbLine
 10
-19515.438929694021
 20
-2609.348844201005
 11
-19515.438929694021
 21
-2524.375139964588
  0
LINE
  5
1E1
100
AcDbEntity
  8
1
  6
DOT_CENTER
 62
           3
100
AcDbLine
 10
-19531.546176787018
 20
-2547.241050779677
 11
-19498.986985684711
 21
-2547.241050779677
  0
LINE
  5
1E0
100
AcDbEntity
  8
1
  6
DOT_CENTER
 62
           3
100
AcDbLine
 10
-19544.461900906841
 20
-2593.062955604997
 11
-19544.076356903319
 21
-2593.062955604997
  0
LINE
  5
1DF
100
AcDbEntity
  8
1
  6
CONTINUOUS
 62
           3
100
AcDbLine
 10
-21362.438929694021
 20
1007.425925599789
 11
-20362.438929694032
 21
1007.425925599789
  0
LINE
  5
1DE
100
AcDbEntity
  8
1
  6
CONTINUOUS
 62
           3
100
AcDbLine
 10
-21362.438929694021
 20
1507.425925599789
 11
-20362.438929694032
 21
1507.425925599789
  0
LINE
  5
1DD
100
AcDbEntity
  8
1
  6
CONTINUOUS
 62
           3
100
AcDbLine
 10
-20362.438929694032
 20
2009.039258933124
 11
-20362.438929694032
 21
508.425925599789
  0
LINE
  5
1DC
100
AcDbEntity
  8
1
  6
CONTINUOUS
 62
           3
100
AcDbLine
 10
-20242.438929694032
 20
-1276.690049672426
 11
-20242.438929694032
 21
-1277.690049672426
  0
LINE
  5
1DB
100
AcDbEntity
  8
1
  6
DOT_CENTER
 62
           3
100
AcDbLine
 10
-21424.438929694032
 20
402.578733958088
 11
-21424.438929694032
 21
442.225018790591
  0
LINE
  5
1DA
100
AcDbEntity
  8
1
  6
CONTINUOUS
 62
           3
100
AcDbLine
 10
-21399.438929694032
 20
416.425925599792
 11
-21399.438929694032
 21
432.425925599789
  0
LINE
  5
1D9
100
AcDbEntity
  8
1
  6
CONTINUOUS
 62
           3
100
AcDbLine
 10
-21449.438929694021
 20
416.425925599789
 11
-21449.438929694021
 21
432.425925599789
  0
LINE
  5
1D8
100
AcDbEntity
  8
1
  6
DOT_CENTER
 62
           3
100
AcDbLine
 10
-19971.438929694032
 20
1629.425925599789
 11
-19901.438929694032
 21
1629.425925599789
  0
LINE
  5
1D7
100
AcDbEntity
  8
1
  6
DOT_CENTER
 62
           3
100
AcDbLine
 10
-19936.438929694032
 20
1594.425925599789
 11
-19936.438929694032
 21
1664.425925599789
  0
LINE
  5
1D6
100
AcDbEntity
  8
1
  6
CONTINUOUS
 62
           2
100
AcDbLine
 10
-21462.438929694021
 20
507.425925599789
 11
-21462.438929694021
 21
432.425925599789
  0
LINE
  5
1D5
100
AcDbEntity
  8
1
  6
CONTINUOUS
 62
           2
100
AcDbLine
 10
-21437.438929694021
 20
507.425925599789
 11
-21462.438929694021
 21
507.425925599789
  0
LINE
  5
1D4
100
AcDbEntity
  8
1
  6
CONTINUOUS
 62
           2
100
AcDbLine
 10
-21437.438929694021
 20
2084.425925599789
 11
-21437.438929694021
 21
507.425925599789
  0
LINE
  5
1D3
100
AcDbEntity
  8
1
  6
CONTINUOUS
 62
           3
100
AcDbLine
 10
-21362.438929694021
 20
2008.425925599789
 11
-21362.438929694021
 21
432.425925599789
  0
LINE
  5
1D2
100
AcDbEntity
  8
1
  6
CONTINUOUS
 62
           2
100
AcDbLine
 10
-21462.438929694021
 20
432.425925599789
 11
-19762.438929694032
 21
432.425925599789
  0
LINE
  5
1D1
100
AcDbEntity
  8
1
  6
CONTINUOUS
 62
           3
100
AcDbLine
 10
-19862.438929694021
 20
2008.425925599789
 11
-19862.438929694032
 21
432.425925599789
  0
LINE
  5
1D0
100
AcDbEntity
  8
1
  6
CONTINUOUS
 62
           2
100
AcDbLine
 10
-19762.438929694032
 20
507.424591740294
 11
-19762.438929694032
 21
432.425925599789
  0
LINE
  5
1CF
100
AcDbEntity
  8
1
  6
CONTINUOUS
 62
           2
100
AcDbLine
 10
-19787.438929694032
 20
2084.425930553879
 11
-19787.438929694032
 21
507.424591740294
  0
LINE
  5
1CE
100
AcDbEntity
  8
1
  6
CONTINUOUS
 62
           2
100
AcDbLine
 10
-19762.438929694032
 20
507.424591740294
 11
-19787.438929694032
 21
507.424591740294
  0
LINE
  5
1CD
100
AcDbEntity
  8
1
  6
CONTINUOUS
 62
           2
100
AcDbLine
 10
-21437.438929694021
 20
2084.425925599789
 11
-19787.438929694032
 21
2084.425930553879
  0
LINE
  5
1CC
100
AcDbEntity
  8
1
  6
CONTINUOUS
 62
           3
100
AcDbLine
 10
-21362.438929694021
 20
2008.425925599789
 11
-19862.438929694021
 21
2008.425925599789
  0
LINE
  5
1CB
100
AcDbEntity
  8
1
  6
CONTINUOUS
 62
           2
100
AcDbLine
 10
-20212.438929694032
 20
857.425925599789
 11
-20012.438929694032
 21
857.425925599789
  0
LINE
  5
1CA
100
AcDbEntity
  8
1
  6
CONTINUOUS
 62
           2
100
AcDbLine
 10
-20012.438929694032
 20
857.425925599789
 11
-20012.438929694032
 21
657.425925599789
  0
LINE
  5
1C9
100
AcDbEntity
  8
1
  6
CONTINUOUS
 62
           2
100
AcDbLine
 10
-20012.438929694032
 20
657.425925599789
 11
-20212.438929694032
 21
657.425925599789
  0
LINE
  5
1C8
100
AcDbEntity
  8
1
  6
CONTINUOUS
 62
           2
100
AcDbLine
 10
-20212.438929694032
 20
657.425925599789
 11
-20212.438929694032
 21
857.425925599789
  0
LINE
  5
1C7
100
AcDbEntity
  8
1
  6
CONTINUOUS
 62
           2
100
AcDbLine
 10
-20242.438929694032
 20
887.425925599789
 11
-19982.438929694032
 21
887.425925599789
  0
LINE
  5
1C6
100
AcDbEntity
  8
1
  6
CONTINUOUS
 62
           2
100
AcDbLine
 10
-19982.438929694032
 20
887.425925599789
 11
-19982.438929694032
 21
627.425925599789
  0
LINE
  5
1C5
100
AcDbEntity
  8
1
  6
CONTINUOUS
 62
           2
100
AcDbLine
 10
-19982.438929694032
 20
627.425925599789
 11
-20242.438929694032
 21
627.425925599789
  0
LINE
  5
1C4
100
AcDbEntity
  8
1
  6
CONTINUOUS
 62
           2
100
AcDbLine
 10
-20242.438929694032
 20
627.425925599789
 11
-20242.438929694032
 21
887.425925599789
  0
LINE
  5
1C3
100
AcDbEntity
  8
1
  6
DOT_CENTER
 62
           3
100
AcDbLine
 10
-20271.425342201081
 20
757.425925599789
 11
-19949.297370729299
 21
757.425925599789
  0
LINE
  5
1C2
100
AcDbEntity
  8
1
  6
DOT_CENTER
 62
           3
100
AcDbLine
 10
-20112.438929694032
 20
906.025879490508
 11
-20112.438929694032
 21
577.742764589008
  0
LINE
  5
1C1
100
AcDbEntity
  8
1
  6
CONTINUOUS
 62
           3
100
AcDbLine
 10
-20212.438929694032
 20
857.425925599789
 11
-20012.438929694032
 21
657.425925599789
  0
LINE
  5
1C0
100
AcDbEntity
  8
1
  6
CONTINUOUS
 62
           3
100
AcDbLine
 10
-20012.438929694032
 20
857.425925599789
 11
-20212.438929694032
 21
657.425925599789
  0
LINE
  5
1BF
100
AcDbEntity
  8
1
  6
CONTINUOUS
 62
           2
100
AcDbLine
 10
-19787.438929694032
 20
2009.425925599789
 11
-19187.438929694032
 21
2009.425925599789
  0
LINE
  5
1BE
100
AcDbEntity
  8
1
  6
CONTINUOUS
 62
           2
100
AcDbLine
 10
-19687.438929694032
 20
507.425925599785
 11
-19687.438929694032
 21
807.425925599789
  0
LINE
  5
1BD
100
AcDbEntity
  8
1
  6
CONTINUOUS
 62
           2
100
AcDbLine
 10
-19187.438929694032
 20
2009.425925599789
 11
-19187.438929694032
 21
507.425925599789
  0
LINE
  5
1BC
100
AcDbEntity
  8
1
  6
CONTINUOUS
 62
           2
100
AcDbLine
 10
-19687.438929694032
 20
807.425925599789
 11
-19187.438929694021
 21
807.425925599785
  0
LINE
  5
1BB
100
AcDbEntity
  8
1
  6
CONTINUOUS
 62
           2
100
AcDbLine
 10
-19487.438929694021
 20
851.425925599789
 11
-19737.438929694032
 21
851.425925599789
  0
LINE
  5
1BA
100
AcDbEntity
  8
1
  6
CONTINUOUS
 62
           2
100
AcDbLine
 10
-19737.438929694032
 20
851.425925599789
 11
-19737.438929694032
 21
1008.265834752709
  0
LINE
  5
1B9
100
AcDbEntity
  8
1
  6
DOT_CENTER
 62
           3
100
AcDbLine
 10
-19612.438929694032
 20
1019.7283317434
 11
-19612.438929694032
 21
835.930140802188
  0
LINE
  5
1B8
100
AcDbEntity
  8
1
  6
CONTINUOUS
 62
           2
100
AcDbLine
 10
-19787.438929694032
 20
1009.425925599789
 11
-19187.438929694032
 21
1009.425925599789
  0
LINE
  5
1B7
100
AcDbEntity
  8
1
  6
CONTINUOUS
 62
           3
100
AcDbLine
 10
-21362.438929694021
 20
508.425925599789
 11
-19862.438929694032
 21
508.425925599789
  0
LINE
  5
1B6
100
AcDbEntity
  8
1
  6
CONTINUOUS
 62
           3
100
AcDbLine
 10
-19825.428580273368
 20
411.925925599789
 11
-19775.438929694032
 21
411.925925599789
  0
LINE
  5
1B5
100
AcDbEntity
  8
1
  6
CONTINUOUS
 62
           3
100
AcDbLine
 10
-19847.438929694032
 20
400.925925599789
 11
-19847.438929694032
 21
425.925925599789
  0
LINE
  5
1B4
100
AcDbEntity
  8
1
  6
CONTINUOUS
 62
           3
100
AcDbLine
 10
-19843.790576238269
 20
400.925925599789
 11
-19839.641954064318
 21
402.87844957552
  0
LINE
  5
1B3
100
AcDbEntity
  8
1
  6
DOT_CENTER
 62
           3
100
AcDbLine
 10
-19846.619782040609
 20
406.425925599789
 11
-19822.540763942179
 21
406.425925599789
  0
LINE
  5
1B2
100
AcDbEntity
  8
1
  6
DOT_CENTER
 62
           3
100
AcDbLine
 10
-19835.438929694032
 20
393.059681790371
 11
-19835.438929694032
 21
419.320860903967
  0
LINE
  5
1B1
100
AcDbEntity
  8
1
  6
CONTINUOUS
 62
           3
100
AcDbLine
 10
-19825.438929694032
 20
432.425925599789
 11
-19825.438929694032
 21
416.425925599789
  0
LINE
  5
1B0
100
AcDbEntity
  8
1
  6
CONTINUOUS
 62
           3
100
AcDbLine
 10
-19829.543350901429
 20
416.425925599789
 11
-19775.438929694032
 21
416.425925599789
  0
LINE
  5
1AF
100
AcDbEntity
  8
1
  6
DOT_CENTER
 62
           3
100
AcDbLine
 10
-19800.438929694032
 20
406.30353878271
 11
-19800.438929694032
 21
434.04677205094
  0
LINE
  5
1AE
100
AcDbEntity
  8
1
  6
CONTINUOUS
 62
           3
100
AcDbLine
 10
-19775.438929694032
 20
432.425925599789
 11
-19775.438929694032
 21
411.925925599789
  0
LINE
  5
1AD
100
AcDbEntity
  8
1
  6
DOT_CENTER
 62
           3
100
AcDbLine
 10
-19924.438929694032
 20
384.577779895189
 11
-19924.438929694032
 21
409.925925599789
  0
LINE
  5
1AC
100
AcDbEntity
  8
1
  6
DOT_CENTER
 62
           3
100
AcDbLine
 10
-19969.438929694032
 20
386.144271287499
 11
-19969.438929694032
 21
409.925925599789
  0
LINE
  5
1AB
100
AcDbEntity
  8
1
  6
CONTINUOUS
 62
           3
100
AcDbLine
 10
-19982.438929694032
 20
396.425925599789
 11
-19982.438929694032
 21
400.925925599789
  0
LINE
  5
1AA
100
AcDbEntity
  8
1
  6
CONTINUOUS
 62
           3
100
AcDbLine
 10
-19982.438929694032
 20
396.425925599789
 11
-19835.438929694032
 21
396.425925599789
  0
LINE
  5
1A9
100
AcDbEntity
  8
1
  6
DOT_CENTER
 62
           3
100
AcDbLine
 10
-19879.438929694032
 20
383.235072987499
 11
-19879.438929694032
 21
409.925925599789
  0
LINE
  5
1A8
100
AcDbEntity
  8
1
  6
CONTINUOUS
 62
           3
100
AcDbLine
 10
-20607.438929694032
 20
425.925925599789
 11
-19847.438929694032
 21
425.925925599789
  0
LINE
  5
1A7
100
AcDbEntity
  8
1
  6
CONTINUOUS
 62
           3
100
AcDbLine
 10
-21449.438929694021
 20
416.425925599789
 11
-21449.438929694021
 21
411.925925599789
  0
LINE
  5
1A6
100
AcDbEntity
  8
1
  6
CONTINUOUS
 62
           3
100
AcDbLine
 10
-21449.438929694021
 20
416.425925599789
 11
-21395.334508486631
 21
416.425925599789
  0
LINE
  5
1A5
100
AcDbEntity
  8
1
  6
CONTINUOUS
 62
           3
100
AcDbLine
 10
-21449.438929694021
 20
411.925925599789
 11
-21399.449279114691
 21
411.925925599789
  0
LINE
  5
1A4
100
AcDbEntity
  8
1
  6
CONTINUOUS
 62
           3
100
AcDbLine
 10
-21385.235905323741
 20
402.87844957552
 11
-21381.087283149791
 21
400.925925599789
  0
LINE
  5
1A3
100
AcDbEntity
  8
1
  6
DOT_CENTER
 62
           3
100
AcDbLine
 10
-21402.337095445881
 20
406.425925599789
 11
-21378.258077347458
 21
406.425925599789
  0
LINE
  5
1A2
100
AcDbEntity
  8
1
  6
DOT_CENTER
 62
           3
100
AcDbLine
 10
-21389.438929694021
 20
419.320860903967
 11
-21389.438929694021
 21
393.059681790371
  0
LINE
  5
1A1
100
AcDbEntity
  8
1
  6
CONTINUOUS
 62
           3
100
AcDbLine
 10
-19835.438929694032
 20
400.925925599789
 11
-21389.438929694021
 21
400.925925599789
  0
LINE
  5
1A0
100
AcDbEntity
  8
1
  6
CONTINUOUS
 62
           3
100
AcDbLine
 10
-21389.438929694021
 20
396.425925599789
 11
-21242.438929694032
 21
396.425925599789
  0
LINE
  5
19F
100
AcDbEntity
  8
1
  6
CONTINUOUS
 62
           3
100
AcDbLine
 10
-21242.438929694032
 20
400.925925599789
 11
-21242.438929694032
 21
396.425925599789
  0
LINE
  5
19E
100
AcDbEntity
  8
1
  6
DOT_CENTER
 62
           3
100
AcDbLine
 10
-21300.438929694021
 20
409.925925599789
 11
-21300.438929694021
 21
384.577779895189
  0
LINE
  5
19D
100
AcDbEntity
  8
1
  6
DOT_CENTER
 62
           3
100
AcDbLine
 10
-21255.438929694032
 20
409.925925599789
 11
-21255.438929694032
 21
386.144271287499
  0
LINE
  5
19C
100
AcDbEntity
  8
1
  6
DOT_CENTER
 62
           3
100
AcDbLine
 10
-21345.438929694021
 20
409.925925599789
 11
-21345.438929694021
 21
383.235072987499
  0
LINE
  5
19B
100
AcDbEntity
  8
1
  6
CONTINUOUS
 62
           3
100
AcDbLine
 10
-21377.438929694021
 20
425.925925599789
 11
-21377.438929694021
 21
400.925925599789
  0
LINE
  5
19A
100
AcDbEntity
  8
1
  6
CONTINUOUS
 62
           3
100
AcDbLine
 10
-21377.438929694021
 20
425.925925599789
 11
-20617.438929694032
 21
425.925925599789
  0
LINE
  5
199
100
AcDbEntity
  8
1
  6
CONTINUOUS
 62
           3
100
AcDbLine
 10
-20617.438929694032
 20
400.925925599789
 11
-20617.438929694032
 21
425.925925599789
  0
LINE
  5
198
100
AcDbEntity
  8
1
  6
CONTINUOUS
 62
           3
100
AcDbLine
 10
-20607.438929694032
 20
425.925925599789
 11
-20607.438929694032
 21
400.925925599789
  0
LINE
  5
197
100
AcDbEntity
  8
1
  6
PHANTOM
 62
           3
100
AcDbLine
 10
-19217.438929694032
 20
507.425925599789
 11
-19292.293921327098
 21
73.840028426449
  0
LINE
  5
196
100
AcDbEntity
  8
1
  6
CONTINUOUS
 62
           3
100
AcDbLine
 10
-19687.438929694032
 20
537.425925599789
 11
-19187.438929694032
 21
537.425925599789
  0
LINE
  5
195
100
AcDbEntity
  8
1
  6
CONTINUOUS
 62
           3
100
AcDbLine
 10
-21393.438929694032
 20
-1555.690049672427
 11
-21235.438929694032
 21
-1555.690049672427
  0
LINE
  5
194
100
AcDbEntity
  8
1
  6
CONTINUOUS
 62
           3
100
AcDbLine
 10
-21393.438929694032
 20
-1705.690049672427
 11
-21393.438929694032
 21
-1555.690049672427
  0
LINE
  5
193
100
AcDbEntity
  8
1
  6
CONTINUOUS
 62
           3
100
AcDbLine
 10
-21235.438929694032
 20
-1630.690049672427
 11
-21235.438929694032
 21
-1555.690049672427
  0
LINE
  5
192
100
AcDbEntity
  8
1
  6
CONTINUOUS
 62
           3
100
AcDbLine
 10
-21449.438929694032
 20
-1705.690049672427
 11
-21377.438929694032
 21
-1705.690049672427
  0
LINE
  5
191
100
AcDbEntity
  8
1
  6
CONTINUOUS
 62
           3
100
AcDbLine
 10
-21449.438929694032
 20
-1630.690049672427
 11
-21235.438929694032
 21
-1630.690049672427
  0
LINE
  5
190
100
AcDbEntity
  8
1
  6
CONTINUOUS
 62
           3
100
AcDbLine
 10
-21449.438929694032
 20
-1705.690049672427
 11
-21449.438929694032
 21
-1630.690049672427
  0
LINE
  5
18F
100
AcDbEntity
  8
1
  6
CONTINUOUS
 62
           3
100
AcDbLine
 10
-19989.438929694032
 20
-1555.690049672427
 11
-19831.438929694032
 21
-1555.690049672427
  0
LINE
  5
18E
100
AcDbEntity
  8
1
  6
CONTINUOUS
 62
           3
100
AcDbLine
 10
-19831.438929694032
 20
-1555.690049672427
 11
-19831.438929694032
 21
-1705.690049672427
  0
LINE
  5
18D
100
AcDbEntity
  8
1
  6
CONTINUOUS
 62
           3
100
AcDbLine
 10
-19989.438929694032
 20
-1555.690049672427
 11
-19989.438929694032
 21
-1630.690049672427
  0
LINE
  5
18C
100
AcDbEntity
  8
1
  6
CONTINUOUS
 62
           3
100
AcDbLine
 10
-19847.438929694032
 20
-1705.690049672427
 11
-19775.438929694032
 21
-1705.690049672427
  0
LINE
  5
18B
100
AcDbEntity
  8
1
  6
CONTINUOUS
 62
           3
100
AcDbLine
 10
-19989.438929694032
 20
-1630.690049672427
 11
-19775.438929694032
 21
-1630.690049672427
  0
LINE
  5
18A
100
AcDbEntity
  8
1
  6
CONTINUOUS
 62
           3
100
AcDbLine
 10
-19775.438929694032
 20
-1630.690049672427
 11
-19775.438929694032
 21
-1705.690049672427
  0
LINE
  5
189
100
AcDbEntity
  8
1
  6
CONTINUOUS
 62
           2
100
AcDbLine
 10
-19319.438929694032
 20
-1631.190049672426
 11
-19324.438929694032
 21
-1631.190049672426
  0
LINE
  5
188
100
AcDbEntity
  8
1
  6
CONTINUOUS
 62
           2
100
AcDbLine
 10
-19319.438929694032
 20
-1612.190049672426
 11
-19324.438929694032
 21
-1612.190049672426
  0
LINE
  5
187
100
AcDbEntity
  8
1
  6
CONTINUOUS
 62
           2
100
AcDbLine
 10
-19319.438929694032
 20
-1502.690049672426
 11
-19339.816842182539
 21
-1502.690049672426
  0
LINE
  5
186
100
AcDbEntity
  8
1
  6
PHANTOM
 62
           3
100
AcDbLine
 10
-19279.438929694032
 20
-1462.690049672426
 11
-19309.438929694032
 21
-1462.690049672426
  0
LINE
  5
185
100
AcDbEntity
  8
1
  6
PHANTOM
 62
           3
100
AcDbLine
 10
-19279.438929694032
 20
-1703.690049672426
 11
-19279.438929694032
 21
-1462.690049672426
  0
LINE
  5
184
100
AcDbEntity
  8
1
  6
PHANTOM
 62
           3
100
AcDbLine
 10
-19309.438929694032
 20
-1703.690049672426
 11
-19309.438929694032
 21
-1462.690049672426
  0
LINE
  5
183
100
AcDbEntity
  8
1
  6
PHANTOM
 62
           3
100
AcDbLine
 10
-19279.438929694032
 20
-1703.690049672426
 11
-19309.438929694032
 21
-1703.690049672426
  0
LINE
  5
182
100
AcDbEntity
  8
1
  6
DOT_CENTER
 62
           3
100
AcDbLine
 10
-19299.438929694032
 20
-1703.690049672426
 11
-19299.438929694032
 21
-1462.690049672426
  0
LINE
  5
181
100
AcDbEntity
  8
1
  6
DOT_CENTER
 62
           3
100
AcDbLine
 10
-19289.438929694032
 20
-1462.690049672426
 11
-19289.438929694032
 21
-1703.690049672426
  0
LINE
  5
180
100
AcDbEntity
  8
1
  6
CONTINUOUS
 62
           2
100
AcDbLine
 10
-19333.438929694032
 20
-1531.990049672425
 11
-19333.438929694032
 21
-1545.990049672425
  0
LINE
  5
17F
100
AcDbEntity
  8
1
  6
CONTINUOUS
 62
           2
100
AcDbLine
 10
-19371.438929694032
 20
-1531.990049672425
 11
-19333.438929694032
 21
-1531.990049672425
  0
LINE
  5
17E
100
AcDbEntity
  8
1
  6
CONTINUOUS
 62
           2
100
AcDbLine
 10
-19371.438929694032
 20
-1545.990049672425
 11
-19371.438929694032
 21
-1531.990049672425
  0
LINE
  5
17D
100
AcDbEntity
  8
1
  6
CONTINUOUS
 62
           2
100
AcDbLine
 10
-19339.816842182539
 20
-1483.990049672425
 11
-19339.816842182539
 21
-1531.990049672425
  0
LINE
  5
17C
100
AcDbEntity
  8
1
  6
CONTINUOUS
 62
           2
100
AcDbLine
 10
-19364.95356577565
 20
-1483.990049672425
 11
-19339.816842182539
 21
-1483.990049672425
  0
LINE
  5
17B
100
AcDbEntity
  8
1
  6
CONTINUOUS
 62
           2
100
AcDbLine
 10
-19364.95356577565
 20
-1531.990049672425
 11
-19364.95356577565
 21
-1483.990049672425
  0
LINE
  5
17A
100
AcDbEntity
  8
1
  6
CONTINUOUS
 62
           2
100
AcDbLine
 10
-19463.438929694032
 20
-1531.990049672425
 11
-19463.438929694032
 21
-1545.990049672425
  0
LINE
  5
179
100
AcDbEntity
  8
1
  6
CONTINUOUS
 62
           2
100
AcDbLine
 10
-19501.438929694032
 20
-1531.990049672425
 11
-19463.438929694032
 21
-1531.990049672425
  0
LINE
  5
178
100
AcDbEntity
  8
1
  6
CONTINUOUS
 62
           2
100
AcDbLine
 10
-19501.438929694032
 20
-1545.990049672425
 11
-19501.438929694032
 21
-1531.990049672425
  0
LINE
  5
177
100
AcDbEntity
  8
1
  6
CONTINUOUS
 62
           2
100
AcDbLine
 10
-19469.738929694031
 20
-1483.990049672425
 11
-19469.738929694031
 21
-1531.990049672425
  0
LINE
  5
176
100
AcDbEntity
  8
1
  6
CONTINUOUS
 62
           2
100
AcDbLine
 10
-19495.01810665166
 20
-1483.990049672425
 11
-19469.738929694031
 21
-1483.990049672425
  0
LINE
  5
175
100
AcDbEntity
  8
1
  6
CONTINUOUS
 62
           2
100
AcDbLine
 10
-19495.01810665166
 20
-1531.990049672425
 11
-19495.01810665166
 21
-1483.990049672425
  0
LINE
  5
174
100
AcDbEntity
  8
1
  6
CONTINUOUS
 62
           2
100
AcDbLine
 10
-19469.738929694031
 20
-1502.690049672426
 11
-19364.95356577565
 21
-1502.690049672426
  0
LINE
  5
173
100
AcDbEntity
  8
1
  6
CONTINUOUS
 62
           2
100
AcDbLine
 10
-19495.01810665166
 20
-1522.654403952725
 11
-19522.438929694032
 21
-1522.654403952725
  0
LINE
  5
172
100
AcDbEntity
  8
1
  6
CONTINUOUS
 62
           2
100
AcDbLine
 10
-19364.95356577565
 20
-1522.654403952725
 11
-19469.738929694031
 21
-1522.654403952736
  0
LINE
  5
171
100
AcDbEntity
  8
1
  6
CONTINUOUS
 62
           2
100
AcDbLine
 10
-19339.816842182539
 20
-1522.654403952725
 11
-19319.438929694032
 21
-1522.654403952725
  0
LINE
  5
170
100
AcDbEntity
  8
1
  6
CONTINUOUS
 62
           2
100
AcDbLine
 10
-19522.438929694032
 20
-1502.690049672426
 11
-19494.927484418
 21
-1502.690049672426
  0
LINE
  5
16F
100
AcDbEntity
  8
1
  6
CONTINUOUS
 62
           2
100
AcDbLine
 10
-19322.438929694032
 20
-1640.727635565755
 11
-19322.438929694032
 21
-1722.690049672426
  0
LINE
  5
16E
100
AcDbEntity
  8
1
  6
CONTINUOUS
 62
           2
100
AcDbLine
 10
-19322.438929694032
 20
-1545.990049672425
 11
-19322.438929694032
 21
-1607.806313252054
  0
LINE
  5
16D
100
AcDbEntity
  8
1
  6
CONTINUOUS
 62
           2
100
AcDbLine
 10
-19520.303075085591
 20
-1545.990049672424
 11
-19322.438929694032
 21
-1545.990049672425
  0
LINE
  5
16C
100
AcDbEntity
  8
1
  6
CONTINUOUS
 62
           3
100
AcDbLine
 10
-19324.438929694032
 20
-1722.690049672426
 11
-19324.438929694032
 21
-1701.690049672426
  0
LINE
  5
16B
100
AcDbEntity
  8
1
  6
DOT_CENTER
 62
           3
100
AcDbLine
 10
-19275.09064567036
 20
-1621.690049672426
 11
-19557.151474072729
 21
-1621.690049672426
  0
LINE
  5
16A
100
AcDbEntity
  8
1
  6
DOT_CENTER
 62
           3
100
AcDbLine
 10
-19424.438929694032
 20
-1537.598667476365
 11
-19424.438929694032
 21
-1710.09176052612
  0
LINE
  5
169
100
AcDbEntity
  8
1
  6
CONTINUOUS
 62
           2
100
AcDbLine
 10
-19485.438929694032
 20
-1694.690049672426
 11
-19485.438929694032
 21
-1548.690049672426
  0
LINE
  5
168
100
AcDbEntity
  8
1
  6
CONTINUOUS
 62
           3
100
AcDbLine
 10
-19485.438929694032
 20
-1652.490049672425
 11
-19505.438929694032
 21
-1652.490049672425
  0
LINE
  5
167
100
AcDbEntity
  8
1
  6
CONTINUOUS
 62
           3
100
AcDbLine
 10
-19505.438929694032
 20
-1652.490049672425
 11
-19505.438929694032
 21
-1666.190049672426
  0
LINE
  5
166
100
AcDbEntity
  8
1
  6
CONTINUOUS
 62
           3
100
AcDbLine
 10
-19505.438929694032
 20
-1666.190049672426
 11
-19485.438929694032
 21
-1666.190049672426
  0
LINE
  5
165
100
AcDbEntity
  8
1
  6
CONTINUOUS
 62
           2
100
AcDbLine
 10
-19335.138929694029
 20
-1564.690049672426
 11
-19338.53892969403
 21
-1564.690049672426
  0
LINE
  5
164
100
AcDbEntity
  8
1
  6
CONTINUOUS
 62
           2
100
AcDbLine
 10
-19338.53892969403
 20
-1694.690049672426
 11
-19338.53892969403
 21
-1548.690049672426
  0
LINE
  5
163
100
AcDbEntity
  8
1
  6
CONTINUOUS
 62
           2
100
AcDbLine
 10
-19335.138929694029
 20
-1678.690049672426
 11
-19335.138929694029
 21
-1564.690049672426
  0
LINE
  5
162
100
AcDbEntity
  8
1
  6
CONTINUOUS
 62
           2
100
AcDbLine
 10
-19350.238929694031
 20
-1548.690049672426
 11
-19350.238929694031
 21
-1694.690049672426
  0
LINE
  5
161
100
AcDbEntity
  8
1
  6
CONTINUOUS
 62
           2
100
AcDbLine
 10
-19324.438929694032
 20
-1632.690049672426
 11
-19324.438929694032
 21
-1610.690049672426
  0
LINE
  5
160
100
AcDbEntity
  8
1
  6
CONTINUOUS
 62
           2
100
AcDbLine
 10
-19329.438929694032
 20
-1610.690049672426
 11
-19324.438929694032
 21
-1610.690049672426
  0
LINE
  5
15F
100
AcDbEntity
  8
1
  6
CONTINUOUS
 62
           2
100
AcDbLine
 10
-19324.438929694032
 20
-1632.690049672426
 11
-19329.438929694032
 21
-1632.690049672426
  0
LINE
  5
15E
100
AcDbEntity
  8
1
  6
CONTINUOUS
 62
           2
100
AcDbLine
 10
-19329.438929694032
 20
-1649.690049672426
 11
-19329.438929694032
 21
-1593.690049672426
  0
LINE
  5
15D
100
AcDbEntity
  8
1
  6
CONTINUOUS
 62
           2
100
AcDbLine
 10
-19329.438929694032
 20
-1593.690049672426
 11
-19335.138929694029
 21
-1593.690049672426
  0
LINE
  5
15C
100
AcDbEntity
  8
1
  6
CONTINUOUS
 62
           2
100
AcDbLine
 10
-19335.138929694029
 20
-1649.690049672426
 11
-19329.438929694032
 21
-1649.690049672426
  0
LINE
  5
15B
100
AcDbEntity
  8
1
  6
CONTINUOUS
 62
           3
100
AcDbLine
 10
-19338.53892969403
 20
-1645.671763367656
 11
-19344.010545506921
 21
-1645.671763367656
  0
LINE
  5
15A
100
AcDbEntity
  8
1
  6
CONTINUOUS
 62
           3
100
AcDbLine
 10
-19344.010545506921
 20
-1645.671763367656
 11
-19344.010545506921
 21
-1669.410230800905
  0
LINE
  5
159
100
AcDbEntity
  8
1
  6
CONTINUOUS
 62
           3
100
AcDbLine
 10
-19344.010545506921
 20
-1669.410230800905
 11
-19338.53892969403
 21
-1669.410230800905
  0
LINE
  5
158
100
AcDbEntity
  8
1
  6
CONTINUOUS
 62
           2
100
AcDbLine
 10
-19338.53892969403
 20
-1694.690049672426
 11
-19364.114257381148
 21
-1694.690049672426
  0
LINE
  5
157
100
AcDbEntity
  8
1
  6
CONTINUOUS
 62
           3
100
AcDbLine
 10
-19451.165026611921
 20
-1686.740049672425
 11
-19479.496378583292
 21
-1688.523017071507
  0
LINE
  5
156
100
AcDbEntity
  8
1
  6
CONTINUOUS
 62
           3
100
AcDbLine
 10
-19485.94502661192
 20
-1698.490049672425
 11
-19483.961231587
 21
-1692.042715841434
  0
LINE
  5
155
100
AcDbEntity
  8
1
  6
CONTINUOUS
 62
           3
100
AcDbLine
 10
-19485.94502661192
 20
-1698.490049672425
 11
-19454.920552505129
 21
-1698.490049672425
  0
LINE
  5
154
100
AcDbEntity
  8
1
  6
CONTINUOUS
 62
           3
100
AcDbLine
 10
-19486.94502661192
 20
-1700.690049672426
 11
-19486.94502661192
 21
-1699.490049672425
  0
LINE
  5
153
100
AcDbEntity
  8
1
  6
CONTINUOUS
 62
           3
100
AcDbLine
 10
-19485.94502661192
 20
-1701.690049672426
 11
-19454.230188442471
 21
-1701.690049672426
  0
LINE
  5
152
100
AcDbEntity
  8
1
  6
CONTINUOUS
 62
           3
100
AcDbLine
 10
-19452.494778841348
 20
-1700.419801901854
 11
-19453.436107527192
 21
-1701.361130587705
  0
LINE
  5
151
100
AcDbEntity
  8
1
  6
CONTINUOUS
 62
           3
100
AcDbLine
 10
-19450.554473492601
 20
-1679.566050520425
 11
-19451.931358483511
 21
-1695.744449163645
  0
LINE
  5
150
100
AcDbEntity
  8
1
  6
CONTINUOUS
 62
           3
100
AcDbLine
 10
-19398.33557973124
 20
-1679.566050520425
 11
-19396.95869474033
 21
-1695.744449163645
  0
LINE
  5
14F
100
AcDbEntity
  8
1
  6
CONTINUOUS
 62
           3
100
AcDbLine
 10
-19454.920552505129
 20
-1698.490049672425
 11
-19393.969500718711
 21
-1698.490049672425
  0
LINE
  5
14E
100
AcDbEntity
  8
1
  6
CONTINUOUS
 62
           3
100
AcDbLine
 10
-19450.188937283121
 20
-1700.093587708175
 11
-19451.69868728429
 21
-1700.090884617075
  0
LINE
  5
14D
100
AcDbEntity
  8
1
  6
CONTINUOUS
 62
           3
100
AcDbLine
 10
-19395.453945696649
 20
-1701.361130587705
 11
-19396.396107527191
 21
-1700.418968757156
  0
LINE
  5
14C
100
AcDbEntity
  8
1
  6
CONTINUOUS
 62
           3
100
AcDbLine
 10
-19362.94502661192
 20
-1701.690049672426
 11
-19394.659864781381
 21
-1701.690049672426
  0
LINE
  5
14B
100
AcDbEntity
  8
1
  6
CONTINUOUS
 62
           3
100
AcDbLine
 10
-19362.94502661192
 20
-1698.490049672425
 11
-19393.969500718711
 21
-1698.490049672425
  0
LINE
  5
14A
100
AcDbEntity
  8
1
  6
CONTINUOUS
 62
           3
100
AcDbLine
 10
-19450.188937283121
 20
-1700.093587708175
 11
-19450.099864781379
 21
-1700.090049672424
  0
LINE
  5
149
100
AcDbEntity
  8
1
  6
CONTINUOUS
 62
           3
100
AcDbLine
 10
-19362.94502661192
 20
-1698.490049672425
 11
-19364.92882163684
 21
-1692.042715841434
  0
LINE
  5
148
100
AcDbEntity
  8
1
  6
CONTINUOUS
 62
           3
100
AcDbLine
 10
-19361.94502661192
 20
-1699.490049672425
 11
-19361.94502661192
 21
-1700.690049672426
  0
LINE
  5
147
100
AcDbEntity
  8
1
  6
CONTINUOUS
 62
           3
100
AcDbLine
 10
-19397.725026611919
 20
-1686.740049672425
 11
-19369.393674640549
 21
-1688.523017071507
  0
LINE
  5
146
100
AcDbEntity
  8
1
  6
CONTINUOUS
 62
           3
100
AcDbLine
 10
-19403.31756976727
 20
-1674.990049672425
 11
-19445.57248345657
 21
-1674.990049672425
  0
LINE
  5
145
100
AcDbEntity
  8
1
  6
CONTINUOUS
 62
           3
100
AcDbLine
 10
-19397.19018844247
 20
-1700.090049672424
 11
-19450.099864781379
 21
-1700.090049672424
  0
LINE
  5
144
100
AcDbEntity
  8
1
  6
CONTINUOUS
 62
           3
100
AcDbLine
 10
-19485.438929694032
 20
-1694.690049672426
 11
-19484.775795842688
 21
-1694.690049672426
  0
LINE
  5
143
100
AcDbEntity
  8
1
  6
CONTINUOUS
 62
           2
100
AcDbLine
 10
-19277.438929694032
 20
-1722.690049672426
 11
-19239.438929694032
 21
-1722.690049672426
  0
LINE
  5
142
100
AcDbEntity
  8
1
  6
CONTINUOUS
 62
           2
100
AcDbLine
 10
-19319.438929694032
 20
-1722.690049672426
 11
-19319.438929694032
 21
-1412.690049672426
  0
LINE
  5
141
100
AcDbEntity
  8
1
  6
CONTINUOUS
 62
           2
100
AcDbLine
 10
-19239.438929694032
 20
-1412.690049672426
 11
-19239.438929694032
 21
-1722.690049672426
  0
LINE
  5
140
100
AcDbEntity
  8
1
  6
CONTINUOUS
 62
           2
100
AcDbLine
 10
-19319.438929694032
 20
-1412.690049672426
 11
-19239.438929694032
 21
-1412.690049672426
  0
LINE
  5
13F
100
AcDbEntity
  8
1
  6
DOT_CENTER
 62
           3
100
AcDbLine
 10
-19868.87891297575
 20
-1512.690049672426
 11
-19266.979596423
 21
-1512.690049672426
  0
LINE
  5
13E
100
AcDbEntity
  8
1
  6
DOT_CENTER
 62
           3
100
AcDbLine
 10
-19662.438929694032
 20
-1184.65738827625
 11
-19662.438929694032
 21
-1747.752415791055
  0
LINE
  5
13D
100
AcDbEntity
  8
1
  6
CONTINUOUS
 62
           2
100
AcDbLine
 10
-19762.438929694032
 20
-1780.390049672427
 11
-19756.738929694031
 21
-1780.390049672427
  0
LINE
  5
13C
100
AcDbEntity
  8
1
  6
CONTINUOUS
 62
           2
100
AcDbLine
 10
-19762.438929694032
 20
-1722.690049672426
 11
-19752.438929694032
 21
-1722.690049672426
  0
LINE
  5
13B
100
AcDbEntity
  8
1
  6
CONTINUOUS
 62
           2
100
AcDbLine
 10
-19752.438929694032
 20
-1722.690049672426
 11
-19302.438929694032
 21
-1722.690049672426
  0
LINE
  5
13A
100
AcDbEntity
  8
1
  6
CONTINUOUS
 62
           2
100
AcDbLine
 10
-19302.438929694032
 20
-1722.690049672426
 11
-19302.438929694032
 21
-1777.690049672426
  0
LINE
  5
139
100
AcDbEntity
  8
1
  6
CONTINUOUS
 62
           2
100
AcDbLine
 10
-19300.138929694029
 20
-1726.990049672425
 11
-19300.138929694029
 21
-1777.690049672426
  0
LINE
  5
138
100
AcDbEntity
  8
1
  6
CONTINUOUS
 62
           2
100
AcDbLine
 10
-19277.438929694032
 20
-1724.990049672425
 11
-19298.138929694029
 21
-1724.990049672425
  0
LINE
  5
137
100
AcDbEntity
  8
1
  6
CONTINUOUS
 62
           2
100
AcDbLine
 10
-19277.438929694032
 20
-1722.690049672426
 11
-19277.438929694032
 21
-1724.990049672425
  0
LINE
  5
136
100
AcDbEntity
  8
1
  6
CONTINUOUS
 62
           2
100
AcDbLine
 10
-19302.438929694032
 20
-1722.690049672426
 11
-19277.438929694032
 21
-1722.690049672426
  0
LINE
  5
135
100
AcDbEntity
  8
1
  6
CONTINUOUS
 62
           2
100
AcDbLine
 10
-19752.438929694032
 20
-1782.690049672426
 11
-19752.438929694032
 21
-1722.690049672426
  0
LINE
  5
134
100
AcDbEntity
  8
1
  6
CONTINUOUS
 62
           2
100
AcDbLine
 10
-19754.738929694031
 20
-1778.390049672427
 11
-19754.738929694031
 21
-1726.990049672425
  0
LINE
  5
133
100
AcDbEntity
  8
1
  6
CONTINUOUS
 62
           2
100
AcDbLine
 10
-19756.738929694031
 20
-1724.990049672425
 11
-19762.438929694032
 21
-1724.990049672425
  0
LINE
  5
132
100
AcDbEntity
  8
1
  6
CONTINUOUS
 62
           2
100
AcDbLine
 10
-19762.438929694032
 20
-1904.690049672426
 11
-19687.438929694021
 21
-1904.690049672426
  0
LINE
  5
131
100
AcDbEntity
  8
1
  6
CONTINUOUS
 62
           2
100
AcDbLine
 10
-19762.438929694032
 20
-1782.690049672426
 11
-19687.438929694021
 21
-1782.690049672426
  0
LINE
  5
130
100
AcDbEntity
  8
1
  6
CONTINUOUS
 62
           2
100
AcDbLine
 10
-19522.438929694032
 20
-1227.690049672426
 11
-19522.438929694032
 21
-1722.690049672426
  0
LINE
  5
12F
100
AcDbEntity
  8
1
  6
CONTINUOUS
 62
           3
100
AcDbLine
 10
-19961.438929694021
 20
-1267.690049672426
 11
-19911.438929694032
 21
-1267.690049672426
  0
LINE
  5
12E
100
AcDbEntity
  8
1
  6
CONTINUOUS
 62
           2
100
AcDbLine
 10
-20212.438929694032
 20
-1057.690049672426
 11
-20212.438929694032
 21
-1247.690049672426
  0
LINE
  5
12D
100
AcDbEntity
  8
1
  6
CONTINUOUS
 62
           2
100
AcDbLine
 10
-20012.438929694021
 20
-1247.690049672426
 11
-20012.438929694021
 21
-1057.690049672426
  0
LINE
  5
12C
100
AcDbEntity
  8
1
  6
CONTINUOUS
 62
           3
100
AcDbLine
 10
-20212.438929694032
 20
-1247.690049672426
 11
-20012.438929694021
 21
-1247.690049672426
  0
LINE
  5
12B
100
AcDbEntity
  8
1
  6
CONTINUOUS
 62
           3
100
AcDbLine
 10
-19982.438929694021
 20
-1277.690049672426
 11
-19982.438929694021
 21
-1276.690049672426
  0
LINE
  5
12A
100
AcDbEntity
  8
1
  6
CONTINUOUS
 62
           3
100
AcDbLine
 10
-19984.438929694021
 20
-1274.690049672426
 11
-20005.438929694021
 21
-1274.690049672426
  0
LINE
  5
129
100
AcDbEntity
  8
1
  6
CONTINUOUS
 62
           3
100
AcDbLine
 10
-20009.438929694021
 20
-1270.690049672426
 11
-20009.438929694021
 21
-1249.690049672426
  0
LINE
  5
128
100
AcDbEntity
  8
1
  6
CONTINUOUS
 62
           3
100
AcDbLine
 10
-20011.438929694021
 20
-1247.690049672426
 11
-20012.438929694021
 21
-1247.690049672426
  0
LINE
  5
127
100
AcDbEntity
  8
1
  6
CONTINUOUS
 62
           3
100
AcDbLine
 10
-20219.438929694032
 20
-1274.690049672426
 11
-20240.438929694032
 21
-1274.690049672426
  0
LINE
  5
126
100
AcDbEntity
  8
1
  6
CONTINUOUS
 62
           3
100
AcDbLine
 10
-20215.438929694032
 20
-1249.690049672426
 11
-20215.438929694032
 21
-1270.690049672426
  0
LINE
  5
125
100
AcDbEntity
  8
1
  6
CONTINUOUS
 62
           3
100
AcDbLine
 10
-20212.438929694032
 20
-1247.690049672426
 11
-20213.438929694032
 21
-1247.690049672426
  0
LINE
  5
124
100
AcDbEntity
  8
1
  6
CONTINUOUS
 62
           3
100
AcDbLine
 10
-19982.438929694021
 20
-1028.690049672426
 11
-19982.438929694021
 21
-1027.690049672426
  0
LINE
  5
123
100
AcDbEntity
  8
1
  6
CONTINUOUS
 62
           3
100
AcDbLine
 10
-20005.438929694021
 20
-1030.690049672426
 11
-19984.438929694021
 21
-1030.690049672426
  0
LINE
  5
122
100
AcDbEntity
  8
1
  6
CONTINUOUS
 62
           3
100
AcDbLine
 10
-20009.438929694021
 20
-1055.690049672426
 11
-20009.438929694021
 21
-1034.690049672426
  0
LINE
  5
121
100
AcDbEntity
  8
1
  6
CONTINUOUS
 62
           3
100
AcDbLine
 10
-20012.438929694021
 20
-1057.690049672426
 11
-20011.438929694021
 21
-1057.690049672426
  0
LINE
  5
120
100
AcDbEntity
  8
1
  6
CONTINUOUS
 62
           3
100
AcDbLine
 10
-19982.438929694021
 20
-1027.690049672426
 11
-19982.438929694021
 21
-1026.690049672426
  0
LINE
  5
11F
100
AcDbEntity
  8
1
  6
CONTINUOUS
 62
           3
100
AcDbLine
 10
-19984.438929694021
 20
-1024.690049672426
 11
-20005.438929694021
 21
-1024.690049672426
  0
LINE
  5
11E
100
AcDbEntity
  8
1
  6
CONTINUOUS
 62
           3
100
AcDbLine
 10
-20009.438929694021
 20
-1020.690049672426
 11
-20009.438929694021
 21
-999.690049672426
  0
LINE
  5
11D
100
AcDbEntity
  8
1
  6
CONTINUOUS
 62
           3
100
AcDbLine
 10
-20011.438929694021
 20
-997.690049672426
 11
-20012.438929694021
 21
-997.690049672426
  0
LINE
  5
11C
100
AcDbEntity
  8
1
  6
CONTINUOUS
 62
           3
100
AcDbLine
 10
-20011.438929694021
 20
-1057.690049672426
 11
-20212.438929694032
 21
-1057.690049672426
  0
LINE
  5
11B
100
AcDbEntity
  8
1
  6
CONTINUOUS
 62
           3
100
AcDbLine
 10
-20242.438929694032
 20
-1027.690049672426
 11
-20242.438929694032
 21
-1028.690049672426
  0
LINE
  5
11A
100
AcDbEntity
  8
1
  6
CONTINUOUS
 62
           3
100
AcDbLine
 10
-20240.438929694032
 20
-1030.690049672426
 11
-20219.438929694032
 21
-1030.690049672426
  0
LINE
  5
119
100
AcDbEntity
  8
1
  6
CONTINUOUS
 62
           3
100
AcDbLine
 10
-20215.438929694032
 20
-1034.690049672426
 11
-20215.438929694032
 21
-1055.690049672426
  0
LINE
  5
118
100
AcDbEntity
  8
1
  6
CONTINUOUS
 62
           3
100
AcDbLine
 10
-20213.438929694032
 20
-1057.690049672426
 11
-20212.438929694032
 21
-1057.690049672426
  0
LINE
  5
117
100
AcDbEntity
  8
1
  6
CONTINUOUS
 62
           3
100
AcDbLine
 10
-20212.438929694032
 20
-997.690049672426
 11
-20012.438929694021
 21
-997.690049672426
  0
LINE
  5
116
100
AcDbEntity
  8
1
  6
CONTINUOUS
 62
           3
100
AcDbLine
 10
-20242.438929694032
 20
-1026.690049672426
 11
-20242.438929694032
 21
-1027.690049672426
  0
LINE
  5
115
100
AcDbEntity
  8
1
  6
CONTINUOUS
 62
           3
100
AcDbLine
 10
-20219.438929694032
 20
-1024.690049672426
 11
-20240.438929694032
 21
-1024.690049672426
  0
LINE
  5
114
100
AcDbEntity
  8
1
  6
CONTINUOUS
 62
           3
100
AcDbLine
 10
-20215.438929694032
 20
-999.690049672426
 11
-20215.438929694032
 21
-1020.690049672426
  0
LINE
  5
113
100
AcDbEntity
  8
1
  6
CONTINUOUS
 62
           3
100
AcDbLine
 10
-20212.438929694032
 20
-997.690049672426
 11
-20213.438929694032
 21
-997.690049672426
  0
LINE
  5
112
100
AcDbEntity
  8
1
  6
CONTINUOUS
 62
           2
100
AcDbLine
 10
-20242.438929694032
 20
-1027.690049672426
 11
-19982.438929694021
 21
-1027.690049672426
  0
LINE
  5
111
100
AcDbEntity
  8
1
  6
DOT_CENTER
 62
           3
100
AcDbLine
 10
-20112.438929694032
 20
-962.381520335836
 11
-20112.438929694032
 21
-1289.384936715356
  0
LINE
  5
110
100
AcDbEntity
  8
1
  6
DOT_CENTER
 62
           3
100
AcDbLine
 10
-19971.438929694032
 20
-1227.690049672426
 11
-19901.438929694032
 21
-1227.690049672426
  0
LINE
  5
10F
100
AcDbEntity
  8
1
  6
DOT_CENTER
 62
           3
100
AcDbLine
 10
-19936.438929694032
 20
-1192.690049672426
 11
-19936.438929694032
 21
-1315.40523137834
  0
LINE
  5
10E
100
AcDbEntity
  8
1
  6
CONTINUOUS
 62
           3
100
AcDbLine
 10
-19911.438929694032
 20
-1267.690049672426
 11
-19911.438929694032
 21
-1277.690049672426
  0
LINE
  5
10D
100
AcDbEntity
  8
1
  6
CONTINUOUS
 62
           3
100
AcDbLine
 10
-19946.438929694032
 20
-1267.690049672426
 11
-19946.438929694032
 21
-1257.690049672426
  0
LINE
  5
10C
100
AcDbEntity
  8
1
  6
CONTINUOUS
 62
           3
100
AcDbLine
 10
-19946.438929694032
 20
-1257.690049672426
 11
-19926.438929694032
 21
-1257.690049672426
  0
LINE
  5
10B
100
AcDbEntity
  8
1
  6
CONTINUOUS
 62
           3
100
AcDbLine
 10
-19926.438929694032
 20
-1257.690049672426
 11
-19926.438929694032
 21
-1267.690049672426
  0
LINE
  5
10A
100
AcDbEntity
  8
1
  6
CONTINUOUS
 62
           3
100
AcDbLine
 10
-19933.938929694032
 20
-1252.564735600095
 11
-19933.938929694032
 21
-1257.690049672426
  0
LINE
  5
109
100
AcDbEntity
  8
1
  6
CONTINUOUS
 62
           3
100
AcDbLine
 10
-19938.938929694032
 20
-1252.564735600095
 11
-19938.938929694032
 21
-1257.690049672426
  0
LINE
  5
108
100
AcDbEntity
  8
1
  6
CONTINUOUS
 62
           2
100
AcDbLine
 10
-19787.438929694032
 20
-1277.690049672426
 11
-19787.438929694032
 21
-1227.690049672426
  0
LINE
  5
107
100
AcDbEntity
  8
1
  6
CONTINUOUS
 62
           2
100
AcDbLine
 10
-19787.438929694032
 20
-1227.690049672426
 11
-19523.438929694021
 21
-1227.690049672426
  0
LINE
  5
106
100
AcDbEntity
  8
1
  6
CONTINUOUS
 62
           3
100
AcDbLine
 10
-21362.438929694021
 20
-1277.690049672426
 11
-21362.438929694021
 21
-1416.429849474186
  0
LINE
  5
105
100
AcDbEntity
  8
1
  6
CONTINUOUS
 62
           2
100
AcDbLine
 10
-21462.438929694021
 20
-1277.690049672426
 11
-21462.438929694021
 21
-3357.690049672426
  0
LINE
  5
104
100
AcDbEntity
  8
1
  6
CONTINUOUS
 62
           2
100
AcDbLine
 10
-21377.438929694021
 20
-1415.690049672427
 11
-21377.438929694021
 21
-3357.690049672426
  0
LINE
  5
103
100
AcDbEntity
  8
1
  6
CONTINUOUS
 62
           2
100
AcDbLine
 10
-21377.438929694021
 20
-1415.690049672427
 11
-20576.298667119121
 21
-1415.690049672427
  0
LINE
  5
102
100
AcDbEntity
  8
1
  6
CONTINUOUS
 62
           3
100
AcDbLine
 10
-21377.438929694021
 20
-3270.690049672426
 11
-20571.604901592102
 21
-3270.690049672426
  0
LINE
  5
101
100
AcDbEntity
  8
1
  6
CONTINUOUS
 62
           2
100
AcDbLine
 10
-21536.904769951121
 20
-3357.690049672426
 11
-19099.899855899141
 21
-3357.690049672426
  0
LINE
  5
100
100
AcDbEntity
  8
1
  6
CONTINUOUS
 62
           3
100
AcDbLine
 10
-20675.438929694021
 20
-2155.690049672426
 11
-20675.438929694021
 21
-2395.690049672426
  0
LINE
  5
FF
100
AcDbEntity
  8
1
  6
CONTINUOUS
 62
           3
100
AcDbLine
 10
-20691.438929694021
 20
-2155.690049672426
 11
-20691.438929694021
 21
-2395.690049672426
  0
LINE
  5
FE
100
AcDbEntity
  8
1
  6
CONTINUOUS
 62
           3
100
AcDbLine
 10
-20691.438929694021
 20
-2155.690049672426
 11
-20675.438929694021
 21
-2155.690049672426
  0
LINE
  5
FD
100
AcDbEntity
  8
1
  6
CONTINUOUS
 62
           3
100
AcDbLine
 10
-20691.438929694021
 20
-2395.690049672426
 11
-20675.438929694021
 21
-2395.690049672426
  0
LINE
  5
FC
100
AcDbEntity
  8
1
  6
DOT_CENTER
 62
           3
100
AcDbLine
 10
-20709.248217678731
 20
-2275.690049672426
 11
-20659.57765485354
 21
-2275.690049672426
  0
LINE
  5
FB
100
AcDbEntity
  8
1
  6
DOT_CENTER
 62
           3
100
AcDbLine
 10
-20549.52327055459
 20
-2275.690049672426
 11
-20216.096313583799
 21
-2275.690049672426
  0
LINE
  5
FA
100
AcDbEntity
  8
1
  6
DOT_CENTER
 62
           3
100
AcDbLine
 10
-20683.438929694021
 20
-2139.622915743147
 11
-20683.438929694021
 21
-2414.271910188326
  0
LINE
  5
F9
100
AcDbEntity
  8
1
  6
CONTINUOUS
 62
           3
100
AcDbLine
 10
-20698.438929694021
 20
-2145.690049672426
 11
-20668.438929694021
 21
-2145.690049672426
  0
LINE
  5
F8
100
AcDbEntity
  8
1
  6
CONTINUOUS
 62
           3
100
AcDbLine
 10
-20668.438929694021
 20
-2145.690049672426
 11
-20668.438929694021
 21
-2165.690049672426
  0
LINE
  5
F7
100
AcDbEntity
  8
1
  6
CONTINUOUS
 62
           3
100
AcDbLine
 10
-20698.438929694021
 20
-2145.690049672426
 11
-20698.438929694021
 21
-2165.690049672426
  0
LINE
  5
F6
100
AcDbEntity
  8
1
  6
CONTINUOUS
 62
           3
100
AcDbLine
 10
-20668.438929694021
 20
-2165.690049672426
 11
-20675.438929694021
 21
-2175.690049672426
  0
LINE
  5
F5
100
AcDbEntity
  8
1
  6
CONTINUOUS
 62
           3
100
AcDbLine
 10
-20698.438929694021
 20
-2165.690049672426
 11
-20691.438929694021
 21
-2175.690049672426
  0
LINE
  5
F4
100
AcDbEntity
  8
1
  6
CONTINUOUS
 62
           3
100
AcDbLine
 10
-20675.438929694021
 20
-2375.690049672426
 11
-20668.438929694021
 21
-2385.690049672426
  0
LINE
  5
F3
100
AcDbEntity
  8
1
  6
CONTINUOUS
 62
           3
100
AcDbLine
 10
-20691.438929694021
 20
-2375.690049672426
 11
-20698.438929694021
 21
-2385.690049672426
  0
LINE
  5
F2
100
AcDbEntity
  8
1
  6
CONTINUOUS
 62
           3
100
AcDbLine
 10
-20698.438929694021
 20
-2405.690049672426
 11
-20668.438929694021
 21
-2405.690049672426
  0
LINE
  5
F1
100
AcDbEntity
  8
1
  6
CONTINUOUS
 62
           3
100
AcDbLine
 10
-20668.438929694021
 20
-2385.690049672426
 11
-20668.438929694021
 21
-2405.690049672426
  0
LINE
  5
F0
100
AcDbEntity
  8
1
  6
CONTINUOUS
 62
           3
100
AcDbLine
 10
-20698.438929694021
 20
-2385.690049672426
 11
-20698.438929694021
 21
-2405.690049672426
  0
LINE
  5
EF
100
AcDbEntity
  8
1
  6
CONTINUOUS
 62
           3
100
AcDbLine
 10
-20483.438929694021
 20
-2266.322043165488
 11
-20483.438929694021
 21
-2285.634229934377
  0
LINE
  5
EE
100
AcDbEntity
  8
1
  6
CONTINUOUS
 62
           3
100
AcDbLine
 10
-20687.68461365754
 20
-3271.718739455496
 11
-20577.68461365754
 21
-3271.718739455496
  0
LINE
  5
ED
100
AcDbEntity
  8
1
  6
CONTINUOUS
 62
           3
100
AcDbLine
 10
-20687.68461365754
 20
-3303.718739455496
 11
-20577.68461365754
 21
-3303.718739455496
  0
LINE
  5
EC
100
AcDbEntity
  8
1
  6
CONTINUOUS
 62
           3
100
AcDbLine
 10
-20577.68461365754
 20
-3271.718739455496
 11
-20577.68461365754
 21
-3303.718739455496
  0
LINE
  5
EB
100
AcDbEntity
  8
1
  6
CONTINUOUS
 62
           3
100
AcDbLine
 10
-20687.68461365754
 20
-3271.718739455496
 11
-20687.68461365754
 21
-3303.718739455496
  0
LINE
  5
EA
100
AcDbEntity
  8
1
  6
CONTINUOUS
 62
           3
100
AcDbLine
 10
-20609.887797134521
 20
-3271.718739455496
 11
-20609.887797134521
 21
-3303.718739455496
  0
LINE
  5
E9
100
AcDbEntity
  8
1
  6
CONTINUOUS
 62
           3
100
AcDbLine
 10
-20593.438929694021
 20
-3198.690049672426
 11
-20513.438929694021
 21
-3198.690049672426
  0
LINE
  5
E8
100
AcDbEntity
  8
1
  6
CONTINUOUS
 62
           3
100
AcDbLine
 10
-20593.438929694021
 20
-3238.690049672426
 11
-20513.438929694021
 21
-3238.690049672426
  0
LINE
  5
E7
100
AcDbEntity
  8
1
  6
CONTINUOUS
 62
           3
100
AcDbLine
 10
-20513.438929694021
 20
-3198.690049672426
 11
-20513.438929694021
 21
-3238.690049672426
  0
LINE
  5
E6
100
AcDbEntity
  8
1
  6
CONTINUOUS
 62
           3
100
AcDbLine
 10
-20593.438929694021
 20
-3198.690049672426
 11
-20593.438929694021
 21
-3238.690049672426
  0
LINE
  5
E5
100
AcDbEntity
  8
1
  6
CONTINUOUS
 62
           3
100
AcDbLine
 10
-20593.438929694021
 20
-2355.690049672426
 11
-20513.438929694021
 21
-2355.690049672426
  0
LINE
  5
E4
100
AcDbEntity
  8
1
  6
CONTINUOUS
 62
           3
100
AcDbLine
 10
-20593.438929694021
 20
-2395.690049672426
 11
-20513.438929694021
 21
-2395.690049672426
  0
LINE
  5
E3
100
AcDbEntity
  8
1
  6
CONTINUOUS
 62
           3
100
AcDbLine
 10
-20513.438929694021
 20
-2355.690049672426
 11
-20513.438929694021
 21
-2395.690049672426
  0
LINE
  5
E2
100
AcDbEntity
  8
1
  6
CONTINUOUS
 62
           3
100
AcDbLine
 10
-20593.438929694021
 20
-2355.690049672426
 11
-20593.438929694021
 21
-2395.690049672426
  0
LINE
  5
E1
100
AcDbEntity
  8
1
  6
CONTINUOUS
 62
           3
100
AcDbLine
 10
-20578.438929694021
 20
-3248.690049672426
 11
-20528.438929694021
 21
-3248.690049672426
  0
LINE
  5
E0
100
AcDbEntity
  8
1
  6
CONTINUOUS
 62
           3
100
AcDbLine
 10
-20528.438929694021
 20
-3238.690049672426
 11
-20528.438929694021
 21
-3248.690049672426
  0
LINE
  5
DF
100
AcDbEntity
  8
1
  6
CONTINUOUS
 62
           3
100
AcDbLine
 10
-20578.438929694021
 20
-3238.690049672426
 11
-20578.438929694021
 21
-3248.690049672426
  0
LINE
  5
DE
100
AcDbEntity
  8
1
  6
CONTINUOUS
 62
           3
100
AcDbLine
 10
-20577.68461365754
 20
-3278.190049672426
 11
-20532.35083935285
 21
-3278.190049672426
  0
LINE
  5
DD
100
AcDbEntity
  8
1
  6
CONTINUOUS
 62
           3
100
AcDbLine
 10
-20577.68461365754
 20
-3299.309392059936
 11
-20532.35083935285
 21
-3299.309392059936
  0
LINE
  5
DC
100
AcDbEntity
  8
1
  6
CONTINUOUS
 62
           3
100
AcDbLine
 10
-20532.35083935285
 20
-3278.190049672426
 11
-20532.35083935285
 21
-3299.969371509545
  0
LINE
  5
DB
100
AcDbEntity
  8
1
  6
CONTINUOUS
 62
           3
100
AcDbLine
 10
-20538.438929694021
 20
-1472.368714148187
 11
-20538.438929694021
 21
-3198.690049672427
  0
LINE
  5
DA
100
AcDbEntity
  8
1
  6
CONTINUOUS
 62
           3
100
AcDbLine
 10
-20538.438929694021
 20
-3248.690049672426
 11
-20538.438929694021
 21
-3278.190049672426
  0
LINE
  5
D9
100
AcDbEntity
  8
1
  6
CONTINUOUS
 62
           3
100
AcDbLine
 10
-20568.438929694021
 20
-3248.690049672426
 11
-20568.438929694021
 21
-3278.190049672426
  0
LINE
  5
D8
100
AcDbEntity
  8
1
  6
CONTINUOUS
 62
           3
100
AcDbLine
 10
-20568.438929694021
 20
-3198.690049672426
 11
-20568.438929694021
 21
-1472.368714148187
  0
LINE
  5
D7
100
AcDbEntity
  8
1
  6
CONTINUOUS
 62
           3
100
AcDbLine
 10
-20413.438929694021
 20
-2235.690049672426
 11
-20393.438929694021
 21
-2235.690049672426
  0
LINE
  5
D6
100
AcDbEntity
  8
1
  6
CONTINUOUS
 62
           3
100
AcDbLine
 10
-20393.438929694021
 20
-2235.690049672426
 11
-20393.438929694021
 21
-2295.690049672426
  0
LINE
  5
D5
100
AcDbEntity
  8
1
  6
CONTINUOUS
 62
           3
100
AcDbLine
 10
-20393.438929694021
 20
-2295.690049672426
 11
-20413.438929694021
 21
-2295.690049672426
  0
LINE
  5
D4
100
AcDbEntity
  8
1
  6
CONTINUOUS
 62
           3
100
AcDbLine
 10
-20413.438929694021
 20
-2295.690049672426
 11
-20413.438929694021
 21
-2235.690049672426
  0
LINE
  5
D3
100
AcDbEntity
  8
1
  6
CONTINUOUS
 62
           3
100
AcDbLine
 10
-20538.438929694021
 20
-2260.690049672426
 11
-20473.438929694021
 21
-2260.690049672426
  0
LINE
  5
D2
100
AcDbEntity
  8
1
  6
CONTINUOUS
 62
           3
100
AcDbLine
 10
-20538.438929694021
 20
-2290.690049672426
 11
-20473.438929694021
 21
-2290.690049672426
  0
LINE
  5
D1
100
AcDbEntity
  8
1
  6
CONTINUOUS
 62
           3
100
AcDbLine
 10
-20473.438929694021
 20
-2260.690049672426
 11
-20463.438929694021
 21
-2265.690049672426
  0
LINE
  5
D0
100
AcDbEntity
  8
1
  6
CONTINUOUS
 62
           3
100
AcDbLine
 10
-20473.438929694021
 20
-2290.690049672426
 11
-20463.438929694021
 21
-2285.690049672426
  0
LINE
  5
CF
100
AcDbEntity
  8
1
  6
CONTINUOUS
 62
           3
100
AcDbLine
 10
-20463.438929694021
 20
-2265.690049672426
 11
-20417.284571576471
 21
-2265.690049672426
  0
LINE
  5
CE
100
AcDbEntity
  8
1
  6
CONTINUOUS
 62
           3
100
AcDbLine
 10
-20463.438929694021
 20
-2285.690049672426
 11
-20415.665283244289
 21
-2285.690049672426
  0
LINE
  5
CD
100
AcDbEntity
  8
1
  6
CONTINUOUS
 62
           3
100
AcDbLine
 10
-20390.29643270672
 20
-2265.690049672426
 11
-20224.19163227241
 21
-2265.690049672426
  0
LINE
  5
CC
100
AcDbEntity
  8
1
  6
CONTINUOUS
 62
           3
100
AcDbLine
 10
-20390.29643270672
 20
-2285.690049672426
 11
-20224.19163227241
 21
-2285.690049672426
  0
LINE
  5
CB
100
AcDbEntity
  8
1
  6
CONTINUOUS
 62
           3
100
AcDbLine
 10
-20219.19163227241
 20
-2270.690049672426
 11
-20219.19163227241
 21
-2280.690049672426
  0
LINE
  5
CA
100
AcDbEntity
  8
1
  6
DOT_CENTER
 62
           3
100
AcDbLine
 10
-20553.438929694021
 20
-1185.872290612496
 11
-20553.438929694021
 21
-3378.690049672426
  0
LINE
  5
C9
100
AcDbEntity
  8
1
  6
CONTINUOUS
 62
           3
100
AcDbLine
 10
-20688.438929694021
 20
-1375.267190405667
 11
-20578.438929694021
 21
-1375.267190405667
  0
LINE
  5
C8
100
AcDbEntity
  8
1
  6
CONTINUOUS
 62
           3
100
AcDbLine
 10
-20688.438929694021
 20
-1407.267190405667
 11
-20578.438929694021
 21
-1407.267190405667
  0
LINE
  5
C7
100
AcDbEntity
  8
1
  6
CONTINUOUS
 62
           3
100
AcDbLine
 10
-20578.438929694021
 20
-1375.267190405667
 11
-20578.438929694021
 21
-1407.267190405667
  0
LINE
  5
C6
100
AcDbEntity
  8
1
  6
CONTINUOUS
 62
           3
100
AcDbLine
 10
-20688.438929694021
 20
-1375.267190405667
 11
-20688.438929694021
 21
-1407.267190405667
  0
LINE
  5
C5
100
AcDbEntity
  8
1
  6
CONTINUOUS
 62
           3
100
AcDbLine
 10
-20610.642113171001
 20
-1375.267190405667
 11
-20610.642113171001
 21
-1407.267190405667
  0
LINE
  5
C4
100
AcDbEntity
  8
1
  6
CONTINUOUS
 62
           3
100
AcDbLine
 10
-20593.438929694021
 20
-1432.368714148187
 11
-20513.438929694021
 21
-1432.368714148187
  0
LINE
  5
C3
100
AcDbEntity
  8
1
  6
CONTINUOUS
 62
           3
100
AcDbLine
 10
-20593.438929694021
 20
-1472.368714148187
 11
-20513.438929694021
 21
-1472.368714148187
  0
LINE
  5
C2
100
AcDbEntity
  8
1
  6
CONTINUOUS
 62
           3
100
AcDbLine
 10
-20513.438929694021
 20
-1432.368714148187
 11
-20513.438929694021
 21
-1472.368714148187
  0
LINE
  5
C1
100
AcDbEntity
  8
1
  6
CONTINUOUS
 62
           3
100
AcDbLine
 10
-20593.438929694021
 20
-1432.368714148187
 11
-20593.438929694021
 21
-1472.368714148187
  0
LINE
  5
C0
100
AcDbEntity
  8
1
  6
CONTINUOUS
 62
           3
100
AcDbLine
 10
-20578.438929694021
 20
-1422.368714148187
 11
-20528.438929694021
 21
-1422.368714148187
  0
LINE
  5
BF
100
AcDbEntity
  8
1
  6
CONTINUOUS
 62
           3
100
AcDbLine
 10
-20528.438929694021
 20
-1421.531212169106
 11
-20528.438929694021
 21
-1432.368714148187
  0
LINE
  5
BE
100
AcDbEntity
  8
1
  6
CONTINUOUS
 62
           3
100
AcDbLine
 10
-20578.438929694021
 20
-1422.368714148187
 11
-20578.438929694021
 21
-1432.368714148187
  0
LINE
  5
BD
100
AcDbEntity
  8
1
  6
CONTINUOUS
 62
           3
100
AcDbLine
 10
-20578.438929694021
 20
-1380.299455451107
 11
-20533.679590941421
 21
-1380.299455451107
  0
LINE
  5
BC
100
AcDbEntity
  8
1
  6
CONTINUOUS
 62
           3
100
AcDbLine
 10
-20578.438929694021
 20
-1403.190049672427
 11
-20533.880385627581
 21
-1403.190049672427
  0
LINE
  5
BB
100
AcDbEntity
  8
1
  6
CONTINUOUS
 62
           3
100
AcDbLine
 10
-20533.679590941421
 20
-1380.299455451107
 11
-20533.679590941421
 21
-1403.390844358587
  0
LINE
  5
BA
100
AcDbEntity
  8
1
  6
CONTINUOUS
 62
           3
100
AcDbLine
 10
-20538.438929694021
 20
-1403.190049672427
 11
-20538.438929694021
 21
-1422.368714148187
  0
LINE
  5
B9
100
AcDbEntity
  8
1
  6
CONTINUOUS
 62
           3
100
AcDbLine
 10
-20568.438929694021
 20
-1422.368714148187
 11
-20568.438929694021
 21
-1403.190049672427
  0
LINE
  5
B8
100
AcDbEntity
  8
1
  6
CONTINUOUS
 62
           2
100
AcDbLine
 10
-20612.438929694021
 20
-3270.690049672426
 11
-20612.438929694021
 21
-1415.690049672427
  0
LINE
  5
B7
100
AcDbEntity
  8
1
  6
CONTINUOUS
 62
           2
100
AcDbLine
 10
-19762.438929694032
 20
-1277.690049672426
 11
-19762.438929694032
 21
-3357.690049672426
  0
LINE
  5
B6
100
AcDbEntity
  8
1
  6
CONTINUOUS
 62
           2
100
AcDbLine
 10
-21462.438929694021
 20
-1277.690049672426
 11
-19762.438929694032
 21
-1277.690049672426
  0
LINE
  5
B5
100
AcDbEntity
  8
1
  6
CONTINUOUS
 62
           2
100
AcDbLine
 10
-20533.86829382577
 20
-1415.690049672427
 11
-19847.438929694032
 21
-1415.690049672427
  0
LINE
  5
B4
100
AcDbEntity
  8
1
  6
CONTINUOUS
 62
           2
100
AcDbLine
 10
-19847.438929694032
 20
-1415.690049672427
 11
-19847.438929694032
 21
-3357.690049672426
  0
LINE
  5
B3
100
AcDbEntity
  8
1
  6
CONTINUOUS
 62
           3
100
AcDbLine
 10
-19989.438929694032
 20
-3055.690049672426
 11
-19831.438929694032
 21
-3055.690049672426
  0
LINE
  5
B2
100
AcDbEntity
  8
1
  6
CONTINUOUS
 62
           3
100
AcDbLine
 10
-19847.438929694032
 20
-3205.690049672426
 11
-19775.438929694032
 21
-3205.690049672426
  0
LINE
  5
B1
100
AcDbEntity
  8
1
  6
CONTINUOUS
 62
           3
100
AcDbLine
 10
-19989.438929694032
 20
-3130.690049672426
 11
-19775.438929694032
 21
-3130.690049672426
  0
LINE
  5
B0
100
AcDbEntity
  8
1
  6
CONTINUOUS
 62
           3
100
AcDbLine
 10
-19775.438929694032
 20
-3130.690049672426
 11
-19775.438929694032
 21
-3205.690049672426
  0
LINE
  5
AF
100
AcDbEntity
  8
1
  6
CONTINUOUS
 62
           3
100
AcDbLine
 10
-19831.438929694032
 20
-3055.690049672426
 11
-19831.438929694032
 21
-3205.690049672426
  0
LINE
  5
AE
100
AcDbEntity
  8
1
  6
CONTINUOUS
 62
           3
100
AcDbLine
 10
-19989.438929694032
 20
-3055.690049672426
 11
-19989.438929694032
 21
-3130.690049672426
  0
LINE
  5
AD
100
AcDbEntity
  8
1
  6
CONTINUOUS
 62
           3
100
AcDbLine
 10
-19989.438929694032
 20
-2305.690049672427
 11
-19831.438929694032
 21
-2305.690049672427
  0
LINE
  5
AC
100
AcDbEntity
  8
1
  6
CONTINUOUS
 62
           3
100
AcDbLine
 10
-19847.438929694032
 20
-2455.690049672427
 11
-19775.438929694032
 21
-2455.690049672427
  0
LINE
  5
AB
100
AcDbEntity
  8
1
  6
CONTINUOUS
 62
           3
100
AcDbLine
 10
-19989.438929694032
 20
-2380.690049672427
 11
-19775.438929694032
 21
-2380.690049672427
  0
LINE
  5
AA
100
AcDbEntity
  8
1
  6
CONTINUOUS
 62
           3
100
AcDbLine
 10
-19775.438929694032
 20
-2380.690049672427
 11
-19775.438929694032
 21
-2455.690049672427
  0
LINE
  5
A9
100
AcDbEntity
  8
1
  6
CONTINUOUS
 62
           3
100
AcDbLine
 10
-19831.438929694032
 20
-2305.690049672427
 11
-19831.438929694032
 21
-2455.690049672427
  0
LINE
  5
A8
100
AcDbEntity
  8
1
  6
CONTINUOUS
 62
           3
100
AcDbLine
 10
-19989.438929694032
 20
-2305.690049672427
 11
-19989.438929694032
 21
-2380.690049672427
  0
LINE
  5
A7
100
AcDbEntity
  8
1
  6
CONTINUOUS
 62
           2
100
AcDbLine
 10
-19786.438929694032
 20
-2752.690049672426
 11
-19187.438929694021
 21
-2752.690049672426
  0
LINE
  5
A6
100
AcDbEntity
  8
1
  6
CONTINUOUS
 62
           2
100
AcDbLine
 10
-19187.438929694032
 20
-2477.690049672426
 11
-19187.438929694032
 21
-3357.690049672426
  0
LINE
  5
A5
100
AcDbEntity
  8
1
  6
CONTINUOUS
 62
           2
100
AcDbLine
 10
-19647.438929694032
 20
-2518.116510348165
 11
-19647.438929694032
 21
-2752.690049672426
  0
LINE
  5
A4
100
AcDbEntity
  8
1
  6
CONTINUOUS
 62
           2
100
AcDbLine
 10
-19687.438929694032
 20
-2477.690049672426
 11
-19687.438929694032
 21
-2752.690049672426
  0
LINE
  5
A3
100
AcDbEntity
  8
1
  6
CONTINUOUS
 62
           2
100
AcDbLine
 10
-19227.438929694032
 20
-2518.690049672426
 11
-19227.438929694032
 21
-2752.690049672426
  0
LINE
  5
A2
100
AcDbEntity
  8
1
  6
CONTINUOUS
 62
           2
100
AcDbLine
 10
-19647.438929694032
 20
-2526.690049672426
 11
-19487.438929694021
 21
-2526.690049672426
  0
LINE
  5
A1
100
AcDbEntity
  8
1
  6
CONTINUOUS
 62
           2
100
AcDbLine
 10
-19487.438929694021
 20
-2526.690049672426
 11
-19487.438929694021
 21
-2726.690049672426
  0
LINE
  5
A0
100
AcDbEntity
  8
1
  6
CONTINUOUS
 62
           2
100
AcDbLine
 10
-19687.438929694032
 20
-2726.690049672426
 11
-19737.438929694032
 21
-2726.690049672426
  0
LINE
  5
9F
100
AcDbEntity
  8
1
  6
CONTINUOUS
 62
           2
100
AcDbLine
 10
-19737.438929694032
 20
-2726.690049672426
 11
-19737.438929694032
 21
-2526.690049672426
  0
LINE
  5
9E
100
AcDbEntity
  8
1
  6
DOT_CENTER
 62
           3
100
AcDbLine
 10
-19612.438929694032
 20
-2507.450078077217
 11
-19612.438929694032
 21
-2745.355475510117
  0
LINE
  5
9D
100
AcDbEntity
  8
1
  6
DOT_CENTER
 62
           3
100
AcDbLine
 10
-19753.446638873411
 20
-2626.690049672426
 11
-19460.93718967741
 21
-2626.690049672426
  0
LINE
  5
9C
100
AcDbEntity
  8
1
  6
CONTINUOUS
 62
           3
100
AcDbLine
 10
-19847.438929694032
 20
-3270.690049672426
 11
-20536.942233995669
 21
-3270.690049672426
  0
LINE
  5
9B
100
AcDbEntity
  8
1
  6
CONTINUOUS
 62
           3
100
AcDbLine
 10
-21393.438929694032
 20
-2305.690049672427
 11
-21235.438929694032
 21
-2305.690049672427
  0
LINE
  5
9A
100
AcDbEntity
  8
1
  6
CONTINUOUS
 62
           3
100
AcDbLine
 10
-21449.438929694032
 20
-2455.690049672427
 11
-21377.438929694032
 21
-2455.690049672427
  0
LINE
  5
99
100
AcDbEntity
  8
1
  6
CONTINUOUS
 62
           3
100
AcDbLine
 10
-21449.438929694032
 20
-2380.690049672427
 11
-21235.438929694032
 21
-2380.690049672427
  0
LINE
  5
98
100
AcDbEntity
  8
1
  6
CONTINUOUS
 62
           3
100
AcDbLine
 10
-21449.438929694032
 20
-2455.690049672427
 11
-21449.438929694032
 21
-2380.690049672427
  0
LINE
  5
97
100
AcDbEntity
  8
1
  6
CONTINUOUS
 62
           3
100
AcDbLine
 10
-21393.438929694032
 20
-2455.690049672427
 11
-21393.438929694032
 21
-2305.690049672427
  0
LINE
  5
96
100
AcDbEntity
  8
1
  6
CONTINUOUS
 62
           3
100
AcDbLine
 10
-21235.438929694032
 20
-2380.690049672427
 11
-21235.438929694032
 21
-2305.690049672427
  0
LINE
  5
95
100
AcDbEntity
  8
1
  6
CONTINUOUS
 62
           3
100
AcDbLine
 10
-21393.438929694032
 20
-3055.690049672426
 11
-21235.438929694032
 21
-3055.690049672426
  0
LINE
  5
94
100
AcDbEntity
  8
1
  6
CONTINUOUS
 62
           3
100
AcDbLine
 10
-21449.438929694032
 20
-3205.690049672426
 11
-21377.438929694032
 21
-3205.690049672426
  0
LINE
  5
93
100
AcDbEntity
  8
1
  6
CONTINUOUS
 62
           3
100
AcDbLine
 10
-21449.438929694032
 20
-3130.690049672426
 11
-21235.438929694032
 21
-3130.690049672426
  0
LINE
  5
92
100
AcDbEntity
  8
1
  6
CONTINUOUS
 62
           3
100
AcDbLine
 10
-21449.438929694032
 20
-3205.690049672426
 11
-21449.438929694032
 21
-3130.690049672426
  0
LINE
  5
91
100
AcDbEntity
  8
1
  6
CONTINUOUS
 62
           3
100
AcDbLine
 10
-21393.438929694032
 20
-3205.690049672426
 11
-21393.438929694032
 21
-3055.690049672426
  0
LINE
  5
90
100
AcDbEntity
  8
1
  6
CONTINUOUS
 62
           3
100
AcDbLine
 10
-21235.438929694032
 20
-3130.690049672426
 11
-21235.438929694032
 21
-3055.690049672426
  0
LINE
  5
8F
100
AcDbEntity
  8
1
  6
CONTINUOUS
 62
           2
100
AcDbLine
 10
-19687.438929694032
 20
-2518.690049672426
 11
-19187.438929694032
 21
-2518.690049672426
  0
LINE
  5
8E
100
AcDbEntity
  8
1
  6
CONTINUOUS
 62
           3
100
AcDbLine
 10
-19862.438929694032
 20
-1415.690049672427
 11
-19862.438929694032
 21
-1277.690049672426
  0
LINE
  5
8D
100
AcDbEntity
  8
1
  6
PHANTOM
 62
           3
100
AcDbLine
 10
-19830.438929694032
 20
397.765671561944
 11
-19446.938929694032
 21
-266.47581314072
  0
LINE
  5
8C
100
AcDbEntity
  8
1
  6
PHANTOM
 62
           3
100
AcDbLine
 10
-21777.938929694032
 20
-266.47581314072
 11
-21394.438929694032
 21
397.765671561944
  0
LINE
  5
8B
100
AcDbEntity
  8
1
  6
DOT_CENTER
 62
           3
100
AcDbLine
 10
-20612.438929694032
 20
2155.421167438949
 11
-20612.438929694032
 21
365.09198448099
  0
LINE
  5
8A
100
AcDbEntity
  8
1
  6
CONTINUOUS
 62
           3
100
AcDbLine
 10
-19787.438929694032
 20
1364.425925599789
 11
-19752.438929694032
 21
1054.425848729639
  0
LINE
  5
89
100
AcDbEntity
  8
1
  6
CONTINUOUS
 62
           3
100
AcDbLine
 10
-19752.438929694032
 20
1364.472095330878
 11
-19787.438929694032
 21
1054.425848729639
  0
LINE
  5
88
100
AcDbEntity
  8
1
  6
CONTINUOUS
 62
           2
100
AcDbLine
 10
-19752.438929694032
 20
1364.472095330878
 11
-19752.438929694032
 21
1054.425848729639
  0
LINE
  5
87
100
AcDbEntity
  8
1
  6
CONTINUOUS
 62
           2
100
AcDbLine
 10
-19752.438929694032
 20
1364.425925599789
 11
-19787.438929694032
 21
1364.425925599789
  0
LINE
  5
86
100
AcDbEntity
  8
1
  6
CONTINUOUS
 62
           2
100
AcDbLine
 10
-19752.438929694032
 20
1054.425848729639
 11
-19787.438929694032
 21
1054.425848729639
  0
LINE
  5
85
100
AcDbEntity
  8
1
  6
DOT_CENTER
 62
           3
100
AcDbLine
 10
-19723.918744038809
 20
1209.425925599789
 11
-19806.941394585308
 21
1209.425925599789
  0
LINE
  5
84
100
AcDbEntity
  8
1
  6
CONTINUOUS
 62
           2
100
AcDbLine
 10
-19338.53892969403
 20
-1548.690049672426
 11
-19522.438929694032
 21
-1548.690049672426
  0
LINE
  5
83
100
AcDbEntity
  8
1
  6
CONTINUOUS
 62
           2
100
AcDbLine
 10
-19485.438929694032
 20
-1694.690049672426
 11
-19522.438929694032
 21
-1694.690049672426
  0
LINE
  5
82
100
AcDbEntity
  8
1
  6
CONTINUOUS
 62
           3
100
AcDbLine
 10
-19324.438929694032
 20
-1701.690049672426
 11
-19522.438929694032
 21
-1701.690049672426
  0
LINE
  5
81
100
AcDbEntity
  8
1
  6
CONTINUOUS
 62
           2
100
AcDbLine
 10
-19737.438929694032
 20
-2526.690049672426
 11
-19687.438929694032
 21
-2526.690049672426
  0
LINE
  5
80
100
AcDbEntity
  8
1
  6
CONTINUOUS
 62
           2
100
AcDbLine
 10
-19487.438929694021
 20
-2726.690049672426
 11
-19647.438929694032
 21
-2726.690049672426
  0
LINE
  5
7F
100
AcDbEntity
  8
1
  6
CONTINUOUS
 62
           3
100
AcDbLine
 10
-19961.438929694021
 20
-1277.690049672426
 11
-19961.438929694021
 21
-1267.690049672426
  0
LINE
  5
7E
100
AcDbEntity
  8
1
  6
CONTINUOUS
 62
           2
100
AcDbLine
 10
-17916.408393838909
 20
-3237.690049672427
 11
-16414.40839383889
 21
-3237.690049672427
  0
LINE
  5
7D
100
AcDbEntity
  8
1
  6
CONTINUOUS
 62
           2
100
AcDbLine
 10
-16914.40839383889
 20
-2287.690049672427
 11
-16914.40839383889
 21
-3237.690049672427
  0
LINE
  5
7C
100
AcDbEntity
  8
1
  6
CONTINUOUS
 62
           2
100
AcDbLine
 10
-16414.40839383889
 20
-2287.690049672427
 11
-16414.40839383889
 21
-3357.690049672427
  0
LINE
  5
7B
100
AcDbEntity
  8
1
  6
CONTINUOUS
 62
           2
100
AcDbLine
 10
-16523.40839383889
 20
-1353.690049672427
 11
-16414.40839383889
 21
-1353.690049672427
  0
LINE
  5
7A
100
AcDbEntity
  8
1
  6
CONTINUOUS
 62
           2
100
AcDbLine
 10
-17916.40839383889
 20
-2751.690049672427
 11
-17414.40839383889
 21
-2751.690049672427
  0
LINE
  5
79
100
AcDbEntity
  8
1
  6
CONTINUOUS
 62
           2
100
AcDbLine
 10
-17239.785268070071
 20
-1667.690049672427
 11
-17368.785268070071
 21
-1667.690049672427
  0
LINE
  5
78
100
AcDbEntity
  8
1
  6
CONTINUOUS
 62
           2
100
AcDbLine
 10
-17239.785268070071
 20
-1647.690049672427
 11
-17348.785268070071
 21
-1647.690049672427
  0
LINE
  5
77
100
AcDbEntity
  8
1
  6
CONTINUOUS
 62
           2
100
AcDbLine
 10
-18027.40839383889
 20
-3270.690049672427
 11
-17991.40839383889
 21
-3270.690049672427
  0
LINE
  5
76
100
AcDbEntity
  8
1
  6
CONTINUOUS
 62
           2
100
AcDbLine
 10
-18027.40839383889
 20
-1413.377084881778
 11
-17991.40839383889
 21
-1413.377084881778
  0
LINE
  5
75
100
AcDbEntity
  8
1
  6
CONTINUOUS
 62
           2
100
AcDbLine
 10
-18027.40839383889
 20
-1413.377084881778
 11
-18027.40839383889
 21
-3270.690049672427
  0
LINE
  5
74
100
AcDbEntity
  8
1
  6
CONTINUOUS
 62
           2
100
AcDbLine
 10
-16339.40839383889
 20
-1277.690049672438
 11
-16523.40839383889
 21
-1277.690049672438
  0
LINE
  5
73
100
AcDbEntity
  8
1
  6
CONTINUOUS
 62
           2
100
AcDbLine
 10
-17874.40839383889
 20
-2518.690049672427
 11
-17658.40839383889
 21
-2518.690049672427
  0
LINE
  5
72
100
AcDbEntity
  8
1
  6
CONTINUOUS
 62
           2
100
AcDbLine
 10
-17874.40839383889
 20
-2711.690049672427
 11
-17874.40839383889
 21
-2518.690049672427
  0
LINE
  5
71
100
AcDbEntity
  8
1
  6
CONTINUOUS
 62
           2
100
AcDbLine
 10
-17916.40839383889
 20
-2477.918137508416
 11
-17916.40839383889
 21
-2751.690049672427
  0
LINE
  5
70
100
AcDbEntity
  8
1
  6
CONTINUOUS
 62
           2
100
AcDbLine
 10
-17991.40839383889
 20
-3357.690049672427
 11
-16339.40839383889
 21
-3357.690049672427
  0
LINE
  5
6F
100
AcDbEntity
  8
1
  6
CONTINUOUS
 62
           2
100
AcDbLine
 10
-17616.40839383889
 20
-2477.690049672427
 11
-17616.40839383889
 21
-2751.690049672427
  0
LINE
  5
6E
100
AcDbEntity
  8
1
  6
CONTINUOUS
 62
           2
100
AcDbLine
 10
-16339.40839383889
 20
-1277.690049672427
 11
-16339.40839383889
 21
-3357.690049672427
  0
LINE
  5
6D
100
AcDbEntity
  8
1
  6
CONTINUOUS
 62
           2
100
AcDbLine
 10
-17414.40839383889
 20
-2287.690049672427
 11
-16414.40839383889
 21
-2287.690049672427
  0
LINE
  5
6C
100
AcDbEntity
  8
1
  6
CONTINUOUS
 62
           2
100
AcDbLine
 10
-17414.40839383889
 20
-2287.690049672427
 11
-17414.40839383889
 21
-3237.690049672427
  0
LINE
  5
6B
100
AcDbEntity
  8
1
  6
CONTINUOUS
 62
           2
100
AcDbLine
 10
-17576.40839383889
 20
-2521.690049672427
 11
-17414.40839383889
 21
-2521.690049672427
  0
LINE
  5
6A
100
AcDbEntity
  8
1
  6
CONTINUOUS
 62
           2
100
AcDbLine
 10
-17576.40839383889
 20
-2721.690049672427
 11
-17414.40839383889
 21
-2721.690049672427
  0
LINE
  5
69
100
AcDbEntity
  8
1
  6
CONTINUOUS
 62
           2
100
AcDbLine
 10
-17426.40839383889
 20
-2521.690049672427
 11
-17426.40839383889
 21
-2721.690049672427
  0
LINE
  5
68
100
AcDbEntity
  8
1
  6
DOT_CENTER
 62
           3
100
AcDbLine
 10
-17312.405516076979
 20
-2621.690049672427
 11
-17600.401821781299
 21
-2621.690049672427
  0
LINE
  5
67
100
AcDbEntity
  8
1
  6
CONTINUOUS
 62
           2
100
AcDbLine
 10
-17796.40839383889
 20
-1027.690049672427
 11
-17536.40839383889
 21
-1027.690049672427
  0
LINE
  5
66
100
AcDbEntity
  8
1
  6
CONTINUOUS
 62
           2
100
AcDbLine
 10
-17766.40839383889
 20
-997.690049672427
 11
-17566.40839383889
 21
-997.690049672427
  0
LINE
  5
65
100
AcDbEntity
  8
1
  6
CONTINUOUS
 62
           2
100
AcDbLine
 10
-17766.40839383889
 20
-1057.690049672427
 11
-17566.40839383889
 21
-1057.690049672427
  0
LINE
  5
64
100
AcDbEntity
  8
1
  6
CONTINUOUS
 62
           2
100
AcDbLine
 10
-17766.40839383889
 20
-1247.389936832676
 11
-17566.40839383889
 21
-1247.389936832676
  0
LINE
  5
63
100
AcDbEntity
  8
1
  6
CONTINUOUS
 62
           2
100
AcDbLine
 10
-17566.40839383889
 20
-997.690049672427
 11
-17566.40839383889
 21
-1277.990162512176
  0
LINE
  5
62
100
AcDbEntity
  8
1
  6
CONTINUOUS
 62
           2
100
AcDbLine
 10
-17766.40839383889
 20
-997.690049672427
 11
-17766.40839383889
 21
-1277.690049672427
  0
LINE
  5
61
100
AcDbEntity
  8
1
  6
CONTINUOUS
 62
           2
100
AcDbLine
 10
-17658.40839383889
 20
-2518.690049672427
 11
-17658.40839383889
 21
-2711.690049672427
  0
LINE
  5
60
100
AcDbEntity
  8
1
  6
CONTINUOUS
 62
           2
100
AcDbLine
 10
-17874.40839383889
 20
-2711.690049672427
 11
-17658.40839383889
 21
-2711.690049672427
  0
LINE
  5
5F
100
AcDbEntity
  8
1
  6
CONTINUOUS
 62
           2
100
AcDbLine
 10
-17576.40839383889
 20
-2521.690049672427
 11
-17576.40839383889
 21
-2721.690049672427
  0
LINE
  5
5E
100
AcDbEntity
  8
1
  6
DOT_CENTER
 62
           2
100
AcDbLine
 10
-17666.40839383889
 20
-975.358903866226
 11
-17666.40839383889
 21
-1312.794176090339
  0
LINE
  5
5D
100
AcDbEntity
  8
1
  6
CONTINUOUS
 62
           2
100
AcDbLine
 10
-17616.40839383889
 20
-1757.690049672427
 11
-17916.40839383889
 21
-1757.690049672427
  0
LINE
  5
5C
100
AcDbEntity
  8
1
  6
CONTINUOUS
 62
           2
100
AcDbLine
 10
-17916.40839383889
 20
-1757.690049672427
 11
-17916.40839383889
 21
-2477.690049672427
  0
LINE
  5
5B
100
AcDbEntity
  8
1
  6
CONTINUOUS
 62
           2
100
AcDbLine
 10
-17916.40839383889
 20
-2477.690049672427
 11
-17616.40839383889
 21
-2477.690049672427
  0
LINE
  5
5A
100
AcDbEntity
  8
1
  6
CONTINUOUS
 62
           2
100
AcDbLine
 10
-17616.40839383889
 20
-2477.690049672427
 11
-17616.40839383889
 21
-1757.690049672427
  0
LINE
  5
59
100
AcDbEntity
  8
1
  6
CONTINUOUS
 62
           2
100
AcDbLine
 10
-17886.40839383889
 20
-1757.690049672427
 11
-17886.40839383889
 21
-2477.690049672427
  0
LINE
  5
58
100
AcDbEntity
  8
1
  6
CONTINUOUS
 62
           2
100
AcDbLine
 10
-17916.408393838909
 20
-3257.690049672427
 11
-16414.40839383889
 21
-3257.690049672427
  0
LINE
  5
57
100
AcDbEntity
  8
1
  6
CONTINUOUS
 62
           2
100
AcDbLine
 10
-17991.40839383889
 20
-1277.690049672427
 11
-17991.40839383889
 21
-3357.690049672427
  0
LINE
  5
56
100
AcDbEntity
  8
1
  6
DOT_CENTER
 62
           3
100
AcDbLine
 10
-16793.40839383889
 20
-1192.690049672427
 11
-16793.40839383889
 21
-1277.690049672427
  0
LINE
  5
55
100
AcDbEntity
  8
1
  6
DOT_CENTER
 62
           3
100
AcDbLine
 10
-16828.40839383889
 20
-1227.690049672427
 11
-16758.40839383889
 21
-1227.690049672427
  0
LINE
  5
54
100
AcDbEntity
  8
1
  6
CONTINUOUS
 62
           2
100
AcDbLine
 10
-17414.40839383889
 20
-2287.690049672427
 11
-17414.40839383889
 21
-1353.690049672427
  0
LINE
  5
53
100
AcDbEntity
  8
1
  6
CONTINUOUS
 62
           2
100
AcDbLine
 10
-17916.40839383889
 20
-1277.690049672427
 11
-17916.40839383889
 21
-1724.969417677457
  0
LINE
  5
52
100
AcDbEntity
  8
1
  6
CONTINUOUS
 62
           2
100
AcDbLine
 10
-17078.785268070071
 20
-1357.690049672427
 11
-17078.785268070071
 21
-1459.365725348102
  0
LINE
  5
51
100
AcDbEntity
  8
1
  6
CONTINUOUS
 62
           2
100
AcDbLine
 10
-17058.785268070071
 20
-1357.690049672427
 11
-17058.785268070071
 21
-1456.392752375131
  0
LINE
  5
50
100
AcDbEntity
  8
1
  6
DOT_CENTER
 62
           3
100
AcDbLine
 10
-17172.966118848581
 20
-1512.690049672427
 11
-17398.083551657121
 21
-1512.690049672427
  0
LINE
  5
4F
100
AcDbEntity
  8
1
  6
DOT_CENTER
 62
           3
100
AcDbLine
 10
-17214.40839383889
 20
-1561.842203550457
 11
-17214.40839383889
 21
-1324.616117185943
  0
LINE
  5
4E
100
AcDbEntity
  8
1
  6
CONTINUOUS
 62
           2
100
AcDbLine
 10
-17348.785268070071
 20
-1357.690049672427
 11
-17348.785268070071
 21
-1647.690049672427
  0
LINE
  5
4D
100
AcDbEntity
  8
1
  6
CONTINUOUS
 62
           2
100
AcDbLine
 10
-17368.785268070071
 20
-1357.690049672427
 11
-17368.785268070071
 21
-1667.690049672427
  0
LINE
  5
4C
100
AcDbEntity
  8
1
  6
CONTINUOUS
 62
           2
100
AcDbLine
 10
-17058.785268070071
 20
-1357.690049672427
 11
-17368.785268070071
 21
-1357.690049672427
  0
LINE
  5
4B
100
AcDbEntity
  8
1
  6
CONTINUOUS
 62
           2
100
AcDbLine
 10
-17916.40839383889
 20
-1353.690049672427
 11
-17013.83400179731
 21
-1353.690049672427
  0
LINE
  5
4A
100
AcDbEntity
  8
1
  6
CONTINUOUS
 62
           2
100
AcDbLine
 10
-17013.83400179731
 20
-1277.690049672438
 11
-17991.40839383889
 21
-1277.690049672438
  0
LINE
  5
49
100
AcDbEntity
  8
1
  6
CONTINUOUS
 62
           2
100
AcDbLine
 10
-16414.40839383889
 20
-2287.690049672427
 11
-16414.40839383889
 21
-1277.690049672438
  0
LINE
  5
48
100
AcDbEntity
  8
1
  6
CONTINUOUS
 62
           2
100
AcDbLine
 10
-17916.40839383889
 20
-2751.690049672427
 11
-17916.40839383889
 21
-3357.690049672427
  0
LINE
  5
47
100
AcDbEntity
  8
1
  6
CONTINUOUS
 62
           2
100
AcDbLine
 10
-17333.40839383889
 20
-1784.690049672427
 11
-17333.40839383889
 21
-2287.690049672427
  0
LINE
  5
46
100
AcDbEntity
  8
1
  6
CONTINUOUS
 62
           2
100
AcDbLine
 10
-16516.40839383889
 20
-1784.690049672427
 11
-16516.40839383889
 21
-2287.690049672427
  0
LINE
  5
45
100
AcDbEntity
  8
1
  6
CONTINUOUS
 62
           2
100
AcDbLine
 10
-19760.0834429836
 20
507.425925599785
 11
-19187.438929694032
 21
507.425925599789
  0
LINE
  5
44
100
AcDbEntity
  8
1
  6
CONTINUOUS
 62
           3
100
AcDbLine
 10
-21377.438929694021
 20
-3205.690049672426
 11
-21377.438929694021
 21
-3055.690049672426
  0
LINE
  5
43
100
AcDbEntity
  8
1
  6
CONTINUOUS
 62
           3
100
AcDbLine
 10
-21377.438929694021
 20
-2455.690049672427
 11
-21377.438929694021
 21
-2305.690049672427
  0
LINE
  5
42
100
AcDbEntity
  8
1
  6
CONTINUOUS
 62
           3
100
AcDbLine
 10
-19847.438929694039
 20
-3055.690049672426
 11
-19847.438929694039
 21
-3205.690049672426
  0
LINE
  5
41
100
AcDbEntity
  8
1
  6
CONTINUOUS
 62
           3
100
AcDbLine
 10
-19847.438929694039
 20
-2305.690049672427
 11
-19847.438929694039
 21
-2455.690049672427
  0
LINE
  5
40
100
AcDbEntity
  8
1
  6
CONTINUOUS
 62
           3
100
AcDbLine
 10
-19847.438929694039
 20
-1555.690049672427
 11
-19847.438929694039
 21
-1705.690049672427
  0
LINE
  5
3F
100
AcDbEntity
  8
1
  6
CONTINUOUS
 62
           3
100
AcDbLine
 10
-21377.438929694021
 20
-1705.690049672427
 11
-21377.438929694021
 21
-1555.690049672427
  0
LINE
  5
3E
100
AcDbEntity
  8
1
  6
CONTINUOUS
 62
           2
100
AcDbLine
 10
-19338.53892969403
 20
-1678.690049672426
 11
-19335.138929694029
 21
-1678.690049672426
  0
LINE
  5
3D
100
AcDbEntity
  8
1
  6
CONTINUOUS
 62
           2
100
AcDbLine
 10
-19737.438929694032
 20
1001.425925599789
 11
-19487.438929694021
 21
1001.425925599789
  0
LINE
  5
3C
100
AcDbEntity
  8
1
  6
CONTINUOUS
 62
           2
100
AcDbLine
 10
-19487.438929694021
 20
1008.265834752709
 11
-19487.438929694021
 21
851.425925599789
  0
INSERT
  5
33
100
AcDbEntity
  8
0
100
AcDbBlockReference
  2
1__2
 10
0.0
 20
0.0
  0
INSERT
  5
34
100
AcDbEntity
  8
0
100
AcDbBlockReference
  2
CUE_232B_600K
 10
0.0
 20
0.0
  0
INSERT
  5
35
100
AcDbEntity
  8
0
100
AcDbBlockReference
  2
1__4
 10
0.0
 20
0.0
  0
ENDSEC
  0
SECTION
  2
OBJECTS
  0
DICTIONARY
  5
19
100
AcDbDictionary
  3
ACAD_GROUP
350
1A
  3
ACAD_MLINESTYLE
350
1B
  0
DICTIONARY
  5
1A
102
{ACAD_REACTORS
330
19
102
}
100
AcDbDictionary
  0
DICTIONARY
  5
1B
102
{ACAD_REACTORS
330
19
102
}
100
AcDbDictionary
  3
STANDARD
350
1C
  0
MLINESTYLE
  5
1C
102
{ACAD_REACTORS
330
1B
102
}
100
AcDbMlineStyle
  2
STANDARD
 70
           0
  3

 62
           0
 51
90.0
 52
90.0
 71
           2
 49
0.5
 62
         256
  6
BYLAYER
 49
-0.5
 62
         256
  6
BYLAYER
  0
ENDSEC
  0
EOF
