  0
SECTION
  2
HEADER
  9
$ACADVER
  1
AC1014
  9
$ACADMAINTVER
 70
           0
  9
$DWGCODEPAGE
  3
DOS932
  9
$INSBASE
 10
0.0
 20
0.0
 30
0.0
  9
$EXTMIN
 10
1.000000000000E+20
 20
1.000000000000E+20
 30
1.000000000000E+20
  9
$EXTMAX
 10
-1.000000000000E+20
 20
-1.000000000000E+20
 30
-1.000000000000E+20
  9
$LIMMIN
 10
0.0
 20
0.0
  9
$LIMMAX
 10
0.0
 20
0.0
  9
$ORTHOMODE
 70
           0
  9
$REGENMODE
 70
           1
  9
$FILLMODE
 70
           1
  9
$QTEXTMODE
 70
           0
  9
$MIRRTEXT
 70
           1
  9
$DRAGMODE
 70
           2
  9
$LTSCALE
 40
1.0
  9
$OSMODE
 70
           0
  9
$ATTMODE
 70
           1
  9
$TEXTSIZE
 40
0.2
  9
$TRACEWID
 40
0.05
  9
$TEXTSTYLE
  7
STANDARD
  9
$CLAYER
  8
0
  9
$CELTYPE
  6
CONTINUOUS
  9
$CECOLOR
 62
         256
  9
$CELTSCALE
 40
1.0
  9
$DELOBJ
 70
           1
  9
$DISPSILH
 70
           0
  9
$DIMSCALE
 40
1.0
  9
$DIMASZ
 40
0.18
  9
$DIMEXO
 40
0.0625
  9
$DIMDLI
 40
0.38
  9
$DIMRND
 40
0.0
  9
$DIMDLE
 40
0.0
  9
$DIMEXE
 40
0.18
  9
$DIMTP
 40
0.0
  9
$DIMTM
 40
0.0
  9
$DIMTXT
 40
0.18
  9
$DIMCEN
 40
0.09
  9
$DIMTSZ
 40
0.0
  9
$DIMTOL
 70
           0
  9
$DIMLIM
 70
           0
  9
$DIMTIH
 70
           1
  9
$DIMTOH
 70
           1
  9
$DIMSE1
 70
           0
  9
$DIMSE2
 70
           0
  9
$DIMTAD
 70
           0
  9
$DIMZIN
 70
           0
  9
$DIMBLK
  1

  9
$DIMASO
 70
           1
  9
$DIMSHO
 70
           1
  9
$DIMPOST
  1

  9
$DIMAPOST
  1

  9
$DIMALT
 70
           0
  9
$DIMALTD
 70
           2
  9
$DIMALTF
 40
25.4
  9
$DIMLFAC
 40
1.0
  9
$DIMTOFL
 70
           0
  9
$DIMTVP
 40
0.0
  9
$DIMTIX
 70
           0
  9
$DIMSOXD
 70
           0
  9
$DIMSAH
 70
           0
  9
$DIMBLK1
  1

  9
$DIMBLK2
  1

  9
$DIMSTYLE
  2
STANDARD
  9
$DIMCLRD
 70
           0
  9
$DIMCLRE
 70
           0
  9
$DIMCLRT
 70
           0
  9
$DIMTFAC
 40
1.0
  9
$DIMGAP
 40
0.09
  9
$DIMJUST
 70
           0
  9
$DIMSD1
 70
           0
  9
$DIMSD2
 70
           0
  9
$DIMTOLJ
 70
           1
  9
$DIMTZIN
 70
           0
  9
$DIMALTZ
 70
           0
  9
$DIMALTTZ
 70
           0
  9
$DIMFIT
 70
           3
  9
$DIMUPT
 70
           0
  9
$DIMUNIT
 70
           2
  9
$DIMDEC
 70
           4
  9
$DIMTDEC
 70
           4
  9
$DIMALTU
 70
           2
  9
$DIMALTTD
 70
           2
  9
$DIMTXSTY
  7
STANDARD
  9
$DIMAUNIT
 70
           0
  9
$LUNITS
 70
           2
  9
$LUPREC
 70
           4
  9
$SKETCHINC
 40
0.1
  9
$FILLETRAD
 40
0.0
  9
$AUNITS
 70
           0
  9
$AUPREC
 70
           0
  9
$MENU
  1
acad
  9
$ELEVATION
 40
0.0
  9
$PELEVATION
 40
0.0
  9
$THICKNESS
 40
0.0
  9
$LIMCHECK
 70
           0
  9
$BLIPMODE
 70
           1
  9
$CHAMFERA
 40
0.0
  9
$CHAMFERB
 40
0.0
  9
$CHAMFERC
 40
0.0
  9
$CHAMFERD
 40
0.0
  9
$SKPOLY
 70
           0
  9
$TDCREATE
 40
0.000000000
  9
$TDUPDATE
 40
0.000000000
  9
$TDINDWG
 40
0.0000000000
  9
$TDUSRTIMER
 40
0.0000000000
  9
$USRTIMER
 70
           1
  9
$ANGBASE
 50
0.0
  9
$ANGDIR
 70
           0
  9
$PDMODE
 70
           0
  9
$PDSIZE
 40
0.0
  9
$PLINEWID
 40
0.0
  9
$COORDS
 70
           0
  9
$SPLFRAME
 70
           0
  9
$SPLINETYPE
 70
           6
  9
$SPLINESEGS
 70
           8
  9
$ATTDIA
 70
           0
  9
$ATTREQ
 70
           1
  9
$HANDLING
 70
           1
  9
$HANDSEED
  5
38C
  9
$SURFTAB1
 70
           6
  9
$SURFTAB2
 70
           6
  9
$SURFTYPE
 70
           6
  9
$SURFU
 70
           6
  9
$SURFV
 70
           6
  9
$UCSNAME
  2

  9
$UCSORG
 10
0.0
 20
0.0
 30
0.0
  9
$UCSXDIR
 10
1.0
 20
0.0
 30
0.0
  9
$UCSYDIR
 10
0.0
 20
1.0
 30
0.0
  9
$PUCSNAME
  2

  9
$PUCSORG
 10
0.0
 20
0.0
 30
0.0
  9
$PUCSXDIR
 10
1.0
 20
0.0
 30
0.0
  9
$PUCSYDIR
 10
0.0
 20
1.0
 30
0.0
  9
$USERI1
 70
           0
  9
$USERI2
 70
           0
  9
$USERI3
 70
           0
  9
$USERI4
 70
           0
  9
$USERI5
 70
           0
  9
$USERR1
 40
0.0
  9
$USERR2
 40
0.0
  9
$USERR3
 40
0.0
  9
$USERR4
 40
0.0
  9
$USERR5
 40
0.0
  9
$WORLDVIEW
 70
           1
  9
$SHADEDGE
 70
           3
  9
$SHADEDIF
 70
          70
  9
$TILEMODE
 70
           1
  9
$MAXACTVP
 70
          16
  9
$PINSBASE
 10
0.0
 20
0.0
 30
0.0
  9
$PLIMCHECK
 70
           0
  9
$PEXTMIN
 10
1.000000000000E+20
 20
1.000000000000E+20
 30
1.000000000000E+20
  9
$PEXTMAX
 10
-1.000000000000E+20
 20
-1.000000000000E+20
 30
-1.000000000000E+20
  9
$PLIMMIN
 10
0.0
 20
0.0
  9
$PLIMMAX
 10
12.0
 20
9.0
  9
$UNITMODE
 70
           0
  9
$VISRETAIN
 70
           0
  9
$PLINEGEN
 70
           1
  9
$PSLTSCALE
 70
           0
  9
$TREEDEPTH
 70
        3020
  9
$PICKSTYLE
 70
           1
  9
$CMLSTYLE
  2
STANDARD
  9
$CMLJUST
 70
           0
  9
$CMLSCALE
 40
1.0
  9
$PROXYGRAPHICS
 70
           0
  9
$MEASUREMENT
 70
           0
  0
ENDSEC
  0
SECTION
  2
CLASSES
  0
CLASS
  1
LWPOLYLINE
  2
AcDbPolyline
  3
"AutoCAD"
 90
        0
280
           0
281
           1
  0
CLASS
  1
IMAGE
  2
AcDbRasterImage
  3
ISM
 90
      127
280
           0
281
           1
  0
CLASS
  1
OLE2FRAME
  2
AcDbOle2Frame
  3
""
 90
        0
280
           0
281
           1
  0
CLASS
  1
HATCH
  2
AcDbHatch
  3
"ACAD_SEDONA"
 90
        0
280
           0
281
           1
  0
CLASS
  1
DICTIONARYVAR
  2
AcDbDictionaryVar
  3
"AutoCAD"
 90
        0
280
           0
281
           0
  0
CLASS
  1
RASTERVARIABLES
  2
AcDbRasterVariables
  3
ISM
 90
        0
280
           0
281
           0
  0
CLASS
  1
IMAGEDEF
  2
AcDbRasterImageDef
  3
ISM
 90
        0
280
           0
281
           0
  0
CLASS
  1
IMAGEDEF_REACTOR
  2
AcDbRasterImageDefReactor
  3
ISM
 90
        1
280
           0
281
           0
  0
CLASS
  1
IDBUFFER
  2
AcDbIdBuffer
  3
"Acad"
 90
        0
280
           0
281
           0
  0
CLASS
  1
SPATIAL_FILTER
  2
AcDbSpatialFilter
  3
"Acad"
 90
        0
280
           0
281
           0
  0
CLASS
  1
XRECORD
  2
AcDbXrecord
  3
"<Built In>"
 90
        0
280
           0
281
           0
  0
CLASS
  1
SORTENTSTABLE
  2
AcDbSortentsTable
  3
"AutoCAD"
 90
        0
280
           0
281
           0
  0
CLASS
  1
LAYER_INDEX
  2
AcDbLayerIndex
  3
"Acad"
 90
        0
280
           0
281
           0
  0
CLASS
  1
SPATIAL_INDEX
  2
AcDbSpatialIndex
  3
"Acad"
 90
        0
280
           0
281
           0
  0
CLASS
  1
OBJECT_PTR
  2
CAseDLPNTableRecord
  3
"ASE-LPNTableRecord"
 90
        1
280
           0
281
           0
  0
CLASS
  1
LAYOUT
  2
AcDbLayout
  3
"AutoCAD 2000"
 90
        1
280
           0
281
           0
  0
CLASS
  1
PLOTSETTINGS
  2
AcDbPlotSettings
  3
"AutoCAD 2000"
 90
        1
280
           0
281
           0
  0
CLASS
  1
ACDBDICTIONARYWDFLT
  2
AcDbDictionaryWithDefault
  3
"AutoCAD 2000"
 90
        1
280
           0
281
           0
  0
CLASS
  1
ACDBPLACEHOLDER
  2
AcDbPlaceHolder
  3
"AutoCAD 2000"
 90
        1
280
           0
281
           0
  0
CLASS
  1
VBA_PROJECT
  2
AcDbVbaProject
  3
"acadvba"
 90
        1
280
           0
281
           0
  0
CLASS
  1
WIPEOUT
  2
AcDbWipeout
  3
WipeOut|AutoCAD Express Tool|expresstools@autodesk.com
 90
      127
280
           0
281
           1
  0
CLASS
  1
WIPEOUTVARIABLES
  2
AcDbWipeoutVariables
  3
WipeOut|AutoCAD Express Tool|expresstools@autodesk.com
 90
        0
280
           0
281
           0
  0
CLASS
  1
RTEXT
  2
RText
  3
RText|AutoCAD Express Tool|expresstools@autodesk.com
 90
        0
280
           0
281
           1
  0
CLASS
  1
ARCALIGNEDTEXT
  2
AcDbArcAlignedText
  3
ATEXT|AutoCAD Express Tool|expresstools@autodesk.com
 90
        0
280
           0
281
           1
  0
ENDSEC
  0
SECTION
  2
TABLES
  0
TABLE
  2
VPORT
  5
7
100
AcDbSymbolTable
 70
           1
  0
VPORT
  5
15
100
AcDbSymbolTableRecord
100
AcDbViewportTableRecord
  2
*ACTIVE
 70
           0
 10
0.0
 20
0.0
 11
1.0
 21
1.0
 12
6.591288
 22
4.579184
 13
0.0
 23
0.0
 14
1.0
 24
1.0
 15
0.0
 25
0.0
 16
0.0
 26
0.0
 36
1.0
 17
0.0
 27
0.0
 37
0.0
 40
9.158369
 41
0.688564
 42
50.0
 43
0.0
 44
0.0
 50
0.0
 51
0.0
 71
           0
 72
         100
 73
           1
 74
           1
 75
           0
 76
           0
 77
           0
 78
           0
  0
ENDTAB
  0
TABLE
  2
LTYPE
  5
4
100
AcDbSymbolTable
 70
          10
  0
LTYPE
  5
11
100
AcDbSymbolTableRecord
100
AcDbLinetypeTableRecord
  2
BYBLOCK
 70
          64
  3

 72
          65
 73
           0
 40
0.0
  0
LTYPE
  5
12
100
AcDbSymbolTableRecord
100
AcDbLinetypeTableRecord
  2
BYLAYER
 70
          64
  3

 72
          65
 73
           0
 40
0.0
  0
LTYPE
  5
13
100
AcDbSymbolTableRecord
100
AcDbLinetypeTableRecord
  2
CONTINUOUS
 70
          64
  3
Solid line
 72
          65
 73
           0
 40
0.0
  0
LTYPE
  5
1D
100
AcDbSymbolTableRecord
100
AcDbLinetypeTableRecord
  2
DASHED
 70
          64
  3
Dashed
 72
          65
 73
           2
 40
15.0
 49
12.0
 74
           0
 49
-3.0
 74
           0
  0
LTYPE
  5
1E
100
AcDbSymbolTableRecord
100
AcDbLinetypeTableRecord
  2
DOTTED
 70
          64
  3
Dotted
 72
          65
 73
           2
 40
3.5
 49
0.5
 74
           0
 49
-3.0
 74
           0
  0
LTYPE
  5
1F
100
AcDbSymbolTableRecord
100
AcDbLinetypeTableRecord
  2
DOT_CENTER
 70
          64
  3
Dot_Center
 72
          65
 73
           4
 40
2.0
 49
1.25
 74
           0
 49
-0.25
 74
           0
 49
0.25
 74
           0
 49
-0.25
 74
           0
  0
LTYPE
  5
20
100
AcDbSymbolTableRecord
100
AcDbLinetypeTableRecord
  2
LONG_DASHED
 70
          64
  3
Long_Dashed
 72
          65
 73
           2
 40
2.0
 49
1.5
 74
           0
 49
-0.5
 74
           0
  0
LTYPE
  5
21
100
AcDbSymbolTableRecord
100
AcDbLinetypeTableRecord
  2
DASH_CENTER
 70
          64
  3
Dash_Center
 72
          65
 73
           4
 40
36.0
 49
24.0
 74
           0
 49
-3.0
 74
           0
 49
6.0
 74
           0
 49
-3.0
 74
           0
  0
LTYPE
  5
22
100
AcDbSymbolTableRecord
100
AcDbLinetypeTableRecord
  2
PHANTOM
 70
          64
  3
Phantom
 72
          65
 73
           6
 40
2.5
 49
1.25
 74
           0
 49
-0.25
 74
           0
 49
0.25
 74
           0
 49
-0.25
 74
           0
 49
0.25
 74
           0
 49
-0.25
 74
           0
  0
LTYPE
  5
23
100
AcDbSymbolTableRecord
100
AcDbLinetypeTableRecord
  2
CENTER_DASH_DASH
 70
          64
  3
Center_Dash_Dash
 72
          65
 73
           6
 40
22.0
 49
12.0
 74
           0
 49
-3.0
 74
           0
 49
0.5
 74
           0
 49
-3.0
 74
           0
 49
0.5
 74
           0
 49
-3.0
 74
           0
  0
ENDTAB
  0
TABLE
  2
LAYER
  5
2
100
AcDbSymbolTable
 70
           7
  0
LAYER
  5
14
100
AcDbSymbolTableRecord
100
AcDbLayerTableRecord
  2
0
 70
           0
 62
           7
  6
CONTINUOUS
  0
LAYER
  5
24
100
AcDbSymbolTableRecord
100
AcDbLayerTableRecord
  2
___S__
 70
           0
 62
           7
  6
CONTINUOUS
  0
LAYER
  5
25
100
AcDbSymbolTableRecord
100
AcDbLayerTableRecord
  2
FORMAT
 70
           0
 62
           7
  6
CONTINUOUS
  0
LAYER
  5
26
100
AcDbSymbolTableRecord
100
AcDbLayerTableRecord
  2
1
 70
           0
 62
           7
  6
CONTINUOUS
  0
LAYER
  5
27
100
AcDbSymbolTableRecord
100
AcDbLayerTableRecord
  2
2
 70
           0
 62
           7
  6
CONTINUOUS
  0
LAYER
  5
28
100
AcDbSymbolTableRecord
100
AcDbLayerTableRecord
  2
7
 70
           0
 62
           7
  6
CONTINUOUS
  0
LAYER
  5
29
100
AcDbSymbolTableRecord
100
AcDbLayerTableRecord
  2
____
 70
           0
 62
           7
  6
CONTINUOUS
  0
ENDTAB
  0
TABLE
  2
STYLE
  5
3
100
AcDbSymbolTable
 70
           1
  0
STYLE
  5
17
100
AcDbSymbolTableRecord
100
AcDbTextStyleTableRecord
  2
STANDARD
 70
           0
 40
0.0
 41
1.0
 50
0.0
 71
           0
 42
0.0
  3
txt
  4

  0
ENDTAB
  0
TABLE
  2
VIEW
  5
5
100
AcDbSymbolTable
 70
           0
  0
ENDTAB
  0
TABLE
  2
UCS
  5
6
100
AcDbSymbolTable
 70
           0
  0
ENDTAB
  0
TABLE
  2
APPID
  5
8
100
AcDbSymbolTable
 70
           1
  0
APPID
  5
16
100
AcDbSymbolTableRecord
100
AcDbRegAppTableRecord
  2
ACAD
 70
           0
  0
ENDTAB
  0
TABLE
  2
DIMSTYLE
  5
9
100
AcDbSymbolTable
 70
           1
  0
DIMSTYLE
105
18
100
AcDbSymbolTableRecord
100
AcDbDimStyleTableRecord
  2
STANDARD
 70
           0
  3

  4

  5

  6

  7

 40
1.0
 41
0.18
 42
0.0625
 43
0.38
 44
0.18
 45
0.0
 46
0.0
 47
0.0
 48
0.0
 71
           0
 72
           0
 73
           1
 74
           1
 75
           0
 76
           0
 77
           0
 78
           0
140
0.18
141
0.09
142
0.0
143
25.4
144
1.0
145
0.0
146
1.0
147
0.09
170
           0
171
           2
172
           0
173
           0
174
           0
175
           0
176
           0
177
           0
178
           0
270
           2
271
           4
272
           4
273
           2
274
           2
275
           0
280
           0
281
           0
282
           0
283
           1
284
           0
285
           0
286
           0
287
           0
288
           0
340
17
  0
ENDTAB
  0
TABLE
  2
BLOCK_RECORD
  5
1
100
AcDbSymbolTable
 70
           0
  0
BLOCK_RECORD
  5
A
100
AcDbSymbolTableRecord
100
AcDbBlockTableRecord
  2
*MODEL_SPACE
  0
BLOCK_RECORD
  5
B
100
AcDbSymbolTableRecord
100
AcDbBlockTableRecord
  2
*PAPER_SPACE
  0
ENDTAB
  0
ENDSEC
  0
SECTION
  2
BLOCKS
  0
BLOCK
  5
D
100
AcDbEntity
  8
0
100
AcDbBlockBegin
  2
*MODEL_SPACE
 70
           0
 10
0.0
 20
0.0
 30
0.0
  3
*MODEL_SPACE
  1

  0
ENDBLK
  5
E
100
AcDbEntity
  8
0
100
AcDbBlockEnd
  0
BLOCK
  5
F
100
AcDbEntity
 67
           1
  8
0
100
AcDbBlockBegin
  2
*PAPER_SPACE
 70
           0
 10
0.0
 20
0.0
 30
0.0
  3
*PAPER_SPACE
  1

  0
ENDBLK
  5
10
100
AcDbEntity
 67
           1
  8
0
100
AcDbBlockEnd
  0
ENDSEC
  0
SECTION
  2
ENTITIES
  0
HATCH
  5
38A
100
AcDbEntity
  8
0
  6
CONTINUOUS
 62
           2
100
AcDbHatch
 10
0.0
 20
0.0
 30
0.0
210
0.0
220
0.0
230
1.0
  2
USER
 70
           0
 71
           1
 91
        1
 92
        1
 93
        8
 72
           1
 10
2730.0000000000041
 20
1544.0492700730019
 11
2730.0000000000041
 21
1564.0492700730019
 72
           1
 10
2652.0000000000041
 20
1544.0492700730019
 11
2730.0000000000041
 21
1544.0492700730019
 72
           2
 10
2652.0000000000041
 20
1581.0492700730019
 40
37.0
 50
180.0
 51
-90.0
 73
           1
 72
           1
 10
2615.0000000000041
 20
1594.2992700730019
 11
2615.0000000000041
 21
1581.0492700730019
 72
           1
 10
2635.0000000000041
 20
1581.0492700730019
 11
2635.0000000000041
 21
1594.2992700730019
 72
           1
 10
2635.0000000000041
 20
1594.2992700730019
 11
2615.0000000000041
 21
1594.2992700730019
 72
           2
 10
2652.0000000000041
 20
1581.0492700730019
 40
17.0
 50
180.0
 51
-90.0
 73
           1
 72
           1
 10
2652.0000000000041
 20
1564.0492700730019
 11
2730.0000000000041
 21
1564.0492700730019
 97
        7
330
373
330
2C3
330
345
330
2C0
330
372
330
344
330
2BF
 75
           1
 76
           0
 52
45.0
 41
10.0
 77
           0
 78
           1
 53
45.0
 43
0.0
 44
0.0
 45
-7.0710678118654746
 46
7.0710678118654755
 79
           0
 98
        1
 10
0.0
 20
0.0
  0
ARC
  5
389
100
AcDbEntity
  8
1
  6
CONTINUOUS
 62
           3
100
AcDbCircle
 10
3499.899996810933
 20
1965.299270073
 40
288.0
100
AcDbArc
 50
90.0
 51
180.0
  0
ARC
  5
388
100
AcDbEntity
  8
1
  6
CONTINUOUS
 62
           3
100
AcDbCircle
 10
3499.899998122328
 20
1965.299270073001
 40
280.0
100
AcDbArc
 50
90.0
 51
180.0
  0
ARC
  5
387
100
AcDbEntity
  8
1
  6
CONTINUOUS
 62
           3
100
AcDbCircle
 10
3648.163567691041
 20
2256.49301665304
 40
0.5
100
AcDbArc
 50
90.0
 51
180.0
  0
ARC
  5
386
100
AcDbEntity
  8
1
  6
CONTINUOUS
 62
           3
100
AcDbCircle
 10
3648.163567691041
 20
2242.10552349296
 40
0.5
100
AcDbArc
 50
180.0
 51
-90.0
  0
ARC
  5
385
100
AcDbEntity
  8
1
  6
CONTINUOUS
 62
           7
100
AcDbCircle
 10
156.499999999999
 20
3065.599270073002
 40
10.0
100
AcDbArc
 50
0.0
 51
90.0
  0
ARC
  5
384
100
AcDbEntity
  8
1
  6
CONTINUOUS
 62
           7
100
AcDbCircle
 10
156.499999999999
 20
3005.599270073003
 40
10.0
100
AcDbArc
 50
-90.0
 51
0.0
  0
ARC
  5
383
100
AcDbEntity
  8
1
  6
CONTINUOUS
 62
           7
100
AcDbCircle
 10
118.613664000001
 20
3065.599270073002
 40
10.0
100
AcDbArc
 50
90.0
 51
180.0
  0
ARC
  5
382
100
AcDbEntity
  8
1
  6
CONTINUOUS
 62
           7
100
AcDbCircle
 10
118.613664000001
 20
3005.599270073003
 40
10.0
100
AcDbArc
 50
180.0
 51
-90.0
  0
ARC
  5
381
100
AcDbEntity
  8
1
  6
CONTINUOUS
 62
           4
100
AcDbCircle
 10
4305.500000000004
 20
2880.299270073001
 40
1.0
100
AcDbArc
 50
180.0
 51
-90.0
  0
ARC
  5
380
100
AcDbEntity
  8
1
  6
CONTINUOUS
 62
           4
100
AcDbCircle
 10
4294.500000000004
 20
2880.299270073001
 40
1.0
100
AcDbArc
 50
-90.0
 51
0.0
  0
ARC
  5
37F
100
AcDbEntity
  8
1
  6
CONTINUOUS
 62
           4
100
AcDbCircle
 10
4305.500000000004
 20
2484.299270073002
 40
1.0
100
AcDbArc
 50
90.0
 51
180.0
  0
ARC
  5
37E
100
AcDbEntity
  8
1
  6
CONTINUOUS
 62
           4
100
AcDbCircle
 10
4294.500000000004
 20
2484.299270073002
 40
1.0
100
AcDbArc
 50
0.0
 51
90.0
  0
ARC
  5
37D
100
AcDbEntity
  8
1
  6
CONTINUOUS
 62
           7
100
AcDbCircle
 10
3893.750000000004
 20
3004.299270073
 40
10.0
100
AcDbArc
 50
-90.0
 51
0.0
  0
ARC
  5
37C
100
AcDbEntity
  8
1
  6
CONTINUOUS
 62
           7
100
AcDbCircle
 10
3826.250000000004
 20
3004.299270073
 40
10.0
100
AcDbArc
 50
180.0
 51
-90.0
  0
ARC
  5
37B
100
AcDbEntity
  8
1
  6
CONTINUOUS
 62
           7
100
AcDbCircle
 10
3893.750000000004
 20
3064.299270073
 40
10.0
100
AcDbArc
 50
0.0
 51
90.0
  0
ARC
  5
37A
100
AcDbEntity
  8
1
  6
CONTINUOUS
 62
           7
100
AcDbCircle
 10
3826.250000000004
 20
3064.299270073
 40
10.0
100
AcDbArc
 50
90.0
 51
180.0
  0
ARC
  5
379
100
AcDbEntity
  8
1
  6
CONTINUOUS
 62
           4
100
AcDbCircle
 10
109.26566811172
 20
5638.75
 40
10.0
100
AcDbArc
 50
90.0
 51
120.430594205715
  0
ARC
  5
378
100
AcDbEntity
  8
1
  6
CONTINUOUS
 62
           4
100
AcDbCircle
 10
109.26566811172
 20
5581.25
 40
10.000000000001
100
AcDbArc
 50
-120.43059420571
 51
-90.0
  0
ARC
  5
377
100
AcDbEntity
  8
1
  6
CONTINUOUS
 62
           7
100
AcDbCircle
 10
123.946258446659
 20
5576.25
 40
10.0
100
AcDbArc
 50
180.0
 51
-90.0
  0
ARC
  5
376
100
AcDbEntity
  8
1
  6
CONTINUOUS
 62
           7
100
AcDbCircle
 10
123.946258446659
 20
5643.75
 40
10.0
100
AcDbArc
 50
90.0
 51
180.0
  0
ARC
  5
375
100
AcDbEntity
  8
1
  6
CONTINUOUS
 62
           7
100
AcDbCircle
 10
156.499999999998
 20
5576.25
 40
10.0
100
AcDbArc
 50
-90.0
 51
0.0
  0
ARC
  5
374
100
AcDbEntity
  8
1
  6
CONTINUOUS
 62
           7
100
AcDbCircle
 10
156.499999999998
 20
5643.75
 40
10.0
100
AcDbArc
 50
0.0
 51
90.0
  0
LWPOLYLINE
  5
373
100
AcDbEntity
  8
1
  6
CONTINUOUS
 62
           7
 60
           1
100
AcDbPolyline
 90
        2
 70
           0
 10
2730.000000000004
 20
1544.049270073002
 10
2730.000000000004
 20
1564.049270073002
  0
LWPOLYLINE
  5
372
100
AcDbEntity
  8
1
  6
CONTINUOUS
 62
           7
 60
           1
100
AcDbPolyline
 90
        3
 70
           0
 10
2635.000000000004
 20
1581.049270073002
 10
2635.000000000004
 20
1594.299270073002
 10
2615.000000000004
 20
1594.299270073002
  0
LWPOLYLINE
  5
371
100
AcDbEntity
  8
1
  6
CONTINUOUS
 62
           7
 60
           1
100
AcDbPolyline
 90
        2
 70
           0
 10
2730.000000000003
 20
1647.299270073002
 10
2730.000000000003
 20
1667.299270073002
  0
SPLINE
  5
370
100
AcDbEntity
  8
0
  6
CONTINUOUS
 62
           3
100
AcDbSpline
210
0.0
220
0.0
230
1.0
 70
           0
 71
           3
 72
           8
 73
           5
 74
           7
 42
0.00000000001
 43
0.00000000001
 44
0.00000000001
 40
0.0
 40
0.0
 40
0.0
 40
0.5558562714156202
 40
1.5343210643713774
 40
2.9385072682982272
 40
2.9385072682982272
 40
2.9385072682982272
 10
3165.8999967216751
 20
1684.299269477048
 30
0.0
 10
3165.9684298091488
 20
1684.2988237836771
 30
0.0
 10
3166.9432526000201
 20
1684.2924749242129
 30
0.0
 10
3167.898530904748
 20
1684.0645790948629
 30
0.0
 10
3168.7867481555081
 20
1683.8526816760691
 30
0.0
 11
3165.8999967216751
 21
1684.299269477048
 31
0.0
 11
3166.0396116244083
 21
1684.2983601882979
 31
0.0
 11
3166.3215901576623
 21
1684.2965237087897
 31
0.0
 11
3166.885911171285
 21
1684.2700900674765
 31
0.0
 11
3167.3355493274357
 21
1684.1988867126906
 31
0.0
 11
3167.9798398231096
 21
1684.0451816446212
 31
0.0
 11
3168.7867481555081
 21
1683.8526816760691
 31
0.0
  0
SPLINE
  5
36F
100
AcDbEntity
  8
0
  6
CONTINUOUS
 62
           3
100
AcDbSpline
210
0.0
220
0.0
230
1.0
 70
           0
 71
           3
 72
           8
 73
           5
 74
           7
 42
0.00000000001
 43
0.00000000001
 44
0.00000000001
 40
0.0
 40
0.0
 40
0.0
 40
0.555855849061488
 40
1.5343195421996905
 40
2.9385037456599608
 40
2.9385037456599608
 40
2.9385037456599608
 10
3165.899996721671
 20
1679.2992742453221
 30
0.0
 10
3165.8315636362968
 20
1679.299719951302
 30
0.0
 10
3164.8567416872429
 20
1679.306068983668
 30
0.0
 10
3163.9014629162648
 20
1679.5339570022311
 30
0.0
 10
3163.0132452878438
 20
1679.7458471452419
 30
0.0
 11
3165.899996721671
 21
1679.2992742453221
 31
0.0
 11
3165.76038187625
 21
1679.300183559322
 31
0.0
 11
3165.478403510735
 21
1679.3020200893629
 31
0.0
 11
3164.9140828960185
 21
1679.3284530152184
 31
0.0
 11
3164.4644446988532
 21
1679.3996540041753
 31
0.0
 11
3163.8201539548063
 21
1679.5533537884698
 31
0.0
 11
3163.0132452878438
 21
1679.7458471452419
 31
0.0
  0
SPLINE
  5
36E
100
AcDbEntity
  8
0
  6
CONTINUOUS
 62
           3
100
AcDbSpline
210
0.0
220
0.0
230
1.0
 70
           0
 71
           3
 72
           8
 73
           5
 74
           7
 42
0.00000000001
 43
0.00000000001
 44
0.00000000001
 40
0.0
 40
0.0
 40
0.0
 40
0.277945269558011
 40
0.7862805426603687
 40
1.5429573556207248
 40
1.5429573556207248
 40
1.5429573556207248
 10
3170.23012375601
 20
1679.2992742454201
 30
0.0
 10
3170.1959072124769
 20
1679.299719950189
 30
0.0
 10
3169.7084969152711
 20
1679.3060689577439
 30
0.0
 10
3169.2308572149891
 20
1679.5339570014669
 30
0.0
 10
3168.786748155369
 20
1679.7458471452239
 30
0.0
 11
3170.23012375601
 21
1679.2992742454201
 31
0.0
 11
3170.1613872230664
 21
1679.3001696076433
 31
0.0
 11
3170.0236107113024
 21
1679.3019642847751
 31
0.0
 11
3169.7392914141328
 21
1679.3279365492172
 31
0.0
 11
3169.5165611146867
 21
1679.3976439966063
 31
0.0
 11
3169.1912559250086
 21
1679.5528512861908
 31
0.0
 11
3168.786748155369
 21
1679.7458471452239
 31
0.0
  0
SPLINE
  5
36D
100
AcDbEntity
  8
0
  6
CONTINUOUS
 62
           3
100
AcDbSpline
210
0.0
220
0.0
230
1.0
 70
           0
 71
           3
 72
           8
 73
           5
 74
           7
 42
0.00000000001
 43
0.00000000001
 44
0.00000000001
 40
0.0
 40
0.0
 40
0.0
 40
0.6787700534894813
 40
1.1891668948802716
 40
1.5431123743500961
 40
1.5431123743500961
 40
1.5431123743500961
 10
3163.0132452878438
 20
1679.7458471452419
 30
0.0
 10
3162.6438214744071
 20
1679.561718444606
 30
0.0
 10
3162.1676820506268
 20
1679.3244004097839
 30
0.0
 10
3161.6793238525861
 20
1679.303874624261
 30
0.0
 10
3161.5698696873419
 20
1679.2992742454201
 30
0.0
 11
3163.0132452878438
 21
1679.7458471452419
 31
0.0
 11
3162.6682329736409
 21
1679.5738856560067
 31
0.0
 11
3162.3720436579042
 21
1679.4262585895731
 31
0.0
 11
3162.1466781919517
 21
1679.3468348196086
 31
0.0
 11
3161.8793050086479
 21
1679.312279869293
 31
0.0
 11
3161.7019556002901
 21
1679.3048258408087
 31
0.0
 11
3161.5698696873419
 21
1679.2992742454201
 31
0.0
  0
SPLINE
  5
36C
100
AcDbEntity
  8
0
  6
CONTINUOUS
 62
           3
100
AcDbSpline
210
0.0
220
0.0
230
1.0
 70
           0
 71
           3
 72
           8
 73
           5
 74
           7
 42
0.00000000001
 43
0.00000000001
 44
0.00000000001
 40
0.0
 40
0.0
 40
0.0
 40
0.3539460334989843
 40
0.8643414136630605
 40
1.5431068114060327
 40
1.5431068114060327
 40
1.5431068114060327
 10
3161.5698696873419
 20
1684.299269477048
 30
0.0
 10
3161.6793238424252
 20
1684.29466358083
 30
0.0
 10
3162.1676816710419
 20
1684.2741131917401
 30
0.0
 10
3162.6438213484471
 20
1684.036803707354
 30
0.0
 10
3163.0132452879729
 20
1683.8526816760209
 30
0.0
 11
3161.5698696873419
 21
1684.299269477048
 31
0.0
 11
3161.7019556855817
 21
1684.2937112193542
 31
0.0
 11
3161.8793053701347
 21
1684.286248238709
 31
0.0
 11
3162.1466781413865
 21
1684.251683267926
 31
0.0
 11
3162.3720438533264
 21
1684.1722584495133
 31
0.0
 11
3162.6682329595483
 21
1684.0246368850603
 31
0.0
 11
3163.0132452879729
 21
1683.8526816760209
 31
0.0
  0
SPLINE
  5
36B
100
AcDbEntity
  8
0
  6
CONTINUOUS
 62
           3
100
AcDbSpline
210
0.0
220
0.0
230
1.0
 70
           0
 71
           3
 72
           8
 73
           5
 74
           7
 42
0.00000000001
 43
0.00000000001
 44
0.00000000001
 40
0.0
 40
0.0
 40
0.0
 40
0.6415450374694814
 40
1.157930368601785
 40
1.535738174899957
 40
1.535738174899957
 40
1.535738174899957
 10
3161.5698696873419
 20
1679.2992742454201
 30
0.0
 10
3161.1795237086149
 20
1679.356903766876
 30
0.0
 10
3160.690884629365
 20
1679.429044989884
 30
0.0
 10
3160.2210119621182
 20
1679.692792521256
 30
0.0
 10
3160.1264938539748
 20
1679.7458471452239
 30
0.0
 11
3161.5698696873419
 21
1679.2992742454201
 31
0.0
 11
3161.2094282457047
 21
1679.3524887497992
 31
0.0
 11
3160.9087958782488
 21
1679.3968732200251
 31
0.0
 11
3160.6775260473241
 21
1679.459079770962
 31
0.0
 11
3160.4195390523196
 21
1679.5813558840541
 31
0.0
 11
3160.2470142076327
 21
1679.6781970179475
 31
0.0
 11
3160.1264938539748
 21
1679.7458471452239
 31
0.0
  0
SPLINE
  5
36A
100
AcDbEntity
  8
0
  6
CONTINUOUS
 62
           3
100
AcDbSpline
210
0.0
220
0.0
230
1.0
 70
           0
 71
           3
 72
           8
 73
           5
 74
           7
 42
0.00000000001
 43
0.00000000001
 44
0.00000000001
 40
0.0
 40
0.0
 40
0.0
 40
0.3778155284990295
 40
0.894206223399112
 40
1.5357514174609534
 40
1.5357514174609534
 40
1.5357514174609534
 10
3160.1264938539748
 20
1683.8526816760209
 30
0.0
 10
3160.2210118970338
 20
1683.905741763906
 30
0.0
 10
3160.6908817949079
 20
1684.1695150843741
 30
0.0
 10
3161.1795227343059
 20
1684.241647259199
 30
0.0
 10
3161.5698696873419
 20
1684.299269477048
 30
0.0
 11
3160.1264938539748
 21
1683.8526816760209
 31
0.0
 11
3160.2470141544077
 21
1683.920338787028
 31
0.0
 11
3160.4195389695878
 21
1684.0171899442796
 31
0.0
 11
3160.6775244143332
 21
1684.1394757782364
 31
0.0
 11
3160.9087950979306
 21
1684.2016829999188
 31
0.0
 11
3161.2094275634709
 21
1684.2460617488412
 31
0.0
 11
3161.5698696873419
 21
1684.299269477048
 31
0.0
  0
SPLINE
  5
369
100
AcDbEntity
  8
0
  6
CONTINUOUS
 62
           3
100
AcDbSpline
210
0.0
220
0.0
230
1.0
 70
           0
 71
           3
 72
           8
 73
           5
 74
           7
 42
0.00000000001
 43
0.00000000001
 44
0.00000000001
 40
0.0
 40
0.0
 40
0.0
 40
0.277946485466061
 40
0.7862840844017638
 40
1.5429642659214602
 40
1.5429642659214602
 40
1.5429642659214602
 10
3170.2301237559682
 20
1684.2992694769209
 30
0.0
 10
3170.264340305368
 20
1684.298823781676
 30
0.0
 10
3170.7517530244568
 20
1684.2924748774431
 30
0.0
 10
3171.2293915040032
 20
1684.06457909348
 30
0.0
 10
3171.673499589368
 20
1683.8526816760209
 30
0.0
 11
3170.2301237559682
 21
1684.2992694769209
 31
0.0
 11
3170.2988605017508
 21
1684.2983741310445
 31
0.0
 11
3170.4366376403004
 21
1684.2965794839049
 31
0.0
 11
3170.7209580094759
 21
1684.270606490061
 31
0.0
 11
3170.9436883486896
 21
1684.2008967214542
 31
0.0
 11
3171.2689927365159
 21
1684.0456841461087
 31
0.0
 11
3171.673499589368
 21
1683.8526816760209
 31
0.0
  0
SPLINE
  5
368
100
AcDbEntity
  8
0
  6
CONTINUOUS
 62
           3
100
AcDbSpline
210
0.0
220
0.0
230
1.0
 70
           0
 71
           3
 72
           8
 73
           5
 74
           7
 42
0.00000000001
 43
0.00000000001
 44
0.00000000001
 40
0.0
 40
0.0
 40
0.0
 40
1.2475591451553565
 40
2.2257037084933655
 40
2.9354142011745661
 40
2.9354142011745661
 40
2.9354142011745661
 10
3165.8999967216751
 20
1689.299264708673
 30
0.0
 10
3165.1443416651759
 20
1689.245163373093
 30
0.0
 10
3164.1669038516502
 20
1689.1751834388569
 30
0.0
 10
3163.2266018489572
 20
1688.912333116366
 30
0.0
 10
3163.0132452878438
 20
1688.852691808858
 30
0.0
 11
3165.8999967216751
 21
1689.299264708673
 31
0.0
 11
3165.1962862228388
 21
1689.2488823582587
 31
0.0
 11
3164.5964648393292
 21
1689.2059379781763
 31
0.0
 11
3164.1380633113727
 21
1689.144790365634
 31
0.0
 11
3163.6219807028583
 21
1689.0228566066453
 31
0.0
 11
3163.2721074221536
 21
1688.9250536620586
 31
0.0
 11
3163.0132452878438
 21
1688.852691808858
 31
0.0
  0
SPLINE
  5
367
100
AcDbEntity
  8
0
  6
CONTINUOUS
 62
           3
100
AcDbSpline
210
0.0
220
0.0
230
1.0
 70
           0
 71
           3
 72
           8
 73
           5
 74
           7
 42
0.00000000001
 43
0.00000000001
 44
0.00000000001
 40
0.0
 40
0.0
 40
0.0
 40
1.2321288292632935
 40
2.2113508927716263
 40
2.9387184667293011
 40
2.9387184667293011
 40
2.9387184667293011
 10
3168.7867481555081
 20
1688.852691808858
 30
0.0
 10
3168.0674885010521
 20
1689.0328890914291
 30
0.0
 10
3167.1156260261
 20
1689.271360734198
 30
0.0
 10
3166.1387194651538
 20
1689.2937849844541
 30
0.0
 10
3165.8999967216751
 20
1689.299264708673
 30
0.0
 11
3168.7867481555081
 21
1688.852691808858
 31
0.0
 11
3168.1147128338685
 21
1689.0210579030804
 31
0.0
 11
3167.53712617786
 21
1689.1657616206046
 31
0.0
 11
3167.080866547009
 21
1689.2481776518532
 31
0.0
 11
3166.5550879579769
 21
1689.2842275184128
 31
0.0
 11
3166.1831309024897
 21
1689.2927655489984
 31
0.0
 11
3165.8999967216751
 21
1689.299264708673
 31
0.0
  0
SPLINE
  5
366
100
AcDbEntity
  8
0
  6
CONTINUOUS
 62
           3
100
AcDbSpline
210
0.0
220
0.0
230
1.0
 70
           0
 71
           3
 72
           8
 73
           5
 74
           7
 42
0.00000000001
 43
0.00000000001
 44
0.00000000001
 40
0.0
 40
0.0
 40
0.0
 40
0.7273681394928953
 40
1.7065914567911582
 40
2.9387223240401696
 40
2.9387223240401696
 40
2.9387223240401696
 10
3165.8999967216751
 20
1684.299269477048
 30
0.0
 10
3166.1387195010361
 20
1684.3047490161159
 30
0.0
 10
3167.1156271469831
 20
1684.3271725302409
 30
0.0
 10
3168.067488856248
 20
1684.565653153511
 30
0.0
 10
3168.786748155369
 20
1684.745857278122
 30
0.0
 11
3165.8999967216751
 21
1684.299269477048
 31
0.0
 11
3166.1831310149755
 21
1684.3057684187331
 31
0.0
 11
3166.5550883361557
 21
1684.3143061656522
 31
0.0
 11
3167.0808673755137
 21
1684.3503567061734
 31
0.0
 11
3167.5371268719341
 21
1684.4327755985605
 31
0.0
 11
3168.1147131849498
 21
1684.5774847959262
 31
0.0
 11
3168.786748155369
 21
1684.745857278122
 31
0.0
  0
SPLINE
  5
365
100
AcDbEntity
  8
0
  6
CONTINUOUS
 62
           3
100
AcDbSpline
210
0.0
220
0.0
230
1.0
 70
           0
 71
           3
 72
           8
 73
           5
 74
           7
 42
0.00000000001
 43
0.00000000001
 44
0.00000000001
 40
0.0
 40
0.0
 40
0.0
 40
0.7097126556392379
 40
1.6878594213854492
 40
2.9354211178792546
 40
2.9354211178792546
 40
2.9354211178792546
 10
3163.0132452878438
 20
1684.745857278024
 30
0.0
 10
3163.2266017037659
 20
1684.6862104429281
 30
0.0
 10
3164.1668989125851
 20
1684.4233369206199
 30
0.0
 10
3165.1443400642511
 20
1684.353364744617
 30
0.0
 10
3165.8999967216751
 20
1684.299269477048
 30
0.0
 11
3163.0132452878438
 21
1684.745857278024
 31
0.0
 11
3163.2721068549267
 21
1684.6734888276155
 31
0.0
 11
3163.6219787243317
 21
1684.5756771465819
 31
0.0
 11
3164.1380594916336
 21
1684.453734193781
 31
0.0
 11
3164.5964614170325
 21
1684.3925857873019
 31
0.0
 11
3165.1962845668022
 21
1684.3496461883958
 31
0.0
 11
3165.8999967216751
 21
1684.299269477048
 31
0.0
  0
SPLINE
  5
364
100
AcDbEntity
  8
0
  6
CONTINUOUS
 62
           3
100
AcDbSpline
210
0.0
220
0.0
230
1.0
 70
           0
 71
           3
 72
           8
 73
           5
 74
           7
 42
0.00000000001
 43
0.00000000001
 44
0.00000000001
 40
0.0
 40
0.0
 40
0.0
 40
0.2779452695579918
 40
0.7862805426594981
 40
1.5429573555011664
 40
1.5429573555011664
 40
1.5429573555011664
 10
3170.23012375601
 20
1689.299264708673
 30
0.0
 10
3170.1959072124769
 20
1689.2988190039041
 30
0.0
 10
3169.7084969152711
 20
1689.2924699963521
 30
0.0
 10
3169.2308572149891
 20
1689.064581952633
 30
0.0
 10
3168.7867481555081
 20
1688.852691808858
 30
0.0
 11
3170.23012375601
 21
1689.299264708673
 31
0.0
 11
3170.161387223066
 21
1689.2983693464498
 31
0.0
 11
3170.0236107113014
 21
1689.2965746693192
 31
0.0
 11
3169.7392914141287
 21
1689.2706024048766
 31
0.0
 11
3169.5165611146685
 21
1689.2008949574829
 31
0.0
 11
3169.1912559250386
 21
1689.0456876679016
 31
0.0
 11
3168.7867481555081
 21
1688.852691808858
 31
0.0
  0
SPLINE
  5
363
100
AcDbEntity
  8
0
  6
CONTINUOUS
 62
           3
100
AcDbSpline
210
0.0
220
0.0
230
1.0
 70
           0
 71
           3
 72
           8
 73
           5
 74
           7
 42
0.00000000001
 43
0.00000000001
 44
0.00000000001
 40
0.0
 40
0.0
 40
0.0
 40
0.2779464854693971
 40
0.7862840844050747
 40
1.5429642659449412
 40
1.5429642659449412
 40
1.5429642659449412
 10
3170.2301237559682
 20
1684.2992694769209
 30
0.0
 10
3170.264340305368
 20
1684.2997151724239
 30
0.0
 10
3170.7517530244568
 20
1684.306064076653
 30
0.0
 10
3171.2293915040032
 20
1684.5339598606161
 30
0.0
 10
3171.673499589368
 20
1684.745857278122
 30
0.0
 11
3170.2301237559682
 21
1684.2992694769209
 31
0.0
 11
3170.2988605017513
 21
1684.3001648229906
 31
0.0
 11
3170.4366376403013
 21
1684.3019594701937
 31
0.0
 11
3170.7209580094755
 21
1684.3279324640348
 31
0.0
 11
3170.9436883486865
 21
1684.3976422326405
 31
0.0
 11
3171.268992736515
 21
1684.5528548079988
 31
0.0
 11
3171.673499589368
 21
1684.745857278122
 31
0.0
  0
SPLINE
  5
362
100
AcDbEntity
  8
0
  6
CONTINUOUS
 62
           3
100
AcDbSpline
210
0.0
220
0.0
230
1.0
 70
           0
 71
           3
 72
           8
 73
           5
 74
           7
 42
0.00000000001
 43
0.00000000001
 44
0.00000000001
 40
0.0
 40
0.0
 40
0.0
 40
0.2779462752322471
 40
0.7862820883221822
 40
1.5429577306078228
 40
1.5429577306078228
 40
1.5429577306078228
 10
3161.5698696873419
 20
1689.299264708673
 30
0.0
 10
3161.5356531390298
 20
1689.29881900079
 30
0.0
 10
3161.0482408408502
 20
1689.2924699236621
 30
0.0
 10
3160.5706021281821
 20
1689.064581950483
 30
0.0
 10
3160.1264938539748
 20
1688.852691808916
 30
0.0
 11
3161.5698696873419
 21
1689.299264708673
 31
0.0
 11
3161.501132902803
 21
1689.2983693370386
 31
0.0
 11
3161.3633556458099
 21
1689.2965746379014
 31
0.0
 11
3161.0790356162656
 21
1689.2706023138601
 31
0.0
 11
3160.8563051375522
 21
1689.2008947702141
 31
0.0
 11
3160.5310008119732
 21
1689.0456876200242
 31
0.0
 11
3160.1264938539748
 21
1688.852691808916
 31
0.0
  0
SPLINE
  5
361
100
AcDbEntity
  8
0
  6
CONTINUOUS
 62
           3
100
AcDbSpline
210
0.0
220
0.0
230
1.0
 70
           0
 71
           3
 72
           8
 73
           5
 74
           7
 42
0.00000000001
 43
0.00000000001
 44
0.00000000001
 40
0.0
 40
0.0
 40
0.0
 40
0.2779454797525465
 40
0.7862825386955989
 40
1.5429638907265146
 40
1.5429638907265146
 40
1.5429638907265146
 10
3161.5698696873419
 20
1684.299269477048
 30
0.0
 10
3161.6040862319219
 20
1684.299715169306
 30
0.0
 10
3162.0914969500368
 20
1684.306064003963
 30
0.0
 10
3162.5691364171912
 20
1684.5339598584701
 30
0.0
 10
3163.0132452878438
 20
1684.745857278024
 30
0.0
 11
3161.5698696873419
 21
1684.299269477048
 31
0.0
 11
3161.6386061814956
 21
1684.3001648136085
 31
0.0
 11
3161.7763825747961
 21
1684.3019594387738
 31
0.0
 11
3162.0607022116119
 21
1684.3279323730185
 31
0.0
 11
3162.2834323715788
 21
1684.3976420453737
 31
0.0
 11
3162.6087376234509
 21
1684.5528547600845
 31
0.0
 11
3163.0132452878438
 21
1684.745857278024
 31
0.0
  0
SPLINE
  5
360
100
AcDbEntity
  8
0
  6
CONTINUOUS
 62
           3
100
AcDbSpline
210
0.0
220
0.0
230
1.0
 70
           0
 71
           3
 72
           8
 73
           5
 74
           7
 42
0.00000000001
 43
0.00000000001
 44
0.00000000001
 40
0.0
 40
0.0
 40
0.0
 40
1.2475604207816424
 40
2.2257060852935284
 40
2.9354176594310015
 40
2.9354176594310015
 40
2.9354176594310015
 10
3165.8999967216751
 20
1701.899269381666
 30
0.0
 10
3165.1443408647278
 20
1701.845171080106
 30
0.0
 10
3164.1669013821652
 20
1701.775195025007
 30
0.0
 10
3163.2266017763632
 20
1701.512333102572
 30
0.0
 10
3163.0132452878438
 20
1701.452689031267
 30
0.0
 11
3165.8999967216751
 21
1701.899269381666
 31
0.0
 11
3165.1962853948362
 21
1701.8488898507987
 31
0.0
 11
3164.5964631282141
 21
1701.8059478613168
 31
0.0
 11
3164.1380614015402
 21
1701.7447998518073
 31
0.0
 11
3163.6219797136164
 21
1701.6228614958986
 31
0.0
 11
3163.2721071385467
 21
1701.5250541830774
 31
0.0
 11
3163.0132452878438
 21
1701.452689031267
 31
0.0
  0
SPLINE
  5
35F
100
AcDbEntity
  8
0
  6
CONTINUOUS
 62
           3
100
AcDbSpline
210
0.0
220
0.0
230
1.0
 70
           0
 71
           3
 72
           8
 73
           5
 74
           7
 42
0.00000000001
 43
0.00000000001
 44
0.00000000001
 40
0.0
 40
0.0
 40
0.0
 40
1.232129848303652
 40
2.2113525387000728
 40
2.93872039542347
 40
2.93872039542347
 40
2.93872039542347
 10
3168.7867481555081
 20
1701.452689031267
 30
0.0
 10
3168.0674886786469
 20
1701.6328897348151
 30
0.0
 10
3167.1156265865379
 20
1701.871365867833
 30
0.0
 10
3166.138719483095
 20
1701.893789750023
 30
0.0
 10
3165.8999967216751
 20
1701.899269381666
 30
0.0
 11
3168.7867481555081
 21
1701.452689031267
 31
0.0
 11
3168.1147130094209
 21
1701.621058319444
 31
0.0
 11
3167.5371265248832
 21
1701.7657647768797
 31
0.0
 11
3167.0808669612561
 21
1701.8481822386952
 31
0.0
 11
3166.5550881470658
 21
1701.8842324422344
 31
0.0
 11
3166.1831309587328
 21
1701.8927703309867
 31
0.0
 11
3165.8999967216751
 21
1701.899269381666
 31
0.0
  0
SPLINE
  5
35E
100
AcDbEntity
  8
0
  6
CONTINUOUS
 62
           3
100
AcDbSpline
210
0.0
220
0.0
230
1.0
 70
           0
 71
           3
 72
           8
 73
           5
 74
           7
 42
0.00000000001
 43
0.00000000001
 44
0.00000000001
 40
0.0
 40
0.0
 40
0.0
 40
0.7273675739577663
 40
1.7065896374657372
 40
2.9387184666068418
 40
2.9387184666068418
 40
2.9387184666068418
 10
3165.8999967216751
 20
1696.899274150041
 30
0.0
 10
3166.1387194651538
 20
1696.9047538742641
 30
0.0
 10
3167.1156260261
 20
1696.92717812452
 30
0.0
 10
3168.0674885010521
 20
1697.1656497672859
 30
0.0
 10
3168.786748155369
 20
1697.3458470499111
 30
0.0
 11
3165.8999967216751
 21
1696.899274150041
 31
0.0
 11
3166.1831309024901
 21
1696.9057733097186
 31
0.0
 11
3166.5550879579769
 21
1696.9143113403052
 31
0.0
 11
3167.0808665470149
 21
1696.9503612068656
 31
0.0
 11
3167.5371261778837
 21
1697.0327772381179
 31
0.0
 11
3168.1147128338393
 21
1697.1774809556503
 31
0.0
 11
3168.786748155369
 21
1697.3458470499111
 31
0.0
  0
SPLINE
  5
35D
100
AcDbEntity
  8
0
  6
CONTINUOUS
 62
           3
100
AcDbSpline
210
0.0
220
0.0
230
1.0
 70
           0
 71
           3
 72
           8
 73
           5
 74
           7
 42
0.00000000001
 43
0.00000000001
 44
0.00000000001
 40
0.0
 40
0.0
 40
0.0
 40
0.7097104926828723
 40
1.6878550560208825
 40
2.9354142011753641
 40
2.9354142011753641
 40
2.9354142011753641
 10
3163.0132452878438
 20
1697.3458470498599
 30
0.0
 10
3163.2266018489572
 20
1697.286205742349
 30
0.0
 10
3164.166903851652
 20
1697.023355419858
 30
0.0
 10
3165.1443416651759
 20
1696.9533754856211
 30
0.0
 10
3165.8999967216751
 20
1696.899274150041
 30
0.0
 11
3163.0132452878438
 21
1697.3458470498599
 31
0.0
 11
3163.2721074221545
 21
1697.273485196657
 31
0.0
 11
3163.6219807028597
 21
1697.1756822520697
 31
0.0
 11
3164.1380633113731
 21
1697.053748493081
 31
0.0
 11
3164.5964648393301
 21
1696.9926008805382
 31
0.0
 11
3165.1962862228393
 21
1696.9496565004556
 31
0.0
 11
3165.8999967216751
 21
1696.899274150041
 31
0.0
  0
SPLINE
  5
35C
100
AcDbEntity
  8
0
  6
CONTINUOUS
 62
           3
100
AcDbSpline
210
0.0
220
0.0
230
1.0
 70
           0
 71
           3
 72
           8
 73
           5
 74
           7
 42
0.00000000001
 43
0.00000000001
 44
0.00000000001
 40
0.0
 40
0.0
 40
0.0
 40
0.2779453746551819
 40
0.7862815406704111
 40
1.5429606230908295
 40
1.5429606230908295
 40
1.5429606230908295
 10
3170.23012375601
 20
1701.899269381666
 30
0.0
 10
3170.1959072119548
 20
1701.898823683151
 30
0.0
 10
3169.708496704292
 20
1701.8924747620449
 30
0.0
 10
3169.2308571205758
 20
1701.6645828129381
 30
0.0
 10
3168.7867481555081
 20
1701.452689031267
 30
0.0
 11
3170.23012375601
 21
1701.899269381666
 31
0.0
 11
3170.1613872424618
 21
1701.8983740322728
 31
0.0
 11
3170.0236107899282
 21
1701.896579381124
 31
0.0
 11
3169.7392913229332
 21
1701.8706067817802
 31
0.0
 11
3169.5165610932199
 21
1701.800898221906
 31
0.0
 11
3169.1912558724703
 21
1701.6456882197626
 31
0.0
 11
3168.7867481555081
 21
1701.452689031267
 31
0.0
  0
SPLINE
  5
35B
100
AcDbEntity
  8
0
  6
CONTINUOUS
 62
           3
100
AcDbSpline
210
0.0
220
0.0
230
1.0
 70
           0
 71
           3
 72
           8
 73
           5
 74
           7
 42
0.00000000001
 43
0.00000000001
 44
0.00000000001
 40
0.0
 40
0.0
 40
0.0
 40
0.277946275232507
 40
0.7862820883230337
 40
1.5429577306478448
 40
1.5429577306478448
 40
1.5429577306478448
 10
3170.23012375601
 20
1696.899274150041
 30
0.0
 10
3170.2643403043221
 20
1696.8997198579279
 30
0.0
 10
3170.7517526025022
 20
1696.9060689350531
 30
0.0
 10
3171.2293913151698
 20
1697.1339569082349
 30
0.0
 10
3171.673499589368
 20
1697.3458470499111
 30
0.0
 11
3170.23012375601
 21
1696.899274150041
 31
0.0
 11
3170.298860540549
 21
1696.9001695216782
 31
0.0
 11
3170.4366377975421
 21
1696.9019642208154
 31
0.0
 11
3170.7209578270854
 21
1696.9279365448551
 31
0.0
 11
3170.9436883057942
 21
1696.9976440884993
 31
0.0
 11
3171.2689926313756
 21
1697.1528512387201
 31
0.0
 11
3171.673499589368
 21
1697.3458470499111
 31
0.0
  0
SPLINE
  5
35A
100
AcDbEntity
  8
0
  6
CONTINUOUS
 62
           3
100
AcDbSpline
210
0.0
220
0.0
230
1.0
 70
           0
 71
           3
 72
           8
 73
           5
 74
           7
 42
0.00000000001
 43
0.00000000001
 44
0.00000000001
 40
0.0
 40
0.0
 40
0.0
 40
0.2779463803282752
 40
0.7862830863351852
 40
1.5429609982550401
 40
1.5429609982550401
 40
1.5429609982550401
 10
3161.5698696873419
 20
1701.899269381666
 30
0.0
 10
3161.5356531385082
 20
1701.8988236800369
 30
0.0
 10
3161.0482406298729
 20
1701.8924746893581
 30
0.0
 10
3160.5706020337661
 20
1701.664582810788
 30
0.0
 10
3160.1264938539748
 20
1701.452689031205
 30
0.0
 11
3161.5698696873419
 21
1701.899269381666
 31
0.0
 11
3161.5011329221998
 21
1701.8983740228621
 31
0.0
 11
3161.3633557244393
 21
1701.8965793497077
 31
0.0
 11
3161.0790355250742
 21
1701.8706066907662
 31
0.0
 11
3160.8563051161118
 21
1701.800898034641
 31
0.0
 11
3160.5310007594044
 21
1701.6456881718555
 31
0.0
 11
3160.1264938539748
 21
1701.452689031205
 31
0.0
  0
SPLINE
  5
359
100
AcDbEntity
  8
0
  6
CONTINUOUS
 62
           3
100
AcDbSpline
210
0.0
220
0.0
230
1.0
 70
           0
 71
           3
 72
           8
 73
           5
 74
           7
 42
0.00000000001
 43
0.00000000001
 44
0.00000000001
 40
0.0
 40
0.0
 40
0.0
 40
0.2779452695568817
 40
0.786280542659092
 40
1.5429573555011218
 40
1.5429573555011218
 40
1.5429573555011218
 10
3161.5698696873419
 20
1696.899274150041
 30
0.0
 10
3161.6040862308728
 20
1696.89971985481
 30
0.0
 10
3162.0914965280808
 20
1696.9060688623661
 30
0.0
 10
3162.5691362283619
 20
1697.1339569060849
 30
0.0
 10
3163.0132452878438
 20
1697.3458470498599
 30
0.0
 11
3161.5698696873419
 21
1696.899274150041
 31
0.0
 11
3161.6386062202837
 21
1696.9001695122643
 31
0.0
 11
3161.7763827320478
 21
1696.9019641893965
 31
0.0
 11
3162.0607020292232
 21
1696.9279364538409
 31
0.0
 11
3162.2834323286825
 21
1696.9976439012353
 31
0.0
 11
3162.6087375183129
 21
1697.1528511908164
 31
0.0
 11
3163.0132452878438
 21
1697.3458470498599
 31
0.0
  0
SPLINE
  5
358
100
AcDbEntity
  8
0
  6
CONTINUOUS
 62
           3
100
AcDbSpline
210
0.0
220
0.0
230
1.0
 70
           0
 71
           3
 72
           8
 73
           5
 74
           7
 42
0.00000000001
 43
0.00000000001
 44
0.00000000001
 40
0.0
 40
0.0
 40
0.0
 40
1.2475616964938137
 40
2.2257084622400027
 40
2.9354211178800056
 40
2.9354211178800056
 40
2.9354211178800056
 10
3165.8999967216751
 20
1696.899274150041
 30
0.0
 10
3165.1443400642511
 20
1696.8451788824721
 30
0.0
 10
3164.1668989125851
 20
1696.7752067064689
 30
0.0
 10
3163.2266017037659
 20
1696.512333184161
 30
0.0
 10
3163.0132452878438
 20
1696.4526863490621
 30
0.0
 11
3165.8999967216751
 21
1696.899274150041
 31
0.0
 11
3165.1962845668022
 21
1696.848897438693
 31
0.0
 11
3164.5964614170325
 21
1696.805957839787
 31
0.0
 11
3164.1380594916336
 21
1696.7448094333079
 31
0.0
 11
3163.6219787243322
 21
1696.6228664805071
 31
0.0
 11
3163.2721068549272
 21
1696.5250547994726
 31
0.0
 11
3163.0132452878438
 21
1696.4526863490621
 31
0.0
  0
SPLINE
  5
357
100
AcDbEntity
  8
0
  6
CONTINUOUS
 62
           3
100
AcDbSpline
210
0.0
220
0.0
230
1.0
 70
           0
 71
           3
 72
           8
 73
           5
 74
           7
 42
0.00000000001
 43
0.00000000001
 44
0.00000000001
 40
0.0
 40
0.0
 40
0.0
 40
1.2321308673611151
 40
2.211354184659331
 40
2.938722324152252
 40
2.938722324152252
 40
2.938722324152252
 10
3168.7867481555081
 20
1696.4526863490621
 30
0.0
 10
3168.067488856248
 20
1696.632890473579
 30
0.0
 10
3167.1156271469831
 20
1696.8713710968491
 30
0.0
 10
3166.1387195010361
 20
1696.89379461097
 30
0.0
 10
3165.8999967216751
 20
1696.899274150041
 30
0.0
 11
3168.7867481555081
 21
1696.4526863490621
 31
0.0
 11
3168.1147131849793
 21
1696.6210588311887
 31
0.0
 11
3167.5371268719127
 21
1696.7657680285347
 31
0.0
 11
3167.0808673755087
 21
1696.848186920917
 31
0.0
 11
3166.5550883361557
 21
1696.8842374614355
 31
0.0
 11
3166.1831310149755
 21
1696.8927752083541
 31
0.0
 11
3165.8999967216751
 21
1696.899274150041
 31
0.0
  0
SPLINE
  5
356
100
AcDbEntity
  8
0
  6
CONTINUOUS
 62
           3
100
AcDbSpline
210
0.0
220
0.0
230
1.0
 70
           0
 71
           3
 72
           8
 73
           5
 74
           7
 42
0.00000000001
 43
0.00000000001
 44
0.00000000001
 40
0.0
 40
0.0
 40
0.0
 40
0.7273681394929683
 40
1.7065914567910929
 40
2.9387223240351035
 40
2.9387223240351035
 40
2.9387223240351035
 10
3165.8999967216751
 20
1691.899264017256
 30
0.0
 10
3166.1387195010361
 20
1691.904743556327
 30
0.0
 10
3167.1156271469831
 20
1691.927167070452
 30
0.0
 10
3168.067488856248
 20
1692.165647693721
 30
0.0
 10
3168.786748155369
 20
1692.345851818312
 30
0.0
 11
3165.8999967216751
 21
1691.899264017256
 31
0.0
 11
3166.1831310149755
 21
1691.9057629589433
 31
0.0
 11
3166.5550883361557
 21
1691.9143007058633
 31
0.0
 11
3167.0808673755141
 21
1691.9503512463848
 31
0.0
 11
3167.5371268719346
 21
1692.0327701387714
 31
0.0
 11
3168.1147131849502
 21
1692.1774793361315
 31
0.0
 11
3168.786748155369
 21
1692.345851818312
 31
0.0
  0
SPLINE
  5
355
100
AcDbEntity
  8
0
  6
CONTINUOUS
 62
           3
100
AcDbSpline
210
0.0
220
0.0
230
1.0
 70
           0
 71
           3
 72
           8
 73
           5
 74
           7
 42
0.00000000001
 43
0.00000000001
 44
0.00000000001
 40
0.0
 40
0.0
 40
0.0
 40
0.7097107189162996
 40
1.6878556121224828
 40
2.9354150974120836
 40
2.9354150974120836
 40
2.9354150974120836
 10
3163.0132452878438
 20
1692.3458518182349
 30
0.0
 10
3163.2266018694968
 20
1692.2862106756961
 30
0.0
 10
3164.1669045504659
 20
1692.023360915952
 30
0.0
 10
3165.1443418916879
 20
1691.9533721728669
 30
0.0
 10
3165.8999967216751
 20
1691.899264017256
 30
0.0
 11
3163.0132452878438
 21
1692.3458518182349
 31
0.0
 11
3163.2721075078016
 21
1692.2734901482129
 31
0.0
 11
3163.6219810043685
 21
1692.1756874232242
 31
0.0
 11
3164.138063862858
 21
1692.0537529398409
 31
0.0
 11
3164.5964653461324
 21
1691.9926025042366
 31
0.0
 11
3165.1962864627958
 21
1691.9496527168064
 31
0.0
 11
3165.8999967216751
 21
1691.899264017256
 31
0.0
  0
SPLINE
  5
354
100
AcDbEntity
  8
0
  6
CONTINUOUS
 62
           3
100
AcDbSpline
210
0.0
220
0.0
230
1.0
 70
           0
 71
           3
 72
           8
 73
           5
 74
           7
 42
0.00000000001
 43
0.00000000001
 44
0.00000000001
 40
0.0
 40
0.0
 40
0.0
 40
0.2779454797525346
 40
0.7862825386967696
 40
1.5429638907281675
 40
1.5429638907281675
 40
1.5429638907281675
 10
3170.23012375601
 20
1696.899274150041
 30
0.0
 10
3170.19590721143
 20
1696.898828457784
 30
0.0
 10
3169.7084964933151
 20
1696.892479623127
 30
0.0
 10
3169.230857026158
 20
1696.6645837686201
 30
0.0
 10
3168.7867481555081
 20
1696.4526863490621
 30
0.0
 11
3170.23012375601
 21
1696.899274150041
 31
0.0
 11
3170.1613872618568
 21
1696.8983788134815
 31
0.0
 11
3170.0236108685567
 21
1696.8965841883164
 31
0.0
 11
3169.7392912317396
 21
1696.8706112540717
 31
0.0
 11
3169.5165610717722
 21
1696.8009015817163
 31
0.0
 11
3169.1912558198992
 21
1696.6456888670045
 31
0.0
 11
3168.7867481555081
 21
1696.4526863490621
 31
0.0
  0
SPLINE
  5
353
100
AcDbEntity
  8
0
  6
CONTINUOUS
 62
           3
100
AcDbSpline
210
0.0
220
0.0
230
1.0
 70
           0
 71
           3
 72
           8
 73
           5
 74
           7
 42
0.00000000001
 43
0.00000000001
 44
0.00000000001
 40
0.0
 40
0.0
 40
0.0
 40
0.2779464854259485
 40
0.7862840843607923
 40
1.5429642658924829
 40
1.5429642658924829
 40
1.5429642658924829
 10
3170.23012375601
 20
1691.899264017256
 30
0.0
 10
3170.264340305368
 20
1691.8997097126351
 30
0.0
 10
3170.7517530244568
 20
1691.9060586168639
 30
0.0
 10
3171.2293915040032
 20
1692.1339544008231
 30
0.0
 10
3171.673499589368
 20
1692.345851818312
 30
0.0
 11
3170.23012375601
 21
1691.899264017256
 31
0.0
 11
3170.2988605017572
 21
1691.9001593632327
 31
0.0
 11
3170.4366376402845
 21
1691.9019540104046
 31
0.0
 11
3170.7209580094714
 21
1691.9279270042457
 31
0.0
 11
3170.9436883486874
 21
1691.9976367728505
 31
0.0
 11
3171.2689927365159
 21
1692.1528493482022
 31
0.0
 11
3171.673499589368
 21
1692.345851818312
 31
0.0
  0
SPLINE
  5
352
100
AcDbEntity
  8
0
  6
CONTINUOUS
 62
           3
100
AcDbSpline
210
0.0
220
0.0
230
1.0
 70
           0
 71
           3
 72
           8
 73
           5
 74
           7
 42
0.00000000001
 43
0.00000000001
 44
0.00000000001
 40
0.0
 40
0.0
 40
0.0
 40
0.2779464854274496
 40
0.7862840843637134
 40
1.5429642658504874
 40
1.5429642658504874
 40
1.5429642658504874
 10
3161.5698696873419
 20
1696.899274150041
 30
0.0
 10
3161.5356531379839
 20
1696.898828454669
 30
0.0
 10
3161.048240418892
 20
1696.8924795504399
 30
0.0
 10
3160.5706019393492
 20
1696.6645837664739
 30
0.0
 10
3160.1264938539748
 20
1696.4526863491089
 30
0.0
 11
3161.5698696873419
 21
1696.899274150041
 31
0.0
 11
3161.5011329415943
 21
1696.8983788040694
 31
0.0
 11
3161.363355803066
 21
1696.8965841568995
 31
0.0
 11
3161.079035433876
 21
1696.8706111630565
 31
0.0
 11
3160.8563050946559
 21
1696.8009013944475
 31
0.0
 11
3160.5310007068319
 21
1696.6456888191258
 31
0.0
 11
3160.1264938539748
 21
1696.4526863491089
 31
0.0
  0
SPLINE
  5
351
100
AcDbEntity
  8
0
  6
CONTINUOUS
 62
           3
100
AcDbSpline
210
0.0
220
0.0
230
1.0
 70
           0
 71
           3
 72
           8
 73
           5
 74
           7
 42
0.00000000001
 43
0.00000000001
 44
0.00000000001
 40
0.0
 40
0.0
 40
0.0
 40
0.2779454797525598
 40
0.7862825386947563
 40
1.542963890726553
 40
1.542963890726553
 40
1.542963890726553
 10
3161.5698696873419
 20
1691.899264017256
 30
0.0
 10
3161.6040862319219
 20
1691.899709709513
 30
0.0
 10
3162.0914969500368
 20
1691.9060585441739
 30
0.0
 10
3162.5691364171912
 20
1692.1339543986769
 30
0.0
 10
3163.0132452878438
 20
1692.3458518182349
 30
0.0
 11
3161.5698696873419
 21
1691.899264017256
 31
0.0
 11
3161.6386061814956
 21
1691.900159353816
 31
0.0
 11
3161.7763825747961
 21
1691.9019539789822
 31
0.0
 11
3162.0607022116124
 21
1691.9279269132282
 31
0.0
 11
3162.2834323715779
 21
1691.9976365855828
 31
0.0
 11
3162.6087376234509
 21
1692.1528493002929
 31
0.0
 11
3163.0132452878438
 21
1692.3458518182349
 31
0.0
  0
SPLINE
  5
350
100
AcDbEntity
  8
0
  6
CONTINUOUS
 62
           3
100
AcDbSpline
210
0.0
220
0.0
230
1.0
 70
           0
 71
           3
 72
           8
 73
           5
 74
           7
 42
0.00000000001
 43
0.00000000001
 44
0.00000000001
 40
0.0
 40
0.0
 40
0.0
 40
0.4813884775015287
 40
1.3325655942391086
 40
2.5594910572497289
 40
2.5594910572497289
 40
2.5594910572497289
 10
3163.399996777558
 20
1708.4992693459001
 30
0.0
 10
3163.4592615843899
 20
1708.4997150445531
 30
0.0
 10
3164.303481700837
 20
1708.5060639688279
 30
0.0
 10
3165.130777567962
 20
1708.7339559147269
 30
0.0
 10
3165.8999967216751
 20
1708.945849696295
 30
0.0
 11
3163.399996777558
 21
1708.4992693459001
 31
0.0
 11
3163.5206888783659
 21
1708.5001770061087
 31
0.0
 11
3163.7642355671264
 21
1708.5020085894289
 31
0.0
 11
3164.2533839007124
 21
1708.5283858836428
 31
0.0
 11
3164.6423366340487
 21
1708.5994070074867
 31
0.0
 11
3165.2009721229119
 21
1708.7532921333088
 31
0.0
 11
3165.8999967216751
 21
1708.945849696295
 31
0.0
  0
SPLINE
  5
34F
100
AcDbEntity
  8
0
  6
CONTINUOUS
 62
           3
100
AcDbSpline
210
0.0
220
0.0
230
1.0
 70
           0
 71
           3
 72
           8
 73
           5
 74
           7
 42
0.00000000001
 43
0.00000000001
 44
0.00000000001
 40
0.0
 40
0.0
 40
0.0
 40
0.4813883392789984
 40
1.332565392638962
 40
2.5594910488265357
 40
2.5594910488265357
 40
2.5594910488265357
 10
3168.399996665768
 20
1708.4992693459001
 30
0.0
 10
3168.4592614719459
 20
1708.4997150443101
 30
0.0
 10
3169.3034813132931
 20
1708.506063963066
 30
0.0
 10
3170.1307773327831
 20
1708.733955914556
 30
0.0
 10
3170.8999966098668
 20
1708.945849696302
 30
0.0
 11
3168.399996665768
 21
1708.4992693459001
 31
0.0
 11
3168.5206887308832
 21
1708.5001770053502
 31
0.0
 11
3168.7642353138735
 21
1708.5020085868807
 31
0.0
 11
3169.2533835507443
 21
1708.5283858760617
 31
0.0
 11
3169.6423362625169
 21
1708.5994069912342
 31
0.0
 11
3170.2009718844874
 21
1708.7532921291622
 31
0.0
 11
3170.8999966098668
 21
1708.945849696302
 31
0.0
  0
SPLINE
  5
34E
100
AcDbEntity
  8
0
  6
CONTINUOUS
 62
           3
100
AcDbSpline
210
0.0
220
0.0
230
1.0
 70
           0
 71
           3
 72
           8
 73
           5
 74
           7
 42
0.00000000001
 43
0.00000000001
 44
0.00000000001
 40
0.0
 40
0.0
 40
0.0
 40
0.0169507227489021
 40
0.1476151553704312
 40
0.4465803504019732
 40
0.4465803504019732
 40
0.4465803504019732
 10
3160.8999968334392
 20
1708.4992693459001
 30
0.0
 10
3160.8999968334392
 20
1708.5048777711829
 30
0.0
 10
3160.8999968334392
 20
1708.527562366115
 30
0.0
 10
3160.8999968334392
 20
1708.766206636426
 30
0.0
 10
3160.8999968334761
 20
1708.945849696302
 30
0.0
 11
3160.8999968334392
 21
1708.4992693459001
 31
0.0
 11
3160.8999968334392
 21
1708.5041268857317
 31
0.0
 11
3160.8999968334392
 21
1708.5074826546611
 31
0.0
 11
3160.8999968334392
 21
1708.540687321758
 31
0.0
 11
3160.8999968334392
 21
1708.6001419001404
 31
0.0
 11
3160.8999968334483
 21
1708.7696012173237
 31
0.0
 11
3160.8999968334761
 21
1708.945849696302
 31
0.0
  0
SPLINE
  5
34D
100
AcDbEntity
  8
0
  6
CONTINUOUS
 62
           3
100
AcDbSpline
210
0.0
220
0.0
230
1.0
 70
           0
 71
           3
 72
           8
 73
           5
 74
           7
 42
0.00000000001
 43
0.00000000001
 44
0.00000000001
 40
0.0
 40
0.0
 40
0.0
 40
0.298965195031542
 40
0.4296296276530711
 40
0.4465803504019732
 40
0.4465803504019732
 40
0.4465803504019732
 10
3170.8999966098668
 20
1708.945849696302
 30
0.0
 10
3170.8999966099132
 20
1708.766206636426
 30
0.0
 10
3170.8999966099132
 20
1708.527562366115
 30
0.0
 10
3170.8999966099132
 20
1708.5048777711829
 30
0.0
 10
3170.8999966099132
 20
1708.4992693459001
 30
0.0
 11
3170.8999966098668
 21
1708.945849696302
 31
0.0
 11
3170.8999966099018
 21
1708.7696012173237
 31
0.0
 11
3170.8999966099136
 21
1708.6001419001404
 31
0.0
 11
3170.8999966099127
 21
1708.540687321758
 31
0.0
 11
3170.8999966099132
 21
1708.5074826546613
 31
0.0
 11
3170.8999966099132
 21
1708.5041268857317
 31
0.0
 11
3170.8999966099132
 21
1708.4992693459001
 31
0.0
  0
CIRCLE
  5
34C
100
AcDbEntity
  8
1
  6
CONTINUOUS
 62
           7
100
AcDbCircle
 10
3550.000000000004
 20
924.299270073
 40
15.0
  0
CIRCLE
  5
34B
100
AcDbEntity
  8
1
  6
CONTINUOUS
 62
           2
100
AcDbCircle
 10
3550.000000000004
 20
924.299270073
 40
8.350000000001
  0
CIRCLE
  5
34A
100
AcDbEntity
  8
1
  6
CONTINUOUS
 62
           7
100
AcDbCircle
 10
3550.000000000004
 20
924.299270073
 40
7.5
  0
CIRCLE
  5
349
100
AcDbEntity
  8
1
  6
CONTINUOUS
 62
           3
100
AcDbCircle
 10
508.472255321878
 20
1619.500118400053
 40
40.0
  0
CIRCLE
  5
348
100
AcDbEntity
  8
1
  6
CONTINUOUS
 62
           7
100
AcDbCircle
 10
0.0
 20
5610.0
 40
317.5
  0
CIRCLE
  5
347
100
AcDbEntity
  8
1
  6
CONTINUOUS
 62
           4
100
AcDbCircle
 10
-0.000000000002
 20
5610.0
 40
84.123
  0
CIRCLE
  5
346
100
AcDbEntity
  8
1
  6
CONTINUOUS
 62
           4
100
AcDbCircle
 10
-0.000000000002
 20
5610.0
 40
110.700000000001
  0
ARC
  5
345
100
AcDbEntity
  8
1
  6
CONTINUOUS
 62
           7
100
AcDbCircle
 10
2652.000000000004
 20
1581.049270073002
 40
37.0
100
AcDbArc
 50
180.0
 51
-90.0
  0
ARC
  5
344
100
AcDbEntity
  8
1
  6
CONTINUOUS
 62
           7
100
AcDbCircle
 10
2652.000000000004
 20
1581.049270073002
 40
17.0
100
AcDbArc
 50
180.0
 51
-90.0
  0
ARC
  5
343
100
AcDbEntity
  8
1
  6
CONTINUOUS
 62
           3
100
AcDbCircle
 10
508.472255321878
 20
1619.500118400053
 40
28.750000000009
100
AcDbArc
 50
83.827497999997
 51
96.172501999988
  0
ARC
  5
342
100
AcDbEntity
  8
1
  6
CONTINUOUS
 62
           3
100
AcDbCircle
 10
508.472255321878
 20
1619.500118400053
 40
28.749999999988
100
AcDbArc
 50
-96.172501999993
 51
-83.827497999993
  0
ARC
  5
341
100
AcDbEntity
  8
1
  6
CONTINUOUS
 62
           3
100
AcDbCircle
 10
508.472255321878
 20
1619.500118400053
 40
10.75
100
AcDbArc
 50
0.0
 51
61.226492999997
  0
ARC
  5
340
100
AcDbEntity
  8
1
  6
CONTINUOUS
 62
           3
100
AcDbCircle
 10
508.472255321878
 20
1619.500118400053
 40
10.750000000001
100
AcDbArc
 50
-61.226493000019
 51
0.0
  0
ARC
  5
33F
100
AcDbEntity
  8
1
  6
CONTINUOUS
 62
           3
100
AcDbCircle
 10
508.472255321878
 20
1619.500118400053
 40
10.74999999999
100
AcDbArc
 50
118.773506999969
 51
-118.773506999947
  0
ARC
  5
33E
100
AcDbEntity
  8
1
  6
CONTINUOUS
 62
           3
100
AcDbCircle
 10
512.510557321878
 20
1619.500118400053
 40
10.0
100
AcDbArc
 50
174.993206999977
 51
-174.993207000023
  0
ARC
  5
33D
100
AcDbEntity
  8
1
  6
CONTINUOUS
 62
           3
100
AcDbCircle
 10
504.433952321884
 20
1619.500118400053
 40
9.999999999999
100
AcDbArc
 50
-5.006792999977
 51
5.006793000023
  0
ARC
  5
33C
100
AcDbEntity
  8
1
  6
CONTINUOUS
 62
           3
100
AcDbCircle
 10
505.434752321878
 20
1647.586344400053
 40
0.5
100
AcDbArc
 50
96.172501999325
 51
174.99320699856
  0
ARC
  5
33B
100
AcDbEntity
  8
1
  6
CONTINUOUS
 62
           3
100
AcDbCircle
 10
511.509758321877
 20
1647.586344400053
 40
0.500000000004
100
AcDbArc
 50
5.006793001366
 51
83.827497998175
  0
ARC
  5
33A
100
AcDbEntity
  8
1
  6
CONTINUOUS
 62
           3
100
AcDbCircle
 10
505.434752321878
 20
1591.413892400062
 40
0.499999999996
100
AcDbArc
 50
-174.993206999702
 51
-96.172501999317
  0
ARC
  5
339
100
AcDbEntity
  8
1
  6
CONTINUOUS
 62
           3
100
AcDbCircle
 10
511.509758321877
 20
1591.413892400062
 40
0.500000000003
100
AcDbArc
 50
-83.827497998183
 51
-5.006793000224
  0
ARC
  5
338
100
AcDbEntity
  8
0
  6
CONTINUOUS
 62
           3
100
AcDbCircle
 10
3165.899996721671
 20
1679.299270073222
 40
3.999999999996
100
AcDbArc
 50
180.0
 51
0.0
  0
ARC
  5
337
100
AcDbEntity
  8
0
  6
CONTINUOUS
 62
           3
100
AcDbCircle
 10
3165.899996721671
 20
1639.299270073058
 40
45.999999999961
100
AcDbArc
 50
180.0
 51
0.0
  0
ARC
  5
336
100
AcDbEntity
  8
0
  6
CONTINUOUS
 62
           3
100
AcDbCircle
 10
3165.899996721671
 20
1639.299270073058
 40
53.999999999956
100
AcDbArc
 50
180.0
 51
0.0
  0
ARC
  5
335
100
AcDbEntity
  8
0
  6
CONTINUOUS
 62
           3
100
AcDbCircle
 10
3159.426494029876
 20
1714.299270072996
 40
0.900000000001
100
AcDbArc
 50
-117.26604445057
 51
-90.0
  0
ARC
  5
334
100
AcDbEntity
  8
0
  6
CONTINUOUS
 62
           3
100
AcDbCircle
 10
3172.373499413467
 20
1714.299270072996
 40
0.900000000001
100
AcDbArc
 50
-90.0
 51
-62.73395554943
  0
ARC
  5
333
100
AcDbEntity
  8
0
  6
CONTINUOUS
 62
           3
100
AcDbCircle
 10
3107.899996721819
 20
1855.29927007288
 40
0.999999999996
100
AcDbArc
 50
-90.0
 51
90.0
  0
ARC
  5
332
100
AcDbEntity
  8
0
  6
CONTINUOUS
 62
           3
100
AcDbCircle
 10
3223.899996721524
 20
1855.29927007288
 40
1.0
100
AcDbArc
 50
90.0
 51
-90.0
  0
ARC
  5
331
100
AcDbEntity
  8
0
  6
CONTINUOUS
 62
           3
100
AcDbCircle
 10
3223.899996721524
 20
1833.299270072996
 40
1.0
100
AcDbArc
 50
90.0
 51
-90.0
  0
ARC
  5
330
100
AcDbEntity
  8
0
  6
CONTINUOUS
 62
           3
100
AcDbCircle
 10
3223.899996721524
 20
1755.299270073062
 40
0.999999999996
100
AcDbArc
 50
90.0
 51
-90.0
  0
ARC
  5
32F
100
AcDbEntity
  8
0
  6
CONTINUOUS
 62
           3
100
AcDbCircle
 10
3223.899996721524
 20
1733.299270073178
 40
1.0
100
AcDbArc
 50
90.0
 51
-90.0
  0
ARC
  5
32E
100
AcDbEntity
  8
0
  6
CONTINUOUS
 62
           3
100
AcDbCircle
 10
3107.899996721819
 20
1733.299270073178
 40
0.999999999996
100
AcDbArc
 50
-90.0
 51
90.0
  0
ARC
  5
32D
100
AcDbEntity
  8
0
  6
CONTINUOUS
 62
           3
100
AcDbCircle
 10
3107.899996721819
 20
1755.299270073062
 40
1.0
100
AcDbArc
 50
-90.0
 51
90.0
  0
ARC
  5
32C
100
AcDbEntity
  8
0
  6
CONTINUOUS
 62
           3
100
AcDbCircle
 10
3107.899996721819
 20
1833.299270072996
 40
0.999999999996
100
AcDbArc
 50
-90.0
 51
90.0
  0
ARC
  5
32B
100
AcDbEntity
  8
0
  6
CONTINUOUS
 62
           3
100
AcDbCircle
 10
3103.399996721822
 20
1692.299270073113
 40
2.499999999997
100
AcDbArc
 50
0.0
 51
180.0
  0
ARC
  5
32A
100
AcDbEntity
  8
0
  6
CONTINUOUS
 62
           3
100
AcDbCircle
 10
3103.399996721822
 20
1956.299270072898
 40
2.499999999996
100
AcDbArc
 50
180.0
 51
0.0
  0
ARC
  5
329
100
AcDbEntity
  8
0
  6
CONTINUOUS
 62
           3
100
AcDbCircle
 10
3228.39999672152
 20
1956.299270072898
 40
2.499999999998
100
AcDbArc
 50
180.0
 51
0.0
  0
ARC
  5
328
100
AcDbEntity
  8
0
  6
CONTINUOUS
 62
           3
100
AcDbCircle
 10
3228.39999672152
 20
1692.299270073113
 40
2.499999999997
100
AcDbArc
 50
0.0
 51
180.0
  0
ARC
  5
327
100
AcDbEntity
  8
1
  6
CONTINUOUS
 62
           3
100
AcDbCircle
 10
3670.163567691041
 20
2249.299270073
 40
5.871834995066
100
AcDbArc
 50
-90.0
 51
0.0
  0
ARC
  5
326
100
AcDbEntity
  8
1
  6
CONTINUOUS
 62
           3
100
AcDbCircle
 10
3670.163567691041
 20
2249.299270073
 40
5.871834995067
100
AcDbArc
 50
38.599713917933
 51
90.0
  0
ARC
  5
325
100
AcDbEntity
  8
1
  6
CONTINUOUS
 62
           3
100
AcDbCircle
 10
3670.163567691041
 20
2249.299270073
 40
5.871834995067
100
AcDbArc
 50
0.0
 51
38.599713917933
  0
ARC
  5
324
100
AcDbEntity
  8
1
  6
CONTINUOUS
 62
           3
100
AcDbCircle
 10
3670.163567691041
 20
2249.299270073
 40
9.5
100
AcDbArc
 50
0.0
 51
125.916957371426
  0
ARC
  5
323
100
AcDbEntity
  8
1
  6
CONTINUOUS
 62
           3
100
AcDbCircle
 10
3670.163567691041
 20
2249.299270073
 40
9.499999999999
100
AcDbArc
 50
-124.797812779177
 51
0.0
  0
ARC
  5
322
100
AcDbEntity
  8
7
  6
CONTINUOUS
 62
           7
100
AcDbCircle
 10
-105.799999999999
 20
3211.710627073001
 40
6.2
100
AcDbArc
 50
122.681915000002
 51
180.0
  0
ARC
  5
321
100
AcDbEntity
  8
7
  6
CONTINUOUS
 62
           7
100
AcDbCircle
 10
-84.750000000001
 20
3233.249270073
 40
3.053686296921
100
AcDbArc
 50
87.184443315762
 51
177.184443315751
  0
ARC
  5
320
100
AcDbEntity
  8
7
  6
CONTINUOUS
 62
           7
100
AcDbCircle
 10
-89.799999999999
 20
3233.640404073002
 40
2.000000000001
100
AcDbArc
 50
-55.000000000025
 51
0.0
  0
ARC
  5
31F
100
AcDbEntity
  8
7
  6
CONTINUOUS
 62
           7
100
AcDbCircle
 10
82.250000000002
 20
3233.249270073
 40
3.053686296919
100
AcDbArc
 50
2.815556684249
 51
92.815556684238
  0
ARC
  5
31E
100
AcDbEntity
  8
7
  6
CONTINUOUS
 62
           7
100
AcDbCircle
 10
87.300000000001
 20
3233.640404073002
 40
2.0
100
AcDbArc
 50
180.0
 51
-124.999999999975
  0
ARC
  5
31D
100
AcDbEntity
  8
7
  6
CONTINUOUS
 62
           7
100
AcDbCircle
 10
107.923187000001
 20
3217.099270073003
 40
2.000000000001
100
AcDbArc
 50
-124.999999999982
 51
-90.0
  0
ARC
  5
31C
100
AcDbEntity
  8
7
  6
CONTINUOUS
 62
           7
100
AcDbCircle
 10
108.800000000001
 20
3211.899270073002
 40
3.2
100
AcDbArc
 50
0.0
 51
90.0
  0
ARC
  5
31B
100
AcDbEntity
  8
7
  6
CONTINUOUS
 62
           7
100
AcDbCircle
 10
3965.800000000003
 20
3211.410627073
 40
6.200000000001
100
AcDbArc
 50
0.0
 51
57.318085000001
  0
ARC
  5
31A
100
AcDbEntity
  8
7
  6
CONTINUOUS
 62
           7
100
AcDbCircle
 10
3944.600000000005
 20
3233.099270072999
 40
3.199999999998
100
AcDbArc
 50
0.0
 51
90.0
  0
ARC
  5
319
100
AcDbEntity
  8
7
  6
CONTINUOUS
 62
           7
100
AcDbCircle
 10
3949.800000000003
 20
3233.340404072999
 40
2.0
100
AcDbArc
 50
180.0
 51
-125.000000000013
  0
ARC
  5
318
100
AcDbEntity
  8
7
  6
CONTINUOUS
 62
           7
100
AcDbCircle
 10
3777.900000000004
 20
3233.099270072999
 40
3.200000000002
100
AcDbArc
 50
90.0
 51
180.0
  0
ARC
  5
317
100
AcDbEntity
  8
7
  6
CONTINUOUS
 62
           7
100
AcDbCircle
 10
3772.700000000003
 20
3233.340404072999
 40
1.999999999999
100
AcDbArc
 50
-54.999999999944
 51
0.0
  0
ARC
  5
316
100
AcDbEntity
  8
7
  6
CONTINUOUS
 62
           7
100
AcDbCircle
 10
3752.076813000004
 20
3216.799270073002
 40
2.0
100
AcDbArc
 50
-90.0
 51
-55.000000000049
  0
ARC
  5
315
100
AcDbEntity
  8
7
  6
CONTINUOUS
 62
           7
100
AcDbCircle
 10
3751.200000000003
 20
3211.599270072999
 40
3.200000000003
100
AcDbArc
 50
90.0
 51
180.0
  0
ARC
  5
314
100
AcDbEntity
  8
1
  6
CONTINUOUS
 62
           7
100
AcDbCircle
 10
-0.000000000002
 20
5610.0
 40
125.0
100
AcDbArc
 50
19.47546158221
 51
90.0
  0
ARC
  5
313
100
AcDbEntity
  8
1
  6
CONTINUOUS
 62
           7
100
AcDbCircle
 10
-0.000000000002
 20
5610.0
 40
125.0
100
AcDbArc
 50
90.0
 51
-19.47546158221
  0
ARC
  5
312
100
AcDbEntity
  8
1
  6
CONTINUOUS
 62
           7
100
AcDbCircle
 10
54.999999999999
 20
5594.999999999998
 40
360.0
100
AcDbArc
 50
-1.498629881627
 51
0.0
  0
ARC
  5
311
100
AcDbEntity
  8
1
  6
CONTINUOUS
 62
           7
100
AcDbCircle
 10
160.551161566787
 20
5939.1786633304
 40
5.0
100
AcDbArc
 50
163.348397297227
 51
-17.447383814438
  0
ARC
  5
310
100
AcDbEntity
  8
1
  6
CONTINUOUS
 62
           7
100
AcDbCircle
 10
54.999999999999
 20
5594.999999999998
 40
360.000000000001
100
AcDbArc
 50
18.095065654746
 51
72.15472562971
  0
ARC
  5
30F
100
AcDbEntity
  8
1
  6
CONTINUOUS
 62
           7
100
AcDbCircle
 10
54.999999999999
 20
5594.999999999998
 40
360.000000000001
100
AcDbArc
 50
0.0
 51
16.503503431389
  0
ARC
  5
30E
100
AcDbEntity
  8
1
  6
CONTINUOUS
 62
           7
100
AcDbCircle
 10
398.7152245979
 20
5702.050662677139
 40
5.0
100
AcDbArc
 50
107.697175098909
 51
-73.098606012765
  0
ARC
  5
30D
100
AcDbEntity
  8
1
  6
CONTINUOUS
 62
           7
100
AcDbCircle
 10
413.41903650011
 20
5537.103069526533
 40
5.0
100
AcDbArc
 50
90.0
 51
-95.092511460493
  0
ARC
  5
30C
100
AcDbEntity
  8
1
  6
CONTINUOUS
 62
           7
100
AcDbCircle
 10
413.41903650011
 20
5537.103069526533
 40
5.000000000001
100
AcDbArc
 50
85.537115658268
 51
90.0
  0
ARC
  5
30B
100
AcDbEntity
  8
1
  6
CONTINUOUS
 62
           7
100
AcDbCircle
 10
-42.747816968457
 20
5572.499999999999
 40
457.508251836064
100
AcDbArc
 50
-89.655876673074
 51
-5.063201692938
  0
ARC
  5
30A
100
AcDbEntity
  8
1
  6
CONTINUOUS
 62
           7
100
AcDbCircle
 10
-40.0
 20
5659.999999999998
 40
540.0
100
AcDbArc
 50
180.0
 51
-175.217743666854
  0
ARC
  5
309
100
AcDbEntity
  8
1
  6
CONTINUOUS
 62
           7
100
AcDbCircle
 10
-577.680202350803
 20
5610.0
 40
5.000000000001
100
AcDbArc
 50
-84.421966108667
 51
90.0
  0
ARC
  5
308
100
AcDbEntity
  8
1
  6
CONTINUOUS
 62
           7
100
AcDbCircle
 10
-577.680202350803
 20
5610.0
 40
5.0
100
AcDbArc
 50
90.0
 51
95.047515519199
  0
ARC
  5
307
100
AcDbEntity
  8
1
  6
CONTINUOUS
 62
           7
100
AcDbCircle
 10
-37.231092924515
 20
5657.499999999998
 40
542.507066171854
100
AcDbArc
 50
-174.449140676885
 51
-90.292433754283
  0
ARC
  5
306
100
AcDbEntity
  8
1
  6
CONTINUOUS
 62
           7
100
AcDbCircle
 10
54.999999999999
 20
5594.999999999998
 40
360.000000000001
100
AcDbArc
 50
73.746287853067
 51
93.901683355293
  0
ARC
  5
305
100
AcDbEntity
  8
1
  6
CONTINUOUS
 62
           7
100
AcDbCircle
 10
-40.0
 20
5574.999999999998
 40
454.999999999998
100
AcDbArc
 50
-4.148070782362
 51
1.333022116547
  0
LINE
  5
304
100
AcDbEntity
  8
1
  6
CONTINUOUS
 62
           7
100
AcDbLine
 10
750.0
 20
2088.043840059044
 11
-750.0
 21
2088.043840059044
  0
LINE
  5
303
100
AcDbEntity
  8
1
  6
CONTINUOUS
 62
           7
100
AcDbLine
 10
575.0
 20
1970.582262460803
 11
-575.0
 21
1970.582262460803
  0
LINE
  5
302
100
AcDbEntity
  8
1
  6
CONTINUOUS
 62
           7
100
AcDbLine
 10
-575.0
 20
1265.812796871368
 11
-575.0
 21
1970.582262460803
  0
LINE
  5
301
100
AcDbEntity
  8
1
  6
CONTINUOUS
 62
           7
100
AcDbLine
 10
575.0
 20
1265.812796871368
 11
575.0
 21
1970.582262460803
  0
LINE
  5
300
100
AcDbEntity
  8
1
  6
CONTINUOUS
 62
           7
100
AcDbLine
 10
-575.0
 20
1265.812796871368
 11
575.0
 21
1265.812796871368
  0
LINE
  5
2FF
100
AcDbEntity
  8
___S__
  6
DOT_CENTER
 62
           3
100
AcDbLine
 10
-574.999999999976
 20
1945.352107359498
 11
-574.999999999977
 21
1860.35639712839
  0
LINE
  5
2FE
100
AcDbEntity
  8
____
  6
CONTINUOUS
 62
           3
100
AcDbLine
 10
-569.595947044857
 20
1938.748345579232
 11
-569.595947044857
 21
1936.870414831109
  0
LINE
  5
2FD
100
AcDbEntity
  8
____
  6
CONTINUOUS
 62
           3
100
AcDbLine
 10
-579.91277541372
 20
1939.217828266264
 11
-570.087224586231
 21
1939.217828266264
  0
LINE
  5
2FC
100
AcDbEntity
  8
____
  6
CONTINUOUS
 62
           3
100
AcDbLine
 10
-580.404052955095
 20
1936.87041483111
 11
-580.404052955095
 21
1938.748345579232
  0
LINE
  5
2FB
100
AcDbEntity
  8
____
  6
CONTINUOUS
 62
           3
100
AcDbLine
 10
-569.497691536592
 20
1901.189730616778
 11
-580.502308463369
 21
1901.189730616778
  0
LINE
  5
2FA
100
AcDbEntity
  8
____
  6
CONTINUOUS
 62
           3
100
AcDbLine
 10
-569.497691536591
 20
1936.870414831109
 11
-569.497691536592
 21
1901.189730616778
  0
LINE
  5
2F9
100
AcDbEntity
  8
____
  6
CONTINUOUS
 62
           3
100
AcDbLine
 10
-580.502308463368
 20
1936.87041483111
 11
-569.497691536591
 21
1936.870414831109
  0
LINE
  5
2F8
100
AcDbEntity
  8
____
  6
CONTINUOUS
 62
           3
100
AcDbLine
 10
-580.502308463369
 20
1901.189730616778
 11
-580.502308463368
 21
1936.87041483111
  0
LINE
  5
2F7
100
AcDbEntity
  8
____
  6
CONTINUOUS
 62
           3
100
AcDbLine
 10
-580.404052955096
 20
1862.69215028026
 11
-580.404052955096
 21
1864.570081028383
  0
LINE
  5
2F6
100
AcDbEntity
  8
____
  6
CONTINUOUS
 62
           3
100
AcDbLine
 10
-570.087224586232
 20
1862.222667593231
 11
-579.912775413721
 21
1862.222667593231
  0
LINE
  5
2F5
100
AcDbEntity
  8
____
  6
CONTINUOUS
 62
           3
100
AcDbLine
 10
-569.595947044858
 20
1864.570081028383
 11
-569.595947044858
 21
1862.69215028026
  0
LINE
  5
2F4
100
AcDbEntity
  8
____
  6
CONTINUOUS
 62
           3
100
AcDbLine
 10
-580.158414184408
 20
1901.189730616778
 11
-580.158414184408
 21
1900.250765242716
  0
LINE
  5
2F3
100
AcDbEntity
  8
____
  6
CONTINUOUS
 62
           3
100
AcDbLine
 10
-569.841585815545
 20
1901.189730616778
 11
-580.158414184408
 21
1901.189730616778
  0
LINE
  5
2F2
100
AcDbEntity
  8
____
  6
CONTINUOUS
 62
           3
100
AcDbLine
 10
-569.841585815545
 20
1900.250765242716
 11
-569.841585815545
 21
1901.189730616778
  0
LINE
  5
2F1
100
AcDbEntity
  8
____
  6
CONTINUOUS
 62
           3
100
AcDbLine
 10
-580.404052955095
 20
1938.748345579232
 11
-569.595947044857
 21
1938.748345579232
  0
LINE
  5
2F0
100
AcDbEntity
  8
____
  6
CONTINUOUS
 62
           3
100
AcDbLine
 10
-580.502308463369
 20
1900.250765242716
 11
-569.497691536592
 21
1900.250765242716
  0
LINE
  5
2EF
100
AcDbEntity
  8
____
  6
CONTINUOUS
 62
           3
100
AcDbLine
 10
-580.502308463369
 20
1864.570081028383
 11
-580.502308463369
 21
1900.250765242716
  0
LINE
  5
2EE
100
AcDbEntity
  8
____
  6
CONTINUOUS
 62
           3
100
AcDbLine
 10
-569.497691536592
 20
1864.570081028383
 11
-580.502308463369
 21
1864.570081028383
  0
LINE
  5
2ED
100
AcDbEntity
  8
____
  6
CONTINUOUS
 62
           3
100
AcDbLine
 10
-569.497691536592
 20
1900.250765242716
 11
-569.497691536592
 21
1864.570081028383
  0
LINE
  5
2EC
100
AcDbEntity
  8
____
  6
CONTINUOUS
 62
           3
100
AcDbLine
 10
-580.404052955095
 20
1938.748345579232
 11
-579.91277541372
 21
1939.217828266264
  0
LINE
  5
2EB
100
AcDbEntity
  8
____
  6
CONTINUOUS
 62
           3
100
AcDbLine
 10
-570.087224586231
 20
1939.217828266264
 11
-569.595947044857
 21
1938.748345579232
  0
LINE
  5
2EA
100
AcDbEntity
  8
____
  6
CONTINUOUS
 62
           3
100
AcDbLine
 10
-579.912775413721
 20
1862.222667593231
 11
-580.404052955096
 21
1862.69215028026
  0
LINE
  5
2E9
100
AcDbEntity
  8
____
  6
CONTINUOUS
 62
           3
100
AcDbLine
 10
-569.595947044858
 20
1862.69215028026
 11
-570.087224586232
 21
1862.222667593231
  0
LINE
  5
2E8
100
AcDbEntity
  8
____
  6
CONTINUOUS
 62
           3
100
AcDbLine
 10
-580.404052955096
 20
1862.69215028026
 11
-569.595947044858
 21
1862.69215028026
  0
LINE
  5
2E7
100
AcDbEntity
  8
____
  6
CONTINUOUS
 62
           3
100
AcDbLine
 10
-580.40405295512
 20
1308.702579590207
 11
-569.595947044882
 21
1308.702579590207
  0
LINE
  5
2E6
100
AcDbEntity
  8
____
  6
CONTINUOUS
 62
           3
100
AcDbLine
 10
-569.595947044882
 20
1308.702579590207
 11
-570.087224586257
 21
1308.233096903176
  0
LINE
  5
2E5
100
AcDbEntity
  8
____
  6
CONTINUOUS
 62
           3
100
AcDbLine
 10
-579.912775413746
 20
1308.233096903176
 11
-580.40405295512
 21
1308.702579590207
  0
LINE
  5
2E4
100
AcDbEntity
  8
____
  6
CONTINUOUS
 62
           3
100
AcDbLine
 10
-570.087224586255
 20
1385.22825757621
 11
-569.59594704488
 21
1384.758774889179
  0
LINE
  5
2E3
100
AcDbEntity
  8
____
  6
CONTINUOUS
 62
           3
100
AcDbLine
 10
-580.404052955118
 20
1384.758774889179
 11
-579.912775413744
 21
1385.22825757621
  0
LINE
  5
2E2
100
AcDbEntity
  8
____
  6
CONTINUOUS
 62
           3
100
AcDbLine
 10
-569.497691536608
 20
1346.261194552662
 11
-569.497691536609
 21
1310.58051033833
  0
LINE
  5
2E1
100
AcDbEntity
  8
____
  6
CONTINUOUS
 62
           3
100
AcDbLine
 10
-569.497691536609
 20
1310.58051033833
 11
-580.502308463385
 21
1310.58051033833
  0
LINE
  5
2E0
100
AcDbEntity
  8
____
  6
CONTINUOUS
 62
           3
100
AcDbLine
 10
-580.502308463385
 20
1310.58051033833
 11
-580.502308463384
 21
1346.261194552662
  0
LINE
  5
2DF
100
AcDbEntity
  8
____
  6
CONTINUOUS
 62
           3
100
AcDbLine
 10
-580.502308463384
 20
1346.261194552662
 11
-569.497691536608
 21
1346.261194552662
  0
LINE
  5
2DE
100
AcDbEntity
  8
____
  6
CONTINUOUS
 62
           3
100
AcDbLine
 10
-580.404052955118
 20
1384.758774889179
 11
-569.59594704488
 21
1384.758774889179
  0
LINE
  5
2DD
100
AcDbEntity
  8
____
  6
CONTINUOUS
 62
           3
100
AcDbLine
 10
-569.841585815569
 20
1346.261194552662
 11
-569.841585815569
 21
1347.200159926723
  0
LINE
  5
2DC
100
AcDbEntity
  8
____
  6
CONTINUOUS
 62
           3
100
AcDbLine
 10
-569.841585815569
 20
1347.200159926723
 11
-580.158414184432
 21
1347.200159926724
  0
LINE
  5
2DB
100
AcDbEntity
  8
____
  6
CONTINUOUS
 62
           3
100
AcDbLine
 10
-580.158414184432
 20
1347.200159926724
 11
-580.158414184432
 21
1346.261194552662
  0
LINE
  5
2DA
100
AcDbEntity
  8
____
  6
CONTINUOUS
 62
           3
100
AcDbLine
 10
-569.595947044882
 20
1310.58051033833
 11
-569.595947044882
 21
1308.702579590207
  0
LINE
  5
2D9
100
AcDbEntity
  8
____
  6
CONTINUOUS
 62
           3
100
AcDbLine
 10
-570.087224586257
 20
1308.233096903176
 11
-579.912775413746
 21
1308.233096903176
  0
LINE
  5
2D8
100
AcDbEntity
  8
____
  6
CONTINUOUS
 62
           3
100
AcDbLine
 10
-580.40405295512
 20
1308.702579590207
 11
-580.40405295512
 21
1310.58051033833
  0
LINE
  5
2D7
100
AcDbEntity
  8
____
  6
CONTINUOUS
 62
           3
100
AcDbLine
 10
-580.502308463384
 20
1347.200159926724
 11
-580.502308463383
 21
1382.880844141057
  0
LINE
  5
2D6
100
AcDbEntity
  8
____
  6
CONTINUOUS
 62
           3
100
AcDbLine
 10
-580.502308463383
 20
1382.880844141057
 11
-569.497691536607
 21
1382.880844141057
  0
LINE
  5
2D5
100
AcDbEntity
  8
____
  6
CONTINUOUS
 62
           3
100
AcDbLine
 10
-569.497691536607
 20
1382.880844141057
 11
-569.497691536608
 21
1347.200159926723
  0
LINE
  5
2D4
100
AcDbEntity
  8
____
  6
CONTINUOUS
 62
           3
100
AcDbLine
 10
-569.497691536608
 20
1347.200159926723
 11
-580.502308463384
 21
1347.200159926724
  0
LINE
  5
2D3
100
AcDbEntity
  8
____
  6
CONTINUOUS
 62
           3
100
AcDbLine
 10
-580.404052955118
 20
1382.880844141057
 11
-580.404052955118
 21
1384.758774889179
  0
LINE
  5
2D2
100
AcDbEntity
  8
____
  6
CONTINUOUS
 62
           3
100
AcDbLine
 10
-579.912775413744
 20
1385.22825757621
 11
-570.087224586255
 21
1385.22825757621
  0
LINE
  5
2D1
100
AcDbEntity
  8
____
  6
CONTINUOUS
 62
           3
100
AcDbLine
 10
-569.59594704488
 20
1384.758774889179
 11
-569.59594704488
 21
1382.880844141057
  0
LINE
  5
2D0
100
AcDbEntity
  8
___S__
  6
DOT_CENTER
 62
           3
100
AcDbLine
 10
-574.999999999999
 20
1391.362536669461
 11
-575.000000000001
 21
1306.366826438336
  0
LINE
  5
2CF
100
AcDbEntity
  8
1
  6
CONTINUOUS
 62
           7
100
AcDbLine
 10
960.000000000001
 20
4250.0
 11
800.000000000001
 21
4250.0
  0
LINE
  5
2CE
100
AcDbEntity
  8
1
  6
CONTINUOUS
 62
           7
100
AcDbLine
 10
960.000000000001
 20
4450.0
 11
960.000000000001
 21
4250.0
  0
LINE
  5
2CD
100
AcDbEntity
  8
1
  6
CONTINUOUS
 62
           7
100
AcDbLine
 10
800.000000000001
 20
4450.0
 11
960.000000000001
 21
4450.0
  0
LINE
  5
2CC
100
AcDbEntity
  8
1
  6
CONTINUOUS
 62
           7
100
AcDbLine
 10
960.000000000001
 20
1624.299270073002
 11
800.000000000001
 21
1624.299270073002
  0
LINE
  5
2CB
100
AcDbEntity
  8
1
  6
CONTINUOUS
 62
           7
100
AcDbLine
 10
960.000000000001
 20
2024.299270073002
 11
960.000000000001
 21
1624.299270073002
  0
LINE
  5
2CA
100
AcDbEntity
  8
1
  6
CONTINUOUS
 62
           7
100
AcDbLine
 10
800.000000000001
 20
2024.299270073002
 11
960.000000000001
 21
2024.299270073002
  0
LINE
  5
2C9
100
AcDbEntity
  8
1
  6
CONTINUOUS
 62
           4
100
AcDbLine
 10
2700.000000000004
 20
1624.299270073002
 11
2730.000000000004
 21
1624.299270073002
  0
LINE
  5
2C8
100
AcDbEntity
  8
1
  6
CONTINUOUS
 62
           4
100
AcDbLine
 10
2700.000000000004
 20
2024.299270073002
 11
2730.000000000004
 21
2024.299270073002
  0
LINE
  5
2C7
100
AcDbEntity
  8
1
  6
CONTINUOUS
 62
           7
100
AcDbLine
 10
2700.000000000004
 20
2024.299270073002
 11
2700.000000000004
 21
1624.299270073002
  0
LINE
  5
2C6
100
AcDbEntity
  8
1
  6
CONTINUOUS
 62
           7
100
AcDbLine
 10
2500.000000000004
 20
2024.299270073002
 11
2700.000000000004
 21
2024.299270073002
  0
LINE
  5
2C5
100
AcDbEntity
  8
1
  6
CONTINUOUS
 62
           7
100
AcDbLine
 10
2500.000000000004
 20
1624.299270073002
 11
2500.000000000004
 21
2024.299270073002
  0
LINE
  5
2C4
100
AcDbEntity
  8
1
  6
CONTINUOUS
 62
           7
100
AcDbLine
 10
2700.000000000004
 20
1624.299270073002
 11
2500.000000000004
 21
1624.299270073002
  0
LINE
  5
2C3
100
AcDbEntity
  8
1
  6
CONTINUOUS
 62
           7
100
AcDbLine
 10
2652.000000000004
 20
1544.049270073002
 11
2730.000000000004
 21
1544.049270073002
  0
LINE
  5
2C2
100
AcDbEntity
  8
1
  6
CONTINUOUS
 62
           7
100
AcDbLine
 10
2635.000000000004
 20
1581.049270073002
 11
2635.000000000004
 21
1594.299270073002
  0
LINE
  5
2C1
100
AcDbEntity
  8
1
  6
CONTINUOUS
 62
           7
100
AcDbLine
 10
2612.500000000004
 20
1594.299270073002
 11
2637.500000000004
 21
1594.299270073002
  0
LINE
  5
2C0
100
AcDbEntity
  8
1
  6
CONTINUOUS
 62
           7
100
AcDbLine
 10
2615.000000000004
 20
1594.299270073002
 11
2615.000000000004
 21
1581.049270073002
  0
LINE
  5
2BF
100
AcDbEntity
  8
1
  6
CONTINUOUS
 62
           7
100
AcDbLine
 10
2652.000000000004
 20
1564.049270073002
 11
2730.000000000004
 21
1564.049270073002
  0
LINE
  5
2BE
100
AcDbEntity
  8
1
  6
CONTINUOUS
 62
           7
100
AcDbLine
 10
750.0
 20
4020.0
 11
750.0
 21
5000.0
  0
LINE
  5
2BD
100
AcDbEntity
  8
1
  6
CONTINUOUS
 62
           7
100
AcDbLine
 10
-750.0
 20
4020.0
 11
-750.0
 21
5000.0
  0
LINE
  5
2BC
100
AcDbEntity
  8
1
  6
CONTINUOUS
 62
           7
100
AcDbLine
 10
2612.500000000004
 20
1594.299270073002
 11
2637.500000000004
 21
1594.299270073002
  0
LINE
  5
2BB
100
AcDbEntity
  8
1
  6
CONTINUOUS
 62
           7
100
AcDbLine
 10
2637.500000000004
 20
1624.299270073002
 11
2637.500000000004
 21
1594.299270073002
  0
LINE
  5
2BA
100
AcDbEntity
  8
1
  6
CONTINUOUS
 62
           7
100
AcDbLine
 10
2612.500000000004
 20
1624.299270073002
 11
2612.500000000004
 21
1594.299270073002
  0
LINE
  5
2B9
100
AcDbEntity
  8
1
  6
CONTINUOUS
 62
           7
100
AcDbLine
 10
-570.0
 20
6000.0
 11
-800.0
 21
6000.0
  0
LINE
  5
2B8
100
AcDbEntity
  8
1
  6
CONTINUOUS
 62
           7
100
AcDbLine
 10
-800.0
 20
2474.299270073
 11
-800.0
 21
324.299270073
  0
LINE
  5
2B7
100
AcDbEntity
  8
1
  6
CONTINUOUS
 62
           7
100
AcDbLine
 10
2980.000000000004
 20
1914.299270072999
 11
2980.000000000004
 21
1674.299270072999
  0
LINE
  5
2B6
100
AcDbEntity
  8
1
  6
CONTINUOUS
 62
           7
100
AcDbLine
 10
2800.000000000004
 20
1674.299270072999
 11
2800.000000000004
 21
1914.299270072999
  0
LINE
  5
2B5
100
AcDbEntity
  8
1
  6
CONTINUOUS
 62
           7
100
AcDbLine
 10
2800.000000000004
 20
1914.299270072999
 11
2980.000000000004
 21
1914.299270072999
  0
LINE
  5
2B4
100
AcDbEntity
  8
1
  6
CONTINUOUS
 62
           7
100
AcDbLine
 10
2980.000000000004
 20
1674.299270072999
 11
2800.000000000004
 21
1674.299270072999
  0
LINE
  5
2B3
100
AcDbEntity
  8
1
  6
CONTINUOUS
 62
           7
100
AcDbLine
 10
2490.000000000004
 20
2274.299270073
 11
2300.000000000004
 21
2274.299270073
  0
LINE
  5
2B2
100
AcDbEntity
  8
1
  6
CONTINUOUS
 62
           7
100
AcDbLine
 10
2300.000000000004
 20
2274.299270073
 11
2300.000000000004
 21
2186.299270073
  0
LINE
  5
2B1
100
AcDbEntity
  8
1
  6
CONTINUOUS
 62
           7
100
AcDbLine
 10
2300.000000000004
 20
2186.299270073
 11
2490.000000000004
 21
2186.299270073
  0
LINE
  5
2B0
100
AcDbEntity
  8
1
  6
CONTINUOUS
 62
           7
100
AcDbLine
 10
2490.000000000004
 20
2186.299270073
 11
2490.000000000004
 21
2274.299270073
  0
LINE
  5
2AF
100
AcDbEntity
  8
1
  6
CONTINUOUS
 62
           4
100
AcDbLine
 10
2250.000000000004
 20
2364.299270073
 11
3250.000000000004
 21
2364.299270073
  0
LINE
  5
2AE
100
AcDbEntity
  8
1
  6
DOT_CENTER
 62
           2
100
AcDbLine
 10
0.0
 20
5000.0
 11
0.0
 21
3874.680676247669
  0
LINE
  5
2AD
100
AcDbEntity
  8
1
  6
CONTINUOUS
 62
           7
100
AcDbLine
 10
4750.000000000004
 20
324.299270073
 11
1750.000000000003
 21
324.299270073
  0
LINE
  5
2AC
100
AcDbEntity
  8
1
  6
CONTINUOUS
 62
           4
100
AcDbLine
 10
-730.0
 20
4980.0
 11
730.0
 21
4980.0
  0
LINE
  5
2AB
100
AcDbEntity
  8
1
  6
CONTINUOUS
 62
           4
100
AcDbLine
 10
780.0
 20
5020.0
 11
520.0
 21
5020.0
  0
LINE
  5
2AA
100
AcDbEntity
  8
1
  6
CONTINUOUS
 62
           4
100
AcDbLine
 10
780.0
 20
5980.0
 11
520.0
 21
5980.0
  0
LINE
  5
2A9
100
AcDbEntity
  8
1
  6
CONTINUOUS
 62
           4
100
AcDbLine
 10
730.0
 20
4980.0
 11
730.0
 21
4020.0
  0
LINE
  5
2A8
100
AcDbEntity
  8
1
  6
CONTINUOUS
 62
           4
100
AcDbLine
 10
780.0
 20
5980.0
 11
780.0
 21
5020.0
  0
LINE
  5
2A7
100
AcDbEntity
  8
1
  6
CONTINUOUS
 62
           7
100
AcDbLine
 10
800.0
 20
4000.0
 11
800.0
 21
6000.0
  0
LINE
  5
2A6
100
AcDbEntity
  8
1
  6
DOT_CENTER
 62
           2
100
AcDbLine
 10
3550.000000000004
 20
999.299270073
 11
3550.000000000004
 21
849.299270073
  0
LINE
  5
2A5
100
AcDbEntity
  8
1
  6
DOT_CENTER
 62
           2
100
AcDbLine
 10
3475.000000000004
 20
924.299270073
 11
3625.000000000004
 21
924.299270073
  0
LINE
  5
2A4
100
AcDbEntity
  8
1
  6
DOT_CENTER
 62
           2
100
AcDbLine
 10
0.0
 20
2399.299270073
 11
0.0
 21
194.299270073
  0
LINE
  5
2A3
100
AcDbEntity
  8
1
  6
CONTINUOUS
 62
           7
100
AcDbLine
 10
-750.0
 20
824.299270073
 11
-735.0
 21
824.299270073
  0
LINE
  5
2A2
100
AcDbEntity
  8
1
  6
CONTINUOUS
 62
           7
100
AcDbLine
 10
-750.0
 20
1124.299270073
 11
750.0
 21
1124.299270073
  0
LINE
  5
2A1
100
AcDbEntity
  8
1
  6
CONTINUOUS
 62
           7
100
AcDbLine
 10
-750.0
 20
838.15259274063
 11
-750.0
 21
896.906355724512
  0
LINE
  5
2A0
100
AcDbEntity
  8
1
  6
CONTINUOUS
 62
           7
100
AcDbLine
 10
-750.0
 20
724.299270073
 11
750.0
 21
724.299270073
  0
LINE
  5
29F
100
AcDbEntity
  8
1
  6
CONTINUOUS
 62
           7
100
AcDbLine
 10
750.0
 20
374.299270073
 11
-750.0
 21
374.299270073
  0
LINE
  5
29E
100
AcDbEntity
  8
1
  6
CONTINUOUS
 62
           7
100
AcDbLine
 10
750.0
 20
2224.299270073
 11
-750.0
 21
2224.299270073
  0
LINE
  5
29D
100
AcDbEntity
  8
1
  6
CONTINUOUS
 62
           7
100
AcDbLine
 10
750.0
 20
324.299270073
 11
750.0
 21
2324.299270073
  0
LINE
  5
29C
100
AcDbEntity
  8
1
  6
CONTINUOUS
 62
           7
100
AcDbLine
 10
-750.0
 20
324.299270073
 11
-750.0
 21
2324.299270073
  0
LINE
  5
29B
100
AcDbEntity
  8
1
  6
CONTINUOUS
 62
           7
100
AcDbLine
 10
3250.000000000004
 20
2399.299270073
 11
4250.000000000004
 21
2399.299270073
  0
LINE
  5
29A
100
AcDbEntity
  8
1
  6
CONTINUOUS
 62
           7
100
AcDbLine
 10
3250.000000000004
 20
2324.299270073
 11
3250.000000000004
 21
2399.299270073
  0
LINE
  5
299
100
AcDbEntity
  8
1
  6
CONTINUOUS
 62
           7
100
AcDbLine
 10
2250.000000000004
 20
2374.299270073
 11
4250.000000000004
 21
2374.299270073
  0
LINE
  5
298
100
AcDbEntity
  8
1
  6
CONTINUOUS
 62
           4
100
AcDbLine
 10
2250.000000000004
 20
2327.299270073
 11
3250.000000000004
 21
2327.299270073
  0
LINE
  5
297
100
AcDbEntity
  8
1
  6
CONTINUOUS
 62
           7
100
AcDbLine
 10
4250.000000000004
 20
2324.299270073
 11
2250.000000000004
 21
2324.299270073
  0
LINE
  5
296
100
AcDbEntity
  8
1
  6
CONTINUOUS
 62
           7
100
AcDbLine
 10
4250.000000000004
 20
324.299270073
 11
4250.000000000004
 21
2399.299270073
  0
LINE
  5
295
100
AcDbEntity
  8
1
  6
CONTINUOUS
 62
           7
100
AcDbLine
 10
2250.000000000004
 20
324.299270073
 11
2250.000000000004
 21
2374.299270073
  0
LINE
  5
294
100
AcDbEntity
  8
1
  6
CONTINUOUS
 62
           7
100
AcDbLine
 10
800.0
 20
2324.299270073
 11
-800.0
 21
2324.299270073
  0
LINE
  5
293
100
AcDbEntity
  8
1
  6
CONTINUOUS
 62
           7
100
AcDbLine
 10
800.0
 20
324.299270073
 11
800.0
 21
2474.299270073
  0
LINE
  5
292
100
AcDbEntity
  8
1
  6
CONTINUOUS
 62
           7
100
AcDbLine
 10
800.0
 20
6000.0
 11
4.041451884327
 21
6000.0
  0
LINE
  5
291
100
AcDbEntity
  8
1
  6
CONTINUOUS
 62
           4
100
AcDbLine
 10
-780.0
 20
5020.0
 11
-780.0
 21
5980.0
  0
LINE
  5
290
100
AcDbEntity
  8
1
  6
CONTINUOUS
 62
           4
100
AcDbLine
 10
-780.0
 20
5020.0
 11
-520.0
 21
5020.0
  0
LINE
  5
28F
100
AcDbEntity
  8
1
  6
CONTINUOUS
 62
           4
100
AcDbLine
 10
-730.0
 20
4980.0
 11
-730.0
 21
4020.0
  0
LINE
  5
28E
100
AcDbEntity
  8
1
  6
CONTINUOUS
 62
           7
100
AcDbLine
 10
-800.0
 20
5000.0
 11
800.0
 21
5000.0
  0
LINE
  5
28D
100
AcDbEntity
  8
1
  6
CONTINUOUS
 62
           7
100
AcDbLine
 10
-800.0
 20
6000.0
 11
-800.0
 21
4000.0
  0
LINE
  5
28C
100
AcDbEntity
  8
1
  6
CONTINUOUS
 62
           7
100
AcDbLine
 10
-800.0
 20
4000.0
 11
800.0
 21
4000.0
  0
LINE
  5
28B
100
AcDbEntity
  8
1
  6
CONTINUOUS
 62
           4
100
AcDbLine
 10
2270.000000000004
 20
344.299270073
 11
2730.000000000004
 21
344.299270073
  0
LINE
  5
28A
100
AcDbEntity
  8
1
  6
CONTINUOUS
 62
           4
100
AcDbLine
 10
2730.000000000004
 20
344.299270073
 11
2730.000000000004
 21
2304.299270073
  0
LINE
  5
289
100
AcDbEntity
  8
1
  6
CONTINUOUS
 62
           4
100
AcDbLine
 10
2730.000000000004
 20
2304.299270073
 11
2270.000000000004
 21
2304.299270073
  0
LINE
  5
288
100
AcDbEntity
  8
1
  6
CONTINUOUS
 62
           4
100
AcDbLine
 10
2270.000000000004
 20
2304.299270073
 11
2270.000000000004
 21
344.299270073
  0
LINE
  5
287
100
AcDbEntity
  8
1
  6
CONTINUOUS
 62
           7
100
AcDbLine
 10
2750.000000000004
 20
324.299270073
 11
2750.000000000004
 21
2324.299270073
  0
LINE
  5
286
100
AcDbEntity
  8
1
  6
CONTINUOUS
 62
           7
100
AcDbLine
 10
2750.000000000004
 20
824.299270073
 11
4250.000000000004
 21
824.299270073
  0
LINE
  5
285
100
AcDbEntity
  8
1
  6
CONTINUOUS
 62
           4
100
AcDbLine
 10
4229.433325304566
 20
803.684331602882
 11
2770.000000000004
 21
803.684331602882
  0
LINE
  5
284
100
AcDbEntity
  8
1
  6
CONTINUOUS
 62
           4
100
AcDbLine
 10
2770.000000000004
 20
803.684331602882
 11
2770.000000000004
 21
344.299270073
  0
LINE
  5
283
100
AcDbEntity
  8
1
  6
CONTINUOUS
 62
           4
100
AcDbLine
 10
2770.000000000004
 20
344.299270073
 11
4229.433325304566
 21
344.299270073
  0
LINE
  5
282
100
AcDbEntity
  8
1
  6
CONTINUOUS
 62
           4
100
AcDbLine
 10
4229.433325304566
 20
344.299270073
 11
4229.433325304566
 21
803.684331602882
  0
LINE
  5
281
100
AcDbEntity
  8
1
  6
CONTINUOUS
 62
           7
100
AcDbLine
 10
3250.000000000004
 20
824.299270073
 11
3250.000000000005
 21
2091.592543601177
  0
LINE
  5
280
100
AcDbEntity
  8
1
  6
CONTINUOUS
 62
           4
100
AcDbLine
 10
3230.000000000004
 20
2304.299270073
 11
2770.000000000004
 21
2304.299270073
  0
LINE
  5
27F
100
AcDbEntity
  8
1
  6
CONTINUOUS
 62
           4
100
AcDbLine
 10
2770.000000000004
 20
2304.299270073
 11
2770.000000000004
 21
844.299270073
  0
LINE
  5
27E
100
AcDbEntity
  8
1
  6
CONTINUOUS
 62
           4
100
AcDbLine
 10
2770.000000000004
 20
844.299270073
 11
3230.000000000004
 21
844.299270073
  0
LINE
  5
27D
100
AcDbEntity
  8
1
  6
CONTINUOUS
 62
           4
100
AcDbLine
 10
3230.000000000004
 20
844.299270073
 11
3230.000000000005
 21
2039.824373317275
  0
LINE
  5
27C
100
AcDbEntity
  8
1
  6
CONTINUOUS
 62
           4
100
AcDbLine
 10
3270.000000000004
 20
844.299270073
 11
4230.000000000004
 21
844.299270073
  0
LINE
  5
27B
100
AcDbEntity
  8
1
  6
CONTINUOUS
 62
           4
100
AcDbLine
 10
4230.000000000004
 20
844.299270073
 11
4230.000000000004
 21
2304.299270073
  0
LINE
  5
27A
100
AcDbEntity
  8
1
  6
CONTINUOUS
 62
           4
100
AcDbLine
 10
4230.000000000004
 20
2304.299270073
 11
3270.000000000004
 21
2304.299270073
  0
LINE
  5
279
100
AcDbEntity
  8
1
  6
CONTINUOUS
 62
           4
100
AcDbLine
 10
3270.000000000004
 20
2304.299270073
 11
3270.000000000005
 21
2138.763939289343
  0
LINE
  5
278
100
AcDbEntity
  8
1
  6
CONTINUOUS
 62
           7
100
AcDbLine
 10
-750.0
 20
799.299270073001
 11
750.0
 21
799.299270073001
  0
LINE
  5
277
100
AcDbEntity
  8
1
  6
CONTINUOUS
 62
           7
100
AcDbLine
 10
-735.0
 20
799.299270073001
 11
-734.999999999999
 21
864.299270073
  0
LINE
  5
276
100
AcDbEntity
  8
1
  6
CONTINUOUS
 62
           7
100
AcDbLine
 10
735.0
 20
864.299270073
 11
-734.999999999999
 21
864.299270073
  0
LINE
  5
275
100
AcDbEntity
  8
1
  6
CONTINUOUS
 62
           4
100
AcDbLine
 10
520.0
 20
5980.0
 11
520.0
 21
5020.0
  0
LINE
  5
274
100
AcDbEntity
  8
1
  6
CONTINUOUS
 62
           7
100
AcDbLine
 10
500.0
 20
5000.0
 11
500.0
 21
6000.0
  0
LINE
  5
273
100
AcDbEntity
  8
1
  6
CONTINUOUS
 62
           4
100
AcDbLine
 10
-520.0
 20
5020.0
 11
-520.0
 21
5412.613662462939
  0
LINE
  5
272
100
AcDbEntity
  8
1
  6
CONTINUOUS
 62
           7
100
AcDbLine
 10
-500.0
 20
5000.0
 11
-500.0
 21
5377.157287525379
  0
LINE
  5
271
100
AcDbEntity
  8
1
  6
CONTINUOUS
 62
           7
100
AcDbLine
 10
1300.0
 20
324.299270073001
 11
-1300.0
 21
324.299270073
  0
LINE
  5
270
100
AcDbEntity
  8
1
  6
CONTINUOUS
 62
           4
100
AcDbLine
 10
-790.0
 20
5000.0
 11
-790.0
 21
4020.0
  0
LINE
  5
26F
100
AcDbEntity
  8
1
  6
CONTINUOUS
 62
           4
100
AcDbLine
 10
-753.0
 20
5000.0
 11
-753.0
 21
4020.0
  0
LINE
  5
26E
100
AcDbEntity
  8
1
  6
CONTINUOUS
 62
           4
100
AcDbLine
 10
753.0
 20
5000.0
 11
753.000000000001
 21
4020.0
  0
LINE
  5
26D
100
AcDbEntity
  8
1
  6
CONTINUOUS
 62
           4
100
AcDbLine
 10
790.0
 20
5000.0
 11
790.000000000001
 21
4020.0
  0
LINE
  5
26C
100
AcDbEntity
  8
1
  6
CONTINUOUS
 62
           4
100
AcDbLine
 10
-780.0
 20
5980.0
 11
-580.000000000002
 21
5980.000000000002
  0
LINE
  5
26B
100
AcDbEntity
  8
1
  6
CONTINUOUS
 62
           7
100
AcDbLine
 10
-800.0
 20
4020.0
 11
800.0
 21
4020.0
  0
LINE
  5
26A
100
AcDbEntity
  8
1
  6
CONTINUOUS
 62
           7
100
AcDbLine
 10
800.0
 20
2474.299270073
 11
-800.0
 21
2474.299270073
  0
LINE
  5
269
100
AcDbEntity
  8
1
  6
CONTINUOUS
 62
           7
100
AcDbLine
 10
2250.000000000004
 20
2374.299270073
 11
2250.000000000004
 21
2474.299270073
  0
LINE
  5
268
100
AcDbEntity
  8
1
  6
CONTINUOUS
 62
           7
100
AcDbLine
 10
2250.000000000004
 20
2474.299270073
 11
2270.000000000004
 21
2474.299270073
  0
LINE
  5
267
100
AcDbEntity
  8
1
  6
CONTINUOUS
 62
           4
100
AcDbLine
 10
3230.000000000005
 20
2065.788034228307
 11
3230.000000000004
 21
2304.299270073
  0
LINE
  5
266
100
AcDbEntity
  8
1
  6
CONTINUOUS
 62
           7
100
AcDbLine
 10
3250.000000000005
 20
2108.456496903845
 11
3250.000000000004
 21
2324.299270073
  0
LINE
  5
265
100
AcDbEntity
  8
1
  6
CONTINUOUS
 62
           4
100
AcDbLine
 10
3270.000000000005
 20
2125.130402407586
 11
3270.000000000004
 21
844.299270073
  0
LINE
  5
264
100
AcDbEntity
  8
1
  6
CONTINUOUS
 62
           7
100
AcDbLine
 10
-569.497691536609
 20
1310.812796871368
 11
575.0
 21
1310.812796871368
  0
LINE
  5
263
100
AcDbEntity
  8
1
  6
CONTINUOUS
 62
           7
100
AcDbLine
 10
2800.000000000004
 20
1964.299270072999
 11
2800.000000000005
 21
2077.299270073
  0
LINE
  5
262
100
AcDbEntity
  8
1
  6
CONTINUOUS
 62
           7
100
AcDbLine
 10
2980.000000000005
 20
2077.299270073
 11
2980.000000000005
 21
1964.299270073
  0
LINE
  5
261
100
AcDbEntity
  8
1
  6
CONTINUOUS
 62
           7
100
AcDbLine
 10
2800.000000000005
 20
2077.299270073
 11
2980.000000000005
 21
2077.299270073
  0
LINE
  5
260
100
AcDbEntity
  8
1
  6
CONTINUOUS
 62
           7
100
AcDbLine
 10
2980.000000000005
 20
1964.299270073
 11
2800.000000000004
 21
1964.299270072999
  0
LINE
  5
25F
100
AcDbEntity
  8
1
  6
DOT_CENTER
 62
           3
100
AcDbLine
 10
508.472255321878
 20
1664.500118400053
 11
508.472255321878
 21
1574.501547400053
  0
LINE
  5
25E
100
AcDbEntity
  8
1
  6
DOT_CENTER
 62
           3
100
AcDbLine
 10
553.472255321877
 20
1619.500118400053
 11
463.474800321873
 21
1619.500118400053
  0
LINE
  5
25D
100
AcDbEntity
  8
1
  6
CONTINUOUS
 62
           3
100
AcDbLine
 10
504.936660321884
 20
1647.629981400063
 11
502.548714321874
 21
1620.372857400063
  0
LINE
  5
25C
100
AcDbEntity
  8
1
  6
CONTINUOUS
 62
           3
100
AcDbLine
 10
502.548714321874
 20
1618.627379400063
 11
504.936660321884
 21
1591.370255400062
  0
LINE
  5
25B
100
AcDbEntity
  8
1
  6
CONTINUOUS
 62
           3
100
AcDbLine
 10
512.007850321893
 20
1647.629981400063
 11
514.395796321874
 21
1620.372857400063
  0
LINE
  5
25A
100
AcDbEntity
  8
1
  6
CONTINUOUS
 62
           3
100
AcDbLine
 10
514.395796321874
 20
1618.627379400063
 11
512.007850321893
 21
1591.370255400062
  0
LINE
  5
259
100
AcDbEntity
  8
1
  6
CONTINUOUS
 62
           3
100
AcDbLine
 10
3647.500000000004
 20
2245.299270073001
 11
3499.899998122328
 21
2245.299270073001
  0
LINE
  5
258
100
AcDbEntity
  8
1
  6
CONTINUOUS
 62
           3
100
AcDbLine
 10
3647.500000000004
 20
2253.299270073
 11
3499.899996810933
 21
2253.299270073
  0
LINE
  5
257
100
AcDbEntity
  8
0
  6
CONTINUOUS
 62
           3
100
AcDbLine
 10
3119.89999663241
 20
1639.299267688956
 11
3119.89999663241
 21
1689.299264708815
  0
LINE
  5
256
100
AcDbEntity
  8
0
  6
CONTINUOUS
 62
           3
100
AcDbLine
 10
3160.126493853975
 20
1679.745847145224
 11
3160.899996833476
 21
1679.299274245322
  0
LINE
  5
255
100
AcDbEntity
  8
0
  6
CONTINUOUS
 62
           3
100
AcDbLine
 10
3170.899996609867
 20
1679.299274245322
 11
3171.673499589368
 21
1679.745847145224
  0
LINE
  5
254
100
AcDbEntity
  8
0
  6
CONTINUOUS
 62
           3
100
AcDbLine
 10
3160.899996833476
 20
1684.299269476921
 11
3160.126493853975
 21
1683.852681676021
  0
LINE
  5
253
100
AcDbEntity
  8
0
  6
CONTINUOUS
 62
           3
100
AcDbLine
 10
3171.673499589368
 20
1683.852681676021
 11
3170.899996609867
 21
1684.299269476921
  0
LINE
  5
252
100
AcDbEntity
  8
0
  6
CONTINUOUS
 62
           3
100
AcDbLine
 10
3160.899996833476
 20
1689.299264708815
 11
3160.126493853975
 21
1688.852691808916
  0
LINE
  5
251
100
AcDbEntity
  8
0
  6
CONTINUOUS
 62
           3
100
AcDbLine
 10
3171.673499589368
 20
1688.852691808916
 11
3170.899996609867
 21
1689.299264708815
  0
LINE
  5
250
100
AcDbEntity
  8
0
  6
CONTINUOUS
 62
           3
100
AcDbLine
 10
3170.899996609867
 20
1684.299269476921
 11
3171.673499589368
 21
1684.745857278122
  0
LINE
  5
24F
100
AcDbEntity
  8
0
  6
CONTINUOUS
 62
           3
100
AcDbLine
 10
3160.126493853975
 20
1684.745857278122
 11
3160.899996833476
 21
1684.299269476921
  0
LINE
  5
24E
100
AcDbEntity
  8
0
  6
CONTINUOUS
 62
           3
100
AcDbLine
 10
3160.899996833476
 20
1701.899269381604
 11
3160.126493853975
 21
1701.452689031205
  0
LINE
  5
24D
100
AcDbEntity
  8
0
  6
CONTINUOUS
 62
           3
100
AcDbLine
 10
3171.673499589368
 20
1701.452689031205
 11
3170.899996609867
 21
1701.899269381604
  0
LINE
  5
24C
100
AcDbEntity
  8
0
  6
CONTINUOUS
 62
           3
100
AcDbLine
 10
3170.899996609867
 20
1696.899274150009
 11
3171.673499589368
 21
1697.345847049911
  0
LINE
  5
24B
100
AcDbEntity
  8
0
  6
CONTINUOUS
 62
           3
100
AcDbLine
 10
3160.126493853975
 20
1697.345847049911
 11
3160.899996833476
 21
1696.899274150009
  0
LINE
  5
24A
100
AcDbEntity
  8
0
  6
CONTINUOUS
 62
           3
100
AcDbLine
 10
3160.899996833476
 20
1696.899274150009
 11
3160.126493853975
 21
1696.452686349109
  0
LINE
  5
249
100
AcDbEntity
  8
0
  6
CONTINUOUS
 62
           3
100
AcDbLine
 10
3171.673499589368
 20
1696.452686349109
 11
3170.899996609867
 21
1696.899274150009
  0
LINE
  5
248
100
AcDbEntity
  8
0
  6
CONTINUOUS
 62
           3
100
AcDbLine
 10
3170.899996609867
 20
1691.899264017114
 11
3171.673499589368
 21
1692.345851818312
  0
LINE
  5
247
100
AcDbEntity
  8
0
  6
CONTINUOUS
 62
           3
100
AcDbLine
 10
3160.126493853975
 20
1692.345851818312
 11
3160.899996833476
 21
1691.899264017114
  0
LINE
  5
246
100
AcDbEntity
  8
0
  6
CONTINUOUS
 62
           3
100
AcDbLine
 10
3211.899996810933
 20
1965.299270073
 11
3211.899996810933
 21
1959.299275437196
  0
LINE
  5
245
100
AcDbEntity
  8
0
  6
CONTINUOUS
 62
           3
100
AcDbLine
 10
3211.899996810933
 20
1957.699263253996
 11
3211.899996810933
 21
1874.299270817964
  0
LINE
  5
244
100
AcDbEntity
  8
0
  6
CONTINUOUS
 62
           3
100
AcDbLine
 10
3211.899996810933
 20
1873.099269131065
 11
3211.899996810933
 21
1715.499268630593
  0
LINE
  5
243
100
AcDbEntity
  8
0
  6
CONTINUOUS
 62
           3
100
AcDbLine
 10
3211.899996810933
 20
1714.299270669097
 11
3211.899996810933
 21
1690.899276891713
  0
LINE
  5
242
100
AcDbEntity
  8
0
  6
CONTINUOUS
 62
           3
100
AcDbLine
 10
3211.899996810933
 20
1689.299264708815
 11
3211.899996810933
 21
1639.299267688956
  0
LINE
  5
241
100
AcDbEntity
  8
0
  6
CONTINUOUS
 62
           3
100
AcDbLine
 10
3219.899998122328
 20
1639.299267688956
 11
3219.899998122328
 21
1689.299264708815
  0
LINE
  5
240
100
AcDbEntity
  8
0
  6
CONTINUOUS
 62
           3
100
AcDbLine
 10
3219.899998122328
 20
1690.899276891713
 11
3219.899998122328
 21
1714.299270669097
  0
LINE
  5
23F
100
AcDbEntity
  8
0
  6
CONTINUOUS
 62
           3
100
AcDbLine
 10
3219.899998122328
 20
1715.499268630593
 11
3219.899998122328
 21
1873.099269131065
  0
LINE
  5
23E
100
AcDbEntity
  8
0
  6
CONTINUOUS
 62
           3
100
AcDbLine
 10
3219.899998122328
 20
1874.299270817964
 11
3219.899998122328
 21
1957.699263253996
  0
LINE
  5
23D
100
AcDbEntity
  8
0
  6
CONTINUOUS
 62
           3
100
AcDbLine
 10
3219.899998122328
 20
1959.299275437196
 11
3219.899998122328
 21
1965.299270073001
  0
LINE
  5
23C
100
AcDbEntity
  8
0
  6
CONTINUOUS
 62
           3
100
AcDbLine
 10
3111.899995321017
 20
1989.299276629369
 11
3111.899995321017
 21
1959.299275437196
  0
LINE
  5
23B
100
AcDbEntity
  8
0
  6
CONTINUOUS
 62
           3
100
AcDbLine
 10
3111.899995321017
 20
1957.699263253996
 11
3111.899995321017
 21
1874.299270817964
  0
LINE
  5
23A
100
AcDbEntity
  8
0
  6
CONTINUOUS
 62
           3
100
AcDbLine
 10
3111.899995321017
 20
1873.099269131065
 11
3111.899995321017
 21
1715.499268630593
  0
LINE
  5
239
100
AcDbEntity
  8
0
  6
CONTINUOUS
 62
           3
100
AcDbLine
 10
3111.899995321017
 20
1714.299270669097
 11
3111.899995321017
 21
1690.899276891713
  0
LINE
  5
238
100
AcDbEntity
  8
0
  6
CONTINUOUS
 62
           3
100
AcDbLine
 10
3111.899995321017
 20
1689.299264708815
 11
3111.899995321017
 21
1639.299267688956
  0
LINE
  5
237
100
AcDbEntity
  8
0
  6
CONTINUOUS
 62
           3
100
AcDbLine
 10
3119.89999663241
 20
1690.899276891713
 11
3119.89999663241
 21
1714.299270669097
  0
LINE
  5
236
100
AcDbEntity
  8
0
  6
CONTINUOUS
 62
           3
100
AcDbLine
 10
3119.89999663241
 20
1715.499268630593
 11
3119.89999663241
 21
1873.099269131065
  0
LINE
  5
235
100
AcDbEntity
  8
0
  6
CONTINUOUS
 62
           3
100
AcDbLine
 10
3119.89999663241
 20
1874.299270817964
 11
3119.89999663241
 21
1957.699263253996
  0
LINE
  5
234
100
AcDbEntity
  8
0
  6
CONTINUOUS
 62
           3
100
AcDbLine
 10
3119.89999663241
 20
1959.299275437196
 11
3119.89999663241
 21
1989.299276629369
  0
LINE
  5
233
100
AcDbEntity
  8
0
  6
CONTINUOUS
 62
           3
100
AcDbLine
 10
3168.899996747769
 20
1690.899276891713
 11
3168.899996747769
 21
1691.899264017114
  0
LINE
  5
232
100
AcDbEntity
  8
0
  6
CONTINUOUS
 62
           3
100
AcDbLine
 10
3168.899996747769
 20
1701.899269381604
 11
3168.899996747769
 21
1708.4992693459
  0
LINE
  5
231
100
AcDbEntity
  8
0
  6
CONTINUOUS
 62
           3
100
AcDbLine
 10
3168.899996747769
 20
1714.299270669097
 11
3168.899996747769
 21
1717.256696680594
  0
LINE
  5
230
100
AcDbEntity
  8
0
  6
CONTINUOUS
 62
           3
100
AcDbLine
 10
3168.899996747769
 20
1719.092117408491
 11
3168.899996747769
 21
1957.699263253996
  0
LINE
  5
22F
100
AcDbEntity
  8
0
  6
CONTINUOUS
 62
           3
100
AcDbLine
 10
3168.899996747769
 20
1959.299275437196
 11
3168.899996747769
 21
1961.721921125293
  0
LINE
  5
22E
100
AcDbEntity
  8
0
  6
CONTINUOUS
 62
           3
100
AcDbLine
 10
3162.899996695574
 20
1961.721921125293
 11
3162.899996695574
 21
1959.299275437196
  0
LINE
  5
22D
100
AcDbEntity
  8
0
  6
CONTINUOUS
 62
           3
100
AcDbLine
 10
3162.899996695574
 20
1957.699263253996
 11
3162.899996695574
 21
1719.092117408491
  0
LINE
  5
22C
100
AcDbEntity
  8
0
  6
CONTINUOUS
 62
           3
100
AcDbLine
 10
3162.899996695574
 20
1717.256696680594
 11
3162.899996695574
 21
1714.299270669097
  0
LINE
  5
22B
100
AcDbEntity
  8
0
  6
CONTINUOUS
 62
           3
100
AcDbLine
 10
3162.899996695574
 20
1708.4992693459
 11
3162.899996695574
 21
1701.899269381604
  0
LINE
  5
22A
100
AcDbEntity
  8
0
  6
CONTINUOUS
 62
           3
100
AcDbLine
 10
3162.899996695574
 20
1691.899264017114
 11
3162.899996695574
 21
1690.899276891713
  0
LINE
  5
229
100
AcDbEntity
  8
0
  6
CONTINUOUS
 62
           3
100
AcDbLine
 10
3168.899996747769
 20
1961.721921125293
 11
3167.89999681657
 21
1962.721923151993
  0
LINE
  5
228
100
AcDbEntity
  8
0
  6
CONTINUOUS
 62
           3
100
AcDbLine
 10
3163.899996626773
 20
1962.721923151993
 11
3162.899996695574
 21
1961.721921125293
  0
LINE
  5
227
100
AcDbEntity
  8
0
  6
CONTINUOUS
 62
           3
100
AcDbLine
 10
3162.399996613574
 20
1719.099269965894
 11
3157.899996341777
 21
1719.099269965894
  0
LINE
  5
226
100
AcDbEntity
  8
0
  6
CONTINUOUS
 62
           3
100
AcDbLine
 10
3173.899997101564
 20
1719.099269965894
 11
3169.399996829769
 21
1719.099269965894
  0
LINE
  5
225
100
AcDbEntity
  8
0
  6
CONTINUOUS
 62
           3
100
AcDbLine
 10
3159.426494029876
 20
1713.399270072995
 11
3172.373499413467
 21
1713.399270072995
  0
LINE
  5
224
100
AcDbEntity
  8
0
  6
CONTINUOUS
 62
           3
100
AcDbLine
 10
3108.899996692018
 20
1718.099267939194
 11
3111.899995321017
 21
1718.099267939194
  0
LINE
  5
223
100
AcDbEntity
  8
0
  6
CONTINUOUS
 62
           3
100
AcDbLine
 10
3119.89999663241
 20
1718.099267939194
 11
3157.899996341777
 21
1718.099267939194
  0
LINE
  5
222
100
AcDbEntity
  8
0
  6
CONTINUOUS
 62
           3
100
AcDbLine
 10
3173.899997101564
 20
1718.099267939194
 11
3211.899996810933
 21
1718.099267939194
  0
LINE
  5
221
100
AcDbEntity
  8
0
  6
CONTINUOUS
 62
           3
100
AcDbLine
 10
3219.899998122328
 20
1718.099267939194
 11
3222.899996751325
 21
1718.099267939194
  0
LINE
  5
220
100
AcDbEntity
  8
0
  6
CONTINUOUS
 62
           3
100
AcDbLine
 10
3108.899996692018
 20
1868.099270174368
 11
3108.899996692018
 21
1718.099267939194
  0
LINE
  5
21F
100
AcDbEntity
  8
0
  6
CONTINUOUS
 62
           3
100
AcDbLine
 10
3222.899996751325
 20
1868.099270174368
 11
3219.899998122328
 21
1868.099270174368
  0
LINE
  5
21E
100
AcDbEntity
  8
0
  6
CONTINUOUS
 62
           3
100
AcDbLine
 10
3211.899996810933
 20
1868.099270174368
 11
3168.899996747769
 21
1868.099270174368
  0
LINE
  5
21D
100
AcDbEntity
  8
0
  6
CONTINUOUS
 62
           3
100
AcDbLine
 10
3162.899996695574
 20
1868.099270174368
 11
3119.89999663241
 21
1868.099270174368
  0
LINE
  5
21C
100
AcDbEntity
  8
0
  6
CONTINUOUS
 62
           3
100
AcDbLine
 10
3111.899995321017
 20
1868.099270174368
 11
3108.899996692018
 21
1868.099270174368
  0
LINE
  5
21B
100
AcDbEntity
  8
0
  6
CONTINUOUS
 62
           3
100
AcDbLine
 10
3222.899996751325
 20
1718.099267939194
 11
3222.899996751325
 21
1868.099270174368
  0
LINE
  5
21A
100
AcDbEntity
  8
0
  6
CONTINUOUS
 62
           3
100
AcDbLine
 10
3168.786748155369
 20
1679.745847145224
 11
3168.786748155508
 21
1683.852681676069
  0
LINE
  5
219
100
AcDbEntity
  8
0
  6
CONTINUOUS
 62
           3
100
AcDbLine
 10
3168.786748155369
 20
1679.745847145224
 11
3165.899996721671
 21
1679.299274245322
  0
LINE
  5
218
100
AcDbEntity
  8
0
  6
CONTINUOUS
 62
           3
100
AcDbLine
 10
3163.013245287844
 20
1679.745847145242
 11
3163.013245287973
 21
1683.852681676021
  0
LINE
  5
217
100
AcDbEntity
  8
0
  6
CONTINUOUS
 62
           3
100
AcDbLine
 10
3163.013245287973
 20
1683.852681676021
 11
3165.899996721675
 21
1684.299269477048
  0
LINE
  5
216
100
AcDbEntity
  8
0
  6
CONTINUOUS
 62
           3
100
AcDbLine
 10
3165.899996721671
 20
1679.299274245322
 11
3170.23012375601
 21
1679.29927424542
  0
LINE
  5
215
100
AcDbEntity
  8
0
  6
CONTINUOUS
 62
           3
100
AcDbLine
 10
3161.569869687342
 20
1679.29927424542
 11
3165.899996721671
 21
1679.299274245322
  0
LINE
  5
214
100
AcDbEntity
  8
0
  6
CONTINUOUS
 62
           3
100
AcDbLine
 10
3161.569869687342
 20
1684.299269477048
 11
3165.899996721675
 21
1684.299269477048
  0
LINE
  5
213
100
AcDbEntity
  8
0
  6
CONTINUOUS
 62
           3
100
AcDbLine
 10
3168.786748155508
 20
1683.852681676069
 11
3170.230123755968
 21
1684.299269476921
  0
LINE
  5
212
100
AcDbEntity
  8
0
  6
CONTINUOUS
 62
           3
100
AcDbLine
 10
3165.899996721675
 20
1684.299269477048
 11
3170.230123755968
 21
1684.299269476921
  0
LINE
  5
211
100
AcDbEntity
  8
0
  6
CONTINUOUS
 62
           3
100
AcDbLine
 10
3160.126493853975
 20
1679.745847145224
 11
3160.126493853975
 21
1683.852681676021
  0
LINE
  5
210
100
AcDbEntity
  8
0
  6
CONTINUOUS
 62
           3
100
AcDbLine
 10
3171.673499589368
 20
1679.745847145224
 11
3171.673499589368
 21
1683.852681676021
  0
LINE
  5
20F
100
AcDbEntity
  8
0
  6
CONTINUOUS
 62
           3
100
AcDbLine
 10
3171.673499589368
 20
1679.745847145224
 11
3170.23012375601
 21
1679.29927424542
  0
LINE
  5
20E
100
AcDbEntity
  8
0
  6
CONTINUOUS
 62
           3
100
AcDbLine
 10
3160.899996833476
 20
1679.299274245322
 11
3161.569869687342
 21
1679.29927424542
  0
LINE
  5
20D
100
AcDbEntity
  8
0
  6
CONTINUOUS
 62
           3
100
AcDbLine
 10
3170.899996609867
 20
1679.299274245322
 11
3170.23012375601
 21
1679.29927424542
  0
LINE
  5
20C
100
AcDbEntity
  8
0
  6
CONTINUOUS
 62
           3
100
AcDbLine
 10
3160.899996833476
 20
1684.299269476921
 11
3161.569869687342
 21
1684.299269477048
  0
LINE
  5
20B
100
AcDbEntity
  8
0
  6
CONTINUOUS
 62
           3
100
AcDbLine
 10
3168.786748155508
 20
1688.852691808858
 11
3168.786748155369
 21
1684.745857278122
  0
LINE
  5
20A
100
AcDbEntity
  8
0
  6
CONTINUOUS
 62
           3
100
AcDbLine
 10
3163.013245287844
 20
1688.852691808858
 11
3163.013245287844
 21
1684.745857278024
  0
LINE
  5
209
100
AcDbEntity
  8
0
  6
CONTINUOUS
 62
           3
100
AcDbLine
 10
3171.673499589368
 20
1688.852691808916
 11
3170.23012375601
 21
1689.299264708673
  0
LINE
  5
208
100
AcDbEntity
  8
0
  6
CONTINUOUS
 62
           3
100
AcDbLine
 10
3171.673499589368
 20
1688.852691808916
 11
3171.673499589368
 21
1684.745857278122
  0
LINE
  5
207
100
AcDbEntity
  8
0
  6
CONTINUOUS
 62
           3
100
AcDbLine
 10
3168.786748155369
 20
1684.745857278122
 11
3170.230123755968
 21
1684.299269476921
  0
LINE
  5
206
100
AcDbEntity
  8
0
  6
CONTINUOUS
 62
           3
100
AcDbLine
 10
3163.013245287844
 20
1688.852691808858
 11
3161.569869687342
 21
1689.299264708673
  0
LINE
  5
205
100
AcDbEntity
  8
0
  6
CONTINUOUS
 62
           3
100
AcDbLine
 10
3160.126493853975
 20
1684.745857278122
 11
3161.569869687342
 21
1684.299269477048
  0
LINE
  5
204
100
AcDbEntity
  8
0
  6
CONTINUOUS
 62
           3
100
AcDbLine
 10
3160.126493853975
 20
1688.852691808916
 11
3160.126493853975
 21
1684.745857278122
  0
LINE
  5
203
100
AcDbEntity
  8
0
  6
CONTINUOUS
 62
           3
100
AcDbLine
 10
3168.786748155508
 20
1701.452689031267
 11
3168.786748155369
 21
1697.345847049911
  0
LINE
  5
202
100
AcDbEntity
  8
0
  6
CONTINUOUS
 62
           3
100
AcDbLine
 10
3163.013245287844
 20
1701.452689031267
 11
3163.013245287844
 21
1697.34584704986
  0
LINE
  5
201
100
AcDbEntity
  8
0
  6
CONTINUOUS
 62
           3
100
AcDbLine
 10
3171.673499589368
 20
1701.452689031205
 11
3170.23012375601
 21
1701.899269381666
  0
LINE
  5
200
100
AcDbEntity
  8
0
  6
CONTINUOUS
 62
           3
100
AcDbLine
 10
3171.673499589368
 20
1701.452689031205
 11
3171.673499589368
 21
1697.345847049911
  0
LINE
  5
1FF
100
AcDbEntity
  8
0
  6
CONTINUOUS
 62
           3
100
AcDbLine
 10
3168.786748155369
 20
1697.345847049911
 11
3170.23012375601
 21
1696.899274150041
  0
LINE
  5
1FE
100
AcDbEntity
  8
0
  6
CONTINUOUS
 62
           3
100
AcDbLine
 10
3170.23012375601
 20
1701.899269381666
 11
3165.899996721675
 21
1701.899269381666
  0
LINE
  5
1FD
100
AcDbEntity
  8
0
  6
CONTINUOUS
 62
           3
100
AcDbLine
 10
3163.013245287844
 20
1701.452689031267
 11
3161.569869687342
 21
1701.899269381666
  0
LINE
  5
1FC
100
AcDbEntity
  8
0
  6
CONTINUOUS
 62
           3
100
AcDbLine
 10
3160.126493853975
 20
1697.345847049911
 11
3161.569869687342
 21
1696.899274150041
  0
LINE
  5
1FB
100
AcDbEntity
  8
0
  6
CONTINUOUS
 62
           3
100
AcDbLine
 10
3160.126493853975
 20
1701.452689031205
 11
3160.126493853975
 21
1697.345847049911
  0
LINE
  5
1FA
100
AcDbEntity
  8
0
  6
CONTINUOUS
 62
           3
100
AcDbLine
 10
3165.899996721675
 20
1701.899269381666
 11
3161.569869687342
 21
1701.899269381666
  0
LINE
  5
1F9
100
AcDbEntity
  8
0
  6
CONTINUOUS
 62
           3
100
AcDbLine
 10
3170.23012375601
 20
1696.899274150041
 11
3165.899996721675
 21
1696.899274150041
  0
LINE
  5
1F8
100
AcDbEntity
  8
0
  6
CONTINUOUS
 62
           3
100
AcDbLine
 10
3165.899996721675
 20
1696.899274150041
 11
3161.569869687342
 21
1696.899274150041
  0
LINE
  5
1F7
100
AcDbEntity
  8
0
  6
CONTINUOUS
 62
           3
100
AcDbLine
 10
3161.569869687342
 20
1701.899269381666
 11
3160.899996833476
 21
1701.899269381604
  0
LINE
  5
1F6
100
AcDbEntity
  8
0
  6
CONTINUOUS
 62
           3
100
AcDbLine
 10
3170.899996609867
 20
1701.899269381604
 11
3170.23012375601
 21
1701.899269381666
  0
LINE
  5
1F5
100
AcDbEntity
  8
0
  6
CONTINUOUS
 62
           3
100
AcDbLine
 10
3170.899996609867
 20
1696.899274150009
 11
3170.23012375601
 21
1696.899274150041
  0
LINE
  5
1F4
100
AcDbEntity
  8
0
  6
CONTINUOUS
 62
           3
100
AcDbLine
 10
3168.786748155508
 20
1696.452686349062
 11
3168.786748155369
 21
1692.345851818312
  0
LINE
  5
1F3
100
AcDbEntity
  8
0
  6
CONTINUOUS
 62
           3
100
AcDbLine
 10
3163.013245287844
 20
1696.452686349062
 11
3163.013245287844
 21
1692.345851818235
  0
LINE
  5
1F2
100
AcDbEntity
  8
0
  6
CONTINUOUS
 62
           3
100
AcDbLine
 10
3171.673499589368
 20
1696.452686349109
 11
3170.23012375601
 21
1696.899274150041
  0
LINE
  5
1F1
100
AcDbEntity
  8
0
  6
CONTINUOUS
 62
           3
100
AcDbLine
 10
3171.673499589368
 20
1696.452686349109
 11
3171.673499589368
 21
1692.345851818312
  0
LINE
  5
1F0
100
AcDbEntity
  8
0
  6
CONTINUOUS
 62
           3
100
AcDbLine
 10
3168.786748155369
 20
1692.345851818312
 11
3170.23012375601
 21
1691.899264017256
  0
LINE
  5
1EF
100
AcDbEntity
  8
0
  6
CONTINUOUS
 62
           3
100
AcDbLine
 10
3163.013245287844
 20
1696.452686349062
 11
3161.569869687342
 21
1696.899274150041
  0
LINE
  5
1EE
100
AcDbEntity
  8
0
  6
CONTINUOUS
 62
           3
100
AcDbLine
 10
3160.126493853975
 20
1692.345851818312
 11
3161.569869687342
 21
1691.899264017256
  0
LINE
  5
1ED
100
AcDbEntity
  8
0
  6
CONTINUOUS
 62
           3
100
AcDbLine
 10
3160.126493853975
 20
1696.452686349109
 11
3160.126493853975
 21
1692.345851818312
  0
LINE
  5
1EC
100
AcDbEntity
  8
0
  6
CONTINUOUS
 62
           3
100
AcDbLine
 10
3165.899996721675
 20
1691.899264017256
 11
3161.569869687342
 21
1691.899264017256
  0
LINE
  5
1EB
100
AcDbEntity
  8
0
  6
CONTINUOUS
 62
           3
100
AcDbLine
 10
3170.23012375601
 20
1691.899264017256
 11
3165.899996721675
 21
1691.899264017256
  0
LINE
  5
1EA
100
AcDbEntity
  8
0
  6
CONTINUOUS
 62
           3
100
AcDbLine
 10
3161.569869687342
 20
1696.899274150041
 11
3160.899996833476
 21
1696.899274150009
  0
LINE
  5
1E9
100
AcDbEntity
  8
0
  6
CONTINUOUS
 62
           3
100
AcDbLine
 10
3170.899996609867
 20
1691.899264017114
 11
3170.23012375601
 21
1691.899264017256
  0
LINE
  5
1E8
100
AcDbEntity
  8
0
  6
CONTINUOUS
 62
           3
100
AcDbLine
 10
3161.569869687342
 20
1691.899264017256
 11
3160.899996833476
 21
1691.899264017114
  0
LINE
  5
1E7
100
AcDbEntity
  8
0
  6
CONTINUOUS
 62
           3
100
AcDbLine
 10
3115.899995976712
 20
1989.299276629369
 11
3119.89999663241
 21
1989.299276629369
  0
LINE
  5
1E6
100
AcDbEntity
  8
0
  6
CONTINUOUS
 62
           3
100
AcDbLine
 10
3111.899995321017
 20
1989.299276629369
 11
3115.899995976712
 21
1989.299276629369
  0
LINE
  5
1E5
100
AcDbEntity
  8
0
  6
CONTINUOUS
 62
           3
100
AcDbLine
 10
3162.899996695574
 20
1961.721921125293
 11
3168.899996747769
 21
1961.721921125293
  0
LINE
  5
1E4
100
AcDbEntity
  8
0
  6
CONTINUOUS
 62
           3
100
AcDbLine
 10
3167.89999681657
 20
1962.721923151993
 11
3163.899996626773
 21
1962.721923151993
  0
LINE
  5
1E3
100
AcDbEntity
  8
0
  6
CONTINUOUS
 62
           3
100
AcDbLine
 10
3173.899997101564
 20
1713.499272027996
 11
3169.399996829769
 21
1713.499272027996
  0
LINE
  5
1E2
100
AcDbEntity
  8
0
  6
CONTINUOUS
 62
           3
100
AcDbLine
 10
3162.399996613574
 20
1719.092117408491
 11
3169.399996829769
 21
1719.092117408491
  0
LINE
  5
1E1
100
AcDbEntity
  8
0
  6
CONTINUOUS
 62
           3
100
AcDbLine
 10
3162.399996613574
 20
1713.499272027996
 11
3157.899996341777
 21
1713.499272027996
  0
LINE
  5
1E0
100
AcDbEntity
  8
0
  6
CONTINUOUS
 62
           3
100
AcDbLine
 10
3169.399996829769
 20
1719.099269965894
 11
3169.399996829769
 21
1713.499272027996
  0
LINE
  5
1DF
100
AcDbEntity
  8
0
  6
CONTINUOUS
 62
           3
100
AcDbLine
 10
3162.399996613574
 20
1713.499272027996
 11
3162.399996613574
 21
1719.099269965894
  0
LINE
  5
1DE
100
AcDbEntity
  8
0
  6
CONTINUOUS
 62
           3
100
AcDbLine
 10
3157.899996341777
 20
1719.099269965894
 11
3157.899996341777
 21
1713.499272027996
  0
LINE
  5
1DD
100
AcDbEntity
  8
0
  6
CONTINUOUS
 62
           3
100
AcDbLine
 10
3173.899997101564
 20
1719.099269965894
 11
3173.899997101564
 21
1713.499272027996
  0
LINE
  5
1DC
100
AcDbEntity
  8
0
  6
CONTINUOUS
 62
           3
100
AcDbLine
 10
3169.399996829769
 20
1716.545739928294
 11
3168.899996747769
 21
1716.545739928294
  0
LINE
  5
1DB
100
AcDbEntity
  8
0
  6
CONTINUOUS
 62
           3
100
AcDbLine
 10
3162.899996695574
 20
1716.545739928294
 11
3162.399996613574
 21
1716.545739928294
  0
LINE
  5
1DA
100
AcDbEntity
  8
0
  6
CONTINUOUS
 62
           3
100
AcDbLine
 10
3169.399996829769
 20
1718.289414206492
 11
3162.399996613574
 21
1718.289414206492
  0
LINE
  5
1D9
100
AcDbEntity
  8
0
  6
CONTINUOUS
 62
           3
100
AcDbLine
 10
3162.399996613574
 20
1714.299270669097
 11
3169.399996829769
 21
1714.299270669097
  0
LINE
  5
1D8
100
AcDbEntity
  8
0
  6
CONTINUOUS
 62
           3
100
AcDbLine
 10
3162.399996613574
 20
1713.499272027996
 11
3169.399996829769
 21
1713.499272027996
  0
LINE
  5
1D7
100
AcDbEntity
  8
0
  6
CONTINUOUS
 62
           3
100
AcDbLine
 10
3165.899996721675
 20
1708.945849696295
 11
3168.399996665768
 21
1708.4992693459
  0
LINE
  5
1D6
100
AcDbEntity
  8
0
  6
CONTINUOUS
 62
           3
100
AcDbLine
 10
3163.399996777558
 20
1708.4992693459
 11
3168.399996665768
 21
1708.4992693459
  0
LINE
  5
1D5
100
AcDbEntity
  8
0
  6
CONTINUOUS
 62
           3
100
AcDbLine
 10
3165.899996721675
 20
1708.945849696295
 11
3165.899996721671
 21
1713.399270335195
  0
LINE
  5
1D4
100
AcDbEntity
  8
0
  6
CONTINUOUS
 62
           3
100
AcDbLine
 10
3160.899996833476
 20
1708.945849696302
 11
3163.399996777558
 21
1708.4992693459
  0
LINE
  5
1D3
100
AcDbEntity
  8
0
  6
CONTINUOUS
 62
           3
100
AcDbLine
 10
3160.899996833476
 20
1708.945849696302
 11
3160.899996833476
 21
1713.399270335195
  0
LINE
  5
1D2
100
AcDbEntity
  8
0
  6
CONTINUOUS
 62
           3
100
AcDbLine
 10
3170.899996609867
 20
1708.945849696302
 11
3170.899996609867
 21
1713.399270335195
  0
LINE
  5
1D1
100
AcDbEntity
  8
0
  6
CONTINUOUS
 62
           3
100
AcDbLine
 10
3160.899996833439
 20
1708.4992693459
 11
3163.399996777558
 21
1708.4992693459
  0
LINE
  5
1D0
100
AcDbEntity
  8
0
  6
CONTINUOUS
 62
           3
100
AcDbLine
 10
3168.399996665768
 20
1708.4992693459
 11
3170.899996609913
 21
1708.4992693459
  0
LINE
  5
1CF
100
AcDbEntity
  8
0
  6
CONTINUOUS
 62
           3
100
AcDbLine
 10
3173.899997101564
 20
1712.575511792796
 11
3170.899996609867
 21
1712.575511792796
  0
LINE
  5
1CE
100
AcDbEntity
  8
0
  6
CONTINUOUS
 62
           3
100
AcDbLine
 10
3160.899996833476
 20
1712.575511792796
 11
3157.899996341777
 21
1712.575511792796
  0
LINE
  5
1CD
100
AcDbEntity
  8
0
  6
CONTINUOUS
 62
           3
100
AcDbLine
 10
3157.899996341777
 20
1713.499272027996
 11
3157.899996341777
 21
1712.575511792796
  0
LINE
  5
1CC
100
AcDbEntity
  8
0
  6
CONTINUOUS
 62
           3
100
AcDbLine
 10
3173.899997101564
 20
1713.499272027996
 11
3173.899997101564
 21
1712.575511792796
  0
LINE
  5
1CB
100
AcDbEntity
  8
0
  6
CONTINUOUS
 62
           3
100
AcDbLine
 10
3135.899997392196
 20
1874.299270817964
 11
3145.899997168588
 21
1874.299270817964
  0
LINE
  5
1CA
100
AcDbEntity
  8
0
  6
CONTINUOUS
 62
           3
100
AcDbLine
 10
3145.899997168588
 20
1873.099269131065
 11
3145.899997168588
 21
1874.299270817964
  0
LINE
  5
1C9
100
AcDbEntity
  8
0
  6
CONTINUOUS
 62
           3
100
AcDbLine
 10
3135.899997392196
 20
1873.099269131065
 11
3145.899997168588
 21
1873.099269131065
  0
LINE
  5
1C8
100
AcDbEntity
  8
0
  6
CONTINUOUS
 62
           3
100
AcDbLine
 10
3135.899997392196
 20
1873.099269131065
 11
3135.899997392196
 21
1874.299270817964
  0
LINE
  5
1C7
100
AcDbEntity
  8
0
  6
CONTINUOUS
 62
           3
100
AcDbLine
 10
3185.899996274755
 20
1873.099269131065
 11
3185.899996274755
 21
1874.299270817964
  0
LINE
  5
1C6
100
AcDbEntity
  8
0
  6
CONTINUOUS
 62
           3
100
AcDbLine
 10
3171.149996650867
 20
1873.099269131065
 11
3185.899996274755
 21
1873.099269131065
  0
LINE
  5
1C5
100
AcDbEntity
  8
0
  6
CONTINUOUS
 62
           3
100
AcDbLine
 10
3171.149996650867
 20
1874.299270817964
 11
3185.899996274755
 21
1874.299270817964
  0
LINE
  5
1C4
100
AcDbEntity
  8
0
  6
CONTINUOUS
 62
           3
100
AcDbLine
 10
3145.899997168588
 20
1873.099269131065
 11
3160.649996792476
 21
1873.099269131065
  0
LINE
  5
1C3
100
AcDbEntity
  8
0
  6
CONTINUOUS
 62
           3
100
AcDbLine
 10
3145.899997168588
 20
1874.299270817964
 11
3160.649996792476
 21
1874.299270817964
  0
LINE
  5
1C2
100
AcDbEntity
  8
0
  6
CONTINUOUS
 62
           3
100
AcDbLine
 10
3145.899997168588
 20
1715.499268630593
 11
3145.899997168588
 21
1714.299270669097
  0
LINE
  5
1C1
100
AcDbEntity
  8
0
  6
CONTINUOUS
 62
           3
100
AcDbLine
 10
3145.899997168588
 20
1714.299270669097
 11
3157.899996341777
 21
1714.299270669097
  0
LINE
  5
1C0
100
AcDbEntity
  8
0
  6
CONTINUOUS
 62
           3
100
AcDbLine
 10
3145.899997168588
 20
1715.499268630593
 11
3157.899996341777
 21
1715.499268630593
  0
LINE
  5
1BF
100
AcDbEntity
  8
0
  6
CONTINUOUS
 62
           3
100
AcDbLine
 10
3169.149996788769
 20
1714.299270669097
 11
3169.149996788769
 21
1715.499268630593
  0
LINE
  5
1BE
100
AcDbEntity
  8
0
  6
CONTINUOUS
 62
           3
100
AcDbLine
 10
3169.149996788769
 20
1715.499268630593
 11
3169.399996829769
 21
1715.499268630593
  0
LINE
  5
1BD
100
AcDbEntity
  8
0
  6
CONTINUOUS
 62
           3
100
AcDbLine
 10
3195.899996051146
 20
1873.099269131065
 11
3195.899996051146
 21
1874.299270817964
  0
LINE
  5
1BC
100
AcDbEntity
  8
0
  6
CONTINUOUS
 62
           3
100
AcDbLine
 10
3195.899996051146
 20
1873.099269131065
 11
3185.899996274755
 21
1873.099269131065
  0
LINE
  5
1BB
100
AcDbEntity
  8
0
  6
CONTINUOUS
 62
           3
100
AcDbLine
 10
3195.899996051146
 20
1874.299270817964
 11
3185.899996274755
 21
1874.299270817964
  0
LINE
  5
1BA
100
AcDbEntity
  8
0
  6
CONTINUOUS
 62
           3
100
AcDbLine
 10
3169.149996788769
 20
1873.099269131065
 11
3169.149996788769
 21
1874.299270817964
  0
LINE
  5
1B9
100
AcDbEntity
  8
0
  6
CONTINUOUS
 62
           3
100
AcDbLine
 10
3171.149996650867
 20
1873.099269131065
 11
3169.149996788769
 21
1873.099269131065
  0
LINE
  5
1B8
100
AcDbEntity
  8
0
  6
CONTINUOUS
 62
           3
100
AcDbLine
 10
3169.149996788769
 20
1874.299270817964
 11
3171.149996650867
 21
1874.299270817964
  0
LINE
  5
1B7
100
AcDbEntity
  8
0
  6
CONTINUOUS
 62
           3
100
AcDbLine
 10
3135.899997392196
 20
1715.499268630593
 11
3135.899997392196
 21
1714.299270669097
  0
LINE
  5
1B6
100
AcDbEntity
  8
0
  6
CONTINUOUS
 62
           3
100
AcDbLine
 10
3135.899997392196
 20
1714.299270669097
 11
3145.899997168588
 21
1714.299270669097
  0
LINE
  5
1B5
100
AcDbEntity
  8
0
  6
CONTINUOUS
 62
           3
100
AcDbLine
 10
3135.899997392196
 20
1715.499268630593
 11
3145.899997168588
 21
1715.499268630593
  0
LINE
  5
1B4
100
AcDbEntity
  8
0
  6
CONTINUOUS
 62
           3
100
AcDbLine
 10
3185.899996274755
 20
1715.499268630593
 11
3185.899996274755
 21
1714.299270669097
  0
LINE
  5
1B3
100
AcDbEntity
  8
0
  6
CONTINUOUS
 62
           3
100
AcDbLine
 10
3173.899997101564
 20
1714.299270669097
 11
3185.899996274755
 21
1714.299270669097
  0
LINE
  5
1B2
100
AcDbEntity
  8
0
  6
CONTINUOUS
 62
           3
100
AcDbLine
 10
3173.899997101564
 20
1715.499268630593
 11
3185.899996274755
 21
1715.499268630593
  0
LINE
  5
1B1
100
AcDbEntity
  8
0
  6
CONTINUOUS
 62
           3
100
AcDbLine
 10
3162.649996654574
 20
1874.299270817964
 11
3162.649996654574
 21
1873.099269131065
  0
LINE
  5
1B0
100
AcDbEntity
  8
0
  6
CONTINUOUS
 62
           3
100
AcDbLine
 10
3162.649996654574
 20
1873.099269131065
 11
3160.649996792476
 21
1873.099269131065
  0
LINE
  5
1AF
100
AcDbEntity
  8
0
  6
CONTINUOUS
 62
           3
100
AcDbLine
 10
3160.649996792476
 20
1874.299270817964
 11
3162.649996654574
 21
1874.299270817964
  0
LINE
  5
1AE
100
AcDbEntity
  8
0
  6
CONTINUOUS
 62
           3
100
AcDbLine
 10
3195.899996051146
 20
1715.499268630593
 11
3195.899996051146
 21
1714.299270669097
  0
LINE
  5
1AD
100
AcDbEntity
  8
0
  6
CONTINUOUS
 62
           3
100
AcDbLine
 10
3195.899996051146
 20
1714.299270669097
 11
3185.899996274755
 21
1714.299270669097
  0
LINE
  5
1AC
100
AcDbEntity
  8
0
  6
CONTINUOUS
 62
           3
100
AcDbLine
 10
3195.899996051146
 20
1715.499268630593
 11
3185.899996274755
 21
1715.499268630593
  0
LINE
  5
1AB
100
AcDbEntity
  8
0
  6
CONTINUOUS
 62
           3
100
AcDbLine
 10
3162.649996654574
 20
1715.499268630593
 11
3162.649996654574
 21
1714.299270669097
  0
LINE
  5
1AA
100
AcDbEntity
  8
0
  6
CONTINUOUS
 62
           3
100
AcDbLine
 10
3162.399996613574
 20
1715.499268630593
 11
3162.649996654574
 21
1715.499268630593
  0
LINE
  5
1A9
100
AcDbEntity
  8
0
  6
CONTINUOUS
 62
           3
100
AcDbLine
 10
3112.899997347715
 20
1714.299270669097
 11
3112.899997347715
 21
1715.499268630593
  0
LINE
  5
1A8
100
AcDbEntity
  8
0
  6
CONTINUOUS
 62
           3
100
AcDbLine
 10
3110.899997019717
 20
1714.299270669097
 11
3112.899997347715
 21
1714.299270669097
  0
LINE
  5
1A7
100
AcDbEntity
  8
0
  6
CONTINUOUS
 62
           3
100
AcDbLine
 10
3112.899997347715
 20
1715.499268630593
 11
3110.899997019717
 21
1715.499268630593
  0
LINE
  5
1A6
100
AcDbEntity
  8
0
  6
CONTINUOUS
 62
           3
100
AcDbLine
 10
3118.89999833111
 20
1715.499268630593
 11
3118.89999833111
 21
1714.299270669097
  0
LINE
  5
1A5
100
AcDbEntity
  8
0
  6
CONTINUOUS
 62
           3
100
AcDbLine
 10
3118.89999833111
 20
1714.299270669097
 11
3120.899994933709
 21
1714.299270669097
  0
LINE
  5
1A4
100
AcDbEntity
  8
0
  6
CONTINUOUS
 62
           3
100
AcDbLine
 10
3120.899994933709
 20
1715.499268630593
 11
3118.89999833111
 21
1715.499268630593
  0
LINE
  5
1A3
100
AcDbEntity
  8
0
  6
CONTINUOUS
 62
           3
100
AcDbLine
 10
3218.899996095928
 20
1874.299270817964
 11
3218.899996095928
 21
1873.099269131065
  0
LINE
  5
1A2
100
AcDbEntity
  8
0
  6
CONTINUOUS
 62
           3
100
AcDbLine
 10
3218.899996095928
 20
1873.099269131065
 11
3220.899996423626
 21
1873.099269131065
  0
LINE
  5
1A1
100
AcDbEntity
  8
0
  6
CONTINUOUS
 62
           3
100
AcDbLine
 10
3220.899996423626
 20
1874.299270817964
 11
3218.899996095928
 21
1874.299270817964
  0
LINE
  5
1A0
100
AcDbEntity
  8
0
  6
CONTINUOUS
 62
           3
100
AcDbLine
 10
3212.899995112233
 20
1873.099269131065
 11
3212.899995112233
 21
1874.299270817964
  0
LINE
  5
19F
100
AcDbEntity
  8
0
  6
CONTINUOUS
 62
           3
100
AcDbLine
 10
3210.899998509634
 20
1873.099269131065
 11
3212.899995112233
 21
1873.099269131065
  0
LINE
  5
19E
100
AcDbEntity
  8
0
  6
CONTINUOUS
 62
           3
100
AcDbLine
 10
3212.899995112233
 20
1874.299270817964
 11
3210.899998509634
 21
1874.299270817964
  0
LINE
  5
19D
100
AcDbEntity
  8
0
  6
CONTINUOUS
 62
           3
100
AcDbLine
 10
3218.899996095928
 20
1714.299270669097
 11
3218.899996095928
 21
1715.499268630593
  0
LINE
  5
19C
100
AcDbEntity
  8
0
  6
CONTINUOUS
 62
           3
100
AcDbLine
 10
3220.899996423626
 20
1714.299270669097
 11
3218.899996095928
 21
1714.299270669097
  0
LINE
  5
19B
100
AcDbEntity
  8
0
  6
CONTINUOUS
 62
           3
100
AcDbLine
 10
3218.899996095928
 20
1715.499268630593
 11
3220.899996423626
 21
1715.499268630593
  0
LINE
  5
19A
100
AcDbEntity
  8
0
  6
CONTINUOUS
 62
           3
100
AcDbLine
 10
3212.899995112233
 20
1715.499268630593
 11
3212.899995112233
 21
1714.299270669097
  0
LINE
  5
199
100
AcDbEntity
  8
0
  6
CONTINUOUS
 62
           3
100
AcDbLine
 10
3212.899995112233
 20
1714.299270669097
 11
3210.899998509634
 21
1714.299270669097
  0
LINE
  5
198
100
AcDbEntity
  8
0
  6
CONTINUOUS
 62
           3
100
AcDbLine
 10
3210.899998509634
 20
1715.499268630593
 11
3212.899995112233
 21
1715.499268630593
  0
LINE
  5
197
100
AcDbEntity
  8
0
  6
CONTINUOUS
 62
           3
100
AcDbLine
 10
3112.899997347715
 20
1874.299270817964
 11
3112.899997347715
 21
1873.099269131065
  0
LINE
  5
196
100
AcDbEntity
  8
0
  6
CONTINUOUS
 62
           3
100
AcDbLine
 10
3112.899997347715
 20
1873.099269131065
 11
3110.899997019717
 21
1873.099269131065
  0
LINE
  5
195
100
AcDbEntity
  8
0
  6
CONTINUOUS
 62
           3
100
AcDbLine
 10
3110.899997019717
 20
1874.299270817964
 11
3112.899997347715
 21
1874.299270817964
  0
LINE
  5
194
100
AcDbEntity
  8
0
  6
CONTINUOUS
 62
           3
100
AcDbLine
 10
3118.89999833111
 20
1873.099269131065
 11
3118.89999833111
 21
1874.299270817964
  0
LINE
  5
193
100
AcDbEntity
  8
0
  6
CONTINUOUS
 62
           3
100
AcDbLine
 10
3120.899994933709
 20
1873.099269131065
 11
3118.89999833111
 21
1873.099269131065
  0
LINE
  5
192
100
AcDbEntity
  8
0
  6
CONTINUOUS
 62
           3
100
AcDbLine
 10
3118.89999833111
 20
1874.299270817964
 11
3120.899994933709
 21
1874.299270817964
  0
LINE
  5
191
100
AcDbEntity
  8
0
  6
CONTINUOUS
 62
           3
100
AcDbLine
 10
3120.899994933709
 20
1714.299270669097
 11
3135.899997392196
 21
1714.299270669097
  0
LINE
  5
190
100
AcDbEntity
  8
0
  6
CONTINUOUS
 62
           3
100
AcDbLine
 10
3120.899994933709
 20
1715.499268630593
 11
3135.899997392196
 21
1715.499268630593
  0
LINE
  5
18F
100
AcDbEntity
  8
0
  6
CONTINUOUS
 62
           3
100
AcDbLine
 10
3225.899995380623
 20
1715.499268630593
 11
3225.899995380623
 21
1714.299270669097
  0
LINE
  5
18E
100
AcDbEntity
  8
0
  6
CONTINUOUS
 62
           3
100
AcDbLine
 10
3225.899995380623
 20
1714.299270669097
 11
3220.899996423626
 21
1714.299270669097
  0
LINE
  5
18D
100
AcDbEntity
  8
0
  6
CONTINUOUS
 62
           3
100
AcDbLine
 10
3220.899996423626
 20
1715.499268630593
 11
3225.899995380623
 21
1715.499268630593
  0
LINE
  5
18C
100
AcDbEntity
  8
0
  6
CONTINUOUS
 62
           3
100
AcDbLine
 10
3120.899994933709
 20
1873.099269131065
 11
3135.899997392196
 21
1873.099269131065
  0
LINE
  5
18B
100
AcDbEntity
  8
0
  6
CONTINUOUS
 62
           3
100
AcDbLine
 10
3120.899994933709
 20
1874.299270817964
 11
3135.899997392196
 21
1874.299270817964
  0
LINE
  5
18A
100
AcDbEntity
  8
0
  6
CONTINUOUS
 62
           3
100
AcDbLine
 10
3210.899998509634
 20
1714.299270669097
 11
3195.899996051146
 21
1714.299270669097
  0
LINE
  5
189
100
AcDbEntity
  8
0
  6
CONTINUOUS
 62
           3
100
AcDbLine
 10
3210.899998509634
 20
1715.499268630593
 11
3195.899996051146
 21
1715.499268630593
  0
LINE
  5
188
100
AcDbEntity
  8
0
  6
CONTINUOUS
 62
           3
100
AcDbLine
 10
3225.899995380623
 20
1873.099269131065
 11
3225.899995380623
 21
1874.299270817964
  0
LINE
  5
187
100
AcDbEntity
  8
0
  6
CONTINUOUS
 62
           3
100
AcDbLine
 10
3220.899996423626
 20
1873.099269131065
 11
3225.899995380623
 21
1873.099269131065
  0
LINE
  5
186
100
AcDbEntity
  8
0
  6
CONTINUOUS
 62
           3
100
AcDbLine
 10
3225.899995380623
 20
1874.299270817964
 11
3220.899996423626
 21
1874.299270817964
  0
LINE
  5
185
100
AcDbEntity
  8
0
  6
CONTINUOUS
 62
           3
100
AcDbLine
 10
3210.899998509634
 20
1873.099269131065
 11
3195.899996051146
 21
1873.099269131065
  0
LINE
  5
184
100
AcDbEntity
  8
0
  6
CONTINUOUS
 62
           3
100
AcDbLine
 10
3210.899998509634
 20
1874.299270817964
 11
3195.899996051146
 21
1874.299270817964
  0
LINE
  5
183
100
AcDbEntity
  8
0
  6
CONTINUOUS
 62
           3
100
AcDbLine
 10
3105.89999806272
 20
1873.099269131065
 11
3105.89999806272
 21
1874.299270817964
  0
LINE
  5
182
100
AcDbEntity
  8
0
  6
CONTINUOUS
 62
           3
100
AcDbLine
 10
3110.899997019717
 20
1873.099269131065
 11
3105.89999806272
 21
1873.099269131065
  0
LINE
  5
181
100
AcDbEntity
  8
0
  6
CONTINUOUS
 62
           3
100
AcDbLine
 10
3105.89999806272
 20
1874.299270817964
 11
3110.899997019717
 21
1874.299270817964
  0
LINE
  5
180
100
AcDbEntity
  8
0
  6
CONTINUOUS
 62
           3
100
AcDbLine
 10
3105.89999806272
 20
1715.499268630593
 11
3105.89999806272
 21
1714.299270669097
  0
LINE
  5
17F
100
AcDbEntity
  8
0
  6
CONTINUOUS
 62
           3
100
AcDbLine
 10
3105.89999806272
 20
1714.299270669097
 11
3110.899997019717
 21
1714.299270669097
  0
LINE
  5
17E
100
AcDbEntity
  8
0
  6
CONTINUOUS
 62
           3
100
AcDbLine
 10
3110.899997019717
 20
1715.499268630593
 11
3105.89999806272
 21
1715.499268630593
  0
LINE
  5
17D
100
AcDbEntity
  8
0
  6
CONTINUOUS
 62
           3
100
AcDbLine
 10
3169.149996788769
 20
1715.499268630593
 11
3168.899996747769
 21
1715.499268630593
  0
LINE
  5
17C
100
AcDbEntity
  8
0
  6
CONTINUOUS
 62
           3
100
AcDbLine
 10
3162.899996695574
 20
1715.499268630593
 11
3162.649996654574
 21
1715.499268630593
  0
LINE
  5
17B
100
AcDbEntity
  8
0
  6
CONTINUOUS
 62
           3
100
AcDbLine
 10
3162.649996654574
 20
1873.099269131065
 11
3162.899996695574
 21
1873.099269131065
  0
LINE
  5
17A
100
AcDbEntity
  8
0
  6
CONTINUOUS
 62
           3
100
AcDbLine
 10
3168.899996747769
 20
1873.099269131065
 11
3169.149996788769
 21
1873.099269131065
  0
LINE
  5
179
100
AcDbEntity
  8
0
  6
CONTINUOUS
 62
           3
100
AcDbLine
 10
3162.649996654574
 20
1874.299270817964
 11
3162.899996695574
 21
1874.299270817964
  0
LINE
  5
178
100
AcDbEntity
  8
0
  6
CONTINUOUS
 62
           3
100
AcDbLine
 10
3168.899996747769
 20
1874.299270817964
 11
3169.149996788769
 21
1874.299270817964
  0
LINE
  5
177
100
AcDbEntity
  8
0
  6
CONTINUOUS
 62
           3
100
AcDbLine
 10
3225.899995380623
 20
1715.499268630593
 11
3225.899995380623
 21
1715.999269643792
  0
LINE
  5
176
100
AcDbEntity
  8
0
  6
CONTINUOUS
 62
           3
100
AcDbLine
 10
3105.89999806272
 20
1715.499268630593
 11
3105.89999806272
 21
1715.999269643792
  0
LINE
  5
175
100
AcDbEntity
  8
0
  6
CONTINUOUS
 62
           3
100
AcDbLine
 10
3105.89999806272
 20
1873.099269131065
 11
3105.89999806272
 21
1872.599271843265
  0
LINE
  5
174
100
AcDbEntity
  8
0
  6
CONTINUOUS
 62
           3
100
AcDbLine
 10
3225.899995380623
 20
1873.099269131065
 11
3225.899995380623
 21
1872.599271843265
  0
LINE
  5
173
100
AcDbEntity
  8
0
  6
CONTINUOUS
 62
           3
100
AcDbLine
 10
3225.899995380623
 20
1854.299269402481
 11
3224.199996405623
 21
1854.299269402481
  0
LINE
  5
172
100
AcDbEntity
  8
0
  6
CONTINUOUS
 62
           3
100
AcDbLine
 10
3225.899995380623
 20
1834.299269849395
 11
3225.899995380623
 21
1854.299269402481
  0
LINE
  5
171
100
AcDbEntity
  8
0
  6
CONTINUOUS
 62
           3
100
AcDbLine
 10
3224.199996405623
 20
1834.299269849395
 11
3225.824804121023
 21
1834.299269849395
  0
LINE
  5
170
100
AcDbEntity
  8
0
  6
CONTINUOUS
 62
           3
100
AcDbLine
 10
3107.89999839072
 20
1856.299271592879
 11
3105.89999806272
 21
1856.299271592879
  0
LINE
  5
16F
100
AcDbEntity
  8
0
  6
CONTINUOUS
 62
           3
100
AcDbLine
 10
3105.89999806272
 20
1872.599271843265
 11
3105.89999806272
 21
1856.299271592879
  0
LINE
  5
16E
100
AcDbEntity
  8
0
  6
CONTINUOUS
 62
           3
100
AcDbLine
 10
3225.899995380623
 20
1872.599271843265
 11
3225.899995380623
 21
1856.299271592879
  0
LINE
  5
16D
100
AcDbEntity
  8
0
  6
CONTINUOUS
 62
           3
100
AcDbLine
 10
3223.899995052625
 20
1856.299271592879
 11
3225.899995380623
 21
1856.299271592879
  0
LINE
  5
16C
100
AcDbEntity
  8
0
  6
CONTINUOUS
 62
           3
100
AcDbLine
 10
3224.199996405623
 20
1854.299269402481
 11
3223.899995052625
 21
1854.299269402481
  0
LINE
  5
16B
100
AcDbEntity
  8
0
  6
CONTINUOUS
 62
           3
100
AcDbLine
 10
3223.899995052625
 20
1834.299269849395
 11
3224.199996405623
 21
1834.299269849395
  0
LINE
  5
16A
100
AcDbEntity
  8
0
  6
CONTINUOUS
 62
           3
100
AcDbLine
 10
3225.899995380623
 20
1832.2992704529
 11
3223.899995052625
 21
1832.2992704529
  0
LINE
  5
169
100
AcDbEntity
  8
0
  6
CONTINUOUS
 62
           3
100
AcDbLine
 10
3225.899995380623
 20
1832.2992704529
 11
3225.899995380623
 21
1756.299266377559
  0
LINE
  5
168
100
AcDbEntity
  8
0
  6
CONTINUOUS
 62
           3
100
AcDbLine
 10
3225.899995380623
 20
1756.299266377559
 11
3223.899995052625
 21
1756.299266377559
  0
LINE
  5
167
100
AcDbEntity
  8
0
  6
CONTINUOUS
 62
           3
100
AcDbLine
 10
3223.899995052625
 20
1754.299269774962
 11
3224.199996405623
 21
1754.299269774962
  0
LINE
  5
166
100
AcDbEntity
  8
0
  6
CONTINUOUS
 62
           3
100
AcDbLine
 10
3224.199996405623
 20
1734.29926649678
 11
3223.899995052625
 21
1734.29926649678
  0
LINE
  5
165
100
AcDbEntity
  8
0
  6
CONTINUOUS
 62
           3
100
AcDbLine
 10
3223.899995052625
 20
1732.299269894183
 11
3225.899995380623
 21
1732.299269894183
  0
LINE
  5
164
100
AcDbEntity
  8
0
  6
CONTINUOUS
 62
           3
100
AcDbLine
 10
3225.899995380623
 20
1715.999269643792
 11
3225.899995380623
 21
1732.299269894183
  0
LINE
  5
163
100
AcDbEntity
  8
0
  6
CONTINUOUS
 62
           3
100
AcDbLine
 10
3105.89999806272
 20
1715.999269643792
 11
3105.89999806272
 21
1732.299269894183
  0
LINE
  5
162
100
AcDbEntity
  8
0
  6
CONTINUOUS
 62
           3
100
AcDbLine
 10
3107.89999839072
 20
1732.299269894183
 11
3105.89999806272
 21
1732.299269894183
  0
LINE
  5
161
100
AcDbEntity
  8
0
  6
CONTINUOUS
 62
           3
100
AcDbLine
 10
3107.59999703772
 20
1734.29926649678
 11
3107.89999839072
 21
1734.29926649678
  0
LINE
  5
160
100
AcDbEntity
  8
0
  6
CONTINUOUS
 62
           3
100
AcDbLine
 10
3107.89999839072
 20
1754.299269774962
 11
3107.59999703772
 21
1754.299269774962
  0
LINE
  5
15F
100
AcDbEntity
  8
0
  6
CONTINUOUS
 62
           3
100
AcDbLine
 10
3105.89999806272
 20
1756.299266377559
 11
3107.89999839072
 21
1756.299266377559
  0
LINE
  5
15E
100
AcDbEntity
  8
0
  6
CONTINUOUS
 62
           3
100
AcDbLine
 10
3105.89999806272
 20
1832.2992704529
 11
3105.89999806272
 21
1756.299266377559
  0
LINE
  5
15D
100
AcDbEntity
  8
0
  6
CONTINUOUS
 62
           3
100
AcDbLine
 10
3105.89999806272
 20
1832.2992704529
 11
3107.89999839072
 21
1832.2992704529
  0
LINE
  5
15C
100
AcDbEntity
  8
0
  6
CONTINUOUS
 62
           3
100
AcDbLine
 10
3107.89999839072
 20
1834.299269849395
 11
3107.59999703772
 21
1834.299269849395
  0
LINE
  5
15B
100
AcDbEntity
  8
0
  6
CONTINUOUS
 62
           3
100
AcDbLine
 10
3107.59999703772
 20
1854.299269402481
 11
3107.89999839072
 21
1854.299269402481
  0
LINE
  5
15A
100
AcDbEntity
  8
0
  6
CONTINUOUS
 62
           3
100
AcDbLine
 10
3105.89999806272
 20
1754.299269774962
 11
3105.89999806272
 21
1734.29926649678
  0
LINE
  5
159
100
AcDbEntity
  8
0
  6
CONTINUOUS
 62
           3
100
AcDbLine
 10
3107.59999703772
 20
1754.299269774962
 11
3105.89999806272
 21
1754.299269774962
  0
LINE
  5
158
100
AcDbEntity
  8
0
  6
CONTINUOUS
 62
           3
100
AcDbLine
 10
3105.975189322322
 20
1734.29926649678
 11
3107.59999703772
 21
1734.29926649678
  0
LINE
  5
157
100
AcDbEntity
  8
0
  6
CONTINUOUS
 62
           3
100
AcDbLine
 10
3107.59999703772
 20
1834.299269849395
 11
3105.975189322322
 21
1834.299269849395
  0
LINE
  5
156
100
AcDbEntity
  8
0
  6
CONTINUOUS
 62
           3
100
AcDbLine
 10
3105.89999806272
 20
1834.299269849395
 11
3105.89999806272
 21
1854.299269402481
  0
LINE
  5
155
100
AcDbEntity
  8
0
  6
CONTINUOUS
 62
           3
100
AcDbLine
 10
3105.89999806272
 20
1854.299269402481
 11
3107.59999703772
 21
1854.299269402481
  0
LINE
  5
154
100
AcDbEntity
  8
0
  6
CONTINUOUS
 62
           3
100
AcDbLine
 10
3225.899995380623
 20
1754.299269774962
 11
3225.899995380623
 21
1734.29926649678
  0
LINE
  5
153
100
AcDbEntity
  8
0
  6
CONTINUOUS
 62
           3
100
AcDbLine
 10
3224.199996405623
 20
1754.299269774962
 11
3225.899995380623
 21
1754.299269774962
  0
LINE
  5
152
100
AcDbEntity
  8
0
  6
CONTINUOUS
 62
           3
100
AcDbLine
 10
3225.824804121023
 20
1734.29926649678
 11
3224.199996405623
 21
1734.29926649678
  0
LINE
  5
151
100
AcDbEntity
  8
0
  6
CONTINUOUS
 62
           3
100
AcDbLine
 10
3112.899997347715
 20
1689.299264708815
 11
3112.899997347715
 21
1690.899276891713
  0
LINE
  5
150
100
AcDbEntity
  8
0
  6
CONTINUOUS
 62
           3
100
AcDbLine
 10
3110.899997019717
 20
1689.299264708815
 11
3112.899997347715
 21
1689.299264708815
  0
LINE
  5
14F
100
AcDbEntity
  8
0
  6
CONTINUOUS
 62
           3
100
AcDbLine
 10
3112.899997347715
 20
1690.899276891713
 11
3110.899997019717
 21
1690.899276891713
  0
LINE
  5
14E
100
AcDbEntity
  8
0
  6
CONTINUOUS
 62
           3
100
AcDbLine
 10
3110.899997019717
 20
1959.299275437196
 11
3112.899997347715
 21
1959.299275437196
  0
LINE
  5
14D
100
AcDbEntity
  8
0
  6
CONTINUOUS
 62
           3
100
AcDbLine
 10
3112.899997347715
 20
1959.299275437196
 11
3112.899997347715
 21
1957.699263253996
  0
LINE
  5
14C
100
AcDbEntity
  8
0
  6
CONTINUOUS
 62
           3
100
AcDbLine
 10
3112.899997347715
 20
1957.699263253996
 11
3110.899997019717
 21
1957.699263253996
  0
LINE
  5
14B
100
AcDbEntity
  8
0
  6
CONTINUOUS
 62
           3
100
AcDbLine
 10
3118.89999833111
 20
1957.699263253996
 11
3118.89999833111
 21
1959.299275437196
  0
LINE
  5
14A
100
AcDbEntity
  8
0
  6
CONTINUOUS
 62
           3
100
AcDbLine
 10
3118.89999833111
 20
1959.299275437196
 11
3120.899994933709
 21
1959.299275437196
  0
LINE
  5
149
100
AcDbEntity
  8
0
  6
CONTINUOUS
 62
           3
100
AcDbLine
 10
3120.899994933709
 20
1957.699263253996
 11
3118.89999833111
 21
1957.699263253996
  0
LINE
  5
148
100
AcDbEntity
  8
0
  6
CONTINUOUS
 62
           3
100
AcDbLine
 10
3118.89999833111
 20
1689.299264708815
 11
3120.899994933709
 21
1689.299264708815
  0
LINE
  5
147
100
AcDbEntity
  8
0
  6
CONTINUOUS
 62
           3
100
AcDbLine
 10
3118.89999833111
 20
1690.899276891713
 11
3118.89999833111
 21
1689.299264708815
  0
LINE
  5
146
100
AcDbEntity
  8
0
  6
CONTINUOUS
 62
           3
100
AcDbLine
 10
3120.899994933709
 20
1690.899276891713
 11
3118.89999833111
 21
1690.899276891713
  0
LINE
  5
145
100
AcDbEntity
  8
0
  6
CONTINUOUS
 62
           3
100
AcDbLine
 10
3120.899994933709
 20
1689.299264708815
 11
3210.899998509634
 21
1689.299264708815
  0
LINE
  5
144
100
AcDbEntity
  8
0
  6
CONTINUOUS
 62
           3
100
AcDbLine
 10
3120.899994933709
 20
1690.899276891713
 11
3210.899998509634
 21
1690.899276891713
  0
LINE
  5
143
100
AcDbEntity
  8
0
  6
CONTINUOUS
 62
           3
100
AcDbLine
 10
3120.899994933709
 20
1959.299275437196
 11
3210.899998509634
 21
1959.299275437196
  0
LINE
  5
142
100
AcDbEntity
  8
0
  6
CONTINUOUS
 62
           3
100
AcDbLine
 10
3120.899994933709
 20
1957.699263253996
 11
3210.899998509634
 21
1957.699263253996
  0
LINE
  5
141
100
AcDbEntity
  8
0
  6
CONTINUOUS
 62
           3
100
AcDbLine
 10
3105.89999806272
 20
1690.899276891713
 11
3105.89999806272
 21
1689.299264708815
  0
LINE
  5
140
100
AcDbEntity
  8
0
  6
CONTINUOUS
 62
           3
100
AcDbLine
 10
3105.89999806272
 20
1689.299264708815
 11
3110.899997019717
 21
1689.299264708815
  0
LINE
  5
13F
100
AcDbEntity
  8
0
  6
CONTINUOUS
 62
           3
100
AcDbLine
 10
3110.899997019717
 20
1690.899276891713
 11
3105.89999806272
 21
1690.899276891713
  0
LINE
  5
13E
100
AcDbEntity
  8
0
  6
CONTINUOUS
 62
           3
100
AcDbLine
 10
3105.89999806272
 20
1957.699263253996
 11
3105.89999806272
 21
1959.299275437196
  0
LINE
  5
13D
100
AcDbEntity
  8
0
  6
CONTINUOUS
 62
           3
100
AcDbLine
 10
3105.89999806272
 20
1959.299275437196
 11
3110.899997019717
 21
1959.299275437196
  0
LINE
  5
13C
100
AcDbEntity
  8
0
  6
CONTINUOUS
 62
           3
100
AcDbLine
 10
3110.899997019717
 20
1957.699263253996
 11
3105.89999806272
 21
1957.699263253996
  0
LINE
  5
13B
100
AcDbEntity
  8
0
  6
CONTINUOUS
 62
           3
100
AcDbLine
 10
3218.899996095928
 20
1959.299275437196
 11
3218.899996095928
 21
1957.699263253996
  0
LINE
  5
13A
100
AcDbEntity
  8
0
  6
CONTINUOUS
 62
           3
100
AcDbLine
 10
3220.899996423626
 20
1959.299275437196
 11
3218.899996095928
 21
1959.299275437196
  0
LINE
  5
139
100
AcDbEntity
  8
0
  6
CONTINUOUS
 62
           3
100
AcDbLine
 10
3218.899996095928
 20
1957.699263253996
 11
3220.899996423626
 21
1957.699263253996
  0
LINE
  5
138
100
AcDbEntity
  8
0
  6
CONTINUOUS
 62
           3
100
AcDbLine
 10
3218.899996095928
 20
1689.299264708815
 11
3218.899996095928
 21
1690.899276891713
  0
LINE
  5
137
100
AcDbEntity
  8
0
  6
CONTINUOUS
 62
           3
100
AcDbLine
 10
3220.899996423626
 20
1689.299264708815
 11
3218.899996095928
 21
1689.299264708815
  0
LINE
  5
136
100
AcDbEntity
  8
0
  6
CONTINUOUS
 62
           3
100
AcDbLine
 10
3218.899996095928
 20
1690.899276891713
 11
3220.899996423626
 21
1690.899276891713
  0
LINE
  5
135
100
AcDbEntity
  8
0
  6
CONTINUOUS
 62
           3
100
AcDbLine
 10
3212.899995112233
 20
1957.699263253996
 11
3212.899995112233
 21
1959.299275437196
  0
LINE
  5
134
100
AcDbEntity
  8
0
  6
CONTINUOUS
 62
           3
100
AcDbLine
 10
3212.899995112233
 20
1959.299275437196
 11
3210.899998509634
 21
1959.299275437196
  0
LINE
  5
133
100
AcDbEntity
  8
0
  6
CONTINUOUS
 62
           3
100
AcDbLine
 10
3210.899998509634
 20
1957.699263253996
 11
3212.899995112233
 21
1957.699263253996
  0
LINE
  5
132
100
AcDbEntity
  8
0
  6
CONTINUOUS
 62
           3
100
AcDbLine
 10
3212.899995112233
 20
1690.899276891713
 11
3212.899995112233
 21
1689.299264708815
  0
LINE
  5
131
100
AcDbEntity
  8
0
  6
CONTINUOUS
 62
           3
100
AcDbLine
 10
3212.899995112233
 20
1689.299264708815
 11
3210.899998509634
 21
1689.299264708815
  0
LINE
  5
130
100
AcDbEntity
  8
0
  6
CONTINUOUS
 62
           3
100
AcDbLine
 10
3210.899998509634
 20
1690.899276891713
 11
3212.899995112233
 21
1690.899276891713
  0
LINE
  5
12F
100
AcDbEntity
  8
0
  6
CONTINUOUS
 62
           3
100
AcDbLine
 10
3225.899995380623
 20
1690.899276891713
 11
3225.899995380623
 21
1689.299264708815
  0
LINE
  5
12E
100
AcDbEntity
  8
0
  6
CONTINUOUS
 62
           3
100
AcDbLine
 10
3225.899995380623
 20
1689.299264708815
 11
3220.899996423626
 21
1689.299264708815
  0
LINE
  5
12D
100
AcDbEntity
  8
0
  6
CONTINUOUS
 62
           3
100
AcDbLine
 10
3220.899996423626
 20
1690.899276891713
 11
3225.899995380623
 21
1690.899276891713
  0
LINE
  5
12C
100
AcDbEntity
  8
0
  6
CONTINUOUS
 62
           3
100
AcDbLine
 10
3225.899995380623
 20
1957.699263253996
 11
3225.899995380623
 21
1959.299275437196
  0
LINE
  5
12B
100
AcDbEntity
  8
0
  6
CONTINUOUS
 62
           3
100
AcDbLine
 10
3225.899995380623
 20
1959.299275437196
 11
3220.899996423626
 21
1959.299275437196
  0
LINE
  5
12A
100
AcDbEntity
  8
0
  6
CONTINUOUS
 62
           3
100
AcDbLine
 10
3220.899996423626
 20
1957.699263253996
 11
3225.899995380623
 21
1957.699263253996
  0
LINE
  5
129
100
AcDbEntity
  8
0
  6
CONTINUOUS
 62
           3
100
AcDbLine
 10
3225.899995380623
 20
1957.699263253996
 11
3225.899995380623
 21
1956.999266305994
  0
LINE
  5
128
100
AcDbEntity
  8
0
  6
CONTINUOUS
 62
           3
100
AcDbLine
 10
3105.89999806272
 20
1957.699263253996
 11
3105.89999806272
 21
1956.999266305994
  0
LINE
  5
127
100
AcDbEntity
  8
0
  6
CONTINUOUS
 62
           3
100
AcDbLine
 10
3225.899995380623
 20
1690.899276891713
 11
3225.899995380623
 21
1691.599273840014
  0
LINE
  5
126
100
AcDbEntity
  8
0
  6
CONTINUOUS
 62
           3
100
AcDbLine
 10
3105.89999806272
 20
1690.899276891713
 11
3105.89999806272
 21
1691.599273840014
  0
LINE
  5
125
100
AcDbEntity
  8
0
  6
CONTINUOUS
 62
           3
100
AcDbLine
 10
3085.499999189236
 20
1689.299264708815
 11
3083.39999344334
 21
1689.299264708815
  0
LINE
  5
124
100
AcDbEntity
  8
0
  6
CONTINUOUS
 62
           3
100
AcDbLine
 10
3083.39999344334
 20
1959.299275437196
 11
3083.39999344334
 21
1689.299264708815
  0
LINE
  5
123
100
AcDbEntity
  8
0
  6
CONTINUOUS
 62
           3
100
AcDbLine
 10
3085.499999189236
 20
1959.299275437196
 11
3083.39999344334
 21
1959.299275437196
  0
LINE
  5
122
100
AcDbEntity
  8
0
  6
CONTINUOUS
 62
           3
100
AcDbLine
 10
3227.39999842022
 20
1814.299270296612
 11
3225.899995380623
 21
1814.299270296612
  0
LINE
  5
121
100
AcDbEntity
  8
0
  6
CONTINUOUS
 62
           3
100
AcDbLine
 10
3224.399996066124
 20
1756.299266377559
 11
3224.399996066124
 21
1754.299269774962
  0
LINE
  5
120
100
AcDbEntity
  8
0
  6
CONTINUOUS
 62
           3
100
AcDbLine
 10
3225.824804121023
 20
1734.29926649678
 11
3227.39999842022
 21
1734.29926649678
  0
LINE
  5
11F
100
AcDbEntity
  8
0
  6
CONTINUOUS
 62
           3
100
AcDbLine
 10
3227.39999842022
 20
1734.29926649678
 11
3227.39999842022
 21
1814.299270296612
  0
LINE
  5
11E
100
AcDbEntity
  8
0
  6
CONTINUOUS
 62
           3
100
AcDbLine
 10
3224.399996066124
 20
1914.299273649231
 11
3227.39999842022
 21
1914.299273649231
  0
LINE
  5
11D
100
AcDbEntity
  8
0
  6
CONTINUOUS
 62
           3
100
AcDbLine
 10
3224.399996066124
 20
1854.299269402481
 11
3224.399996066124
 21
1856.299271592879
  0
LINE
  5
11C
100
AcDbEntity
  8
0
  6
CONTINUOUS
 62
           3
100
AcDbLine
 10
3224.399996066124
 20
1874.299270817964
 11
3224.399996066124
 21
1914.299273649231
  0
LINE
  5
11B
100
AcDbEntity
  8
0
  6
CONTINUOUS
 62
           3
100
AcDbLine
 10
3227.39999842022
 20
1834.299269849395
 11
3225.824804121023
 21
1834.299269849395
  0
LINE
  5
11A
100
AcDbEntity
  8
0
  6
CONTINUOUS
 62
           3
100
AcDbLine
 10
3227.39999842022
 20
1914.299273649231
 11
3227.39999842022
 21
1834.299269849395
  0
LINE
  5
119
100
AcDbEntity
  8
0
  6
CONTINUOUS
 62
           3
100
AcDbLine
 10
3105.975189322322
 20
1734.29926649678
 11
3104.399995023121
 21
1734.29926649678
  0
LINE
  5
118
100
AcDbEntity
  8
0
  6
CONTINUOUS
 62
           3
100
AcDbLine
 10
3107.399997377519
 20
1756.299266377559
 11
3107.399997377519
 21
1754.299269774962
  0
LINE
  5
117
100
AcDbEntity
  8
0
  6
CONTINUOUS
 62
           3
100
AcDbLine
 10
3104.399995023121
 20
1814.299270296612
 11
3105.89999806272
 21
1814.299270296612
  0
LINE
  5
116
100
AcDbEntity
  8
0
  6
CONTINUOUS
 62
           3
100
AcDbLine
 10
3104.399995023121
 20
1734.29926649678
 11
3104.399995023121
 21
1814.299270296612
  0
LINE
  5
115
100
AcDbEntity
  8
0
  6
CONTINUOUS
 62
           3
100
AcDbLine
 10
3105.89999806272
 20
1692.299270788314
 11
3105.89999806272
 21
1691.599273840014
  0
LINE
  5
114
100
AcDbEntity
  8
0
  6
CONTINUOUS
 62
           3
100
AcDbLine
 10
3100.899999106025
 20
1689.299264708815
 11
3100.899999106025
 21
1692.299270788314
  0
LINE
  5
113
100
AcDbEntity
  8
0
  6
CONTINUOUS
 62
           3
100
AcDbLine
 10
3100.899999106025
 20
1959.299275437196
 11
3085.499999189236
 21
1959.299275437196
  0
LINE
  5
112
100
AcDbEntity
  8
0
  6
CONTINUOUS
 62
           3
100
AcDbLine
 10
3100.899999106025
 20
1959.299275437196
 11
3100.899999106025
 21
1956.299269357697
  0
LINE
  5
111
100
AcDbEntity
  8
0
  6
CONTINUOUS
 62
           3
100
AcDbLine
 10
3105.89999806272
 20
1956.299269357697
 11
3105.89999806272
 21
1956.999266305994
  0
LINE
  5
110
100
AcDbEntity
  8
0
  6
CONTINUOUS
 62
           3
100
AcDbLine
 10
3225.899995380623
 20
1956.299269357697
 11
3225.899995380623
 21
1956.999266305994
  0
LINE
  5
10F
100
AcDbEntity
  8
0
  6
CONTINUOUS
 62
           3
100
AcDbLine
 10
3230.899994337318
 20
1959.299275437196
 11
3230.899994337318
 21
1956.299269357697
  0
LINE
  5
10E
100
AcDbEntity
  8
0
  6
CONTINUOUS
 62
           3
100
AcDbLine
 10
3230.899994337318
 20
1689.299264708815
 11
3230.899994337318
 21
1692.299270788314
  0
LINE
  5
10D
100
AcDbEntity
  8
0
  6
CONTINUOUS
 62
           3
100
AcDbLine
 10
3225.899995380623
 20
1692.299270788314
 11
3225.899995380623
 21
1691.599273840014
  0
LINE
  5
10C
100
AcDbEntity
  8
0
  6
CONTINUOUS
 62
           3
100
AcDbLine
 10
3104.399995023121
 20
1834.299269849395
 11
3105.975189322322
 21
1834.299269849395
  0
LINE
  5
10B
100
AcDbEntity
  8
0
  6
CONTINUOUS
 62
           3
100
AcDbLine
 10
3107.399997377519
 20
1854.299269402481
 11
3107.399997377519
 21
1856.299271592879
  0
LINE
  5
10A
100
AcDbEntity
  8
0
  6
CONTINUOUS
 62
           3
100
AcDbLine
 10
3107.399997377519
 20
1874.299270817964
 11
3107.399997377519
 21
1914.299273649231
  0
LINE
  5
109
100
AcDbEntity
  8
0
  6
CONTINUOUS
 62
           3
100
AcDbLine
 10
3107.399997377519
 20
1914.299273649231
 11
3104.399995023121
 21
1914.299273649231
  0
LINE
  5
108
100
AcDbEntity
  8
0
  6
CONTINUOUS
 62
           3
100
AcDbLine
 10
3104.399995023121
 20
1914.299273649231
 11
3104.399995023121
 21
1834.299269849395
  0
LINE
  5
107
100
AcDbEntity
  8
0
  6
CONTINUOUS
 62
           3
100
AcDbLine
 10
3100.899999106025
 20
1689.299264708815
 11
3085.499999189236
 21
1689.299264708815
  0
LINE
  5
106
100
AcDbEntity
  8
FORMAT
  6
DOT_CENTER
 62
           3
100
AcDbLine
 10
3090.999996721634
 20
1949.299270073
 11
3077.399996721744
 21
1949.299270073
  0
LINE
  5
105
100
AcDbEntity
  8
FORMAT
  6
DOT_CENTER
 62
           3
100
AcDbLine
 10
3090.999996721634
 20
1699.299270073007
 11
3077.399996721744
 21
1699.299270073007
  0
LINE
  5
104
100
AcDbEntity
  8
FORMAT
  6
CONTINUOUS
 62
           3
100
AcDbLine
 10
3179.899996721761
 20
1716.896115175893
 11
3169.399996721768
 21
1716.896115175893
  0
LINE
  5
103
100
AcDbEntity
  8
FORMAT
  6
CONTINUOUS
 62
           3
100
AcDbLine
 10
3169.399996721768
 20
1716.896115175893
 11
3162.399996721575
 21
1716.896115175893
  0
LINE
  5
102
100
AcDbEntity
  8
FORMAT
  6
DOT_CENTER
 62
           3
100
AcDbLine
 10
3165.899996721671
 20
1574.058667325256
 11
3165.899996721671
 21
2049.693660841569
  0
LINE
  5
101
100
AcDbEntity
  8
FORMAT
  6
CONTINUOUS
 62
           3
100
AcDbLine
 10
3162.399996721575
 20
1716.896115175893
 11
3151.899996721582
 21
1716.896115175893
  0
LINE
  5
100
100
AcDbEntity
  8
0
  6
CONTINUOUS
 62
           3
100
AcDbLine
 10
3165.899996721671
 20
1717.431010464393
 11
3166.955269949171
 21
1717.415662268192
  0
LINE
  5
FF
100
AcDbEntity
  8
0
  6
CONTINUOUS
 62
           3
100
AcDbLine
 10
3166.955269949171
 20
1717.415662268192
 11
3167.89618794007
 21
1717.371286610193
  0
LINE
  5
FE
100
AcDbEntity
  8
0
  6
CONTINUOUS
 62
           3
100
AcDbLine
 10
3167.89618794007
 20
1717.371286610193
 11
3168.62078786977
 21
1717.302681663991
  0
LINE
  5
FD
100
AcDbEntity
  8
0
  6
CONTINUOUS
 62
           3
100
AcDbLine
 10
3168.62078786977
 20
1717.302681663991
 11
3169.050547602968
 21
1717.217290559792
  0
LINE
  5
FC
100
AcDbEntity
  8
0
  6
CONTINUOUS
 62
           3
100
AcDbLine
 10
3169.050547602968
 20
1717.217290559792
 11
3169.138896354969
 21
1717.124359467992
  0
LINE
  5
FB
100
AcDbEntity
  8
0
  6
CONTINUOUS
 62
           3
100
AcDbLine
 10
3169.138896354969
 20
1717.124359467992
 11
3168.899996747769
 21
1717.038811901793
  0
LINE
  5
FA
100
AcDbEntity
  8
0
  6
CONTINUOUS
 62
           3
100
AcDbLine
 10
3162.899996695574
 20
1717.038811901793
 11
3162.661097088374
 21
1717.124359467992
  0
LINE
  5
F9
100
AcDbEntity
  8
0
  6
CONTINUOUS
 62
           3
100
AcDbLine
 10
3162.661097088374
 20
1717.124359467992
 11
3162.749445840374
 21
1717.217290559792
  0
LINE
  5
F8
100
AcDbEntity
  8
0
  6
CONTINUOUS
 62
           3
100
AcDbLine
 10
3162.749445840374
 20
1717.217290559792
 11
3163.179205573575
 21
1717.302681663991
  0
LINE
  5
F7
100
AcDbEntity
  8
0
  6
CONTINUOUS
 62
           3
100
AcDbLine
 10
3163.179205573575
 20
1717.302681663991
 11
3163.903805503273
 21
1717.371286610193
  0
LINE
  5
F6
100
AcDbEntity
  8
0
  6
CONTINUOUS
 62
           3
100
AcDbLine
 10
3163.903805503273
 20
1717.371286610193
 11
3164.844723494172
 21
1717.415662268192
  0
LINE
  5
F5
100
AcDbEntity
  8
0
  6
CONTINUOUS
 62
           3
100
AcDbLine
 10
3164.844723494172
 20
1717.415662268192
 11
3165.899996721671
 21
1717.431010464393
  0
LINE
  5
F4
100
AcDbEntity
  8
1
  6
CONTINUOUS
 62
           3
100
AcDbLine
 10
3670.163567691041
 20
2243.427435077934
 11
3665.254330418631
 21
2243.427435077934
  0
LINE
  5
F3
100
AcDbEntity
  8
1
  6
DOT_CENTER
 62
           3
100
AcDbLine
 10
3670.163567691041
 20
2262.942825877874
 11
3670.163567691041
 21
2231.807278328125
  0
LINE
  5
F2
100
AcDbEntity
  8
1
  6
CONTINUOUS
 62
           3
100
AcDbLine
 10
3665.254330418631
 20
2255.171105068069
 11
3670.163567691041
 21
2255.171105068069
  0
LINE
  5
F1
100
AcDbEntity
  8
1
  6
CONTINUOUS
 62
           3
100
AcDbLine
 10
3665.254330418631
 20
2256.99301665304
 11
3659.389214871942
 21
2256.99301665304
  0
LINE
  5
F0
100
AcDbEntity
  8
1
  6
CONTINUOUS
 62
           3
100
AcDbLine
 10
3665.254330418631
 20
2241.60552349296
 11
3659.389214871942
 21
2241.60552349296
  0
LINE
  5
EF
100
AcDbEntity
  8
1
  6
CONTINUOUS
 62
           3
100
AcDbLine
 10
3665.254330418631
 20
2241.60552349296
 11
3665.254330418631
 21
2256.99301665304
  0
LINE
  5
EE
100
AcDbEntity
  8
1
  6
CONTINUOUS
 62
           3
100
AcDbLine
 10
3659.389214871942
 20
2241.60552349296
 11
3659.389214871942
 21
2256.99301665304
  0
LINE
  5
ED
100
AcDbEntity
  8
1
  6
CONTINUOUS
 62
           3
100
AcDbLine
 10
3659.389214871942
 20
2256.99301665304
 11
3659.389214871942
 21
2257.549270073
  0
LINE
  5
EC
100
AcDbEntity
  8
1
  6
CONTINUOUS
 62
           3
100
AcDbLine
 10
3649.714603906645
 20
2249.299270073
 11
3649.714603906645
 21
2257.549270073
  0
LINE
  5
EB
100
AcDbEntity
  8
1
  6
CONTINUOUS
 62
           3
100
AcDbLine
 10
3649.714603906645
 20
2257.549270073
 11
3659.389214871942
 21
2257.549270073
  0
LINE
  5
EA
100
AcDbEntity
  8
1
  6
CONTINUOUS
 62
           3
100
AcDbLine
 10
3648.868798384465
 20
2255.299270073
 11
3649.714603906645
 21
2255.299270073
  0
LINE
  5
E9
100
AcDbEntity
  8
1
  6
CONTINUOUS
 62
           3
100
AcDbLine
 10
3648.868798384465
 20
2249.299270073
 11
3648.868798384465
 21
2256.99301665304
  0
LINE
  5
E8
100
AcDbEntity
  8
1
  6
CONTINUOUS
 62
           3
100
AcDbLine
 10
3648.163567691041
 20
2256.99301665304
 11
3648.868798384465
 21
2256.99301665304
  0
LINE
  5
E7
100
AcDbEntity
  8
1
  6
CONTINUOUS
 62
           3
100
AcDbLine
 10
3647.663567691041
 20
2256.49301665304
 11
3647.663567691041
 21
2249.299270073
  0
LINE
  5
E6
100
AcDbEntity
  8
1
  6
CONTINUOUS
 62
           3
100
AcDbLine
 10
3647.663567691041
 20
2249.299270073
 11
3647.663567691041
 21
2242.10552349296
  0
LINE
  5
E5
100
AcDbEntity
  8
1
  6
CONTINUOUS
 62
           3
100
AcDbLine
 10
3648.868798384465
 20
2241.60552349296
 11
3648.163567691041
 21
2241.60552349296
  0
LINE
  5
E4
100
AcDbEntity
  8
1
  6
CONTINUOUS
 62
           3
100
AcDbLine
 10
3648.868798384465
 20
2241.60552349296
 11
3648.868798384465
 21
2249.299270073
  0
LINE
  5
E3
100
AcDbEntity
  8
1
  6
CONTINUOUS
 62
           3
100
AcDbLine
 10
3649.714603906645
 20
2243.299270073
 11
3648.868798384465
 21
2243.299270073
  0
LINE
  5
E2
100
AcDbEntity
  8
1
  6
CONTINUOUS
 62
           3
100
AcDbLine
 10
3649.714603906645
 20
2241.049270073
 11
3649.714603906645
 21
2249.299270073
  0
LINE
  5
E1
100
AcDbEntity
  8
1
  6
CONTINUOUS
 62
           3
100
AcDbLine
 10
3659.389214871942
 20
2241.049270073
 11
3649.714603906645
 21
2241.049270073
  0
LINE
  5
E0
100
AcDbEntity
  8
1
  6
CONTINUOUS
 62
           3
100
AcDbLine
 10
3659.389214871942
 20
2241.049270073
 11
3659.389214871942
 21
2241.60552349296
  0
LINE
  5
DF
100
AcDbEntity
  8
1
  6
DOT_CENTER
 62
           3
100
AcDbLine
 10
3646.218519558623
 20
2249.299270073
 11
3687.66769526245
 21
2249.299270073
  0
LINE
  5
DE
100
AcDbEntity
  8
1
  6
CONTINUOUS
 62
           3
100
AcDbLine
 10
3664.48952766823
 20
2241.60552349296
 11
3670.163567691041
 21
2238.329614958398
  0
LINE
  5
DD
100
AcDbEntity
  8
1
  6
CONTINUOUS
 62
           3
100
AcDbLine
 10
3670.163567691041
 20
2238.329614958398
 11
3679.663567691041
 21
2243.814442515699
  0
LINE
  5
DC
100
AcDbEntity
  8
1
  6
CONTINUOUS
 62
           3
100
AcDbLine
 10
3679.663567691041
 20
2243.814442515699
 11
3679.663567691041
 21
2254.784097630302
  0
LINE
  5
DB
100
AcDbEntity
  8
1
  6
CONTINUOUS
 62
           3
100
AcDbLine
 10
3679.663567691041
 20
2254.784097630302
 11
3670.163567691041
 21
2260.268925187603
  0
LINE
  5
DA
100
AcDbEntity
  8
1
  6
CONTINUOUS
 62
           3
100
AcDbLine
 10
3670.163567691041
 20
2260.268925187603
 11
3664.48952766823
 21
2256.99301665304
  0
LINE
  5
D9
100
AcDbEntity
  8
1
  6
CONTINUOUS
 62
           7
100
AcDbLine
 10
410.992065668631
 20
2474.999270073002
 11
410.992065668631
 21
2489.799270073
  0
LINE
  5
D8
100
AcDbEntity
  8
1
  6
CONTINUOUS
 62
           2
100
AcDbLine
 10
362.336090221744
 20
2861.299270073
 11
362.336090221744
 21
2501.299270073
  0
LINE
  5
D7
100
AcDbEntity
  8
1
  6
CONTINUOUS
 62
           2
100
AcDbLine
 10
404.999999999999
 20
2862.299270073
 11
362.336090221744
 21
2862.299270073
  0
LINE
  5
D6
100
AcDbEntity
  8
1
  6
CONTINUOUS
 62
           2
100
AcDbLine
 10
362.336090221744
 20
2501.299270073
 11
404.999999999999
 21
2501.299270073
  0
LINE
  5
D5
100
AcDbEntity
  8
1
  6
CONTINUOUS
 62
           2
100
AcDbLine
 10
-528.316278697896
 20
2861.299270073
 11
-528.316278697896
 21
2501.299270073
  0
LINE
  5
D4
100
AcDbEntity
  8
1
  6
CONTINUOUS
 62
           2
100
AcDbLine
 10
-232.33363766124
 20
2862.299270073
 11
-528.316278697896
 21
2862.299270073
  0
LINE
  5
D3
100
AcDbEntity
  8
1
  6
CONTINUOUS
 62
           2
100
AcDbLine
 10
-232.33363766124
 20
2501.299270073
 11
-232.33363766124
 21
2861.299270073
  0
LINE
  5
D2
100
AcDbEntity
  8
1
  6
CONTINUOUS
 62
           2
100
AcDbLine
 10
-528.316278697896
 20
2501.299270073
 11
-232.33363766124
 21
2501.299270073
  0
LINE
  5
D1
100
AcDbEntity
  8
1
  6
CONTINUOUS
 62
           4
100
AcDbLine
 10
-210.0
 20
2913.799270073001
 11
-210.0
 21
2912.799270073001
  0
LINE
  5
D0
100
AcDbEntity
  8
1
  6
CONTINUOUS
 62
           4
100
AcDbLine
 10
-204.993063735606
 20
2918.799270073002
 11
-210.0
 21
2913.799270073001
  0
LINE
  5
CF
100
AcDbEntity
  8
1
  6
CONTINUOUS
 62
           4
100
AcDbLine
 10
210.000000000001
 20
2913.799270073001
 11
205.000000000001
 21
2918.799270073002
  0
LINE
  5
CE
100
AcDbEntity
  8
1
  6
CONTINUOUS
 62
           4
100
AcDbLine
 10
205.000000000001
 20
2918.799270073002
 11
-204.993063735606
 21
2918.799270073002
  0
LINE
  5
CD
100
AcDbEntity
  8
1
  6
DOT_CENTER
 62
           2
100
AcDbLine
 10
0.0
 20
3268.783149197647
 11
0.0
 21
2373.678954188579
  0
LINE
  5
CC
100
AcDbEntity
  8
1
  6
CONTINUOUS
 62
           7
100
AcDbLine
 10
-570.000000000005
 20
2907.799270073
 11
-570.000000000005
 21
2874.799270073
  0
LINE
  5
CB
100
AcDbEntity
  8
1
  6
CONTINUOUS
 62
           7
100
AcDbLine
 10
-570.000000000005
 20
2907.799270073
 11
-566.455357142863
 21
2912.799270073
  0
LINE
  5
CA
100
AcDbEntity
  8
1
  6
CONTINUOUS
 62
           7
100
AcDbLine
 10
-570.000000000004
 20
2489.799270073001
 11
-570.000000000004
 21
2474.999270073002
  0
LINE
  5
C9
100
AcDbEntity
  8
1
  6
CONTINUOUS
 62
           7
100
AcDbLine
 10
410.99206566863
 20
2912.799270073
 11
-566.455357142863
 21
2912.799270073
  0
LINE
  5
C8
100
AcDbEntity
  8
1
  6
CONTINUOUS
 62
           7
100
AcDbLine
 10
410.992065668631
 20
2874.799270073
 11
410.99206566863
 21
2912.799270073
  0
LINE
  5
C7
100
AcDbEntity
  8
1
  6
CONTINUOUS
 62
           7
100
AcDbLine
 10
415.0
 20
2874.799270073
 11
-579.99999999999
 21
2874.799270073
  0
LINE
  5
C6
100
AcDbEntity
  8
1
  6
CONTINUOUS
 62
           4
100
AcDbLine
 10
210.000000000001
 20
2912.799270073001
 11
210.000000000001
 21
2913.799270073001
  0
LINE
  5
C5
100
AcDbEntity
  8
1
  6
DOT_CENTER
 62
           2
100
AcDbLine
 10
473.997537221202
 20
2682.299270073
 11
-664.640400689392
 21
2682.299270073
  0
LINE
  5
C4
100
AcDbEntity
  8
7
  6
CONTINUOUS
 62
           7
100
AcDbLine
 10
0.000000000001
 20
3149.599270073003
 11
-115.0
 21
3149.599270073003
  0
LINE
  5
C3
100
AcDbEntity
  8
7
  6
CONTINUOUS
 62
           7
100
AcDbLine
 10
-88.652847999999
 20
3232.002100073002
 11
-109.147842999999
 21
3216.929051073002
  0
LINE
  5
C2
100
AcDbEntity
  8
7
  6
CONTINUOUS
 62
           7
100
AcDbLine
 10
0.000000000001
 20
3236.299270073
 11
-84.599999999999
 21
3236.299270073
  0
LINE
  5
C1
100
AcDbEntity
  8
7
  6
CONTINUOUS
 62
           7
100
AcDbLine
 10
-115.0
 20
3149.599270073003
 11
-115.0
 21
3177.136808446371
  0
LINE
  5
C0
100
AcDbEntity
  8
7
  6
CONTINUOUS
 62
           7
100
AcDbLine
 10
115.000000000001
 20
3149.599270073003
 11
0.000000000001
 21
3149.599270073003
  0
LINE
  5
BF
100
AcDbEntity
  8
7
  6
CONTINUOUS
 62
           7
100
AcDbLine
 10
112.000000000001
 20
3211.899270073002
 11
115.000000000001
 21
3177.136808446371
  0
LINE
  5
BE
100
AcDbEntity
  8
7
  6
CONTINUOUS
 62
           4
100
AcDbLine
 10
-110.992022999999
 20
3215.099270073003
 11
108.800000000001
 21
3215.099270073003
  0
LINE
  5
BD
100
AcDbEntity
  8
7
  6
CONTINUOUS
 62
           7
100
AcDbLine
 10
86.152847000001
 20
3232.002100073002
 11
106.776034
 21
3215.460966073003
  0
LINE
  5
BC
100
AcDbEntity
  8
7
  6
CONTINUOUS
 62
           7
100
AcDbLine
 10
0.000000000001
 20
3236.299270073
 11
82.100000000001
 21
3236.299270073
  0
LINE
  5
BB
100
AcDbEntity
  8
2
  6
CONTINUOUS
 62
           7
100
AcDbLine
 10
108.613664000001
 20
2947.299270073001
 11
97.568642000001
 21
2920.799270073001
  0
LINE
  5
BA
100
AcDbEntity
  8
2
  6
CONTINUOUS
 62
           7
100
AcDbLine
 10
108.613664000001
 20
2947.299270073001
 11
108.613664000001
 21
3138.099270073003
  0
LINE
  5
B9
100
AcDbEntity
  8
2
  6
CONTINUOUS
 62
           7
100
AcDbLine
 10
108.613664000001
 20
3138.099270073003
 11
103.820541000001
 21
3149.599270073003
  0
LINE
  5
B8
100
AcDbEntity
  8
2
  6
CONTINUOUS
 62
           4
100
AcDbLine
 10
-93.25
 20
2920.799270073001
 11
-93.25
 21
2918.799270073002
  0
LINE
  5
B7
100
AcDbEntity
  8
2
  6
CONTINUOUS
 62
           7
100
AcDbLine
 10
-108.613664
 20
2947.299270073001
 11
-108.613664
 21
3138.099270073003
  0
LINE
  5
B6
100
AcDbEntity
  8
2
  6
CONTINUOUS
 62
           7
100
AcDbLine
 10
-103.820540999999
 20
3149.599270073003
 11
-108.613664
 21
3138.099270073003
  0
LINE
  5
B5
100
AcDbEntity
  8
2
  6
CONTINUOUS
 62
           4
100
AcDbLine
 10
97.568642000001
 20
2920.799270073001
 11
-97.568641999999
 21
2920.799270073001
  0
LINE
  5
B4
100
AcDbEntity
  8
2
  6
CONTINUOUS
 62
           7
100
AcDbLine
 10
-97.568641999999
 20
2920.799270073001
 11
-108.613664
 21
2947.299270073001
  0
LINE
  5
B3
100
AcDbEntity
  8
1
  6
CONTINUOUS
 62
           4
100
AcDbLine
 10
115.000000000001
 20
3177.136808446371
 11
-115.0
 21
3177.136808446371
  0
LINE
  5
B2
100
AcDbEntity
  8
7
  6
CONTINUOUS
 62
           7
100
AcDbLine
 10
-115.0
 20
3177.136808446371
 11
-112.0
 21
3211.710627073001
  0
LINE
  5
B1
100
AcDbEntity
  8
7
  6
CONTINUOUS
 62
           7
100
AcDbLine
 10
115.000000000001
 20
3177.136808446371
 11
115.000000000001
 21
3149.599270073003
  0
LINE
  5
B0
100
AcDbEntity
  8
2
  6
CONTINUOUS
 62
           4
100
AcDbLine
 10
93.250000000001
 20
2918.799270073002
 11
93.250000000001
 21
2920.799270073001
  0
LINE
  5
AF
100
AcDbEntity
  8
1
  6
CONTINUOUS
 62
           7
100
AcDbLine
 10
404.999999999999
 20
2489.799270073
 11
404.999999999999
 21
2873.799270073
  0
LINE
  5
AE
100
AcDbEntity
  8
1
  6
CONTINUOUS
 62
           7
100
AcDbLine
 10
415.0
 20
2489.799270073
 11
-579.999999999988
 21
2489.799270073
  0
LINE
  5
AD
100
AcDbEntity
  8
1
  6
CONTINUOUS
 62
           7
100
AcDbLine
 10
166.499999999999
 20
3065.599270073002
 11
166.499999999999
 21
3005.599270073003
  0
LINE
  5
AC
100
AcDbEntity
  8
1
  6
CONTINUOUS
 62
           7
100
AcDbLine
 10
108.613664000001
 20
3005.599270073003
 11
108.613664000001
 21
3065.599270073002
  0
LINE
  5
AB
100
AcDbEntity
  8
1
  6
CONTINUOUS
 62
           7
100
AcDbLine
 10
118.613664000001
 20
3075.599270073002
 11
156.499999999999
 21
3075.599270073002
  0
LINE
  5
AA
100
AcDbEntity
  8
1
  6
CONTINUOUS
 62
           7
100
AcDbLine
 10
156.499999999999
 20
2995.599270073003
 11
118.613664000001
 21
2995.599270073003
  0
LINE
  5
A9
100
AcDbEntity
  8
1
  6
CONTINUOUS
 62
           7
100
AcDbLine
 10
-40.387316823278
 20
2912.799270073
 11
-40.387316823278
 21
2874.499270072997
  0
LINE
  5
A8
100
AcDbEntity
  8
1
  6
CONTINUOUS
 62
           7
100
AcDbLine
 10
-570.000000000005
 20
2874.599270073001
 11
-570.000000000005
 21
2488.999270073002
  0
LINE
  5
A7
100
AcDbEntity
  8
1
  6
CONTINUOUS
 62
           7
100
AcDbLine
 10
-611.000000000005
 20
2914.799270073001
 11
-611.000000000005
 21
2475.799270072998
  0
LINE
  5
A6
100
AcDbEntity
  8
1
  6
CONTINUOUS
 62
           7
100
AcDbLine
 10
-611.000000000005
 20
2914.799270073001
 11
-577.413444419395
 21
2914.799270073001
  0
LINE
  5
A5
100
AcDbEntity
  8
1
  6
CONTINUOUS
 62
           4
100
AcDbLine
 10
-587.618730888042
 20
2874.799270073001
 11
-611.000000000005
 21
2874.799270073001
  0
LINE
  5
A4
100
AcDbEntity
  8
1
  6
CONTINUOUS
 62
           4
100
AcDbLine
 10
-587.618730888042
 20
2879.299270073001
 11
-611.000000000005
 21
2879.299270073001
  0
LINE
  5
A3
100
AcDbEntity
  8
1
  6
CONTINUOUS
 62
           4
100
AcDbLine
 10
-587.618730888042
 20
2485.299270073
 11
-611.000000000005
 21
2485.299270073
  0
LINE
  5
A2
100
AcDbEntity
  8
1
  6
CONTINUOUS
 62
           4
100
AcDbLine
 10
-587.618730888042
 20
2489.799270073
 11
-611.000000000005
 21
2489.799270073
  0
LINE
  5
A1
100
AcDbEntity
  8
1
  6
CONTINUOUS
 62
           7
100
AcDbLine
 10
-40.387316823278
 20
2489.799270073
 11
-40.387316823278
 21
2474.299270073
  0
LINE
  5
A0
100
AcDbEntity
  8
1
  6
CONTINUOUS
 62
           7
100
AcDbLine
 10
4198.000000000004
 20
2874.799270073
 11
4198.000000000004
 21
2489.799270073
  0
LINE
  5
9F
100
AcDbEntity
  8
1
  6
CONTINUOUS
 62
           2
100
AcDbLine
 10
4036.090589534001
 20
2861.299270073
 11
3631.153949290651
 21
2861.299270073
  0
LINE
  5
9E
100
AcDbEntity
  8
1
  6
CONTINUOUS
 62
           2
100
AcDbLine
 10
4036.090589534001
 20
2501.299270073
 11
4036.090589534001
 21
2861.299270073
  0
LINE
  5
9D
100
AcDbEntity
  8
1
  6
CONTINUOUS
 62
           2
100
AcDbLine
 10
3631.153949290651
 20
2501.299270073
 11
4036.090589534001
 21
2501.299270073
  0
LINE
  5
9C
100
AcDbEntity
  8
1
  6
CONTINUOUS
 62
           2
100
AcDbLine
 10
3631.153949290651
 20
2861.299270073
 11
3631.153949290651
 21
2501.299270073
  0
LINE
  5
9B
100
AcDbEntity
  8
1
  6
CONTINUOUS
 62
           4
100
AcDbLine
 10
4070.000000000004
 20
2911.499270072997
 11
4070.000000000004
 21
2913.799270073002
  0
LINE
  5
9A
100
AcDbEntity
  8
1
  6
CONTINUOUS
 62
           4
100
AcDbLine
 10
4070.000000000004
 20
2913.799270073002
 11
4064.993063735611
 21
2918.799270073002
  0
LINE
  5
99
100
AcDbEntity
  8
1
  6
CONTINUOUS
 62
           4
100
AcDbLine
 10
3655.000000000004
 20
2918.799270073002
 11
3650.000000000004
 21
2913.799270073002
  0
LINE
  5
98
100
AcDbEntity
  8
1
  6
CONTINUOUS
 62
           4
100
AcDbLine
 10
4064.993063735611
 20
2918.799270073002
 11
3655.000000000004
 21
2918.799270073002
  0
LINE
  5
97
100
AcDbEntity
  8
1
  6
DOT_CENTER
 62
           2
100
AcDbLine
 10
3860.000000000004
 20
2373.678954188578
 11
3860.000000000004
 21
3287.783149197649
  0
LINE
  5
96
100
AcDbEntity
  8
1
  6
CONTINUOUS
 62
           7
100
AcDbLine
 10
4260.000000000004
 20
2456.799270073002
 11
4256.455357142861
 21
2451.799270073002
  0
LINE
  5
95
100
AcDbEntity
  8
1
  6
CONTINUOUS
 62
           7
100
AcDbLine
 10
4256.455357142861
 20
2911.499270072997
 11
4260.000000000004
 21
2906.499270072997
  0
LINE
  5
94
100
AcDbEntity
  8
1
  6
CONTINUOUS
 62
           7
100
AcDbLine
 10
4260.000000000004
 20
2456.799270073002
 11
4260.000000000004
 21
2489.799270073
  0
LINE
  5
93
100
AcDbEntity
  8
1
  6
CONTINUOUS
 62
           7
100
AcDbLine
 10
3333.155626997731
 20
2489.799270073
 11
3333.155626997732
 21
2451.799270073002
  0
LINE
  5
92
100
AcDbEntity
  8
1
  6
CONTINUOUS
 62
           7
100
AcDbLine
 10
4256.455357142861
 20
2911.499270072997
 11
3952.000000000002
 21
2911.499270072997
  0
LINE
  5
91
100
AcDbEntity
  8
1
  6
CONTINUOUS
 62
           7
100
AcDbLine
 10
3333.155626997732
 20
2911.499270072997
 11
3333.155626997732
 21
2874.799270073
  0
LINE
  5
90
100
AcDbEntity
  8
1
  6
CONTINUOUS
 62
           7
100
AcDbLine
 10
4260.0
 20
2874.799270073
 11
3333.155626997732
 21
2874.799270073
  0
LINE
  5
8F
100
AcDbEntity
  8
1
  6
CONTINUOUS
 62
           4
100
AcDbLine
 10
3650.000000000004
 20
2913.799270073002
 11
3650.000000000004
 21
2911.499270072997
  0
LINE
  5
8E
100
AcDbEntity
  8
1
  6
DOT_CENTER
 62
           2
100
AcDbLine
 10
4395.456827495062
 20
2682.299270073
 11
3302.780498763492
 21
2682.299270073
  0
LINE
  5
8D
100
AcDbEntity
  8
7
  6
CONTINUOUS
 62
           7
100
AcDbLine
 10
3975.000000000004
 20
3149.299270073002
 11
3860.000000000004
 21
3149.299270073002
  0
LINE
  5
8C
100
AcDbEntity
  8
7
  6
CONTINUOUS
 62
           7
100
AcDbLine
 10
3969.147843000005
 20
3216.629051073001
 11
3948.652848000004
 21
3231.702100073002
  0
LINE
  5
8B
100
AcDbEntity
  8
7
  6
CONTINUOUS
 62
           7
100
AcDbLine
 10
3944.600000000005
 20
3236.299270073001
 11
3860.000000000004
 21
3236.299270073001
  0
LINE
  5
8A
100
AcDbEntity
  8
7
  6
CONTINUOUS
 62
           7
100
AcDbLine
 10
3975.000000000004
 20
3176.836808446371
 11
3975.000000000004
 21
3149.299270073002
  0
LINE
  5
89
100
AcDbEntity
  8
7
  6
CONTINUOUS
 62
           7
100
AcDbLine
 10
3860.000000000004
 20
3149.299270073002
 11
3745.000000000004
 21
3149.299270073002
  0
LINE
  5
88
100
AcDbEntity
  8
7
  6
CONTINUOUS
 62
           7
100
AcDbLine
 10
3745.000000000004
 20
3176.836808446371
 11
3748.000000000004
 21
3211.599270072999
  0
LINE
  5
87
100
AcDbEntity
  8
7
  6
CONTINUOUS
 62
           7
100
AcDbLine
 10
3753.223966000004
 20
3215.160966073001
 11
3773.847153000005
 21
3231.702100073002
  0
LINE
  5
86
100
AcDbEntity
  8
7
  6
CONTINUOUS
 62
           7
100
AcDbLine
 10
3777.900000000004
 20
3236.299270073001
 11
3860.000000000004
 21
3236.299270073001
  0
LINE
  5
85
100
AcDbEntity
  8
2
  6
CONTINUOUS
 62
           7
100
AcDbLine
 10
3762.431358000004
 20
2920.799270073002
 11
3751.386336000004
 21
2945.999270072999
  0
LINE
  5
84
100
AcDbEntity
  8
2
  6
CONTINUOUS
 62
           7
100
AcDbLine
 10
3751.386336000004
 20
3137.799270073002
 11
3751.386336000004
 21
2945.999270072999
  0
LINE
  5
83
100
AcDbEntity
  8
2
  6
CONTINUOUS
 62
           7
100
AcDbLine
 10
3756.179459000003
 20
3149.299270073002
 11
3751.386336000004
 21
3137.799270073002
  0
LINE
  5
82
100
AcDbEntity
  8
2
  6
CONTINUOUS
 62
           4
100
AcDbLine
 10
3953.250000000004
 20
2918.799270073002
 11
3953.250000000004
 21
2920.799270073002
  0
LINE
  5
81
100
AcDbEntity
  8
2
  6
CONTINUOUS
 62
           7
100
AcDbLine
 10
3968.613664000005
 20
3137.799270073002
 11
3968.613664000005
 21
2945.999270072999
  0
LINE
  5
80
100
AcDbEntity
  8
2
  6
CONTINUOUS
 62
           7
100
AcDbLine
 10
3968.613664000005
 20
3137.799270073002
 11
3963.820541000003
 21
3149.299270073002
  0
LINE
  5
7F
100
AcDbEntity
  8
2
  6
CONTINUOUS
 62
           4
100
AcDbLine
 10
3957.568642000004
 20
2920.799270073002
 11
3762.431358000004
 21
2920.799270073002
  0
LINE
  5
7E
100
AcDbEntity
  8
2
  6
CONTINUOUS
 62
           7
100
AcDbLine
 10
3968.613664000005
 20
2945.999270072999
 11
3957.568642000004
 21
2920.799270073002
  0
LINE
  5
7D
100
AcDbEntity
  8
7
  6
CONTINUOUS
 62
           7
100
AcDbLine
 10
3972.000000000004
 20
3211.410627073
 11
3975.000000000004
 21
3176.836808446371
  0
LINE
  5
7C
100
AcDbEntity
  8
7
  6
CONTINUOUS
 62
           7
100
AcDbLine
 10
3745.000000000004
 20
3149.299270073002
 11
3745.000000000004
 21
3176.836808446371
  0
LINE
  5
7B
100
AcDbEntity
  8
2
  6
CONTINUOUS
 62
           4
100
AcDbLine
 10
3766.750000000004
 20
2920.799270073002
 11
3766.750000000004
 21
2918.799270073002
  0
LINE
  5
7A
100
AcDbEntity
  8
1
  6
CONTINUOUS
 62
           7
100
AcDbLine
 10
3601.800000000005
 20
2451.799270073002
 11
3601.800000000005
 21
2405.299270073
  0
LINE
  5
79
100
AcDbEntity
  8
1
  6
CONTINUOUS
 62
           7
100
AcDbLine
 10
3333.155626997732
 20
2451.799270073002
 11
3786.869912712015
 21
2451.799270073004
  0
LINE
  5
78
100
AcDbEntity
  8
1
  6
CONTINUOUS
 62
           7
100
AcDbLine
 10
3379.999999999997
 20
2874.799270073
 11
3379.999999999997
 21
2489.799270073
  0
LINE
  5
77
100
AcDbEntity
  8
1
  6
CONTINUOUS
 62
           7
100
AcDbLine
 10
4118.200000000004
 20
2405.299270073
 11
4118.200000000004
 21
2451.799270073002
  0
LINE
  5
76
100
AcDbEntity
  8
1
  6
CONTINUOUS
 62
           7
100
AcDbLine
 10
4260.000000000004
 20
2489.799270073
 11
4260.000000000004
 21
2906.499270072997
  0
LINE
  5
75
100
AcDbEntity
  8
1
  6
CONTINUOUS
 62
           7
100
AcDbLine
 10
4340.000000000006
 20
2879.299270073001
 11
4340.000000000006
 21
2485.299270073002
  0
LINE
  5
74
100
AcDbEntity
  8
1
  6
CONTINUOUS
 62
           4
100
AcDbLine
 10
4340.000000000006
 20
2879.299270073001
 11
4305.500000000004
 21
2879.299270073001
  0
LINE
  5
73
100
AcDbEntity
  8
1
  6
CONTINUOUS
 62
           4
100
AcDbLine
 10
4304.500000000004
 20
2914.799270073001
 11
4304.500000000004
 21
2880.299270073001
  0
LINE
  5
72
100
AcDbEntity
  8
1
  6
CONTINUOUS
 62
           4
100
AcDbLine
 10
4304.500000000004
 20
2914.799270073001
 11
4295.500000000004
 21
2914.799270073001
  0
LINE
  5
71
100
AcDbEntity
  8
1
  6
CONTINUOUS
 62
           4
100
AcDbLine
 10
4295.500000000004
 20
2880.299270073001
 11
4295.500000000004
 21
2914.799270073001
  0
LINE
  5
70
100
AcDbEntity
  8
1
  6
CONTINUOUS
 62
           4
100
AcDbLine
 10
4294.500000000004
 20
2879.299270073001
 11
4260.0
 21
2879.299270073001
  0
LINE
  5
6F
100
AcDbEntity
  8
1
  6
CONTINUOUS
 62
           4
100
AcDbLine
 10
4305.500000000004
 20
2485.299270073002
 11
4340.000000000006
 21
2485.299270073002
  0
LINE
  5
6E
100
AcDbEntity
  8
1
  6
CONTINUOUS
 62
           4
100
AcDbLine
 10
4304.500000000004
 20
2484.299270073002
 11
4304.500000000004
 21
2449.799270073002
  0
LINE
  5
6D
100
AcDbEntity
  8
1
  6
CONTINUOUS
 62
           4
100
AcDbLine
 10
4260.0
 20
2485.299270073002
 11
4294.500000000004
 21
2485.299270073002
  0
LINE
  5
6C
100
AcDbEntity
  8
1
  6
CONTINUOUS
 62
           4
100
AcDbLine
 10
4295.500000000004
 20
2449.799270073002
 11
4295.500000000004
 21
2484.299270073002
  0
LINE
  5
6B
100
AcDbEntity
  8
1
  6
CONTINUOUS
 62
           4
100
AcDbLine
 10
4295.500000000004
 20
2874.799270073004
 11
4295.500000000006
 21
2489.799270073001
  0
LINE
  5
6A
100
AcDbEntity
  8
1
  6
CONTINUOUS
 62
           4
100
AcDbLine
 10
4304.500000000006
 20
2489.799270073
 11
4304.500000000004
 21
2874.799270073004
  0
LINE
  5
69
100
AcDbEntity
  8
1
  6
CONTINUOUS
 62
           4
100
AcDbLine
 10
4295.500000000004
 20
2449.799270073002
 11
4304.500000000004
 21
2449.799270073002
  0
LINE
  5
68
100
AcDbEntity
  8
1
  6
CONTINUOUS
 62
           4
100
AcDbLine
 10
3562.500000000004
 20
2405.299270073
 11
3562.500000000004
 21
2399.299270073
  0
LINE
  5
67
100
AcDbEntity
  8
1
  6
CONTINUOUS
 62
           4
100
AcDbLine
 10
4157.500000000004
 20
2405.299270073
 11
4157.500000000004
 21
2399.299270073
  0
LINE
  5
66
100
AcDbEntity
  8
1
  6
CONTINUOUS
 62
           4
100
AcDbLine
 10
4157.500000000004
 20
2405.299270073
 11
3562.500000000004
 21
2405.299270073
  0
LINE
  5
65
100
AcDbEntity
  8
1
  6
CONTINUOUS
 62
           7
100
AcDbLine
 10
3860.000000000004
 20
2399.299270073
 11
3562.500000000004
 21
2399.299270073
  0
LINE
  5
64
100
AcDbEntity
  8
1
  6
CONTINUOUS
 62
           7
100
AcDbLine
 10
4157.500000000004
 20
2399.299270073
 11
3860.000000000004
 21
2399.299270073
  0
LINE
  5
63
100
AcDbEntity
  8
1
  6
CONTINUOUS
 62
           7
100
AcDbLine
 10
4260.000000000004
 20
2489.799270073
 11
3333.155626997731
 21
2489.799270073
  0
LINE
  5
62
100
AcDbEntity
  8
1
  6
CONTINUOUS
 62
           4
100
AcDbLine
 10
3975.000000000004
 20
3176.836808446371
 11
3745.000000000004
 21
3176.836808446371
  0
LINE
  5
61
100
AcDbEntity
  8
7
  6
CONTINUOUS
 62
           4
100
AcDbLine
 10
3751.200000000003
 20
3214.799270073002
 11
3970.992023000005
 21
3214.799270073002
  0
LINE
  5
60
100
AcDbEntity
  8
1
  6
CONTINUOUS
 62
           7
100
AcDbLine
 10
4300.000000000004
 20
2914.799270073001
 11
4300.000000000004
 21
2449.799270073002
  0
LINE
  5
5F
100
AcDbEntity
  8
1
  6
CONTINUOUS
 62
           7
100
AcDbLine
 10
4260.0
 20
2874.799270073
 11
4340.000000000007
 21
2874.799270073001
  0
LINE
  5
5E
100
AcDbEntity
  8
1
  6
CONTINUOUS
 62
           7
100
AcDbLine
 10
4340.000000000006
 20
2489.799270073002
 11
4259.999999999999
 21
2489.799270073002
  0
LINE
  5
5D
100
AcDbEntity
  8
1
  6
CONTINUOUS
 62
           7
100
AcDbLine
 10
3893.750000000004
 20
2994.299270073
 11
3826.250000000004
 21
2994.299270073
  0
LINE
  5
5C
100
AcDbEntity
  8
1
  6
CONTINUOUS
 62
           7
100
AcDbLine
 10
3826.250000000004
 20
3074.299270073
 11
3893.750000000004
 21
3074.299270073
  0
LINE
  5
5B
100
AcDbEntity
  8
1
  6
CONTINUOUS
 62
           7
100
AcDbLine
 10
3903.750000000004
 20
3064.299270073
 11
3903.750000000004
 21
3004.299270073
  0
LINE
  5
5A
100
AcDbEntity
  8
1
  6
CONTINUOUS
 62
           7
100
AcDbLine
 10
3816.250000000004
 20
3004.299270073
 11
3816.250000000004
 21
3064.299270073
  0
LINE
  5
59
100
AcDbEntity
  8
1
  6
CONTINUOUS
 62
           7
100
AcDbLine
 10
3952.000000000002
 20
2911.499270072997
 11
3952.000000000002
 21
2874.799270073
  0
LINE
  5
58
100
AcDbEntity
  8
1
  6
CONTINUOUS
 62
           7
100
AcDbLine
 10
3786.869912712015
 20
2911.499270072997
 11
3786.869912712015
 21
2874.799270073
  0
LINE
  5
57
100
AcDbEntity
  8
1
  6
CONTINUOUS
 62
           7
100
AcDbLine
 10
3786.869912712015
 20
2911.499270072997
 11
3333.155626997732
 21
2911.499270072997
  0
LINE
  5
56
100
AcDbEntity
  8
1
  6
CONTINUOUS
 62
           7
100
AcDbLine
 10
3786.869912712015
 20
2489.799270073004
 11
3786.869912712015
 21
2451.799270073004
  0
LINE
  5
55
100
AcDbEntity
  8
1
  6
CONTINUOUS
 62
           7
100
AcDbLine
 10
3952.000000000002
 20
2489.799270073004
 11
3952.000000000002
 21
2451.799270073004
  0
LINE
  5
54
100
AcDbEntity
  8
1
  6
CONTINUOUS
 62
           7
100
AcDbLine
 10
3952.000000000002
 20
2451.799270073004
 11
4256.455357142861
 21
2451.799270073002
  0
LINE
  5
53
100
AcDbEntity
  8
1
  6
CONTINUOUS
 62
           7
100
AcDbLine
 10
4185.000000000004
 20
2451.799270073002
 11
4185.000000000004
 21
2489.799270073
  0
LINE
  5
52
100
AcDbEntity
  8
1
  6
CONTINUOUS
 62
           7
100
AcDbLine
 10
4185.000000000004
 20
2874.799270073
 11
4185.000000000004
 21
2911.499270072997
  0
LINE
  5
51
100
AcDbEntity
  8
1
  6
DOT_CENTER
 62
           2
100
AcDbLine
 10
-285.000000000005
 20
6155.267084004818
 11
-285.000000000005
 21
5812.460449015836
  0
LINE
  5
50
100
AcDbEntity
  8
1
  6
DOT_CENTER
 62
           2
100
AcDbLine
 10
0.0
 20
6155.267084004818
 11
0.0
 21
5610.0
  0
LINE
  5
4F
100
AcDbEntity
  8
1
  6
CONTINUOUS
 62
           4
100
AcDbLine
 10
39.999999999995
 20
6054.5
 11
-610.000000000005
 21
6054.5
  0
LINE
  5
4E
100
AcDbEntity
  8
1
  6
CONTINUOUS
 62
           7
100
AcDbLine
 10
-610.000000000005
 20
6050.0
 11
39.999999999995
 21
6050.0
  0
LINE
  5
4D
100
AcDbEntity
  8
1
  6
CONTINUOUS
 62
           4
100
AcDbLine
 10
-610.000000000005
 20
6045.5
 11
39.999999999995
 21
6045.5
  0
LINE
  5
4C
100
AcDbEntity
  8
1
  6
CONTINUOUS
 62
           7
100
AcDbLine
 10
-610.000000000005
 20
6050.0
 11
-610.000000000005
 21
6085.0
  0
LINE
  5
4B
100
AcDbEntity
  8
1
  6
CONTINUOUS
 62
           7
100
AcDbLine
 10
-610.000000000005
 20
6085.0
 11
-605.000000000005
 21
6090.0
  0
LINE
  5
4A
100
AcDbEntity
  8
1
  6
CONTINUOUS
 62
           7
100
AcDbLine
 10
-605.000000000005
 20
6090.0
 11
34.999999999995
 21
6090.0
  0
LINE
  5
49
100
AcDbEntity
  8
1
  6
CONTINUOUS
 62
           7
100
AcDbLine
 10
39.999999999995
 20
6085.0
 11
34.999999999995
 21
6090.0
  0
LINE
  5
48
100
AcDbEntity
  8
1
  6
CONTINUOUS
 62
           7
100
AcDbLine
 10
39.999999999995
 20
6085.0
 11
39.999999999995
 21
6050.0
  0
LINE
  5
47
100
AcDbEntity
  8
1
  6
CONTINUOUS
 62
           7
100
AcDbLine
 10
34.999999999995
 20
6010.0
 11
-605.000000000005
 21
6010.0
  0
LINE
  5
46
100
AcDbEntity
  8
1
  6
CONTINUOUS
 62
           7
100
AcDbLine
 10
39.999999999995
 20
6050.0
 11
39.999999999995
 21
6015.0
  0
LINE
  5
45
100
AcDbEntity
  8
1
  6
CONTINUOUS
 62
           7
100
AcDbLine
 10
-610.000000000005
 20
6015.0
 11
-610.000000000005
 21
6050.0
  0
LINE
  5
44
100
AcDbEntity
  8
1
  6
CONTINUOUS
 62
           7
100
AcDbLine
 10
-605.000000000005
 20
6010.0
 11
-610.000000000005
 21
6015.0
  0
LINE
  5
43
100
AcDbEntity
  8
1
  6
CONTINUOUS
 62
           7
100
AcDbLine
 10
34.999999999995
 20
6010.0
 11
39.999999999995
 21
6015.0
  0
LINE
  5
42
100
AcDbEntity
  8
1
  6
CONTINUOUS
 62
           7
100
AcDbLine
 10
389.999999999999
 20
5701.999999999998
 11
160.0
 21
5931.999999999998
  0
LINE
  5
41
100
AcDbEntity
  8
1
  6
CONTINUOUS
 62
           4
100
AcDbLine
 10
115.286004408815
 20
5571.25
 11
109.26566811172
 21
5571.25
  0
LINE
  5
40
100
AcDbEntity
  8
1
  6
CONTINUOUS
 62
           4
100
AcDbLine
 10
115.286004408815
 20
5648.75
 11
109.26566811172
 21
5648.75
  0
LINE
  5
3F
100
AcDbEntity
  8
1
  6
CONTINUOUS
 62
           7
100
AcDbLine
 10
156.499999999998
 20
5566.25
 11
123.946258446659
 21
5566.25
  0
LINE
  5
3E
100
AcDbEntity
  8
1
  6
CONTINUOUS
 62
           7
100
AcDbLine
 10
123.946258446659
 20
5653.75
 11
156.499999999998
 21
5653.75
  0
LINE
  5
3D
100
AcDbEntity
  8
1
  6
CONTINUOUS
 62
           7
100
AcDbLine
 10
113.946258446659
 20
5576.25
 11
113.946258446659
 21
5643.75
  0
LINE
  5
3C
100
AcDbEntity
  8
1
  6
CONTINUOUS
 62
           7
100
AcDbLine
 10
166.499999999998
 20
5643.75
 11
166.499999999998
 21
5576.25
  0
LINE
  5
3B
100
AcDbEntity
  8
1
  6
DOT_CENTER
 62
           2
100
AcDbLine
 10
0.0
 20
5610.0
 11
477.325994331975
 21
5609.999999999998
  0
LINE
  5
3A
100
AcDbEntity
  8
1
  6
CONTINUOUS
 62
           7
100
AcDbLine
 10
410.99206566863
 20
5536.869912712011
 11
-40.387316823279
 21
5083.155626997726
  0
LINE
  5
39
100
AcDbEntity
  8
1
  6
CONTINUOUS
 62
           7
100
AcDbLine
 10
-569.956959680419
 20
5610.000000000002
 11
-175.0
 21
6010.000000000001
  0
LINE
  5
38
100
AcDbEntity
  8
1
  6
CONTINUOUS
 62
           7
100
AcDbLine
 10
-40.387316823279
 20
5083.155626997726
 11
-569.956959680419
 21
5610.000000000002
  0
LINE
  5
37
100
AcDbEntity
  8
1
  6
CONTINUOUS
 62
           7
100
AcDbLine
 10
-570.000000000001
 20
6010.0
 11
-570.000000000001
 21
6000.0
  0
LINE
  5
36
100
AcDbEntity
  8
1
  6
DOT_CENTER
 62
           2
100
AcDbLine
 10
-604.888003224814
 20
5610.0
 11
0.0
 21
5610.0
  0
LINE
  5
35
100
AcDbEntity
  8
1
  6
DOT_CENTER
 62
           2
100
AcDbLine
 10
0.0
 20
5610.0
 11
0.0
 21
5046.311422949075
  0
LINE
  5
34
100
AcDbEntity
  8
1
  6
CONTINUOUS
 62
           7
100
AcDbLine
 10
-580.000000000002
 20
5987.0
 11
-570.000000000001
 21
6000.0
  0
LINE
  5
33
100
AcDbEntity
  8
1
  6
CONTINUOUS
 62
           7
100
AcDbLine
 10
-580.000000000002
 20
5987.0
 11
-580.0
 21
5659.999999999998
  0
LINE
  5
32
100
AcDbEntity
  8
1
  6
CONTINUOUS
 62
           7
100
AcDbLine
 10
30.50394303083
 20
5954.165620839414
 11
0.0
 21
6010.0
  0
LINE
  5
31
100
AcDbEntity
  8
1
  6
CONTINUOUS
 62
           7
100
AcDbLine
 10
-186.0
 20
5424.0
 11
210.0
 21
5424.0
  0
LINE
  5
30
100
AcDbEntity
  8
1
  6
CONTINUOUS
 62
           7
100
AcDbLine
 10
185.999999999992
 20
5424.0
 11
185.999999999992
 21
5820.0
  0
LINE
  5
2F
100
AcDbEntity
  8
1
  6
CONTINUOUS
 62
           7
100
AcDbLine
 10
185.999999999992
 20
5795.999999999993
 11
-210.0
 21
5795.999999999993
  0
LINE
  5
2E
100
AcDbEntity
  8
1
  6
CONTINUOUS
 62
           7
100
AcDbLine
 10
-186.0
 20
5795.999999999993
 11
-186.0
 21
5400.0
  0
POINT
  5
2D
100
AcDbEntity
  8
0
 62
           3
100
AcDbPoint
 10
3083.399996721739
 20
1689.299270073117
  0
ENDSEC
  0
SECTION
  2
OBJECTS
  0
DICTIONARY
  5
19
100
AcDbDictionary
  3
ACAD_GROUP
350
1A
  3
ACAD_MLINESTYLE
350
1B
  0
DICTIONARY
  5
1A
102
{ACAD_REACTORS
330
19
102
}
100
AcDbDictionary
  0
DICTIONARY
  5
1B
102
{ACAD_REACTORS
330
19
102
}
100
AcDbDictionary
  3
STANDARD
350
1C
  0
MLINESTYLE
  5
1C
102
{ACAD_REACTORS
330
1B
102
}
100
AcDbMlineStyle
  2
STANDARD
 70
           0
  3

 62
           0
 51
90.0
 52
90.0
 71
           2
 49
0.5
 62
         256
  6
BYLAYER
 49
-0.5
 62
         256
  6
BYLAYER
  0
ENDSEC
  0
EOF
