  0
SECTION
  2
HEADER
  9
$ACADVER
  1
AC1014
  9
$ACADMAINTVER
 70
           0
  9
$DWGCODEPAGE
  3
DOS932
  9
$INSBASE
 10
0.0
 20
0.0
 30
0.0
  9
$EXTMIN
 10
1.000000000000E+20
 20
1.000000000000E+20
 30
1.000000000000E+20
  9
$EXTMAX
 10
-1.000000000000E+20
 20
-1.000000000000E+20
 30
-1.000000000000E+20
  9
$LIMMIN
 10
0.0
 20
0.0
  9
$LIMMAX
 10
0.0
 20
0.0
  9
$ORTHOMODE
 70
           0
  9
$REGENMODE
 70
           1
  9
$FILLMODE
 70
           1
  9
$QTEXTMODE
 70
           0
  9
$MIRRTEXT
 70
           1
  9
$DRAGMODE
 70
           2
  9
$LTSCALE
 40
1.0
  9
$OSMODE
 70
           0
  9
$ATTMODE
 70
           1
  9
$TEXTSIZE
 40
0.2
  9
$TRACEWID
 40
0.05
  9
$TEXTSTYLE
  7
STANDARD
  9
$CLAYER
  8
0
  9
$CELTYPE
  6
CONTINUOUS
  9
$CECOLOR
 62
         256
  9
$CELTSCALE
 40
1.0
  9
$DELOBJ
 70
           1
  9
$DISPSILH
 70
           0
  9
$DIMSCALE
 40
1.0
  9
$DIMASZ
 40
0.18
  9
$DIMEXO
 40
0.0625
  9
$DIMDLI
 40
0.38
  9
$DIMRND
 40
0.0
  9
$DIMDLE
 40
0.0
  9
$DIMEXE
 40
0.18
  9
$DIMTP
 40
0.0
  9
$DIMTM
 40
0.0
  9
$DIMTXT
 40
0.18
  9
$DIMCEN
 40
0.09
  9
$DIMTSZ
 40
0.0
  9
$DIMTOL
 70
           0
  9
$DIMLIM
 70
           0
  9
$DIMTIH
 70
           1
  9
$DIMTOH
 70
           1
  9
$DIMSE1
 70
           0
  9
$DIMSE2
 70
           0
  9
$DIMTAD
 70
           0
  9
$DIMZIN
 70
           0
  9
$DIMBLK
  1

  9
$DIMASO
 70
           1
  9
$DIMSHO
 70
           1
  9
$DIMPOST
  1

  9
$DIMAPOST
  1

  9
$DIMALT
 70
           0
  9
$DIMALTD
 70
           2
  9
$DIMALTF
 40
25.4
  9
$DIMLFAC
 40
1.0
  9
$DIMTOFL
 70
           0
  9
$DIMTVP
 40
0.0
  9
$DIMTIX
 70
           0
  9
$DIMSOXD
 70
           0
  9
$DIMSAH
 70
           0
  9
$DIMBLK1
  1

  9
$DIMBLK2
  1

  9
$DIMSTYLE
  2
STANDARD
  9
$DIMCLRD
 70
           0
  9
$DIMCLRE
 70
           0
  9
$DIMCLRT
 70
           0
  9
$DIMTFAC
 40
1.0
  9
$DIMGAP
 40
0.09
  9
$DIMJUST
 70
           0
  9
$DIMSD1
 70
           0
  9
$DIMSD2
 70
           0
  9
$DIMTOLJ
 70
           1
  9
$DIMTZIN
 70
           0
  9
$DIMALTZ
 70
           0
  9
$DIMALTTZ
 70
           0
  9
$DIMFIT
 70
           3
  9
$DIMUPT
 70
           0
  9
$DIMUNIT
 70
           2
  9
$DIMDEC
 70
           4
  9
$DIMTDEC
 70
           4
  9
$DIMALTU
 70
           2
  9
$DIMALTTD
 70
           2
  9
$DIMTXSTY
  7
STANDARD
  9
$DIMAUNIT
 70
           0
  9
$LUNITS
 70
           2
  9
$LUPREC
 70
           4
  9
$SKETCHINC
 40
0.1
  9
$FILLETRAD
 40
0.0
  9
$AUNITS
 70
           0
  9
$AUPREC
 70
           0
  9
$MENU
  1
acad
  9
$ELEVATION
 40
0.0
  9
$PELEVATION
 40
0.0
  9
$THICKNESS
 40
0.0
  9
$LIMCHECK
 70
           0
  9
$BLIPMODE
 70
           1
  9
$CHAMFERA
 40
0.0
  9
$CHAMFERB
 40
0.0
  9
$CHAMFERC
 40
0.0
  9
$CHAMFERD
 40
0.0
  9
$SKPOLY
 70
           0
  9
$TDCREATE
 40
0.000000000
  9
$TDUPDATE
 40
0.000000000
  9
$TDINDWG
 40
0.0000000000
  9
$TDUSRTIMER
 40
0.0000000000
  9
$USRTIMER
 70
           1
  9
$ANGBASE
 50
0.0
  9
$ANGDIR
 70
           0
  9
$PDMODE
 70
           0
  9
$PDSIZE
 40
0.0
  9
$PLINEWID
 40
0.0
  9
$COORDS
 70
           0
  9
$SPLFRAME
 70
           0
  9
$SPLINETYPE
 70
           6
  9
$SPLINESEGS
 70
           8
  9
$ATTDIA
 70
           0
  9
$ATTREQ
 70
           1
  9
$HANDLING
 70
           1
  9
$HANDSEED
  5
394
  9
$SURFTAB1
 70
           6
  9
$SURFTAB2
 70
           6
  9
$SURFTYPE
 70
           6
  9
$SURFU
 70
           6
  9
$SURFV
 70
           6
  9
$UCSNAME
  2

  9
$UCSORG
 10
0.0
 20
0.0
 30
0.0
  9
$UCSXDIR
 10
1.0
 20
0.0
 30
0.0
  9
$UCSYDIR
 10
0.0
 20
1.0
 30
0.0
  9
$PUCSNAME
  2

  9
$PUCSORG
 10
0.0
 20
0.0
 30
0.0
  9
$PUCSXDIR
 10
1.0
 20
0.0
 30
0.0
  9
$PUCSYDIR
 10
0.0
 20
1.0
 30
0.0
  9
$USERI1
 70
           0
  9
$USERI2
 70
           0
  9
$USERI3
 70
           0
  9
$USERI4
 70
           0
  9
$USERI5
 70
           0
  9
$USERR1
 40
0.0
  9
$USERR2
 40
0.0
  9
$USERR3
 40
0.0
  9
$USERR4
 40
0.0
  9
$USERR5
 40
0.0
  9
$WORLDVIEW
 70
           1
  9
$SHADEDGE
 70
           3
  9
$SHADEDIF
 70
          70
  9
$TILEMODE
 70
           1
  9
$MAXACTVP
 70
          16
  9
$PINSBASE
 10
0.0
 20
0.0
 30
0.0
  9
$PLIMCHECK
 70
           0
  9
$PEXTMIN
 10
1.000000000000E+20
 20
1.000000000000E+20
 30
1.000000000000E+20
  9
$PEXTMAX
 10
-1.000000000000E+20
 20
-1.000000000000E+20
 30
-1.000000000000E+20
  9
$PLIMMIN
 10
0.0
 20
0.0
  9
$PLIMMAX
 10
12.0
 20
9.0
  9
$UNITMODE
 70
           0
  9
$VISRETAIN
 70
           0
  9
$PLINEGEN
 70
           1
  9
$PSLTSCALE
 70
           0
  9
$TREEDEPTH
 70
        3020
  9
$PICKSTYLE
 70
           1
  9
$CMLSTYLE
  2
STANDARD
  9
$CMLJUST
 70
           0
  9
$CMLSCALE
 40
1.0
  9
$PROXYGRAPHICS
 70
           0
  9
$MEASUREMENT
 70
           0
  0
ENDSEC
  0
SECTION
  2
CLASSES
  0
CLASS
  1
LWPOLYLINE
  2
AcDbPolyline
  3
"AutoCAD"
 90
        0
280
           0
281
           1
  0
CLASS
  1
IMAGE
  2
AcDbRasterImage
  3
ISM
 90
      127
280
           0
281
           1
  0
CLASS
  1
OLE2FRAME
  2
AcDbOle2Frame
  3
""
 90
        0
280
           0
281
           1
  0
CLASS
  1
HATCH
  2
AcDbHatch
  3
"ACAD_SEDONA"
 90
        0
280
           0
281
           1
  0
CLASS
  1
DICTIONARYVAR
  2
AcDbDictionaryVar
  3
"AutoCAD"
 90
        0
280
           0
281
           0
  0
CLASS
  1
RASTERVARIABLES
  2
AcDbRasterVariables
  3
ISM
 90
        0
280
           0
281
           0
  0
CLASS
  1
IMAGEDEF
  2
AcDbRasterImageDef
  3
ISM
 90
        0
280
           0
281
           0
  0
CLASS
  1
IMAGEDEF_REACTOR
  2
AcDbRasterImageDefReactor
  3
ISM
 90
        1
280
           0
281
           0
  0
CLASS
  1
IDBUFFER
  2
AcDbIdBuffer
  3
"Acad"
 90
        0
280
           0
281
           0
  0
CLASS
  1
SPATIAL_FILTER
  2
AcDbSpatialFilter
  3
"Acad"
 90
        0
280
           0
281
           0
  0
CLASS
  1
XRECORD
  2
AcDbXrecord
  3
"<Built In>"
 90
        0
280
           0
281
           0
  0
CLASS
  1
SORTENTSTABLE
  2
AcDbSortentsTable
  3
"AutoCAD"
 90
        0
280
           0
281
           0
  0
CLASS
  1
LAYER_INDEX
  2
AcDbLayerIndex
  3
"Acad"
 90
        0
280
           0
281
           0
  0
CLASS
  1
SPATIAL_INDEX
  2
AcDbSpatialIndex
  3
"Acad"
 90
        0
280
           0
281
           0
  0
CLASS
  1
OBJECT_PTR
  2
CAseDLPNTableRecord
  3
"ASE-LPNTableRecord"
 90
        1
280
           0
281
           0
  0
CLASS
  1
LAYOUT
  2
AcDbLayout
  3
"AutoCAD 2000"
 90
        1
280
           0
281
           0
  0
CLASS
  1
PLOTSETTINGS
  2
AcDbPlotSettings
  3
"AutoCAD 2000"
 90
        1
280
           0
281
           0
  0
CLASS
  1
ACDBDICTIONARYWDFLT
  2
AcDbDictionaryWithDefault
  3
"AutoCAD 2000"
 90
        1
280
           0
281
           0
  0
CLASS
  1
ACDBPLACEHOLDER
  2
AcDbPlaceHolder
  3
"AutoCAD 2000"
 90
        1
280
           0
281
           0
  0
CLASS
  1
VBA_PROJECT
  2
AcDbVbaProject
  3
"acadvba"
 90
        1
280
           0
281
           0
  0
CLASS
  1
WIPEOUT
  2
AcDbWipeout
  3
WipeOut|AutoCAD Express Tool|expresstools@autodesk.com
 90
      127
280
           0
281
           1
  0
CLASS
  1
WIPEOUTVARIABLES
  2
AcDbWipeoutVariables
  3
WipeOut|AutoCAD Express Tool|expresstools@autodesk.com
 90
        0
280
           0
281
           0
  0
CLASS
  1
RTEXT
  2
RText
  3
RText|AutoCAD Express Tool|expresstools@autodesk.com
 90
        0
280
           0
281
           1
  0
CLASS
  1
ARCALIGNEDTEXT
  2
AcDbArcAlignedText
  3
ATEXT|AutoCAD Express Tool|expresstools@autodesk.com
 90
        0
280
           0
281
           1
  0
ENDSEC
  0
SECTION
  2
TABLES
  0
TABLE
  2
VPORT
  5
7
100
AcDbSymbolTable
 70
           1
  0
VPORT
  5
15
100
AcDbSymbolTableRecord
100
AcDbViewportTableRecord
  2
*ACTIVE
 70
           0
 10
0.0
 20
0.0
 11
1.0
 21
1.0
 12
6.591288
 22
4.579184
 13
0.0
 23
0.0
 14
1.0
 24
1.0
 15
0.0
 25
0.0
 16
0.0
 26
0.0
 36
1.0
 17
0.0
 27
0.0
 37
0.0
 40
9.158369
 41
0.688564
 42
50.0
 43
0.0
 44
0.0
 50
0.0
 51
0.0
 71
           0
 72
         100
 73
           1
 74
           1
 75
           0
 76
           0
 77
           0
 78
           0
  0
ENDTAB
  0
TABLE
  2
LTYPE
  5
4
100
AcDbSymbolTable
 70
          10
  0
LTYPE
  5
11
100
AcDbSymbolTableRecord
100
AcDbLinetypeTableRecord
  2
BYBLOCK
 70
          64
  3

 72
          65
 73
           0
 40
0.0
  0
LTYPE
  5
12
100
AcDbSymbolTableRecord
100
AcDbLinetypeTableRecord
  2
BYLAYER
 70
          64
  3

 72
          65
 73
           0
 40
0.0
  0
LTYPE
  5
13
100
AcDbSymbolTableRecord
100
AcDbLinetypeTableRecord
  2
CONTINUOUS
 70
          64
  3
Solid line
 72
          65
 73
           0
 40
0.0
  0
LTYPE
  5
1D
100
AcDbSymbolTableRecord
100
AcDbLinetypeTableRecord
  2
DASHED
 70
          64
  3
Dashed
 72
          65
 73
           2
 40
15.0
 49
12.0
 74
           0
 49
-3.0
 74
           0
  0
LTYPE
  5
1E
100
AcDbSymbolTableRecord
100
AcDbLinetypeTableRecord
  2
DOTTED
 70
          64
  3
Dotted
 72
          65
 73
           2
 40
3.5
 49
0.5
 74
           0
 49
-3.0
 74
           0
  0
LTYPE
  5
1F
100
AcDbSymbolTableRecord
100
AcDbLinetypeTableRecord
  2
DOT_CENTER
 70
          64
  3
Dot_Center
 72
          65
 73
           4
 40
2.0
 49
1.25
 74
           0
 49
-0.25
 74
           0
 49
0.25
 74
           0
 49
-0.25
 74
           0
  0
LTYPE
  5
20
100
AcDbSymbolTableRecord
100
AcDbLinetypeTableRecord
  2
LONG_DASHED
 70
          64
  3
Long_Dashed
 72
          65
 73
           2
 40
2.0
 49
1.5
 74
           0
 49
-0.5
 74
           0
  0
LTYPE
  5
21
100
AcDbSymbolTableRecord
100
AcDbLinetypeTableRecord
  2
DASH_CENTER
 70
          64
  3
Dash_Center
 72
          65
 73
           4
 40
36.0
 49
24.0
 74
           0
 49
-3.0
 74
           0
 49
6.0
 74
           0
 49
-3.0
 74
           0
  0
LTYPE
  5
22
100
AcDbSymbolTableRecord
100
AcDbLinetypeTableRecord
  2
PHANTOM
 70
          64
  3
Phantom
 72
          65
 73
           6
 40
2.5
 49
1.25
 74
           0
 49
-0.25
 74
           0
 49
0.25
 74
           0
 49
-0.25
 74
           0
 49
0.25
 74
           0
 49
-0.25
 74
           0
  0
LTYPE
  5
23
100
AcDbSymbolTableRecord
100
AcDbLinetypeTableRecord
  2
CENTER_DASH_DASH
 70
          64
  3
Center_Dash_Dash
 72
          65
 73
           6
 40
22.0
 49
12.0
 74
           0
 49
-3.0
 74
           0
 49
0.5
 74
           0
 49
-3.0
 74
           0
 49
0.5
 74
           0
 49
-3.0
 74
           0
  0
ENDTAB
  0
TABLE
  2
LAYER
  5
2
100
AcDbSymbolTable
 70
           7
  0
LAYER
  5
14
100
AcDbSymbolTableRecord
100
AcDbLayerTableRecord
  2
0
 70
           0
 62
           7
  6
CONTINUOUS
  0
LAYER
  5
24
100
AcDbSymbolTableRecord
100
AcDbLayerTableRecord
  2
___S__
 70
           0
 62
           7
  6
CONTINUOUS
  0
LAYER
  5
25
100
AcDbSymbolTableRecord
100
AcDbLayerTableRecord
  2
FORMAT
 70
           0
 62
           7
  6
CONTINUOUS
  0
LAYER
  5
26
100
AcDbSymbolTableRecord
100
AcDbLayerTableRecord
  2
1
 70
           0
 62
           7
  6
CONTINUOUS
  0
LAYER
  5
27
100
AcDbSymbolTableRecord
100
AcDbLayerTableRecord
  2
2
 70
           0
 62
           7
  6
CONTINUOUS
  0
LAYER
  5
28
100
AcDbSymbolTableRecord
100
AcDbLayerTableRecord
  2
7
 70
           0
 62
           7
  6
CONTINUOUS
  0
LAYER
  5
29
100
AcDbSymbolTableRecord
100
AcDbLayerTableRecord
  2
____
 70
           0
 62
           7
  6
CONTINUOUS
  0
ENDTAB
  0
TABLE
  2
STYLE
  5
3
100
AcDbSymbolTable
 70
           1
  0
STYLE
  5
17
100
AcDbSymbolTableRecord
100
AcDbTextStyleTableRecord
  2
STANDARD
 70
           0
 40
0.0
 41
1.0
 50
0.0
 71
           0
 42
0.0
  3
txt
  4

  0
ENDTAB
  0
TABLE
  2
VIEW
  5
5
100
AcDbSymbolTable
 70
           0
  0
ENDTAB
  0
TABLE
  2
UCS
  5
6
100
AcDbSymbolTable
 70
           0
  0
ENDTAB
  0
TABLE
  2
APPID
  5
8
100
AcDbSymbolTable
 70
           1
  0
APPID
  5
16
100
AcDbSymbolTableRecord
100
AcDbRegAppTableRecord
  2
ACAD
 70
           0
  0
ENDTAB
  0
TABLE
  2
DIMSTYLE
  5
9
100
AcDbSymbolTable
 70
           1
  0
DIMSTYLE
105
18
100
AcDbSymbolTableRecord
100
AcDbDimStyleTableRecord
  2
STANDARD
 70
           0
  3

  4

  5

  6

  7

 40
1.0
 41
0.18
 42
0.0625
 43
0.38
 44
0.18
 45
0.0
 46
0.0
 47
0.0
 48
0.0
 71
           0
 72
           0
 73
           1
 74
           1
 75
           0
 76
           0
 77
           0
 78
           0
140
0.18
141
0.09
142
0.0
143
25.4
144
1.0
145
0.0
146
1.0
147
0.09
170
           0
171
           2
172
           0
173
           0
174
           0
175
           0
176
           0
177
           0
178
           0
270
           2
271
           4
272
           4
273
           2
274
           2
275
           0
280
           0
281
           0
282
           0
283
           1
284
           0
285
           0
286
           0
287
           0
288
           0
340
17
  0
ENDTAB
  0
TABLE
  2
BLOCK_RECORD
  5
1
100
AcDbSymbolTable
 70
           0
  0
BLOCK_RECORD
  5
A
100
AcDbSymbolTableRecord
100
AcDbBlockTableRecord
  2
*MODEL_SPACE
  0
BLOCK_RECORD
  5
B
100
AcDbSymbolTableRecord
100
AcDbBlockTableRecord
  2
*PAPER_SPACE
  0
ENDTAB
  0
ENDSEC
  0
SECTION
  2
BLOCKS
  0
BLOCK
  5
D
100
AcDbEntity
  8
0
100
AcDbBlockBegin
  2
*MODEL_SPACE
 70
           0
 10
0.0
 20
0.0
 30
0.0
  3
*MODEL_SPACE
  1

  0
ENDBLK
  5
E
100
AcDbEntity
  8
0
100
AcDbBlockEnd
  0
BLOCK
  5
F
100
AcDbEntity
 67
           1
  8
0
100
AcDbBlockBegin
  2
*PAPER_SPACE
 70
           0
 10
0.0
 20
0.0
 30
0.0
  3
*PAPER_SPACE
  1

  0
ENDBLK
  5
10
100
AcDbEntity
 67
           1
  8
0
100
AcDbBlockEnd
  0
ENDSEC
  0
SECTION
  2
ENTITIES
  0
HATCH
  5
392
100
AcDbEntity
  8
0
  6
CONTINUOUS
 62
           2
100
AcDbHatch
 10
0.0
 20
0.0
 30
0.0
210
0.0
220
0.0
230
1.0
  2
USER
 70
           0
 71
           1
 91
        1
 92
        1
 93
        8
 72
           1
 10
2980.0000000000041
 20
1219.750000000002
 11
2980.0000000000041
 21
1239.750000000002
 72
           1
 10
2902.0000000000041
 20
1219.750000000002
 11
2980.0000000000041
 21
1219.750000000002
 72
           2
 10
2902.0000000000041
 20
1256.750000000002
 40
37.0
 50
180.0
 51
-90.0
 73
           1
 72
           1
 10
2865.0000000000041
 20
1270.000000000002
 11
2865.0000000000041
 21
1256.750000000002
 72
           1
 10
2885.0000000000041
 20
1256.750000000002
 11
2885.0000000000041
 21
1270.000000000002
 72
           1
 10
2885.0000000000041
 20
1270.000000000002
 11
2865.0000000000041
 21
1270.000000000002
 72
           2
 10
2902.0000000000041
 20
1256.750000000002
 40
17.0
 50
180.0
 51
-90.0
 73
           1
 72
           1
 10
2902.0000000000041
 20
1239.750000000002
 11
2980.0000000000041
 21
1239.750000000002
 97
        7
330
379
330
9F
330
30F
330
A2
330
37A
330
310
330
A3
 75
           1
 76
           0
 52
45.0
 41
10.0
 77
           0
 78
           1
 53
45.0
 43
0.0
 44
0.0
 45
-7.0710678118654746
 46
7.0710678118654755
 79
           0
 98
        1
 10
0.0
 20
0.0
  0
ARC
  5
391
100
AcDbEntity
  8
1
  6
CONTINUOUS
 62
           4
100
AcDbCircle
 10
4544.500000000003
 20
2159.5
 40
1.0
100
AcDbArc
 50
0.0
 51
90.0
  0
ARC
  5
390
100
AcDbEntity
  8
1
  6
CONTINUOUS
 62
           4
100
AcDbCircle
 10
4555.500000000003
 20
2159.5
 40
1.0
100
AcDbArc
 50
90.0
 51
180.0
  0
ARC
  5
38F
100
AcDbEntity
  8
1
  6
CONTINUOUS
 62
           4
100
AcDbCircle
 10
4544.500000000003
 20
2610.500000000002
 40
1.0
100
AcDbArc
 50
-89.999999999948
 51
0.0
  0
ARC
  5
38E
100
AcDbEntity
  8
1
  6
CONTINUOUS
 62
           4
100
AcDbCircle
 10
4555.500000000003
 20
2610.500000000002
 40
1.0
100
AcDbArc
 50
180.0
 51
-90.0
  0
ARC
  5
38D
100
AcDbEntity
  8
1
  6
CONTINUOUS
 62
           7
100
AcDbCircle
 10
4073.750000000003
 20
2735.000000000001
 40
10.0
100
AcDbArc
 50
-90.0
 51
0.0
  0
ARC
  5
38C
100
AcDbEntity
  8
1
  6
CONTINUOUS
 62
           7
100
AcDbCircle
 10
4006.250000000003
 20
2735.000000000001
 40
10.0
100
AcDbArc
 50
180.0
 51
-90.0
  0
ARC
  5
38B
100
AcDbEntity
  8
1
  6
CONTINUOUS
 62
           7
100
AcDbCircle
 10
4073.750000000003
 20
2795.000000000001
 40
10.0
100
AcDbArc
 50
0.0
 51
90.0
  0
ARC
  5
38A
100
AcDbEntity
  8
1
  6
CONTINUOUS
 62
           7
100
AcDbCircle
 10
4006.250000000003
 20
2795.000000000001
 40
10.0
100
AcDbArc
 50
90.0
 51
180.0
  0
ARC
  5
389
100
AcDbEntity
  8
1
  6
CONTINUOUS
 62
           7
100
AcDbCircle
 10
118.613664000001
 20
2735.000000000001
 40
10.0
100
AcDbArc
 50
180.0
 51
-90.0
  0
ARC
  5
388
100
AcDbEntity
  8
1
  6
CONTINUOUS
 62
           7
100
AcDbCircle
 10
118.613664000001
 20
2795.000000000001
 40
10.0
100
AcDbArc
 50
90.0
 51
180.0
  0
ARC
  5
387
100
AcDbEntity
  8
1
  6
CONTINUOUS
 62
           7
100
AcDbCircle
 10
156.5
 20
2735.000000000001
 40
10.0
100
AcDbArc
 50
-90.0
 51
0.0
  0
ARC
  5
386
100
AcDbEntity
  8
1
  6
CONTINUOUS
 62
           7
100
AcDbCircle
 10
156.5
 20
2795.000000000001
 40
10.0
100
AcDbArc
 50
0.0
 51
90.0
  0
ARC
  5
385
100
AcDbEntity
  8
1
  6
CONTINUOUS
 62
           4
100
AcDbCircle
 10
109.265668111723
 20
5568.749999999998
 40
10.0
100
AcDbArc
 50
90.0
 51
120.43059420572
  0
ARC
  5
384
100
AcDbEntity
  8
1
  6
CONTINUOUS
 62
           4
100
AcDbCircle
 10
109.265668111723
 20
5511.249999999998
 40
10.000000000001
100
AcDbArc
 50
-120.43059420571
 51
-90.0
  0
ARC
  5
383
100
AcDbEntity
  8
1
  6
CONTINUOUS
 62
           7
100
AcDbCircle
 10
123.946258446662
 20
5506.249999999998
 40
10.0
100
AcDbArc
 50
180.0
 51
-90.0
  0
ARC
  5
382
100
AcDbEntity
  8
1
  6
CONTINUOUS
 62
           7
100
AcDbCircle
 10
123.946258446662
 20
5573.749999999998
 40
10.0
100
AcDbArc
 50
90.0
 51
180.0
  0
ARC
  5
381
100
AcDbEntity
  8
1
  6
CONTINUOUS
 62
           7
100
AcDbCircle
 10
156.500000000001
 20
5506.249999999998
 40
10.0
100
AcDbArc
 50
-90.0
 51
0.0
  0
ARC
  5
380
100
AcDbEntity
  8
1
  6
CONTINUOUS
 62
           7
100
AcDbCircle
 10
156.500000000001
 20
5573.749999999998
 40
10.0
100
AcDbArc
 50
0.0
 51
90.0
  0
ARC
  5
37F
100
AcDbEntity
  8
1
  6
CONTINUOUS
 62
           3
100
AcDbCircle
 10
3898.16356769104
 20
1917.80625341996
 40
0.5
100
AcDbArc
 50
180.0
 51
-90.0
  0
ARC
  5
37E
100
AcDbEntity
  8
1
  6
CONTINUOUS
 62
           3
100
AcDbCircle
 10
3898.16356769104
 20
1932.19374658004
 40
0.5
100
AcDbArc
 50
90.0
 51
180.0
  0
ARC
  5
37D
100
AcDbEntity
  8
1
  6
CONTINUOUS
 62
           3
100
AcDbCircle
 10
3749.899998122327
 20
1641.000000000001
 40
280.0
100
AcDbArc
 50
90.0
 51
180.0
  0
ARC
  5
37C
100
AcDbEntity
  8
1
  6
CONTINUOUS
 62
           3
100
AcDbCircle
 10
3749.899996810932
 20
1641.0
 40
288.0
100
AcDbArc
 50
90.0
 51
180.0
  0
LWPOLYLINE
  5
37B
100
AcDbEntity
  8
1
  6
CONTINUOUS
 62
           7
 60
           1
100
AcDbPolyline
 90
        2
 70
           0
 10
2980.000000000003
 20
1323.000000000002
 10
2980.000000000003
 20
1343.000000000002
  0
LWPOLYLINE
  5
37A
100
AcDbEntity
  8
1
  6
CONTINUOUS
 62
           7
 60
           1
100
AcDbPolyline
 90
        3
 70
           0
 10
2885.000000000004
 20
1256.750000000002
 10
2885.000000000004
 20
1270.000000000002
 10
2865.000000000004
 20
1270.000000000002
  0
LWPOLYLINE
  5
379
100
AcDbEntity
  8
1
  6
CONTINUOUS
 62
           7
 60
           1
100
AcDbPolyline
 90
        2
 70
           0
 10
2980.000000000004
 20
1219.750000000002
 10
2980.000000000004
 20
1239.750000000002
  0
SPLINE
  5
378
100
AcDbEntity
  8
0
  6
CONTINUOUS
 62
           3
100
AcDbSpline
210
0.0
220
0.0
230
1.0
 70
           0
 71
           3
 72
           8
 73
           5
 74
           7
 42
0.00000000001
 43
0.00000000001
 44
0.00000000001
 40
0.0
 40
0.0
 40
0.0
 40
0.2989651950319967
 40
0.4296296276529574
 40
0.4465803504019732
 40
0.4465803504019732
 40
0.4465803504019732
 10
3420.8999966098659
 20
1384.6465796233019
 30
0.0
 10
3420.8999966099132
 20
1384.466936563425
 30
0.0
 10
3420.8999966099132
 20
1384.2282922931149
 30
0.0
 10
3420.8999966099132
 20
1384.205607698183
 30
0.0
 10
3420.8999966099132
 20
1384.1999992729
 30
0.0
 11
3420.8999966098659
 21
1384.6465796233019
 31
0.0
 11
3420.8999966099013
 21
1384.4703311443229
 31
0.0
 11
3420.8999966099132
 21
1384.3008718271399
 31
0.0
 11
3420.8999966099136
 21
1384.2414172487579
 31
0.0
 11
3420.8999966099132
 21
1384.2082125816614
 31
0.0
 11
3420.8999966099127
 21
1384.2048568127318
 31
0.0
 11
3420.8999966099132
 21
1384.1999992729
 31
0.0
  0
SPLINE
  5
377
100
AcDbEntity
  8
0
  6
CONTINUOUS
 62
           3
100
AcDbSpline
210
0.0
220
0.0
230
1.0
 70
           0
 71
           3
 72
           8
 73
           5
 74
           7
 42
0.00000000001
 43
0.00000000001
 44
0.00000000001
 40
0.0
 40
0.0
 40
0.0
 40
0.0169507227490158
 40
0.1476151553699765
 40
0.4465803504019732
 40
0.4465803504019732
 40
0.4465803504019732
 10
3410.8999968334379
 20
1384.1999992729
 30
0.0
 10
3410.8999968334379
 20
1384.205607698183
 30
0.0
 10
3410.8999968334379
 20
1384.2282922931149
 30
0.0
 10
3410.8999968334379
 20
1384.466936563425
 30
0.0
 10
3410.8999968334761
 20
1384.6465796233019
 30
0.0
 11
3410.8999968334379
 21
1384.1999992729
 31
0.0
 11
3410.8999968334379
 21
1384.2048568127318
 31
0.0
 11
3410.8999968334379
 21
1384.2082125816612
 31
0.0
 11
3410.8999968334383
 21
1384.2414172487577
 31
0.0
 11
3410.8999968334374
 21
1384.3008718271399
 31
0.0
 11
3410.8999968334474
 21
1384.4703311443232
 31
0.0
 11
3410.8999968334761
 21
1384.6465796233019
 31
0.0
  0
SPLINE
  5
376
100
AcDbEntity
  8
0
  6
CONTINUOUS
 62
           3
100
AcDbSpline
210
0.0
220
0.0
230
1.0
 70
           0
 71
           3
 72
           8
 73
           5
 74
           7
 42
0.00000000001
 43
0.00000000001
 44
0.00000000001
 40
0.0
 40
0.0
 40
0.0
 40
0.4813883392785438
 40
1.3325653926389924
 40
2.559491048825659
 40
2.559491048825659
 40
2.559491048825659
 10
3418.399996665768
 20
1384.1999992729
 30
0.0
 10
3418.459261471945
 20
1384.2004449713099
 30
0.0
 10
3419.3034813132931
 20
1384.2067938900659
 30
0.0
 10
3420.1307773327831
 20
1384.4346858415561
 30
0.0
 10
3420.8999966098659
 20
1384.6465796233019
 30
0.0
 11
3418.399996665768
 21
1384.1999992729
 31
0.0
 11
3418.5206887308827
 21
1384.2009069323499
 31
0.0
 11
3418.7642353138726
 21
1384.2027385138806
 31
0.0
 11
3419.2533835507434
 21
1384.2291158030616
 31
0.0
 11
3419.6423362625173
 21
1384.3001369182343
 31
0.0
 11
3420.2009718844874
 21
1384.4540220561621
 31
0.0
 11
3420.8999966098659
 21
1384.6465796233019
 31
0.0
  0
SPLINE
  5
375
100
AcDbEntity
  8
0
  6
CONTINUOUS
 62
           3
100
AcDbSpline
210
0.0
220
0.0
230
1.0
 70
           0
 71
           3
 72
           8
 73
           5
 74
           7
 42
0.00000000001
 43
0.00000000001
 44
0.00000000001
 40
0.0
 40
0.0
 40
0.0
 40
0.4813884775019844
 40
1.3325655942400199
 40
2.5594910572497636
 40
2.5594910572497636
 40
2.5594910572497636
 10
3413.3999967775571
 20
1384.1999992729
 30
0.0
 10
3413.459261584389
 20
1384.200444971553
 30
0.0
 10
3414.303481700837
 20
1384.206793895828
 30
0.0
 10
3415.130777567962
 20
1384.4346858417271
 30
0.0
 10
3415.8999967216741
 20
1384.6465796232951
 30
0.0
 11
3413.3999967775571
 21
1384.1999992729
 31
0.0
 11
3413.520688878365
 21
1384.2009069331086
 31
0.0
 11
3413.764235567126
 21
1384.202738516429
 31
0.0
 11
3414.2533839007124
 21
1384.229115810643
 31
0.0
 11
3414.6423366340496
 21
1384.3001369344868
 31
0.0
 11
3415.2009721229124
 21
1384.4540220603089
 31
0.0
 11
3415.8999967216741
 21
1384.6465796232951
 31
0.0
  0
SPLINE
  5
374
100
AcDbEntity
  8
0
  6
CONTINUOUS
 62
           3
100
AcDbSpline
210
0.0
220
0.0
230
1.0
 70
           0
 71
           3
 72
           8
 73
           5
 74
           7
 42
0.00000000001
 43
0.00000000001
 44
0.00000000001
 40
0.0
 40
0.0
 40
0.0
 40
0.2779454797516652
 40
0.7862825386942721
 40
1.5429638907256584
 40
1.5429638907256584
 40
1.5429638907256584
 10
3411.5698696873419
 20
1367.5999939442549
 30
0.0
 10
3411.604086231921
 20
1367.6004396365131
 30
0.0
 10
3412.0914969500359
 20
1367.606788471174
 30
0.0
 10
3412.5691364171912
 20
1367.834684325677
 30
0.0
 10
3413.0132452878429
 20
1368.046581745235
 30
0.0
 11
3411.5698696873419
 21
1367.5999939442549
 31
0.0
 11
3411.6386061814947
 21
1367.6008892808159
 31
0.0
 11
3411.7763825747948
 21
1367.6026839059823
 31
0.0
 11
3412.060702211611
 21
1367.6286568402281
 31
0.0
 11
3412.2834323715779
 21
1367.6983665125829
 31
0.0
 11
3412.6087376234505
 21
1367.8535792272928
 31
0.0
 11
3413.0132452878429
 21
1368.046581745235
 31
0.0
  0
SPLINE
  5
373
100
AcDbEntity
  8
0
  6
CONTINUOUS
 62
           3
100
AcDbSpline
210
0.0
220
0.0
230
1.0
 70
           0
 71
           3
 72
           8
 73
           5
 74
           7
 42
0.00000000001
 43
0.00000000001
 44
0.00000000001
 40
0.0
 40
0.0
 40
0.0
 40
0.2779464854279014
 40
0.7862840843643262
 40
1.5429642658513054
 40
1.5429642658513054
 40
1.5429642658513054
 10
3411.5698696873419
 20
1372.6000040770409
 30
0.0
 10
3411.535653137983
 20
1372.5995583816691
 30
0.0
 10
3411.048240418892
 20
1372.59320947744
 30
0.0
 10
3410.5706019393479
 20
1372.365313693474
 30
0.0
 10
3410.1264938539739
 20
1372.1534162761091
 30
0.0
 11
3411.5698696873419
 21
1372.6000040770409
 31
0.0
 11
3411.5011329415938
 21
1372.5991087310697
 31
0.0
 11
3411.3633558030651
 21
1372.5973140838996
 31
0.0
 11
3411.0790354338756
 21
1372.5713410900566
 31
0.0
 11
3410.856305094655
 21
1372.5016313214473
 31
0.0
 11
3410.531000706831
 21
1372.3464187461259
 31
0.0
 11
3410.1264938539739
 21
1372.1534162761091
 31
0.0
  0
SPLINE
  5
372
100
AcDbEntity
  8
0
  6
CONTINUOUS
 62
           3
100
AcDbSpline
210
0.0
220
0.0
230
1.0
 70
           0
 71
           3
 72
           8
 73
           5
 74
           7
 42
0.00000000001
 43
0.00000000001
 44
0.00000000001
 40
0.0
 40
0.0
 40
0.0
 40
0.2779464854250524
 40
0.7862840843602592
 40
1.5429642658919198
 40
1.5429642658919198
 40
1.5429642658919198
 10
3420.23012375601
 20
1367.5999939442549
 30
0.0
 10
3420.2643403053671
 20
1367.6004396396349
 30
0.0
 10
3420.7517530244559
 20
1367.606788543864
 30
0.0
 10
3421.2293915040032
 20
1367.834684327823
 30
0.0
 10
3421.673499589368
 20
1368.046581745311
 30
0.0
 11
3420.23012375601
 21
1367.5999939442549
 31
0.0
 11
3420.2988605017572
 21
1367.6008892902323
 31
0.0
 11
3420.4366376402832
 21
1367.6026839374044
 31
0.0
 11
3420.7209580094705
 21
1367.6286569312458
 31
0.0
 11
3420.9436883486869
 21
1367.6983666998503
 31
0.0
 11
3421.2689927365154
 21
1367.8535792752018
 31
0.0
 11
3421.673499589368
 21
1368.046581745311
 31
0.0
  0
SPLINE
  5
371
100
AcDbEntity
  8
0
  6
CONTINUOUS
 62
           3
100
AcDbSpline
210
0.0
220
0.0
230
1.0
 70
           0
 71
           3
 72
           8
 73
           5
 74
           7
 42
0.00000000001
 43
0.00000000001
 44
0.00000000001
 40
0.0
 40
0.0
 40
0.0
 40
0.2779454797525391
 40
0.7862825386968155
 40
1.5429638907282623
 40
1.5429638907282623
 40
1.5429638907282623
 10
3420.23012375601
 20
1372.6000040770409
 30
0.0
 10
3420.19590721143
 20
1372.599558384783
 30
0.0
 10
3419.7084964933151
 20
1372.5932095501271
 30
0.0
 10
3419.230857026158
 20
1372.36531369562
 30
0.0
 10
3418.7867481555081
 20
1372.153416276062
 30
0.0
 11
3420.23012375601
 21
1372.6000040770409
 31
0.0
 11
3420.1613872618564
 21
1372.5991087404807
 31
0.0
 11
3420.0236108685563
 21
1372.5973141153156
 31
0.0
 11
3419.7392912317396
 21
1372.5713411810716
 31
0.0
 11
3419.5165610717722
 21
1372.5016315087164
 31
0.0
 11
3419.1912558198992
 21
1372.3464187940044
 31
0.0
 11
3418.7867481555081
 21
1372.153416276062
 31
0.0
  0
SPLINE
  5
370
100
AcDbEntity
  8
0
  6
CONTINUOUS
 62
           3
100
AcDbSpline
210
0.0
220
0.0
230
1.0
 70
           0
 71
           3
 72
           8
 73
           5
 74
           7
 42
0.00000000001
 43
0.00000000001
 44
0.00000000001
 40
0.0
 40
0.0
 40
0.0
 40
0.7097107189163608
 40
1.6878556121225361
 40
2.9354150974122102
 40
2.9354150974122102
 40
2.9354150974122102
 10
3413.0132452878429
 20
1368.046581745235
 30
0.0
 10
3413.2266018694959
 20
1367.986940602696
 30
0.0
 10
3414.166904550465
 20
1367.7240908429519
 30
0.0
 10
3415.144341891687
 20
1367.654102099867
 30
0.0
 10
3415.8999967216741
 20
1367.5999939442549
 30
0.0
 11
3413.0132452878429
 21
1368.046581745235
 31
0.0
 11
3413.2721075078007
 21
1367.9742200752128
 31
0.0
 11
3413.6219810043676
 21
1367.8764173502241
 31
0.0
 11
3414.1380638628571
 21
1367.7544828668408
 31
0.0
 11
3414.5964653461315
 21
1367.6933324312367
 31
0.0
 11
3415.1962864627949
 21
1367.6503826438066
 31
0.0
 11
3415.8999967216741
 21
1367.5999939442549
 31
0.0
  0
SPLINE
  5
36F
100
AcDbEntity
  8
0
  6
CONTINUOUS
 62
           3
100
AcDbSpline
210
0.0
220
0.0
230
1.0
 70
           0
 71
           3
 72
           8
 73
           5
 74
           7
 42
0.00000000001
 43
0.00000000001
 44
0.00000000001
 40
0.0
 40
0.0
 40
0.0
 40
0.7273681394938985
 40
1.7065914567916096
 40
2.9387223240358127
 40
2.9387223240358127
 40
2.9387223240358127
 10
3415.8999967216741
 20
1367.5999939442549
 30
0.0
 10
3416.1387195010361
 20
1367.6054734833269
 30
0.0
 10
3417.1156271469831
 20
1367.6278969974519
 30
0.0
 10
3418.0674888562471
 20
1367.8663776207211
 30
0.0
 10
3418.786748155369
 20
1368.046581745311
 30
0.0
 11
3415.8999967216741
 21
1367.5999939442549
 31
0.0
 11
3416.1831310149755
 21
1367.6064928859432
 31
0.0
 11
3416.5550883361557
 21
1367.6150306328632
 31
0.0
 11
3417.0808673755141
 21
1367.6510811733845
 31
0.0
 11
3417.5371268719346
 21
1367.7335000657715
 31
0.0
 11
3418.1147131849498
 21
1367.8782092631311
 31
0.0
 11
3418.786748155369
 21
1368.046581745311
 31
0.0
  0
SPLINE
  5
36E
100
AcDbEntity
  8
0
  6
CONTINUOUS
 62
           3
100
AcDbSpline
210
0.0
220
0.0
230
1.0
 70
           0
 71
           3
 72
           8
 73
           5
 74
           7
 42
0.00000000001
 43
0.00000000001
 44
0.00000000001
 40
0.0
 40
0.0
 40
0.0
 40
1.2321308673615841
 40
2.2113541846593336
 40
2.9387223241531615
 40
2.9387223241531615
 40
2.9387223241531615
 10
3418.7867481555081
 20
1372.153416276062
 30
0.0
 10
3418.0674888562471
 20
1372.3336204005791
 30
0.0
 10
3417.1156271469831
 20
1372.572101023849
 30
0.0
 10
3416.1387195010361
 20
1372.5945245379701
 30
0.0
 10
3415.8999967216741
 20
1372.6000040770409
 30
0.0
 11
3418.7867481555081
 21
1372.153416276062
 31
0.0
 11
3418.1147131849784
 21
1372.3217887581886
 31
0.0
 11
3417.5371268719118
 21
1372.4664979555348
 31
0.0
 11
3417.0808673755087
 21
1372.5489168479171
 31
0.0
 11
3416.5550883361557
 21
1372.5849673884354
 31
0.0
 11
3416.1831310149755
 21
1372.593505135354
 31
0.0
 11
3415.8999967216741
 21
1372.6000040770409
 31
0.0
  0
SPLINE
  5
36D
100
AcDbEntity
  8
0
  6
CONTINUOUS
 62
           3
100
AcDbSpline
210
0.0
220
0.0
230
1.0
 70
           0
 71
           3
 72
           8
 73
           5
 74
           7
 42
0.00000000001
 43
0.00000000001
 44
0.00000000001
 40
0.0
 40
0.0
 40
0.0
 40
1.247561696493352
 40
2.225708462239079
 40
2.9354211178800194
 40
2.9354211178800194
 40
2.9354211178800194
 10
3415.8999967216741
 20
1372.6000040770409
 30
0.0
 10
3415.1443400642502
 20
1372.5459088094719
 30
0.0
 10
3414.1668989125851
 20
1372.475936633469
 30
0.0
 10
3413.2266017037659
 20
1372.2130631111611
 30
0.0
 10
3413.0132452878429
 20
1372.153416276062
 30
0.0
 11
3415.8999967216741
 21
1372.6000040770409
 31
0.0
 11
3415.1962845668013
 21
1372.5496273656931
 31
0.0
 11
3414.5964614170321
 21
1372.5066877667871
 31
0.0
 11
3414.1380594916336
 21
1372.4455393603082
 31
0.0
 11
3413.6219787243326
 21
1372.3235964075075
 31
0.0
 11
3413.2721068549263
 21
1372.2257847264727
 31
0.0
 11
3413.0132452878429
 21
1372.153416276062
 31
0.0
  0
SPLINE
  5
36C
100
AcDbEntity
  8
0
  6
CONTINUOUS
 62
           3
100
AcDbSpline
210
0.0
220
0.0
230
1.0
 70
           0
 71
           3
 72
           8
 73
           5
 74
           7
 42
0.00000000001
 43
0.00000000001
 44
0.00000000001
 40
0.0
 40
0.0
 40
0.0
 40
0.2779452695559738
 40
0.786280542658642
 40
1.5429573555003104
 40
1.5429573555003104
 40
1.5429573555003104
 10
3411.5698696873419
 20
1372.6000040770409
 30
0.0
 10
3411.6040862308719
 20
1372.6004497818101
 30
0.0
 10
3412.0914965280799
 20
1372.6067987893659
 30
0.0
 10
3412.5691362283619
 20
1372.834686833085
 30
0.0
 10
3413.0132452878429
 20
1373.04657697686
 30
0.0
 11
3411.5698696873419
 21
1372.6000040770409
 31
0.0
 11
3411.6386062202832
 21
1372.6008994392644
 31
0.0
 11
3411.7763827320468
 21
1372.6026941163966
 31
0.0
 11
3412.0607020292227
 21
1372.628666380841
 31
0.0
 11
3412.2834323286825
 21
1372.6983738282354
 31
0.0
 11
3412.6087375183124
 21
1372.8535811178165
 31
0.0
 11
3413.0132452878429
 21
1373.04657697686
 31
0.0
  0
SPLINE
  5
36B
100
AcDbEntity
  8
0
  6
CONTINUOUS
 62
           3
100
AcDbSpline
210
0.0
220
0.0
230
1.0
 70
           0
 71
           3
 72
           8
 73
           5
 74
           7
 42
0.00000000001
 43
0.00000000001
 44
0.00000000001
 40
0.0
 40
0.0
 40
0.0
 40
0.2779463803282737
 40
0.7862830863351852
 40
1.542960998255763
 40
1.542960998255763
 40
1.542960998255763
 10
3411.5698696873419
 20
1377.5999993086659
 30
0.0
 10
3411.5356531385082
 20
1377.599553607037
 30
0.0
 10
3411.0482406298729
 20
1377.593204616358
 30
0.0
 10
3410.5706020337661
 20
1377.3653127377879
 30
0.0
 10
3410.1264938539739
 20
1377.1534189582051
 30
0.0
 11
3411.5698696873419
 21
1377.5999993086659
 31
0.0
 11
3411.5011329221998
 21
1377.599103949862
 31
0.0
 11
3411.3633557244393
 21
1377.5973092767078
 31
0.0
 11
3411.0790355250742
 21
1377.5713366177661
 31
0.0
 11
3410.8563051161123
 21
1377.5016279616409
 31
0.0
 11
3410.5310007594044
 21
1377.3464180988556
 31
0.0
 11
3410.1264938539739
 21
1377.1534189582051
 31
0.0
  0
SPLINE
  5
36A
100
AcDbEntity
  8
0
  6
CONTINUOUS
 62
           3
100
AcDbSpline
210
0.0
220
0.0
230
1.0
 70
           0
 71
           3
 72
           8
 73
           5
 74
           7
 42
0.00000000001
 43
0.00000000001
 44
0.00000000001
 40
0.0
 40
0.0
 40
0.0
 40
0.2779462752313717
 40
0.7862820883219238
 40
1.542957730647712
 40
1.542957730647712
 40
1.542957730647712
 10
3420.23012375601
 20
1372.6000040770409
 30
0.0
 10
3420.2643403043212
 20
1372.6004497849281
 30
0.0
 10
3420.7517526025008
 20
1372.606798862053
 30
0.0
 10
3421.2293913151689
 20
1372.8346868352351
 30
0.0
 10
3421.673499589368
 20
1373.046576976911
 30
0.0
 11
3420.23012375601
 21
1372.6000040770409
 31
0.0
 11
3420.298860540548
 21
1372.6008994486783
 31
0.0
 11
3420.4366377975402
 21
1372.6026941478153
 31
0.0
 11
3420.7209578270836
 21
1372.628666471855
 31
0.0
 11
3420.9436883057924
 21
1372.6983740154992
 31
0.0
 11
3421.2689926313747
 21
1372.85358116572
 31
0.0
 11
3421.673499589368
 21
1373.046576976911
 31
0.0
  0
SPLINE
  5
369
100
AcDbEntity
  8
0
  6
CONTINUOUS
 62
           3
100
AcDbSpline
210
0.0
220
0.0
230
1.0
 70
           0
 71
           3
 72
           8
 73
           5
 74
           7
 42
0.00000000001
 43
0.00000000001
 44
0.00000000001
 40
0.0
 40
0.0
 40
0.0
 40
0.2779453746560899
 40
0.7862815406713665
 40
1.5429606230910129
 40
1.5429606230910129
 40
1.5429606230910129
 10
3420.23012375601
 20
1377.5999993086659
 30
0.0
 10
3420.1959072119539
 20
1377.5995536101509
 30
0.0
 10
3419.7084967042911
 20
1377.593204689045
 30
0.0
 10
3419.2308571205749
 20
1377.365312739938
 30
0.0
 10
3418.7867481555081
 20
1377.1534189582669
 30
0.0
 11
3420.23012375601
 21
1377.5999993086659
 31
0.0
 11
3420.1613872424614
 21
1377.599103959273
 31
0.0
 11
3420.0236107899264
 21
1377.5973093081241
 31
0.0
 11
3419.7392913229323
 21
1377.5713367087801
 31
0.0
 11
3419.5165610932195
 21
1377.5016281489061
 31
0.0
 11
3419.1912558724689
 21
1377.3464181467621
 31
0.0
 11
3418.7867481555081
 21
1377.1534189582669
 31
0.0
  0
SPLINE
  5
368
100
AcDbEntity
  8
0
  6
CONTINUOUS
 62
           3
100
AcDbSpline
210
0.0
220
0.0
230
1.0
 70
           0
 71
           3
 72
           8
 73
           5
 74
           7
 42
0.00000000001
 43
0.00000000001
 44
0.00000000001
 40
0.0
 40
0.0
 40
0.0
 40
0.7097104926827146
 40
1.6878550560213972
 40
2.9354142011754254
 40
2.9354142011754254
 40
2.9354142011754254
 10
3413.0132452878429
 20
1373.04657697686
 30
0.0
 10
3413.2266018489559
 20
1372.9869356693489
 30
0.0
 10
3414.1669038516511
 20
1372.7240853468579
 30
0.0
 10
3415.1443416651759
 20
1372.654105412621
 30
0.0
 10
3415.8999967216741
 20
1372.6000040770409
 30
0.0
 11
3413.0132452878429
 21
1373.04657697686
 31
0.0
 11
3413.2721074221531
 21
1372.9742151236567
 31
0.0
 11
3413.6219807028583
 21
1372.8764121790696
 31
0.0
 11
3414.1380633113722
 21
1372.7544784200809
 31
0.0
 11
3414.5964648393301
 21
1372.6933308075381
 31
0.0
 11
3415.1962862228393
 21
1372.6503864274555
 31
0.0
 11
3415.8999967216741
 21
1372.6000040770409
 31
0.0
  0
SPLINE
  5
367
100
AcDbEntity
  8
0
  6
CONTINUOUS
 62
           3
100
AcDbSpline
210
0.0
220
0.0
230
1.0
 70
           0
 71
           3
 72
           8
 73
           5
 74
           7
 42
0.00000000001
 43
0.00000000001
 44
0.00000000001
 40
0.0
 40
0.0
 40
0.0
 40
0.7273675739582235
 40
1.7065896374659899
 40
2.9387184666077006
 40
2.9387184666077006
 40
2.9387184666077006
 10
3415.8999967216741
 20
1372.6000040770409
 30
0.0
 10
3416.1387194651529
 20
1372.605483801264
 30
0.0
 10
3417.1156260261
 20
1372.6279080515201
 30
0.0
 10
3418.0674885010508
 20
1372.866379694286
 30
0.0
 10
3418.786748155369
 20
1373.046576976911
 30
0.0
 11
3415.8999967216741
 21
1372.6000040770409
 31
0.0
 11
3416.1831309024892
 21
1372.6065032367185
 31
0.0
 11
3416.5550879579769
 21
1372.6150412673053
 31
0.0
 11
3417.0808665470149
 21
1372.651091133866
 31
0.0
 11
3417.5371261778828
 21
1372.7335071651178
 31
0.0
 11
3418.1147128338384
 21
1372.8782108826499
 31
0.0
 11
3418.786748155369
 21
1373.046576976911
 31
0.0
  0
SPLINE
  5
366
100
AcDbEntity
  8
0
  6
CONTINUOUS
 62
           3
100
AcDbSpline
210
0.0
220
0.0
230
1.0
 70
           0
 71
           3
 72
           8
 73
           5
 74
           7
 42
0.00000000001
 43
0.00000000001
 44
0.00000000001
 40
0.0
 40
0.0
 40
0.0
 40
1.2321298483039826
 40
2.2113525387003197
 40
2.9387203954241792
 40
2.9387203954241792
 40
2.9387203954241792
 10
3418.7867481555081
 20
1377.1534189582669
 30
0.0
 10
3418.067488678646
 20
1377.333619661815
 30
0.0
 10
3417.1156265865379
 20
1377.572095794832
 30
0.0
 10
3416.1387194830941
 20
1377.5945196770231
 30
0.0
 10
3415.8999967216741
 20
1377.5999993086659
 30
0.0
 11
3418.7867481555081
 21
1377.1534189582669
 31
0.0
 11
3418.1147130094205
 21
1377.3217882464439
 31
0.0
 11
3417.5371265248823
 21
1377.4664947038791
 31
0.0
 11
3417.0808669612561
 21
1377.5489121656942
 31
0.0
 11
3416.5550881470654
 21
1377.5849623692338
 31
0.0
 11
3416.1831309587319
 21
1377.5935002579868
 31
0.0
 11
3415.8999967216741
 21
1377.5999993086659
 31
0.0
  0
SPLINE
  5
365
100
AcDbEntity
  8
0
  6
CONTINUOUS
 62
           3
100
AcDbSpline
210
0.0
220
0.0
230
1.0
 70
           0
 71
           3
 72
           8
 73
           5
 74
           7
 42
0.00000000001
 43
0.00000000001
 44
0.00000000001
 40
0.0
 40
0.0
 40
0.0
 40
1.2475604207811726
 40
2.2257060852932931
 40
2.9354176594310157
 40
2.9354176594310157
 40
2.9354176594310157
 10
3415.8999967216741
 20
1377.5999993086659
 30
0.0
 10
3415.1443408647269
 20
1377.5459010071061
 30
0.0
 10
3414.1669013821652
 20
1377.4759249520071
 30
0.0
 10
3413.2266017763618
 20
1377.2130630295719
 30
0.0
 10
3413.0132452878429
 20
1377.1534189582669
 30
0.0
 11
3415.8999967216741
 21
1377.5999993086659
 31
0.0
 11
3415.1962853948357
 21
1377.5496197777989
 31
0.0
 11
3414.5964631282141
 21
1377.5066777883169
 31
0.0
 11
3414.1380614015402
 21
1377.4455297788074
 31
0.0
 11
3413.6219797136155
 21
1377.3235914228985
 31
0.0
 11
3413.2721071385454
 21
1377.2257841100773
 31
0.0
 11
3413.0132452878429
 21
1377.1534189582669
 31
0.0
  0
SPLINE
  5
364
100
AcDbEntity
  8
0
  6
CONTINUOUS
 62
           3
100
AcDbSpline
210
0.0
220
0.0
230
1.0
 70
           0
 71
           3
 72
           8
 73
           5
 74
           7
 42
0.00000000001
 43
0.00000000001
 44
0.00000000001
 40
0.0
 40
0.0
 40
0.0
 40
0.27794547975164
 40
0.7862825386950541
 40
1.5429638907255103
 40
1.5429638907255103
 40
1.5429638907255103
 10
3411.5698696873419
 20
1359.9999994040479
 30
0.0
 10
3411.604086231921
 20
1360.0004450963061
 30
0.0
 10
3412.0914969500359
 20
1360.0067939309631
 30
0.0
 10
3412.5691364171912
 20
1360.23468978547
 30
0.0
 10
3413.0132452878429
 20
1360.4465872050239
 30
0.0
 11
3411.5698696873419
 21
1359.9999994040479
 31
0.0
 11
3411.6386061814947
 21
1360.0008947406086
 31
0.0
 11
3411.7763825747948
 21
1360.0026893657739
 31
0.0
 11
3412.060702211611
 21
1360.0286623000184
 31
0.0
 11
3412.2834323715783
 21
1360.0983719723736
 31
0.0
 11
3412.6087376234505
 21
1360.2535846870844
 31
0.0
 11
3413.0132452878429
 21
1360.4465872050239
 31
0.0
  0
SPLINE
  5
363
100
AcDbEntity
  8
0
  6
CONTINUOUS
 62
           3
100
AcDbSpline
210
0.0
220
0.0
230
1.0
 70
           0
 71
           3
 72
           8
 73
           5
 74
           7
 42
0.00000000001
 43
0.00000000001
 44
0.00000000001
 40
0.0
 40
0.0
 40
0.0
 40
0.2779462752327003
 40
0.7862820883227488
 40
1.5429577306086437
 40
1.5429577306086437
 40
1.5429577306086437
 10
3411.5698696873419
 20
1364.9999946356729
 30
0.0
 10
3411.5356531390289
 20
1364.9995489277901
 30
0.0
 10
3411.0482408408502
 20
1364.993199850662
 30
0.0
 10
3410.5706021281808
 20
1364.7653118774831
 30
0.0
 10
3410.1264938539739
 20
1364.5534217359159
 30
0.0
 11
3411.5698696873419
 21
1364.9999946356729
 31
0.0
 11
3411.5011329028025
 21
1364.9990992640385
 31
0.0
 11
3411.363355645809
 21
1364.9973045649017
 31
0.0
 11
3411.0790356162647
 21
1364.9713322408597
 31
0.0
 11
3410.8563051375518
 21
1364.9016246972142
 31
0.0
 11
3410.5310008119714
 21
1364.7464175470241
 31
0.0
 11
3410.1264938539739
 21
1364.5534217359159
 31
0.0
  0
SPLINE
  5
362
100
AcDbEntity
  8
0
  6
CONTINUOUS
 62
           3
100
AcDbSpline
210
0.0
220
0.0
230
1.0
 70
           0
 71
           3
 72
           8
 73
           5
 74
           7
 42
0.00000000001
 43
0.00000000001
 44
0.00000000001
 40
0.0
 40
0.0
 40
0.0
 40
0.2779464854684877
 40
0.7862840844045268
 40
1.5429642659447547
 40
1.5429642659447547
 40
1.5429642659447547
 10
3420.2301237559682
 20
1359.999999403921
 30
0.0
 10
3420.2643403053671
 20
1360.000445099424
 30
0.0
 10
3420.7517530244559
 20
1360.0067940036531
 30
0.0
 10
3421.2293915040032
 20
1360.2346897876159
 30
0.0
 10
3421.673499589368
 20
1360.4465872051219
 30
0.0
 11
3420.2301237559682
 21
1359.999999403921
 31
0.0
 11
3420.2988605017508
 21
1360.0008947499907
 31
0.0
 11
3420.4366376403004
 21
1360.0026893971938
 31
0.0
 11
3420.720958009475
 21
1360.0286623910354
 31
0.0
 11
3420.9436883486856
 21
1360.0983721596403
 31
0.0
 11
3421.2689927365154
 21
1360.2535847349986
 31
0.0
 11
3421.673499589368
 21
1360.4465872051219
 31
0.0
  0
SPLINE
  5
361
100
AcDbEntity
  8
0
  6
CONTINUOUS
 62
           3
100
AcDbSpline
210
0.0
220
0.0
230
1.0
 70
           0
 71
           3
 72
           8
 73
           5
 74
           7
 42
0.00000000001
 43
0.00000000001
 44
0.00000000001
 40
0.0
 40
0.0
 40
0.0
 40
0.2779452695589012
 40
0.786280542659997
 40
1.542957355501255
 40
1.542957355501255
 40
1.542957355501255
 10
3420.23012375601
 20
1364.9999946356729
 30
0.0
 10
3420.195907212476
 20
1364.999548930904
 30
0.0
 10
3419.7084969152702
 20
1364.993199923352
 30
0.0
 10
3419.2308572149891
 20
1364.7653118796329
 30
0.0
 10
3418.7867481555081
 20
1364.5534217358579
 30
0.0
 11
3420.23012375601
 21
1364.9999946356729
 31
0.0
 11
3420.1613872230655
 21
1364.9990992734499
 31
0.0
 11
3420.0236107113005
 21
1364.9973045963188
 31
0.0
 11
3419.7392914141274
 21
1364.9713323318763
 31
0.0
 11
3419.5165611146685
 21
1364.9016248844825
 31
0.0
 11
3419.1912559250386
 21
1364.7464175949015
 31
0.0
 11
3418.7867481555081
 21
1364.5534217358579
 31
0.0
  0
SPLINE
  5
360
100
AcDbEntity
  8
0
  6
CONTINUOUS
 62
           3
100
AcDbSpline
210
0.0
220
0.0
230
1.0
 70
           0
 71
           3
 72
           8
 73
           5
 74
           7
 42
0.00000000001
 43
0.00000000001
 44
0.00000000001
 40
0.0
 40
0.0
 40
0.0
 40
0.7097126556400834
 40
1.6878594213858187
 40
2.9354211178791787
 40
2.9354211178791787
 40
2.9354211178791787
 10
3413.0132452878429
 20
1360.4465872050239
 30
0.0
 10
3413.2266017037659
 20
1360.386940369928
 30
0.0
 10
3414.1668989125851
 20
1360.12406684762
 30
0.0
 10
3415.1443400642502
 20
1360.0540946716169
 30
0.0
 10
3415.8999967216741
 20
1359.9999994040479
 30
0.0
 11
3413.0132452878429
 21
1360.4465872050239
 31
0.0
 11
3413.2721068549267
 21
1360.3742187546156
 31
0.0
 11
3413.6219787243322
 21
1360.2764070735818
 31
0.0
 11
3414.1380594916336
 21
1360.1544641207806
 31
0.0
 11
3414.5964614170316
 21
1360.0933157143018
 31
0.0
 11
3415.1962845668013
 21
1360.0503761153959
 31
0.0
 11
3415.8999967216741
 21
1359.9999994040479
 31
0.0
  0
SPLINE
  5
35F
100
AcDbEntity
  8
0
  6
CONTINUOUS
 62
           3
100
AcDbSpline
210
0.0
220
0.0
230
1.0
 70
           0
 71
           3
 72
           8
 73
           5
 74
           7
 42
0.00000000001
 43
0.00000000001
 44
0.00000000001
 40
0.0
 40
0.0
 40
0.0
 40
0.7273681394938096
 40
1.7065914567914933
 40
2.938722324041029
 40
2.938722324041029
 40
2.938722324041029
 10
3415.8999967216741
 20
1359.9999994040479
 30
0.0
 10
3416.1387195010361
 20
1360.005478943116
 30
0.0
 10
3417.1156271469831
 20
1360.027902457241
 30
0.0
 10
3418.0674888562471
 20
1360.26638308051
 30
0.0
 10
3418.786748155369
 20
1360.4465872051219
 30
0.0
 11
3415.8999967216741
 21
1359.9999994040479
 31
0.0
 11
3416.183131014976
 21
1360.0064983457332
 31
0.0
 11
3416.5550883361557
 21
1360.0150360926523
 31
0.0
 11
3417.0808673755137
 21
1360.0510866331736
 31
0.0
 11
3417.5371268719332
 21
1360.1335055255602
 31
0.0
 11
3418.1147131849489
 21
1360.2782147229252
 31
0.0
 11
3418.786748155369
 21
1360.4465872051219
 31
0.0
  0
SPLINE
  5
35E
100
AcDbEntity
  8
0
  6
CONTINUOUS
 62
           3
100
AcDbSpline
210
0.0
220
0.0
230
1.0
 70
           0
 71
           3
 72
           8
 73
           5
 74
           7
 42
0.00000000001
 43
0.00000000001
 44
0.00000000001
 40
0.0
 40
0.0
 40
0.0
 40
1.2321288292639827
 40
2.2113508927721335
 40
2.9387184667302604
 40
2.9387184667302604
 40
2.9387184667302604
 10
3418.7867481555081
 20
1364.5534217358579
 30
0.0
 10
3418.0674885010508
 20
1364.733619018429
 30
0.0
 10
3417.1156260261
 20
1364.9720906611981
 30
0.0
 10
3416.1387194651529
 20
1364.994514911454
 30
0.0
 10
3415.8999967216741
 20
1364.9999946356729
 30
0.0
 11
3418.7867481555081
 21
1364.5534217358579
 31
0.0
 11
3418.1147128338671
 21
1364.7217878300801
 31
0.0
 11
3417.5371261778596
 21
1364.8664915476047
 31
0.0
 11
3417.0808665470095
 21
1364.9489075788533
 31
0.0
 11
3416.555087957976
 21
1364.9849574454124
 31
0.0
 11
3416.1831309024892
 21
1364.9934954759983
 31
0.0
 11
3415.8999967216741
 21
1364.9999946356729
 31
0.0
  0
SPLINE
  5
35D
100
AcDbEntity
  8
0
  6
CONTINUOUS
 62
           3
100
AcDbSpline
210
0.0
220
0.0
230
1.0
 70
           0
 71
           3
 72
           8
 73
           5
 74
           7
 42
0.00000000001
 43
0.00000000001
 44
0.00000000001
 40
0.0
 40
0.0
 40
0.0
 40
1.2475591451551136
 40
2.2257037084939557
 40
2.9354142011746265
 40
2.9354142011746265
 40
2.9354142011746265
 10
3415.8999967216741
 20
1364.9999946356729
 30
0.0
 10
3415.1443416651759
 20
1364.9458933000931
 30
0.0
 10
3414.1669038516488
 20
1364.8759133658571
 30
0.0
 10
3413.2266018489559
 20
1364.6130630433649
 30
0.0
 10
3413.0132452878429
 20
1364.5534217358579
 30
0.0
 11
3415.8999967216741
 21
1364.9999946356729
 31
0.0
 11
3415.1962862228384
 21
1364.9496122852588
 31
0.0
 11
3414.5964648393287
 21
1364.9066679051762
 31
0.0
 11
3414.1380633113708
 21
1364.8455202926336
 31
0.0
 11
3413.6219807028569
 21
1364.7235865336445
 31
0.0
 11
3413.2721074221527
 21
1364.6257835890581
 31
0.0
 11
3413.0132452878429
 21
1364.5534217358579
 31
0.0
  0
SPLINE
  5
35C
100
AcDbEntity
  8
0
  6
CONTINUOUS
 62
           3
100
AcDbSpline
210
0.0
220
0.0
230
1.0
 70
           0
 71
           3
 72
           8
 73
           5
 74
           7
 42
0.00000000001
 43
0.00000000001
 44
0.00000000001
 40
0.0
 40
0.0
 40
0.0
 40
0.2779464854651532
 40
0.7862840844012677
 40
1.5429642659212766
 40
1.5429642659212766
 40
1.5429642659212766
 10
3420.2301237559682
 20
1359.999999403921
 30
0.0
 10
3420.2643403053671
 20
1359.9995537086761
 30
0.0
 10
3420.7517530244559
 20
1359.9932048044429
 30
0.0
 10
3421.2293915040032
 20
1359.7653090204799
 30
0.0
 10
3421.673499589368
 20
1359.553411603021
 30
0.0
 11
3420.2301237559682
 21
1359.999999403921
 31
0.0
 11
3420.2988605017504
 21
1359.9991040580446
 31
0.0
 11
3420.4366376402991
 21
1359.997309410905
 31
0.0
 11
3420.720958009475
 21
1359.9713364170609
 31
0.0
 11
3420.9436883486887
 21
1359.9016266484541
 31
0.0
 11
3421.2689927365154
 21
1359.7464140731086
 31
0.0
 11
3421.673499589368
 21
1359.553411603021
 31
0.0
  0
SPLINE
  5
35B
100
AcDbEntity
  8
0
  6
CONTINUOUS
 62
           3
100
AcDbSpline
210
0.0
220
0.0
230
1.0
 70
           0
 71
           3
 72
           8
 73
           5
 74
           7
 42
0.00000000001
 43
0.00000000001
 44
0.00000000001
 40
0.0
 40
0.0
 40
0.0
 40
0.3778155284989183
 40
0.8942062233993843
 40
1.5357514174617419
 40
1.5357514174617419
 40
1.5357514174617419
 10
3410.1264938539739
 20
1359.553411603021
 30
0.0
 10
3410.2210118970329
 20
1359.6064716909059
 30
0.0
 10
3410.690881794907
 20
1359.870245011374
 30
0.0
 10
3411.1795227343059
 20
1359.942377186198
 30
0.0
 10
3411.5698696873419
 20
1359.9999994040479
 30
0.0
 11
3410.1264938539739
 21
1359.553411603021
 31
0.0
 11
3410.2470141544068
 21
1359.6210687140281
 31
0.0
 11
3410.4195389695869
 21
1359.7179198712795
 31
0.0
 11
3410.6775244143332
 21
1359.8402057052365
 31
0.0
 11
3410.9087950979301
 21
1359.9024129269183
 31
0.0
 11
3411.2094275634709
 21
1359.9467916758408
 31
0.0
 11
3411.5698696873419
 21
1359.9999994040479
 31
0.0
  0
SPLINE
  5
35A
100
AcDbEntity
  8
0
  6
CONTINUOUS
 62
           3
100
AcDbSpline
210
0.0
220
0.0
230
1.0
 70
           0
 71
           3
 72
           8
 73
           5
 74
           7
 42
0.00000000001
 43
0.00000000001
 44
0.00000000001
 40
0.0
 40
0.0
 40
0.0
 40
0.6415450374699313
 40
1.157930368601785
 40
1.5357381749008614
 40
1.5357381749008614
 40
1.5357381749008614
 10
3411.5698696873419
 20
1355.0000041724199
 30
0.0
 10
3411.1795237086139
 20
1355.0576336938759
 30
0.0
 10
3410.690884629365
 20
1355.1297749168839
 30
0.0
 10
3410.2210119621182
 20
1355.3935224482559
 30
0.0
 10
3410.1264938539739
 20
1355.446577072224
 30
0.0
 11
3411.5698696873419
 21
1355.0000041724199
 31
0.0
 11
3411.2094282457042
 21
1355.0532186767991
 31
0.0
 11
3410.9087958782484
 21
1355.097603147025
 31
0.0
 11
3410.6775260473241
 21
1355.1598096979615
 31
0.0
 11
3410.4195390523196
 21
1355.2820858110538
 31
0.0
 11
3410.2470142076327
 21
1355.3789269449476
 31
0.0
 11
3410.1264938539739
 21
1355.446577072224
 31
0.0
  0
SPLINE
  5
359
100
AcDbEntity
  8
0
  6
CONTINUOUS
 62
           3
100
AcDbSpline
210
0.0
220
0.0
230
1.0
 70
           0
 71
           3
 72
           8
 73
           5
 74
           7
 42
0.00000000001
 43
0.00000000001
 44
0.00000000001
 40
0.0
 40
0.0
 40
0.0
 40
0.3539460334983028
 40
0.8643414136626536
 40
1.5431068114059314
 40
1.5431068114059314
 40
1.5431068114059314
 10
3411.5698696873419
 20
1359.9999994040479
 30
0.0
 10
3411.6793238424239
 20
1359.9953935078299
 30
0.0
 10
3412.1676816710419
 20
1359.97484311874
 30
0.0
 10
3412.6438213484462
 20
1359.7375336343539
 30
0.0
 10
3413.0132452879729
 20
1359.553411603021
 30
0.0
 11
3411.5698696873419
 21
1359.9999994040479
 31
0.0
 11
3411.7019556855803
 21
1359.9944411463541
 31
0.0
 11
3411.8793053701338
 21
1359.9869781657089
 31
0.0
 11
3412.146678141386
 21
1359.9524131949256
 31
0.0
 11
3412.3720438533264
 21
1359.8729883765134
 31
0.0
 11
3412.6682329595478
 21
1359.7253668120607
 31
0.0
 11
3413.0132452879729
 21
1359.553411603021
 31
0.0
  0
SPLINE
  5
358
100
AcDbEntity
  8
0
  6
CONTINUOUS
 62
           3
100
AcDbSpline
210
0.0
220
0.0
230
1.0
 70
           0
 71
           3
 72
           8
 73
           5
 74
           7
 42
0.00000000001
 43
0.00000000001
 44
0.00000000001
 40
0.0
 40
0.0
 40
0.0
 40
0.6787700534890743
 40
1.1891668948802716
 40
1.5431123743491968
 40
1.5431123743491968
 40
1.5431123743491968
 10
3413.0132452878429
 20
1355.446577072242
 30
0.0
 10
3412.6438214744071
 20
1355.2624483716061
 30
0.0
 10
3412.1676820506259
 20
1355.0251303367841
 30
0.0
 10
3411.6793238525852
 20
1355.0046045512611
 30
0.0
 10
3411.5698696873419
 20
1355.0000041724199
 30
0.0
 11
3413.0132452878429
 21
1355.446577072242
 31
0.0
 11
3412.66823297364
 21
1355.2746155830068
 31
0.0
 11
3412.3720436579042
 21
1355.1269885165734
 31
0.0
 11
3412.1466781919503
 21
1355.0475647466087
 31
0.0
 11
3411.879305008646
 21
1355.0130097962931
 31
0.0
 11
3411.7019556002897
 21
1355.0055557678088
 31
0.0
 11
3411.5698696873419
 21
1355.0000041724199
 31
0.0
  0
SPLINE
  5
357
100
AcDbEntity
  8
0
  6
CONTINUOUS
 62
           3
100
AcDbSpline
210
0.0
220
0.0
230
1.0
 70
           0
 71
           3
 72
           8
 73
           5
 74
           7
 42
0.00000000001
 43
0.00000000001
 44
0.00000000001
 40
0.0
 40
0.0
 40
0.0
 40
0.2779452695589234
 40
0.7862805426608706
 40
1.5429573556208163
 40
1.5429573556208163
 40
1.5429573556208163
 10
3420.23012375601
 20
1355.0000041724199
 30
0.0
 10
3420.195907212476
 20
1355.0004498771891
 30
0.0
 10
3419.7084969152702
 20
1355.0067988847441
 30
0.0
 10
3419.2308572149891
 20
1355.234686928467
 30
0.0
 10
3418.786748155369
 20
1355.446577072224
 30
0.0
 11
3420.23012375601
 21
1355.0000041724199
 31
0.0
 11
3420.1613872230655
 21
1355.0008995346434
 31
0.0
 11
3420.0236107113005
 21
1355.0026942117752
 31
0.0
 11
3419.7392914141324
 21
1355.0286664762177
 31
0.0
 11
3419.5165611146858
 21
1355.0983739236065
 31
0.0
 11
3419.1912559250081
 21
1355.253581213191
 31
0.0
 11
3418.786748155369
 21
1355.446577072224
 31
0.0
  0
SPLINE
  5
356
100
AcDbEntity
  8
0
  6
CONTINUOUS
 62
           3
100
AcDbSpline
210
0.0
220
0.0
230
1.0
 70
           0
 71
           3
 72
           8
 73
           5
 74
           7
 42
0.00000000001
 43
0.00000000001
 44
0.00000000001
 40
0.0
 40
0.0
 40
0.0
 40
0.555855849062399
 40
1.5343195422005751
 40
2.9385037456608716
 40
2.9385037456608716
 40
2.9385037456608716
 10
3415.899996721671
 20
1355.000004172322
 30
0.0
 10
3415.8315636362959
 20
1355.0004498783021
 30
0.0
 10
3414.856741687242
 20
1355.0067989106681
 30
0.0
 10
3413.9014629162639
 20
1355.234686929231
 30
0.0
 10
3413.0132452878429
 20
1355.446577072242
 30
0.0
 11
3415.899996721671
 21
1355.000004172322
 31
0.0
 11
3415.7603818762491
 21
1355.0009134863224
 31
0.0
 11
3415.4784035107336
 21
1355.0027500163631
 31
0.0
 11
3414.914082896018
 21
1355.0291829422188
 31
0.0
 11
3414.4644446988523
 21
1355.1003839311754
 31
0.0
 11
3413.8201539548054
 21
1355.2540837154697
 31
0.0
 11
3413.0132452878429
 21
1355.446577072242
 31
0.0
  0
SPLINE
  5
355
100
AcDbEntity
  8
0
  6
CONTINUOUS
 62
           3
100
AcDbSpline
210
0.0
220
0.0
230
1.0
 70
           0
 71
           3
 72
           8
 73
           5
 74
           7
 42
0.00000000001
 43
0.00000000001
 44
0.00000000001
 40
0.0
 40
0.0
 40
0.0
 40
0.5558562714156194
 40
1.5343210643718184
 40
2.9385072682991633
 40
2.9385072682991633
 40
2.9385072682991633
 10
3415.8999967216741
 20
1359.9999994040479
 30
0.0
 10
3415.9684298091479
 20
1359.999553710677
 30
0.0
 10
3416.9432526000192
 20
1359.993204851213
 30
0.0
 10
3417.898530904748
 20
1359.765309021863
 30
0.0
 10
3418.7867481555081
 20
1359.553411603069
 30
0.0
 11
3415.8999967216741
 21
1359.9999994040479
 31
0.0
 11
3416.0396116244074
 21
1359.999090115298
 31
0.0
 11
3416.3215901576614
 21
1359.9972536357895
 31
0.0
 11
3416.8859111712832
 21
1359.9708199944766
 31
0.0
 11
3417.3355493274348
 21
1359.8996166396905
 31
0.0
 11
3417.9798398231101
 21
1359.7459115716215
 31
0.0
 11
3418.7867481555081
 21
1359.553411603069
 31
0.0
  0
CIRCLE
  5
354
100
AcDbEntity
  8
1
  6
CONTINUOUS
 62
           3
100
AcDbCircle
 10
508.472255321878
 20
1295.200848327054
 40
40.0
  0
CIRCLE
  5
353
100
AcDbEntity
  8
1
  6
CONTINUOUS
 62
           7
100
AcDbCircle
 10
0.0
 20
5539.999999999998
 40
360.000000000002
  0
CIRCLE
  5
352
100
AcDbEntity
  8
1
  6
CONTINUOUS
 62
           4
100
AcDbCircle
 10
0.0
 20
5539.999999999998
 40
84.122999999999
  0
CIRCLE
  5
351
100
AcDbEntity
  8
1
  6
CONTINUOUS
 62
           4
100
AcDbCircle
 10
0.0
 20
5539.999999999998
 40
110.699999999999
  0
CIRCLE
  5
350
100
AcDbEntity
  8
1
  6
CONTINUOUS
 62
           7
100
AcDbCircle
 10
3800.000000000004
 20
600.0
 40
7.5
  0
CIRCLE
  5
34F
100
AcDbEntity
  8
1
  6
CONTINUOUS
 62
           2
100
AcDbCircle
 10
3800.000000000004
 20
600.0
 40
8.35
  0
CIRCLE
  5
34E
100
AcDbEntity
  8
1
  6
CONTINUOUS
 62
           7
100
AcDbCircle
 10
3800.000000000004
 20
600.0
 40
15.0
  0
ARC
  5
34D
100
AcDbEntity
  8
1
  6
CONTINUOUS
 62
           3
100
AcDbCircle
 10
511.509758321877
 20
1267.114622327062
 40
0.500000000002
100
AcDbArc
 50
-83.827497998178
 51
-5.00679300012
  0
ARC
  5
34C
100
AcDbEntity
  8
1
  6
CONTINUOUS
 62
           3
100
AcDbCircle
 10
505.434752321878
 20
1267.114622327062
 40
0.499999999996
100
AcDbArc
 50
-174.993206999805
 51
-96.172501999328
  0
ARC
  5
34B
100
AcDbEntity
  8
1
  6
CONTINUOUS
 62
           3
100
AcDbCircle
 10
511.509758321877
 20
1323.287074327054
 40
0.500000000004
100
AcDbArc
 50
5.006793001366
 51
83.827497998178
  0
ARC
  5
34A
100
AcDbEntity
  8
1
  6
CONTINUOUS
 62
           3
100
AcDbCircle
 10
505.434752321878
 20
1323.287074327054
 40
0.5
100
AcDbArc
 50
96.172501999328
 51
174.99320699856
  0
ARC
  5
349
100
AcDbEntity
  8
1
  6
CONTINUOUS
 62
           3
100
AcDbCircle
 10
504.433952321884
 20
1295.200848327054
 40
9.999999999999
100
AcDbArc
 50
-5.006792999977
 51
5.006793000022
  0
ARC
  5
348
100
AcDbEntity
  8
1
  6
CONTINUOUS
 62
           3
100
AcDbCircle
 10
512.510557321879
 20
1295.200848327054
 40
10.0
100
AcDbArc
 50
174.993206999977
 51
-174.993207000023
  0
ARC
  5
347
100
AcDbEntity
  8
1
  6
CONTINUOUS
 62
           3
100
AcDbCircle
 10
508.472255321878
 20
1295.200848327054
 40
10.749999999989
100
AcDbArc
 50
118.773506999972
 51
-118.773506999947
  0
ARC
  5
346
100
AcDbEntity
  8
1
  6
CONTINUOUS
 62
           3
100
AcDbCircle
 10
508.472255321878
 20
1295.200848327054
 40
10.750000000001
100
AcDbArc
 50
-61.226493000019
 51
0.0
  0
ARC
  5
345
100
AcDbEntity
  8
1
  6
CONTINUOUS
 62
           3
100
AcDbCircle
 10
508.472255321878
 20
1295.200848327054
 40
10.75
100
AcDbArc
 50
0.0
 51
61.226492999993
  0
ARC
  5
344
100
AcDbEntity
  8
1
  6
CONTINUOUS
 62
           3
100
AcDbCircle
 10
508.472255321878
 20
1295.200848327054
 40
28.749999999989
100
AcDbArc
 50
-96.172501999992
 51
-83.827497999993
  0
ARC
  5
343
100
AcDbEntity
  8
1
  6
CONTINUOUS
 62
           3
100
AcDbCircle
 10
508.472255321878
 20
1295.200848327054
 40
28.750000000008
100
AcDbArc
 50
83.827497999997
 51
96.172501999988
  0
ARC
  5
342
100
AcDbEntity
  8
7
  6
CONTINUOUS
 62
           7
100
AcDbCircle
 10
4145.800000000002
 20
2940.111356999998
 40
6.200000000001
100
AcDbArc
 50
0.0
 51
57.318085000004
  0
ARC
  5
341
100
AcDbEntity
  8
7
  6
CONTINUOUS
 62
           7
100
AcDbCircle
 10
4124.600000000003
 20
2961.799999999998
 40
3.199999999999
100
AcDbArc
 50
0.0
 51
90.0
  0
ARC
  5
340
100
AcDbEntity
  8
7
  6
CONTINUOUS
 62
           7
100
AcDbCircle
 10
4129.800000000002
 20
2962.041134000001
 40
2.0
100
AcDbArc
 50
180.0
 51
-124.999999999942
  0
ARC
  5
33F
100
AcDbEntity
  8
7
  6
CONTINUOUS
 62
           7
100
AcDbCircle
 10
3957.900000000001
 20
2961.799999999998
 40
3.200000000002
100
AcDbArc
 50
90.0
 51
180.0
  0
ARC
  5
33E
100
AcDbEntity
  8
7
  6
CONTINUOUS
 62
           7
100
AcDbCircle
 10
3952.700000000002
 20
2962.041134000001
 40
2.000000000003
100
AcDbArc
 50
-55.000000000026
 51
0.0
  0
ARC
  5
33D
100
AcDbEntity
  8
7
  6
CONTINUOUS
 62
           7
100
AcDbCircle
 10
3932.076813000002
 20
2945.5
 40
2.0
100
AcDbArc
 50
-90.0
 51
-55.000000000017
  0
ARC
  5
33C
100
AcDbEntity
  8
7
  6
CONTINUOUS
 62
           7
100
AcDbCircle
 10
3931.200000000002
 20
2940.299999999998
 40
3.200000000002
100
AcDbArc
 50
90.0
 51
180.0
  0
ARC
  5
33B
100
AcDbEntity
  8
7
  6
CONTINUOUS
 62
           7
100
AcDbCircle
 10
-105.799999999999
 20
2940.111357
 40
6.2
100
AcDbArc
 50
122.68191500001
 51
180.0
  0
ARC
  5
33A
100
AcDbEntity
  8
7
  6
CONTINUOUS
 62
           7
100
AcDbCircle
 10
-84.599999999999
 20
2961.799999999998
 40
3.200000000002
100
AcDbArc
 50
90.0
 51
180.0
  0
ARC
  5
339
100
AcDbEntity
  8
7
  6
CONTINUOUS
 62
           7
100
AcDbCircle
 10
-89.799999999999
 20
2962.041134000001
 40
2.0
100
AcDbArc
 50
-55.000000000028
 51
0.0
  0
ARC
  5
338
100
AcDbEntity
  8
7
  6
CONTINUOUS
 62
           7
100
AcDbCircle
 10
82.100000000001
 20
2961.799999999998
 40
3.2
100
AcDbArc
 50
0.0
 51
90.0
  0
ARC
  5
337
100
AcDbEntity
  8
7
  6
CONTINUOUS
 62
           7
100
AcDbCircle
 10
87.300000000001
 20
2962.041134000001
 40
2.0
100
AcDbArc
 50
180.0
 51
-124.999999999971
  0
ARC
  5
336
100
AcDbEntity
  8
7
  6
CONTINUOUS
 62
           7
100
AcDbCircle
 10
107.923187000001
 20
2945.5
 40
2.0
100
AcDbArc
 50
-125.000000000008
 51
-90.0
  0
ARC
  5
335
100
AcDbEntity
  8
7
  6
CONTINUOUS
 62
           7
100
AcDbCircle
 10
108.800000000001
 20
2940.299999999998
 40
3.2
100
AcDbArc
 50
0.0
 51
90.0
  0
ARC
  5
334
100
AcDbEntity
  8
1
  6
CONTINUOUS
 62
           7
100
AcDbCircle
 10
-657.980582219212
 20
5539.999999999998
 40
4.999999999997
100
AcDbArc
 50
-85.143317425417
 51
94.394618584451
  0
ARC
  5
333
100
AcDbEntity
  8
1
  6
CONTINUOUS
 62
           7
100
AcDbCircle
 10
-39.999999999996
 20
5589.999999999998
 40
620.0
100
AcDbArc
 50
-179.999999999999
 51
-175.836413410616
  0
ARC
  5
332
100
AcDbEntity
  8
1
  6
CONTINUOUS
 62
           7
100
AcDbCircle
 10
168.972870673509
 20
5919.519281324852
 40
5.000000000001
100
AcDbArc
 50
161.151717651225
 51
-19.471065626776
  0
ARC
  5
331
100
AcDbEntity
  8
1
  6
CONTINUOUS
 62
           7
100
AcDbCircle
 10
18.000000000004
 20
5484.999785420927
 40
459.999999999999
100
AcDbArc
 50
19.808653410673
 51
70.217542734251
  0
ARC
  5
330
100
AcDbEntity
  8
1
  6
CONTINUOUS
 62
           7
100
AcDbCircle
 10
-46.999999999996
 20
5494.999999999998
 40
525.000000000001
100
AcDbArc
 50
-89.633899153763
 51
-3.883455762483
  0
ARC
  5
32F
100
AcDbEntity
  8
1
  6
CONTINUOUS
 62
           7
100
AcDbCircle
 10
477.10941262802
 20
5464.433292707339
 40
5.000000000002
100
AcDbArc
 50
86.935058466838
 51
-93.610617686046
  0
ARC
  5
32E
100
AcDbEntity
  8
1
  6
CONTINUOUS
 62
           7
100
AcDbCircle
 10
452.450424338097
 20
5636.171306523445
 40
5.0
100
AcDbArc
 50
-90.0
 51
-71.125521506265
  0
ARC
  5
32D
100
AcDbEntity
  8
1
  6
CONTINUOUS
 62
           7
100
AcDbCircle
 10
18.000000000004
 20
5484.999785420927
 40
460.0
100
AcDbArc
 50
0.602232686388
 51
18.563086854737
  0
ARC
  5
32C
100
AcDbEntity
  8
1
  6
CONTINUOUS
 62
           7
100
AcDbCircle
 10
452.450424338097
 20
5636.171306523445
 40
5.0
100
AcDbArc
 50
109.497261771682
 51
-90.0
  0
ARC
  5
32B
100
AcDbEntity
  8
1
  6
CONTINUOUS
 62
           7
100
AcDbCircle
 10
-39.999999999996
 20
5589.999999999998
 40
620.000000000001
100
AcDbArc
 50
-174.912285430339
 51
-90.336887134984
  0
ARC
  5
32A
100
AcDbEntity
  8
1
  6
CONTINUOUS
 62
           7
100
AcDbCircle
 10
-46.999999999996
 20
5494.999999999998
 40
525.0
100
AcDbArc
 50
-2.792103456718
 51
-0.563719865862
  0
ARC
  5
329
100
AcDbEntity
  8
1
  6
CONTINUOUS
 62
           7
100
AcDbCircle
 10
18.000000000004
 20
5484.999785420927
 40
459.999999999998
100
AcDbArc
 50
71.463109290188
 51
88.271493544498
  0
ARC
  5
328
100
AcDbEntity
  8
1
  6
CONTINUOUS
 62
           7
100
AcDbCircle
 10
0.0
 20
5539.999999999998
 40
125.0
100
AcDbArc
 50
19.47546158221
 51
90.0
  0
ARC
  5
327
100
AcDbEntity
  8
1
  6
CONTINUOUS
 62
           7
100
AcDbCircle
 10
0.0
 20
5539.999999999998
 40
124.999999999998
100
AcDbArc
 50
90.0
 51
-19.47546158221
  0
ARC
  5
326
100
AcDbEntity
  8
1
  6
CONTINUOUS
 62
           3
100
AcDbCircle
 10
3920.16356769104
 20
1925.0
 40
9.499999999999
100
AcDbArc
 50
-124.797812779177
 51
0.0
  0
ARC
  5
325
100
AcDbEntity
  8
1
  6
CONTINUOUS
 62
           3
100
AcDbCircle
 10
3920.16356769104
 20
1925.0
 40
9.5
100
AcDbArc
 50
0.0
 51
125.916957371421
  0
ARC
  5
324
100
AcDbEntity
  8
1
  6
CONTINUOUS
 62
           3
100
AcDbCircle
 10
3920.16356769104
 20
1925.0
 40
5.871834995067
100
AcDbArc
 50
0.0
 51
38.599713917935
  0
ARC
  5
323
100
AcDbEntity
  8
1
  6
CONTINUOUS
 62
           3
100
AcDbCircle
 10
3920.16356769104
 20
1925.0
 40
5.871834995067
100
AcDbArc
 50
38.599713917935
 51
90.0
  0
ARC
  5
322
100
AcDbEntity
  8
1
  6
CONTINUOUS
 62
           3
100
AcDbCircle
 10
3920.16356769104
 20
1925.0
 40
5.871834995066
100
AcDbArc
 50
-90.0
 51
0.0
  0
ARC
  5
321
100
AcDbEntity
  8
0
  6
CONTINUOUS
 62
           3
100
AcDbCircle
 10
3478.39999672152
 20
1368.000000000113
 40
2.499999999996
100
AcDbArc
 50
0.0
 51
180.0
  0
ARC
  5
320
100
AcDbEntity
  8
0
  6
CONTINUOUS
 62
           3
100
AcDbCircle
 10
3478.39999672152
 20
1631.999999999898
 40
2.499999999999
100
AcDbArc
 50
180.0
 51
0.0
  0
ARC
  5
31F
100
AcDbEntity
  8
0
  6
CONTINUOUS
 62
           3
100
AcDbCircle
 10
3353.399996721822
 20
1631.999999999898
 40
2.499999999997
100
AcDbArc
 50
180.0
 51
0.0
  0
ARC
  5
31E
100
AcDbEntity
  8
0
  6
CONTINUOUS
 62
           3
100
AcDbCircle
 10
3353.399996721822
 20
1368.000000000113
 40
2.499999999997
100
AcDbArc
 50
0.0
 51
180.0
  0
ARC
  5
31D
100
AcDbEntity
  8
0
  6
CONTINUOUS
 62
           3
100
AcDbCircle
 10
3357.899996721819
 20
1508.999999999996
 40
0.999999999996
100
AcDbArc
 50
-90.0
 51
90.0
  0
ARC
  5
31C
100
AcDbEntity
  8
0
  6
CONTINUOUS
 62
           3
100
AcDbCircle
 10
3357.899996721819
 20
1431.000000000062
 40
1.0
100
AcDbArc
 50
-90.0
 51
90.0
  0
ARC
  5
31B
100
AcDbEntity
  8
0
  6
CONTINUOUS
 62
           3
100
AcDbCircle
 10
3357.899996721819
 20
1409.000000000178
 40
0.999999999996
100
AcDbArc
 50
-90.0
 51
90.0
  0
ARC
  5
31A
100
AcDbEntity
  8
0
  6
CONTINUOUS
 62
           3
100
AcDbCircle
 10
3473.899996721523
 20
1409.000000000178
 40
1.0
100
AcDbArc
 50
90.0
 51
-90.0
  0
ARC
  5
319
100
AcDbEntity
  8
0
  6
CONTINUOUS
 62
           3
100
AcDbCircle
 10
3473.899996721523
 20
1431.000000000062
 40
0.999999999996
100
AcDbArc
 50
90.0
 51
-90.0
  0
ARC
  5
318
100
AcDbEntity
  8
0
  6
CONTINUOUS
 62
           3
100
AcDbCircle
 10
3473.899996721523
 20
1508.999999999996
 40
1.0
100
AcDbArc
 50
90.0
 51
-90.0
  0
ARC
  5
317
100
AcDbEntity
  8
0
  6
CONTINUOUS
 62
           3
100
AcDbCircle
 10
3473.899996721523
 20
1530.99999999988
 40
1.0
100
AcDbArc
 50
90.0
 51
-90.0
  0
ARC
  5
316
100
AcDbEntity
  8
0
  6
CONTINUOUS
 62
           3
100
AcDbCircle
 10
3357.899996721819
 20
1530.99999999988
 40
0.999999999996
100
AcDbArc
 50
-90.0
 51
90.0
  0
ARC
  5
315
100
AcDbEntity
  8
0
  6
CONTINUOUS
 62
           3
100
AcDbCircle
 10
3422.373499413467
 20
1389.999999999996
 40
0.900000000001
100
AcDbArc
 50
-90.0
 51
-62.733955549481
  0
ARC
  5
314
100
AcDbEntity
  8
0
  6
CONTINUOUS
 62
           3
100
AcDbCircle
 10
3409.426494029875
 20
1389.999999999996
 40
0.900000000001
100
AcDbArc
 50
-117.26604445057
 51
-90.0
  0
ARC
  5
313
100
AcDbEntity
  8
0
  6
CONTINUOUS
 62
           3
100
AcDbCircle
 10
3415.899996721671
 20
1315.000000000058
 40
53.999999999957
100
AcDbArc
 50
180.0
 51
0.0
  0
ARC
  5
312
100
AcDbEntity
  8
0
  6
CONTINUOUS
 62
           3
100
AcDbCircle
 10
3415.899996721671
 20
1315.000000000058
 40
45.999999999961
100
AcDbArc
 50
180.0
 51
0.0
  0
ARC
  5
311
100
AcDbEntity
  8
0
  6
CONTINUOUS
 62
           3
100
AcDbCircle
 10
3415.899996721671
 20
1355.000000000222
 40
3.999999999997
100
AcDbArc
 50
180.0
 51
0.0
  0
ARC
  5
310
100
AcDbEntity
  8
1
  6
CONTINUOUS
 62
           7
100
AcDbCircle
 10
2902.000000000004
 20
1256.750000000002
 40
17.0
100
AcDbArc
 50
180.0
 51
-90.0
  0
ARC
  5
30F
100
AcDbEntity
  8
1
  6
CONTINUOUS
 62
           7
100
AcDbCircle
 10
2902.000000000004
 20
1256.750000000002
 40
37.0
100
AcDbArc
 50
180.0
 51
-90.0
  0
LINE
  5
30E
100
AcDbEntity
  8
1
  6
CONTINUOUS
 62
           3
100
AcDbLine
 10
514.395796321875
 20
1294.328109327063
 11
512.007850321894
 21
1267.070985327063
  0
LINE
  5
30D
100
AcDbEntity
  8
1
  6
CONTINUOUS
 62
           3
100
AcDbLine
 10
512.007850321894
 20
1323.330711327064
 11
514.395796321875
 21
1296.073587327064
  0
LINE
  5
30C
100
AcDbEntity
  8
1
  6
CONTINUOUS
 62
           3
100
AcDbLine
 10
502.548714321874
 20
1294.328109327063
 11
504.936660321884
 21
1267.070985327063
  0
LINE
  5
30B
100
AcDbEntity
  8
1
  6
CONTINUOUS
 62
           3
100
AcDbLine
 10
504.936660321884
 20
1323.330711327064
 11
502.548714321874
 21
1296.073587327064
  0
LINE
  5
30A
100
AcDbEntity
  8
1
  6
DOT_CENTER
 62
           3
100
AcDbLine
 10
553.472255321878
 20
1295.200848327054
 11
463.474800321874
 21
1295.200848327054
  0
LINE
  5
309
100
AcDbEntity
  8
1
  6
DOT_CENTER
 62
           3
100
AcDbLine
 10
508.472255321878
 20
1340.200848327054
 11
508.472255321878
 21
1250.202277327054
  0
LINE
  5
308
100
AcDbEntity
  8
1
  6
CONTINUOUS
 62
           2
100
AcDbLine
 10
3785.319562772421
 20
2205.0
 11
4192.532262743705
 21
2205.0
  0
LINE
  5
307
100
AcDbEntity
  8
1
  6
CONTINUOUS
 62
           2
100
AcDbLine
 10
3785.319562772421
 20
2565.000000000001
 11
3785.319562772421
 21
2205.0
  0
LINE
  5
306
100
AcDbEntity
  8
1
  6
CONTINUOUS
 62
           2
100
AcDbLine
 10
4192.532262743705
 20
2565.000000000001
 11
3785.319562772421
 21
2565.000000000001
  0
LINE
  5
305
100
AcDbEntity
  8
1
  6
CONTINUOUS
 62
           2
100
AcDbLine
 10
4192.532262743705
 20
2205.0
 11
4192.532262743705
 21
2565.000000000001
  0
LINE
  5
304
100
AcDbEntity
  8
1
  6
CONTINUOUS
 62
           7
100
AcDbLine
 10
4555.500000000001
 20
2165.0
 11
4544.500000000001
 21
2165.0
  0
LINE
  5
303
100
AcDbEntity
  8
1
  6
CONTINUOUS
 62
           4
100
AcDbLine
 10
4544.500000000003
 20
2160.5
 11
4510.000000000001
 21
2160.5
  0
LINE
  5
302
100
AcDbEntity
  8
1
  6
CONTINUOUS
 62
           7
100
AcDbLine
 10
4590.000000000003
 20
2165.0
 11
4590.000000000003
 21
2160.5
  0
LINE
  5
301
100
AcDbEntity
  8
1
  6
CONTINUOUS
 62
           4
100
AcDbLine
 10
4590.000000000003
 20
2160.5
 11
4555.500000000003
 21
2160.5
  0
LINE
  5
300
100
AcDbEntity
  8
1
  6
CONTINUOUS
 62
           7
100
AcDbLine
 10
4510.000000000001
 20
2160.5
 11
4510.000000000003
 21
2165.0
  0
LINE
  5
2FF
100
AcDbEntity
  8
1
  6
CONTINUOUS
 62
           4
100
AcDbLine
 10
4545.500000000003
 20
2125.0
 11
4554.500000000005
 21
2125.0
  0
LINE
  5
2FE
100
AcDbEntity
  8
1
  6
CONTINUOUS
 62
           7
100
AcDbLine
 10
4555.500000000003
 20
2605.000000000002
 11
4544.500000000021
 21
2605.000000000002
  0
LINE
  5
2FD
100
AcDbEntity
  8
1
  6
CONTINUOUS
 62
           4
100
AcDbLine
 10
4545.500000000003
 20
2645.000000000002
 11
4554.500000000005
 21
2645.000000000002
  0
LINE
  5
2FC
100
AcDbEntity
  8
1
  6
CONTINUOUS
 62
           7
100
AcDbLine
 10
4590.000000000003
 20
2604.999999999999
 11
4590.000000000003
 21
2609.500000000004
  0
LINE
  5
2FB
100
AcDbEntity
  8
1
  6
CONTINUOUS
 62
           4
100
AcDbLine
 10
4590.000000000003
 20
2609.500000000004
 11
4555.500000000003
 21
2609.500000000002
  0
LINE
  5
2FA
100
AcDbEntity
  8
1
  6
CONTINUOUS
 62
           7
100
AcDbLine
 10
4510.000000000003
 20
2604.999999999999
 11
4510.000000000003
 21
2609.499999999999
  0
LINE
  5
2F9
100
AcDbEntity
  8
1
  6
CONTINUOUS
 62
           4
100
AcDbLine
 10
4510.000000000003
 20
2609.499999999999
 11
4544.500000000004
 21
2609.500000000002
  0
LINE
  5
2F8
100
AcDbEntity
  8
1
  6
CONTINUOUS
 62
           7
100
AcDbLine
 10
4550.000000000003
 20
2125.0
 11
4550.000000000003
 21
2645.000000000002
  0
LINE
  5
2F7
100
AcDbEntity
  8
1
  6
CONTINUOUS
 62
           7
100
AcDbLine
 10
4555.500000000001
 20
2165.0
 11
4590.000000000003
 21
2165.0
  0
LINE
  5
2F6
100
AcDbEntity
  8
1
  6
CONTINUOUS
 62
           7
100
AcDbLine
 10
4590.000000000003
 20
2165.0
 11
4590.000000000003
 21
2604.999999999999
  0
LINE
  5
2F5
100
AcDbEntity
  8
1
  6
CONTINUOUS
 62
           4
100
AcDbLine
 10
4554.500000000003
 20
2165.0
 11
4554.500000000003
 21
2605.000000000001
  0
LINE
  5
2F4
100
AcDbEntity
  8
1
  6
CONTINUOUS
 62
           4
100
AcDbLine
 10
4554.500000000003
 20
2159.5
 11
4554.500000000005
 21
2125.0
  0
LINE
  5
2F3
100
AcDbEntity
  8
1
  6
CONTINUOUS
 62
           4
100
AcDbLine
 10
4554.500000000005
 20
2645.000000000002
 11
4554.500000000003
 21
2610.500000000002
  0
LINE
  5
2F2
100
AcDbEntity
  8
1
  6
CONTINUOUS
 62
           7
100
AcDbLine
 10
4590.000000000003
 20
2604.999999999999
 11
4555.500000000003
 21
2605.000000000002
  0
LINE
  5
2F1
100
AcDbEntity
  8
1
  6
CONTINUOUS
 62
           7
100
AcDbLine
 10
4544.500000000021
 20
2605.000000000002
 11
4510.000000000003
 21
2604.999999999999
  0
LINE
  5
2F0
100
AcDbEntity
  8
1
  6
CONTINUOUS
 62
           4
100
AcDbLine
 10
4545.500000000003
 20
2610.500000000002
 11
4545.500000000003
 21
2645.000000000002
  0
LINE
  5
2EF
100
AcDbEntity
  8
1
  6
CONTINUOUS
 62
           4
100
AcDbLine
 10
4545.500000000003
 20
2125.0
 11
4545.500000000003
 21
2159.5
  0
LINE
  5
2EE
100
AcDbEntity
  8
1
  6
CONTINUOUS
 62
           4
100
AcDbLine
 10
4545.500000000003
 20
2605.000000000002
 11
4545.500000000003
 21
2165.0
  0
LINE
  5
2ED
100
AcDbEntity
  8
1
  6
CONTINUOUS
 62
           7
100
AcDbLine
 10
4510.000000000003
 20
2604.999999999999
 11
4510.000000000003
 21
2165.0
  0
LINE
  5
2EC
100
AcDbEntity
  8
1
  6
CONTINUOUS
 62
           7
100
AcDbLine
 10
4510.000000000003
 20
2165.0
 11
4544.500000000001
 21
2165.0
  0
LINE
  5
2EB
100
AcDbEntity
  8
1
  6
CONTINUOUS
 62
           7
100
AcDbLine
 10
4506.464466094071
 20
2127.299999999999
 11
4140.000000000003
 21
2127.299999999999
  0
LINE
  5
2EA
100
AcDbEntity
  8
1
  6
CONTINUOUS
 62
           7
100
AcDbLine
 10
4510.000000000003
 20
2165.299999999999
 11
4510.000000000003
 21
2132.299999999999
  0
LINE
  5
2E9
100
AcDbEntity
  8
1
  6
CONTINUOUS
 62
           7
100
AcDbLine
 10
4510.000000000003
 20
2637.7
 11
4510.000000000003
 21
2604.7
  0
LINE
  5
2E8
100
AcDbEntity
  8
1
  6
CONTINUOUS
 62
           7
100
AcDbLine
 10
3442.268760408318
 20
2642.7
 11
3965.52777848636
 21
2642.7
  0
LINE
  5
2E7
100
AcDbEntity
  8
1
  6
CONTINUOUS
 62
           7
100
AcDbLine
 10
3442.268760408318
 20
2604.7
 11
3442.268760408318
 21
2642.7
  0
LINE
  5
2E6
100
AcDbEntity
  8
1
  6
CONTINUOUS
 62
           7
100
AcDbLine
 10
4506.464466094071
 20
2642.7
 11
4510.000000000003
 21
2637.7
  0
LINE
  5
2E5
100
AcDbEntity
  8
1
  6
CONTINUOUS
 62
           7
100
AcDbLine
 10
4510.000000000003
 20
2132.299999999999
 11
4506.464466094071
 21
2127.299999999999
  0
LINE
  5
2E4
100
AcDbEntity
  8
1
  6
CONTINUOUS
 62
           7
100
AcDbLine
 10
3442.268760408318
 20
2127.299999999999
 11
3442.268760408318
 21
2165.299999999999
  0
LINE
  5
2E3
100
AcDbEntity
  8
1
  6
CONTINUOUS
 62
           7
100
AcDbLine
 10
4510.000000000003
 20
2604.7
 11
3442.268760408318
 21
2604.7
  0
LINE
  5
2E2
100
AcDbEntity
  8
1
  6
CONTINUOUS
 62
           7
100
AcDbLine
 10
4510.000000000003
 20
2165.299999999999
 11
3442.268760408318
 21
2165.299999999999
  0
LINE
  5
2E1
100
AcDbEntity
  8
1
  6
CONTINUOUS
 62
           4
100
AcDbLine
 10
4310.000000000005
 20
2642.7
 11
4310.000000000005
 21
2643.699999999999
  0
LINE
  5
2E0
100
AcDbEntity
  8
1
  6
CONTINUOUS
 62
           4
100
AcDbLine
 10
4310.000000000005
 20
2643.699999999999
 11
4304.993063735611
 21
2648.7
  0
LINE
  5
2DF
100
AcDbEntity
  8
1
  6
CONTINUOUS
 62
           4
100
AcDbLine
 10
3775.000000000003
 20
2648.7
 11
3770.000000000003
 21
2643.699999999999
  0
LINE
  5
2DE
100
AcDbEntity
  8
1
  6
CONTINUOUS
 62
           4
100
AcDbLine
 10
4304.993063735611
 20
2648.7
 11
3775.000000000003
 21
2648.7
  0
LINE
  5
2DD
100
AcDbEntity
  8
1
  6
CONTINUOUS
 62
           4
100
AcDbLine
 10
3770.000000000003
 20
2643.699999999999
 11
3770.000000000003
 21
2642.7
  0
LINE
  5
2DC
100
AcDbEntity
  8
0
  6
CONTINUOUS
 62
           7
100
AcDbLine
 10
4338.200000000004
 20
2081.0
 11
4338.200000000004
 21
2127.299999999999
  0
LINE
  5
2DB
100
AcDbEntity
  8
0
  6
CONTINUOUS
 62
           7
100
AcDbLine
 10
3741.800000000002
 20
2127.299999999999
 11
3741.800000000002
 21
2081.0
  0
LINE
  5
2DA
100
AcDbEntity
  8
0
  6
CONTINUOUS
 62
           7
100
AcDbLine
 10
4360.000000000003
 20
2165.299999999999
 11
4294.211716344319
 21
2165.299999999999
  0
LINE
  5
2D9
100
AcDbEntity
  8
1
  6
CONTINUOUS
 62
           4
100
AcDbLine
 10
4380.000000000003
 20
2081.0
 11
3700.000000000003
 21
2081.0
  0
LINE
  5
2D8
100
AcDbEntity
  8
1
  6
CONTINUOUS
 62
           7
100
AcDbLine
 10
3700.000000000003
 20
2075.0
 11
4380.000000000003
 21
2075.0
  0
LINE
  5
2D7
100
AcDbEntity
  8
1
  6
CONTINUOUS
 62
           4
100
AcDbLine
 10
3700.000000000003
 20
2081.0
 11
3700.000000000003
 21
2075.0
  0
LINE
  5
2D6
100
AcDbEntity
  8
1
  6
CONTINUOUS
 62
           4
100
AcDbLine
 10
4380.000000000003
 20
2075.0
 11
4380.000000000003
 21
2081.0
  0
LINE
  5
2D5
100
AcDbEntity
  8
7
  6
CONTINUOUS
 62
           7
100
AcDbLine
 10
4155.000000000003
 20
2878.0
 11
4040.000000000003
 21
2878.0
  0
LINE
  5
2D4
100
AcDbEntity
  8
7
  6
CONTINUOUS
 62
           7
100
AcDbLine
 10
4149.147843000002
 20
2945.329780999997
 11
4128.652848000001
 21
2960.402829999999
  0
LINE
  5
2D3
100
AcDbEntity
  8
7
  6
CONTINUOUS
 62
           7
100
AcDbLine
 10
4124.600000000003
 20
2965.0
 11
4040.000000000003
 21
2965.0
  0
LINE
  5
2D2
100
AcDbEntity
  8
7
  6
CONTINUOUS
 62
           7
100
AcDbLine
 10
4155.000000000003
 20
2905.537538373368
 11
4155.000000000003
 21
2878.0
  0
LINE
  5
2D1
100
AcDbEntity
  8
7
  6
CONTINUOUS
 62
           7
100
AcDbLine
 10
4040.000000000003
 20
2878.0
 11
3925.000000000003
 21
2878.0
  0
LINE
  5
2D0
100
AcDbEntity
  8
7
  6
CONTINUOUS
 62
           7
100
AcDbLine
 10
3925.000000000003
 20
2905.537538373368
 11
3928.000000000003
 21
2940.299999999998
  0
LINE
  5
2CF
100
AcDbEntity
  8
7
  6
CONTINUOUS
 62
           4
100
AcDbLine
 10
3931.200000000002
 20
2943.5
 11
4150.992023000002
 21
2943.5
  0
LINE
  5
2CE
100
AcDbEntity
  8
7
  6
CONTINUOUS
 62
           7
100
AcDbLine
 10
3933.223966000001
 20
2943.861695999999
 11
3953.847153000002
 21
2960.402829999999
  0
LINE
  5
2CD
100
AcDbEntity
  8
7
  6
CONTINUOUS
 62
           7
100
AcDbLine
 10
3957.900000000001
 20
2965.0
 11
4040.000000000003
 21
2965.0
  0
LINE
  5
2CC
100
AcDbEntity
  8
2
  6
CONTINUOUS
 62
           7
100
AcDbLine
 10
3942.431358000001
 20
2650.699999999999
 11
3931.386336000002
 21
2677.199999999999
  0
LINE
  5
2CB
100
AcDbEntity
  8
2
  6
CONTINUOUS
 62
           7
100
AcDbLine
 10
3931.386336000002
 20
2866.5
 11
3931.386336000002
 21
2677.199999999999
  0
LINE
  5
2CA
100
AcDbEntity
  8
2
  6
CONTINUOUS
 62
           7
100
AcDbLine
 10
3936.179459000002
 20
2878.0
 11
3931.386336000002
 21
2866.5
  0
LINE
  5
2C9
100
AcDbEntity
  8
2
  6
CONTINUOUS
 62
           4
100
AcDbLine
 10
4133.250000000003
 20
2648.7
 11
4133.250000000003
 21
2650.699999999999
  0
LINE
  5
2C8
100
AcDbEntity
  8
2
  6
CONTINUOUS
 62
           7
100
AcDbLine
 10
4148.613664000001
 20
2866.5
 11
4148.613664000001
 21
2677.199999999999
  0
LINE
  5
2C7
100
AcDbEntity
  8
2
  6
CONTINUOUS
 62
           7
100
AcDbLine
 10
4148.613664000001
 20
2866.5
 11
4143.820541000002
 21
2878.0
  0
LINE
  5
2C6
100
AcDbEntity
  8
2
  6
CONTINUOUS
 62
           4
100
AcDbLine
 10
4137.568642000001
 20
2650.699999999999
 11
3942.431358000001
 21
2650.699999999999
  0
LINE
  5
2C5
100
AcDbEntity
  8
2
  6
CONTINUOUS
 62
           7
100
AcDbLine
 10
4148.613664000001
 20
2677.199999999999
 11
4137.568642000001
 21
2650.699999999999
  0
LINE
  5
2C4
100
AcDbEntity
  8
1
  6
CONTINUOUS
 62
           4
100
AcDbLine
 10
4155.000000000003
 20
2905.537538373368
 11
3925.000000000003
 21
2905.537538373368
  0
LINE
  5
2C3
100
AcDbEntity
  8
7
  6
CONTINUOUS
 62
           7
100
AcDbLine
 10
4152.000000000003
 20
2940.111356999998
 11
4155.000000000003
 21
2905.537538373368
  0
LINE
  5
2C2
100
AcDbEntity
  8
7
  6
CONTINUOUS
 62
           7
100
AcDbLine
 10
3925.000000000003
 20
2878.0
 11
3925.000000000003
 21
2905.537538373368
  0
LINE
  5
2C1
100
AcDbEntity
  8
2
  6
CONTINUOUS
 62
           4
100
AcDbLine
 10
3946.750000000001
 20
2650.699999999999
 11
3946.750000000001
 21
2648.7
  0
LINE
  5
2C0
100
AcDbEntity
  8
1
  6
CONTINUOUS
 62
           7
100
AcDbLine
 10
3480.01090847636
 20
2165.299999999999
 11
3480.01090847636
 21
2604.7
  0
LINE
  5
2BF
100
AcDbEntity
  8
1
  6
DOT_CENTER
 62
           2
100
AcDbLine
 10
4650.588082276608
 20
2385.0
 11
3415.991794870069
 21
2385.0
  0
LINE
  5
2BE
100
AcDbEntity
  8
1
  6
DOT_CENTER
 62
           2
100
AcDbLine
 10
4040.000000000003
 20
2041.288302183322
 11
4040.000000000003
 21
3015.668407282449
  0
LINE
  5
2BD
100
AcDbEntity
  8
1
  6
CONTINUOUS
 62
           7
100
AcDbLine
 10
4140.000000000003
 20
2642.7
 11
4140.000000000003
 21
2604.7
  0
LINE
  5
2BC
100
AcDbEntity
  8
1
  6
CONTINUOUS
 62
           7
100
AcDbLine
 10
3965.52777848636
 20
2642.7
 11
3965.52777848636
 21
2604.7
  0
LINE
  5
2BB
100
AcDbEntity
  8
1
  6
CONTINUOUS
 62
           7
100
AcDbLine
 10
4140.000000000003
 20
2642.7
 11
4506.464466094071
 21
2642.7
  0
LINE
  5
2BA
100
AcDbEntity
  8
1
  6
CONTINUOUS
 62
           7
100
AcDbLine
 10
4415.000000000003
 20
2642.7
 11
4415.000000000003
 21
2604.7
  0
LINE
  5
2B9
100
AcDbEntity
  8
1
  6
CONTINUOUS
 62
           7
100
AcDbLine
 10
4415.000000000003
 20
2165.299999999999
 11
4415.000000000003
 21
2127.299999999999
  0
LINE
  5
2B8
100
AcDbEntity
  8
1
  6
CONTINUOUS
 62
           7
100
AcDbLine
 10
4140.000000000003
 20
2165.299999999999
 11
4140.000000000003
 21
2127.299999999999
  0
LINE
  5
2B7
100
AcDbEntity
  8
1
  6
CONTINUOUS
 62
           7
100
AcDbLine
 10
3965.52777848636
 20
2165.299999999999
 11
3965.52777848636
 21
2127.299999999999
  0
LINE
  5
2B6
100
AcDbEntity
  8
1
  6
CONTINUOUS
 62
           7
100
AcDbLine
 10
3965.52777848636
 20
2127.299999999999
 11
3442.268760408318
 21
2127.299999999999
  0
LINE
  5
2B5
100
AcDbEntity
  8
1
  6
CONTINUOUS
 62
           7
100
AcDbLine
 10
4073.750000000003
 20
2725.000000000001
 11
4006.250000000003
 21
2725.000000000001
  0
LINE
  5
2B4
100
AcDbEntity
  8
1
  6
CONTINUOUS
 62
           7
100
AcDbLine
 10
4006.250000000003
 20
2805.000000000001
 11
4073.750000000003
 21
2805.000000000001
  0
LINE
  5
2B3
100
AcDbEntity
  8
1
  6
CONTINUOUS
 62
           7
100
AcDbLine
 10
4083.750000000003
 20
2795.000000000001
 11
4083.750000000003
 21
2735.000000000001
  0
LINE
  5
2B2
100
AcDbEntity
  8
1
  6
CONTINUOUS
 62
           7
100
AcDbLine
 10
3996.250000000003
 20
2735.000000000001
 11
3996.250000000003
 21
2795.000000000001
  0
LINE
  5
2B1
100
AcDbEntity
  8
1
  6
CONTINUOUS
 62
           7
100
AcDbLine
 10
-52.720779386419
 20
2604.700000000002
 11
-52.720779386419
 21
2642.700000000001
  0
LINE
  5
2B0
100
AcDbEntity
  8
1
  6
CONTINUOUS
 62
           4
100
AcDbLine
 10
-264.993063735609
 20
2648.700000000002
 11
-271.00138725288
 21
2642.700000000002
  0
LINE
  5
2AF
100
AcDbEntity
  8
1
  6
CONTINUOUS
 62
           7
100
AcDbLine
 10
-690.773990510944
 20
2645.000000000001
 11
-690.773990510944
 21
2150.0
  0
LINE
  5
2AE
100
AcDbEntity
  8
1
  6
CONTINUOUS
 62
           7
100
AcDbLine
 10
-690.773990510944
 20
2165.000000000001
 11
-668.188191940733
 21
2165.000000000001
  0
LINE
  5
2AD
100
AcDbEntity
  8
1
  6
CONTINUOUS
 62
           7
100
AcDbLine
 10
477.974589850551
 20
2605.000000000002
 11
-659.776331535243
 21
2605.000000000002
  0
LINE
  5
2AC
100
AcDbEntity
  8
1
  6
CONTINUOUS
 62
           7
100
AcDbLine
 10
477.974589850551
 20
2165.000000000006
 11
-659.999999999997
 21
2165.000000000001
  0
LINE
  5
2AB
100
AcDbEntity
  8
1
  6
CONTINUOUS
 62
           2
100
AcDbLine
 10
-576.93489557894
 20
2205.000000000002
 11
-268.5423591195
 21
2205.000000000002
  0
LINE
  5
2AA
100
AcDbEntity
  8
1
  6
CONTINUOUS
 62
           2
100
AcDbLine
 10
-268.5423591195
 20
2205.000000000002
 11
-268.5423591195
 21
2565.000000000003
  0
LINE
  5
2A9
100
AcDbEntity
  8
1
  6
CONTINUOUS
 62
           2
100
AcDbLine
 10
-268.5423591195
 20
2565.000000000003
 11
-576.93489557894
 21
2565.000000000003
  0
LINE
  5
2A8
100
AcDbEntity
  8
1
  6
CONTINUOUS
 62
           2
100
AcDbLine
 10
-576.93489557894
 20
2565.000000000003
 11
-576.93489557894
 21
2205.000000000002
  0
LINE
  5
2A7
100
AcDbEntity
  8
1
  6
CONTINUOUS
 62
           7
100
AcDbLine
 10
-650.0
 20
2642.700000000001
 11
470.538238691625
 21
2642.700000000002
  0
LINE
  5
2A6
100
AcDbEntity
  8
1
  6
CONTINUOUS
 62
           7
100
AcDbLine
 10
470.538238691625
 20
2642.700000000002
 11
470.538238691625
 21
2604.700000000002
  0
LINE
  5
2A5
100
AcDbEntity
  8
1
  6
CONTINUOUS
 62
           7
100
AcDbLine
 10
470.538238691625
 20
2165.300000000002
 11
470.538238691625
 21
2150.0
  0
LINE
  5
2A4
100
AcDbEntity
  8
1
  6
CONTINUOUS
 62
           4
100
AcDbLine
 10
270.000000000001
 20
2643.7
 11
265.000000000001
 21
2648.700000000002
  0
LINE
  5
2A3
100
AcDbEntity
  8
1
  6
CONTINUOUS
 62
           4
100
AcDbLine
 10
265.000000000001
 20
2648.700000000002
 11
-264.993063735609
 21
2648.700000000002
  0
LINE
  5
2A2
100
AcDbEntity
  8
1
  6
CONTINUOUS
 62
           4
100
AcDbLine
 10
270.000000000001
 20
2642.700000000002
 11
270.000000000001
 21
2643.7
  0
LINE
  5
2A1
100
AcDbEntity
  8
7
  6
CONTINUOUS
 62
           7
100
AcDbLine
 10
0.0
 20
2878.0
 11
-115.0
 21
2878.0
  0
LINE
  5
2A0
100
AcDbEntity
  8
7
  6
CONTINUOUS
 62
           7
100
AcDbLine
 10
-88.652847999999
 20
2960.40283
 11
-109.147842999999
 21
2945.329780999999
  0
LINE
  5
29F
100
AcDbEntity
  8
7
  6
CONTINUOUS
 62
           7
100
AcDbLine
 10
0.0
 20
2965.0
 11
-84.599999999999
 21
2965.0
  0
LINE
  5
29E
100
AcDbEntity
  8
7
  6
CONTINUOUS
 62
           7
100
AcDbLine
 10
-115.0
 20
2878.0
 11
-115.0
 21
2905.537538373369
  0
LINE
  5
29D
100
AcDbEntity
  8
7
  6
CONTINUOUS
 62
           7
100
AcDbLine
 10
115.000000000001
 20
2878.0
 11
0.0
 21
2878.0
  0
LINE
  5
29C
100
AcDbEntity
  8
7
  6
CONTINUOUS
 62
           7
100
AcDbLine
 10
112.000000000001
 20
2940.299999999998
 11
115.000000000001
 21
2905.537538373369
  0
LINE
  5
29B
100
AcDbEntity
  8
7
  6
CONTINUOUS
 62
           4
100
AcDbLine
 10
-110.992022999999
 20
2943.5
 11
108.800000000001
 21
2943.5
  0
LINE
  5
29A
100
AcDbEntity
  8
7
  6
CONTINUOUS
 62
           7
100
AcDbLine
 10
86.152847000001
 20
2960.40283
 11
106.776034000001
 21
2943.861696
  0
LINE
  5
299
100
AcDbEntity
  8
7
  6
CONTINUOUS
 62
           7
100
AcDbLine
 10
0.0
 20
2965.0
 11
82.100000000001
 21
2965.0
  0
LINE
  5
298
100
AcDbEntity
  8
2
  6
CONTINUOUS
 62
           7
100
AcDbLine
 10
108.613664000001
 20
2677.2
 11
97.568642000001
 21
2650.7
  0
LINE
  5
297
100
AcDbEntity
  8
2
  6
CONTINUOUS
 62
           7
100
AcDbLine
 10
108.613664000001
 20
2677.2
 11
108.613664000001
 21
2866.5
  0
LINE
  5
296
100
AcDbEntity
  8
2
  6
CONTINUOUS
 62
           7
100
AcDbLine
 10
108.613664000001
 20
2866.5
 11
103.820541000001
 21
2878.0
  0
LINE
  5
295
100
AcDbEntity
  8
2
  6
CONTINUOUS
 62
           4
100
AcDbLine
 10
-93.25
 20
2650.7
 11
-93.25
 21
2648.700000000002
  0
LINE
  5
294
100
AcDbEntity
  8
2
  6
CONTINUOUS
 62
           7
100
AcDbLine
 10
-108.613663999999
 20
2677.2
 11
-108.613663999999
 21
2866.5
  0
LINE
  5
293
100
AcDbEntity
  8
2
  6
CONTINUOUS
 62
           7
100
AcDbLine
 10
-103.820541
 20
2878.0
 11
-108.613663999999
 21
2866.5
  0
LINE
  5
292
100
AcDbEntity
  8
2
  6
CONTINUOUS
 62
           4
100
AcDbLine
 10
97.568642000001
 20
2650.7
 11
-97.568642
 21
2650.7
  0
LINE
  5
291
100
AcDbEntity
  8
2
  6
CONTINUOUS
 62
           7
100
AcDbLine
 10
-97.568642
 20
2650.7
 11
-108.613663999999
 21
2677.2
  0
LINE
  5
290
100
AcDbEntity
  8
1
  6
CONTINUOUS
 62
           4
100
AcDbLine
 10
115.000000000001
 20
2905.537538373369
 11
-115.0
 21
2905.537538373369
  0
LINE
  5
28F
100
AcDbEntity
  8
7
  6
CONTINUOUS
 62
           7
100
AcDbLine
 10
-115.0
 20
2905.537538373369
 11
-112.0
 21
2940.111357
  0
LINE
  5
28E
100
AcDbEntity
  8
7
  6
CONTINUOUS
 62
           7
100
AcDbLine
 10
115.000000000001
 20
2905.537538373369
 11
115.000000000001
 21
2878.0
  0
LINE
  5
28D
100
AcDbEntity
  8
2
  6
CONTINUOUS
 62
           4
100
AcDbLine
 10
93.250000000001
 20
2648.700000000002
 11
93.250000000001
 21
2650.7
  0
LINE
  5
28C
100
AcDbEntity
  8
1
  6
CONTINUOUS
 62
           7
100
AcDbLine
 10
467.97406200061
 20
2604.700000000002
 11
467.97406200061
 21
2165.300000000002
  0
LINE
  5
28B
100
AcDbEntity
  8
1
  6
DOT_CENTER
 62
           2
100
AcDbLine
 10
0.0
 20
3015.668407282447
 11
0.0
 21
2041.28830218332
  0
LINE
  5
28A
100
AcDbEntity
  8
1
  6
CONTINUOUS
 62
           7
100
AcDbLine
 10
-659.999999999997
 20
2645.000000000001
 11
-690.773990510944
 21
2645.000000000001
  0
LINE
  5
289
100
AcDbEntity
  8
1
  6
CONTINUOUS
 62
           7
100
AcDbLine
 10
-668.432750797187
 20
2605.000000000001
 11
-690.773990510944
 21
2605.000000000001
  0
LINE
  5
288
100
AcDbEntity
  8
1
  6
CONTINUOUS
 62
           7
100
AcDbLine
 10
-650.0
 20
2604.700000000002
 11
-650.0
 21
2642.700000000001
  0
LINE
  5
287
100
AcDbEntity
  8
1
  6
CONTINUOUS
 62
           7
100
AcDbLine
 10
-649.999999999994
 20
2604.700000000002
 11
-649.999999999994
 21
2165.299999999998
  0
LINE
  5
286
100
AcDbEntity
  8
1
  6
CONTINUOUS
 62
           7
100
AcDbLine
 10
-650.0
 20
2165.299999999998
 11
-649.999999999999
 21
2150.0
  0
LINE
  5
285
100
AcDbEntity
  8
1
  6
CONTINUOUS
 62
           2
100
AcDbLine
 10
425.133110726257
 20
2565.000000000003
 11
425.133110726257
 21
2205.000000000002
  0
LINE
  5
284
100
AcDbEntity
  8
1
  6
CONTINUOUS
 62
           2
100
AcDbLine
 10
425.133110726257
 20
2205.000000000002
 11
467.97406200061
 21
2205.000000000003
  0
LINE
  5
283
100
AcDbEntity
  8
1
  6
CONTINUOUS
 62
           2
100
AcDbLine
 10
467.97406200061
 20
2565.000000000003
 11
425.133110726257
 21
2565.000000000003
  0
LINE
  5
282
100
AcDbEntity
  8
1
  6
DOT_CENTER
 62
           2
100
AcDbLine
 10
533.829689541416
 20
2385.000000000003
 11
-733.147676803783
 21
2385.000000000001
  0
LINE
  5
281
100
AcDbEntity
  8
1
  6
CONTINUOUS
 62
           7
100
AcDbLine
 10
156.5
 20
2725.000000000001
 11
118.613664000001
 21
2725.000000000001
  0
LINE
  5
280
100
AcDbEntity
  8
1
  6
CONTINUOUS
 62
           7
100
AcDbLine
 10
118.613664000001
 20
2805.000000000001
 11
156.5
 21
2805.000000000001
  0
LINE
  5
27F
100
AcDbEntity
  8
1
  6
CONTINUOUS
 62
           7
100
AcDbLine
 10
108.613664000001
 20
2735.000000000001
 11
108.613664000001
 21
2795.000000000001
  0
LINE
  5
27E
100
AcDbEntity
  8
1
  6
CONTINUOUS
 62
           7
100
AcDbLine
 10
166.5
 20
2795.000000000001
 11
166.5
 21
2735.000000000001
  0
LINE
  5
27D
100
AcDbEntity
  8
1
  6
CONTINUOUS
 62
           7
100
AcDbLine
 10
-52.720779386419
 20
2150.0
 11
-52.720779386419
 21
2165.300000000002
  0
LINE
  5
27C
100
AcDbEntity
  8
1
  6
CONTINUOUS
 62
           7
100
AcDbLine
 10
216.000000000005
 20
5756.0
 11
-269.999999999996
 21
5756.0
  0
LINE
  5
27B
100
AcDbEntity
  8
1
  6
CONTINUOUS
 62
           7
100
AcDbLine
 10
-215.999999999998
 20
5756.0
 11
-215.999999999996
 21
5269.999999999998
  0
LINE
  5
27A
100
AcDbEntity
  8
1
  6
CONTINUOUS
 62
           7
100
AcDbLine
 10
-215.999999999996
 20
5324.0
 11
270.000000000004
 21
5324.0
  0
LINE
  5
279
100
AcDbEntity
  8
1
  6
CONTINUOUS
 62
           7
100
AcDbLine
 10
216.000000000001
 20
5324.0
 11
216.000000000004
 21
5809.999999999998
  0
LINE
  5
278
100
AcDbEntity
  8
1
  6
CONTINUOUS
 62
           7
100
AcDbLine
 10
-649.999999999998
 20
5539.999999999998
 11
-650.226009489052
 21
5539.773990510947
  0
LINE
  5
277
100
AcDbEntity
  8
1
  6
CONTINUOUS
 62
           7
100
AcDbLine
 10
-56.963420073538
 20
4946.511401095431
 11
-52.720779386418
 21
4942.268760408311
  0
LINE
  5
276
100
AcDbEntity
  8
1
  6
CONTINUOUS
 62
           7
100
AcDbLine
 10
-52.720779386418
 20
4942.268760408311
 11
470.538238691626
 21
5465.527778486356
  0
LINE
  5
275
100
AcDbEntity
  8
1
  6
CONTINUOUS
 62
           7
100
AcDbLine
 10
-650.226009489052
 20
5539.773990510947
 11
-645.983368801932
 21
5535.531349823827
  0
LINE
  5
274
100
AcDbEntity
  8
1
  6
CONTINUOUS
 62
           7
100
AcDbLine
 10
-179.999999999996
 20
6009.999999999998
 11
-649.999999999998
 21
5539.999999999998
  0
LINE
  5
273
100
AcDbEntity
  8
1
  6
CONTINUOUS
 62
           7
100
AcDbLine
 10
-645.983368801932
 20
5535.531349823827
 11
-56.963420073538
 21
4946.511401095431
  0
LINE
  5
272
100
AcDbEntity
  8
1
  6
CONTINUOUS
 62
           7
100
AcDbLine
 10
445.000000000004
 20
5639.999999999998
 11
170.000000200063
 21
5914.999999999998
  0
LINE
  5
271
100
AcDbEntity
  8
1
  6
CONTINUOUS
 62
           7
100
AcDbLine
 10
-689.999999999996
 20
6049.999999999998
 11
-689.999999999996
 21
6014.999999999998
  0
LINE
  5
270
100
AcDbEntity
  8
1
  6
CONTINUOUS
 62
           7
100
AcDbLine
 10
-684.999999999996
 20
6009.999999999998
 11
-689.999999999996
 21
6014.999999999998
  0
LINE
  5
26F
100
AcDbEntity
  8
1
  6
CONTINUOUS
 62
           7
100
AcDbLine
 10
-684.999999999996
 20
6009.999999999998
 11
35.000000000004
 21
6009.999999999998
  0
LINE
  5
26E
100
AcDbEntity
  8
1
  6
CONTINUOUS
 62
           7
100
AcDbLine
 10
40.000000000004
 20
6014.999999999998
 11
35.000000000004
 21
6009.999999999998
  0
LINE
  5
26D
100
AcDbEntity
  8
1
  6
CONTINUOUS
 62
           7
100
AcDbLine
 10
40.000000000004
 20
6014.999999999998
 11
40.000000000004
 21
6049.999999999998
  0
LINE
  5
26C
100
AcDbEntity
  8
1
  6
CONTINUOUS
 62
           7
100
AcDbLine
 10
40.000000000004
 20
6049.999999999998
 11
40.000000000004
 21
6084.999999999998
  0
LINE
  5
26B
100
AcDbEntity
  8
1
  6
CONTINUOUS
 62
           7
100
AcDbLine
 10
35.000000000004
 20
6089.999999999998
 11
40.000000000004
 21
6084.999999999998
  0
LINE
  5
26A
100
AcDbEntity
  8
1
  6
CONTINUOUS
 62
           7
100
AcDbLine
 10
35.000000000004
 20
6089.999999999998
 11
-684.999999999996
 21
6089.999999999998
  0
LINE
  5
269
100
AcDbEntity
  8
1
  6
CONTINUOUS
 62
           7
100
AcDbLine
 10
-689.999999999996
 20
6084.999999999998
 11
-684.999999999996
 21
6089.999999999998
  0
LINE
  5
268
100
AcDbEntity
  8
1
  6
CONTINUOUS
 62
           7
100
AcDbLine
 10
-689.999999999996
 20
6084.999999999998
 11
-689.999999999996
 21
6049.999999999998
  0
LINE
  5
267
100
AcDbEntity
  8
1
  6
CONTINUOUS
 62
           7
100
AcDbLine
 10
-659.999999999996
 20
5989.999999999998
 11
-659.999999999996
 21
5589.999999999996
  0
LINE
  5
266
100
AcDbEntity
  8
1
  6
CONTINUOUS
 62
           7
100
AcDbLine
 10
31.875234341349
 20
5944.790474617623
 11
0.000000000002
 21
5999.999999999998
  0
LINE
  5
265
100
AcDbEntity
  8
1
  6
CONTINUOUS
 62
           7
100
AcDbLine
 10
-659.999999999996
 20
5989.999999999998
 11
-649.999999999996
 21
5999.999999999998
  0
LINE
  5
264
100
AcDbEntity
  8
1
  6
CONTINUOUS
 62
           7
100
AcDbLine
 10
-649.999999999996
 20
6009.999999999998
 11
-649.999999999996
 21
5999.999999999998
  0
LINE
  5
263
100
AcDbEntity
  8
1
  6
CONTINUOUS
 62
           7
100
AcDbLine
 10
0.000000000002
 20
5999.999999999998
 11
0.000000000004
 21
6009.999999999998
  0
LINE
  5
262
100
AcDbEntity
  8
1
  6
DOT_CENTER
 62
           2
100
AcDbLine
 10
-684.888003224811
 20
5539.999999999998
 11
514.15554243388
 21
5539.999999999998
  0
LINE
  5
261
100
AcDbEntity
  8
1
  6
CONTINUOUS
 62
           4
100
AcDbLine
 10
115.286004408818
 20
5501.249999999998
 11
109.265668111723
 21
5501.249999999998
  0
LINE
  5
260
100
AcDbEntity
  8
1
  6
CONTINUOUS
 62
           4
100
AcDbLine
 10
115.286004408818
 20
5578.749999999998
 11
109.265668111723
 21
5578.749999999998
  0
LINE
  5
25F
100
AcDbEntity
  8
1
  6
CONTINUOUS
 62
           7
100
AcDbLine
 10
156.500000000001
 20
5496.249999999998
 11
123.946258446662
 21
5496.249999999998
  0
LINE
  5
25E
100
AcDbEntity
  8
1
  6
CONTINUOUS
 62
           7
100
AcDbLine
 10
123.946258446662
 20
5583.749999999998
 11
156.500000000001
 21
5583.749999999998
  0
LINE
  5
25D
100
AcDbEntity
  8
1
  6
CONTINUOUS
 62
           7
100
AcDbLine
 10
113.946258446662
 20
5506.249999999998
 11
113.946258446662
 21
5573.749999999998
  0
LINE
  5
25C
100
AcDbEntity
  8
1
  6
CONTINUOUS
 62
           7
100
AcDbLine
 10
166.500000000001
 20
5573.749999999998
 11
166.500000000001
 21
5506.249999999998
  0
LINE
  5
25B
100
AcDbEntity
  8
1
  6
DOT_CENTER
 62
           2
100
AcDbLine
 10
-324.999999999996
 20
6158.888968922947
 11
-324.999999999996
 21
5726.651872456057
  0
LINE
  5
25A
100
AcDbEntity
  8
1
  6
DOT_CENTER
 62
           2
100
AcDbLine
 10
0.000000000004
 20
6127.670465041154
 11
0.000000000004
 21
4802.453178774495
  0
LINE
  5
259
100
AcDbEntity
  8
1
  6
CONTINUOUS
 62
           4
100
AcDbLine
 10
40.000000000004
 20
6054.499999999998
 11
-689.999999999996
 21
6054.499999999998
  0
LINE
  5
258
100
AcDbEntity
  8
1
  6
CONTINUOUS
 62
           7
100
AcDbLine
 10
40.000000000004
 20
6049.999999999998
 11
-689.999999999996
 21
6049.999999999998
  0
LINE
  5
257
100
AcDbEntity
  8
1
  6
CONTINUOUS
 62
           4
100
AcDbLine
 10
-689.999999999996
 20
6045.499999999998
 11
40.000000000004
 21
6045.499999999998
  0
LINE
  5
256
100
AcDbEntity
  8
1
  6
CONTINUOUS
 62
           3
100
AcDbLine
 10
3920.16356769104
 20
1935.969655114603
 11
3914.489527668229
 21
1932.69374658004
  0
LINE
  5
255
100
AcDbEntity
  8
1
  6
CONTINUOUS
 62
           3
100
AcDbLine
 10
3929.66356769104
 20
1930.484827557302
 11
3920.16356769104
 21
1935.969655114603
  0
LINE
  5
254
100
AcDbEntity
  8
1
  6
CONTINUOUS
 62
           3
100
AcDbLine
 10
3929.66356769104
 20
1919.515172442699
 11
3929.66356769104
 21
1930.484827557302
  0
LINE
  5
253
100
AcDbEntity
  8
1
  6
CONTINUOUS
 62
           3
100
AcDbLine
 10
3920.16356769104
 20
1914.030344885397
 11
3929.66356769104
 21
1919.515172442699
  0
LINE
  5
252
100
AcDbEntity
  8
1
  6
CONTINUOUS
 62
           3
100
AcDbLine
 10
3914.489527668229
 20
1917.30625341996
 11
3920.16356769104
 21
1914.030344885397
  0
LINE
  5
251
100
AcDbEntity
  8
1
  6
DOT_CENTER
 62
           3
100
AcDbLine
 10
3896.218519558623
 20
1925.0
 11
3937.667695262449
 21
1925.0
  0
LINE
  5
250
100
AcDbEntity
  8
1
  6
CONTINUOUS
 62
           3
100
AcDbLine
 10
3909.389214871942
 20
1916.75
 11
3909.389214871942
 21
1917.30625341996
  0
LINE
  5
24F
100
AcDbEntity
  8
1
  6
CONTINUOUS
 62
           3
100
AcDbLine
 10
3909.389214871942
 20
1916.75
 11
3899.714603906645
 21
1916.75
  0
LINE
  5
24E
100
AcDbEntity
  8
1
  6
CONTINUOUS
 62
           3
100
AcDbLine
 10
3899.714603906645
 20
1916.75
 11
3899.714603906645
 21
1925.0
  0
LINE
  5
24D
100
AcDbEntity
  8
1
  6
CONTINUOUS
 62
           3
100
AcDbLine
 10
3899.714603906645
 20
1919.0
 11
3898.868798384465
 21
1919.0
  0
LINE
  5
24C
100
AcDbEntity
  8
1
  6
CONTINUOUS
 62
           3
100
AcDbLine
 10
3898.868798384465
 20
1917.30625341996
 11
3898.868798384465
 21
1925.0
  0
LINE
  5
24B
100
AcDbEntity
  8
1
  6
CONTINUOUS
 62
           3
100
AcDbLine
 10
3898.868798384465
 20
1917.30625341996
 11
3898.16356769104
 21
1917.30625341996
  0
LINE
  5
24A
100
AcDbEntity
  8
1
  6
CONTINUOUS
 62
           3
100
AcDbLine
 10
3897.66356769104
 20
1925.0
 11
3897.66356769104
 21
1917.80625341996
  0
LINE
  5
249
100
AcDbEntity
  8
1
  6
CONTINUOUS
 62
           3
100
AcDbLine
 10
3897.66356769104
 20
1932.19374658004
 11
3897.66356769104
 21
1925.0
  0
LINE
  5
248
100
AcDbEntity
  8
1
  6
CONTINUOUS
 62
           3
100
AcDbLine
 10
3898.16356769104
 20
1932.69374658004
 11
3898.868798384465
 21
1932.69374658004
  0
LINE
  5
247
100
AcDbEntity
  8
1
  6
CONTINUOUS
 62
           3
100
AcDbLine
 10
3898.868798384465
 20
1925.0
 11
3898.868798384465
 21
1932.69374658004
  0
LINE
  5
246
100
AcDbEntity
  8
1
  6
CONTINUOUS
 62
           3
100
AcDbLine
 10
3898.868798384465
 20
1931.0
 11
3899.714603906645
 21
1931.0
  0
LINE
  5
245
100
AcDbEntity
  8
1
  6
CONTINUOUS
 62
           3
100
AcDbLine
 10
3899.714603906645
 20
1933.25
 11
3909.389214871942
 21
1933.25
  0
LINE
  5
244
100
AcDbEntity
  8
1
  6
CONTINUOUS
 62
           3
100
AcDbLine
 10
3899.714603906645
 20
1925.0
 11
3899.714603906645
 21
1933.25
  0
LINE
  5
243
100
AcDbEntity
  8
1
  6
CONTINUOUS
 62
           3
100
AcDbLine
 10
3909.389214871942
 20
1932.69374658004
 11
3909.389214871942
 21
1933.25
  0
LINE
  5
242
100
AcDbEntity
  8
1
  6
CONTINUOUS
 62
           3
100
AcDbLine
 10
3909.389214871942
 20
1917.30625341996
 11
3909.389214871942
 21
1932.69374658004
  0
LINE
  5
241
100
AcDbEntity
  8
1
  6
CONTINUOUS
 62
           3
100
AcDbLine
 10
3915.25433041863
 20
1917.30625341996
 11
3915.25433041863
 21
1932.69374658004
  0
LINE
  5
240
100
AcDbEntity
  8
1
  6
CONTINUOUS
 62
           3
100
AcDbLine
 10
3915.25433041863
 20
1917.30625341996
 11
3909.389214871942
 21
1917.30625341996
  0
LINE
  5
23F
100
AcDbEntity
  8
1
  6
CONTINUOUS
 62
           3
100
AcDbLine
 10
3915.25433041863
 20
1932.69374658004
 11
3909.389214871942
 21
1932.69374658004
  0
LINE
  5
23E
100
AcDbEntity
  8
1
  6
CONTINUOUS
 62
           3
100
AcDbLine
 10
3915.25433041863
 20
1930.871834995069
 11
3920.16356769104
 21
1930.871834995069
  0
LINE
  5
23D
100
AcDbEntity
  8
1
  6
DOT_CENTER
 62
           3
100
AcDbLine
 10
3920.16356769104
 20
1938.643555804874
 11
3920.16356769104
 21
1907.508008255125
  0
LINE
  5
23C
100
AcDbEntity
  8
1
  6
CONTINUOUS
 62
           3
100
AcDbLine
 10
3920.16356769104
 20
1919.128165004934
 11
3915.25433041863
 21
1919.128165004934
  0
LINE
  5
23B
100
AcDbEntity
  8
0
  6
CONTINUOUS
 62
           3
100
AcDbLine
 10
3414.844723494171
 20
1393.116392195192
 11
3415.899996721671
 21
1393.131740391393
  0
LINE
  5
23A
100
AcDbEntity
  8
0
  6
CONTINUOUS
 62
           3
100
AcDbLine
 10
3413.903805503273
 20
1393.072016537193
 11
3414.844723494171
 21
1393.116392195192
  0
LINE
  5
239
100
AcDbEntity
  8
0
  6
CONTINUOUS
 62
           3
100
AcDbLine
 10
3413.179205573574
 20
1393.003411590991
 11
3413.903805503273
 21
1393.072016537193
  0
LINE
  5
238
100
AcDbEntity
  8
0
  6
CONTINUOUS
 62
           3
100
AcDbLine
 10
3412.749445840374
 20
1392.918020486792
 11
3413.179205573574
 21
1393.003411590991
  0
LINE
  5
237
100
AcDbEntity
  8
0
  6
CONTINUOUS
 62
           3
100
AcDbLine
 10
3412.661097088373
 20
1392.825089394992
 11
3412.749445840374
 21
1392.918020486792
  0
LINE
  5
236
100
AcDbEntity
  8
0
  6
CONTINUOUS
 62
           3
100
AcDbLine
 10
3412.899996695574
 20
1392.739541828792
 11
3412.661097088373
 21
1392.825089394992
  0
LINE
  5
235
100
AcDbEntity
  8
0
  6
CONTINUOUS
 62
           3
100
AcDbLine
 10
3419.138896354968
 20
1392.825089394992
 11
3418.899996747769
 21
1392.739541828792
  0
LINE
  5
234
100
AcDbEntity
  8
0
  6
CONTINUOUS
 62
           3
100
AcDbLine
 10
3419.050547602968
 20
1392.918020486792
 11
3419.138896354968
 21
1392.825089394992
  0
LINE
  5
233
100
AcDbEntity
  8
0
  6
CONTINUOUS
 62
           3
100
AcDbLine
 10
3418.62078786977
 20
1393.003411590991
 11
3419.050547602968
 21
1392.918020486792
  0
LINE
  5
232
100
AcDbEntity
  8
0
  6
CONTINUOUS
 62
           3
100
AcDbLine
 10
3417.89618794007
 20
1393.072016537193
 11
3418.62078786977
 21
1393.003411590991
  0
LINE
  5
231
100
AcDbEntity
  8
0
  6
CONTINUOUS
 62
           3
100
AcDbLine
 10
3416.955269949171
 20
1393.116392195192
 11
3417.89618794007
 21
1393.072016537193
  0
LINE
  5
230
100
AcDbEntity
  8
0
  6
CONTINUOUS
 62
           3
100
AcDbLine
 10
3415.899996721671
 20
1393.131740391393
 11
3416.955269949171
 21
1393.116392195192
  0
LINE
  5
22F
100
AcDbEntity
  8
FORMAT
  6
CONTINUOUS
 62
           3
100
AcDbLine
 10
3412.399996721574
 20
1392.596845102893
 11
3401.899996721581
 21
1392.596845102893
  0
LINE
  5
22E
100
AcDbEntity
  8
FORMAT
  6
DOT_CENTER
 62
           3
100
AcDbLine
 10
3415.899996721671
 20
1249.759397252255
 11
3415.899996721671
 21
1725.394390768569
  0
LINE
  5
22D
100
AcDbEntity
  8
FORMAT
  6
CONTINUOUS
 62
           3
100
AcDbLine
 10
3419.399996721767
 20
1392.596845102893
 11
3412.399996721574
 21
1392.596845102893
  0
LINE
  5
22C
100
AcDbEntity
  8
FORMAT
  6
CONTINUOUS
 62
           3
100
AcDbLine
 10
3429.899996721761
 20
1392.596845102893
 11
3419.399996721767
 21
1392.596845102893
  0
LINE
  5
22B
100
AcDbEntity
  8
FORMAT
  6
DOT_CENTER
 62
           3
100
AcDbLine
 10
3340.999996721634
 20
1375.000000000007
 11
3327.399996721743
 21
1375.000000000007
  0
LINE
  5
22A
100
AcDbEntity
  8
FORMAT
  6
DOT_CENTER
 62
           3
100
AcDbLine
 10
3340.999996721634
 20
1625.0
 11
3327.399996721743
 21
1625.0
  0
LINE
  5
229
100
AcDbEntity
  8
0
  6
CONTINUOUS
 62
           3
100
AcDbLine
 10
3350.899999106025
 20
1364.999994635815
 11
3335.499999189236
 21
1364.999994635815
  0
LINE
  5
228
100
AcDbEntity
  8
0
  6
CONTINUOUS
 62
           3
100
AcDbLine
 10
3354.39999502312
 20
1590.000003576231
 11
3354.39999502312
 21
1509.999999776395
  0
LINE
  5
227
100
AcDbEntity
  8
0
  6
CONTINUOUS
 62
           3
100
AcDbLine
 10
3357.399997377518
 20
1590.000003576231
 11
3354.39999502312
 21
1590.000003576231
  0
LINE
  5
226
100
AcDbEntity
  8
0
  6
CONTINUOUS
 62
           3
100
AcDbLine
 10
3357.399997377518
 20
1550.000000744964
 11
3357.399997377518
 21
1590.000003576231
  0
LINE
  5
225
100
AcDbEntity
  8
0
  6
CONTINUOUS
 62
           3
100
AcDbLine
 10
3357.399997377518
 20
1529.999999329481
 11
3357.399997377518
 21
1532.000001519878
  0
LINE
  5
224
100
AcDbEntity
  8
0
  6
CONTINUOUS
 62
           3
100
AcDbLine
 10
3354.39999502312
 20
1509.999999776395
 11
3355.975189322321
 21
1509.999999776395
  0
LINE
  5
223
100
AcDbEntity
  8
0
  6
CONTINUOUS
 62
           3
100
AcDbLine
 10
3475.899995380622
 20
1368.000000715314
 11
3475.899995380622
 21
1367.300003767014
  0
LINE
  5
222
100
AcDbEntity
  8
0
  6
CONTINUOUS
 62
           3
100
AcDbLine
 10
3480.899994337317
 20
1364.999994635815
 11
3480.899994337317
 21
1368.000000715314
  0
LINE
  5
221
100
AcDbEntity
  8
0
  6
CONTINUOUS
 62
           3
100
AcDbLine
 10
3480.899994337317
 20
1635.000005364196
 11
3480.899994337317
 21
1631.999999284697
  0
LINE
  5
220
100
AcDbEntity
  8
0
  6
CONTINUOUS
 62
           3
100
AcDbLine
 10
3475.899995380622
 20
1631.999999284697
 11
3475.899995380622
 21
1632.699996232994
  0
LINE
  5
21F
100
AcDbEntity
  8
0
  6
CONTINUOUS
 62
           3
100
AcDbLine
 10
3355.89999806272
 20
1631.999999284697
 11
3355.89999806272
 21
1632.699996232994
  0
LINE
  5
21E
100
AcDbEntity
  8
0
  6
CONTINUOUS
 62
           3
100
AcDbLine
 10
3350.899999106025
 20
1635.000005364196
 11
3350.899999106025
 21
1631.999999284697
  0
LINE
  5
21D
100
AcDbEntity
  8
0
  6
CONTINUOUS
 62
           3
100
AcDbLine
 10
3350.899999106025
 20
1635.000005364196
 11
3335.499999189236
 21
1635.000005364196
  0
LINE
  5
21C
100
AcDbEntity
  8
0
  6
CONTINUOUS
 62
           3
100
AcDbLine
 10
3350.899999106025
 20
1364.999994635815
 11
3350.899999106025
 21
1368.000000715314
  0
LINE
  5
21B
100
AcDbEntity
  8
0
  6
CONTINUOUS
 62
           3
100
AcDbLine
 10
3355.89999806272
 20
1368.000000715314
 11
3355.89999806272
 21
1367.300003767014
  0
LINE
  5
21A
100
AcDbEntity
  8
0
  6
CONTINUOUS
 62
           3
100
AcDbLine
 10
3354.39999502312
 20
1409.99999642378
 11
3354.39999502312
 21
1490.000000223612
  0
LINE
  5
219
100
AcDbEntity
  8
0
  6
CONTINUOUS
 62
           3
100
AcDbLine
 10
3354.39999502312
 20
1490.000000223612
 11
3355.89999806272
 21
1490.000000223612
  0
LINE
  5
218
100
AcDbEntity
  8
0
  6
CONTINUOUS
 62
           3
100
AcDbLine
 10
3357.399997377518
 20
1431.999996304559
 11
3357.399997377518
 21
1429.999999701962
  0
LINE
  5
217
100
AcDbEntity
  8
0
  6
CONTINUOUS
 62
           3
100
AcDbLine
 10
3355.975189322321
 20
1409.99999642378
 11
3354.39999502312
 21
1409.99999642378
  0
LINE
  5
216
100
AcDbEntity
  8
0
  6
CONTINUOUS
 62
           3
100
AcDbLine
 10
3477.399998420219
 20
1590.000003576231
 11
3477.399998420219
 21
1509.999999776395
  0
LINE
  5
215
100
AcDbEntity
  8
0
  6
CONTINUOUS
 62
           3
100
AcDbLine
 10
3477.399998420219
 20
1509.999999776395
 11
3475.824804121023
 21
1509.999999776395
  0
LINE
  5
214
100
AcDbEntity
  8
0
  6
CONTINUOUS
 62
           3
100
AcDbLine
 10
3474.399996066123
 20
1550.000000744964
 11
3474.399996066123
 21
1590.000003576231
  0
LINE
  5
213
100
AcDbEntity
  8
0
  6
CONTINUOUS
 62
           3
100
AcDbLine
 10
3474.399996066123
 20
1529.999999329481
 11
3474.399996066123
 21
1532.000001519878
  0
LINE
  5
212
100
AcDbEntity
  8
0
  6
CONTINUOUS
 62
           3
100
AcDbLine
 10
3474.399996066123
 20
1590.000003576231
 11
3477.399998420219
 21
1590.000003576231
  0
LINE
  5
211
100
AcDbEntity
  8
0
  6
CONTINUOUS
 62
           3
100
AcDbLine
 10
3477.399998420219
 20
1409.99999642378
 11
3477.399998420219
 21
1490.000000223612
  0
LINE
  5
210
100
AcDbEntity
  8
0
  6
CONTINUOUS
 62
           3
100
AcDbLine
 10
3475.824804121023
 20
1409.99999642378
 11
3477.399998420219
 21
1409.99999642378
  0
LINE
  5
20F
100
AcDbEntity
  8
0
  6
CONTINUOUS
 62
           3
100
AcDbLine
 10
3474.399996066123
 20
1431.999996304559
 11
3474.399996066123
 21
1429.999999701962
  0
LINE
  5
20E
100
AcDbEntity
  8
0
  6
CONTINUOUS
 62
           3
100
AcDbLine
 10
3477.399998420219
 20
1490.000000223612
 11
3475.899995380622
 21
1490.000000223612
  0
LINE
  5
20D
100
AcDbEntity
  8
0
  6
CONTINUOUS
 62
           3
100
AcDbLine
 10
3335.499999189236
 20
1635.000005364196
 11
3333.39999344334
 21
1635.000005364196
  0
LINE
  5
20C
100
AcDbEntity
  8
0
  6
CONTINUOUS
 62
           3
100
AcDbLine
 10
3333.39999344334
 20
1635.000005364196
 11
3333.39999344334
 21
1364.999994635815
  0
LINE
  5
20B
100
AcDbEntity
  8
0
  6
CONTINUOUS
 62
           3
100
AcDbLine
 10
3335.499999189236
 20
1364.999994635815
 11
3333.39999344334
 21
1364.999994635815
  0
LINE
  5
20A
100
AcDbEntity
  8
0
  6
CONTINUOUS
 62
           3
100
AcDbLine
 10
3355.89999806272
 20
1366.600006818713
 11
3355.89999806272
 21
1367.300003767014
  0
LINE
  5
209
100
AcDbEntity
  8
0
  6
CONTINUOUS
 62
           3
100
AcDbLine
 10
3475.899995380622
 20
1366.600006818713
 11
3475.899995380622
 21
1367.300003767014
  0
LINE
  5
208
100
AcDbEntity
  8
0
  6
CONTINUOUS
 62
           3
100
AcDbLine
 10
3355.89999806272
 20
1633.399993180996
 11
3355.89999806272
 21
1632.699996232994
  0
LINE
  5
207
100
AcDbEntity
  8
0
  6
CONTINUOUS
 62
           3
100
AcDbLine
 10
3475.899995380622
 20
1633.399993180996
 11
3475.899995380622
 21
1632.699996232994
  0
LINE
  5
206
100
AcDbEntity
  8
0
  6
CONTINUOUS
 62
           3
100
AcDbLine
 10
3470.899996423626
 20
1633.399993180996
 11
3475.899995380622
 21
1633.399993180996
  0
LINE
  5
205
100
AcDbEntity
  8
0
  6
CONTINUOUS
 62
           3
100
AcDbLine
 10
3475.899995380622
 20
1635.000005364196
 11
3470.899996423626
 21
1635.000005364196
  0
LINE
  5
204
100
AcDbEntity
  8
0
  6
CONTINUOUS
 62
           3
100
AcDbLine
 10
3475.899995380622
 20
1633.399993180996
 11
3475.899995380622
 21
1635.000005364196
  0
LINE
  5
203
100
AcDbEntity
  8
0
  6
CONTINUOUS
 62
           3
100
AcDbLine
 10
3470.899996423626
 20
1366.600006818713
 11
3475.899995380622
 21
1366.600006818713
  0
LINE
  5
202
100
AcDbEntity
  8
0
  6
CONTINUOUS
 62
           3
100
AcDbLine
 10
3475.899995380622
 20
1364.999994635815
 11
3470.899996423626
 21
1364.999994635815
  0
LINE
  5
201
100
AcDbEntity
  8
0
  6
CONTINUOUS
 62
           3
100
AcDbLine
 10
3475.899995380622
 20
1366.600006818713
 11
3475.899995380622
 21
1364.999994635815
  0
LINE
  5
200
100
AcDbEntity
  8
0
  6
CONTINUOUS
 62
           3
100
AcDbLine
 10
3460.899998509633
 20
1366.600006818713
 11
3462.899995112232
 21
1366.600006818713
  0
LINE
  5
1FF
100
AcDbEntity
  8
0
  6
CONTINUOUS
 62
           3
100
AcDbLine
 10
3462.899995112232
 20
1364.999994635815
 11
3460.899998509633
 21
1364.999994635815
  0
LINE
  5
1FE
100
AcDbEntity
  8
0
  6
CONTINUOUS
 62
           3
100
AcDbLine
 10
3462.899995112232
 20
1366.600006818713
 11
3462.899995112232
 21
1364.999994635815
  0
LINE
  5
1FD
100
AcDbEntity
  8
0
  6
CONTINUOUS
 62
           3
100
AcDbLine
 10
3460.899998509633
 20
1633.399993180996
 11
3462.899995112232
 21
1633.399993180996
  0
LINE
  5
1FC
100
AcDbEntity
  8
0
  6
CONTINUOUS
 62
           3
100
AcDbLine
 10
3462.899995112232
 20
1635.000005364196
 11
3460.899998509633
 21
1635.000005364196
  0
LINE
  5
1FB
100
AcDbEntity
  8
0
  6
CONTINUOUS
 62
           3
100
AcDbLine
 10
3462.899995112232
 20
1633.399993180996
 11
3462.899995112232
 21
1635.000005364196
  0
LINE
  5
1FA
100
AcDbEntity
  8
0
  6
CONTINUOUS
 62
           3
100
AcDbLine
 10
3468.899996095927
 20
1366.600006818713
 11
3470.899996423626
 21
1366.600006818713
  0
LINE
  5
1F9
100
AcDbEntity
  8
0
  6
CONTINUOUS
 62
           3
100
AcDbLine
 10
3470.899996423626
 20
1364.999994635815
 11
3468.899996095927
 21
1364.999994635815
  0
LINE
  5
1F8
100
AcDbEntity
  8
0
  6
CONTINUOUS
 62
           3
100
AcDbLine
 10
3468.899996095927
 20
1364.999994635815
 11
3468.899996095927
 21
1366.600006818713
  0
LINE
  5
1F7
100
AcDbEntity
  8
0
  6
CONTINUOUS
 62
           3
100
AcDbLine
 10
3468.899996095927
 20
1633.399993180996
 11
3470.899996423626
 21
1633.399993180996
  0
LINE
  5
1F6
100
AcDbEntity
  8
0
  6
CONTINUOUS
 62
           3
100
AcDbLine
 10
3470.899996423626
 20
1635.000005364196
 11
3468.899996095927
 21
1635.000005364196
  0
LINE
  5
1F5
100
AcDbEntity
  8
0
  6
CONTINUOUS
 62
           3
100
AcDbLine
 10
3468.899996095927
 20
1635.000005364196
 11
3468.899996095927
 21
1633.399993180996
  0
LINE
  5
1F4
100
AcDbEntity
  8
0
  6
CONTINUOUS
 62
           3
100
AcDbLine
 10
3360.899997019717
 20
1633.399993180996
 11
3355.89999806272
 21
1633.399993180996
  0
LINE
  5
1F3
100
AcDbEntity
  8
0
  6
CONTINUOUS
 62
           3
100
AcDbLine
 10
3355.89999806272
 20
1635.000005364196
 11
3360.899997019717
 21
1635.000005364196
  0
LINE
  5
1F2
100
AcDbEntity
  8
0
  6
CONTINUOUS
 62
           3
100
AcDbLine
 10
3355.89999806272
 20
1633.399993180996
 11
3355.89999806272
 21
1635.000005364196
  0
LINE
  5
1F1
100
AcDbEntity
  8
0
  6
CONTINUOUS
 62
           3
100
AcDbLine
 10
3360.899997019717
 20
1366.600006818713
 11
3355.89999806272
 21
1366.600006818713
  0
LINE
  5
1F0
100
AcDbEntity
  8
0
  6
CONTINUOUS
 62
           3
100
AcDbLine
 10
3355.89999806272
 20
1364.999994635815
 11
3360.899997019717
 21
1364.999994635815
  0
LINE
  5
1EF
100
AcDbEntity
  8
0
  6
CONTINUOUS
 62
           3
100
AcDbLine
 10
3355.89999806272
 20
1366.600006818713
 11
3355.89999806272
 21
1364.999994635815
  0
LINE
  5
1EE
100
AcDbEntity
  8
0
  6
CONTINUOUS
 62
           3
100
AcDbLine
 10
3370.899994933709
 20
1633.399993180996
 11
3460.899998509633
 21
1633.399993180996
  0
LINE
  5
1ED
100
AcDbEntity
  8
0
  6
CONTINUOUS
 62
           3
100
AcDbLine
 10
3370.899994933709
 20
1635.000005364196
 11
3460.899998509633
 21
1635.000005364196
  0
LINE
  5
1EC
100
AcDbEntity
  8
0
  6
CONTINUOUS
 62
           3
100
AcDbLine
 10
3370.899994933709
 20
1366.600006818713
 11
3460.899998509633
 21
1366.600006818713
  0
LINE
  5
1EB
100
AcDbEntity
  8
0
  6
CONTINUOUS
 62
           3
100
AcDbLine
 10
3370.899994933709
 20
1364.999994635815
 11
3460.899998509633
 21
1364.999994635815
  0
LINE
  5
1EA
100
AcDbEntity
  8
0
  6
CONTINUOUS
 62
           3
100
AcDbLine
 10
3370.899994933709
 20
1366.600006818713
 11
3368.89999833111
 21
1366.600006818713
  0
LINE
  5
1E9
100
AcDbEntity
  8
0
  6
CONTINUOUS
 62
           3
100
AcDbLine
 10
3368.89999833111
 20
1366.600006818713
 11
3368.89999833111
 21
1364.999994635815
  0
LINE
  5
1E8
100
AcDbEntity
  8
0
  6
CONTINUOUS
 62
           3
100
AcDbLine
 10
3368.89999833111
 20
1364.999994635815
 11
3370.899994933709
 21
1364.999994635815
  0
LINE
  5
1E7
100
AcDbEntity
  8
0
  6
CONTINUOUS
 62
           3
100
AcDbLine
 10
3370.899994933709
 20
1633.399993180996
 11
3368.89999833111
 21
1633.399993180996
  0
LINE
  5
1E6
100
AcDbEntity
  8
0
  6
CONTINUOUS
 62
           3
100
AcDbLine
 10
3368.89999833111
 20
1635.000005364196
 11
3370.899994933709
 21
1635.000005364196
  0
LINE
  5
1E5
100
AcDbEntity
  8
0
  6
CONTINUOUS
 62
           3
100
AcDbLine
 10
3368.89999833111
 20
1633.399993180996
 11
3368.89999833111
 21
1635.000005364196
  0
LINE
  5
1E4
100
AcDbEntity
  8
0
  6
CONTINUOUS
 62
           3
100
AcDbLine
 10
3362.899997347714
 20
1633.399993180996
 11
3360.899997019717
 21
1633.399993180996
  0
LINE
  5
1E3
100
AcDbEntity
  8
0
  6
CONTINUOUS
 62
           3
100
AcDbLine
 10
3362.899997347714
 20
1635.000005364196
 11
3362.899997347714
 21
1633.399993180996
  0
LINE
  5
1E2
100
AcDbEntity
  8
0
  6
CONTINUOUS
 62
           3
100
AcDbLine
 10
3360.899997019717
 20
1635.000005364196
 11
3362.899997347714
 21
1635.000005364196
  0
LINE
  5
1E1
100
AcDbEntity
  8
0
  6
CONTINUOUS
 62
           3
100
AcDbLine
 10
3362.899997347714
 20
1366.600006818713
 11
3360.899997019717
 21
1366.600006818713
  0
LINE
  5
1E0
100
AcDbEntity
  8
0
  6
CONTINUOUS
 62
           3
100
AcDbLine
 10
3360.899997019717
 20
1364.999994635815
 11
3362.899997347714
 21
1364.999994635815
  0
LINE
  5
1DF
100
AcDbEntity
  8
0
  6
CONTINUOUS
 62
           3
100
AcDbLine
 10
3362.899997347714
 20
1364.999994635815
 11
3362.899997347714
 21
1366.600006818713
  0
LINE
  5
1DE
100
AcDbEntity
  8
0
  6
CONTINUOUS
 62
           3
100
AcDbLine
 10
3475.824804121023
 20
1409.99999642378
 11
3474.199996405622
 21
1409.99999642378
  0
LINE
  5
1DD
100
AcDbEntity
  8
0
  6
CONTINUOUS
 62
           3
100
AcDbLine
 10
3474.199996405622
 20
1429.999999701962
 11
3475.899995380622
 21
1429.999999701962
  0
LINE
  5
1DC
100
AcDbEntity
  8
0
  6
CONTINUOUS
 62
           3
100
AcDbLine
 10
3475.899995380622
 20
1429.999999701962
 11
3475.899995380622
 21
1409.99999642378
  0
LINE
  5
1DB
100
AcDbEntity
  8
0
  6
CONTINUOUS
 62
           3
100
AcDbLine
 10
3355.89999806272
 20
1529.999999329481
 11
3357.59999703772
 21
1529.999999329481
  0
LINE
  5
1DA
100
AcDbEntity
  8
0
  6
CONTINUOUS
 62
           3
100
AcDbLine
 10
3355.89999806272
 20
1509.999999776395
 11
3355.89999806272
 21
1529.999999329481
  0
LINE
  5
1D9
100
AcDbEntity
  8
0
  6
CONTINUOUS
 62
           3
100
AcDbLine
 10
3357.59999703772
 20
1509.999999776395
 11
3355.975189322321
 21
1509.999999776395
  0
LINE
  5
1D8
100
AcDbEntity
  8
0
  6
CONTINUOUS
 62
           3
100
AcDbLine
 10
3355.975189322321
 20
1409.99999642378
 11
3357.59999703772
 21
1409.99999642378
  0
LINE
  5
1D7
100
AcDbEntity
  8
0
  6
CONTINUOUS
 62
           3
100
AcDbLine
 10
3357.59999703772
 20
1429.999999701962
 11
3355.89999806272
 21
1429.999999701962
  0
LINE
  5
1D6
100
AcDbEntity
  8
0
  6
CONTINUOUS
 62
           3
100
AcDbLine
 10
3355.89999806272
 20
1429.999999701962
 11
3355.89999806272
 21
1409.99999642378
  0
LINE
  5
1D5
100
AcDbEntity
  8
0
  6
CONTINUOUS
 62
           3
100
AcDbLine
 10
3357.59999703772
 20
1529.999999329481
 11
3357.89999839072
 21
1529.999999329481
  0
LINE
  5
1D4
100
AcDbEntity
  8
0
  6
CONTINUOUS
 62
           3
100
AcDbLine
 10
3357.89999839072
 20
1509.999999776395
 11
3357.59999703772
 21
1509.999999776395
  0
LINE
  5
1D3
100
AcDbEntity
  8
0
  6
CONTINUOUS
 62
           3
100
AcDbLine
 10
3355.89999806272
 20
1508.0000003799
 11
3357.89999839072
 21
1508.0000003799
  0
LINE
  5
1D2
100
AcDbEntity
  8
0
  6
CONTINUOUS
 62
           3
100
AcDbLine
 10
3355.89999806272
 20
1508.0000003799
 11
3355.89999806272
 21
1431.999996304559
  0
LINE
  5
1D1
100
AcDbEntity
  8
0
  6
CONTINUOUS
 62
           3
100
AcDbLine
 10
3355.89999806272
 20
1431.999996304559
 11
3357.89999839072
 21
1431.999996304559
  0
LINE
  5
1D0
100
AcDbEntity
  8
0
  6
CONTINUOUS
 62
           3
100
AcDbLine
 10
3357.89999839072
 20
1429.999999701962
 11
3357.59999703772
 21
1429.999999701962
  0
LINE
  5
1CF
100
AcDbEntity
  8
0
  6
CONTINUOUS
 62
           3
100
AcDbLine
 10
3357.59999703772
 20
1409.99999642378
 11
3357.89999839072
 21
1409.99999642378
  0
LINE
  5
1CE
100
AcDbEntity
  8
0
  6
CONTINUOUS
 62
           3
100
AcDbLine
 10
3357.89999839072
 20
1407.999999821182
 11
3355.89999806272
 21
1407.999999821182
  0
LINE
  5
1CD
100
AcDbEntity
  8
0
  6
CONTINUOUS
 62
           3
100
AcDbLine
 10
3355.89999806272
 20
1391.699999570792
 11
3355.89999806272
 21
1407.999999821182
  0
LINE
  5
1CC
100
AcDbEntity
  8
0
  6
CONTINUOUS
 62
           3
100
AcDbLine
 10
3475.899995380622
 20
1391.699999570792
 11
3475.899995380622
 21
1407.999999821182
  0
LINE
  5
1CB
100
AcDbEntity
  8
0
  6
CONTINUOUS
 62
           3
100
AcDbLine
 10
3473.899995052624
 20
1407.999999821182
 11
3475.899995380622
 21
1407.999999821182
  0
LINE
  5
1CA
100
AcDbEntity
  8
0
  6
CONTINUOUS
 62
           3
100
AcDbLine
 10
3474.199996405622
 20
1409.99999642378
 11
3473.899995052624
 21
1409.99999642378
  0
LINE
  5
1C9
100
AcDbEntity
  8
0
  6
CONTINUOUS
 62
           3
100
AcDbLine
 10
3473.899995052624
 20
1429.999999701962
 11
3474.199996405622
 21
1429.999999701962
  0
LINE
  5
1C8
100
AcDbEntity
  8
0
  6
CONTINUOUS
 62
           3
100
AcDbLine
 10
3475.899995380622
 20
1431.999996304559
 11
3473.899995052624
 21
1431.999996304559
  0
LINE
  5
1C7
100
AcDbEntity
  8
0
  6
CONTINUOUS
 62
           3
100
AcDbLine
 10
3475.899995380622
 20
1508.0000003799
 11
3475.899995380622
 21
1431.999996304559
  0
LINE
  5
1C6
100
AcDbEntity
  8
0
  6
CONTINUOUS
 62
           3
100
AcDbLine
 10
3475.899995380622
 20
1508.0000003799
 11
3473.899995052624
 21
1508.0000003799
  0
LINE
  5
1C5
100
AcDbEntity
  8
0
  6
CONTINUOUS
 62
           3
100
AcDbLine
 10
3473.899995052624
 20
1509.999999776395
 11
3474.199996405622
 21
1509.999999776395
  0
LINE
  5
1C4
100
AcDbEntity
  8
0
  6
CONTINUOUS
 62
           3
100
AcDbLine
 10
3474.199996405622
 20
1529.999999329481
 11
3473.899995052624
 21
1529.999999329481
  0
LINE
  5
1C3
100
AcDbEntity
  8
0
  6
CONTINUOUS
 62
           3
100
AcDbLine
 10
3473.899995052624
 20
1532.000001519878
 11
3475.899995380622
 21
1532.000001519878
  0
LINE
  5
1C2
100
AcDbEntity
  8
0
  6
CONTINUOUS
 62
           3
100
AcDbLine
 10
3475.899995380622
 20
1548.300001770265
 11
3475.899995380622
 21
1532.000001519878
  0
LINE
  5
1C1
100
AcDbEntity
  8
0
  6
CONTINUOUS
 62
           3
100
AcDbLine
 10
3355.89999806272
 20
1548.300001770265
 11
3355.89999806272
 21
1532.000001519878
  0
LINE
  5
1C0
100
AcDbEntity
  8
0
  6
CONTINUOUS
 62
           3
100
AcDbLine
 10
3357.89999839072
 20
1532.000001519878
 11
3355.89999806272
 21
1532.000001519878
  0
LINE
  5
1BF
100
AcDbEntity
  8
0
  6
CONTINUOUS
 62
           3
100
AcDbLine
 10
3474.199996405622
 20
1509.999999776395
 11
3475.824804121023
 21
1509.999999776395
  0
LINE
  5
1BE
100
AcDbEntity
  8
0
  6
CONTINUOUS
 62
           3
100
AcDbLine
 10
3475.899995380622
 20
1509.999999776395
 11
3475.899995380622
 21
1529.999999329481
  0
LINE
  5
1BD
100
AcDbEntity
  8
0
  6
CONTINUOUS
 62
           3
100
AcDbLine
 10
3475.899995380622
 20
1529.999999329481
 11
3474.199996405622
 21
1529.999999329481
  0
LINE
  5
1BC
100
AcDbEntity
  8
0
  6
CONTINUOUS
 62
           3
100
AcDbLine
 10
3475.899995380622
 20
1548.799999058065
 11
3475.899995380622
 21
1548.300001770265
  0
LINE
  5
1BB
100
AcDbEntity
  8
0
  6
CONTINUOUS
 62
           3
100
AcDbLine
 10
3355.89999806272
 20
1548.799999058065
 11
3355.89999806272
 21
1548.300001770265
  0
LINE
  5
1BA
100
AcDbEntity
  8
0
  6
CONTINUOUS
 62
           3
100
AcDbLine
 10
3355.89999806272
 20
1391.199998557593
 11
3355.89999806272
 21
1391.699999570792
  0
LINE
  5
1B9
100
AcDbEntity
  8
0
  6
CONTINUOUS
 62
           3
100
AcDbLine
 10
3475.899995380622
 20
1391.199998557593
 11
3475.899995380622
 21
1391.699999570792
  0
LINE
  5
1B8
100
AcDbEntity
  8
0
  6
CONTINUOUS
 62
           3
100
AcDbLine
 10
3418.899996747769
 20
1550.000000744964
 11
3419.149996788769
 21
1550.000000744964
  0
LINE
  5
1B7
100
AcDbEntity
  8
0
  6
CONTINUOUS
 62
           3
100
AcDbLine
 10
3412.649996654573
 20
1550.000000744964
 11
3412.899996695574
 21
1550.000000744964
  0
LINE
  5
1B6
100
AcDbEntity
  8
0
  6
CONTINUOUS
 62
           3
100
AcDbLine
 10
3418.899996747769
 20
1548.799999058065
 11
3419.149996788769
 21
1548.799999058065
  0
LINE
  5
1B5
100
AcDbEntity
  8
0
  6
CONTINUOUS
 62
           3
100
AcDbLine
 10
3412.649996654573
 20
1548.799999058065
 11
3412.899996695574
 21
1548.799999058065
  0
LINE
  5
1B4
100
AcDbEntity
  8
0
  6
CONTINUOUS
 62
           3
100
AcDbLine
 10
3412.899996695574
 20
1391.199998557593
 11
3412.649996654573
 21
1391.199998557593
  0
LINE
  5
1B3
100
AcDbEntity
  8
0
  6
CONTINUOUS
 62
           3
100
AcDbLine
 10
3419.149996788769
 20
1391.199998557593
 11
3418.899996747769
 21
1391.199998557593
  0
LINE
  5
1B2
100
AcDbEntity
  8
0
  6
CONTINUOUS
 62
           3
100
AcDbLine
 10
3360.899997019717
 20
1391.199998557593
 11
3355.89999806272
 21
1391.199998557593
  0
LINE
  5
1B1
100
AcDbEntity
  8
0
  6
CONTINUOUS
 62
           3
100
AcDbLine
 10
3355.89999806272
 20
1390.000000596097
 11
3360.899997019717
 21
1390.000000596097
  0
LINE
  5
1B0
100
AcDbEntity
  8
0
  6
CONTINUOUS
 62
           3
100
AcDbLine
 10
3355.89999806272
 20
1391.199998557593
 11
3355.89999806272
 21
1390.000000596097
  0
LINE
  5
1AF
100
AcDbEntity
  8
0
  6
CONTINUOUS
 62
           3
100
AcDbLine
 10
3355.89999806272
 20
1550.000000744964
 11
3360.899997019717
 21
1550.000000744964
  0
LINE
  5
1AE
100
AcDbEntity
  8
0
  6
CONTINUOUS
 62
           3
100
AcDbLine
 10
3360.899997019717
 20
1548.799999058065
 11
3355.89999806272
 21
1548.799999058065
  0
LINE
  5
1AD
100
AcDbEntity
  8
0
  6
CONTINUOUS
 62
           3
100
AcDbLine
 10
3355.89999806272
 20
1548.799999058065
 11
3355.89999806272
 21
1550.000000744964
  0
LINE
  5
1AC
100
AcDbEntity
  8
0
  6
CONTINUOUS
 62
           3
100
AcDbLine
 10
3460.899998509633
 20
1550.000000744964
 11
3445.899996051146
 21
1550.000000744964
  0
LINE
  5
1AB
100
AcDbEntity
  8
0
  6
CONTINUOUS
 62
           3
100
AcDbLine
 10
3460.899998509633
 20
1548.799999058065
 11
3445.899996051146
 21
1548.799999058065
  0
LINE
  5
1AA
100
AcDbEntity
  8
0
  6
CONTINUOUS
 62
           3
100
AcDbLine
 10
3475.899995380622
 20
1550.000000744964
 11
3470.899996423626
 21
1550.000000744964
  0
LINE
  5
1A9
100
AcDbEntity
  8
0
  6
CONTINUOUS
 62
           3
100
AcDbLine
 10
3470.899996423626
 20
1548.799999058065
 11
3475.899995380622
 21
1548.799999058065
  0
LINE
  5
1A8
100
AcDbEntity
  8
0
  6
CONTINUOUS
 62
           3
100
AcDbLine
 10
3475.899995380622
 20
1548.799999058065
 11
3475.899995380622
 21
1550.000000744964
  0
LINE
  5
1A7
100
AcDbEntity
  8
0
  6
CONTINUOUS
 62
           3
100
AcDbLine
 10
3460.899998509633
 20
1391.199998557593
 11
3445.899996051146
 21
1391.199998557593
  0
LINE
  5
1A6
100
AcDbEntity
  8
0
  6
CONTINUOUS
 62
           3
100
AcDbLine
 10
3460.899998509633
 20
1390.000000596097
 11
3445.899996051146
 21
1390.000000596097
  0
LINE
  5
1A5
100
AcDbEntity
  8
0
  6
CONTINUOUS
 62
           3
100
AcDbLine
 10
3370.899994933709
 20
1550.000000744964
 11
3385.899997392196
 21
1550.000000744964
  0
LINE
  5
1A4
100
AcDbEntity
  8
0
  6
CONTINUOUS
 62
           3
100
AcDbLine
 10
3370.899994933709
 20
1548.799999058065
 11
3385.899997392196
 21
1548.799999058065
  0
LINE
  5
1A3
100
AcDbEntity
  8
0
  6
CONTINUOUS
 62
           3
100
AcDbLine
 10
3470.899996423626
 20
1391.199998557593
 11
3475.899995380622
 21
1391.199998557593
  0
LINE
  5
1A2
100
AcDbEntity
  8
0
  6
CONTINUOUS
 62
           3
100
AcDbLine
 10
3475.899995380622
 20
1390.000000596097
 11
3470.899996423626
 21
1390.000000596097
  0
LINE
  5
1A1
100
AcDbEntity
  8
0
  6
CONTINUOUS
 62
           3
100
AcDbLine
 10
3475.899995380622
 20
1391.199998557593
 11
3475.899995380622
 21
1390.000000596097
  0
LINE
  5
1A0
100
AcDbEntity
  8
0
  6
CONTINUOUS
 62
           3
100
AcDbLine
 10
3370.899994933709
 20
1391.199998557593
 11
3385.899997392196
 21
1391.199998557593
  0
LINE
  5
19F
100
AcDbEntity
  8
0
  6
CONTINUOUS
 62
           3
100
AcDbLine
 10
3370.899994933709
 20
1390.000000596097
 11
3385.899997392196
 21
1390.000000596097
  0
LINE
  5
19E
100
AcDbEntity
  8
0
  6
CONTINUOUS
 62
           3
100
AcDbLine
 10
3368.89999833111
 20
1550.000000744964
 11
3370.899994933709
 21
1550.000000744964
  0
LINE
  5
19D
100
AcDbEntity
  8
0
  6
CONTINUOUS
 62
           3
100
AcDbLine
 10
3370.899994933709
 20
1548.799999058065
 11
3368.89999833111
 21
1548.799999058065
  0
LINE
  5
19C
100
AcDbEntity
  8
0
  6
CONTINUOUS
 62
           3
100
AcDbLine
 10
3368.89999833111
 20
1548.799999058065
 11
3368.89999833111
 21
1550.000000744964
  0
LINE
  5
19B
100
AcDbEntity
  8
0
  6
CONTINUOUS
 62
           3
100
AcDbLine
 10
3360.899997019717
 20
1550.000000744964
 11
3362.899997347714
 21
1550.000000744964
  0
LINE
  5
19A
100
AcDbEntity
  8
0
  6
CONTINUOUS
 62
           3
100
AcDbLine
 10
3362.899997347714
 20
1548.799999058065
 11
3360.899997019717
 21
1548.799999058065
  0
LINE
  5
199
100
AcDbEntity
  8
0
  6
CONTINUOUS
 62
           3
100
AcDbLine
 10
3362.899997347714
 20
1550.000000744964
 11
3362.899997347714
 21
1548.799999058065
  0
LINE
  5
198
100
AcDbEntity
  8
0
  6
CONTINUOUS
 62
           3
100
AcDbLine
 10
3460.899998509633
 20
1391.199998557593
 11
3462.899995112232
 21
1391.199998557593
  0
LINE
  5
197
100
AcDbEntity
  8
0
  6
CONTINUOUS
 62
           3
100
AcDbLine
 10
3462.899995112232
 20
1390.000000596097
 11
3460.899998509633
 21
1390.000000596097
  0
LINE
  5
196
100
AcDbEntity
  8
0
  6
CONTINUOUS
 62
           3
100
AcDbLine
 10
3462.899995112232
 20
1391.199998557593
 11
3462.899995112232
 21
1390.000000596097
  0
LINE
  5
195
100
AcDbEntity
  8
0
  6
CONTINUOUS
 62
           3
100
AcDbLine
 10
3468.899996095927
 20
1391.199998557593
 11
3470.899996423626
 21
1391.199998557593
  0
LINE
  5
194
100
AcDbEntity
  8
0
  6
CONTINUOUS
 62
           3
100
AcDbLine
 10
3470.899996423626
 20
1390.000000596097
 11
3468.899996095927
 21
1390.000000596097
  0
LINE
  5
193
100
AcDbEntity
  8
0
  6
CONTINUOUS
 62
           3
100
AcDbLine
 10
3468.899996095927
 20
1390.000000596097
 11
3468.899996095927
 21
1391.199998557593
  0
LINE
  5
192
100
AcDbEntity
  8
0
  6
CONTINUOUS
 62
           3
100
AcDbLine
 10
3462.899995112232
 20
1550.000000744964
 11
3460.899998509633
 21
1550.000000744964
  0
LINE
  5
191
100
AcDbEntity
  8
0
  6
CONTINUOUS
 62
           3
100
AcDbLine
 10
3460.899998509633
 20
1548.799999058065
 11
3462.899995112232
 21
1548.799999058065
  0
LINE
  5
190
100
AcDbEntity
  8
0
  6
CONTINUOUS
 62
           3
100
AcDbLine
 10
3462.899995112232
 20
1548.799999058065
 11
3462.899995112232
 21
1550.000000744964
  0
LINE
  5
18F
100
AcDbEntity
  8
0
  6
CONTINUOUS
 62
           3
100
AcDbLine
 10
3470.899996423626
 20
1550.000000744964
 11
3468.899996095927
 21
1550.000000744964
  0
LINE
  5
18E
100
AcDbEntity
  8
0
  6
CONTINUOUS
 62
           3
100
AcDbLine
 10
3468.899996095927
 20
1548.799999058065
 11
3470.899996423626
 21
1548.799999058065
  0
LINE
  5
18D
100
AcDbEntity
  8
0
  6
CONTINUOUS
 62
           3
100
AcDbLine
 10
3468.899996095927
 20
1550.000000744964
 11
3468.899996095927
 21
1548.799999058065
  0
LINE
  5
18C
100
AcDbEntity
  8
0
  6
CONTINUOUS
 62
           3
100
AcDbLine
 10
3370.899994933709
 20
1391.199998557593
 11
3368.89999833111
 21
1391.199998557593
  0
LINE
  5
18B
100
AcDbEntity
  8
0
  6
CONTINUOUS
 62
           3
100
AcDbLine
 10
3368.89999833111
 20
1390.000000596097
 11
3370.899994933709
 21
1390.000000596097
  0
LINE
  5
18A
100
AcDbEntity
  8
0
  6
CONTINUOUS
 62
           3
100
AcDbLine
 10
3368.89999833111
 20
1391.199998557593
 11
3368.89999833111
 21
1390.000000596097
  0
LINE
  5
189
100
AcDbEntity
  8
0
  6
CONTINUOUS
 62
           3
100
AcDbLine
 10
3362.899997347714
 20
1391.199998557593
 11
3360.899997019717
 21
1391.199998557593
  0
LINE
  5
188
100
AcDbEntity
  8
0
  6
CONTINUOUS
 62
           3
100
AcDbLine
 10
3360.899997019717
 20
1390.000000596097
 11
3362.899997347714
 21
1390.000000596097
  0
LINE
  5
187
100
AcDbEntity
  8
0
  6
CONTINUOUS
 62
           3
100
AcDbLine
 10
3362.899997347714
 20
1390.000000596097
 11
3362.899997347714
 21
1391.199998557593
  0
LINE
  5
186
100
AcDbEntity
  8
0
  6
CONTINUOUS
 62
           3
100
AcDbLine
 10
3412.399996613573
 20
1391.199998557593
 11
3412.649996654573
 21
1391.199998557593
  0
LINE
  5
185
100
AcDbEntity
  8
0
  6
CONTINUOUS
 62
           3
100
AcDbLine
 10
3412.649996654573
 20
1391.199998557593
 11
3412.649996654573
 21
1390.000000596097
  0
LINE
  5
184
100
AcDbEntity
  8
0
  6
CONTINUOUS
 62
           3
100
AcDbLine
 10
3445.899996051146
 20
1391.199998557593
 11
3435.899996274754
 21
1391.199998557593
  0
LINE
  5
183
100
AcDbEntity
  8
0
  6
CONTINUOUS
 62
           3
100
AcDbLine
 10
3445.899996051146
 20
1390.000000596097
 11
3435.899996274754
 21
1390.000000596097
  0
LINE
  5
182
100
AcDbEntity
  8
0
  6
CONTINUOUS
 62
           3
100
AcDbLine
 10
3445.899996051146
 20
1391.199998557593
 11
3445.899996051146
 21
1390.000000596097
  0
LINE
  5
181
100
AcDbEntity
  8
0
  6
CONTINUOUS
 62
           3
100
AcDbLine
 10
3410.649996792476
 20
1550.000000744964
 11
3412.649996654573
 21
1550.000000744964
  0
LINE
  5
180
100
AcDbEntity
  8
0
  6
CONTINUOUS
 62
           3
100
AcDbLine
 10
3412.649996654573
 20
1548.799999058065
 11
3410.649996792476
 21
1548.799999058065
  0
LINE
  5
17F
100
AcDbEntity
  8
0
  6
CONTINUOUS
 62
           3
100
AcDbLine
 10
3412.649996654573
 20
1550.000000744964
 11
3412.649996654573
 21
1548.799999058065
  0
LINE
  5
17E
100
AcDbEntity
  8
0
  6
CONTINUOUS
 62
           3
100
AcDbLine
 10
3423.899997101564
 20
1391.199998557593
 11
3435.899996274754
 21
1391.199998557593
  0
LINE
  5
17D
100
AcDbEntity
  8
0
  6
CONTINUOUS
 62
           3
100
AcDbLine
 10
3423.899997101564
 20
1390.000000596097
 11
3435.899996274754
 21
1390.000000596097
  0
LINE
  5
17C
100
AcDbEntity
  8
0
  6
CONTINUOUS
 62
           3
100
AcDbLine
 10
3435.899996274754
 20
1391.199998557593
 11
3435.899996274754
 21
1390.000000596097
  0
LINE
  5
17B
100
AcDbEntity
  8
0
  6
CONTINUOUS
 62
           3
100
AcDbLine
 10
3385.899997392196
 20
1391.199998557593
 11
3395.899997168587
 21
1391.199998557593
  0
LINE
  5
17A
100
AcDbEntity
  8
0
  6
CONTINUOUS
 62
           3
100
AcDbLine
 10
3385.899997392196
 20
1390.000000596097
 11
3395.899997168587
 21
1390.000000596097
  0
LINE
  5
179
100
AcDbEntity
  8
0
  6
CONTINUOUS
 62
           3
100
AcDbLine
 10
3385.899997392196
 20
1391.199998557593
 11
3385.899997392196
 21
1390.000000596097
  0
LINE
  5
178
100
AcDbEntity
  8
0
  6
CONTINUOUS
 62
           3
100
AcDbLine
 10
3419.149996788769
 20
1550.000000744964
 11
3421.149996650866
 21
1550.000000744964
  0
LINE
  5
177
100
AcDbEntity
  8
0
  6
CONTINUOUS
 62
           3
100
AcDbLine
 10
3421.149996650866
 20
1548.799999058065
 11
3419.149996788769
 21
1548.799999058065
  0
LINE
  5
176
100
AcDbEntity
  8
0
  6
CONTINUOUS
 62
           3
100
AcDbLine
 10
3419.149996788769
 20
1548.799999058065
 11
3419.149996788769
 21
1550.000000744964
  0
LINE
  5
175
100
AcDbEntity
  8
0
  6
CONTINUOUS
 62
           3
100
AcDbLine
 10
3445.899996051146
 20
1550.000000744964
 11
3435.899996274754
 21
1550.000000744964
  0
LINE
  5
174
100
AcDbEntity
  8
0
  6
CONTINUOUS
 62
           3
100
AcDbLine
 10
3445.899996051146
 20
1548.799999058065
 11
3435.899996274754
 21
1548.799999058065
  0
LINE
  5
173
100
AcDbEntity
  8
0
  6
CONTINUOUS
 62
           3
100
AcDbLine
 10
3445.899996051146
 20
1548.799999058065
 11
3445.899996051146
 21
1550.000000744964
  0
LINE
  5
172
100
AcDbEntity
  8
0
  6
CONTINUOUS
 62
           3
100
AcDbLine
 10
3419.149996788769
 20
1391.199998557593
 11
3419.399996829769
 21
1391.199998557593
  0
LINE
  5
171
100
AcDbEntity
  8
0
  6
CONTINUOUS
 62
           3
100
AcDbLine
 10
3419.149996788769
 20
1390.000000596097
 11
3419.149996788769
 21
1391.199998557593
  0
LINE
  5
170
100
AcDbEntity
  8
0
  6
CONTINUOUS
 62
           3
100
AcDbLine
 10
3395.899997168587
 20
1391.199998557593
 11
3407.899996341776
 21
1391.199998557593
  0
LINE
  5
16F
100
AcDbEntity
  8
0
  6
CONTINUOUS
 62
           3
100
AcDbLine
 10
3395.899997168587
 20
1390.000000596097
 11
3407.899996341776
 21
1390.000000596097
  0
LINE
  5
16E
100
AcDbEntity
  8
0
  6
CONTINUOUS
 62
           3
100
AcDbLine
 10
3395.899997168587
 20
1391.199998557593
 11
3395.899997168587
 21
1390.000000596097
  0
LINE
  5
16D
100
AcDbEntity
  8
0
  6
CONTINUOUS
 62
           3
100
AcDbLine
 10
3395.899997168587
 20
1550.000000744964
 11
3410.649996792476
 21
1550.000000744964
  0
LINE
  5
16C
100
AcDbEntity
  8
0
  6
CONTINUOUS
 62
           3
100
AcDbLine
 10
3395.899997168587
 20
1548.799999058065
 11
3410.649996792476
 21
1548.799999058065
  0
LINE
  5
16B
100
AcDbEntity
  8
0
  6
CONTINUOUS
 62
           3
100
AcDbLine
 10
3421.149996650866
 20
1550.000000744964
 11
3435.899996274754
 21
1550.000000744964
  0
LINE
  5
16A
100
AcDbEntity
  8
0
  6
CONTINUOUS
 62
           3
100
AcDbLine
 10
3421.149996650866
 20
1548.799999058065
 11
3435.899996274754
 21
1548.799999058065
  0
LINE
  5
169
100
AcDbEntity
  8
0
  6
CONTINUOUS
 62
           3
100
AcDbLine
 10
3435.899996274754
 20
1548.799999058065
 11
3435.899996274754
 21
1550.000000744964
  0
LINE
  5
168
100
AcDbEntity
  8
0
  6
CONTINUOUS
 62
           3
100
AcDbLine
 10
3385.899997392196
 20
1548.799999058065
 11
3385.899997392196
 21
1550.000000744964
  0
LINE
  5
167
100
AcDbEntity
  8
0
  6
CONTINUOUS
 62
           3
100
AcDbLine
 10
3385.899997392196
 20
1548.799999058065
 11
3395.899997168587
 21
1548.799999058065
  0
LINE
  5
166
100
AcDbEntity
  8
0
  6
CONTINUOUS
 62
           3
100
AcDbLine
 10
3395.899997168587
 20
1548.799999058065
 11
3395.899997168587
 21
1550.000000744964
  0
LINE
  5
165
100
AcDbEntity
  8
0
  6
CONTINUOUS
 62
           3
100
AcDbLine
 10
3385.899997392196
 20
1550.000000744964
 11
3395.899997168587
 21
1550.000000744964
  0
LINE
  5
164
100
AcDbEntity
  8
0
  6
CONTINUOUS
 62
           3
100
AcDbLine
 10
3423.899997101564
 20
1389.200001954996
 11
3423.899997101564
 21
1388.276241719796
  0
LINE
  5
163
100
AcDbEntity
  8
0
  6
CONTINUOUS
 62
           3
100
AcDbLine
 10
3407.899996341776
 20
1389.200001954996
 11
3407.899996341776
 21
1388.276241719796
  0
LINE
  5
162
100
AcDbEntity
  8
0
  6
CONTINUOUS
 62
           3
100
AcDbLine
 10
3410.899996833476
 20
1388.276241719796
 11
3407.899996341776
 21
1388.276241719796
  0
LINE
  5
161
100
AcDbEntity
  8
0
  6
CONTINUOUS
 62
           3
100
AcDbLine
 10
3423.899997101564
 20
1388.276241719796
 11
3420.899996609866
 21
1388.276241719796
  0
LINE
  5
160
100
AcDbEntity
  8
0
  6
CONTINUOUS
 62
           3
100
AcDbLine
 10
3418.399996665768
 20
1384.1999992729
 11
3420.899996609913
 21
1384.1999992729
  0
LINE
  5
15F
100
AcDbEntity
  8
0
  6
CONTINUOUS
 62
           3
100
AcDbLine
 10
3410.899996833438
 20
1384.1999992729
 11
3413.399996777557
 21
1384.1999992729
  0
LINE
  5
15E
100
AcDbEntity
  8
0
  6
CONTINUOUS
 62
           3
100
AcDbLine
 10
3420.899996609866
 20
1384.646579623302
 11
3420.899996609866
 21
1389.100000262195
  0
LINE
  5
15D
100
AcDbEntity
  8
0
  6
CONTINUOUS
 62
           3
100
AcDbLine
 10
3410.899996833476
 20
1384.646579623302
 11
3410.899996833476
 21
1389.100000262195
  0
LINE
  5
15C
100
AcDbEntity
  8
0
  6
CONTINUOUS
 62
           3
100
AcDbLine
 10
3410.899996833476
 20
1384.646579623302
 11
3413.399996777557
 21
1384.1999992729
  0
LINE
  5
15B
100
AcDbEntity
  8
0
  6
CONTINUOUS
 62
           3
100
AcDbLine
 10
3415.899996721674
 20
1384.646579623295
 11
3415.899996721671
 21
1389.100000262195
  0
LINE
  5
15A
100
AcDbEntity
  8
0
  6
CONTINUOUS
 62
           3
100
AcDbLine
 10
3413.399996777557
 20
1384.1999992729
 11
3418.399996665768
 21
1384.1999992729
  0
LINE
  5
159
100
AcDbEntity
  8
0
  6
CONTINUOUS
 62
           3
100
AcDbLine
 10
3415.899996721674
 20
1384.646579623295
 11
3418.399996665768
 21
1384.1999992729
  0
LINE
  5
158
100
AcDbEntity
  8
0
  6
CONTINUOUS
 62
           3
100
AcDbLine
 10
3412.399996613573
 20
1389.200001954996
 11
3419.399996829769
 21
1389.200001954996
  0
LINE
  5
157
100
AcDbEntity
  8
0
  6
CONTINUOUS
 62
           3
100
AcDbLine
 10
3412.399996613573
 20
1390.000000596097
 11
3419.399996829769
 21
1390.000000596097
  0
LINE
  5
156
100
AcDbEntity
  8
0
  6
CONTINUOUS
 62
           3
100
AcDbLine
 10
3419.399996829769
 20
1393.990144133491
 11
3412.399996613573
 21
1393.990144133491
  0
LINE
  5
155
100
AcDbEntity
  8
0
  6
CONTINUOUS
 62
           3
100
AcDbLine
 10
3412.899996695574
 20
1392.246469855294
 11
3412.399996613573
 21
1392.246469855294
  0
LINE
  5
154
100
AcDbEntity
  8
0
  6
CONTINUOUS
 62
           3
100
AcDbLine
 10
3419.399996829769
 20
1392.246469855294
 11
3418.899996747769
 21
1392.246469855294
  0
LINE
  5
153
100
AcDbEntity
  8
0
  6
CONTINUOUS
 62
           3
100
AcDbLine
 10
3423.899997101564
 20
1394.799999892894
 11
3423.899997101564
 21
1389.200001954996
  0
LINE
  5
152
100
AcDbEntity
  8
0
  6
CONTINUOUS
 62
           3
100
AcDbLine
 10
3407.899996341776
 20
1394.799999892894
 11
3407.899996341776
 21
1389.200001954996
  0
LINE
  5
151
100
AcDbEntity
  8
0
  6
CONTINUOUS
 62
           3
100
AcDbLine
 10
3412.399996613573
 20
1389.200001954996
 11
3412.399996613573
 21
1394.799999892894
  0
LINE
  5
150
100
AcDbEntity
  8
0
  6
CONTINUOUS
 62
           3
100
AcDbLine
 10
3419.399996829769
 20
1394.799999892894
 11
3419.399996829769
 21
1389.200001954996
  0
LINE
  5
14F
100
AcDbEntity
  8
0
  6
CONTINUOUS
 62
           3
100
AcDbLine
 10
3412.399996613573
 20
1389.200001954996
 11
3407.899996341776
 21
1389.200001954996
  0
LINE
  5
14E
100
AcDbEntity
  8
0
  6
CONTINUOUS
 62
           3
100
AcDbLine
 10
3412.399996613573
 20
1394.792847335491
 11
3419.399996829769
 21
1394.792847335491
  0
LINE
  5
14D
100
AcDbEntity
  8
0
  6
CONTINUOUS
 62
           3
100
AcDbLine
 10
3423.899997101564
 20
1389.200001954996
 11
3419.399996829769
 21
1389.200001954996
  0
LINE
  5
14C
100
AcDbEntity
  8
0
  6
CONTINUOUS
 62
           3
100
AcDbLine
 10
3417.899996816569
 20
1638.422653078993
 11
3413.899996626772
 21
1638.422653078993
  0
LINE
  5
14B
100
AcDbEntity
  8
0
  6
CONTINUOUS
 62
           3
100
AcDbLine
 10
3412.899996695574
 20
1637.422651052293
 11
3418.899996747769
 21
1637.422651052293
  0
LINE
  5
14A
100
AcDbEntity
  8
0
  6
CONTINUOUS
 62
           3
100
AcDbLine
 10
3361.899995321016
 20
1665.000006556369
 11
3365.899995976712
 21
1665.000006556369
  0
LINE
  5
149
100
AcDbEntity
  8
0
  6
CONTINUOUS
 62
           3
100
AcDbLine
 10
3365.899995976712
 20
1665.000006556369
 11
3369.899996632409
 21
1665.000006556369
  0
LINE
  5
148
100
AcDbEntity
  8
0
  6
CONTINUOUS
 62
           3
100
AcDbLine
 10
3411.569869687342
 20
1367.599993944255
 11
3410.899996833476
 21
1367.599993944114
  0
LINE
  5
147
100
AcDbEntity
  8
0
  6
CONTINUOUS
 62
           3
100
AcDbLine
 10
3420.899996609866
 20
1367.599993944114
 11
3420.23012375601
 21
1367.599993944255
  0
LINE
  5
146
100
AcDbEntity
  8
0
  6
CONTINUOUS
 62
           3
100
AcDbLine
 10
3411.569869687342
 20
1372.600004077041
 11
3410.899996833476
 21
1372.600004077009
  0
LINE
  5
145
100
AcDbEntity
  8
0
  6
CONTINUOUS
 62
           3
100
AcDbLine
 10
3420.23012375601
 20
1367.599993944255
 11
3415.899996721674
 21
1367.599993944255
  0
LINE
  5
144
100
AcDbEntity
  8
0
  6
CONTINUOUS
 62
           3
100
AcDbLine
 10
3415.899996721674
 20
1367.599993944255
 11
3411.569869687342
 21
1367.599993944255
  0
LINE
  5
143
100
AcDbEntity
  8
0
  6
CONTINUOUS
 62
           3
100
AcDbLine
 10
3410.126493853974
 20
1372.153416276109
 11
3410.126493853974
 21
1368.046581745311
  0
LINE
  5
142
100
AcDbEntity
  8
0
  6
CONTINUOUS
 62
           3
100
AcDbLine
 10
3410.126493853974
 20
1368.046581745311
 11
3411.569869687342
 21
1367.599993944255
  0
LINE
  5
141
100
AcDbEntity
  8
0
  6
CONTINUOUS
 62
           3
100
AcDbLine
 10
3413.013245287843
 20
1372.153416276062
 11
3411.569869687342
 21
1372.600004077041
  0
LINE
  5
140
100
AcDbEntity
  8
0
  6
CONTINUOUS
 62
           3
100
AcDbLine
 10
3418.786748155369
 20
1368.046581745311
 11
3420.23012375601
 21
1367.599993944255
  0
LINE
  5
13F
100
AcDbEntity
  8
0
  6
CONTINUOUS
 62
           3
100
AcDbLine
 10
3421.673499589368
 20
1372.153416276109
 11
3421.673499589368
 21
1368.046581745311
  0
LINE
  5
13E
100
AcDbEntity
  8
0
  6
CONTINUOUS
 62
           3
100
AcDbLine
 10
3421.673499589368
 20
1372.153416276109
 11
3420.23012375601
 21
1372.600004077041
  0
LINE
  5
13D
100
AcDbEntity
  8
0
  6
CONTINUOUS
 62
           3
100
AcDbLine
 10
3413.013245287843
 20
1372.153416276062
 11
3413.013245287843
 21
1368.046581745235
  0
LINE
  5
13C
100
AcDbEntity
  8
0
  6
CONTINUOUS
 62
           3
100
AcDbLine
 10
3418.786748155508
 20
1372.153416276062
 11
3418.786748155369
 21
1368.046581745311
  0
LINE
  5
13B
100
AcDbEntity
  8
0
  6
CONTINUOUS
 62
           3
100
AcDbLine
 10
3420.899996609866
 20
1372.600004077009
 11
3420.23012375601
 21
1372.600004077041
  0
LINE
  5
13A
100
AcDbEntity
  8
0
  6
CONTINUOUS
 62
           3
100
AcDbLine
 10
3420.899996609866
 20
1377.599999308604
 11
3420.23012375601
 21
1377.599999308666
  0
LINE
  5
139
100
AcDbEntity
  8
0
  6
CONTINUOUS
 62
           3
100
AcDbLine
 10
3411.569869687342
 20
1377.599999308666
 11
3410.899996833476
 21
1377.599999308604
  0
LINE
  5
138
100
AcDbEntity
  8
0
  6
CONTINUOUS
 62
           3
100
AcDbLine
 10
3415.899996721674
 20
1372.600004077041
 11
3411.569869687342
 21
1372.600004077041
  0
LINE
  5
137
100
AcDbEntity
  8
0
  6
CONTINUOUS
 62
           3
100
AcDbLine
 10
3420.23012375601
 20
1372.600004077041
 11
3415.899996721674
 21
1372.600004077041
  0
LINE
  5
136
100
AcDbEntity
  8
0
  6
CONTINUOUS
 62
           3
100
AcDbLine
 10
3415.899996721674
 20
1377.599999308666
 11
3411.569869687342
 21
1377.599999308666
  0
LINE
  5
135
100
AcDbEntity
  8
0
  6
CONTINUOUS
 62
           3
100
AcDbLine
 10
3410.126493853974
 20
1377.153418958205
 11
3410.126493853974
 21
1373.046576976911
  0
LINE
  5
134
100
AcDbEntity
  8
0
  6
CONTINUOUS
 62
           3
100
AcDbLine
 10
3410.126493853974
 20
1373.046576976911
 11
3411.569869687342
 21
1372.600004077041
  0
LINE
  5
133
100
AcDbEntity
  8
0
  6
CONTINUOUS
 62
           3
100
AcDbLine
 10
3413.013245287843
 20
1377.153418958267
 11
3411.569869687342
 21
1377.599999308666
  0
LINE
  5
132
100
AcDbEntity
  8
0
  6
CONTINUOUS
 62
           3
100
AcDbLine
 10
3420.23012375601
 20
1377.599999308666
 11
3415.899996721674
 21
1377.599999308666
  0
LINE
  5
131
100
AcDbEntity
  8
0
  6
CONTINUOUS
 62
           3
100
AcDbLine
 10
3418.786748155369
 20
1373.046576976911
 11
3420.23012375601
 21
1372.600004077041
  0
LINE
  5
130
100
AcDbEntity
  8
0
  6
CONTINUOUS
 62
           3
100
AcDbLine
 10
3421.673499589368
 20
1377.153418958205
 11
3421.673499589368
 21
1373.046576976911
  0
LINE
  5
12F
100
AcDbEntity
  8
0
  6
CONTINUOUS
 62
           3
100
AcDbLine
 10
3421.673499589368
 20
1377.153418958205
 11
3420.23012375601
 21
1377.599999308666
  0
LINE
  5
12E
100
AcDbEntity
  8
0
  6
CONTINUOUS
 62
           3
100
AcDbLine
 10
3413.013245287843
 20
1377.153418958267
 11
3413.013245287843
 21
1373.04657697686
  0
LINE
  5
12D
100
AcDbEntity
  8
0
  6
CONTINUOUS
 62
           3
100
AcDbLine
 10
3418.786748155508
 20
1377.153418958267
 11
3418.786748155369
 21
1373.046576976911
  0
LINE
  5
12C
100
AcDbEntity
  8
0
  6
CONTINUOUS
 62
           3
100
AcDbLine
 10
3410.126493853974
 20
1364.553421735916
 11
3410.126493853974
 21
1360.446587205122
  0
LINE
  5
12B
100
AcDbEntity
  8
0
  6
CONTINUOUS
 62
           3
100
AcDbLine
 10
3410.126493853974
 20
1360.446587205122
 11
3411.569869687342
 21
1359.999999404048
  0
LINE
  5
12A
100
AcDbEntity
  8
0
  6
CONTINUOUS
 62
           3
100
AcDbLine
 10
3413.013245287843
 20
1364.553421735858
 11
3411.569869687342
 21
1364.999994635673
  0
LINE
  5
129
100
AcDbEntity
  8
0
  6
CONTINUOUS
 62
           3
100
AcDbLine
 10
3418.786748155369
 20
1360.446587205122
 11
3420.230123755968
 21
1359.999999403921
  0
LINE
  5
128
100
AcDbEntity
  8
0
  6
CONTINUOUS
 62
           3
100
AcDbLine
 10
3421.673499589368
 20
1364.553421735916
 11
3421.673499589368
 21
1360.446587205122
  0
LINE
  5
127
100
AcDbEntity
  8
0
  6
CONTINUOUS
 62
           3
100
AcDbLine
 10
3421.673499589368
 20
1364.553421735916
 11
3420.23012375601
 21
1364.999994635673
  0
LINE
  5
126
100
AcDbEntity
  8
0
  6
CONTINUOUS
 62
           3
100
AcDbLine
 10
3413.013245287843
 20
1364.553421735858
 11
3413.013245287843
 21
1360.446587205024
  0
LINE
  5
125
100
AcDbEntity
  8
0
  6
CONTINUOUS
 62
           3
100
AcDbLine
 10
3418.786748155508
 20
1364.553421735858
 11
3418.786748155369
 21
1360.446587205122
  0
LINE
  5
124
100
AcDbEntity
  8
0
  6
CONTINUOUS
 62
           3
100
AcDbLine
 10
3410.899996833476
 20
1359.999999403921
 11
3411.569869687342
 21
1359.999999404048
  0
LINE
  5
123
100
AcDbEntity
  8
0
  6
CONTINUOUS
 62
           3
100
AcDbLine
 10
3420.899996609866
 20
1355.000004172322
 11
3420.23012375601
 21
1355.00000417242
  0
LINE
  5
122
100
AcDbEntity
  8
0
  6
CONTINUOUS
 62
           3
100
AcDbLine
 10
3410.899996833476
 20
1355.000004172322
 11
3411.569869687342
 21
1355.00000417242
  0
LINE
  5
121
100
AcDbEntity
  8
0
  6
CONTINUOUS
 62
           3
100
AcDbLine
 10
3421.673499589368
 20
1355.446577072224
 11
3420.23012375601
 21
1355.00000417242
  0
LINE
  5
120
100
AcDbEntity
  8
0
  6
CONTINUOUS
 62
           3
100
AcDbLine
 10
3421.673499589368
 20
1355.446577072224
 11
3421.673499589368
 21
1359.553411603021
  0
LINE
  5
11F
100
AcDbEntity
  8
0
  6
CONTINUOUS
 62
           3
100
AcDbLine
 10
3410.126493853974
 20
1355.446577072224
 11
3410.126493853974
 21
1359.553411603021
  0
LINE
  5
11E
100
AcDbEntity
  8
0
  6
CONTINUOUS
 62
           3
100
AcDbLine
 10
3415.899996721674
 20
1359.999999404048
 11
3420.230123755968
 21
1359.999999403921
  0
LINE
  5
11D
100
AcDbEntity
  8
0
  6
CONTINUOUS
 62
           3
100
AcDbLine
 10
3418.786748155508
 20
1359.553411603069
 11
3420.230123755968
 21
1359.999999403921
  0
LINE
  5
11C
100
AcDbEntity
  8
0
  6
CONTINUOUS
 62
           3
100
AcDbLine
 10
3411.569869687342
 20
1359.999999404048
 11
3415.899996721674
 21
1359.999999404048
  0
LINE
  5
11B
100
AcDbEntity
  8
0
  6
CONTINUOUS
 62
           3
100
AcDbLine
 10
3411.569869687342
 20
1355.00000417242
 11
3415.899996721671
 21
1355.000004172322
  0
LINE
  5
11A
100
AcDbEntity
  8
0
  6
CONTINUOUS
 62
           3
100
AcDbLine
 10
3415.899996721671
 20
1355.000004172322
 11
3420.23012375601
 21
1355.00000417242
  0
LINE
  5
119
100
AcDbEntity
  8
0
  6
CONTINUOUS
 62
           3
100
AcDbLine
 10
3413.013245287973
 20
1359.553411603021
 11
3415.899996721674
 21
1359.999999404048
  0
LINE
  5
118
100
AcDbEntity
  8
0
  6
CONTINUOUS
 62
           3
100
AcDbLine
 10
3413.013245287843
 20
1355.446577072242
 11
3413.013245287973
 21
1359.553411603021
  0
LINE
  5
117
100
AcDbEntity
  8
0
  6
CONTINUOUS
 62
           3
100
AcDbLine
 10
3418.786748155369
 20
1355.446577072224
 11
3415.899996721671
 21
1355.000004172322
  0
LINE
  5
116
100
AcDbEntity
  8
0
  6
CONTINUOUS
 62
           3
100
AcDbLine
 10
3418.786748155369
 20
1355.446577072224
 11
3418.786748155508
 21
1359.553411603069
  0
LINE
  5
115
100
AcDbEntity
  8
0
  6
CONTINUOUS
 62
           3
100
AcDbLine
 10
3472.899996751325
 20
1393.799997866194
 11
3472.899996751325
 21
1543.800000101368
  0
LINE
  5
114
100
AcDbEntity
  8
0
  6
CONTINUOUS
 62
           3
100
AcDbLine
 10
3361.899995321016
 20
1543.800000101368
 11
3358.899996692017
 21
1543.800000101368
  0
LINE
  5
113
100
AcDbEntity
  8
0
  6
CONTINUOUS
 62
           3
100
AcDbLine
 10
3412.899996695574
 20
1543.800000101368
 11
3369.899996632409
 21
1543.800000101368
  0
LINE
  5
112
100
AcDbEntity
  8
0
  6
CONTINUOUS
 62
           3
100
AcDbLine
 10
3461.899996810932
 20
1543.800000101368
 11
3418.899996747769
 21
1543.800000101368
  0
LINE
  5
111
100
AcDbEntity
  8
0
  6
CONTINUOUS
 62
           3
100
AcDbLine
 10
3472.899996751325
 20
1543.800000101368
 11
3469.899998122327
 21
1543.800000101368
  0
LINE
  5
110
100
AcDbEntity
  8
0
  6
CONTINUOUS
 62
           3
100
AcDbLine
 10
3358.899996692017
 20
1543.800000101368
 11
3358.899996692017
 21
1393.799997866194
  0
LINE
  5
10F
100
AcDbEntity
  8
0
  6
CONTINUOUS
 62
           3
100
AcDbLine
 10
3469.899998122327
 20
1393.799997866194
 11
3472.899996751325
 21
1393.799997866194
  0
LINE
  5
10E
100
AcDbEntity
  8
0
  6
CONTINUOUS
 62
           3
100
AcDbLine
 10
3423.899997101564
 20
1393.799997866194
 11
3461.899996810932
 21
1393.799997866194
  0
LINE
  5
10D
100
AcDbEntity
  8
0
  6
CONTINUOUS
 62
           3
100
AcDbLine
 10
3369.899996632409
 20
1393.799997866194
 11
3407.899996341776
 21
1393.799997866194
  0
LINE
  5
10C
100
AcDbEntity
  8
0
  6
CONTINUOUS
 62
           3
100
AcDbLine
 10
3358.899996692017
 20
1393.799997866194
 11
3361.899995321016
 21
1393.799997866194
  0
LINE
  5
10B
100
AcDbEntity
  8
0
  6
CONTINUOUS
 62
           3
100
AcDbLine
 10
3409.426494029875
 20
1389.099999999995
 11
3422.373499413467
 21
1389.099999999995
  0
LINE
  5
10A
100
AcDbEntity
  8
0
  6
CONTINUOUS
 62
           3
100
AcDbLine
 10
3423.899997101564
 20
1394.799999892894
 11
3419.399996829769
 21
1394.799999892894
  0
LINE
  5
109
100
AcDbEntity
  8
0
  6
CONTINUOUS
 62
           3
100
AcDbLine
 10
3412.399996613573
 20
1394.799999892894
 11
3407.899996341776
 21
1394.799999892894
  0
LINE
  5
108
100
AcDbEntity
  8
0
  6
CONTINUOUS
 62
           3
100
AcDbLine
 10
3413.899996626772
 20
1638.422653078993
 11
3412.899996695574
 21
1637.422651052293
  0
LINE
  5
107
100
AcDbEntity
  8
0
  6
CONTINUOUS
 62
           3
100
AcDbLine
 10
3418.899996747769
 20
1637.422651052293
 11
3417.899996816569
 21
1638.422653078993
  0
LINE
  5
106
100
AcDbEntity
  8
0
  6
CONTINUOUS
 62
           3
100
AcDbLine
 10
3412.899996695574
 20
1367.599993944114
 11
3412.899996695574
 21
1366.600006818713
  0
LINE
  5
105
100
AcDbEntity
  8
0
  6
CONTINUOUS
 62
           3
100
AcDbLine
 10
3412.899996695574
 20
1384.1999992729
 11
3412.899996695574
 21
1377.599999308604
  0
LINE
  5
104
100
AcDbEntity
  8
0
  6
CONTINUOUS
 62
           3
100
AcDbLine
 10
3412.899996695574
 20
1392.957426607594
 11
3412.899996695574
 21
1390.000000596097
  0
LINE
  5
103
100
AcDbEntity
  8
0
  6
CONTINUOUS
 62
           3
100
AcDbLine
 10
3412.899996695574
 20
1633.399993180996
 11
3412.899996695574
 21
1394.792847335491
  0
LINE
  5
102
100
AcDbEntity
  8
0
  6
CONTINUOUS
 62
           3
100
AcDbLine
 10
3412.899996695574
 20
1637.422651052293
 11
3412.899996695574
 21
1635.000005364196
  0
LINE
  5
101
100
AcDbEntity
  8
0
  6
CONTINUOUS
 62
           3
100
AcDbLine
 10
3418.899996747769
 20
1635.000005364196
 11
3418.899996747769
 21
1637.422651052293
  0
LINE
  5
100
100
AcDbEntity
  8
0
  6
CONTINUOUS
 62
           3
100
AcDbLine
 10
3418.899996747769
 20
1394.792847335491
 11
3418.899996747769
 21
1633.399993180996
  0
LINE
  5
FF
100
AcDbEntity
  8
0
  6
CONTINUOUS
 62
           3
100
AcDbLine
 10
3418.899996747769
 20
1390.000000596097
 11
3418.899996747769
 21
1392.957426607594
  0
LINE
  5
FE
100
AcDbEntity
  8
0
  6
CONTINUOUS
 62
           3
100
AcDbLine
 10
3418.899996747769
 20
1377.599999308604
 11
3418.899996747769
 21
1384.1999992729
  0
LINE
  5
FD
100
AcDbEntity
  8
0
  6
CONTINUOUS
 62
           3
100
AcDbLine
 10
3418.899996747769
 20
1366.600006818713
 11
3418.899996747769
 21
1367.599993944114
  0
LINE
  5
FC
100
AcDbEntity
  8
0
  6
CONTINUOUS
 62
           3
100
AcDbLine
 10
3369.899996632409
 20
1635.000005364196
 11
3369.899996632409
 21
1665.000006556369
  0
LINE
  5
FB
100
AcDbEntity
  8
0
  6
CONTINUOUS
 62
           3
100
AcDbLine
 10
3369.899996632409
 20
1550.000000744964
 11
3369.899996632409
 21
1633.399993180996
  0
LINE
  5
FA
100
AcDbEntity
  8
0
  6
CONTINUOUS
 62
           3
100
AcDbLine
 10
3369.899996632409
 20
1391.199998557593
 11
3369.899996632409
 21
1548.799999058065
  0
LINE
  5
F9
100
AcDbEntity
  8
0
  6
CONTINUOUS
 62
           3
100
AcDbLine
 10
3369.899996632409
 20
1366.600006818713
 11
3369.899996632409
 21
1390.000000596097
  0
LINE
  5
F8
100
AcDbEntity
  8
0
  6
CONTINUOUS
 62
           3
100
AcDbLine
 10
3361.899995321016
 20
1364.999994635815
 11
3361.899995321016
 21
1314.999997615956
  0
LINE
  5
F7
100
AcDbEntity
  8
0
  6
CONTINUOUS
 62
           3
100
AcDbLine
 10
3361.899995321016
 20
1390.000000596097
 11
3361.899995321016
 21
1366.600006818713
  0
LINE
  5
F6
100
AcDbEntity
  8
0
  6
CONTINUOUS
 62
           3
100
AcDbLine
 10
3361.899995321016
 20
1548.799999058065
 11
3361.899995321016
 21
1391.199998557593
  0
LINE
  5
F5
100
AcDbEntity
  8
0
  6
CONTINUOUS
 62
           3
100
AcDbLine
 10
3361.899995321016
 20
1633.399993180996
 11
3361.899995321016
 21
1550.000000744964
  0
LINE
  5
F4
100
AcDbEntity
  8
0
  6
CONTINUOUS
 62
           3
100
AcDbLine
 10
3361.899995321016
 20
1665.000006556369
 11
3361.899995321016
 21
1635.000005364196
  0
LINE
  5
F3
100
AcDbEntity
  8
0
  6
CONTINUOUS
 62
           3
100
AcDbLine
 10
3469.899998122327
 20
1635.000005364196
 11
3469.899998122327
 21
1641.000000000001
  0
LINE
  5
F2
100
AcDbEntity
  8
0
  6
CONTINUOUS
 62
           3
100
AcDbLine
 10
3469.899998122327
 20
1550.000000744964
 11
3469.899998122327
 21
1633.399993180996
  0
LINE
  5
F1
100
AcDbEntity
  8
0
  6
CONTINUOUS
 62
           3
100
AcDbLine
 10
3469.899998122327
 20
1391.199998557593
 11
3469.899998122327
 21
1548.799999058065
  0
LINE
  5
F0
100
AcDbEntity
  8
0
  6
CONTINUOUS
 62
           3
100
AcDbLine
 10
3469.899998122327
 20
1366.600006818713
 11
3469.899998122327
 21
1390.000000596097
  0
LINE
  5
EF
100
AcDbEntity
  8
0
  6
CONTINUOUS
 62
           3
100
AcDbLine
 10
3469.899998122327
 20
1314.999997615956
 11
3469.899998122327
 21
1364.999994635815
  0
LINE
  5
EE
100
AcDbEntity
  8
0
  6
CONTINUOUS
 62
           3
100
AcDbLine
 10
3461.899996810932
 20
1364.999994635815
 11
3461.899996810932
 21
1314.999997615956
  0
LINE
  5
ED
100
AcDbEntity
  8
0
  6
CONTINUOUS
 62
           3
100
AcDbLine
 10
3461.899996810932
 20
1390.000000596097
 11
3461.899996810932
 21
1366.600006818713
  0
LINE
  5
EC
100
AcDbEntity
  8
0
  6
CONTINUOUS
 62
           3
100
AcDbLine
 10
3461.899996810932
 20
1548.799999058065
 11
3461.899996810932
 21
1391.199998557593
  0
LINE
  5
EB
100
AcDbEntity
  8
0
  6
CONTINUOUS
 62
           3
100
AcDbLine
 10
3461.899996810932
 20
1633.399993180996
 11
3461.899996810932
 21
1550.000000744964
  0
LINE
  5
EA
100
AcDbEntity
  8
0
  6
CONTINUOUS
 62
           3
100
AcDbLine
 10
3461.899996810932
 20
1641.0
 11
3461.899996810932
 21
1635.000005364196
  0
LINE
  5
E9
100
AcDbEntity
  8
0
  6
CONTINUOUS
 62
           3
100
AcDbLine
 10
3410.126493853974
 20
1368.046581745311
 11
3410.899996833476
 21
1367.599993944114
  0
LINE
  5
E8
100
AcDbEntity
  8
0
  6
CONTINUOUS
 62
           3
100
AcDbLine
 10
3420.899996609866
 20
1367.599993944114
 11
3421.673499589368
 21
1368.046581745311
  0
LINE
  5
E7
100
AcDbEntity
  8
0
  6
CONTINUOUS
 62
           3
100
AcDbLine
 10
3421.673499589368
 20
1372.153416276109
 11
3420.899996609866
 21
1372.600004077009
  0
LINE
  5
E6
100
AcDbEntity
  8
0
  6
CONTINUOUS
 62
           3
100
AcDbLine
 10
3410.899996833476
 20
1372.600004077009
 11
3410.126493853974
 21
1372.153416276109
  0
LINE
  5
E5
100
AcDbEntity
  8
0
  6
CONTINUOUS
 62
           3
100
AcDbLine
 10
3410.126493853974
 20
1373.046576976911
 11
3410.899996833476
 21
1372.600004077009
  0
LINE
  5
E4
100
AcDbEntity
  8
0
  6
CONTINUOUS
 62
           3
100
AcDbLine
 10
3420.899996609866
 20
1372.600004077009
 11
3421.673499589368
 21
1373.046576976911
  0
LINE
  5
E3
100
AcDbEntity
  8
0
  6
CONTINUOUS
 62
           3
100
AcDbLine
 10
3421.673499589368
 20
1377.153418958205
 11
3420.899996609866
 21
1377.599999308604
  0
LINE
  5
E2
100
AcDbEntity
  8
0
  6
CONTINUOUS
 62
           3
100
AcDbLine
 10
3410.899996833476
 20
1377.599999308604
 11
3410.126493853974
 21
1377.153418958205
  0
LINE
  5
E1
100
AcDbEntity
  8
0
  6
CONTINUOUS
 62
           3
100
AcDbLine
 10
3410.126493853974
 20
1360.446587205122
 11
3410.899996833476
 21
1359.999999403921
  0
LINE
  5
E0
100
AcDbEntity
  8
0
  6
CONTINUOUS
 62
           3
100
AcDbLine
 10
3420.899996609866
 20
1359.999999403921
 11
3421.673499589368
 21
1360.446587205122
  0
LINE
  5
DF
100
AcDbEntity
  8
0
  6
CONTINUOUS
 62
           3
100
AcDbLine
 10
3421.673499589368
 20
1364.553421735916
 11
3420.899996609866
 21
1364.999994635815
  0
LINE
  5
DE
100
AcDbEntity
  8
0
  6
CONTINUOUS
 62
           3
100
AcDbLine
 10
3410.899996833476
 20
1364.999994635815
 11
3410.126493853974
 21
1364.553421735916
  0
LINE
  5
DD
100
AcDbEntity
  8
0
  6
CONTINUOUS
 62
           3
100
AcDbLine
 10
3421.673499589368
 20
1359.553411603021
 11
3420.899996609866
 21
1359.999999403921
  0
LINE
  5
DC
100
AcDbEntity
  8
0
  6
CONTINUOUS
 62
           3
100
AcDbLine
 10
3410.899996833476
 20
1359.999999403921
 11
3410.126493853974
 21
1359.553411603021
  0
LINE
  5
DB
100
AcDbEntity
  8
0
  6
CONTINUOUS
 62
           3
100
AcDbLine
 10
3420.899996609866
 20
1355.000004172322
 11
3421.673499589368
 21
1355.446577072224
  0
LINE
  5
DA
100
AcDbEntity
  8
0
  6
CONTINUOUS
 62
           3
100
AcDbLine
 10
3410.126493853974
 20
1355.446577072224
 11
3410.899996833476
 21
1355.000004172322
  0
LINE
  5
D9
100
AcDbEntity
  8
0
  6
CONTINUOUS
 62
           3
100
AcDbLine
 10
3369.899996632409
 20
1314.999997615956
 11
3369.899996632409
 21
1364.999994635815
  0
LINE
  5
D8
100
AcDbEntity
  8
1
  6
CONTINUOUS
 62
           3
100
AcDbLine
 10
3897.500000000004
 20
1929.0
 11
3749.899996810932
 21
1929.0
  0
LINE
  5
D7
100
AcDbEntity
  8
1
  6
CONTINUOUS
 62
           3
100
AcDbLine
 10
3897.500000000004
 20
1921.000000000001
 11
3749.899998122327
 21
1921.000000000001
  0
LINE
  5
D6
100
AcDbEntity
  8
1
  6
CONTINUOUS
 62
           7
100
AcDbLine
 10
3050.000000000004
 20
1752.999999999999
 11
3050.000000000004
 21
1639.999999999999
  0
LINE
  5
D5
100
AcDbEntity
  8
1
  6
CONTINUOUS
 62
           7
100
AcDbLine
 10
3230.000000000005
 20
1753.0
 11
3050.000000000004
 21
1752.999999999999
  0
LINE
  5
D4
100
AcDbEntity
  8
1
  6
CONTINUOUS
 62
           7
100
AcDbLine
 10
3230.000000000005
 20
1639.999999999999
 11
3230.000000000005
 21
1753.0
  0
LINE
  5
D3
100
AcDbEntity
  8
1
  6
CONTINUOUS
 62
           7
100
AcDbLine
 10
3050.000000000004
 20
1639.999999999999
 11
3230.000000000005
 21
1639.999999999999
  0
LINE
  5
D2
100
AcDbEntity
  8
1
  6
CONTINUOUS
 62
           7
100
AcDbLine
 10
-569.497691536608
 20
986.513526798371
 11
575.0
 21
986.513526798371
  0
LINE
  5
D1
100
AcDbEntity
  8
1
  6
CONTINUOUS
 62
           4
100
AcDbLine
 10
3520.000000000005
 20
1800.831132334586
 11
3520.000000000004
 21
520.0
  0
LINE
  5
D0
100
AcDbEntity
  8
1
  6
CONTINUOUS
 62
           7
100
AcDbLine
 10
3500.000000000005
 20
1784.157226830845
 11
3500.000000000004
 21
2000.0
  0
LINE
  5
CF
100
AcDbEntity
  8
1
  6
CONTINUOUS
 62
           4
100
AcDbLine
 10
3480.000000000005
 20
1741.488764155307
 11
3480.000000000004
 21
1980.0
  0
LINE
  5
CE
100
AcDbEntity
  8
1
  6
CONTINUOUS
 62
           7
100
AcDbLine
 10
2500.000000000004
 20
2150.0
 11
2520.000000000005
 21
2150.0
  0
LINE
  5
CD
100
AcDbEntity
  8
1
  6
CONTINUOUS
 62
           7
100
AcDbLine
 10
2500.000000000003
 20
2050.0
 11
2500.000000000004
 21
2150.0
  0
LINE
  5
CC
100
AcDbEntity
  8
1
  6
CONTINUOUS
 62
           4
100
AcDbLine
 10
3520.000000000004
 20
1980.0
 11
3520.000000000005
 21
1814.464669216342
  0
LINE
  5
CB
100
AcDbEntity
  8
1
  6
CONTINUOUS
 62
           4
100
AcDbLine
 10
4480.000000000002
 20
1980.0
 11
3520.000000000004
 21
1980.0
  0
LINE
  5
CA
100
AcDbEntity
  8
1
  6
CONTINUOUS
 62
           4
100
AcDbLine
 10
4480.000000000003
 20
520.0
 11
4480.000000000002
 21
1980.0
  0
LINE
  5
C9
100
AcDbEntity
  8
1
  6
CONTINUOUS
 62
           4
100
AcDbLine
 10
3520.000000000004
 20
520.0
 11
4480.000000000003
 21
520.0
  0
LINE
  5
C8
100
AcDbEntity
  8
1
  6
CONTINUOUS
 62
           4
100
AcDbLine
 10
3480.000000000004
 20
520.0
 11
3480.000000000005
 21
1715.525103244275
  0
LINE
  5
C7
100
AcDbEntity
  8
1
  6
CONTINUOUS
 62
           4
100
AcDbLine
 10
3020.000000000004
 20
520.0
 11
3480.000000000004
 21
520.0
  0
LINE
  5
C6
100
AcDbEntity
  8
1
  6
CONTINUOUS
 62
           4
100
AcDbLine
 10
3020.000000000004
 20
1980.0
 11
3020.000000000004
 21
520.0
  0
LINE
  5
C5
100
AcDbEntity
  8
1
  6
CONTINUOUS
 62
           4
100
AcDbLine
 10
3480.000000000004
 20
1980.0
 11
3020.000000000004
 21
1980.0
  0
LINE
  5
C4
100
AcDbEntity
  8
1
  6
CONTINUOUS
 62
           7
100
AcDbLine
 10
3500.000000000004
 20
500.0
 11
3500.000000000005
 21
1767.293273528178
  0
LINE
  5
C3
100
AcDbEntity
  8
1
  6
CONTINUOUS
 62
           4
100
AcDbLine
 10
4479.433325304565
 20
20.0
 11
4479.433325304565
 21
479.385061529882
  0
LINE
  5
C2
100
AcDbEntity
  8
1
  6
CONTINUOUS
 62
           4
100
AcDbLine
 10
3020.000000000004
 20
20.0
 11
4479.433325304565
 21
20.0
  0
LINE
  5
C1
100
AcDbEntity
  8
1
  6
CONTINUOUS
 62
           4
100
AcDbLine
 10
3020.000000000004
 20
479.385061529882
 11
3020.000000000004
 21
20.0
  0
LINE
  5
C0
100
AcDbEntity
  8
1
  6
CONTINUOUS
 62
           4
100
AcDbLine
 10
4479.433325304565
 20
479.385061529882
 11
3020.000000000004
 21
479.385061529882
  0
LINE
  5
BF
100
AcDbEntity
  8
1
  6
CONTINUOUS
 62
           7
100
AcDbLine
 10
3000.000000000004
 20
500.0
 11
4500.000000000003
 21
500.0
  0
LINE
  5
BE
100
AcDbEntity
  8
1
  6
CONTINUOUS
 62
           7
100
AcDbLine
 10
3000.000000000004
 20
0.0
 11
3000.000000000003
 21
2000.0
  0
LINE
  5
BD
100
AcDbEntity
  8
1
  6
CONTINUOUS
 62
           4
100
AcDbLine
 10
2520.000000000003
 20
1980.0
 11
2520.000000000003
 21
20.0
  0
LINE
  5
BC
100
AcDbEntity
  8
1
  6
CONTINUOUS
 62
           4
100
AcDbLine
 10
2980.000000000004
 20
1980.0
 11
2520.000000000003
 21
1980.0
  0
LINE
  5
BB
100
AcDbEntity
  8
1
  6
CONTINUOUS
 62
           4
100
AcDbLine
 10
2980.000000000004
 20
20.0
 11
2980.000000000004
 21
1980.0
  0
LINE
  5
BA
100
AcDbEntity
  8
1
  6
CONTINUOUS
 62
           4
100
AcDbLine
 10
2520.000000000003
 20
20.0
 11
2980.000000000004
 21
20.0
  0
LINE
  5
B9
100
AcDbEntity
  8
1
  6
CONTINUOUS
 62
           7
100
AcDbLine
 10
2500.000000000003
 20
0.0
 11
2500.000000000003
 21
2050.0
  0
LINE
  5
B8
100
AcDbEntity
  8
1
  6
CONTINUOUS
 62
           7
100
AcDbLine
 10
4500.000000000003
 20
0.0
 11
4500.000000000002
 21
2075.0
  0
LINE
  5
B7
100
AcDbEntity
  8
1
  6
CONTINUOUS
 62
           7
100
AcDbLine
 10
4500.000000000003
 20
2000.0
 11
2500.000000000003
 21
2000.0
  0
LINE
  5
B6
100
AcDbEntity
  8
1
  6
CONTINUOUS
 62
           4
100
AcDbLine
 10
2500.000000000003
 20
2003.0
 11
3500.000000000004
 21
2003.0
  0
LINE
  5
B5
100
AcDbEntity
  8
1
  6
CONTINUOUS
 62
           7
100
AcDbLine
 10
2500.000000000003
 20
2050.0
 11
4500.000000000003
 21
2050.0
  0
LINE
  5
B4
100
AcDbEntity
  8
1
  6
CONTINUOUS
 62
           7
100
AcDbLine
 10
3500.000000000004
 20
2000.0
 11
3500.000000000004
 21
2075.0
  0
LINE
  5
B3
100
AcDbEntity
  8
1
  6
CONTINUOUS
 62
           7
100
AcDbLine
 10
3500.000000000004
 20
2075.0
 11
4500.000000000002
 21
2075.0
  0
LINE
  5
B2
100
AcDbEntity
  8
1
  6
DOT_CENTER
 62
           2
100
AcDbLine
 10
3725.000000000004
 20
600.0
 11
3875.000000000004
 21
600.0
  0
LINE
  5
B1
100
AcDbEntity
  8
1
  6
DOT_CENTER
 62
           2
100
AcDbLine
 10
3800.000000000004
 20
675.0
 11
3800.000000000004
 21
525.0
  0
LINE
  5
B0
100
AcDbEntity
  8
1
  6
CONTINUOUS
 62
           7
100
AcDbLine
 10
5000.000000000003
 20
0.0
 11
2000.000000000003
 21
0.0
  0
LINE
  5
AF
100
AcDbEntity
  8
1
  6
CONTINUOUS
 62
           4
100
AcDbLine
 10
2500.000000000003
 20
2040.0
 11
3500.000000000004
 21
2040.0
  0
LINE
  5
AE
100
AcDbEntity
  8
1
  6
CONTINUOUS
 62
           7
100
AcDbLine
 10
2740.000000000003
 20
1862.0
 11
2740.000000000003
 21
1950.0
  0
LINE
  5
AD
100
AcDbEntity
  8
1
  6
CONTINUOUS
 62
           7
100
AcDbLine
 10
2550.000000000003
 20
1862.0
 11
2740.000000000003
 21
1862.0
  0
LINE
  5
AC
100
AcDbEntity
  8
1
  6
CONTINUOUS
 62
           7
100
AcDbLine
 10
2550.000000000003
 20
1950.0
 11
2550.000000000003
 21
1862.0
  0
LINE
  5
AB
100
AcDbEntity
  8
1
  6
CONTINUOUS
 62
           7
100
AcDbLine
 10
2740.000000000003
 20
1950.0
 11
2550.000000000003
 21
1950.0
  0
LINE
  5
AA
100
AcDbEntity
  8
1
  6
CONTINUOUS
 62
           7
100
AcDbLine
 10
3230.000000000004
 20
1349.999999999999
 11
3050.000000000004
 21
1349.999999999999
  0
LINE
  5
A9
100
AcDbEntity
  8
1
  6
CONTINUOUS
 62
           7
100
AcDbLine
 10
3050.000000000004
 20
1589.999999999999
 11
3230.000000000004
 21
1589.999999999999
  0
LINE
  5
A8
100
AcDbEntity
  8
1
  6
CONTINUOUS
 62
           7
100
AcDbLine
 10
3050.000000000004
 20
1349.999999999999
 11
3050.000000000004
 21
1589.999999999999
  0
LINE
  5
A7
100
AcDbEntity
  8
1
  6
CONTINUOUS
 62
           7
100
AcDbLine
 10
3230.000000000004
 20
1589.999999999999
 11
3230.000000000004
 21
1349.999999999999
  0
LINE
  5
A6
100
AcDbEntity
  8
1
  6
CONTINUOUS
 62
           7
100
AcDbLine
 10
2862.500000000004
 20
1300.000000000002
 11
2862.500000000004
 21
1270.000000000002
  0
LINE
  5
A5
100
AcDbEntity
  8
1
  6
CONTINUOUS
 62
           7
100
AcDbLine
 10
2887.500000000004
 20
1300.000000000002
 11
2887.500000000004
 21
1270.000000000002
  0
LINE
  5
A4
100
AcDbEntity
  8
1
  6
CONTINUOUS
 62
           7
100
AcDbLine
 10
2862.500000000004
 20
1270.000000000002
 11
2887.500000000004
 21
1270.000000000002
  0
LINE
  5
A3
100
AcDbEntity
  8
1
  6
CONTINUOUS
 62
           7
100
AcDbLine
 10
2902.000000000004
 20
1239.750000000002
 11
2980.000000000004
 21
1239.750000000002
  0
LINE
  5
A2
100
AcDbEntity
  8
1
  6
CONTINUOUS
 62
           7
100
AcDbLine
 10
2865.000000000004
 20
1270.000000000002
 11
2865.000000000004
 21
1256.750000000002
  0
LINE
  5
A1
100
AcDbEntity
  8
1
  6
CONTINUOUS
 62
           7
100
AcDbLine
 10
2862.500000000004
 20
1270.000000000002
 11
2887.500000000004
 21
1270.000000000002
  0
LINE
  5
A0
100
AcDbEntity
  8
1
  6
CONTINUOUS
 62
           7
100
AcDbLine
 10
2885.000000000004
 20
1256.750000000002
 11
2885.000000000004
 21
1270.000000000002
  0
LINE
  5
9F
100
AcDbEntity
  8
1
  6
CONTINUOUS
 62
           7
100
AcDbLine
 10
2902.000000000004
 20
1219.750000000002
 11
2980.000000000004
 21
1219.750000000002
  0
LINE
  5
9E
100
AcDbEntity
  8
1
  6
CONTINUOUS
 62
           7
100
AcDbLine
 10
2950.000000000004
 20
1300.000000000002
 11
2750.000000000004
 21
1300.000000000002
  0
LINE
  5
9D
100
AcDbEntity
  8
1
  6
CONTINUOUS
 62
           7
100
AcDbLine
 10
2750.000000000004
 20
1300.000000000002
 11
2750.000000000003
 21
1700.000000000002
  0
LINE
  5
9C
100
AcDbEntity
  8
1
  6
CONTINUOUS
 62
           7
100
AcDbLine
 10
2750.000000000003
 20
1700.000000000002
 11
2950.000000000004
 21
1700.000000000002
  0
LINE
  5
9B
100
AcDbEntity
  8
1
  6
CONTINUOUS
 62
           7
100
AcDbLine
 10
2950.000000000004
 20
1700.000000000002
 11
2950.000000000004
 21
1300.000000000002
  0
LINE
  5
9A
100
AcDbEntity
  8
1
  6
CONTINUOUS
 62
           4
100
AcDbLine
 10
2950.000000000004
 20
1700.000000000002
 11
2980.000000000004
 21
1700.000000000002
  0
LINE
  5
99
100
AcDbEntity
  8
1
  6
CONTINUOUS
 62
           4
100
AcDbLine
 10
2950.000000000004
 20
1300.000000000002
 11
2980.000000000004
 21
1300.000000000002
  0
LINE
  5
98
100
AcDbEntity
  8
___S__
  6
DOT_CENTER
 62
           3
100
AcDbLine
 10
-574.999999999999
 20
1067.063266596462
 11
-575.000000000001
 21
982.067556365337
  0
LINE
  5
97
100
AcDbEntity
  8
____
  6
CONTINUOUS
 62
           3
100
AcDbLine
 10
-569.595947044879
 20
1060.45950481618
 11
-569.595947044879
 21
1058.581574068057
  0
LINE
  5
96
100
AcDbEntity
  8
____
  6
CONTINUOUS
 62
           3
100
AcDbLine
 10
-579.912775413743
 20
1060.928987503211
 11
-570.087224586254
 21
1060.928987503211
  0
LINE
  5
95
100
AcDbEntity
  8
____
  6
CONTINUOUS
 62
           3
100
AcDbLine
 10
-580.404052955117
 20
1058.581574068057
 11
-580.404052955117
 21
1060.45950481618
  0
LINE
  5
94
100
AcDbEntity
  8
____
  6
CONTINUOUS
 62
           3
100
AcDbLine
 10
-569.497691536608
 20
1022.900889853724
 11
-580.502308463384
 21
1022.900889853725
  0
LINE
  5
93
100
AcDbEntity
  8
____
  6
CONTINUOUS
 62
           3
100
AcDbLine
 10
-569.497691536607
 20
1058.581574068057
 11
-569.497691536608
 21
1022.900889853724
  0
LINE
  5
92
100
AcDbEntity
  8
____
  6
CONTINUOUS
 62
           3
100
AcDbLine
 10
-580.502308463383
 20
1058.581574068057
 11
-569.497691536607
 21
1058.581574068057
  0
LINE
  5
91
100
AcDbEntity
  8
____
  6
CONTINUOUS
 62
           3
100
AcDbLine
 10
-580.502308463384
 20
1022.900889853725
 11
-580.502308463383
 21
1058.581574068057
  0
LINE
  5
90
100
AcDbEntity
  8
____
  6
CONTINUOUS
 62
           3
100
AcDbLine
 10
-580.404052955119
 20
984.403309517208
 11
-580.404052955119
 21
986.281240265331
  0
LINE
  5
8F
100
AcDbEntity
  8
____
  6
CONTINUOUS
 62
           3
100
AcDbLine
 10
-570.087224586256
 20
983.933826830177
 11
-579.912775413745
 21
983.933826830177
  0
LINE
  5
8E
100
AcDbEntity
  8
____
  6
CONTINUOUS
 62
           3
100
AcDbLine
 10
-569.595947044881
 20
986.281240265331
 11
-569.595947044881
 21
984.403309517208
  0
LINE
  5
8D
100
AcDbEntity
  8
____
  6
CONTINUOUS
 62
           3
100
AcDbLine
 10
-580.158414184431
 20
1022.900889853725
 11
-580.158414184431
 21
1021.961924479663
  0
LINE
  5
8C
100
AcDbEntity
  8
____
  6
CONTINUOUS
 62
           3
100
AcDbLine
 10
-569.841585815568
 20
1022.900889853724
 11
-580.158414184431
 21
1022.900889853725
  0
LINE
  5
8B
100
AcDbEntity
  8
____
  6
CONTINUOUS
 62
           3
100
AcDbLine
 10
-569.841585815568
 20
1021.961924479663
 11
-569.841585815568
 21
1022.900889853724
  0
LINE
  5
8A
100
AcDbEntity
  8
____
  6
CONTINUOUS
 62
           3
100
AcDbLine
 10
-580.404052955117
 20
1060.45950481618
 11
-569.595947044879
 21
1060.45950481618
  0
LINE
  5
89
100
AcDbEntity
  8
____
  6
CONTINUOUS
 62
           3
100
AcDbLine
 10
-580.502308463384
 20
1021.961924479663
 11
-569.497691536608
 21
1021.961924479663
  0
LINE
  5
88
100
AcDbEntity
  8
____
  6
CONTINUOUS
 62
           3
100
AcDbLine
 10
-580.502308463385
 20
986.281240265331
 11
-580.502308463384
 21
1021.961924479663
  0
LINE
  5
87
100
AcDbEntity
  8
____
  6
CONTINUOUS
 62
           3
100
AcDbLine
 10
-569.497691536609
 20
986.281240265331
 11
-580.502308463385
 21
986.281240265331
  0
LINE
  5
86
100
AcDbEntity
  8
____
  6
CONTINUOUS
 62
           3
100
AcDbLine
 10
-569.497691536608
 20
1021.961924479663
 11
-569.497691536609
 21
986.281240265331
  0
LINE
  5
85
100
AcDbEntity
  8
____
  6
CONTINUOUS
 62
           3
100
AcDbLine
 10
-580.404052955117
 20
1060.45950481618
 11
-579.912775413743
 21
1060.928987503211
  0
LINE
  5
84
100
AcDbEntity
  8
____
  6
CONTINUOUS
 62
           3
100
AcDbLine
 10
-570.087224586254
 20
1060.928987503211
 11
-569.595947044879
 21
1060.45950481618
  0
LINE
  5
83
100
AcDbEntity
  8
____
  6
CONTINUOUS
 62
           3
100
AcDbLine
 10
-579.912775413745
 20
983.933826830177
 11
-580.404052955119
 21
984.403309517208
  0
LINE
  5
82
100
AcDbEntity
  8
____
  6
CONTINUOUS
 62
           3
100
AcDbLine
 10
-569.595947044881
 20
984.403309517208
 11
-570.087224586256
 21
983.933826830177
  0
LINE
  5
81
100
AcDbEntity
  8
____
  6
CONTINUOUS
 62
           3
100
AcDbLine
 10
-580.404052955119
 20
984.403309517208
 11
-569.595947044881
 21
984.403309517208
  0
LINE
  5
80
100
AcDbEntity
  8
____
  6
CONTINUOUS
 62
           3
100
AcDbLine
 10
-580.404052955095
 20
1538.392880207261
 11
-569.595947044858
 21
1538.392880207261
  0
LINE
  5
7F
100
AcDbEntity
  8
____
  6
CONTINUOUS
 62
           3
100
AcDbLine
 10
-569.595947044858
 20
1538.392880207261
 11
-570.087224586232
 21
1537.923397520231
  0
LINE
  5
7E
100
AcDbEntity
  8
____
  6
CONTINUOUS
 62
           3
100
AcDbLine
 10
-579.912775413721
 20
1537.923397520231
 11
-580.404052955095
 21
1538.392880207261
  0
LINE
  5
7D
100
AcDbEntity
  8
____
  6
CONTINUOUS
 62
           3
100
AcDbLine
 10
-570.087224586231
 20
1614.918558193264
 11
-569.595947044857
 21
1614.449075506233
  0
LINE
  5
7C
100
AcDbEntity
  8
____
  6
CONTINUOUS
 62
           3
100
AcDbLine
 10
-580.404052955095
 20
1614.449075506233
 11
-579.91277541372
 21
1614.918558193264
  0
LINE
  5
7B
100
AcDbEntity
  8
____
  6
CONTINUOUS
 62
           3
100
AcDbLine
 10
-569.497691536591
 20
1575.951495169717
 11
-569.497691536591
 21
1540.270810955384
  0
LINE
  5
7A
100
AcDbEntity
  8
____
  6
CONTINUOUS
 62
           3
100
AcDbLine
 10
-569.497691536591
 20
1540.270810955384
 11
-580.502308463368
 21
1540.270810955384
  0
LINE
  5
79
100
AcDbEntity
  8
____
  6
CONTINUOUS
 62
           3
100
AcDbLine
 10
-580.502308463368
 20
1540.270810955384
 11
-580.502308463368
 21
1575.951495169717
  0
LINE
  5
78
100
AcDbEntity
  8
____
  6
CONTINUOUS
 62
           3
100
AcDbLine
 10
-580.502308463368
 20
1575.951495169717
 11
-569.497691536591
 21
1575.951495169717
  0
LINE
  5
77
100
AcDbEntity
  8
____
  6
CONTINUOUS
 62
           3
100
AcDbLine
 10
-580.404052955095
 20
1614.449075506233
 11
-569.595947044857
 21
1614.449075506233
  0
LINE
  5
76
100
AcDbEntity
  8
____
  6
CONTINUOUS
 62
           3
100
AcDbLine
 10
-569.841585815545
 20
1575.951495169717
 11
-569.841585815545
 21
1576.890460543778
  0
LINE
  5
75
100
AcDbEntity
  8
____
  6
CONTINUOUS
 62
           3
100
AcDbLine
 10
-569.841585815545
 20
1576.890460543778
 11
-580.158414184408
 21
1576.890460543778
  0
LINE
  5
74
100
AcDbEntity
  8
____
  6
CONTINUOUS
 62
           3
100
AcDbLine
 10
-580.158414184408
 20
1576.890460543778
 11
-580.158414184408
 21
1575.951495169717
  0
LINE
  5
73
100
AcDbEntity
  8
____
  6
CONTINUOUS
 62
           3
100
AcDbLine
 10
-569.595947044858
 20
1540.270810955384
 11
-569.595947044858
 21
1538.392880207261
  0
LINE
  5
72
100
AcDbEntity
  8
____
  6
CONTINUOUS
 62
           3
100
AcDbLine
 10
-570.087224586232
 20
1537.923397520231
 11
-579.912775413721
 21
1537.923397520231
  0
LINE
  5
71
100
AcDbEntity
  8
____
  6
CONTINUOUS
 62
           3
100
AcDbLine
 10
-580.404052955095
 20
1538.392880207261
 11
-580.404052955095
 21
1540.270810955384
  0
LINE
  5
70
100
AcDbEntity
  8
____
  6
CONTINUOUS
 62
           3
100
AcDbLine
 10
-580.502308463368
 20
1576.890460543778
 11
-580.502308463367
 21
1612.571144758111
  0
LINE
  5
6F
100
AcDbEntity
  8
____
  6
CONTINUOUS
 62
           3
100
AcDbLine
 10
-580.502308463367
 20
1612.571144758111
 11
-569.49769153659
 21
1612.57114475811
  0
LINE
  5
6E
100
AcDbEntity
  8
____
  6
CONTINUOUS
 62
           3
100
AcDbLine
 10
-569.49769153659
 20
1612.57114475811
 11
-569.497691536591
 21
1576.890460543778
  0
LINE
  5
6D
100
AcDbEntity
  8
____
  6
CONTINUOUS
 62
           3
100
AcDbLine
 10
-569.497691536591
 20
1576.890460543778
 11
-580.502308463368
 21
1576.890460543778
  0
LINE
  5
6C
100
AcDbEntity
  8
____
  6
CONTINUOUS
 62
           3
100
AcDbLine
 10
-580.404052955095
 20
1612.571144758111
 11
-580.404052955095
 21
1614.449075506233
  0
LINE
  5
6B
100
AcDbEntity
  8
____
  6
CONTINUOUS
 62
           3
100
AcDbLine
 10
-579.91277541372
 20
1614.918558193264
 11
-570.087224586231
 21
1614.918558193264
  0
LINE
  5
6A
100
AcDbEntity
  8
____
  6
CONTINUOUS
 62
           3
100
AcDbLine
 10
-569.595947044857
 20
1614.449075506233
 11
-569.595947044857
 21
1612.57114475811
  0
LINE
  5
69
100
AcDbEntity
  8
___S__
  6
DOT_CENTER
 62
           3
100
AcDbLine
 10
-574.999999999975
 20
1621.052837286499
 11
-574.999999999976
 21
1536.057127055391
  0
LINE
  5
68
100
AcDbEntity
  8
1
  6
CONTINUOUS
 62
           7
100
AcDbLine
 10
1000.000000000001
 20
1763.744569986044
 11
-999.999999999999
 21
1763.744569986044
  0
LINE
  5
67
100
AcDbEntity
  8
1
  6
CONTINUOUS
 62
           4
100
AcDbLine
 10
54.980390271861
 20
4979.999999999999
 11
980.000000000001
 21
4979.999999999999
  0
LINE
  5
66
100
AcDbEntity
  8
1
  6
CONTINUOUS
 62
           4
100
AcDbLine
 10
-979.999999999999
 20
4979.999999999999
 11
-150.905365064103
 21
4979.999999999998
  0
LINE
  5
65
100
AcDbEntity
  8
1
  6
CONTINUOUS
 62
           4
100
AcDbLine
 10
1040.0
 20
5000.0
 11
1040.000000000001
 21
4020.0
  0
LINE
  5
64
100
AcDbEntity
  8
1
  6
CONTINUOUS
 62
           4
100
AcDbLine
 10
-659.999999999996
 20
5979.999999999999
 11
-979.999999999999
 21
5979.999999999999
  0
LINE
  5
63
100
AcDbEntity
  8
1
  6
CONTINUOUS
 62
           7
100
AcDbLine
 10
-649.999999999998
 20
5999.999999999999
 11
-1049.999999999999
 21
5999.999999999999
  0
LINE
  5
62
100
AcDbEntity
  8
1
  6
CONTINUOUS
 62
           7
100
AcDbLine
 10
127.928556845363
 20
4999.999999999999
 11
1050.000000000001
 21
4999.999999999999
  0
LINE
  5
61
100
AcDbEntity
  8
1
  6
CONTINUOUS
 62
           7
100
AcDbLine
 10
1550.000000000001
 20
0.0
 11
-1499.999999999999
 21
0.0
  0
LINE
  5
60
100
AcDbEntity
  8
1
  6
CONTINUOUS
 62
           7
100
AcDbLine
 10
-499.999999999999
 20
4999.999999999999
 11
-499.999999999999
 21
5174.307806183468
  0
LINE
  5
5F
100
AcDbEntity
  8
1
  6
CONTINUOUS
 62
           4
100
AcDbLine
 10
-520.0
 20
5019.999999999999
 11
-520.0
 21
5197.571662593028
  0
LINE
  5
5E
100
AcDbEntity
  8
1
  6
CONTINUOUS
 62
           7
100
AcDbLine
 10
500.000000000001
 20
4999.999999999999
 11
500.000000000001
 21
5999.999999999999
  0
LINE
  5
5D
100
AcDbEntity
  8
1
  6
CONTINUOUS
 62
           4
100
AcDbLine
 10
520.0
 20
5979.999999999999
 11
520.0
 21
5019.999999999999
  0
LINE
  5
5C
100
AcDbEntity
  8
1
  6
CONTINUOUS
 62
           7
100
AcDbLine
 10
985.000000000001
 20
540.0
 11
-984.999999999999
 21
540.0
  0
LINE
  5
5B
100
AcDbEntity
  8
1
  6
CONTINUOUS
 62
           7
100
AcDbLine
 10
-984.999999999999
 20
475.000000000001
 11
-984.999999999999
 21
540.0
  0
LINE
  5
5A
100
AcDbEntity
  8
1
  6
CONTINUOUS
 62
           7
100
AcDbLine
 10
-999.999999999999
 20
475.000000000001
 11
1000.000000000001
 21
475.000000000001
  0
LINE
  5
59
100
AcDbEntity
  8
1
  6
CONTINUOUS
 62
           7
100
AcDbLine
 10
-1049.999999999999
 20
4000.0
 11
1050.000000000001
 21
4000.0
  0
LINE
  5
58
100
AcDbEntity
  8
1
  6
CONTINUOUS
 62
           7
100
AcDbLine
 10
-1049.999999999999
 20
5999.999999999999
 11
-1049.999999999999
 21
4000.0
  0
LINE
  5
57
100
AcDbEntity
  8
1
  6
CONTINUOUS
 62
           7
100
AcDbLine
 10
-1049.999999999999
 20
4999.999999999999
 11
-230.52558883258
 21
4999.999999999999
  0
LINE
  5
56
100
AcDbEntity
  8
1
  6
CONTINUOUS
 62
           4
100
AcDbLine
 10
-979.999999999999
 20
4979.999999999999
 11
-979.999999999999
 21
4020.0
  0
LINE
  5
55
100
AcDbEntity
  8
1
  6
CONTINUOUS
 62
           4
100
AcDbLine
 10
-979.999999999999
 20
5019.999999999999
 11
-520.0
 21
5019.999999999999
  0
LINE
  5
54
100
AcDbEntity
  8
1
  6
CONTINUOUS
 62
           4
100
AcDbLine
 10
-979.999999999999
 20
5019.999999999999
 11
-979.999999999999
 21
5979.999999999999
  0
LINE
  5
53
100
AcDbEntity
  8
1
  6
CONTINUOUS
 62
           7
100
AcDbLine
 10
1050.000000000001
 20
5999.999999999999
 11
0.0
 21
5999.999999999999
  0
LINE
  5
52
100
AcDbEntity
  8
1
  6
CONTINUOUS
 62
           7
100
AcDbLine
 10
1050.000000000001
 20
0.0
 11
1050.000000000001
 21
2150.0
  0
LINE
  5
51
100
AcDbEntity
  8
1
  6
CONTINUOUS
 62
           7
100
AcDbLine
 10
1050.000000000001
 20
2000.0
 11
-1049.999999999999
 21
2000.0
  0
LINE
  5
50
100
AcDbEntity
  8
1
  6
CONTINUOUS
 62
           7
100
AcDbLine
 10
-575.0
 20
941.513526798369
 11
575.0
 21
941.513526798369
  0
LINE
  5
4F
100
AcDbEntity
  8
1
  6
CONTINUOUS
 62
           7
100
AcDbLine
 10
575.0
 20
941.513526798369
 11
575.0
 21
1646.282992387804
  0
LINE
  5
4E
100
AcDbEntity
  8
1
  6
CONTINUOUS
 62
           7
100
AcDbLine
 10
-575.0
 20
941.513526798369
 11
-575.0
 21
1646.282992387804
  0
LINE
  5
4D
100
AcDbEntity
  8
1
  6
CONTINUOUS
 62
           7
100
AcDbLine
 10
575.0
 20
1646.282992387804
 11
-575.0
 21
1646.282992387804
  0
LINE
  5
4C
100
AcDbEntity
  8
1
  6
CONTINUOUS
 62
           7
100
AcDbLine
 10
-999.999999999999
 20
0.0
 11
-999.999999999999
 21
2000.0
  0
LINE
  5
4B
100
AcDbEntity
  8
1
  6
CONTINUOUS
 62
           7
100
AcDbLine
 10
1000.000000000001
 20
0.0
 11
1000.000000000001
 21
2000.0
  0
LINE
  5
4A
100
AcDbEntity
  8
1
  6
CONTINUOUS
 62
           7
100
AcDbLine
 10
1000.000000000001
 20
1900.0
 11
-999.999999999999
 21
1900.0
  0
LINE
  5
49
100
AcDbEntity
  8
1
  6
CONTINUOUS
 62
           7
100
AcDbLine
 10
1000.000000000001
 20
50.0
 11
-999.999999999999
 21
50.0
  0
LINE
  5
48
100
AcDbEntity
  8
1
  6
CONTINUOUS
 62
           7
100
AcDbLine
 10
-999.999999999999
 20
400.0
 11
1000.000000000001
 21
400.0
  0
LINE
  5
47
100
AcDbEntity
  8
1
  6
CONTINUOUS
 62
           7
100
AcDbLine
 10
985.000000000001
 20
540.0
 11
985.000000000001
 21
475.000000000001
  0
LINE
  5
46
100
AcDbEntity
  8
1
  6
CONTINUOUS
 62
           7
100
AcDbLine
 10
-999.999999999999
 20
513.85332266763
 11
-999.999999999999
 21
572.607085651512
  0
LINE
  5
45
100
AcDbEntity
  8
1
  6
CONTINUOUS
 62
           7
100
AcDbLine
 10
-999.999999999999
 20
800.0
 11
1000.000000000001
 21
800.0
  0
LINE
  5
44
100
AcDbEntity
  8
1
  6
CONTINUOUS
 62
           7
100
AcDbLine
 10
985.000000000001
 20
500.0
 11
1000.000000000001
 21
500.0
  0
LINE
  5
43
100
AcDbEntity
  8
1
  6
CONTINUOUS
 62
           7
100
AcDbLine
 10
-999.999999999999
 20
500.0
 11
-984.999999999999
 21
500.0
  0
LINE
  5
42
100
AcDbEntity
  8
1
  6
DOT_CENTER
 62
           2
100
AcDbLine
 10
0.0
 20
2075.0
 11
0.0
 21
-130.0
  0
LINE
  5
41
100
AcDbEntity
  8
1
  6
CONTINUOUS
 62
           7
100
AcDbLine
 10
1050.000000000001
 20
4000.0
 11
1050.000000000001
 21
5999.999999999999
  0
LINE
  5
40
100
AcDbEntity
  8
1
  6
CONTINUOUS
 62
           4
100
AcDbLine
 10
980.000000000001
 20
5979.999999999999
 11
980.000000000001
 21
5019.999999999999
  0
LINE
  5
3F
100
AcDbEntity
  8
1
  6
CONTINUOUS
 62
           4
100
AcDbLine
 10
980.000000000001
 20
4979.999999999999
 11
980.000000000001
 21
4020.0
  0
LINE
  5
3E
100
AcDbEntity
  8
1
  6
CONTINUOUS
 62
           4
100
AcDbLine
 10
1003.000000000001
 20
5999.999999999999
 11
1003.000000000001
 21
4020.0
  0
LINE
  5
3D
100
AcDbEntity
  8
1
  6
CONTINUOUS
 62
           4
100
AcDbLine
 10
980.000000000001
 20
5979.999999999999
 11
520.0
 21
5979.999999999999
  0
LINE
  5
3C
100
AcDbEntity
  8
1
  6
CONTINUOUS
 62
           4
100
AcDbLine
 10
980.000000000001
 20
5019.999999999999
 11
520.0
 21
5019.999999999999
  0
LINE
  5
3B
100
AcDbEntity
  8
1
  6
CONTINUOUS
 62
           4
100
AcDbLine
 10
-1002.999999999999
 20
5999.999999999999
 11
-1002.999999999999
 21
4020.0
  0
LINE
  5
3A
100
AcDbEntity
  8
1
  6
CONTINUOUS
 62
           4
100
AcDbLine
 10
-1039.999999999999
 20
5999.999999999999
 11
-1039.999999999999
 21
4020.0
  0
LINE
  5
39
100
AcDbEntity
  8
1
  6
CONTINUOUS
 62
           7
100
AcDbLine
 10
-1049.999999999999
 20
2150.0
 11
-1049.999999999999
 21
0.0
  0
LINE
  5
38
100
AcDbEntity
  8
1
  6
DOT_CENTER
 62
           2
100
AcDbLine
 10
0.000000000001
 20
4999.999999999999
 11
0.0
 21
3874.680676247669
  0
LINE
  5
37
100
AcDbEntity
  8
1
  6
CONTINUOUS
 62
           4
100
AcDbLine
 10
-1049.999999999999
 20
4020.0
 11
1050.000000000001
 21
4020.0
  0
LINE
  5
36
100
AcDbEntity
  8
1
  6
CONTINUOUS
 62
           7
100
AcDbLine
 10
1050.000000000001
 20
2150.0
 11
-1049.999999999999
 21
2150.0
  0
LINE
  5
35
100
AcDbEntity
  8
1
  6
CONTINUOUS
 62
           7
100
AcDbLine
 10
1000.000000000001
 20
4020.0
 11
1000.000000000001
 21
5999.999999999999
  0
LINE
  5
34
100
AcDbEntity
  8
1
  6
CONTINUOUS
 62
           7
100
AcDbLine
 10
-999.999999999999
 20
4020.0
 11
-999.999999999999
 21
5999.999999999999
  0
LINE
  5
33
100
AcDbEntity
  8
1
  6
CONTINUOUS
 62
           7
100
AcDbLine
 10
1050.000000000001
 20
4450.0
 11
1210.000000000001
 21
4450.0
  0
LINE
  5
32
100
AcDbEntity
  8
1
  6
CONTINUOUS
 62
           7
100
AcDbLine
 10
1210.000000000001
 20
4450.0
 11
1210.000000000001
 21
4250.0
  0
LINE
  5
31
100
AcDbEntity
  8
1
  6
CONTINUOUS
 62
           7
100
AcDbLine
 10
1210.000000000001
 20
4250.0
 11
1050.000000000001
 21
4250.0
  0
LINE
  5
30
100
AcDbEntity
  8
1
  6
CONTINUOUS
 62
           7
100
AcDbLine
 10
1050.000000000001
 20
1700.000000000002
 11
1210.000000000001
 21
1700.000000000002
  0
LINE
  5
2F
100
AcDbEntity
  8
1
  6
CONTINUOUS
 62
           7
100
AcDbLine
 10
1210.000000000001
 20
1700.000000000002
 11
1210.000000000001
 21
1300.000000000002
  0
LINE
  5
2E
100
AcDbEntity
  8
1
  6
CONTINUOUS
 62
           7
100
AcDbLine
 10
1210.000000000001
 20
1300.000000000002
 11
1050.000000000001
 21
1300.000000000002
  0
POINT
  5
2D
100
AcDbEntity
  8
0
 62
           3
100
AcDbPoint
 10
3333.399996721739
 20
1365.000000000116
  0
ENDSEC
  0
SECTION
  2
OBJECTS
  0
DICTIONARY
  5
19
100
AcDbDictionary
  3
ACAD_GROUP
350
1A
  3
ACAD_MLINESTYLE
350
1B
  0
DICTIONARY
  5
1A
102
{ACAD_REACTORS
330
19
102
}
100
AcDbDictionary
  0
DICTIONARY
  5
1B
102
{ACAD_REACTORS
330
19
102
}
100
AcDbDictionary
  3
STANDARD
350
1C
  0
MLINESTYLE
  5
1C
102
{ACAD_REACTORS
330
1B
102
}
100
AcDbMlineStyle
  2
STANDARD
 70
           0
  3

 62
           0
 51
90.0
 52
90.0
 71
           2
 49
0.5
 62
         256
  6
BYLAYER
 49
-0.5
 62
         256
  6
BYLAYER
  0
ENDSEC
  0
EOF
