  0
SECTION
  2
HEADER
  9
$ACADVER
  1
AC1014
  9
$ACADMAINTVER
 70
           0
  9
$DWGCODEPAGE
  3
DOS932
  9
$INSBASE
 10
0.0
 20
0.0
 30
0.0
  9
$EXTMIN
 10
1.000000000000E+20
 20
1.000000000000E+20
 30
1.000000000000E+20
  9
$EXTMAX
 10
-1.000000000000E+20
 20
-1.000000000000E+20
 30
-1.000000000000E+20
  9
$LIMMIN
 10
0.0
 20
0.0
  9
$LIMMAX
 10
0.0
 20
0.0
  9
$ORTHOMODE
 70
           0
  9
$REGENMODE
 70
           1
  9
$FILLMODE
 70
           1
  9
$QTEXTMODE
 70
           0
  9
$MIRRTEXT
 70
           1
  9
$DRAGMODE
 70
           2
  9
$LTSCALE
 40
1.0
  9
$OSMODE
 70
           0
  9
$ATTMODE
 70
           1
  9
$TEXTSIZE
 40
0.2
  9
$TRACEWID
 40
0.05
  9
$TEXTSTYLE
  7
STANDARD
  9
$CLAYER
  8
0
  9
$CELTYPE
  6
CONTINUOUS
  9
$CECOLOR
 62
         256
  9
$CELTSCALE
 40
1.0
  9
$DELOBJ
 70
           1
  9
$DISPSILH
 70
           0
  9
$DIMSCALE
 40
1.0
  9
$DIMASZ
 40
0.18
  9
$DIMEXO
 40
0.0625
  9
$DIMDLI
 40
0.38
  9
$DIMRND
 40
0.0
  9
$DIMDLE
 40
0.0
  9
$DIMEXE
 40
0.18
  9
$DIMTP
 40
0.0
  9
$DIMTM
 40
0.0
  9
$DIMTXT
 40
0.18
  9
$DIMCEN
 40
0.09
  9
$DIMTSZ
 40
0.0
  9
$DIMTOL
 70
           0
  9
$DIMLIM
 70
           0
  9
$DIMTIH
 70
           1
  9
$DIMTOH
 70
           1
  9
$DIMSE1
 70
           0
  9
$DIMSE2
 70
           0
  9
$DIMTAD
 70
           0
  9
$DIMZIN
 70
           0
  9
$DIMBLK
  1

  9
$DIMASO
 70
           1
  9
$DIMSHO
 70
           1
  9
$DIMPOST
  1

  9
$DIMAPOST
  1

  9
$DIMALT
 70
           0
  9
$DIMALTD
 70
           2
  9
$DIMALTF
 40
25.4
  9
$DIMLFAC
 40
1.0
  9
$DIMTOFL
 70
           0
  9
$DIMTVP
 40
0.0
  9
$DIMTIX
 70
           0
  9
$DIMSOXD
 70
           0
  9
$DIMSAH
 70
           0
  9
$DIMBLK1
  1

  9
$DIMBLK2
  1

  9
$DIMSTYLE
  2
STANDARD
  9
$DIMCLRD
 70
           0
  9
$DIMCLRE
 70
           0
  9
$DIMCLRT
 70
           0
  9
$DIMTFAC
 40
1.0
  9
$DIMGAP
 40
0.09
  9
$DIMJUST
 70
           0
  9
$DIMSD1
 70
           0
  9
$DIMSD2
 70
           0
  9
$DIMTOLJ
 70
           1
  9
$DIMTZIN
 70
           0
  9
$DIMALTZ
 70
           0
  9
$DIMALTTZ
 70
           0
  9
$DIMFIT
 70
           3
  9
$DIMUPT
 70
           0
  9
$DIMUNIT
 70
           2
  9
$DIMDEC
 70
           4
  9
$DIMTDEC
 70
           4
  9
$DIMALTU
 70
           2
  9
$DIMALTTD
 70
           2
  9
$DIMTXSTY
  7
STANDARD
  9
$DIMAUNIT
 70
           0
  9
$LUNITS
 70
           2
  9
$LUPREC
 70
           4
  9
$SKETCHINC
 40
0.1
  9
$FILLETRAD
 40
0.0
  9
$AUNITS
 70
           0
  9
$AUPREC
 70
           0
  9
$MENU
  1
acad
  9
$ELEVATION
 40
0.0
  9
$PELEVATION
 40
0.0
  9
$THICKNESS
 40
0.0
  9
$LIMCHECK
 70
           0
  9
$BLIPMODE
 70
           1
  9
$CHAMFERA
 40
0.0
  9
$CHAMFERB
 40
0.0
  9
$CHAMFERC
 40
0.0
  9
$CHAMFERD
 40
0.0
  9
$SKPOLY
 70
           0
  9
$TDCREATE
 40
0.000000000
  9
$TDUPDATE
 40
0.000000000
  9
$TDINDWG
 40
0.0000000000
  9
$TDUSRTIMER
 40
0.0000000000
  9
$USRTIMER
 70
           1
  9
$ANGBASE
 50
0.0
  9
$ANGDIR
 70
           0
  9
$PDMODE
 70
           0
  9
$PDSIZE
 40
0.0
  9
$PLINEWID
 40
0.0
  9
$COORDS
 70
           0
  9
$SPLFRAME
 70
           0
  9
$SPLINETYPE
 70
           6
  9
$SPLINESEGS
 70
           8
  9
$ATTDIA
 70
           0
  9
$ATTREQ
 70
           1
  9
$HANDLING
 70
           1
  9
$HANDSEED
  5
38F
  9
$SURFTAB1
 70
           6
  9
$SURFTAB2
 70
           6
  9
$SURFTYPE
 70
           6
  9
$SURFU
 70
           6
  9
$SURFV
 70
           6
  9
$UCSNAME
  2

  9
$UCSORG
 10
0.0
 20
0.0
 30
0.0
  9
$UCSXDIR
 10
1.0
 20
0.0
 30
0.0
  9
$UCSYDIR
 10
0.0
 20
1.0
 30
0.0
  9
$PUCSNAME
  2

  9
$PUCSORG
 10
0.0
 20
0.0
 30
0.0
  9
$PUCSXDIR
 10
1.0
 20
0.0
 30
0.0
  9
$PUCSYDIR
 10
0.0
 20
1.0
 30
0.0
  9
$USERI1
 70
           0
  9
$USERI2
 70
           0
  9
$USERI3
 70
           0
  9
$USERI4
 70
           0
  9
$USERI5
 70
           0
  9
$USERR1
 40
0.0
  9
$USERR2
 40
0.0
  9
$USERR3
 40
0.0
  9
$USERR4
 40
0.0
  9
$USERR5
 40
0.0
  9
$WORLDVIEW
 70
           1
  9
$SHADEDGE
 70
           3
  9
$SHADEDIF
 70
          70
  9
$TILEMODE
 70
           1
  9
$MAXACTVP
 70
          16
  9
$PINSBASE
 10
0.0
 20
0.0
 30
0.0
  9
$PLIMCHECK
 70
           0
  9
$PEXTMIN
 10
1.000000000000E+20
 20
1.000000000000E+20
 30
1.000000000000E+20
  9
$PEXTMAX
 10
-1.000000000000E+20
 20
-1.000000000000E+20
 30
-1.000000000000E+20
  9
$PLIMMIN
 10
0.0
 20
0.0
  9
$PLIMMAX
 10
12.0
 20
9.0
  9
$UNITMODE
 70
           0
  9
$VISRETAIN
 70
           0
  9
$PLINEGEN
 70
           1
  9
$PSLTSCALE
 70
           0
  9
$TREEDEPTH
 70
        3020
  9
$PICKSTYLE
 70
           1
  9
$CMLSTYLE
  2
STANDARD
  9
$CMLJUST
 70
           0
  9
$CMLSCALE
 40
1.0
  9
$PROXYGRAPHICS
 70
           0
  9
$MEASUREMENT
 70
           0
  0
ENDSEC
  0
SECTION
  2
CLASSES
  0
CLASS
  1
LWPOLYLINE
  2
AcDbPolyline
  3
"AutoCAD"
 90
        0
280
           0
281
           1
  0
CLASS
  1
IMAGE
  2
AcDbRasterImage
  3
ISM
 90
      127
280
           0
281
           1
  0
CLASS
  1
OLE2FRAME
  2
AcDbOle2Frame
  3
""
 90
        0
280
           0
281
           1
  0
CLASS
  1
HATCH
  2
AcDbHatch
  3
"ACAD_SEDONA"
 90
        0
280
           0
281
           1
  0
CLASS
  1
DICTIONARYVAR
  2
AcDbDictionaryVar
  3
"AutoCAD"
 90
        0
280
           0
281
           0
  0
CLASS
  1
RASTERVARIABLES
  2
AcDbRasterVariables
  3
ISM
 90
        0
280
           0
281
           0
  0
CLASS
  1
IMAGEDEF
  2
AcDbRasterImageDef
  3
ISM
 90
        0
280
           0
281
           0
  0
CLASS
  1
IMAGEDEF_REACTOR
  2
AcDbRasterImageDefReactor
  3
ISM
 90
        1
280
           0
281
           0
  0
CLASS
  1
IDBUFFER
  2
AcDbIdBuffer
  3
"Acad"
 90
        0
280
           0
281
           0
  0
CLASS
  1
SPATIAL_FILTER
  2
AcDbSpatialFilter
  3
"Acad"
 90
        0
280
           0
281
           0
  0
CLASS
  1
XRECORD
  2
AcDbXrecord
  3
"<Built In>"
 90
        0
280
           0
281
           0
  0
CLASS
  1
SORTENTSTABLE
  2
AcDbSortentsTable
  3
"AutoCAD"
 90
        0
280
           0
281
           0
  0
CLASS
  1
LAYER_INDEX
  2
AcDbLayerIndex
  3
"Acad"
 90
        0
280
           0
281
           0
  0
CLASS
  1
SPATIAL_INDEX
  2
AcDbSpatialIndex
  3
"Acad"
 90
        0
280
           0
281
           0
  0
CLASS
  1
OBJECT_PTR
  2
CAseDLPNTableRecord
  3
"ASE-LPNTableRecord"
 90
        1
280
           0
281
           0
  0
CLASS
  1
LAYOUT
  2
AcDbLayout
  3
"AutoCAD 2000"
 90
        1
280
           0
281
           0
  0
CLASS
  1
PLOTSETTINGS
  2
AcDbPlotSettings
  3
"AutoCAD 2000"
 90
        1
280
           0
281
           0
  0
CLASS
  1
ACDBDICTIONARYWDFLT
  2
AcDbDictionaryWithDefault
  3
"AutoCAD 2000"
 90
        1
280
           0
281
           0
  0
CLASS
  1
ACDBPLACEHOLDER
  2
AcDbPlaceHolder
  3
"AutoCAD 2000"
 90
        1
280
           0
281
           0
  0
CLASS
  1
VBA_PROJECT
  2
AcDbVbaProject
  3
"acadvba"
 90
        1
280
           0
281
           0
  0
CLASS
  1
WIPEOUT
  2
AcDbWipeout
  3
WipeOut|AutoCAD Express Tool|expresstools@autodesk.com
 90
      127
280
           0
281
           1
  0
CLASS
  1
WIPEOUTVARIABLES
  2
AcDbWipeoutVariables
  3
WipeOut|AutoCAD Express Tool|expresstools@autodesk.com
 90
        0
280
           0
281
           0
  0
CLASS
  1
RTEXT
  2
RText
  3
RText|AutoCAD Express Tool|expresstools@autodesk.com
 90
        0
280
           0
281
           1
  0
CLASS
  1
ARCALIGNEDTEXT
  2
AcDbArcAlignedText
  3
ATEXT|AutoCAD Express Tool|expresstools@autodesk.com
 90
        0
280
           0
281
           1
  0
ENDSEC
  0
SECTION
  2
TABLES
  0
TABLE
  2
VPORT
  5
7
100
AcDbSymbolTable
 70
           1
  0
VPORT
  5
15
100
AcDbSymbolTableRecord
100
AcDbViewportTableRecord
  2
*ACTIVE
 70
           0
 10
0.0
 20
0.0
 11
1.0
 21
1.0
 12
6.591288
 22
4.579184
 13
0.0
 23
0.0
 14
1.0
 24
1.0
 15
0.0
 25
0.0
 16
0.0
 26
0.0
 36
1.0
 17
0.0
 27
0.0
 37
0.0
 40
9.158369
 41
0.688564
 42
50.0
 43
0.0
 44
0.0
 50
0.0
 51
0.0
 71
           0
 72
         100
 73
           1
 74
           1
 75
           0
 76
           0
 77
           0
 78
           0
  0
ENDTAB
  0
TABLE
  2
LTYPE
  5
4
100
AcDbSymbolTable
 70
          10
  0
LTYPE
  5
11
100
AcDbSymbolTableRecord
100
AcDbLinetypeTableRecord
  2
BYBLOCK
 70
          64
  3

 72
          65
 73
           0
 40
0.0
  0
LTYPE
  5
12
100
AcDbSymbolTableRecord
100
AcDbLinetypeTableRecord
  2
BYLAYER
 70
          64
  3

 72
          65
 73
           0
 40
0.0
  0
LTYPE
  5
13
100
AcDbSymbolTableRecord
100
AcDbLinetypeTableRecord
  2
CONTINUOUS
 70
          64
  3
Solid line
 72
          65
 73
           0
 40
0.0
  0
LTYPE
  5
1D
100
AcDbSymbolTableRecord
100
AcDbLinetypeTableRecord
  2
DASHED
 70
          64
  3
Dashed
 72
          65
 73
           2
 40
15.0
 49
12.0
 74
           0
 49
-3.0
 74
           0
  0
LTYPE
  5
1E
100
AcDbSymbolTableRecord
100
AcDbLinetypeTableRecord
  2
DOTTED
 70
          64
  3
Dotted
 72
          65
 73
           2
 40
3.5
 49
0.5
 74
           0
 49
-3.0
 74
           0
  0
LTYPE
  5
1F
100
AcDbSymbolTableRecord
100
AcDbLinetypeTableRecord
  2
DOT_CENTER
 70
          64
  3
Dot_Center
 72
          65
 73
           4
 40
2.0
 49
1.25
 74
           0
 49
-0.25
 74
           0
 49
0.25
 74
           0
 49
-0.25
 74
           0
  0
LTYPE
  5
20
100
AcDbSymbolTableRecord
100
AcDbLinetypeTableRecord
  2
LONG_DASHED
 70
          64
  3
Long_Dashed
 72
          65
 73
           2
 40
2.0
 49
1.5
 74
           0
 49
-0.5
 74
           0
  0
LTYPE
  5
21
100
AcDbSymbolTableRecord
100
AcDbLinetypeTableRecord
  2
DASH_CENTER
 70
          64
  3
Dash_Center
 72
          65
 73
           4
 40
36.0
 49
24.0
 74
           0
 49
-3.0
 74
           0
 49
6.0
 74
           0
 49
-3.0
 74
           0
  0
LTYPE
  5
22
100
AcDbSymbolTableRecord
100
AcDbLinetypeTableRecord
  2
PHANTOM
 70
          64
  3
Phantom
 72
          65
 73
           6
 40
2.5
 49
1.25
 74
           0
 49
-0.25
 74
           0
 49
0.25
 74
           0
 49
-0.25
 74
           0
 49
0.25
 74
           0
 49
-0.25
 74
           0
  0
LTYPE
  5
23
100
AcDbSymbolTableRecord
100
AcDbLinetypeTableRecord
  2
CENTER_DASH_DASH
 70
          64
  3
Center_Dash_Dash
 72
          65
 73
           6
 40
22.0
 49
12.0
 74
           0
 49
-3.0
 74
           0
 49
0.5
 74
           0
 49
-3.0
 74
           0
 49
0.5
 74
           0
 49
-3.0
 74
           0
  0
ENDTAB
  0
TABLE
  2
LAYER
  5
2
100
AcDbSymbolTable
 70
           7
  0
LAYER
  5
14
100
AcDbSymbolTableRecord
100
AcDbLayerTableRecord
  2
0
 70
           0
 62
           7
  6
CONTINUOUS
  0
LAYER
  5
24
100
AcDbSymbolTableRecord
100
AcDbLayerTableRecord
  2
___S__
 70
           0
 62
           7
  6
CONTINUOUS
  0
LAYER
  5
25
100
AcDbSymbolTableRecord
100
AcDbLayerTableRecord
  2
FORMAT
 70
           0
 62
           7
  6
CONTINUOUS
  0
LAYER
  5
26
100
AcDbSymbolTableRecord
100
AcDbLayerTableRecord
  2
1
 70
           0
 62
           7
  6
CONTINUOUS
  0
LAYER
  5
27
100
AcDbSymbolTableRecord
100
AcDbLayerTableRecord
  2
2
 70
           0
 62
           7
  6
CONTINUOUS
  0
LAYER
  5
28
100
AcDbSymbolTableRecord
100
AcDbLayerTableRecord
  2
7
 70
           0
 62
           7
  6
CONTINUOUS
  0
LAYER
  5
29
100
AcDbSymbolTableRecord
100
AcDbLayerTableRecord
  2
____
 70
           0
 62
           7
  6
CONTINUOUS
  0
ENDTAB
  0
TABLE
  2
STYLE
  5
3
100
AcDbSymbolTable
 70
           1
  0
STYLE
  5
17
100
AcDbSymbolTableRecord
100
AcDbTextStyleTableRecord
  2
STANDARD
 70
           0
 40
0.0
 41
1.0
 50
0.0
 71
           0
 42
0.0
  3
txt
  4

  0
ENDTAB
  0
TABLE
  2
VIEW
  5
5
100
AcDbSymbolTable
 70
           0
  0
ENDTAB
  0
TABLE
  2
UCS
  5
6
100
AcDbSymbolTable
 70
           0
  0
ENDTAB
  0
TABLE
  2
APPID
  5
8
100
AcDbSymbolTable
 70
           1
  0
APPID
  5
16
100
AcDbSymbolTableRecord
100
AcDbRegAppTableRecord
  2
ACAD
 70
           0
  0
ENDTAB
  0
TABLE
  2
DIMSTYLE
  5
9
100
AcDbSymbolTable
 70
           1
  0
DIMSTYLE
105
18
100
AcDbSymbolTableRecord
100
AcDbDimStyleTableRecord
  2
STANDARD
 70
           0
  3

  4

  5

  6

  7

 40
1.0
 41
0.18
 42
0.0625
 43
0.38
 44
0.18
 45
0.0
 46
0.0
 47
0.0
 48
0.0
 71
           0
 72
           0
 73
           1
 74
           1
 75
           0
 76
           0
 77
           0
 78
           0
140
0.18
141
0.09
142
0.0
143
25.4
144
1.0
145
0.0
146
1.0
147
0.09
170
           0
171
           2
172
           0
173
           0
174
           0
175
           0
176
           0
177
           0
178
           0
270
           2
271
           4
272
           4
273
           2
274
           2
275
           0
280
           0
281
           0
282
           0
283
           1
284
           0
285
           0
286
           0
287
           0
288
           0
340
17
  0
ENDTAB
  0
TABLE
  2
BLOCK_RECORD
  5
1
100
AcDbSymbolTable
 70
           0
  0
BLOCK_RECORD
  5
A
100
AcDbSymbolTableRecord
100
AcDbBlockTableRecord
  2
*MODEL_SPACE
  0
BLOCK_RECORD
  5
B
100
AcDbSymbolTableRecord
100
AcDbBlockTableRecord
  2
*PAPER_SPACE
  0
ENDTAB
  0
ENDSEC
  0
SECTION
  2
BLOCKS
  0
BLOCK
  5
D
100
AcDbEntity
  8
0
100
AcDbBlockBegin
  2
*MODEL_SPACE
 70
           0
 10
0.0
 20
0.0
 30
0.0
  3
*MODEL_SPACE
  1

  0
ENDBLK
  5
E
100
AcDbEntity
  8
0
100
AcDbBlockEnd
  0
BLOCK
  5
F
100
AcDbEntity
 67
           1
  8
0
100
AcDbBlockBegin
  2
*PAPER_SPACE
 70
           0
 10
0.0
 20
0.0
 30
0.0
  3
*PAPER_SPACE
  1

  0
ENDBLK
  5
10
100
AcDbEntity
 67
           1
  8
0
100
AcDbBlockEnd
  0
ENDSEC
  0
SECTION
  2
ENTITIES
  0
HATCH
  5
38D
100
AcDbEntity
  8
0
  6
CONTINUOUS
 62
           2
100
AcDbHatch
 10
0.0
 20
0.0
 30
0.0
210
0.0
220
0.0
230
1.0
  2
USER
 70
           0
 71
           1
 91
        1
 92
        1
 93
        8
 72
           1
 10
2979.9999999999982
 20
1219.750000000002
 11
2980.0
 21
1239.750000000002
 72
           1
 10
2902.000000000005
 20
1219.750000000002
 11
2979.9999999999982
 21
1219.750000000002
 72
           2
 10
2902.000000000005
 20
1256.7500000000009
 40
37.000000000000909
 50
179.999999999998
 51
-90.0
 73
           1
 72
           1
 10
2865.0000000000041
 20
1270.000000000002
 11
2865.0000000000041
 21
1256.750000000002
 72
           1
 10
2885.0000000000041
 20
1256.750000000002
 11
2885.0000000000041
 21
1270.000000000002
 72
           1
 10
2885.0000000000041
 20
1270.000000000002
 11
2865.0000000000041
 21
1270.000000000002
 72
           2
 10
2902.000000000005
 20
1256.7500000000009
 40
17.000000000000909
 50
179.999999999996
 51
-90.000000000003
 73
           1
 72
           1
 10
2902.0000000000041
 20
1239.7500000000009
 11
2980.0
 21
1239.750000000002
 97
        7
330
376
330
45
330
308
330
43
330
375
330
309
330
44
 75
           1
 76
           0
 52
45.0
 41
10.0
 77
           0
 78
           1
 53
45.0
 43
0.0
 44
0.0
 45
-7.0710678118654746
 46
7.0710678118654755
 79
           0
 98
        1
 10
0.0
 20
0.0
  0
ARC
  5
38C
100
AcDbEntity
  8
1
  6
CONTINUOUS
 62
           4
100
AcDbCircle
 10
109.265668111723
 20
5638.749999999998
 40
10.0
100
AcDbArc
 50
90.0
 51
120.430594205715
  0
ARC
  5
38B
100
AcDbEntity
  8
1
  6
CONTINUOUS
 62
           4
100
AcDbCircle
 10
109.265668111723
 20
5581.249999999998
 40
10.000000000001
100
AcDbArc
 50
-120.43059420571
 51
-90.0
  0
ARC
  5
38A
100
AcDbEntity
  8
1
  6
CONTINUOUS
 62
           7
100
AcDbCircle
 10
123.946258446662
 20
5576.249999999998
 40
10.0
100
AcDbArc
 50
180.0
 51
-90.0
  0
ARC
  5
389
100
AcDbEntity
  8
1
  6
CONTINUOUS
 62
           7
100
AcDbCircle
 10
123.946258446662
 20
5643.749999999998
 40
10.0
100
AcDbArc
 50
90.0
 51
180.0
  0
ARC
  5
388
100
AcDbEntity
  8
1
  6
CONTINUOUS
 62
           7
100
AcDbCircle
 10
156.500000000001
 20
5576.249999999998
 40
10.0
100
AcDbArc
 50
-90.0
 51
0.0
  0
ARC
  5
387
100
AcDbEntity
  8
1
  6
CONTINUOUS
 62
           7
100
AcDbCircle
 10
156.500000000001
 20
5643.749999999998
 40
10.0
100
AcDbArc
 50
0.0
 51
90.0
  0
ARC
  5
386
100
AcDbEntity
  8
1
  6
CONTINUOUS
 62
           3
100
AcDbCircle
 10
3749.899996810931
 20
1641.000000000001
 40
288.0
100
AcDbArc
 50
90.0
 51
180.0
  0
ARC
  5
385
100
AcDbEntity
  8
1
  6
CONTINUOUS
 62
           3
100
AcDbCircle
 10
3749.899998122326
 20
1641.000000000002
 40
280.0
100
AcDbArc
 50
90.0
 51
180.0
  0
ARC
  5
384
100
AcDbEntity
  8
1
  6
CONTINUOUS
 62
           3
100
AcDbCircle
 10
3898.163567691039
 20
1932.193746580041
 40
0.5
100
AcDbArc
 50
90.0
 51
180.0
  0
ARC
  5
383
100
AcDbEntity
  8
1
  6
CONTINUOUS
 62
           3
100
AcDbCircle
 10
3898.163567691039
 20
1917.806253419961
 40
0.5
100
AcDbArc
 50
180.0
 51
-90.0
  0
ARC
  5
382
100
AcDbEntity
  8
1
  6
CONTINUOUS
 62
           7
100
AcDbCircle
 10
156.499999999999
 20
2741.300000000002
 40
10.0
100
AcDbArc
 50
0.0
 51
90.0
  0
ARC
  5
381
100
AcDbEntity
  8
1
  6
CONTINUOUS
 62
           7
100
AcDbCircle
 10
156.499999999999
 20
2681.300000000003
 40
10.0
100
AcDbArc
 50
-90.0
 51
0.0
  0
ARC
  5
380
100
AcDbEntity
  8
1
  6
CONTINUOUS
 62
           7
100
AcDbCircle
 10
118.613664000001
 20
2741.300000000002
 40
10.0
100
AcDbArc
 50
90.0
 51
180.0
  0
ARC
  5
37F
100
AcDbEntity
  8
1
  6
CONTINUOUS
 62
           7
100
AcDbCircle
 10
118.613664000001
 20
2681.300000000003
 40
10.0
100
AcDbArc
 50
180.0
 51
-90.0
  0
ARC
  5
37E
100
AcDbEntity
  8
1
  6
CONTINUOUS
 62
           4
100
AcDbCircle
 10
4555.500000000002
 20
2556.0
 40
1.0
100
AcDbArc
 50
179.999999999947
 51
-90.0
  0
ARC
  5
37D
100
AcDbEntity
  8
1
  6
CONTINUOUS
 62
           4
100
AcDbCircle
 10
4544.500000000002
 20
2556.0
 40
1.0
100
AcDbArc
 50
-90.0
 51
0.0
  0
ARC
  5
37C
100
AcDbEntity
  8
1
  6
CONTINUOUS
 62
           4
100
AcDbCircle
 10
4555.500000000002
 20
2160.0
 40
1.0
100
AcDbArc
 50
90.0
 51
180.0
  0
ARC
  5
37B
100
AcDbEntity
  8
1
  6
CONTINUOUS
 62
           4
100
AcDbCircle
 10
4544.500000000002
 20
2160.0
 40
1.0
100
AcDbArc
 50
0.0
 51
90.0
  0
ARC
  5
37A
100
AcDbEntity
  8
1
  6
CONTINUOUS
 62
           7
100
AcDbCircle
 10
4143.750000000002
 20
2680.804518154823
 40
10.0
100
AcDbArc
 50
-90.0
 51
0.0
  0
ARC
  5
379
100
AcDbEntity
  8
1
  6
CONTINUOUS
 62
           7
100
AcDbCircle
 10
4076.250000000002
 20
2680.804518154823
 40
10.0
100
AcDbArc
 50
180.0
 51
-90.0
  0
ARC
  5
378
100
AcDbEntity
  8
1
  6
CONTINUOUS
 62
           7
100
AcDbCircle
 10
4143.750000000002
 20
2740.804518154823
 40
10.0
100
AcDbArc
 50
0.0
 51
90.0
  0
ARC
  5
377
100
AcDbEntity
  8
1
  6
CONTINUOUS
 62
           7
100
AcDbCircle
 10
4076.250000000002
 20
2740.804518154823
 40
10.0
100
AcDbArc
 50
90.0
 51
180.0
  0
LWPOLYLINE
  5
376
100
AcDbEntity
  8
1
  6
CONTINUOUS
 62
           7
 60
           1
100
AcDbPolyline
 90
        2
 70
           0
 10
2979.999999999998
 20
1219.750000000002
 10
2980.0
 20
1239.750000000002
  0
LWPOLYLINE
  5
375
100
AcDbEntity
  8
1
  6
CONTINUOUS
 62
           7
 60
           1
100
AcDbPolyline
 90
        3
 70
           0
 10
2885.000000000004
 20
1256.750000000002
 10
2885.000000000004
 20
1270.000000000002
 10
2865.000000000004
 20
1270.000000000002
  0
SPLINE
  5
374
100
AcDbEntity
  8
0
  6
CONTINUOUS
 62
           3
100
AcDbSpline
210
0.0
220
0.0
230
1.0
 70
           0
 71
           3
 72
           8
 73
           5
 74
           7
 42
0.00000000001
 43
0.00000000001
 44
0.00000000001
 40
0.0
 40
0.0
 40
0.0
 40
0.5558562714158484
 40
1.5343210643724832
 40
2.9385072683007025
 40
2.9385072683007025
 40
2.9385072683007025
 10
3415.8999967216728
 20
1359.999999404049
 30
0.0
 10
3415.968429809147
 20
1359.9995537106779
 30
0.0
 10
3416.9432526000178
 20
1359.9932048512139
 30
0.0
 10
3417.898530904748
 20
1359.7653090218639
 30
0.0
 10
3418.7867481555081
 20
1359.553411603069
 30
0.0
 11
3415.8999967216728
 21
1359.999999404049
 31
0.0
 11
3416.0396116244065
 21
1359.9990901152989
 31
0.0
 11
3416.32159015766
 21
1359.9972536357905
 31
0.0
 11
3416.8859111712827
 21
1359.9708199944773
 31
0.0
 11
3417.3355493274339
 21
1359.8996166396914
 31
0.0
 11
3417.9798398231087
 21
1359.7459115716219
 31
0.0
 11
3418.7867481555081
 21
1359.553411603069
 31
0.0
  0
SPLINE
  5
373
100
AcDbEntity
  8
0
  6
CONTINUOUS
 62
           3
100
AcDbSpline
210
0.0
220
0.0
230
1.0
 70
           0
 71
           3
 72
           8
 73
           5
 74
           7
 42
0.00000000001
 43
0.00000000001
 44
0.00000000001
 40
0.0
 40
0.0
 40
0.0
 40
0.5558558490633143
 40
1.5343195422013847
 40
2.9385037456617868
 40
2.9385037456617868
 40
2.9385037456617868
 10
3415.899996721671
 20
1355.000004172322
 30
0.0
 10
3415.831563636295
 20
1355.000449878303
 30
0.0
 10
3414.8567416872411
 20
1355.006798910669
 30
0.0
 10
3413.901462916263
 20
1355.234686929231
 30
0.0
 10
3413.013245287842
 20
1355.4465770722429
 30
0.0
 11
3415.899996721671
 21
1355.000004172322
 31
0.0
 11
3415.7603818762482
 21
1355.000913486323
 31
0.0
 11
3415.4784035107323
 21
1355.002750016364
 31
0.0
 11
3414.9140828960167
 21
1355.0291829422194
 31
0.0
 11
3414.4644446988518
 21
1355.1003839311759
 31
0.0
 11
3413.8201539548049
 21
1355.2540837154702
 31
0.0
 11
3413.013245287842
 21
1355.4465770722429
 31
0.0
  0
SPLINE
  5
372
100
AcDbEntity
  8
0
  6
CONTINUOUS
 62
           3
100
AcDbSpline
210
0.0
220
0.0
230
1.0
 70
           0
 71
           3
 72
           8
 73
           5
 74
           7
 42
0.00000000001
 43
0.00000000001
 44
0.00000000001
 40
0.0
 40
0.0
 40
0.0
 40
0.2779452695596025
 40
0.7862805426616162
 40
1.5429573556209462
 40
1.5429573556209462
 40
1.5429573556209462
 10
3420.23012375601
 20
1355.0000041724211
 30
0.0
 10
3420.195907212476
 20
1355.00044987719
 30
0.0
 10
3419.7084969152688
 20
1355.006798884745
 30
0.0
 10
3419.2308572149891
 20
1355.2346869284679
 30
0.0
 10
3418.786748155369
 20
1355.446577072225
 30
0.0
 11
3420.23012375601
 21
1355.0000041724211
 31
0.0
 11
3420.1613872230655
 21
1355.0008995346443
 31
0.0
 11
3420.0236107112996
 21
1355.0026942117761
 31
0.0
 11
3419.739291414131
 21
1355.0286664762184
 31
0.0
 11
3419.5165611146854
 21
1355.0983739236076
 31
0.0
 11
3419.1912559250081
 21
1355.2535812131921
 31
0.0
 11
3418.786748155369
 21
1355.446577072225
 31
0.0
  0
SPLINE
  5
371
100
AcDbEntity
  8
0
  6
CONTINUOUS
 62
           3
100
AcDbSpline
210
0.0
220
0.0
230
1.0
 70
           0
 71
           3
 72
           8
 73
           5
 74
           7
 42
0.00000000001
 43
0.00000000001
 44
0.00000000001
 40
0.0
 40
0.0
 40
0.0
 40
0.6787700534886673
 40
1.1891668948804988
 40
1.5431123743482786
 40
1.5431123743482786
 40
1.5431123743482786
 10
3413.013245287842
 20
1355.4465770722429
 30
0.0
 10
3412.6438214744071
 20
1355.262448371607
 30
0.0
 10
3412.167682050625
 20
1355.025130336785
 30
0.0
 10
3411.6793238525838
 20
1355.004604551262
 30
0.0
 10
3411.5698696873419
 20
1355.0000041724211
 30
0.0
 11
3413.013245287842
 21
1355.4465770722429
 31
0.0
 11
3412.6682329736404
 21
1355.274615583008
 31
0.0
 11
3412.3720436579038
 21
1355.1269885165743
 31
0.0
 11
3412.1466781919494
 21
1355.0475647466096
 31
0.0
 11
3411.8793050086447
 21
1355.013009796294
 31
0.0
 11
3411.7019556002883
 21
1355.0055557678097
 31
0.0
 11
3411.5698696873419
 21
1355.0000041724211
 31
0.0
  0
SPLINE
  5
370
100
AcDbEntity
  8
0
  6
CONTINUOUS
 62
           3
100
AcDbSpline
210
0.0
220
0.0
230
1.0
 70
           0
 71
           3
 72
           8
 73
           5
 74
           7
 42
0.00000000001
 43
0.00000000001
 44
0.00000000001
 40
0.0
 40
0.0
 40
0.0
 40
0.3539460334978485
 40
0.8643414136620431
 40
1.5431068114060329
 40
1.5431068114060329
 40
1.5431068114060329
 10
3411.5698696873419
 20
1359.999999404049
 30
0.0
 10
3411.6793238424229
 20
1359.9953935078311
 30
0.0
 10
3412.1676816710419
 20
1359.9748431187411
 30
0.0
 10
3412.6438213484448
 20
1359.737533634355
 30
0.0
 10
3413.0132452879729
 20
1359.5534116030219
 30
0.0
 11
3411.5698696873419
 21
1359.999999404049
 31
0.0
 11
3411.7019556855803
 21
1359.9944411463553
 31
0.0
 11
3411.8793053701329
 21
1359.9869781657103
 31
0.0
 11
3412.1466781413856
 21
1359.9524131949267
 31
0.0
 11
3412.3720438533255
 21
1359.8729883765145
 31
0.0
 11
3412.6682329595469
 21
1359.7253668120616
 31
0.0
 11
3413.0132452879729
 21
1359.5534116030219
 31
0.0
  0
SPLINE
  5
36F
100
AcDbEntity
  8
0
  6
CONTINUOUS
 62
           3
100
AcDbSpline
210
0.0
220
0.0
230
1.0
 70
           0
 71
           3
 72
           8
 73
           5
 74
           7
 42
0.00000000001
 43
0.00000000001
 44
0.00000000001
 40
0.0
 40
0.0
 40
0.0
 40
0.6415450374699313
 40
1.157930368601785
 40
1.5357381749015431
 40
1.5357381749015431
 40
1.5357381749015431
 10
3411.5698696873419
 20
1355.0000041724211
 30
0.0
 10
3411.1795237086139
 20
1355.0576336938771
 30
0.0
 10
3410.690884629365
 20
1355.129774916885
 30
0.0
 10
3410.2210119621182
 20
1355.393522448257
 30
0.0
 10
3410.126493853973
 20
1355.446577072225
 30
0.0
 11
3411.5698696873419
 21
1355.0000041724211
 31
0.0
 11
3411.2094282457042
 21
1355.0532186768003
 31
0.0
 11
3410.9087958782484
 21
1355.0976031470261
 31
0.0
 11
3410.6775260473241
 21
1355.1598096979628
 31
0.0
 11
3410.41953905232
 21
1355.2820858110549
 31
0.0
 11
3410.2470142076318
 21
1355.3789269449485
 31
0.0
 11
3410.126493853973
 21
1355.446577072225
 31
0.0
  0
SPLINE
  5
36E
100
AcDbEntity
  8
0
  6
CONTINUOUS
 62
           3
100
AcDbSpline
210
0.0
220
0.0
230
1.0
 70
           0
 71
           3
 72
           8
 73
           5
 74
           7
 42
0.00000000001
 43
0.00000000001
 44
0.00000000001
 40
0.0
 40
0.0
 40
0.0
 40
0.3778155284989738
 40
0.8942062233998507
 40
1.5357514174626747
 40
1.5357514174626747
 40
1.5357514174626747
 10
3410.126493853973
 20
1359.5534116030219
 30
0.0
 10
3410.221011897032
 20
1359.606471690907
 30
0.0
 10
3410.6908817949061
 20
1359.8702450113749
 30
0.0
 10
3411.1795227343059
 20
1359.9423771861991
 30
0.0
 10
3411.5698696873419
 20
1359.999999404049
 30
0.0
 11
3410.126493853973
 21
1359.5534116030219
 31
0.0
 11
3410.2470141544059
 21
1359.621068714029
 31
0.0
 11
3410.419538969586
 21
1359.7179198712804
 31
0.0
 11
3410.6775244143323
 21
1359.8402057052374
 31
0.0
 11
3410.9087950979297
 21
1359.9024129269196
 31
0.0
 11
3411.2094275634718
 21
1359.9467916758417
 31
0.0
 11
3411.5698696873419
 21
1359.999999404049
 31
0.0
  0
SPLINE
  5
36D
100
AcDbEntity
  8
0
  6
CONTINUOUS
 62
           3
100
AcDbSpline
210
0.0
220
0.0
230
1.0
 70
           0
 71
           3
 72
           8
 73
           5
 74
           7
 42
0.00000000001
 43
0.00000000001
 44
0.00000000001
 40
0.0
 40
0.0
 40
0.0
 40
0.2779464854642422
 40
0.7862840844007659
 40
1.542964265921283
 40
1.542964265921283
 40
1.542964265921283
 10
3420.2301237559682
 20
1359.9999994039219
 30
0.0
 10
3420.2643403053662
 20
1359.999553708677
 30
0.0
 10
3420.751753024455
 20
1359.9932048044441
 30
0.0
 10
3421.2293915040032
 20
1359.765309020481
 30
0.0
 10
3421.673499589368
 20
1359.5534116030219
 30
0.0
 11
3420.2301237559682
 21
1359.9999994039219
 31
0.0
 11
3420.2988605017495
 21
1359.9991040580455
 31
0.0
 11
3420.4366376402977
 21
1359.9973094109059
 31
0.0
 11
3420.7209580094741
 21
1359.9713364170623
 31
0.0
 11
3420.9436883486887
 21
1359.901626648455
 31
0.0
 11
3421.2689927365159
 21
1359.7464140731099
 31
0.0
 11
3421.673499589368
 21
1359.5534116030219
 31
0.0
  0
SPLINE
  5
36C
100
AcDbEntity
  8
0
  6
CONTINUOUS
 62
           3
100
AcDbSpline
210
0.0
220
0.0
230
1.0
 70
           0
 71
           3
 72
           8
 73
           5
 74
           7
 42
0.00000000001
 43
0.00000000001
 44
0.00000000001
 40
0.0
 40
0.0
 40
0.0
 40
1.2475591451542225
 40
2.2257037084934876
 40
2.9354142011741278
 40
2.9354142011741278
 40
2.9354142011741278
 10
3415.8999967216728
 20
1364.9999946356741
 30
0.0
 10
3415.1443416651759
 20
1364.945893300094
 30
0.0
 10
3414.1669038516479
 20
1364.875913365858
 30
0.0
 10
3413.2266018489549
 20
1364.6130630433661
 30
0.0
 10
3413.013245287842
 20
1364.553421735859
 30
0.0
 11
3415.8999967216728
 21
1364.9999946356741
 31
0.0
 11
3415.1962862228384
 21
1364.9496122852597
 31
0.0
 11
3414.5964648393283
 21
1364.9066679051771
 31
0.0
 11
3414.1380633113699
 21
1364.8455202926345
 31
0.0
 11
3413.6219807028556
 21
1364.7235865336454
 31
0.0
 11
3413.2721074221513
 21
1364.6257835890592
 31
0.0
 11
3413.013245287842
 21
1364.553421735859
 31
0.0
  0
SPLINE
  5
36B
100
AcDbEntity
  8
0
  6
CONTINUOUS
 62
           3
100
AcDbSpline
210
0.0
220
0.0
230
1.0
 70
           0
 71
           3
 72
           8
 73
           5
 74
           7
 42
0.00000000001
 43
0.00000000001
 44
0.00000000001
 40
0.0
 40
0.0
 40
0.0
 40
1.2321288292643962
 40
2.2113508927720806
 40
2.9387184667315744
 40
2.9387184667315744
 40
2.9387184667315744
 10
3418.7867481555081
 20
1364.553421735859
 30
0.0
 10
3418.0674885010499
 20
1364.7336190184301
 30
0.0
 10
3417.1156260261
 20
1364.972090661199
 30
0.0
 10
3416.1387194651529
 20
1364.9945149114551
 30
0.0
 10
3415.8999967216728
 20
1364.9999946356741
 30
0.0
 11
3418.7867481555081
 21
1364.553421735859
 31
0.0
 11
3418.1147128338666
 21
1364.721787830081
 31
0.0
 11
3417.5371261778591
 21
1364.8664915476058
 31
0.0
 11
3417.080866547009
 21
1364.9489075788545
 31
0.0
 11
3416.5550879579764
 21
1364.9849574454138
 31
0.0
 11
3416.1831309024892
 21
1364.9934954759997
 31
0.0
 11
3415.8999967216728
 21
1364.9999946356741
 31
0.0
  0
SPLINE
  5
36A
100
AcDbEntity
  8
0
  6
CONTINUOUS
 62
           3
100
AcDbSpline
210
0.0
220
0.0
230
1.0
 70
           0
 71
           3
 72
           8
 73
           5
 74
           7
 42
0.00000000001
 43
0.00000000001
 44
0.00000000001
 40
0.0
 40
0.0
 40
0.0
 40
0.7273681394951683
 40
1.7065914567924385
 40
2.9387223240424425
 40
2.9387223240424425
 40
2.9387223240424425
 10
3415.8999967216728
 20
1359.999999404049
 30
0.0
 10
3416.1387195010361
 20
1360.0054789431169
 30
0.0
 10
3417.1156271469831
 20
1360.0279024572419
 30
0.0
 10
3418.0674888562462
 20
1360.2663830805111
 30
0.0
 10
3418.786748155369
 20
1360.446587205123
 30
0.0
 11
3415.8999967216728
 21
1359.999999404049
 31
0.0
 11
3416.1831310149755
 21
1360.0064983457341
 31
0.0
 11
3416.5550883361566
 21
1360.0150360926532
 31
0.0
 11
3417.0808673755137
 21
1360.0510866331745
 31
0.0
 11
3417.5371268719327
 21
1360.1335055255611
 31
0.0
 11
3418.1147131849484
 21
1360.2782147229264
 31
0.0
 11
3418.786748155369
 21
1360.446587205123
 31
0.0
  0
SPLINE
  5
369
100
AcDbEntity
  8
0
  6
CONTINUOUS
 62
           3
100
AcDbSpline
210
0.0
220
0.0
230
1.0
 70
           0
 71
           3
 72
           8
 73
           5
 74
           7
 42
0.00000000001
 43
0.00000000001
 44
0.00000000001
 40
0.0
 40
0.0
 40
0.0
 40
0.7097126556409898
 40
1.6878594213860671
 40
2.9354211178787386
 40
2.9354211178787386
 40
2.9354211178787386
 10
3413.013245287842
 20
1360.446587205025
 30
0.0
 10
3413.2266017037659
 20
1360.3869403699291
 30
0.0
 10
3414.1668989125851
 20
1360.124066847621
 30
0.0
 10
3415.1443400642488
 20
1360.054094671618
 30
0.0
 10
3415.8999967216728
 20
1359.999999404049
 30
0.0
 11
3413.013245287842
 21
1360.446587205025
 31
0.0
 11
3413.2721068549263
 21
1360.3742187546163
 31
0.0
 11
3413.6219787243326
 21
1360.2764070735827
 31
0.0
 11
3414.1380594916332
 21
1360.1544641207818
 31
0.0
 11
3414.5964614170316
 21
1360.0933157143031
 31
0.0
 11
3415.1962845668004
 21
1360.0503761153968
 31
0.0
 11
3415.8999967216728
 21
1359.999999404049
 31
0.0
  0
SPLINE
  5
368
100
AcDbEntity
  8
0
  6
CONTINUOUS
 62
           3
100
AcDbSpline
210
0.0
220
0.0
230
1.0
 70
           0
 71
           3
 72
           8
 73
           5
 74
           7
 42
0.00000000001
 43
0.00000000001
 44
0.00000000001
 40
0.0
 40
0.0
 40
0.0
 40
0.2779452695595862
 40
0.7862805426606995
 40
1.5429573555012928
 40
1.5429573555012928
 40
1.5429573555012928
 10
3420.23012375601
 20
1364.9999946356741
 30
0.0
 10
3420.195907212476
 20
1364.9995489309049
 30
0.0
 10
3419.7084969152688
 20
1364.9931999233529
 30
0.0
 10
3419.2308572149891
 20
1364.7653118796341
 30
0.0
 10
3418.7867481555081
 20
1364.553421735859
 30
0.0
 11
3420.23012375601
 21
1364.9999946356741
 31
0.0
 11
3420.1613872230655
 21
1364.9990992734511
 31
0.0
 11
3420.0236107112996
 21
1364.9973045963197
 31
0.0
 11
3419.739291414126
 21
1364.9713323318772
 31
0.0
 11
3419.5165611146676
 21
1364.9016248844837
 31
0.0
 11
3419.1912559250377
 21
1364.7464175949024
 31
0.0
 11
3418.7867481555081
 21
1364.553421735859
 31
0.0
  0
SPLINE
  5
367
100
AcDbEntity
  8
0
  6
CONTINUOUS
 62
           3
100
AcDbSpline
210
0.0
220
0.0
230
1.0
 70
           0
 71
           3
 72
           8
 73
           5
 74
           7
 42
0.00000000001
 43
0.00000000001
 44
0.00000000001
 40
0.0
 40
0.0
 40
0.0
 40
0.2779464854675783
 40
0.7862840844040768
 40
1.5429642659447642
 40
1.5429642659447642
 40
1.5429642659447642
 10
3420.2301237559682
 20
1359.9999994039219
 30
0.0
 10
3420.2643403053662
 20
1360.000445099425
 30
0.0
 10
3420.751753024455
 20
1360.006794003654
 30
0.0
 10
3421.2293915040032
 20
1360.2346897876171
 30
0.0
 10
3421.673499589368
 20
1360.446587205123
 30
0.0
 11
3420.2301237559682
 21
1359.9999994039219
 31
0.0
 11
3420.2988605017495
 21
1360.0008947499916
 31
0.0
 11
3420.4366376402991
 21
1360.0026893971947
 31
0.0
 11
3420.7209580094736
 21
1360.0286623910361
 31
0.0
 11
3420.9436883486851
 21
1360.0983721596417
 31
0.0
 11
3421.268992736515
 21
1360.2535847349995
 31
0.0
 11
3421.673499589368
 21
1360.446587205123
 31
0.0
  0
SPLINE
  5
366
100
AcDbEntity
  8
0
  6
CONTINUOUS
 62
           3
100
AcDbSpline
210
0.0
220
0.0
230
1.0
 70
           0
 71
           3
 72
           8
 73
           5
 74
           7
 42
0.00000000001
 43
0.00000000001
 44
0.00000000001
 40
0.0
 40
0.0
 40
0.0
 40
0.277946275233158
 40
0.7862820883231623
 40
1.5429577306093694
 40
1.5429577306093694
 40
1.5429577306093694
 10
3411.5698696873419
 20
1364.9999946356741
 30
0.0
 10
3411.535653139028
 20
1364.999548927791
 30
0.0
 10
3411.0482408408502
 20
1364.9931998506629
 30
0.0
 10
3410.5706021281799
 20
1364.765311877484
 30
0.0
 10
3410.126493853973
 20
1364.553421735917
 30
0.0
 11
3411.5698696873419
 21
1364.9999946356741
 31
0.0
 11
3411.5011329028016
 21
1364.9990992640398
 31
0.0
 11
3411.363355645809
 21
1364.9973045649026
 31
0.0
 11
3411.0790356162656
 21
1364.9713322408611
 31
0.0
 11
3410.8563051375513
 21
1364.9016246972151
 31
0.0
 11
3410.5310008119714
 21
1364.746417547025
 31
0.0
 11
3410.126493853973
 21
1364.553421735917
 31
0.0
  0
SPLINE
  5
365
100
AcDbEntity
  8
0
  6
CONTINUOUS
 62
           3
100
AcDbSpline
210
0.0
220
0.0
230
1.0
 70
           0
 71
           3
 72
           8
 73
           5
 74
           7
 42
0.00000000001
 43
0.00000000001
 44
0.00000000001
 40
0.0
 40
0.0
 40
0.0
 40
0.2779454797511823
 40
0.7862825386943564
 40
1.5429638907246959
 40
1.5429638907246959
 40
1.5429638907246959
 10
3411.5698696873419
 20
1359.999999404049
 30
0.0
 10
3411.604086231921
 20
1360.000445096307
 30
0.0
 10
3412.091496950035
 20
1360.006793930964
 30
0.0
 10
3412.5691364171912
 20
1360.23468978547
 30
0.0
 10
3413.013245287842
 20
1360.446587205025
 30
0.0
 11
3411.5698696873419
 21
1359.999999404049
 31
0.0
 11
3411.6386061814947
 21
1360.0008947406095
 31
0.0
 11
3411.7763825747943
 21
1360.0026893657746
 31
0.0
 11
3412.060702211611
 21
1360.0286623000193
 31
0.0
 11
3412.2834323715779
 21
1360.0983719723745
 31
0.0
 11
3412.6087376234505
 21
1360.2535846870846
 31
0.0
 11
3413.013245287842
 21
1360.446587205025
 31
0.0
  0
SPLINE
  5
364
100
AcDbEntity
  8
0
  6
CONTINUOUS
 62
           3
100
AcDbSpline
210
0.0
220
0.0
230
1.0
 70
           0
 71
           3
 72
           8
 73
           5
 74
           7
 42
0.00000000001
 43
0.00000000001
 44
0.00000000001
 40
0.0
 40
0.0
 40
0.0
 40
1.2475604207798281
 40
2.2257060852923551
 40
2.9354176594304855
 40
2.9354176594304855
 40
2.9354176594304855
 10
3415.8999967216728
 20
1377.5999993086671
 30
0.0
 10
3415.1443408647269
 20
1377.545901007107
 30
0.0
 10
3414.1669013821652
 20
1377.475924952008
 30
0.0
 10
3413.2266017763609
 20
1377.213063029573
 30
0.0
 10
3413.013245287842
 20
1377.153418958268
 30
0.0
 11
3415.8999967216728
 21
1377.5999993086671
 31
0.0
 11
3415.1962853948353
 21
1377.5496197777998
 31
0.0
 11
3414.596463128215
 21
1377.506677788318
 31
0.0
 11
3414.1380614015397
 21
1377.4455297788083
 31
0.0
 11
3413.6219797136146
 21
1377.3235914228994
 31
0.0
 11
3413.2721071385445
 21
1377.2257841100782
 31
0.0
 11
3413.013245287842
 21
1377.153418958268
 31
0.0
  0
SPLINE
  5
363
100
AcDbEntity
  8
0
  6
CONTINUOUS
 62
           3
100
AcDbSpline
210
0.0
220
0.0
230
1.0
 70
           0
 71
           3
 72
           8
 73
           5
 74
           7
 42
0.00000000001
 43
0.00000000001
 44
0.00000000001
 40
0.0
 40
0.0
 40
0.0
 40
1.2321298483039826
 40
2.2113525387007713
 40
2.938720395425543
 40
2.938720395425543
 40
2.938720395425543
 10
3418.7867481555081
 20
1377.153418958268
 30
0.0
 10
3418.067488678646
 20
1377.3336196618161
 30
0.0
 10
3417.1156265865379
 20
1377.5720957948331
 30
0.0
 10
3416.1387194830932
 20
1377.594519677024
 30
0.0
 10
3415.8999967216728
 20
1377.5999993086671
 30
0.0
 11
3418.7867481555081
 21
1377.153418958268
 31
0.0
 11
3418.1147130094205
 21
1377.3217882464451
 31
0.0
 11
3417.5371265248828
 21
1377.46649470388
 31
0.0
 11
3417.0808669612557
 21
1377.5489121656951
 31
0.0
 11
3416.5550881470649
 21
1377.584962369235
 31
0.0
 11
3416.183130958731
 21
1377.5935002579874
 31
0.0
 11
3415.8999967216728
 21
1377.5999993086671
 31
0.0
  0
SPLINE
  5
362
100
AcDbEntity
  8
0
  6
CONTINUOUS
 62
           3
100
AcDbSpline
210
0.0
220
0.0
230
1.0
 70
           0
 71
           3
 72
           8
 73
           5
 74
           7
 42
0.00000000001
 43
0.00000000001
 44
0.00000000001
 40
0.0
 40
0.0
 40
0.0
 40
0.7273675739595847
 40
1.7065896374669074
 40
2.9387184666091146
 40
2.9387184666091146
 40
2.9387184666091146
 10
3415.8999967216728
 20
1372.6000040770421
 30
0.0
 10
3416.1387194651529
 20
1372.6054838012651
 30
0.0
 10
3417.1156260261
 20
1372.627908051521
 30
0.0
 10
3418.0674885010499
 20
1372.8663796942869
 30
0.0
 10
3418.786748155369
 20
1373.0465769769121
 30
0.0
 11
3415.8999967216728
 21
1372.6000040770421
 31
0.0
 11
3416.1831309024883
 21
1372.6065032367196
 31
0.0
 11
3416.5550879579769
 21
1372.6150412673064
 31
0.0
 11
3417.0808665470145
 21
1372.6510911338669
 31
0.0
 11
3417.5371261778823
 21
1372.7335071651187
 31
0.0
 11
3418.114712833838
 21
1372.8782108826513
 31
0.0
 11
3418.786748155369
 21
1373.0465769769121
 31
0.0
  0
SPLINE
  5
361
100
AcDbEntity
  8
0
  6
CONTINUOUS
 62
           3
100
AcDbSpline
210
0.0
220
0.0
230
1.0
 70
           0
 71
           3
 72
           8
 73
           5
 74
           7
 42
0.00000000001
 43
0.00000000001
 44
0.00000000001
 40
0.0
 40
0.0
 40
0.0
 40
0.7097104926828064
 40
1.6878550560220633
 40
2.9354142011751354
 40
2.9354142011751354
 40
2.9354142011751354
 10
3413.013245287842
 20
1373.0465769768609
 30
0.0
 10
3413.2266018489549
 20
1372.98693566935
 30
0.0
 10
3414.1669038516502
 20
1372.7240853468579
 30
0.0
 10
3415.1443416651759
 20
1372.6541054126219
 30
0.0
 10
3415.8999967216728
 20
1372.6000040770421
 30
0.0
 11
3413.013245287842
 21
1373.0465769768609
 31
0.0
 11
3413.2721074221527
 21
1372.974215123658
 31
0.0
 11
3413.6219807028574
 21
1372.8764121790705
 31
0.0
 11
3414.1380633113722
 21
1372.7544784200811
 31
0.0
 11
3414.5964648393301
 21
1372.6933308075386
 31
0.0
 11
3415.1962862228393
 21
1372.6503864274562
 31
0.0
 11
3415.8999967216728
 21
1372.6000040770421
 31
0.0
  0
SPLINE
  5
360
100
AcDbEntity
  8
0
  6
CONTINUOUS
 62
           3
100
AcDbSpline
210
0.0
220
0.0
230
1.0
 70
           0
 71
           3
 72
           8
 73
           5
 74
           7
 42
0.00000000001
 43
0.00000000001
 44
0.00000000001
 40
0.0
 40
0.0
 40
0.0
 40
0.2779453746565461
 40
0.7862815406724747
 40
1.5429606230910067
 40
1.5429606230910067
 40
1.5429606230910067
 10
3420.23012375601
 20
1377.5999993086671
 30
0.0
 10
3420.1959072119539
 20
1377.599553610152
 30
0.0
 10
3419.7084967042902
 20
1377.5932046890459
 30
0.0
 10
3419.230857120574
 20
1377.365312739938
 30
0.0
 10
3418.7867481555081
 20
1377.153418958268
 30
0.0
 11
3420.23012375601
 21
1377.5999993086671
 31
0.0
 11
3420.1613872424609
 21
1377.5991039592741
 31
0.0
 11
3420.0236107899264
 21
1377.5973093081252
 31
0.0
 11
3419.7392913229314
 21
1377.571336708781
 31
0.0
 11
3419.5165610932181
 21
1377.5016281489063
 31
0.0
 11
3419.191255872468
 21
1377.3464181467625
 31
0.0
 11
3418.7867481555081
 21
1377.153418958268
 31
0.0
  0
SPLINE
  5
35F
100
AcDbEntity
  8
0
  6
CONTINUOUS
 62
           3
100
AcDbSpline
210
0.0
220
0.0
230
1.0
 70
           0
 71
           3
 72
           8
 73
           5
 74
           7
 42
0.00000000001
 43
0.00000000001
 44
0.00000000001
 40
0.0
 40
0.0
 40
0.0
 40
0.2779462752302261
 40
0.7862820883211955
 40
1.5429577306480984
 40
1.5429577306480984
 40
1.5429577306480984
 10
3420.23012375601
 20
1372.6000040770421
 30
0.0
 10
3420.2643403043198
 20
1372.600449784929
 30
0.0
 10
3420.7517526024999
 20
1372.606798862053
 30
0.0
 10
3421.229391315168
 20
1372.834686835236
 30
0.0
 10
3421.673499589368
 20
1373.0465769769121
 30
0.0
 11
3420.23012375601
 21
1372.6000040770421
 31
0.0
 11
3420.2988605405471
 21
1372.600899448679
 31
0.0
 11
3420.4366377975384
 21
1372.602694147816
 31
0.0
 11
3420.7209578270822
 21
1372.6286664718552
 31
0.0
 11
3420.9436883057915
 21
1372.6983740154997
 31
0.0
 11
3421.2689926313733
 21
1372.8535811657207
 31
0.0
 11
3421.673499589368
 21
1373.0465769769121
 31
0.0
  0
SPLINE
  5
35E
100
AcDbEntity
  8
0
  6
CONTINUOUS
 62
           3
100
AcDbSpline
210
0.0
220
0.0
230
1.0
 70
           0
 71
           3
 72
           8
 73
           5
 74
           7
 42
0.00000000001
 43
0.00000000001
 44
0.00000000001
 40
0.0
 40
0.0
 40
0.0
 40
0.2779463803282767
 40
0.786283086335384
 40
1.5429609982565871
 40
1.5429609982565871
 40
1.5429609982565871
 10
3411.5698696873419
 20
1377.5999993086671
 30
0.0
 10
3411.5356531385082
 20
1377.5995536070379
 30
0.0
 10
3411.0482406298729
 20
1377.5932046163589
 30
0.0
 10
3410.5706020337661
 20
1377.3653127377879
 30
0.0
 10
3410.126493853973
 20
1377.153418958206
 30
0.0
 11
3411.5698696873419
 21
1377.5999993086671
 31
0.0
 11
3411.5011329221998
 21
1377.5991039498629
 31
0.0
 11
3411.3633557244389
 21
1377.5973092767088
 31
0.0
 11
3411.0790355250747
 21
1377.571336617767
 31
0.0
 11
3410.8563051161118
 21
1377.5016279616414
 31
0.0
 11
3410.5310007594044
 21
1377.3464180988558
 31
0.0
 11
3410.126493853973
 21
1377.153418958206
 31
0.0
  0
SPLINE
  5
35D
100
AcDbEntity
  8
0
  6
CONTINUOUS
 62
           3
100
AcDbSpline
210
0.0
220
0.0
230
1.0
 70
           0
 71
           3
 72
           8
 73
           5
 74
           7
 42
0.00000000001
 43
0.00000000001
 44
0.00000000001
 40
0.0
 40
0.0
 40
0.0
 40
0.2779452695550628
 40
0.7862805426580939
 40
1.5429573554993028
 40
1.5429573554993028
 40
1.5429573554993028
 10
3411.5698696873419
 20
1372.6000040770421
 30
0.0
 10
3411.604086230871
 20
1372.600449781811
 30
0.0
 10
3412.091496528079
 20
1372.6067987893671
 30
0.0
 10
3412.5691362283619
 20
1372.8346868330859
 30
0.0
 10
3413.013245287842
 20
1373.0465769768609
 30
0.0
 11
3411.5698696873419
 21
1372.6000040770421
 31
0.0
 11
3411.6386062202819
 21
1372.600899439265
 31
0.0
 11
3411.7763827320455
 21
1372.6026941163975
 31
0.0
 11
3412.0607020292214
 21
1372.6286663808421
 31
0.0
 11
3412.283432328682
 21
1372.6983738282365
 31
0.0
 11
3412.608737518312
 21
1372.8535811178174
 31
0.0
 11
3413.013245287842
 21
1373.0465769768609
 31
0.0
  0
SPLINE
  5
35C
100
AcDbEntity
  8
0
  6
CONTINUOUS
 62
           3
100
AcDbSpline
210
0.0
220
0.0
230
1.0
 70
           0
 71
           3
 72
           8
 73
           5
 74
           7
 42
0.00000000001
 43
0.00000000001
 44
0.00000000001
 40
0.0
 40
0.0
 40
0.0
 40
1.2475616964926797
 40
2.2257084622377343
 40
2.9354211178795508
 40
2.9354211178795508
 40
2.9354211178795508
 10
3415.8999967216728
 20
1372.6000040770421
 30
0.0
 10
3415.1443400642488
 20
1372.5459088094731
 30
0.0
 10
3414.1668989125851
 20
1372.4759366334699
 30
0.0
 10
3413.2266017037659
 20
1372.213063111162
 30
0.0
 10
3413.013245287842
 20
1372.1534162760629
 30
0.0
 11
3415.8999967216728
 21
1372.6000040770421
 31
0.0
 11
3415.1962845668004
 21
1372.5496273656941
 31
0.0
 11
3414.5964614170316
 21
1372.5066877667882
 31
0.0
 11
3414.1380594916341
 21
1372.4455393603093
 31
0.0
 11
3413.6219787243326
 21
1372.3235964075084
 31
0.0
 11
3413.2721068549267
 21
1372.2257847264739
 31
0.0
 11
3413.013245287842
 21
1372.1534162760629
 31
0.0
  0
SPLINE
  5
35B
100
AcDbEntity
  8
0
  6
CONTINUOUS
 62
           3
100
AcDbSpline
210
0.0
220
0.0
230
1.0
 70
           0
 71
           3
 72
           8
 73
           5
 74
           7
 42
0.00000000001
 43
0.00000000001
 44
0.00000000001
 40
0.0
 40
0.0
 40
0.0
 40
1.2321308673619147
 40
2.2113541846591236
 40
2.9387223241543308
 40
2.9387223241543308
 40
2.9387223241543308
 10
3418.7867481555081
 20
1372.1534162760629
 30
0.0
 10
3418.0674888562462
 20
1372.33362040058
 30
0.0
 10
3417.1156271469831
 20
1372.572101023849
 30
0.0
 10
3416.1387195010361
 20
1372.594524537971
 30
0.0
 10
3415.8999967216728
 20
1372.6000040770421
 30
0.0
 11
3418.7867481555081
 21
1372.1534162760629
 31
0.0
 11
3418.1147131849775
 21
1372.3217887581895
 31
0.0
 11
3417.5371268719114
 21
1372.4664979555353
 31
0.0
 11
3417.0808673755091
 21
1372.5489168479173
 31
0.0
 11
3416.5550883361566
 21
1372.5849673884359
 31
0.0
 11
3416.1831310149751
 21
1372.5935051353549
 31
0.0
 11
3415.8999967216728
 21
1372.6000040770421
 31
0.0
  0
SPLINE
  5
35A
100
AcDbEntity
  8
0
  6
CONTINUOUS
 62
           3
100
AcDbSpline
210
0.0
220
0.0
230
1.0
 70
           0
 71
           3
 72
           8
 73
           5
 74
           7
 42
0.00000000001
 43
0.00000000001
 44
0.00000000001
 40
0.0
 40
0.0
 40
0.0
 40
0.7273681394952622
 40
1.7065914567925047
 40
2.9387223240371765
 40
2.9387223240371765
 40
2.9387223240371765
 10
3415.8999967216728
 20
1367.5999939442561
 30
0.0
 10
3416.1387195010361
 20
1367.6054734833281
 30
0.0
 10
3417.1156271469831
 20
1367.627896997453
 30
0.0
 10
3418.0674888562462
 20
1367.866377620722
 30
0.0
 10
3418.786748155369
 20
1368.0465817453121
 30
0.0
 11
3415.8999967216728
 21
1367.5999939442561
 31
0.0
 11
3416.1831310149755
 21
1367.6064928859444
 31
0.0
 11
3416.5550883361566
 21
1367.6150306328645
 31
0.0
 11
3417.0808673755141
 21
1367.6510811733856
 31
0.0
 11
3417.5371268719337
 21
1367.7335000657724
 31
0.0
 11
3418.1147131849493
 21
1367.878209263132
 31
0.0
 11
3418.786748155369
 21
1368.0465817453121
 31
0.0
  0
SPLINE
  5
359
100
AcDbEntity
  8
0
  6
CONTINUOUS
 62
           3
100
AcDbSpline
210
0.0
220
0.0
230
1.0
 70
           0
 71
           3
 72
           8
 73
           5
 74
           7
 42
0.00000000001
 43
0.00000000001
 44
0.00000000001
 40
0.0
 40
0.0
 40
0.0
 40
0.7097107189164525
 40
1.6878556121224828
 40
2.935415097411695
 40
2.935415097411695
 40
2.935415097411695
 10
3413.013245287842
 20
1368.0465817452359
 30
0.0
 10
3413.226601869495
 20
1367.986940602696
 30
0.0
 10
3414.1669045504641
 20
1367.724090842953
 30
0.0
 10
3415.1443418916861
 20
1367.6541020998679
 30
0.0
 10
3415.8999967216728
 20
1367.5999939442561
 30
0.0
 11
3413.013245287842
 21
1368.0465817452359
 31
0.0
 11
3413.2721075077998
 21
1367.974220075213
 31
0.0
 11
3413.6219810043667
 21
1367.8764173502245
 31
0.0
 11
3414.1380638628566
 21
1367.754482866842
 31
0.0
 11
3414.5964653461306
 21
1367.6933324312376
 31
0.0
 11
3415.196286462794
 21
1367.6503826438075
 31
0.0
 11
3415.8999967216728
 21
1367.5999939442561
 31
0.0
  0
SPLINE
  5
358
100
AcDbEntity
  8
0
  6
CONTINUOUS
 62
           3
100
AcDbSpline
210
0.0
220
0.0
230
1.0
 70
           0
 71
           3
 72
           8
 73
           5
 74
           7
 42
0.00000000001
 43
0.00000000001
 44
0.00000000001
 40
0.0
 40
0.0
 40
0.0
 40
0.277945479752542
 40
0.7862825386968186
 40
1.5429638907282655
 40
1.5429638907282655
 40
1.5429638907282655
 10
3420.23012375601
 20
1372.6000040770421
 30
0.0
 10
3420.19590721143
 20
1372.5995583847839
 30
0.0
 10
3419.7084964933151
 20
1372.593209550128
 30
0.0
 10
3419.230857026158
 20
1372.3653136956209
 30
0.0
 10
3418.7867481555081
 20
1372.1534162760629
 30
0.0
 11
3420.23012375601
 21
1372.6000040770421
 31
0.0
 11
3420.1613872618564
 21
1372.5991087404814
 31
0.0
 11
3420.0236108685558
 21
1372.5973141153165
 31
0.0
 11
3419.7392912317396
 21
1372.5713411810723
 31
0.0
 11
3419.5165610717722
 21
1372.5016315087173
 31
0.0
 11
3419.1912558198997
 21
1372.3464187940058
 31
0.0
 11
3418.7867481555081
 21
1372.1534162760629
 31
0.0
  0
SPLINE
  5
357
100
AcDbEntity
  8
0
  6
CONTINUOUS
 62
           3
100
AcDbSpline
210
0.0
220
0.0
230
1.0
 70
           0
 71
           3
 72
           8
 73
           5
 74
           7
 42
0.00000000001
 43
0.00000000001
 44
0.00000000001
 40
0.0
 40
0.0
 40
0.0
 40
0.2779464854241415
 40
0.7862840843598062
 40
1.542964265891926
 40
1.542964265891926
 40
1.542964265891926
 10
3420.23012375601
 20
1367.5999939442561
 30
0.0
 10
3420.2643403053662
 20
1367.6004396396361
 30
0.0
 10
3420.751753024455
 20
1367.6067885438649
 30
0.0
 10
3421.2293915040032
 20
1367.8346843278241
 30
0.0
 10
3421.673499589368
 20
1368.0465817453121
 30
0.0
 11
3420.23012375601
 21
1367.5999939442561
 31
0.0
 11
3420.2988605017563
 21
1367.6008892902335
 31
0.0
 11
3420.4366376402818
 21
1367.6026839374056
 31
0.0
 11
3420.72095800947
 21
1367.628656931247
 31
0.0
 11
3420.9436883486869
 21
1367.6983666998512
 31
0.0
 11
3421.2689927365154
 21
1367.8535792752029
 31
0.0
 11
3421.673499589368
 21
1368.0465817453121
 31
0.0
  0
SPLINE
  5
356
100
AcDbEntity
  8
0
  6
CONTINUOUS
 62
           3
100
AcDbSpline
210
0.0
220
0.0
230
1.0
 70
           0
 71
           3
 72
           8
 73
           5
 74
           7
 42
0.00000000001
 43
0.00000000001
 44
0.00000000001
 40
0.0
 40
0.0
 40
0.0
 40
0.277946485428359
 40
0.7862840843647394
 40
1.542964265852129
 40
1.542964265852129
 40
1.542964265852129
 10
3411.5698696873419
 20
1372.6000040770421
 30
0.0
 10
3411.5356531379821
 20
1372.59955838167
 30
0.0
 10
3411.048240418892
 20
1372.593209477441
 30
0.0
 10
3410.5706019393469
 20
1372.3653136934749
 30
0.0
 10
3410.126493853973
 20
1372.15341627611
 30
0.0
 11
3411.5698696873419
 21
1372.6000040770421
 31
0.0
 11
3411.5011329415929
 21
1372.5991087310706
 31
0.0
 11
3411.3633558030642
 21
1372.5973140839005
 31
0.0
 11
3411.0790354338756
 21
1372.5713410900573
 31
0.0
 11
3410.8563050946545
 21
1372.5016313214483
 31
0.0
 11
3410.531000706831
 21
1372.346418746127
 31
0.0
 11
3410.126493853973
 21
1372.15341627611
 31
0.0
  0
SPLINE
  5
355
100
AcDbEntity
  8
0
  6
CONTINUOUS
 62
           3
100
AcDbSpline
210
0.0
220
0.0
230
1.0
 70
           0
 71
           3
 72
           8
 73
           5
 74
           7
 42
0.00000000001
 43
0.00000000001
 44
0.00000000001
 40
0.0
 40
0.0
 40
0.0
 40
0.2779454797512075
 40
0.7862825386937702
 40
1.5429638907247463
 40
1.5429638907247463
 40
1.5429638907247463
 10
3411.5698696873419
 20
1367.5999939442561
 30
0.0
 10
3411.604086231921
 20
1367.600439636514
 30
0.0
 10
3412.091496950035
 20
1367.6067884711749
 30
0.0
 10
3412.5691364171912
 20
1367.8346843256779
 30
0.0
 10
3413.013245287842
 20
1368.0465817452359
 30
0.0
 11
3411.5698696873419
 21
1367.5999939442561
 31
0.0
 11
3411.6386061814942
 21
1367.6008892808168
 31
0.0
 11
3411.7763825747943
 21
1367.6026839059832
 31
0.0
 11
3412.0607022116105
 21
1367.6286568402293
 31
0.0
 11
3412.2834323715774
 21
1367.698366512584
 31
0.0
 11
3412.60873762345
 21
1367.8535792272939
 31
0.0
 11
3413.013245287842
 21
1368.0465817452359
 31
0.0
  0
SPLINE
  5
354
100
AcDbEntity
  8
0
  6
CONTINUOUS
 62
           3
100
AcDbSpline
210
0.0
220
0.0
230
1.0
 70
           0
 71
           3
 72
           8
 73
           5
 74
           7
 42
0.00000000001
 43
0.00000000001
 44
0.00000000001
 40
0.0
 40
0.0
 40
0.0
 40
0.4813884775028921
 40
1.3325655942409276
 40
2.5594910572493559
 40
2.5594910572493559
 40
2.5594910572493559
 10
3413.3999967775562
 20
1384.1999992729011
 30
0.0
 10
3413.459261584389
 20
1384.2004449715539
 30
0.0
 10
3414.303481700837
 20
1384.2067938958289
 30
0.0
 10
3415.130777567962
 20
1384.434685841728
 30
0.0
 10
3415.8999967216728
 20
1384.646579623296
 30
0.0
 11
3413.3999967775562
 21
1384.1999992729011
 31
0.0
 11
3413.520688878365
 21
1384.2009069331098
 31
0.0
 11
3413.764235567126
 21
1384.2027385164297
 31
0.0
 11
3414.2533839007124
 21
1384.2291158106436
 31
0.0
 11
3414.6423366340496
 21
1384.3001369344877
 31
0.0
 11
3415.2009721229119
 21
1384.4540220603099
 31
0.0
 11
3415.8999967216728
 21
1384.646579623296
 31
0.0
  0
SPLINE
  5
353
100
AcDbEntity
  8
0
  6
CONTINUOUS
 62
           3
100
AcDbSpline
210
0.0
220
0.0
230
1.0
 70
           0
 71
           3
 72
           8
 73
           5
 74
           7
 42
0.00000000001
 43
0.00000000001
 44
0.00000000001
 40
0.0
 40
0.0
 40
0.0
 40
0.4813883392780805
 40
1.3325653926391046
 40
2.5594910488250755
 40
2.5594910488250755
 40
2.5594910488250755
 10
3418.399996665768
 20
1384.1999992729011
 30
0.0
 10
3418.459261471944
 20
1384.2004449713099
 30
0.0
 10
3419.3034813132931
 20
1384.2067938900659
 30
0.0
 10
3420.1307773327831
 20
1384.434685841557
 30
0.0
 10
3420.899996609865
 20
1384.6465796233031
 30
0.0
 11
3418.399996665768
 21
1384.1999992729011
 31
0.0
 11
3418.5206887308818
 21
1384.2009069323503
 31
0.0
 11
3418.7642353138717
 21
1384.2027385138804
 31
0.0
 11
3419.2533835507434
 21
1384.2291158030616
 31
0.0
 11
3419.6423362625173
 21
1384.3001369182348
 31
0.0
 11
3420.200971884487
 21
1384.454022056163
 31
0.0
 11
3420.899996609865
 21
1384.6465796233031
 31
0.0
  0
SPLINE
  5
352
100
AcDbEntity
  8
0
  6
CONTINUOUS
 62
           3
100
AcDbSpline
210
0.0
220
0.0
230
1.0
 70
           0
 71
           3
 72
           8
 73
           5
 74
           7
 42
0.00000000001
 43
0.00000000001
 44
0.00000000001
 40
0.0
 40
0.0
 40
0.0
 40
0.0169507227489021
 40
0.1476151553699765
 40
0.4465803504019732
 40
0.4465803504019732
 40
0.4465803504019732
 10
3410.8999968334369
 20
1384.1999992729011
 30
0.0
 10
3410.8999968334369
 20
1384.2056076981839
 30
0.0
 10
3410.8999968334369
 20
1384.2282922931161
 30
0.0
 10
3410.8999968334369
 20
1384.4669365634261
 30
0.0
 10
3410.8999968334761
 20
1384.6465796233031
 30
0.0
 11
3410.8999968334369
 21
1384.1999992729011
 31
0.0
 11
3410.8999968334374
 21
1384.2048568127329
 31
0.0
 11
3410.8999968334369
 21
1384.2082125816621
 31
0.0
 11
3410.8999968334365
 21
1384.2414172487588
 31
0.0
 11
3410.8999968334365
 21
1384.3008718271408
 31
0.0
 11
3410.8999968334465
 21
1384.4703311443241
 31
0.0
 11
3410.8999968334761
 21
1384.6465796233031
 31
0.0
  0
SPLINE
  5
351
100
AcDbEntity
  8
0
  6
CONTINUOUS
 62
           3
100
AcDbSpline
210
0.0
220
0.0
230
1.0
 70
           0
 71
           3
 72
           8
 73
           5
 74
           7
 42
0.00000000001
 43
0.00000000001
 44
0.00000000001
 40
0.0
 40
0.0
 40
0.0
 40
0.2989651950319967
 40
0.4296296276530711
 40
0.4465803504019732
 40
0.4465803504019732
 40
0.4465803504019732
 10
3420.899996609865
 20
1384.6465796233031
 30
0.0
 10
3420.8999966099132
 20
1384.4669365634261
 30
0.0
 10
3420.8999966099132
 20
1384.2282922931161
 30
0.0
 10
3420.8999966099132
 20
1384.2056076981839
 30
0.0
 10
3420.8999966099132
 20
1384.1999992729011
 30
0.0
 11
3420.899996609865
 21
1384.6465796233031
 31
0.0
 11
3420.8999966099009
 21
1384.4703311443241
 31
0.0
 11
3420.8999966099132
 21
1384.3008718271408
 31
0.0
 11
3420.8999966099127
 21
1384.2414172487588
 31
0.0
 11
3420.8999966099127
 21
1384.2082125816623
 31
0.0
 11
3420.8999966099132
 21
1384.2048568127329
 31
0.0
 11
3420.8999966099132
 21
1384.1999992729011
 31
0.0
  0
SPLINE
  5
350
100
AcDbEntity
  8
1
  6
CONTINUOUS
 62
           4
100
AcDbSpline
210
0.0
220
0.0
230
1.0
 70
           0
 71
           2
 72
           4
 73
           2
 74
           3
 42
0.00000000001
 43
0.00000000001
 44
0.00000000001
 40
0.0
 40
0.0
 40
29.999999999997726
 40
29.999999999997726
 10
2950.0000000000041
 20
1700.000000000002
 30
0.0
 10
2980.0000000000018
 20
1700.000000000002
 30
0.0
 11
2950.0000000000041
 21
1700.000000000002
 31
0.0
 11
2965.0000000000027
 21
1700.000000000002
 31
0.0
 11
2980.0000000000018
 21
1700.000000000002
 31
0.0
  0
CIRCLE
  5
34F
100
AcDbEntity
  8
1
  6
CONTINUOUS
 62
           7
100
AcDbCircle
 10
0.000000000003
 20
5609.999999999998
 40
317.5
  0
CIRCLE
  5
34E
100
AcDbEntity
  8
1
  6
CONTINUOUS
 62
           4
100
AcDbCircle
 10
0.000000000001
 20
5609.999999999998
 40
84.123
  0
CIRCLE
  5
34D
100
AcDbEntity
  8
1
  6
CONTINUOUS
 62
           4
100
AcDbCircle
 10
0.000000000001
 20
5609.999999999998
 40
110.700000000001
  0
CIRCLE
  5
34C
100
AcDbEntity
  8
1
  6
CONTINUOUS
 62
           3
100
AcDbCircle
 10
508.472255321878
 20
1295.200848327055
 40
40.0
  0
CIRCLE
  5
34B
100
AcDbEntity
  8
1
  6
CONTINUOUS
 62
           7
100
AcDbCircle
 10
3800.000000000001
 20
600.0
 40
15.000000000001
  0
CIRCLE
  5
34A
100
AcDbEntity
  8
1
  6
CONTINUOUS
 62
           2
100
AcDbCircle
 10
3800.000000000001
 20
600.0
 40
8.350000000003
  0
CIRCLE
  5
349
100
AcDbEntity
  8
1
  6
CONTINUOUS
 62
           7
100
AcDbCircle
 10
3800.000000000001
 20
600.0
 40
7.500000000001
  0
ARC
  5
348
100
AcDbEntity
  8
1
  6
CONTINUOUS
 62
           7
100
AcDbCircle
 10
0.000000000001
 20
5609.999999999998
 40
125.0
100
AcDbArc
 50
19.47546158221
 51
90.0
  0
ARC
  5
347
100
AcDbEntity
  8
1
  6
CONTINUOUS
 62
           7
100
AcDbCircle
 10
0.000000000001
 20
5609.999999999998
 40
125.0
100
AcDbArc
 50
90.0
 51
-19.47546158221
  0
ARC
  5
346
100
AcDbEntity
  8
1
  6
CONTINUOUS
 62
           7
100
AcDbCircle
 10
55.000000000002
 20
5594.999999999996
 40
360.0
100
AcDbArc
 50
-1.498629881627
 51
0.0
  0
ARC
  5
345
100
AcDbEntity
  8
1
  6
CONTINUOUS
 62
           7
100
AcDbCircle
 10
160.55116156679
 20
5939.178663330398
 40
5.0
100
AcDbArc
 50
163.348397297227
 51
-17.447383814438
  0
ARC
  5
344
100
AcDbEntity
  8
1
  6
CONTINUOUS
 62
           7
100
AcDbCircle
 10
55.000000000002
 20
5594.999999999996
 40
360.000000000001
100
AcDbArc
 50
18.095065654746
 51
72.15472562971
  0
ARC
  5
343
100
AcDbEntity
  8
1
  6
CONTINUOUS
 62
           7
100
AcDbCircle
 10
55.000000000002
 20
5594.999999999996
 40
360.000000000001
100
AcDbArc
 50
0.0
 51
16.503503431389
  0
ARC
  5
342
100
AcDbEntity
  8
1
  6
CONTINUOUS
 62
           7
100
AcDbCircle
 10
398.715224597902
 20
5702.050662677137
 40
5.000000000002
100
AcDbArc
 50
107.697175098903
 51
-73.098606012762
  0
ARC
  5
341
100
AcDbEntity
  8
1
  6
CONTINUOUS
 62
           7
100
AcDbCircle
 10
413.419036500113
 20
5537.103069526531
 40
5.0
100
AcDbArc
 50
90.0
 51
-95.092511460494
  0
ARC
  5
340
100
AcDbEntity
  8
1
  6
CONTINUOUS
 62
           7
100
AcDbCircle
 10
413.419036500113
 20
5537.103069526531
 40
5.0
100
AcDbArc
 50
85.537115658268
 51
90.0
  0
ARC
  5
33F
100
AcDbEntity
  8
1
  6
CONTINUOUS
 62
           7
100
AcDbCircle
 10
-39.999999999997
 20
5574.999999999996
 40
455.0
100
AcDbArc
 50
-90.0
 51
-5.407325019864
  0
ARC
  5
33E
100
AcDbEntity
  8
1
  6
CONTINUOUS
 62
           7
100
AcDbCircle
 10
-39.999999999997
 20
5659.999999999996
 40
540.0
100
AcDbArc
 50
180.0
 51
-175.217743666854
  0
ARC
  5
33D
100
AcDbEntity
  8
1
  6
CONTINUOUS
 62
           7
100
AcDbCircle
 10
-577.680202350801
 20
5609.999999999998
 40
5.000000000001
100
AcDbArc
 50
-84.421966108667
 51
90.0
  0
ARC
  5
33C
100
AcDbEntity
  8
1
  6
CONTINUOUS
 62
           7
100
AcDbCircle
 10
-577.680202350801
 20
5609.999999999998
 40
5.0
100
AcDbArc
 50
90.0
 51
95.047515519198
  0
ARC
  5
33B
100
AcDbEntity
  8
1
  6
CONTINUOUS
 62
           7
100
AcDbCircle
 10
-39.999999999997
 20
5659.999999999996
 40
540.000000000001
100
AcDbArc
 50
-174.156706922602
 51
-90.0
  0
ARC
  5
33A
100
AcDbEntity
  8
1
  6
CONTINUOUS
 62
           7
100
AcDbCircle
 10
55.000000000002
 20
5594.999999999996
 40
360.000000000001
100
AcDbArc
 50
73.746287853067
 51
93.901683355293
  0
ARC
  5
339
100
AcDbEntity
  8
1
  6
CONTINUOUS
 62
           7
100
AcDbCircle
 10
-39.999999999997
 20
5574.999999999996
 40
454.999999999998
100
AcDbArc
 50
-4.148070782362
 51
1.333022116547
  0
ARC
  5
338
100
AcDbEntity
  8
0
  6
CONTINUOUS
 62
           3
100
AcDbCircle
 10
3415.899996721671
 20
1355.000000000223
 40
3.999999999998
100
AcDbArc
 50
180.0
 51
0.0
  0
ARC
  5
337
100
AcDbEntity
  8
0
  6
CONTINUOUS
 62
           3
100
AcDbCircle
 10
3415.899996721671
 20
1315.000000000059
 40
45.999999999961
100
AcDbArc
 50
180.0
 51
0.0
  0
ARC
  5
336
100
AcDbEntity
  8
0
  6
CONTINUOUS
 62
           3
100
AcDbCircle
 10
3415.899996721671
 20
1315.000000000059
 40
53.999999999958
100
AcDbArc
 50
180.0
 51
0.0
  0
ARC
  5
335
100
AcDbEntity
  8
0
  6
CONTINUOUS
 62
           3
100
AcDbCircle
 10
3409.426494029874
 20
1389.999999999997
 40
0.900000000002
100
AcDbArc
 50
-117.266044450537
 51
-90.0
  0
ARC
  5
334
100
AcDbEntity
  8
0
  6
CONTINUOUS
 62
           3
100
AcDbCircle
 10
3422.373499413467
 20
1389.999999999997
 40
0.900000000001
100
AcDbArc
 50
-90.0
 51
-62.733955549566
  0
ARC
  5
333
100
AcDbEntity
  8
0
  6
CONTINUOUS
 62
           3
100
AcDbCircle
 10
3357.899996721819
 20
1530.999999999881
 40
0.999999999996
100
AcDbArc
 50
-90.0
 51
90.0
  0
ARC
  5
332
100
AcDbEntity
  8
0
  6
CONTINUOUS
 62
           3
100
AcDbCircle
 10
3473.899996721522
 20
1530.999999999881
 40
1.0
100
AcDbArc
 50
90.0
 51
-90.0
  0
ARC
  5
331
100
AcDbEntity
  8
0
  6
CONTINUOUS
 62
           3
100
AcDbCircle
 10
3473.899996721522
 20
1508.999999999997
 40
1.0
100
AcDbArc
 50
90.0
 51
-90.0
  0
ARC
  5
330
100
AcDbEntity
  8
0
  6
CONTINUOUS
 62
           3
100
AcDbCircle
 10
3473.899996721522
 20
1431.000000000063
 40
0.999999999996
100
AcDbArc
 50
90.0
 51
-90.0
  0
ARC
  5
32F
100
AcDbEntity
  8
0
  6
CONTINUOUS
 62
           3
100
AcDbCircle
 10
3473.899996721522
 20
1409.000000000179
 40
1.0
100
AcDbArc
 50
90.0
 51
-90.0
  0
ARC
  5
32E
100
AcDbEntity
  8
0
  6
CONTINUOUS
 62
           3
100
AcDbCircle
 10
3357.899996721819
 20
1409.000000000179
 40
0.999999999996
100
AcDbArc
 50
-90.0
 51
90.0
  0
ARC
  5
32D
100
AcDbEntity
  8
0
  6
CONTINUOUS
 62
           3
100
AcDbCircle
 10
3357.899996721819
 20
1431.000000000063
 40
1.0
100
AcDbArc
 50
-90.0
 51
90.0
  0
ARC
  5
32C
100
AcDbEntity
  8
0
  6
CONTINUOUS
 62
           3
100
AcDbCircle
 10
3357.899996721819
 20
1508.999999999997
 40
0.999999999996
100
AcDbArc
 50
-90.0
 51
90.0
  0
ARC
  5
32B
100
AcDbEntity
  8
0
  6
CONTINUOUS
 62
           3
100
AcDbCircle
 10
3353.399996721822
 20
1368.000000000114
 40
2.499999999997
100
AcDbArc
 50
0.0
 51
180.0
  0
ARC
  5
32A
100
AcDbEntity
  8
0
  6
CONTINUOUS
 62
           3
100
AcDbCircle
 10
3353.399996721822
 20
1631.999999999899
 40
2.499999999998
100
AcDbArc
 50
180.0
 51
0.0
  0
ARC
  5
329
100
AcDbEntity
  8
0
  6
CONTINUOUS
 62
           3
100
AcDbCircle
 10
3478.39999672152
 20
1631.999999999899
 40
2.5
100
AcDbArc
 50
180.0
 51
0.0
  0
ARC
  5
328
100
AcDbEntity
  8
0
  6
CONTINUOUS
 62
           3
100
AcDbCircle
 10
3478.39999672152
 20
1368.000000000114
 40
2.499999999995
100
AcDbArc
 50
0.0
 51
180.0
  0
ARC
  5
327
100
AcDbEntity
  8
1
  6
CONTINUOUS
 62
           3
100
AcDbCircle
 10
3920.163567691039
 20
1925.000000000001
 40
5.871834995066
100
AcDbArc
 50
-90.0
 51
0.0
  0
ARC
  5
326
100
AcDbEntity
  8
1
  6
CONTINUOUS
 62
           3
100
AcDbCircle
 10
3920.163567691039
 20
1925.000000000001
 40
5.871834995067
100
AcDbArc
 50
38.599713917938
 51
90.0
  0
ARC
  5
325
100
AcDbEntity
  8
1
  6
CONTINUOUS
 62
           3
100
AcDbCircle
 10
3920.163567691039
 20
1925.000000000001
 40
5.871834995067
100
AcDbArc
 50
0.0
 51
38.599713917938
  0
ARC
  5
324
100
AcDbEntity
  8
1
  6
CONTINUOUS
 62
           3
100
AcDbCircle
 10
3920.163567691039
 20
1925.000000000001
 40
9.5
100
AcDbArc
 50
0.0
 51
125.916957371416
  0
ARC
  5
323
100
AcDbEntity
  8
1
  6
CONTINUOUS
 62
           3
100
AcDbCircle
 10
3920.163567691039
 20
1925.000000000001
 40
9.499999999999
100
AcDbArc
 50
-124.797812779177
 51
0.0
  0
ARC
  5
322
100
AcDbEntity
  8
1
  6
CONTINUOUS
 62
           3
100
AcDbCircle
 10
508.472255321878
 20
1295.200848327055
 40
28.750000000009
100
AcDbArc
 50
83.827497999997
 51
96.172501999988
  0
ARC
  5
321
100
AcDbEntity
  8
1
  6
CONTINUOUS
 62
           3
100
AcDbCircle
 10
508.472255321878
 20
1295.200848327055
 40
28.749999999989
100
AcDbArc
 50
-96.172501999992
 51
-83.827497999993
  0
ARC
  5
320
100
AcDbEntity
  8
1
  6
CONTINUOUS
 62
           3
100
AcDbCircle
 10
508.472255321878
 20
1295.200848327055
 40
10.75
100
AcDbArc
 50
0.0
 51
61.226492999993
  0
ARC
  5
31F
100
AcDbEntity
  8
1
  6
CONTINUOUS
 62
           3
100
AcDbCircle
 10
508.472255321878
 20
1295.200848327055
 40
10.750000000001
100
AcDbArc
 50
-61.226493000018
 51
0.0
  0
ARC
  5
31E
100
AcDbEntity
  8
1
  6
CONTINUOUS
 62
           3
100
AcDbCircle
 10
508.472255321878
 20
1295.200848327055
 40
10.749999999989
100
AcDbArc
 50
118.773506999971
 51
-118.773506999946
  0
ARC
  5
31D
100
AcDbEntity
  8
1
  6
CONTINUOUS
 62
           3
100
AcDbCircle
 10
512.510557321879
 20
1295.200848327055
 40
10.0
100
AcDbArc
 50
174.993206999976
 51
-174.993207000023
  0
ARC
  5
31C
100
AcDbEntity
  8
1
  6
CONTINUOUS
 62
           3
100
AcDbCircle
 10
504.433952321884
 20
1295.200848327055
 40
9.999999999999
100
AcDbArc
 50
-5.006792999977
 51
5.006793000024
  0
ARC
  5
31B
100
AcDbEntity
  8
1
  6
CONTINUOUS
 62
           3
100
AcDbCircle
 10
505.434752321878
 20
1323.287074327055
 40
0.5
100
AcDbArc
 50
96.172501999322
 51
174.99320699856
  0
ARC
  5
31A
100
AcDbEntity
  8
1
  6
CONTINUOUS
 62
           3
100
AcDbCircle
 10
511.509758321878
 20
1323.287074327055
 40
0.500000000004
100
AcDbArc
 50
5.006793001366
 51
83.827497998178
  0
ARC
  5
319
100
AcDbEntity
  8
1
  6
CONTINUOUS
 62
           3
100
AcDbCircle
 10
505.434752321878
 20
1267.114622327063
 40
0.499999999996
100
AcDbArc
 50
-174.993206999805
 51
-96.172501999322
  0
ARC
  5
318
100
AcDbEntity
  8
1
  6
CONTINUOUS
 62
           3
100
AcDbCircle
 10
511.509758321878
 20
1267.114622327063
 40
0.500000000002
100
AcDbArc
 50
-83.827497998178
 51
-5.00679300012
  0
ARC
  5
317
100
AcDbEntity
  8
7
  6
CONTINUOUS
 62
           7
100
AcDbCircle
 10
-105.799999999999
 20
2887.111356999998
 40
6.200000000001
100
AcDbArc
 50
122.681914999995
 51
180.0
  0
ARC
  5
316
100
AcDbEntity
  8
7
  6
CONTINUOUS
 62
           7
100
AcDbCircle
 10
-84.599999999999
 20
2908.799999999998
 40
3.200000000002
100
AcDbArc
 50
90.0
 51
180.0
  0
ARC
  5
315
100
AcDbEntity
  8
7
  6
CONTINUOUS
 62
           7
100
AcDbCircle
 10
-89.799999999999
 20
2909.041133999999
 40
2.0
100
AcDbArc
 50
-55.000000000003
 51
0.0
  0
ARC
  5
314
100
AcDbEntity
  8
7
  6
CONTINUOUS
 62
           7
100
AcDbCircle
 10
82.100000000001
 20
2908.799999999998
 40
3.2
100
AcDbArc
 50
0.0
 51
90.0
  0
ARC
  5
313
100
AcDbEntity
  8
7
  6
CONTINUOUS
 62
           7
100
AcDbCircle
 10
87.300000000001
 20
2909.041133999999
 40
2.0
100
AcDbArc
 50
180.0
 51
-124.999999999997
  0
ARC
  5
312
100
AcDbEntity
  8
7
  6
CONTINUOUS
 62
           7
100
AcDbCircle
 10
107.923187000001
 20
2892.5
 40
2.000000000001
100
AcDbArc
 50
-124.999999999982
 51
-90.0
  0
ARC
  5
311
100
AcDbEntity
  8
7
  6
CONTINUOUS
 62
           7
100
AcDbCircle
 10
108.800000000001
 20
2887.299999999998
 40
3.2
100
AcDbArc
 50
0.0
 51
90.0
  0
ARC
  5
310
100
AcDbEntity
  8
7
  6
CONTINUOUS
 62
           7
100
AcDbCircle
 10
4215.800000000001
 20
2887.111356999997
 40
6.200000000001
100
AcDbArc
 50
0.0
 51
57.318084999993
  0
ARC
  5
30F
100
AcDbEntity
  8
7
  6
CONTINUOUS
 62
           7
100
AcDbCircle
 10
4194.600000000002
 20
2908.799999999997
 40
3.199999999999
100
AcDbArc
 50
0.0
 51
90.0
  0
ARC
  5
30E
100
AcDbEntity
  8
7
  6
CONTINUOUS
 62
           7
100
AcDbCircle
 10
4199.800000000001
 20
2909.041133999996
 40
2.0
100
AcDbArc
 50
180.0
 51
-125.000000000002
  0
ARC
  5
30D
100
AcDbEntity
  8
7
  6
CONTINUOUS
 62
           7
100
AcDbCircle
 10
4027.900000000002
 20
2908.799999999997
 40
3.200000000003
100
AcDbArc
 50
90.0
 51
180.0
  0
ARC
  5
30C
100
AcDbEntity
  8
7
  6
CONTINUOUS
 62
           7
100
AcDbCircle
 10
4022.700000000001
 20
2909.041133999996
 40
1.999999999999
100
AcDbArc
 50
-54.999999999944
 51
0.0
  0
ARC
  5
30B
100
AcDbEntity
  8
7
  6
CONTINUOUS
 62
           7
100
AcDbCircle
 10
4002.076813000002
 20
2892.5
 40
2.0
100
AcDbArc
 50
-90.0
 51
-55.000000000091
  0
ARC
  5
30A
100
AcDbEntity
  8
7
  6
CONTINUOUS
 62
           7
100
AcDbCircle
 10
4001.200000000001
 20
2887.299999999997
 40
3.200000000003
100
AcDbArc
 50
90.0
 51
180.0
  0
ARC
  5
309
100
AcDbEntity
  8
1
  6
CONTINUOUS
 62
           7
100
AcDbCircle
 10
2902.000000000005
 20
1256.750000000001
 40
17.000000000001
100
AcDbArc
 50
179.999999999996
 51
-90.000000000003
  0
ARC
  5
308
100
AcDbEntity
  8
1
  6
CONTINUOUS
 62
           7
100
AcDbCircle
 10
2902.000000000005
 20
1256.750000000001
 40
37.000000000001
100
AcDbArc
 50
179.999999999998
 51
-90.0
  0
LINE
  5
307
100
AcDbEntity
  8
1
  6
DOT_CENTER
 62
           2
100
AcDbLine
 10
-285.000000000002
 20
6155.267084004816
 11
-285.000000000002
 21
5812.460449015835
  0
LINE
  5
306
100
AcDbEntity
  8
1
  6
DOT_CENTER
 62
           2
100
AcDbLine
 10
0.000000000003
 20
6155.267084004816
 11
0.000000000003
 21
5609.999999999998
  0
LINE
  5
305
100
AcDbEntity
  8
1
  6
CONTINUOUS
 62
           4
100
AcDbLine
 10
39.999999999998
 20
6054.499999999998
 11
-610.000000000003
 21
6054.499999999998
  0
LINE
  5
304
100
AcDbEntity
  8
1
  6
CONTINUOUS
 62
           7
100
AcDbLine
 10
-610.000000000003
 20
6049.999999999998
 11
39.999999999998
 21
6049.999999999998
  0
LINE
  5
303
100
AcDbEntity
  8
1
  6
CONTINUOUS
 62
           4
100
AcDbLine
 10
-610.000000000003
 20
6045.499999999998
 11
39.999999999998
 21
6045.499999999998
  0
LINE
  5
302
100
AcDbEntity
  8
1
  6
CONTINUOUS
 62
           7
100
AcDbLine
 10
-610.000000000003
 20
6049.999999999998
 11
-610.000000000003
 21
6084.999999999998
  0
LINE
  5
301
100
AcDbEntity
  8
1
  6
CONTINUOUS
 62
           7
100
AcDbLine
 10
-610.000000000003
 20
6084.999999999998
 11
-605.000000000003
 21
6089.999999999998
  0
LINE
  5
300
100
AcDbEntity
  8
1
  6
CONTINUOUS
 62
           7
100
AcDbLine
 10
-605.000000000003
 20
6089.999999999998
 11
34.999999999998
 21
6089.999999999998
  0
LINE
  5
2FF
100
AcDbEntity
  8
1
  6
CONTINUOUS
 62
           7
100
AcDbLine
 10
39.999999999998
 20
6084.999999999998
 11
34.999999999998
 21
6089.999999999998
  0
LINE
  5
2FE
100
AcDbEntity
  8
1
  6
CONTINUOUS
 62
           7
100
AcDbLine
 10
39.999999999998
 20
6084.999999999998
 11
39.999999999998
 21
6049.999999999998
  0
LINE
  5
2FD
100
AcDbEntity
  8
1
  6
CONTINUOUS
 62
           7
100
AcDbLine
 10
34.999999999998
 20
6009.999999999998
 11
-605.000000000003
 21
6009.999999999998
  0
LINE
  5
2FC
100
AcDbEntity
  8
1
  6
CONTINUOUS
 62
           7
100
AcDbLine
 10
39.999999999998
 20
6049.999999999998
 11
39.999999999998
 21
6014.999999999998
  0
LINE
  5
2FB
100
AcDbEntity
  8
1
  6
CONTINUOUS
 62
           7
100
AcDbLine
 10
-610.000000000003
 20
6014.999999999998
 11
-610.000000000003
 21
6049.999999999998
  0
LINE
  5
2FA
100
AcDbEntity
  8
1
  6
CONTINUOUS
 62
           7
100
AcDbLine
 10
-605.000000000003
 20
6009.999999999998
 11
-610.000000000003
 21
6014.999999999998
  0
LINE
  5
2F9
100
AcDbEntity
  8
1
  6
CONTINUOUS
 62
           7
100
AcDbLine
 10
34.999999999998
 20
6009.999999999998
 11
39.999999999998
 21
6014.999999999998
  0
LINE
  5
2F8
100
AcDbEntity
  8
1
  6
CONTINUOUS
 62
           7
100
AcDbLine
 10
390.000000000002
 20
5701.999999999996
 11
160.000000000003
 21
5931.999999999996
  0
LINE
  5
2F7
100
AcDbEntity
  8
1
  6
CONTINUOUS
 62
           4
100
AcDbLine
 10
115.286004408818
 20
5571.249999999998
 11
109.265668111723
 21
5571.249999999998
  0
LINE
  5
2F6
100
AcDbEntity
  8
1
  6
CONTINUOUS
 62
           4
100
AcDbLine
 10
115.286004408818
 20
5648.749999999998
 11
109.265668111723
 21
5648.749999999998
  0
LINE
  5
2F5
100
AcDbEntity
  8
1
  6
CONTINUOUS
 62
           7
100
AcDbLine
 10
156.500000000001
 20
5566.249999999998
 11
123.946258446662
 21
5566.249999999998
  0
LINE
  5
2F4
100
AcDbEntity
  8
1
  6
CONTINUOUS
 62
           7
100
AcDbLine
 10
123.946258446662
 20
5653.749999999998
 11
156.500000000001
 21
5653.749999999998
  0
LINE
  5
2F3
100
AcDbEntity
  8
1
  6
CONTINUOUS
 62
           7
100
AcDbLine
 10
113.946258446662
 20
5576.249999999998
 11
113.946258446662
 21
5643.749999999998
  0
LINE
  5
2F2
100
AcDbEntity
  8
1
  6
CONTINUOUS
 62
           7
100
AcDbLine
 10
166.500000000001
 20
5643.749999999998
 11
166.500000000001
 21
5576.249999999998
  0
LINE
  5
2F1
100
AcDbEntity
  8
1
  6
DOT_CENTER
 62
           2
100
AcDbLine
 10
0.000000000003
 20
5609.999999999998
 11
477.325994331978
 21
5609.999999999996
  0
LINE
  5
2F0
100
AcDbEntity
  8
1
  6
CONTINUOUS
 62
           7
100
AcDbLine
 10
410.992065668633
 20
5536.869912712009
 11
-40.387316823276
 21
5083.155626997725
  0
LINE
  5
2EF
100
AcDbEntity
  8
1
  6
CONTINUOUS
 62
           7
100
AcDbLine
 10
-569.956959680417
 20
5610.0
 11
-174.999999999997
 21
6009.999999999999
  0
LINE
  5
2EE
100
AcDbEntity
  8
1
  6
CONTINUOUS
 62
           7
100
AcDbLine
 10
-40.387316823276
 20
5083.155626997725
 11
-569.956959680417
 21
5610.0
  0
LINE
  5
2ED
100
AcDbEntity
  8
1
  6
CONTINUOUS
 62
           7
100
AcDbLine
 10
-569.999999999998
 20
6009.999999999998
 11
-569.999999999998
 21
5996.999999999998
  0
LINE
  5
2EC
100
AcDbEntity
  8
1
  6
DOT_CENTER
 62
           2
100
AcDbLine
 10
-604.888003224811
 20
5609.999999999998
 11
0.000000000003
 21
5609.999999999998
  0
LINE
  5
2EB
100
AcDbEntity
  8
1
  6
DOT_CENTER
 62
           2
100
AcDbLine
 10
0.000000000003
 20
5609.999999999998
 11
0.000000000003
 21
5046.311422949073
  0
LINE
  5
2EA
100
AcDbEntity
  8
1
  6
CONTINUOUS
 62
           7
100
AcDbLine
 10
-579.999999999999
 20
5986.999999999998
 11
-569.999999999998
 21
5996.999999999998
  0
LINE
  5
2E9
100
AcDbEntity
  8
1
  6
CONTINUOUS
 62
           7
100
AcDbLine
 10
-579.999999999999
 20
5986.999999999998
 11
-579.999999999998
 21
5659.999999999996
  0
LINE
  5
2E8
100
AcDbEntity
  8
1
  6
CONTINUOUS
 62
           7
100
AcDbLine
 10
30.503943030833
 20
5954.165620839412
 11
0.000000000003
 21
6009.999999999998
  0
LINE
  5
2E7
100
AcDbEntity
  8
1
  6
CONTINUOUS
 62
           7
100
AcDbLine
 10
-185.999999999997
 20
5423.999999999998
 11
210.000000000003
 21
5423.999999999998
  0
LINE
  5
2E6
100
AcDbEntity
  8
1
  6
CONTINUOUS
 62
           7
100
AcDbLine
 10
185.999999999995
 20
5423.999999999998
 11
185.999999999995
 21
5819.999999999998
  0
LINE
  5
2E5
100
AcDbEntity
  8
1
  6
CONTINUOUS
 62
           7
100
AcDbLine
 10
185.999999999995
 20
5795.999999999991
 11
-209.999999999997
 21
5795.999999999991
  0
LINE
  5
2E4
100
AcDbEntity
  8
1
  6
CONTINUOUS
 62
           7
100
AcDbLine
 10
-185.999999999997
 20
5795.999999999991
 11
-185.999999999997
 21
5399.999999999998
  0
LINE
  5
2E3
100
AcDbEntity
  8
1
  6
CONTINUOUS
 62
           3
100
AcDbLine
 10
3897.500000000004
 20
1921.000000000002
 11
3749.899998122326
 21
1921.000000000002
  0
LINE
  5
2E2
100
AcDbEntity
  8
1
  6
CONTINUOUS
 62
           3
100
AcDbLine
 10
3897.500000000004
 20
1929.000000000001
 11
3749.899996810931
 21
1929.000000000001
  0
LINE
  5
2E1
100
AcDbEntity
  8
0
  6
CONTINUOUS
 62
           3
100
AcDbLine
 10
3369.899996632408
 20
1314.999997615957
 11
3369.899996632408
 21
1364.999994635816
  0
LINE
  5
2E0
100
AcDbEntity
  8
0
  6
CONTINUOUS
 62
           3
100
AcDbLine
 10
3410.126493853973
 20
1355.446577072225
 11
3410.899996833476
 21
1355.000004172322
  0
LINE
  5
2DF
100
AcDbEntity
  8
0
  6
CONTINUOUS
 62
           3
100
AcDbLine
 10
3420.899996609865
 20
1355.000004172322
 11
3421.673499589368
 21
1355.446577072225
  0
LINE
  5
2DE
100
AcDbEntity
  8
0
  6
CONTINUOUS
 62
           3
100
AcDbLine
 10
3410.899996833476
 20
1359.999999403922
 11
3410.126493853973
 21
1359.553411603022
  0
LINE
  5
2DD
100
AcDbEntity
  8
0
  6
CONTINUOUS
 62
           3
100
AcDbLine
 10
3421.673499589368
 20
1359.553411603022
 11
3420.899996609865
 21
1359.999999403922
  0
LINE
  5
2DC
100
AcDbEntity
  8
0
  6
CONTINUOUS
 62
           3
100
AcDbLine
 10
3410.899996833476
 20
1364.999994635816
 11
3410.126493853973
 21
1364.553421735917
  0
LINE
  5
2DB
100
AcDbEntity
  8
0
  6
CONTINUOUS
 62
           3
100
AcDbLine
 10
3421.673499589368
 20
1364.553421735917
 11
3420.899996609865
 21
1364.999994635816
  0
LINE
  5
2DA
100
AcDbEntity
  8
0
  6
CONTINUOUS
 62
           3
100
AcDbLine
 10
3420.899996609865
 20
1359.999999403922
 11
3421.673499589368
 21
1360.446587205123
  0
LINE
  5
2D9
100
AcDbEntity
  8
0
  6
CONTINUOUS
 62
           3
100
AcDbLine
 10
3410.126493853973
 20
1360.446587205123
 11
3410.899996833476
 21
1359.999999403922
  0
LINE
  5
2D8
100
AcDbEntity
  8
0
  6
CONTINUOUS
 62
           3
100
AcDbLine
 10
3410.899996833476
 20
1377.599999308605
 11
3410.126493853973
 21
1377.153418958206
  0
LINE
  5
2D7
100
AcDbEntity
  8
0
  6
CONTINUOUS
 62
           3
100
AcDbLine
 10
3421.673499589368
 20
1377.153418958206
 11
3420.899996609865
 21
1377.599999308605
  0
LINE
  5
2D6
100
AcDbEntity
  8
0
  6
CONTINUOUS
 62
           3
100
AcDbLine
 10
3420.899996609865
 20
1372.60000407701
 11
3421.673499589368
 21
1373.046576976912
  0
LINE
  5
2D5
100
AcDbEntity
  8
0
  6
CONTINUOUS
 62
           3
100
AcDbLine
 10
3410.126493853973
 20
1373.046576976912
 11
3410.899996833476
 21
1372.60000407701
  0
LINE
  5
2D4
100
AcDbEntity
  8
0
  6
CONTINUOUS
 62
           3
100
AcDbLine
 10
3410.899996833476
 20
1372.60000407701
 11
3410.126493853973
 21
1372.15341627611
  0
LINE
  5
2D3
100
AcDbEntity
  8
0
  6
CONTINUOUS
 62
           3
100
AcDbLine
 10
3421.673499589368
 20
1372.15341627611
 11
3420.899996609865
 21
1372.60000407701
  0
LINE
  5
2D2
100
AcDbEntity
  8
0
  6
CONTINUOUS
 62
           3
100
AcDbLine
 10
3420.899996609865
 20
1367.599993944114
 11
3421.673499589368
 21
1368.046581745312
  0
LINE
  5
2D1
100
AcDbEntity
  8
0
  6
CONTINUOUS
 62
           3
100
AcDbLine
 10
3410.126493853973
 20
1368.046581745312
 11
3410.899996833476
 21
1367.599993944114
  0
LINE
  5
2D0
100
AcDbEntity
  8
0
  6
CONTINUOUS
 62
           3
100
AcDbLine
 10
3461.899996810931
 20
1641.000000000001
 11
3461.899996810931
 21
1635.000005364197
  0
LINE
  5
2CF
100
AcDbEntity
  8
0
  6
CONTINUOUS
 62
           3
100
AcDbLine
 10
3461.899996810931
 20
1633.399993180997
 11
3461.899996810931
 21
1550.000000744964
  0
LINE
  5
2CE
100
AcDbEntity
  8
0
  6
CONTINUOUS
 62
           3
100
AcDbLine
 10
3461.899996810931
 20
1548.799999058066
 11
3461.899996810931
 21
1391.199998557594
  0
LINE
  5
2CD
100
AcDbEntity
  8
0
  6
CONTINUOUS
 62
           3
100
AcDbLine
 10
3461.899996810931
 20
1390.000000596098
 11
3461.899996810931
 21
1366.600006818714
  0
LINE
  5
2CC
100
AcDbEntity
  8
0
  6
CONTINUOUS
 62
           3
100
AcDbLine
 10
3461.899996810931
 20
1364.999994635816
 11
3461.899996810931
 21
1314.999997615957
  0
LINE
  5
2CB
100
AcDbEntity
  8
0
  6
CONTINUOUS
 62
           3
100
AcDbLine
 10
3469.899998122326
 20
1314.999997615957
 11
3469.899998122326
 21
1364.999994635816
  0
LINE
  5
2CA
100
AcDbEntity
  8
0
  6
CONTINUOUS
 62
           3
100
AcDbLine
 10
3469.899998122326
 20
1366.600006818714
 11
3469.899998122326
 21
1390.000000596098
  0
LINE
  5
2C9
100
AcDbEntity
  8
0
  6
CONTINUOUS
 62
           3
100
AcDbLine
 10
3469.899998122326
 20
1391.199998557594
 11
3469.899998122326
 21
1548.799999058066
  0
LINE
  5
2C8
100
AcDbEntity
  8
0
  6
CONTINUOUS
 62
           3
100
AcDbLine
 10
3469.899998122326
 20
1550.000000744964
 11
3469.899998122326
 21
1633.399993180997
  0
LINE
  5
2C7
100
AcDbEntity
  8
0
  6
CONTINUOUS
 62
           3
100
AcDbLine
 10
3469.899998122326
 20
1635.000005364197
 11
3469.899998122326
 21
1641.000000000002
  0
LINE
  5
2C6
100
AcDbEntity
  8
0
  6
CONTINUOUS
 62
           3
100
AcDbLine
 10
3361.899995321015
 20
1665.00000655637
 11
3361.899995321015
 21
1635.000005364197
  0
LINE
  5
2C5
100
AcDbEntity
  8
0
  6
CONTINUOUS
 62
           3
100
AcDbLine
 10
3361.899995321015
 20
1633.399993180997
 11
3361.899995321015
 21
1550.000000744964
  0
LINE
  5
2C4
100
AcDbEntity
  8
0
  6
CONTINUOUS
 62
           3
100
AcDbLine
 10
3361.899995321015
 20
1548.799999058066
 11
3361.899995321015
 21
1391.199998557594
  0
LINE
  5
2C3
100
AcDbEntity
  8
0
  6
CONTINUOUS
 62
           3
100
AcDbLine
 10
3361.899995321015
 20
1390.000000596098
 11
3361.899995321015
 21
1366.600006818714
  0
LINE
  5
2C2
100
AcDbEntity
  8
0
  6
CONTINUOUS
 62
           3
100
AcDbLine
 10
3361.899995321015
 20
1364.999994635816
 11
3361.899995321015
 21
1314.999997615957
  0
LINE
  5
2C1
100
AcDbEntity
  8
0
  6
CONTINUOUS
 62
           3
100
AcDbLine
 10
3369.899996632408
 20
1366.600006818714
 11
3369.899996632408
 21
1390.000000596098
  0
LINE
  5
2C0
100
AcDbEntity
  8
0
  6
CONTINUOUS
 62
           3
100
AcDbLine
 10
3369.899996632408
 20
1391.199998557594
 11
3369.899996632408
 21
1548.799999058066
  0
LINE
  5
2BF
100
AcDbEntity
  8
0
  6
CONTINUOUS
 62
           3
100
AcDbLine
 10
3369.899996632408
 20
1550.000000744964
 11
3369.899996632408
 21
1633.399993180997
  0
LINE
  5
2BE
100
AcDbEntity
  8
0
  6
CONTINUOUS
 62
           3
100
AcDbLine
 10
3369.899996632408
 20
1635.000005364197
 11
3369.899996632408
 21
1665.00000655637
  0
LINE
  5
2BD
100
AcDbEntity
  8
0
  6
CONTINUOUS
 62
           3
100
AcDbLine
 10
3418.899996747769
 20
1366.600006818714
 11
3418.899996747769
 21
1367.599993944114
  0
LINE
  5
2BC
100
AcDbEntity
  8
0
  6
CONTINUOUS
 62
           3
100
AcDbLine
 10
3418.899996747769
 20
1377.599999308605
 11
3418.899996747769
 21
1384.199999272901
  0
LINE
  5
2BB
100
AcDbEntity
  8
0
  6
CONTINUOUS
 62
           3
100
AcDbLine
 10
3418.899996747769
 20
1390.000000596098
 11
3418.899996747769
 21
1392.957426607595
  0
LINE
  5
2BA
100
AcDbEntity
  8
0
  6
CONTINUOUS
 62
           3
100
AcDbLine
 10
3418.899996747769
 20
1394.792847335492
 11
3418.899996747769
 21
1633.399993180997
  0
LINE
  5
2B9
100
AcDbEntity
  8
0
  6
CONTINUOUS
 62
           3
100
AcDbLine
 10
3418.899996747769
 20
1635.000005364197
 11
3418.899996747769
 21
1637.422651052294
  0
LINE
  5
2B8
100
AcDbEntity
  8
0
  6
CONTINUOUS
 62
           3
100
AcDbLine
 10
3412.899996695574
 20
1637.422651052294
 11
3412.899996695574
 21
1635.000005364197
  0
LINE
  5
2B7
100
AcDbEntity
  8
0
  6
CONTINUOUS
 62
           3
100
AcDbLine
 10
3412.899996695574
 20
1633.399993180997
 11
3412.899996695574
 21
1394.792847335492
  0
LINE
  5
2B6
100
AcDbEntity
  8
0
  6
CONTINUOUS
 62
           3
100
AcDbLine
 10
3412.899996695574
 20
1392.957426607595
 11
3412.899996695574
 21
1390.000000596098
  0
LINE
  5
2B5
100
AcDbEntity
  8
0
  6
CONTINUOUS
 62
           3
100
AcDbLine
 10
3412.899996695574
 20
1384.199999272901
 11
3412.899996695574
 21
1377.599999308605
  0
LINE
  5
2B4
100
AcDbEntity
  8
0
  6
CONTINUOUS
 62
           3
100
AcDbLine
 10
3412.899996695574
 20
1367.599993944114
 11
3412.899996695574
 21
1366.600006818714
  0
LINE
  5
2B3
100
AcDbEntity
  8
0
  6
CONTINUOUS
 62
           3
100
AcDbLine
 10
3418.899996747769
 20
1637.422651052294
 11
3417.899996816568
 21
1638.422653078994
  0
LINE
  5
2B2
100
AcDbEntity
  8
0
  6
CONTINUOUS
 62
           3
100
AcDbLine
 10
3413.899996626771
 20
1638.422653078994
 11
3412.899996695574
 21
1637.422651052294
  0
LINE
  5
2B1
100
AcDbEntity
  8
0
  6
CONTINUOUS
 62
           3
100
AcDbLine
 10
3412.399996613573
 20
1394.799999892894
 11
3407.899996341776
 21
1394.799999892894
  0
LINE
  5
2B0
100
AcDbEntity
  8
0
  6
CONTINUOUS
 62
           3
100
AcDbLine
 10
3423.899997101564
 20
1394.799999892894
 11
3419.399996829769
 21
1394.799999892894
  0
LINE
  5
2AF
100
AcDbEntity
  8
0
  6
CONTINUOUS
 62
           3
100
AcDbLine
 10
3409.426494029874
 20
1389.099999999996
 11
3422.373499413467
 21
1389.099999999996
  0
LINE
  5
2AE
100
AcDbEntity
  8
0
  6
CONTINUOUS
 62
           3
100
AcDbLine
 10
3358.899996692016
 20
1393.799997866195
 11
3361.899995321015
 21
1393.799997866195
  0
LINE
  5
2AD
100
AcDbEntity
  8
0
  6
CONTINUOUS
 62
           3
100
AcDbLine
 10
3369.899996632408
 20
1393.799997866195
 11
3407.899996341776
 21
1393.799997866195
  0
LINE
  5
2AC
100
AcDbEntity
  8
0
  6
CONTINUOUS
 62
           3
100
AcDbLine
 10
3423.899997101564
 20
1393.799997866195
 11
3461.899996810931
 21
1393.799997866195
  0
LINE
  5
2AB
100
AcDbEntity
  8
0
  6
CONTINUOUS
 62
           3
100
AcDbLine
 10
3469.899998122326
 20
1393.799997866195
 11
3472.899996751325
 21
1393.799997866195
  0
LINE
  5
2AA
100
AcDbEntity
  8
0
  6
CONTINUOUS
 62
           3
100
AcDbLine
 10
3358.899996692016
 20
1543.800000101369
 11
3358.899996692016
 21
1393.799997866195
  0
LINE
  5
2A9
100
AcDbEntity
  8
0
  6
CONTINUOUS
 62
           3
100
AcDbLine
 10
3472.899996751325
 20
1543.800000101369
 11
3469.899998122326
 21
1543.800000101369
  0
LINE
  5
2A8
100
AcDbEntity
  8
0
  6
CONTINUOUS
 62
           3
100
AcDbLine
 10
3461.899996810931
 20
1543.800000101369
 11
3418.899996747769
 21
1543.800000101369
  0
LINE
  5
2A7
100
AcDbEntity
  8
0
  6
CONTINUOUS
 62
           3
100
AcDbLine
 10
3412.899996695574
 20
1543.800000101369
 11
3369.899996632408
 21
1543.800000101369
  0
LINE
  5
2A6
100
AcDbEntity
  8
0
  6
CONTINUOUS
 62
           3
100
AcDbLine
 10
3361.899995321015
 20
1543.800000101369
 11
3358.899996692016
 21
1543.800000101369
  0
LINE
  5
2A5
100
AcDbEntity
  8
0
  6
CONTINUOUS
 62
           3
100
AcDbLine
 10
3472.899996751325
 20
1393.799997866195
 11
3472.899996751325
 21
1543.800000101369
  0
LINE
  5
2A4
100
AcDbEntity
  8
0
  6
CONTINUOUS
 62
           3
100
AcDbLine
 10
3418.786748155369
 20
1355.446577072225
 11
3418.786748155508
 21
1359.553411603069
  0
LINE
  5
2A3
100
AcDbEntity
  8
0
  6
CONTINUOUS
 62
           3
100
AcDbLine
 10
3418.786748155369
 20
1355.446577072225
 11
3415.899996721671
 21
1355.000004172322
  0
LINE
  5
2A2
100
AcDbEntity
  8
0
  6
CONTINUOUS
 62
           3
100
AcDbLine
 10
3413.013245287842
 20
1355.446577072243
 11
3413.013245287973
 21
1359.553411603022
  0
LINE
  5
2A1
100
AcDbEntity
  8
0
  6
CONTINUOUS
 62
           3
100
AcDbLine
 10
3413.013245287973
 20
1359.553411603022
 11
3415.899996721673
 21
1359.999999404049
  0
LINE
  5
2A0
100
AcDbEntity
  8
0
  6
CONTINUOUS
 62
           3
100
AcDbLine
 10
3415.899996721671
 20
1355.000004172322
 11
3420.23012375601
 21
1355.000004172421
  0
LINE
  5
29F
100
AcDbEntity
  8
0
  6
CONTINUOUS
 62
           3
100
AcDbLine
 10
3411.569869687342
 20
1355.000004172421
 11
3415.899996721671
 21
1355.000004172322
  0
LINE
  5
29E
100
AcDbEntity
  8
0
  6
CONTINUOUS
 62
           3
100
AcDbLine
 10
3411.569869687342
 20
1359.999999404049
 11
3415.899996721673
 21
1359.999999404049
  0
LINE
  5
29D
100
AcDbEntity
  8
0
  6
CONTINUOUS
 62
           3
100
AcDbLine
 10
3418.786748155508
 20
1359.553411603069
 11
3420.230123755968
 21
1359.999999403922
  0
LINE
  5
29C
100
AcDbEntity
  8
0
  6
CONTINUOUS
 62
           3
100
AcDbLine
 10
3415.899996721673
 20
1359.999999404049
 11
3420.230123755968
 21
1359.999999403922
  0
LINE
  5
29B
100
AcDbEntity
  8
0
  6
CONTINUOUS
 62
           3
100
AcDbLine
 10
3410.126493853973
 20
1355.446577072225
 11
3410.126493853973
 21
1359.553411603022
  0
LINE
  5
29A
100
AcDbEntity
  8
0
  6
CONTINUOUS
 62
           3
100
AcDbLine
 10
3421.673499589368
 20
1355.446577072225
 11
3421.673499589368
 21
1359.553411603022
  0
LINE
  5
299
100
AcDbEntity
  8
0
  6
CONTINUOUS
 62
           3
100
AcDbLine
 10
3421.673499589368
 20
1355.446577072225
 11
3420.23012375601
 21
1355.000004172421
  0
LINE
  5
298
100
AcDbEntity
  8
0
  6
CONTINUOUS
 62
           3
100
AcDbLine
 10
3410.899996833476
 20
1355.000004172322
 11
3411.569869687342
 21
1355.000004172421
  0
LINE
  5
297
100
AcDbEntity
  8
0
  6
CONTINUOUS
 62
           3
100
AcDbLine
 10
3420.899996609865
 20
1355.000004172322
 11
3420.23012375601
 21
1355.000004172421
  0
LINE
  5
296
100
AcDbEntity
  8
0
  6
CONTINUOUS
 62
           3
100
AcDbLine
 10
3410.899996833476
 20
1359.999999403922
 11
3411.569869687342
 21
1359.999999404049
  0
LINE
  5
295
100
AcDbEntity
  8
0
  6
CONTINUOUS
 62
           3
100
AcDbLine
 10
3418.786748155508
 20
1364.553421735859
 11
3418.786748155369
 21
1360.446587205123
  0
LINE
  5
294
100
AcDbEntity
  8
0
  6
CONTINUOUS
 62
           3
100
AcDbLine
 10
3413.013245287842
 20
1364.553421735859
 11
3413.013245287842
 21
1360.446587205025
  0
LINE
  5
293
100
AcDbEntity
  8
0
  6
CONTINUOUS
 62
           3
100
AcDbLine
 10
3421.673499589368
 20
1364.553421735917
 11
3420.23012375601
 21
1364.999994635674
  0
LINE
  5
292
100
AcDbEntity
  8
0
  6
CONTINUOUS
 62
           3
100
AcDbLine
 10
3421.673499589368
 20
1364.553421735917
 11
3421.673499589368
 21
1360.446587205123
  0
LINE
  5
291
100
AcDbEntity
  8
0
  6
CONTINUOUS
 62
           3
100
AcDbLine
 10
3418.786748155369
 20
1360.446587205123
 11
3420.230123755968
 21
1359.999999403922
  0
LINE
  5
290
100
AcDbEntity
  8
0
  6
CONTINUOUS
 62
           3
100
AcDbLine
 10
3413.013245287842
 20
1364.553421735859
 11
3411.569869687342
 21
1364.999994635674
  0
LINE
  5
28F
100
AcDbEntity
  8
0
  6
CONTINUOUS
 62
           3
100
AcDbLine
 10
3410.126493853973
 20
1360.446587205123
 11
3411.569869687342
 21
1359.999999404049
  0
LINE
  5
28E
100
AcDbEntity
  8
0
  6
CONTINUOUS
 62
           3
100
AcDbLine
 10
3410.126493853973
 20
1364.553421735917
 11
3410.126493853973
 21
1360.446587205123
  0
LINE
  5
28D
100
AcDbEntity
  8
0
  6
CONTINUOUS
 62
           3
100
AcDbLine
 10
3418.786748155508
 20
1377.153418958268
 11
3418.786748155369
 21
1373.046576976912
  0
LINE
  5
28C
100
AcDbEntity
  8
0
  6
CONTINUOUS
 62
           3
100
AcDbLine
 10
3413.013245287842
 20
1377.153418958268
 11
3413.013245287842
 21
1373.046576976861
  0
LINE
  5
28B
100
AcDbEntity
  8
0
  6
CONTINUOUS
 62
           3
100
AcDbLine
 10
3421.673499589368
 20
1377.153418958206
 11
3420.23012375601
 21
1377.599999308667
  0
LINE
  5
28A
100
AcDbEntity
  8
0
  6
CONTINUOUS
 62
           3
100
AcDbLine
 10
3421.673499589368
 20
1377.153418958206
 11
3421.673499589368
 21
1373.046576976912
  0
LINE
  5
289
100
AcDbEntity
  8
0
  6
CONTINUOUS
 62
           3
100
AcDbLine
 10
3418.786748155369
 20
1373.046576976912
 11
3420.23012375601
 21
1372.600004077042
  0
LINE
  5
288
100
AcDbEntity
  8
0
  6
CONTINUOUS
 62
           3
100
AcDbLine
 10
3420.23012375601
 20
1377.599999308667
 11
3415.899996721673
 21
1377.599999308667
  0
LINE
  5
287
100
AcDbEntity
  8
0
  6
CONTINUOUS
 62
           3
100
AcDbLine
 10
3413.013245287842
 20
1377.153418958268
 11
3411.569869687342
 21
1377.599999308667
  0
LINE
  5
286
100
AcDbEntity
  8
0
  6
CONTINUOUS
 62
           3
100
AcDbLine
 10
3410.126493853973
 20
1373.046576976912
 11
3411.569869687342
 21
1372.600004077042
  0
LINE
  5
285
100
AcDbEntity
  8
0
  6
CONTINUOUS
 62
           3
100
AcDbLine
 10
3410.126493853973
 20
1377.153418958206
 11
3410.126493853973
 21
1373.046576976912
  0
LINE
  5
284
100
AcDbEntity
  8
0
  6
CONTINUOUS
 62
           3
100
AcDbLine
 10
3415.899996721673
 20
1377.599999308667
 11
3411.569869687342
 21
1377.599999308667
  0
LINE
  5
283
100
AcDbEntity
  8
0
  6
CONTINUOUS
 62
           3
100
AcDbLine
 10
3420.23012375601
 20
1372.600004077042
 11
3415.899996721673
 21
1372.600004077042
  0
LINE
  5
282
100
AcDbEntity
  8
0
  6
CONTINUOUS
 62
           3
100
AcDbLine
 10
3415.899996721673
 20
1372.600004077042
 11
3411.569869687342
 21
1372.600004077042
  0
LINE
  5
281
100
AcDbEntity
  8
0
  6
CONTINUOUS
 62
           3
100
AcDbLine
 10
3411.569869687342
 20
1377.599999308667
 11
3410.899996833476
 21
1377.599999308605
  0
LINE
  5
280
100
AcDbEntity
  8
0
  6
CONTINUOUS
 62
           3
100
AcDbLine
 10
3420.899996609865
 20
1377.599999308605
 11
3420.23012375601
 21
1377.599999308667
  0
LINE
  5
27F
100
AcDbEntity
  8
0
  6
CONTINUOUS
 62
           3
100
AcDbLine
 10
3420.899996609865
 20
1372.60000407701
 11
3420.23012375601
 21
1372.600004077042
  0
LINE
  5
27E
100
AcDbEntity
  8
0
  6
CONTINUOUS
 62
           3
100
AcDbLine
 10
3418.786748155508
 20
1372.153416276063
 11
3418.786748155369
 21
1368.046581745312
  0
LINE
  5
27D
100
AcDbEntity
  8
0
  6
CONTINUOUS
 62
           3
100
AcDbLine
 10
3413.013245287842
 20
1372.153416276063
 11
3413.013245287842
 21
1368.046581745236
  0
LINE
  5
27C
100
AcDbEntity
  8
0
  6
CONTINUOUS
 62
           3
100
AcDbLine
 10
3421.673499589368
 20
1372.15341627611
 11
3420.23012375601
 21
1372.600004077042
  0
LINE
  5
27B
100
AcDbEntity
  8
0
  6
CONTINUOUS
 62
           3
100
AcDbLine
 10
3421.673499589368
 20
1372.15341627611
 11
3421.673499589368
 21
1368.046581745312
  0
LINE
  5
27A
100
AcDbEntity
  8
0
  6
CONTINUOUS
 62
           3
100
AcDbLine
 10
3418.786748155369
 20
1368.046581745312
 11
3420.23012375601
 21
1367.599993944256
  0
LINE
  5
279
100
AcDbEntity
  8
0
  6
CONTINUOUS
 62
           3
100
AcDbLine
 10
3413.013245287842
 20
1372.153416276063
 11
3411.569869687342
 21
1372.600004077042
  0
LINE
  5
278
100
AcDbEntity
  8
0
  6
CONTINUOUS
 62
           3
100
AcDbLine
 10
3410.126493853973
 20
1368.046581745312
 11
3411.569869687342
 21
1367.599993944256
  0
LINE
  5
277
100
AcDbEntity
  8
0
  6
CONTINUOUS
 62
           3
100
AcDbLine
 10
3410.126493853973
 20
1372.15341627611
 11
3410.126493853973
 21
1368.046581745312
  0
LINE
  5
276
100
AcDbEntity
  8
0
  6
CONTINUOUS
 62
           3
100
AcDbLine
 10
3415.899996721673
 20
1367.599993944256
 11
3411.569869687342
 21
1367.599993944256
  0
LINE
  5
275
100
AcDbEntity
  8
0
  6
CONTINUOUS
 62
           3
100
AcDbLine
 10
3420.23012375601
 20
1367.599993944256
 11
3415.899996721673
 21
1367.599993944256
  0
LINE
  5
274
100
AcDbEntity
  8
0
  6
CONTINUOUS
 62
           3
100
AcDbLine
 10
3411.569869687342
 20
1372.600004077042
 11
3410.899996833476
 21
1372.60000407701
  0
LINE
  5
273
100
AcDbEntity
  8
0
  6
CONTINUOUS
 62
           3
100
AcDbLine
 10
3420.899996609865
 20
1367.599993944114
 11
3420.23012375601
 21
1367.599993944256
  0
LINE
  5
272
100
AcDbEntity
  8
0
  6
CONTINUOUS
 62
           3
100
AcDbLine
 10
3411.569869687342
 20
1367.599993944256
 11
3410.899996833476
 21
1367.599993944114
  0
LINE
  5
271
100
AcDbEntity
  8
0
  6
CONTINUOUS
 62
           3
100
AcDbLine
 10
3365.899995976712
 20
1665.00000655637
 11
3369.899996632408
 21
1665.00000655637
  0
LINE
  5
270
100
AcDbEntity
  8
0
  6
CONTINUOUS
 62
           3
100
AcDbLine
 10
3361.899995321015
 20
1665.00000655637
 11
3365.899995976712
 21
1665.00000655637
  0
LINE
  5
26F
100
AcDbEntity
  8
0
  6
CONTINUOUS
 62
           3
100
AcDbLine
 10
3412.899996695574
 20
1637.422651052294
 11
3418.899996747769
 21
1637.422651052294
  0
LINE
  5
26E
100
AcDbEntity
  8
0
  6
CONTINUOUS
 62
           3
100
AcDbLine
 10
3417.899996816568
 20
1638.422653078994
 11
3413.899996626771
 21
1638.422653078994
  0
LINE
  5
26D
100
AcDbEntity
  8
0
  6
CONTINUOUS
 62
           3
100
AcDbLine
 10
3423.899997101564
 20
1389.200001954997
 11
3419.399996829769
 21
1389.200001954997
  0
LINE
  5
26C
100
AcDbEntity
  8
0
  6
CONTINUOUS
 62
           3
100
AcDbLine
 10
3412.399996613573
 20
1394.792847335492
 11
3419.399996829769
 21
1394.792847335492
  0
LINE
  5
26B
100
AcDbEntity
  8
0
  6
CONTINUOUS
 62
           3
100
AcDbLine
 10
3412.399996613573
 20
1389.200001954997
 11
3407.899996341776
 21
1389.200001954997
  0
LINE
  5
26A
100
AcDbEntity
  8
0
  6
CONTINUOUS
 62
           3
100
AcDbLine
 10
3419.399996829769
 20
1394.799999892894
 11
3419.399996829769
 21
1389.200001954997
  0
LINE
  5
269
100
AcDbEntity
  8
0
  6
CONTINUOUS
 62
           3
100
AcDbLine
 10
3412.399996613573
 20
1389.200001954997
 11
3412.399996613573
 21
1394.799999892894
  0
LINE
  5
268
100
AcDbEntity
  8
0
  6
CONTINUOUS
 62
           3
100
AcDbLine
 10
3407.899996341776
 20
1394.799999892894
 11
3407.899996341776
 21
1389.200001954997
  0
LINE
  5
267
100
AcDbEntity
  8
0
  6
CONTINUOUS
 62
           3
100
AcDbLine
 10
3423.899997101564
 20
1394.799999892894
 11
3423.899997101564
 21
1389.200001954997
  0
LINE
  5
266
100
AcDbEntity
  8
0
  6
CONTINUOUS
 62
           3
100
AcDbLine
 10
3419.399996829769
 20
1392.246469855295
 11
3418.899996747769
 21
1392.246469855295
  0
LINE
  5
265
100
AcDbEntity
  8
0
  6
CONTINUOUS
 62
           3
100
AcDbLine
 10
3412.899996695574
 20
1392.246469855295
 11
3412.399996613573
 21
1392.246469855295
  0
LINE
  5
264
100
AcDbEntity
  8
0
  6
CONTINUOUS
 62
           3
100
AcDbLine
 10
3419.399996829769
 20
1393.990144133492
 11
3412.399996613573
 21
1393.990144133492
  0
LINE
  5
263
100
AcDbEntity
  8
0
  6
CONTINUOUS
 62
           3
100
AcDbLine
 10
3412.399996613573
 20
1390.000000596098
 11
3419.399996829769
 21
1390.000000596098
  0
LINE
  5
262
100
AcDbEntity
  8
0
  6
CONTINUOUS
 62
           3
100
AcDbLine
 10
3412.399996613573
 20
1389.200001954997
 11
3419.399996829769
 21
1389.200001954997
  0
LINE
  5
261
100
AcDbEntity
  8
0
  6
CONTINUOUS
 62
           3
100
AcDbLine
 10
3415.899996721673
 20
1384.646579623296
 11
3418.399996665768
 21
1384.199999272901
  0
LINE
  5
260
100
AcDbEntity
  8
0
  6
CONTINUOUS
 62
           3
100
AcDbLine
 10
3413.399996777556
 20
1384.199999272901
 11
3418.399996665768
 21
1384.199999272901
  0
LINE
  5
25F
100
AcDbEntity
  8
0
  6
CONTINUOUS
 62
           3
100
AcDbLine
 10
3415.899996721673
 20
1384.646579623296
 11
3415.899996721671
 21
1389.100000262196
  0
LINE
  5
25E
100
AcDbEntity
  8
0
  6
CONTINUOUS
 62
           3
100
AcDbLine
 10
3410.899996833476
 20
1384.646579623303
 11
3413.399996777556
 21
1384.199999272901
  0
LINE
  5
25D
100
AcDbEntity
  8
0
  6
CONTINUOUS
 62
           3
100
AcDbLine
 10
3410.899996833476
 20
1384.646579623303
 11
3410.899996833476
 21
1389.100000262196
  0
LINE
  5
25C
100
AcDbEntity
  8
0
  6
CONTINUOUS
 62
           3
100
AcDbLine
 10
3420.899996609865
 20
1384.646579623303
 11
3420.899996609865
 21
1389.100000262196
  0
LINE
  5
25B
100
AcDbEntity
  8
0
  6
CONTINUOUS
 62
           3
100
AcDbLine
 10
3410.899996833437
 20
1384.199999272901
 11
3413.399996777556
 21
1384.199999272901
  0
LINE
  5
25A
100
AcDbEntity
  8
0
  6
CONTINUOUS
 62
           3
100
AcDbLine
 10
3418.399996665768
 20
1384.199999272901
 11
3420.899996609913
 21
1384.199999272901
  0
LINE
  5
259
100
AcDbEntity
  8
0
  6
CONTINUOUS
 62
           3
100
AcDbLine
 10
3423.899997101564
 20
1388.276241719796
 11
3420.899996609865
 21
1388.276241719796
  0
LINE
  5
258
100
AcDbEntity
  8
0
  6
CONTINUOUS
 62
           3
100
AcDbLine
 10
3410.899996833476
 20
1388.276241719796
 11
3407.899996341776
 21
1388.276241719796
  0
LINE
  5
257
100
AcDbEntity
  8
0
  6
CONTINUOUS
 62
           3
100
AcDbLine
 10
3407.899996341776
 20
1389.200001954997
 11
3407.899996341776
 21
1388.276241719796
  0
LINE
  5
256
100
AcDbEntity
  8
0
  6
CONTINUOUS
 62
           3
100
AcDbLine
 10
3423.899997101564
 20
1389.200001954997
 11
3423.899997101564
 21
1388.276241719796
  0
LINE
  5
255
100
AcDbEntity
  8
0
  6
CONTINUOUS
 62
           3
100
AcDbLine
 10
3385.899997392196
 20
1550.000000744964
 11
3395.899997168586
 21
1550.000000744964
  0
LINE
  5
254
100
AcDbEntity
  8
0
  6
CONTINUOUS
 62
           3
100
AcDbLine
 10
3395.899997168586
 20
1548.799999058066
 11
3395.899997168586
 21
1550.000000744964
  0
LINE
  5
253
100
AcDbEntity
  8
0
  6
CONTINUOUS
 62
           3
100
AcDbLine
 10
3385.899997392196
 20
1548.799999058066
 11
3395.899997168586
 21
1548.799999058066
  0
LINE
  5
252
100
AcDbEntity
  8
0
  6
CONTINUOUS
 62
           3
100
AcDbLine
 10
3385.899997392196
 20
1548.799999058066
 11
3385.899997392196
 21
1550.000000744964
  0
LINE
  5
251
100
AcDbEntity
  8
0
  6
CONTINUOUS
 62
           3
100
AcDbLine
 10
3435.899996274753
 20
1548.799999058066
 11
3435.899996274753
 21
1550.000000744964
  0
LINE
  5
250
100
AcDbEntity
  8
0
  6
CONTINUOUS
 62
           3
100
AcDbLine
 10
3421.149996650865
 20
1548.799999058066
 11
3435.899996274753
 21
1548.799999058066
  0
LINE
  5
24F
100
AcDbEntity
  8
0
  6
CONTINUOUS
 62
           3
100
AcDbLine
 10
3421.149996650865
 20
1550.000000744964
 11
3435.899996274753
 21
1550.000000744964
  0
LINE
  5
24E
100
AcDbEntity
  8
0
  6
CONTINUOUS
 62
           3
100
AcDbLine
 10
3395.899997168586
 20
1548.799999058066
 11
3410.649996792476
 21
1548.799999058066
  0
LINE
  5
24D
100
AcDbEntity
  8
0
  6
CONTINUOUS
 62
           3
100
AcDbLine
 10
3395.899997168586
 20
1550.000000744964
 11
3410.649996792476
 21
1550.000000744964
  0
LINE
  5
24C
100
AcDbEntity
  8
0
  6
CONTINUOUS
 62
           3
100
AcDbLine
 10
3395.899997168586
 20
1391.199998557594
 11
3395.899997168586
 21
1390.000000596098
  0
LINE
  5
24B
100
AcDbEntity
  8
0
  6
CONTINUOUS
 62
           3
100
AcDbLine
 10
3395.899997168586
 20
1390.000000596098
 11
3407.899996341776
 21
1390.000000596098
  0
LINE
  5
24A
100
AcDbEntity
  8
0
  6
CONTINUOUS
 62
           3
100
AcDbLine
 10
3395.899997168586
 20
1391.199998557594
 11
3407.899996341776
 21
1391.199998557594
  0
LINE
  5
249
100
AcDbEntity
  8
0
  6
CONTINUOUS
 62
           3
100
AcDbLine
 10
3419.149996788769
 20
1390.000000596098
 11
3419.149996788769
 21
1391.199998557594
  0
LINE
  5
248
100
AcDbEntity
  8
0
  6
CONTINUOUS
 62
           3
100
AcDbLine
 10
3419.149996788769
 20
1391.199998557594
 11
3419.399996829769
 21
1391.199998557594
  0
LINE
  5
247
100
AcDbEntity
  8
0
  6
CONTINUOUS
 62
           3
100
AcDbLine
 10
3445.899996051146
 20
1548.799999058066
 11
3445.899996051146
 21
1550.000000744964
  0
LINE
  5
246
100
AcDbEntity
  8
0
  6
CONTINUOUS
 62
           3
100
AcDbLine
 10
3445.899996051146
 20
1548.799999058066
 11
3435.899996274753
 21
1548.799999058066
  0
LINE
  5
245
100
AcDbEntity
  8
0
  6
CONTINUOUS
 62
           3
100
AcDbLine
 10
3445.899996051146
 20
1550.000000744964
 11
3435.899996274753
 21
1550.000000744964
  0
LINE
  5
244
100
AcDbEntity
  8
0
  6
CONTINUOUS
 62
           3
100
AcDbLine
 10
3419.149996788769
 20
1548.799999058066
 11
3419.149996788769
 21
1550.000000744964
  0
LINE
  5
243
100
AcDbEntity
  8
0
  6
CONTINUOUS
 62
           3
100
AcDbLine
 10
3421.149996650865
 20
1548.799999058066
 11
3419.149996788769
 21
1548.799999058066
  0
LINE
  5
242
100
AcDbEntity
  8
0
  6
CONTINUOUS
 62
           3
100
AcDbLine
 10
3419.149996788769
 20
1550.000000744964
 11
3421.149996650865
 21
1550.000000744964
  0
LINE
  5
241
100
AcDbEntity
  8
0
  6
CONTINUOUS
 62
           3
100
AcDbLine
 10
3385.899997392196
 20
1391.199998557594
 11
3385.899997392196
 21
1390.000000596098
  0
LINE
  5
240
100
AcDbEntity
  8
0
  6
CONTINUOUS
 62
           3
100
AcDbLine
 10
3385.899997392196
 20
1390.000000596098
 11
3395.899997168586
 21
1390.000000596098
  0
LINE
  5
23F
100
AcDbEntity
  8
0
  6
CONTINUOUS
 62
           3
100
AcDbLine
 10
3385.899997392196
 20
1391.199998557594
 11
3395.899997168586
 21
1391.199998557594
  0
LINE
  5
23E
100
AcDbEntity
  8
0
  6
CONTINUOUS
 62
           3
100
AcDbLine
 10
3435.899996274753
 20
1391.199998557594
 11
3435.899996274753
 21
1390.000000596098
  0
LINE
  5
23D
100
AcDbEntity
  8
0
  6
CONTINUOUS
 62
           3
100
AcDbLine
 10
3423.899997101564
 20
1390.000000596098
 11
3435.899996274753
 21
1390.000000596098
  0
LINE
  5
23C
100
AcDbEntity
  8
0
  6
CONTINUOUS
 62
           3
100
AcDbLine
 10
3423.899997101564
 20
1391.199998557594
 11
3435.899996274753
 21
1391.199998557594
  0
LINE
  5
23B
100
AcDbEntity
  8
0
  6
CONTINUOUS
 62
           3
100
AcDbLine
 10
3412.649996654573
 20
1550.000000744964
 11
3412.649996654573
 21
1548.799999058066
  0
LINE
  5
23A
100
AcDbEntity
  8
0
  6
CONTINUOUS
 62
           3
100
AcDbLine
 10
3412.649996654573
 20
1548.799999058066
 11
3410.649996792476
 21
1548.799999058066
  0
LINE
  5
239
100
AcDbEntity
  8
0
  6
CONTINUOUS
 62
           3
100
AcDbLine
 10
3410.649996792476
 20
1550.000000744964
 11
3412.649996654573
 21
1550.000000744964
  0
LINE
  5
238
100
AcDbEntity
  8
0
  6
CONTINUOUS
 62
           3
100
AcDbLine
 10
3445.899996051146
 20
1391.199998557594
 11
3445.899996051146
 21
1390.000000596098
  0
LINE
  5
237
100
AcDbEntity
  8
0
  6
CONTINUOUS
 62
           3
100
AcDbLine
 10
3445.899996051146
 20
1390.000000596098
 11
3435.899996274753
 21
1390.000000596098
  0
LINE
  5
236
100
AcDbEntity
  8
0
  6
CONTINUOUS
 62
           3
100
AcDbLine
 10
3445.899996051146
 20
1391.199998557594
 11
3435.899996274753
 21
1391.199998557594
  0
LINE
  5
235
100
AcDbEntity
  8
0
  6
CONTINUOUS
 62
           3
100
AcDbLine
 10
3412.649996654573
 20
1391.199998557594
 11
3412.649996654573
 21
1390.000000596098
  0
LINE
  5
234
100
AcDbEntity
  8
0
  6
CONTINUOUS
 62
           3
100
AcDbLine
 10
3412.399996613573
 20
1391.199998557594
 11
3412.649996654573
 21
1391.199998557594
  0
LINE
  5
233
100
AcDbEntity
  8
0
  6
CONTINUOUS
 62
           3
100
AcDbLine
 10
3362.899997347713
 20
1390.000000596098
 11
3362.899997347713
 21
1391.199998557594
  0
LINE
  5
232
100
AcDbEntity
  8
0
  6
CONTINUOUS
 62
           3
100
AcDbLine
 10
3360.899997019717
 20
1390.000000596098
 11
3362.899997347713
 21
1390.000000596098
  0
LINE
  5
231
100
AcDbEntity
  8
0
  6
CONTINUOUS
 62
           3
100
AcDbLine
 10
3362.899997347713
 20
1391.199998557594
 11
3360.899997019717
 21
1391.199998557594
  0
LINE
  5
230
100
AcDbEntity
  8
0
  6
CONTINUOUS
 62
           3
100
AcDbLine
 10
3368.89999833111
 20
1391.199998557594
 11
3368.89999833111
 21
1390.000000596098
  0
LINE
  5
22F
100
AcDbEntity
  8
0
  6
CONTINUOUS
 62
           3
100
AcDbLine
 10
3368.89999833111
 20
1390.000000596098
 11
3370.899994933709
 21
1390.000000596098
  0
LINE
  5
22E
100
AcDbEntity
  8
0
  6
CONTINUOUS
 62
           3
100
AcDbLine
 10
3370.899994933709
 20
1391.199998557594
 11
3368.89999833111
 21
1391.199998557594
  0
LINE
  5
22D
100
AcDbEntity
  8
0
  6
CONTINUOUS
 62
           3
100
AcDbLine
 10
3468.899996095926
 20
1550.000000744964
 11
3468.899996095926
 21
1548.799999058066
  0
LINE
  5
22C
100
AcDbEntity
  8
0
  6
CONTINUOUS
 62
           3
100
AcDbLine
 10
3468.899996095926
 20
1548.799999058066
 11
3470.899996423626
 21
1548.799999058066
  0
LINE
  5
22B
100
AcDbEntity
  8
0
  6
CONTINUOUS
 62
           3
100
AcDbLine
 10
3470.899996423626
 20
1550.000000744964
 11
3468.899996095926
 21
1550.000000744964
  0
LINE
  5
22A
100
AcDbEntity
  8
0
  6
CONTINUOUS
 62
           3
100
AcDbLine
 10
3462.899995112231
 20
1548.799999058066
 11
3462.899995112231
 21
1550.000000744964
  0
LINE
  5
229
100
AcDbEntity
  8
0
  6
CONTINUOUS
 62
           3
100
AcDbLine
 10
3460.899998509633
 20
1548.799999058066
 11
3462.899995112231
 21
1548.799999058066
  0
LINE
  5
228
100
AcDbEntity
  8
0
  6
CONTINUOUS
 62
           3
100
AcDbLine
 10
3462.899995112231
 20
1550.000000744964
 11
3460.899998509633
 21
1550.000000744964
  0
LINE
  5
227
100
AcDbEntity
  8
0
  6
CONTINUOUS
 62
           3
100
AcDbLine
 10
3468.899996095926
 20
1390.000000596098
 11
3468.899996095926
 21
1391.199998557594
  0
LINE
  5
226
100
AcDbEntity
  8
0
  6
CONTINUOUS
 62
           3
100
AcDbLine
 10
3470.899996423626
 20
1390.000000596098
 11
3468.899996095926
 21
1390.000000596098
  0
LINE
  5
225
100
AcDbEntity
  8
0
  6
CONTINUOUS
 62
           3
100
AcDbLine
 10
3468.899996095926
 20
1391.199998557594
 11
3470.899996423626
 21
1391.199998557594
  0
LINE
  5
224
100
AcDbEntity
  8
0
  6
CONTINUOUS
 62
           3
100
AcDbLine
 10
3462.899995112231
 20
1391.199998557594
 11
3462.899995112231
 21
1390.000000596098
  0
LINE
  5
223
100
AcDbEntity
  8
0
  6
CONTINUOUS
 62
           3
100
AcDbLine
 10
3462.899995112231
 20
1390.000000596098
 11
3460.899998509633
 21
1390.000000596098
  0
LINE
  5
222
100
AcDbEntity
  8
0
  6
CONTINUOUS
 62
           3
100
AcDbLine
 10
3460.899998509633
 20
1391.199998557594
 11
3462.899995112231
 21
1391.199998557594
  0
LINE
  5
221
100
AcDbEntity
  8
0
  6
CONTINUOUS
 62
           3
100
AcDbLine
 10
3362.899997347713
 20
1550.000000744964
 11
3362.899997347713
 21
1548.799999058066
  0
LINE
  5
220
100
AcDbEntity
  8
0
  6
CONTINUOUS
 62
           3
100
AcDbLine
 10
3362.899997347713
 20
1548.799999058066
 11
3360.899997019717
 21
1548.799999058066
  0
LINE
  5
21F
100
AcDbEntity
  8
0
  6
CONTINUOUS
 62
           3
100
AcDbLine
 10
3360.899997019717
 20
1550.000000744964
 11
3362.899997347713
 21
1550.000000744964
  0
LINE
  5
21E
100
AcDbEntity
  8
0
  6
CONTINUOUS
 62
           3
100
AcDbLine
 10
3368.89999833111
 20
1548.799999058066
 11
3368.89999833111
 21
1550.000000744964
  0
LINE
  5
21D
100
AcDbEntity
  8
0
  6
CONTINUOUS
 62
           3
100
AcDbLine
 10
3370.899994933709
 20
1548.799999058066
 11
3368.89999833111
 21
1548.799999058066
  0
LINE
  5
21C
100
AcDbEntity
  8
0
  6
CONTINUOUS
 62
           3
100
AcDbLine
 10
3368.89999833111
 20
1550.000000744964
 11
3370.899994933709
 21
1550.000000744964
  0
LINE
  5
21B
100
AcDbEntity
  8
0
  6
CONTINUOUS
 62
           3
100
AcDbLine
 10
3370.899994933709
 20
1390.000000596098
 11
3385.899997392196
 21
1390.000000596098
  0
LINE
  5
21A
100
AcDbEntity
  8
0
  6
CONTINUOUS
 62
           3
100
AcDbLine
 10
3370.899994933709
 20
1391.199998557594
 11
3385.899997392196
 21
1391.199998557594
  0
LINE
  5
219
100
AcDbEntity
  8
0
  6
CONTINUOUS
 62
           3
100
AcDbLine
 10
3475.899995380622
 20
1391.199998557594
 11
3475.899995380622
 21
1390.000000596098
  0
LINE
  5
218
100
AcDbEntity
  8
0
  6
CONTINUOUS
 62
           3
100
AcDbLine
 10
3475.899995380622
 20
1390.000000596098
 11
3470.899996423626
 21
1390.000000596098
  0
LINE
  5
217
100
AcDbEntity
  8
0
  6
CONTINUOUS
 62
           3
100
AcDbLine
 10
3470.899996423626
 20
1391.199998557594
 11
3475.899995380622
 21
1391.199998557594
  0
LINE
  5
216
100
AcDbEntity
  8
0
  6
CONTINUOUS
 62
           3
100
AcDbLine
 10
3370.899994933709
 20
1548.799999058066
 11
3385.899997392196
 21
1548.799999058066
  0
LINE
  5
215
100
AcDbEntity
  8
0
  6
CONTINUOUS
 62
           3
100
AcDbLine
 10
3370.899994933709
 20
1550.000000744964
 11
3385.899997392196
 21
1550.000000744964
  0
LINE
  5
214
100
AcDbEntity
  8
0
  6
CONTINUOUS
 62
           3
100
AcDbLine
 10
3460.899998509633
 20
1390.000000596098
 11
3445.899996051146
 21
1390.000000596098
  0
LINE
  5
213
100
AcDbEntity
  8
0
  6
CONTINUOUS
 62
           3
100
AcDbLine
 10
3460.899998509633
 20
1391.199998557594
 11
3445.899996051146
 21
1391.199998557594
  0
LINE
  5
212
100
AcDbEntity
  8
0
  6
CONTINUOUS
 62
           3
100
AcDbLine
 10
3475.899995380622
 20
1548.799999058066
 11
3475.899995380622
 21
1550.000000744964
  0
LINE
  5
211
100
AcDbEntity
  8
0
  6
CONTINUOUS
 62
           3
100
AcDbLine
 10
3470.899996423626
 20
1548.799999058066
 11
3475.899995380622
 21
1548.799999058066
  0
LINE
  5
210
100
AcDbEntity
  8
0
  6
CONTINUOUS
 62
           3
100
AcDbLine
 10
3475.899995380622
 20
1550.000000744964
 11
3470.899996423626
 21
1550.000000744964
  0
LINE
  5
20F
100
AcDbEntity
  8
0
  6
CONTINUOUS
 62
           3
100
AcDbLine
 10
3460.899998509633
 20
1548.799999058066
 11
3445.899996051146
 21
1548.799999058066
  0
LINE
  5
20E
100
AcDbEntity
  8
0
  6
CONTINUOUS
 62
           3
100
AcDbLine
 10
3460.899998509633
 20
1550.000000744964
 11
3445.899996051146
 21
1550.000000744964
  0
LINE
  5
20D
100
AcDbEntity
  8
0
  6
CONTINUOUS
 62
           3
100
AcDbLine
 10
3355.89999806272
 20
1548.799999058066
 11
3355.89999806272
 21
1550.000000744964
  0
LINE
  5
20C
100
AcDbEntity
  8
0
  6
CONTINUOUS
 62
           3
100
AcDbLine
 10
3360.899997019717
 20
1548.799999058066
 11
3355.89999806272
 21
1548.799999058066
  0
LINE
  5
20B
100
AcDbEntity
  8
0
  6
CONTINUOUS
 62
           3
100
AcDbLine
 10
3355.89999806272
 20
1550.000000744964
 11
3360.899997019717
 21
1550.000000744964
  0
LINE
  5
20A
100
AcDbEntity
  8
0
  6
CONTINUOUS
 62
           3
100
AcDbLine
 10
3355.89999806272
 20
1391.199998557594
 11
3355.89999806272
 21
1390.000000596098
  0
LINE
  5
209
100
AcDbEntity
  8
0
  6
CONTINUOUS
 62
           3
100
AcDbLine
 10
3355.89999806272
 20
1390.000000596098
 11
3360.899997019717
 21
1390.000000596098
  0
LINE
  5
208
100
AcDbEntity
  8
0
  6
CONTINUOUS
 62
           3
100
AcDbLine
 10
3360.899997019717
 20
1391.199998557594
 11
3355.89999806272
 21
1391.199998557594
  0
LINE
  5
207
100
AcDbEntity
  8
0
  6
CONTINUOUS
 62
           3
100
AcDbLine
 10
3419.149996788769
 20
1391.199998557594
 11
3418.899996747769
 21
1391.199998557594
  0
LINE
  5
206
100
AcDbEntity
  8
0
  6
CONTINUOUS
 62
           3
100
AcDbLine
 10
3412.899996695574
 20
1391.199998557594
 11
3412.649996654573
 21
1391.199998557594
  0
LINE
  5
205
100
AcDbEntity
  8
0
  6
CONTINUOUS
 62
           3
100
AcDbLine
 10
3412.649996654573
 20
1548.799999058066
 11
3412.899996695574
 21
1548.799999058066
  0
LINE
  5
204
100
AcDbEntity
  8
0
  6
CONTINUOUS
 62
           3
100
AcDbLine
 10
3418.899996747769
 20
1548.799999058066
 11
3419.149996788769
 21
1548.799999058066
  0
LINE
  5
203
100
AcDbEntity
  8
0
  6
CONTINUOUS
 62
           3
100
AcDbLine
 10
3412.649996654573
 20
1550.000000744964
 11
3412.899996695574
 21
1550.000000744964
  0
LINE
  5
202
100
AcDbEntity
  8
0
  6
CONTINUOUS
 62
           3
100
AcDbLine
 10
3418.899996747769
 20
1550.000000744964
 11
3419.149996788769
 21
1550.000000744964
  0
LINE
  5
201
100
AcDbEntity
  8
0
  6
CONTINUOUS
 62
           3
100
AcDbLine
 10
3475.899995380622
 20
1391.199998557594
 11
3475.899995380622
 21
1391.699999570793
  0
LINE
  5
200
100
AcDbEntity
  8
0
  6
CONTINUOUS
 62
           3
100
AcDbLine
 10
3355.89999806272
 20
1391.199998557594
 11
3355.89999806272
 21
1391.699999570793
  0
LINE
  5
1FF
100
AcDbEntity
  8
0
  6
CONTINUOUS
 62
           3
100
AcDbLine
 10
3355.89999806272
 20
1548.799999058066
 11
3355.89999806272
 21
1548.300001770266
  0
LINE
  5
1FE
100
AcDbEntity
  8
0
  6
CONTINUOUS
 62
           3
100
AcDbLine
 10
3475.899995380622
 20
1548.799999058066
 11
3475.899995380622
 21
1548.300001770266
  0
LINE
  5
1FD
100
AcDbEntity
  8
0
  6
CONTINUOUS
 62
           3
100
AcDbLine
 10
3475.899995380622
 20
1529.999999329481
 11
3474.199996405621
 21
1529.999999329481
  0
LINE
  5
1FC
100
AcDbEntity
  8
0
  6
CONTINUOUS
 62
           3
100
AcDbLine
 10
3475.899995380622
 20
1509.999999776396
 11
3475.899995380622
 21
1529.999999329481
  0
LINE
  5
1FB
100
AcDbEntity
  8
0
  6
CONTINUOUS
 62
           3
100
AcDbLine
 10
3474.199996405621
 20
1509.999999776396
 11
3475.824804121023
 21
1509.999999776396
  0
LINE
  5
1FA
100
AcDbEntity
  8
0
  6
CONTINUOUS
 62
           3
100
AcDbLine
 10
3357.89999839072
 20
1532.000001519879
 11
3355.89999806272
 21
1532.000001519879
  0
LINE
  5
1F9
100
AcDbEntity
  8
0
  6
CONTINUOUS
 62
           3
100
AcDbLine
 10
3355.89999806272
 20
1548.300001770266
 11
3355.89999806272
 21
1532.000001519879
  0
LINE
  5
1F8
100
AcDbEntity
  8
0
  6
CONTINUOUS
 62
           3
100
AcDbLine
 10
3475.899995380622
 20
1548.300001770266
 11
3475.899995380622
 21
1532.000001519879
  0
LINE
  5
1F7
100
AcDbEntity
  8
0
  6
CONTINUOUS
 62
           3
100
AcDbLine
 10
3473.899995052623
 20
1532.000001519879
 11
3475.899995380622
 21
1532.000001519879
  0
LINE
  5
1F6
100
AcDbEntity
  8
0
  6
CONTINUOUS
 62
           3
100
AcDbLine
 10
3474.199996405621
 20
1529.999999329481
 11
3473.899995052623
 21
1529.999999329481
  0
LINE
  5
1F5
100
AcDbEntity
  8
0
  6
CONTINUOUS
 62
           3
100
AcDbLine
 10
3473.899995052623
 20
1509.999999776396
 11
3474.199996405621
 21
1509.999999776396
  0
LINE
  5
1F4
100
AcDbEntity
  8
0
  6
CONTINUOUS
 62
           3
100
AcDbLine
 10
3475.899995380622
 20
1508.000000379901
 11
3473.899995052623
 21
1508.000000379901
  0
LINE
  5
1F3
100
AcDbEntity
  8
0
  6
CONTINUOUS
 62
           3
100
AcDbLine
 10
3475.899995380622
 20
1508.000000379901
 11
3475.899995380622
 21
1431.99999630456
  0
LINE
  5
1F2
100
AcDbEntity
  8
0
  6
CONTINUOUS
 62
           3
100
AcDbLine
 10
3475.899995380622
 20
1431.99999630456
 11
3473.899995052623
 21
1431.99999630456
  0
LINE
  5
1F1
100
AcDbEntity
  8
0
  6
CONTINUOUS
 62
           3
100
AcDbLine
 10
3473.899995052623
 20
1429.999999701963
 11
3474.199996405621
 21
1429.999999701963
  0
LINE
  5
1F0
100
AcDbEntity
  8
0
  6
CONTINUOUS
 62
           3
100
AcDbLine
 10
3474.199996405621
 20
1409.99999642378
 11
3473.899995052623
 21
1409.99999642378
  0
LINE
  5
1EF
100
AcDbEntity
  8
0
  6
CONTINUOUS
 62
           3
100
AcDbLine
 10
3473.899995052623
 20
1407.999999821183
 11
3475.899995380622
 21
1407.999999821183
  0
LINE
  5
1EE
100
AcDbEntity
  8
0
  6
CONTINUOUS
 62
           3
100
AcDbLine
 10
3475.899995380622
 20
1391.699999570793
 11
3475.899995380622
 21
1407.999999821183
  0
LINE
  5
1ED
100
AcDbEntity
  8
0
  6
CONTINUOUS
 62
           3
100
AcDbLine
 10
3355.89999806272
 20
1391.699999570793
 11
3355.89999806272
 21
1407.999999821183
  0
LINE
  5
1EC
100
AcDbEntity
  8
0
  6
CONTINUOUS
 62
           3
100
AcDbLine
 10
3357.89999839072
 20
1407.999999821183
 11
3355.89999806272
 21
1407.999999821183
  0
LINE
  5
1EB
100
AcDbEntity
  8
0
  6
CONTINUOUS
 62
           3
100
AcDbLine
 10
3357.59999703772
 20
1409.99999642378
 11
3357.89999839072
 21
1409.99999642378
  0
LINE
  5
1EA
100
AcDbEntity
  8
0
  6
CONTINUOUS
 62
           3
100
AcDbLine
 10
3357.89999839072
 20
1429.999999701963
 11
3357.59999703772
 21
1429.999999701963
  0
LINE
  5
1E9
100
AcDbEntity
  8
0
  6
CONTINUOUS
 62
           3
100
AcDbLine
 10
3355.89999806272
 20
1431.99999630456
 11
3357.89999839072
 21
1431.99999630456
  0
LINE
  5
1E8
100
AcDbEntity
  8
0
  6
CONTINUOUS
 62
           3
100
AcDbLine
 10
3355.89999806272
 20
1508.000000379901
 11
3355.89999806272
 21
1431.99999630456
  0
LINE
  5
1E7
100
AcDbEntity
  8
0
  6
CONTINUOUS
 62
           3
100
AcDbLine
 10
3355.89999806272
 20
1508.000000379901
 11
3357.89999839072
 21
1508.000000379901
  0
LINE
  5
1E6
100
AcDbEntity
  8
0
  6
CONTINUOUS
 62
           3
100
AcDbLine
 10
3357.89999839072
 20
1509.999999776396
 11
3357.59999703772
 21
1509.999999776396
  0
LINE
  5
1E5
100
AcDbEntity
  8
0
  6
CONTINUOUS
 62
           3
100
AcDbLine
 10
3357.59999703772
 20
1529.999999329481
 11
3357.89999839072
 21
1529.999999329481
  0
LINE
  5
1E4
100
AcDbEntity
  8
0
  6
CONTINUOUS
 62
           3
100
AcDbLine
 10
3355.89999806272
 20
1429.999999701963
 11
3355.89999806272
 21
1409.99999642378
  0
LINE
  5
1E3
100
AcDbEntity
  8
0
  6
CONTINUOUS
 62
           3
100
AcDbLine
 10
3357.59999703772
 20
1429.999999701963
 11
3355.89999806272
 21
1429.999999701963
  0
LINE
  5
1E2
100
AcDbEntity
  8
0
  6
CONTINUOUS
 62
           3
100
AcDbLine
 10
3355.97518932232
 20
1409.99999642378
 11
3357.59999703772
 21
1409.99999642378
  0
LINE
  5
1E1
100
AcDbEntity
  8
0
  6
CONTINUOUS
 62
           3
100
AcDbLine
 10
3357.59999703772
 20
1509.999999776396
 11
3355.97518932232
 21
1509.999999776396
  0
LINE
  5
1E0
100
AcDbEntity
  8
0
  6
CONTINUOUS
 62
           3
100
AcDbLine
 10
3355.89999806272
 20
1509.999999776396
 11
3355.89999806272
 21
1529.999999329481
  0
LINE
  5
1DF
100
AcDbEntity
  8
0
  6
CONTINUOUS
 62
           3
100
AcDbLine
 10
3355.89999806272
 20
1529.999999329481
 11
3357.59999703772
 21
1529.999999329481
  0
LINE
  5
1DE
100
AcDbEntity
  8
0
  6
CONTINUOUS
 62
           3
100
AcDbLine
 10
3475.899995380622
 20
1429.999999701963
 11
3475.899995380622
 21
1409.99999642378
  0
LINE
  5
1DD
100
AcDbEntity
  8
0
  6
CONTINUOUS
 62
           3
100
AcDbLine
 10
3474.199996405621
 20
1429.999999701963
 11
3475.899995380622
 21
1429.999999701963
  0
LINE
  5
1DC
100
AcDbEntity
  8
0
  6
CONTINUOUS
 62
           3
100
AcDbLine
 10
3475.824804121023
 20
1409.99999642378
 11
3474.199996405621
 21
1409.99999642378
  0
LINE
  5
1DB
100
AcDbEntity
  8
0
  6
CONTINUOUS
 62
           3
100
AcDbLine
 10
3362.899997347713
 20
1364.999994635816
 11
3362.899997347713
 21
1366.600006818714
  0
LINE
  5
1DA
100
AcDbEntity
  8
0
  6
CONTINUOUS
 62
           3
100
AcDbLine
 10
3360.899997019717
 20
1364.999994635816
 11
3362.899997347713
 21
1364.999994635816
  0
LINE
  5
1D9
100
AcDbEntity
  8
0
  6
CONTINUOUS
 62
           3
100
AcDbLine
 10
3362.899997347713
 20
1366.600006818714
 11
3360.899997019717
 21
1366.600006818714
  0
LINE
  5
1D8
100
AcDbEntity
  8
0
  6
CONTINUOUS
 62
           3
100
AcDbLine
 10
3360.899997019717
 20
1635.000005364197
 11
3362.899997347713
 21
1635.000005364197
  0
LINE
  5
1D7
100
AcDbEntity
  8
0
  6
CONTINUOUS
 62
           3
100
AcDbLine
 10
3362.899997347713
 20
1635.000005364197
 11
3362.899997347713
 21
1633.399993180997
  0
LINE
  5
1D6
100
AcDbEntity
  8
0
  6
CONTINUOUS
 62
           3
100
AcDbLine
 10
3362.899997347713
 20
1633.399993180997
 11
3360.899997019717
 21
1633.399993180997
  0
LINE
  5
1D5
100
AcDbEntity
  8
0
  6
CONTINUOUS
 62
           3
100
AcDbLine
 10
3368.89999833111
 20
1633.399993180997
 11
3368.89999833111
 21
1635.000005364197
  0
LINE
  5
1D4
100
AcDbEntity
  8
0
  6
CONTINUOUS
 62
           3
100
AcDbLine
 10
3368.89999833111
 20
1635.000005364197
 11
3370.899994933709
 21
1635.000005364197
  0
LINE
  5
1D3
100
AcDbEntity
  8
0
  6
CONTINUOUS
 62
           3
100
AcDbLine
 10
3370.899994933709
 20
1633.399993180997
 11
3368.89999833111
 21
1633.399993180997
  0
LINE
  5
1D2
100
AcDbEntity
  8
0
  6
CONTINUOUS
 62
           3
100
AcDbLine
 10
3368.89999833111
 20
1364.999994635816
 11
3370.899994933709
 21
1364.999994635816
  0
LINE
  5
1D1
100
AcDbEntity
  8
0
  6
CONTINUOUS
 62
           3
100
AcDbLine
 10
3368.89999833111
 20
1366.600006818714
 11
3368.89999833111
 21
1364.999994635816
  0
LINE
  5
1D0
100
AcDbEntity
  8
0
  6
CONTINUOUS
 62
           3
100
AcDbLine
 10
3370.899994933709
 20
1366.600006818714
 11
3368.89999833111
 21
1366.600006818714
  0
LINE
  5
1CF
100
AcDbEntity
  8
0
  6
CONTINUOUS
 62
           3
100
AcDbLine
 10
3370.899994933709
 20
1364.999994635816
 11
3460.899998509633
 21
1364.999994635816
  0
LINE
  5
1CE
100
AcDbEntity
  8
0
  6
CONTINUOUS
 62
           3
100
AcDbLine
 10
3370.899994933709
 20
1366.600006818714
 11
3460.899998509633
 21
1366.600006818714
  0
LINE
  5
1CD
100
AcDbEntity
  8
0
  6
CONTINUOUS
 62
           3
100
AcDbLine
 10
3370.899994933709
 20
1635.000005364197
 11
3460.899998509633
 21
1635.000005364197
  0
LINE
  5
1CC
100
AcDbEntity
  8
0
  6
CONTINUOUS
 62
           3
100
AcDbLine
 10
3370.899994933709
 20
1633.399993180997
 11
3460.899998509633
 21
1633.399993180997
  0
LINE
  5
1CB
100
AcDbEntity
  8
0
  6
CONTINUOUS
 62
           3
100
AcDbLine
 10
3355.89999806272
 20
1366.600006818714
 11
3355.89999806272
 21
1364.999994635816
  0
LINE
  5
1CA
100
AcDbEntity
  8
0
  6
CONTINUOUS
 62
           3
100
AcDbLine
 10
3355.89999806272
 20
1364.999994635816
 11
3360.899997019717
 21
1364.999994635816
  0
LINE
  5
1C9
100
AcDbEntity
  8
0
  6
CONTINUOUS
 62
           3
100
AcDbLine
 10
3360.899997019717
 20
1366.600006818714
 11
3355.89999806272
 21
1366.600006818714
  0
LINE
  5
1C8
100
AcDbEntity
  8
0
  6
CONTINUOUS
 62
           3
100
AcDbLine
 10
3355.89999806272
 20
1633.399993180997
 11
3355.89999806272
 21
1635.000005364197
  0
LINE
  5
1C7
100
AcDbEntity
  8
0
  6
CONTINUOUS
 62
           3
100
AcDbLine
 10
3355.89999806272
 20
1635.000005364197
 11
3360.899997019717
 21
1635.000005364197
  0
LINE
  5
1C6
100
AcDbEntity
  8
0
  6
CONTINUOUS
 62
           3
100
AcDbLine
 10
3360.899997019717
 20
1633.399993180997
 11
3355.89999806272
 21
1633.399993180997
  0
LINE
  5
1C5
100
AcDbEntity
  8
0
  6
CONTINUOUS
 62
           3
100
AcDbLine
 10
3468.899996095926
 20
1635.000005364197
 11
3468.899996095926
 21
1633.399993180997
  0
LINE
  5
1C4
100
AcDbEntity
  8
0
  6
CONTINUOUS
 62
           3
100
AcDbLine
 10
3470.899996423626
 20
1635.000005364197
 11
3468.899996095926
 21
1635.000005364197
  0
LINE
  5
1C3
100
AcDbEntity
  8
0
  6
CONTINUOUS
 62
           3
100
AcDbLine
 10
3468.899996095926
 20
1633.399993180997
 11
3470.899996423626
 21
1633.399993180997
  0
LINE
  5
1C2
100
AcDbEntity
  8
0
  6
CONTINUOUS
 62
           3
100
AcDbLine
 10
3468.899996095926
 20
1364.999994635816
 11
3468.899996095926
 21
1366.600006818714
  0
LINE
  5
1C1
100
AcDbEntity
  8
0
  6
CONTINUOUS
 62
           3
100
AcDbLine
 10
3470.899996423626
 20
1364.999994635816
 11
3468.899996095926
 21
1364.999994635816
  0
LINE
  5
1C0
100
AcDbEntity
  8
0
  6
CONTINUOUS
 62
           3
100
AcDbLine
 10
3468.899996095926
 20
1366.600006818714
 11
3470.899996423626
 21
1366.600006818714
  0
LINE
  5
1BF
100
AcDbEntity
  8
0
  6
CONTINUOUS
 62
           3
100
AcDbLine
 10
3462.899995112231
 20
1633.399993180997
 11
3462.899995112231
 21
1635.000005364197
  0
LINE
  5
1BE
100
AcDbEntity
  8
0
  6
CONTINUOUS
 62
           3
100
AcDbLine
 10
3462.899995112231
 20
1635.000005364197
 11
3460.899998509633
 21
1635.000005364197
  0
LINE
  5
1BD
100
AcDbEntity
  8
0
  6
CONTINUOUS
 62
           3
100
AcDbLine
 10
3460.899998509633
 20
1633.399993180997
 11
3462.899995112231
 21
1633.399993180997
  0
LINE
  5
1BC
100
AcDbEntity
  8
0
  6
CONTINUOUS
 62
           3
100
AcDbLine
 10
3462.899995112231
 20
1366.600006818714
 11
3462.899995112231
 21
1364.999994635816
  0
LINE
  5
1BB
100
AcDbEntity
  8
0
  6
CONTINUOUS
 62
           3
100
AcDbLine
 10
3462.899995112231
 20
1364.999994635816
 11
3460.899998509633
 21
1364.999994635816
  0
LINE
  5
1BA
100
AcDbEntity
  8
0
  6
CONTINUOUS
 62
           3
100
AcDbLine
 10
3460.899998509633
 20
1366.600006818714
 11
3462.899995112231
 21
1366.600006818714
  0
LINE
  5
1B9
100
AcDbEntity
  8
0
  6
CONTINUOUS
 62
           3
100
AcDbLine
 10
3475.899995380622
 20
1366.600006818714
 11
3475.899995380622
 21
1364.999994635816
  0
LINE
  5
1B8
100
AcDbEntity
  8
0
  6
CONTINUOUS
 62
           3
100
AcDbLine
 10
3475.899995380622
 20
1364.999994635816
 11
3470.899996423626
 21
1364.999994635816
  0
LINE
  5
1B7
100
AcDbEntity
  8
0
  6
CONTINUOUS
 62
           3
100
AcDbLine
 10
3470.899996423626
 20
1366.600006818714
 11
3475.899995380622
 21
1366.600006818714
  0
LINE
  5
1B6
100
AcDbEntity
  8
0
  6
CONTINUOUS
 62
           3
100
AcDbLine
 10
3475.899995380622
 20
1633.399993180997
 11
3475.899995380622
 21
1635.000005364197
  0
LINE
  5
1B5
100
AcDbEntity
  8
0
  6
CONTINUOUS
 62
           3
100
AcDbLine
 10
3475.899995380622
 20
1635.000005364197
 11
3470.899996423626
 21
1635.000005364197
  0
LINE
  5
1B4
100
AcDbEntity
  8
0
  6
CONTINUOUS
 62
           3
100
AcDbLine
 10
3470.899996423626
 20
1633.399993180997
 11
3475.899995380622
 21
1633.399993180997
  0
LINE
  5
1B3
100
AcDbEntity
  8
0
  6
CONTINUOUS
 62
           3
100
AcDbLine
 10
3475.899995380622
 20
1633.399993180997
 11
3475.899995380622
 21
1632.699996232995
  0
LINE
  5
1B2
100
AcDbEntity
  8
0
  6
CONTINUOUS
 62
           3
100
AcDbLine
 10
3355.89999806272
 20
1633.399993180997
 11
3355.89999806272
 21
1632.699996232995
  0
LINE
  5
1B1
100
AcDbEntity
  8
0
  6
CONTINUOUS
 62
           3
100
AcDbLine
 10
3475.899995380622
 20
1366.600006818714
 11
3475.899995380622
 21
1367.300003767015
  0
LINE
  5
1B0
100
AcDbEntity
  8
0
  6
CONTINUOUS
 62
           3
100
AcDbLine
 10
3355.89999806272
 20
1366.600006818714
 11
3355.89999806272
 21
1367.300003767015
  0
LINE
  5
1AF
100
AcDbEntity
  8
0
  6
CONTINUOUS
 62
           3
100
AcDbLine
 10
3335.499999189236
 20
1364.999994635816
 11
3333.39999344334
 21
1364.999994635816
  0
LINE
  5
1AE
100
AcDbEntity
  8
0
  6
CONTINUOUS
 62
           3
100
AcDbLine
 10
3333.39999344334
 20
1635.000005364197
 11
3333.39999344334
 21
1364.999994635816
  0
LINE
  5
1AD
100
AcDbEntity
  8
0
  6
CONTINUOUS
 62
           3
100
AcDbLine
 10
3335.499999189236
 20
1635.000005364197
 11
3333.39999344334
 21
1635.000005364197
  0
LINE
  5
1AC
100
AcDbEntity
  8
0
  6
CONTINUOUS
 62
           3
100
AcDbLine
 10
3477.399998420218
 20
1490.000000223613
 11
3475.899995380622
 21
1490.000000223613
  0
LINE
  5
1AB
100
AcDbEntity
  8
0
  6
CONTINUOUS
 62
           3
100
AcDbLine
 10
3474.399996066122
 20
1431.99999630456
 11
3474.399996066122
 21
1429.999999701963
  0
LINE
  5
1AA
100
AcDbEntity
  8
0
  6
CONTINUOUS
 62
           3
100
AcDbLine
 10
3475.824804121023
 20
1409.99999642378
 11
3477.399998420218
 21
1409.99999642378
  0
LINE
  5
1A9
100
AcDbEntity
  8
0
  6
CONTINUOUS
 62
           3
100
AcDbLine
 10
3477.399998420218
 20
1409.99999642378
 11
3477.399998420218
 21
1490.000000223613
  0
LINE
  5
1A8
100
AcDbEntity
  8
0
  6
CONTINUOUS
 62
           3
100
AcDbLine
 10
3474.399996066122
 20
1590.000003576232
 11
3477.399998420218
 21
1590.000003576232
  0
LINE
  5
1A7
100
AcDbEntity
  8
0
  6
CONTINUOUS
 62
           3
100
AcDbLine
 10
3474.399996066122
 20
1529.999999329481
 11
3474.399996066122
 21
1532.000001519879
  0
LINE
  5
1A6
100
AcDbEntity
  8
0
  6
CONTINUOUS
 62
           3
100
AcDbLine
 10
3474.399996066122
 20
1550.000000744964
 11
3474.399996066122
 21
1590.000003576232
  0
LINE
  5
1A5
100
AcDbEntity
  8
0
  6
CONTINUOUS
 62
           3
100
AcDbLine
 10
3477.399998420218
 20
1509.999999776396
 11
3475.824804121023
 21
1509.999999776396
  0
LINE
  5
1A4
100
AcDbEntity
  8
0
  6
CONTINUOUS
 62
           3
100
AcDbLine
 10
3477.399998420218
 20
1590.000003576232
 11
3477.399998420218
 21
1509.999999776396
  0
LINE
  5
1A3
100
AcDbEntity
  8
0
  6
CONTINUOUS
 62
           3
100
AcDbLine
 10
3355.97518932232
 20
1409.99999642378
 11
3354.399995023119
 21
1409.99999642378
  0
LINE
  5
1A2
100
AcDbEntity
  8
0
  6
CONTINUOUS
 62
           3
100
AcDbLine
 10
3357.399997377517
 20
1431.99999630456
 11
3357.399997377517
 21
1429.999999701963
  0
LINE
  5
1A1
100
AcDbEntity
  8
0
  6
CONTINUOUS
 62
           3
100
AcDbLine
 10
3354.399995023119
 20
1490.000000223613
 11
3355.89999806272
 21
1490.000000223613
  0
LINE
  5
1A0
100
AcDbEntity
  8
0
  6
CONTINUOUS
 62
           3
100
AcDbLine
 10
3354.399995023119
 20
1409.99999642378
 11
3354.399995023119
 21
1490.000000223613
  0
LINE
  5
19F
100
AcDbEntity
  8
0
  6
CONTINUOUS
 62
           3
100
AcDbLine
 10
3355.89999806272
 20
1368.000000715315
 11
3355.89999806272
 21
1367.300003767015
  0
LINE
  5
19E
100
AcDbEntity
  8
0
  6
CONTINUOUS
 62
           3
100
AcDbLine
 10
3350.899999106025
 20
1364.999994635816
 11
3350.899999106025
 21
1368.000000715315
  0
LINE
  5
19D
100
AcDbEntity
  8
0
  6
CONTINUOUS
 62
           3
100
AcDbLine
 10
3350.899999106025
 20
1635.000005364197
 11
3335.499999189236
 21
1635.000005364197
  0
LINE
  5
19C
100
AcDbEntity
  8
0
  6
CONTINUOUS
 62
           3
100
AcDbLine
 10
3350.899999106025
 20
1635.000005364197
 11
3350.899999106025
 21
1631.999999284698
  0
LINE
  5
19B
100
AcDbEntity
  8
0
  6
CONTINUOUS
 62
           3
100
AcDbLine
 10
3355.89999806272
 20
1631.999999284698
 11
3355.89999806272
 21
1632.699996232995
  0
LINE
  5
19A
100
AcDbEntity
  8
0
  6
CONTINUOUS
 62
           3
100
AcDbLine
 10
3475.899995380622
 20
1631.999999284698
 11
3475.899995380622
 21
1632.699996232995
  0
LINE
  5
199
100
AcDbEntity
  8
0
  6
CONTINUOUS
 62
           3
100
AcDbLine
 10
3480.899994337317
 20
1635.000005364197
 11
3480.899994337317
 21
1631.999999284698
  0
LINE
  5
198
100
AcDbEntity
  8
0
  6
CONTINUOUS
 62
           3
100
AcDbLine
 10
3480.899994337317
 20
1364.999994635816
 11
3480.899994337317
 21
1368.000000715315
  0
LINE
  5
197
100
AcDbEntity
  8
0
  6
CONTINUOUS
 62
           3
100
AcDbLine
 10
3475.899995380622
 20
1368.000000715315
 11
3475.899995380622
 21
1367.300003767015
  0
LINE
  5
196
100
AcDbEntity
  8
0
  6
CONTINUOUS
 62
           3
100
AcDbLine
 10
3354.399995023119
 20
1509.999999776396
 11
3355.97518932232
 21
1509.999999776396
  0
LINE
  5
195
100
AcDbEntity
  8
0
  6
CONTINUOUS
 62
           3
100
AcDbLine
 10
3357.399997377517
 20
1529.999999329481
 11
3357.399997377517
 21
1532.000001519879
  0
LINE
  5
194
100
AcDbEntity
  8
0
  6
CONTINUOUS
 62
           3
100
AcDbLine
 10
3357.399997377517
 20
1550.000000744964
 11
3357.399997377517
 21
1590.000003576232
  0
LINE
  5
193
100
AcDbEntity
  8
0
  6
CONTINUOUS
 62
           3
100
AcDbLine
 10
3357.399997377517
 20
1590.000003576232
 11
3354.399995023119
 21
1590.000003576232
  0
LINE
  5
192
100
AcDbEntity
  8
0
  6
CONTINUOUS
 62
           3
100
AcDbLine
 10
3354.399995023119
 20
1590.000003576232
 11
3354.399995023119
 21
1509.999999776396
  0
LINE
  5
191
100
AcDbEntity
  8
0
  6
CONTINUOUS
 62
           3
100
AcDbLine
 10
3350.899999106025
 20
1364.999994635816
 11
3335.499999189236
 21
1364.999994635816
  0
LINE
  5
190
100
AcDbEntity
  8
FORMAT
  6
DOT_CENTER
 62
           3
100
AcDbLine
 10
3340.999996721634
 20
1625.000000000001
 11
3327.399996721742
 21
1625.000000000001
  0
LINE
  5
18F
100
AcDbEntity
  8
FORMAT
  6
DOT_CENTER
 62
           3
100
AcDbLine
 10
3340.999996721634
 20
1375.000000000008
 11
3327.399996721742
 21
1375.000000000008
  0
LINE
  5
18E
100
AcDbEntity
  8
FORMAT
  6
CONTINUOUS
 62
           3
100
AcDbLine
 10
3429.899996721761
 20
1392.596845102894
 11
3419.399996721766
 21
1392.596845102894
  0
LINE
  5
18D
100
AcDbEntity
  8
FORMAT
  6
CONTINUOUS
 62
           3
100
AcDbLine
 10
3419.399996721766
 20
1392.596845102894
 11
3412.399996721573
 21
1392.596845102894
  0
LINE
  5
18C
100
AcDbEntity
  8
FORMAT
  6
DOT_CENTER
 62
           3
100
AcDbLine
 10
3415.899996721671
 20
1249.759397252256
 11
3415.899996721671
 21
1725.39439076857
  0
LINE
  5
18B
100
AcDbEntity
  8
FORMAT
  6
CONTINUOUS
 62
           3
100
AcDbLine
 10
3412.399996721573
 20
1392.596845102894
 11
3401.899996721581
 21
1392.596845102894
  0
LINE
  5
18A
100
AcDbEntity
  8
0
  6
CONTINUOUS
 62
           3
100
AcDbLine
 10
3415.899996721671
 20
1393.131740391394
 11
3416.955269949171
 21
1393.116392195193
  0
LINE
  5
189
100
AcDbEntity
  8
0
  6
CONTINUOUS
 62
           3
100
AcDbLine
 10
3416.955269949171
 20
1393.116392195193
 11
3417.89618794007
 21
1393.072016537194
  0
LINE
  5
188
100
AcDbEntity
  8
0
  6
CONTINUOUS
 62
           3
100
AcDbLine
 10
3417.89618794007
 20
1393.072016537194
 11
3418.62078786977
 21
1393.003411590992
  0
LINE
  5
187
100
AcDbEntity
  8
0
  6
CONTINUOUS
 62
           3
100
AcDbLine
 10
3418.62078786977
 20
1393.003411590992
 11
3419.050547602968
 21
1392.918020486793
  0
LINE
  5
186
100
AcDbEntity
  8
0
  6
CONTINUOUS
 62
           3
100
AcDbLine
 10
3419.050547602968
 20
1392.918020486793
 11
3419.138896354967
 21
1392.825089394993
  0
LINE
  5
185
100
AcDbEntity
  8
0
  6
CONTINUOUS
 62
           3
100
AcDbLine
 10
3419.138896354967
 20
1392.825089394993
 11
3418.899996747769
 21
1392.739541828793
  0
LINE
  5
184
100
AcDbEntity
  8
0
  6
CONTINUOUS
 62
           3
100
AcDbLine
 10
3412.899996695574
 20
1392.739541828793
 11
3412.661097088372
 21
1392.825089394993
  0
LINE
  5
183
100
AcDbEntity
  8
0
  6
CONTINUOUS
 62
           3
100
AcDbLine
 10
3412.661097088372
 20
1392.825089394993
 11
3412.749445840374
 21
1392.918020486793
  0
LINE
  5
182
100
AcDbEntity
  8
0
  6
CONTINUOUS
 62
           3
100
AcDbLine
 10
3412.749445840374
 20
1392.918020486793
 11
3413.179205573573
 21
1393.003411590992
  0
LINE
  5
181
100
AcDbEntity
  8
0
  6
CONTINUOUS
 62
           3
100
AcDbLine
 10
3413.179205573573
 20
1393.003411590992
 11
3413.903805503273
 21
1393.072016537194
  0
LINE
  5
180
100
AcDbEntity
  8
0
  6
CONTINUOUS
 62
           3
100
AcDbLine
 10
3413.903805503273
 20
1393.072016537194
 11
3414.844723494171
 21
1393.116392195193
  0
LINE
  5
17F
100
AcDbEntity
  8
0
  6
CONTINUOUS
 62
           3
100
AcDbLine
 10
3414.844723494171
 20
1393.116392195193
 11
3415.899996721671
 21
1393.131740391394
  0
LINE
  5
17E
100
AcDbEntity
  8
1
  6
CONTINUOUS
 62
           3
100
AcDbLine
 10
3920.163567691039
 20
1919.128165004935
 11
3915.254330418629
 21
1919.128165004935
  0
LINE
  5
17D
100
AcDbEntity
  8
1
  6
DOT_CENTER
 62
           3
100
AcDbLine
 10
3920.163567691039
 20
1938.643555804875
 11
3920.163567691039
 21
1907.508008255126
  0
LINE
  5
17C
100
AcDbEntity
  8
1
  6
CONTINUOUS
 62
           3
100
AcDbLine
 10
3915.254330418629
 20
1930.87183499507
 11
3920.163567691039
 21
1930.87183499507
  0
LINE
  5
17B
100
AcDbEntity
  8
1
  6
CONTINUOUS
 62
           3
100
AcDbLine
 10
3915.254330418629
 20
1932.693746580041
 11
3909.389214871942
 21
1932.693746580041
  0
LINE
  5
17A
100
AcDbEntity
  8
1
  6
CONTINUOUS
 62
           3
100
AcDbLine
 10
3915.254330418629
 20
1917.306253419961
 11
3909.389214871942
 21
1917.306253419961
  0
LINE
  5
179
100
AcDbEntity
  8
1
  6
CONTINUOUS
 62
           3
100
AcDbLine
 10
3915.254330418629
 20
1917.306253419961
 11
3915.254330418629
 21
1932.693746580041
  0
LINE
  5
178
100
AcDbEntity
  8
1
  6
CONTINUOUS
 62
           3
100
AcDbLine
 10
3909.389214871942
 20
1917.306253419961
 11
3909.389214871942
 21
1932.693746580041
  0
LINE
  5
177
100
AcDbEntity
  8
1
  6
CONTINUOUS
 62
           3
100
AcDbLine
 10
3909.389214871942
 20
1932.693746580041
 11
3909.389214871942
 21
1933.250000000001
  0
LINE
  5
176
100
AcDbEntity
  8
1
  6
CONTINUOUS
 62
           3
100
AcDbLine
 10
3899.714603906645
 20
1925.000000000001
 11
3899.714603906645
 21
1933.250000000001
  0
LINE
  5
175
100
AcDbEntity
  8
1
  6
CONTINUOUS
 62
           3
100
AcDbLine
 10
3899.714603906645
 20
1933.250000000001
 11
3909.389214871942
 21
1933.250000000001
  0
LINE
  5
174
100
AcDbEntity
  8
1
  6
CONTINUOUS
 62
           3
100
AcDbLine
 10
3898.868798384465
 20
1931.000000000001
 11
3899.714603906645
 21
1931.000000000001
  0
LINE
  5
173
100
AcDbEntity
  8
1
  6
CONTINUOUS
 62
           3
100
AcDbLine
 10
3898.868798384465
 20
1925.000000000001
 11
3898.868798384465
 21
1932.693746580041
  0
LINE
  5
172
100
AcDbEntity
  8
1
  6
CONTINUOUS
 62
           3
100
AcDbLine
 10
3898.163567691039
 20
1932.693746580041
 11
3898.868798384465
 21
1932.693746580041
  0
LINE
  5
171
100
AcDbEntity
  8
1
  6
CONTINUOUS
 62
           3
100
AcDbLine
 10
3897.663567691039
 20
1932.193746580041
 11
3897.663567691039
 21
1925.000000000001
  0
LINE
  5
170
100
AcDbEntity
  8
1
  6
CONTINUOUS
 62
           3
100
AcDbLine
 10
3897.663567691039
 20
1925.000000000001
 11
3897.663567691039
 21
1917.806253419961
  0
LINE
  5
16F
100
AcDbEntity
  8
1
  6
CONTINUOUS
 62
           3
100
AcDbLine
 10
3898.868798384465
 20
1917.306253419961
 11
3898.163567691039
 21
1917.306253419961
  0
LINE
  5
16E
100
AcDbEntity
  8
1
  6
CONTINUOUS
 62
           3
100
AcDbLine
 10
3898.868798384465
 20
1917.306253419961
 11
3898.868798384465
 21
1925.000000000001
  0
LINE
  5
16D
100
AcDbEntity
  8
1
  6
CONTINUOUS
 62
           3
100
AcDbLine
 10
3899.714603906645
 20
1919.000000000001
 11
3898.868798384465
 21
1919.000000000001
  0
LINE
  5
16C
100
AcDbEntity
  8
1
  6
CONTINUOUS
 62
           3
100
AcDbLine
 10
3899.714603906645
 20
1916.750000000001
 11
3899.714603906645
 21
1925.000000000001
  0
LINE
  5
16B
100
AcDbEntity
  8
1
  6
CONTINUOUS
 62
           3
100
AcDbLine
 10
3909.389214871942
 20
1916.750000000001
 11
3899.714603906645
 21
1916.750000000001
  0
LINE
  5
16A
100
AcDbEntity
  8
1
  6
CONTINUOUS
 62
           3
100
AcDbLine
 10
3909.389214871942
 20
1916.750000000001
 11
3909.389214871942
 21
1917.306253419961
  0
LINE
  5
169
100
AcDbEntity
  8
1
  6
DOT_CENTER
 62
           3
100
AcDbLine
 10
3896.218519558623
 20
1925.000000000001
 11
3937.667695262448
 21
1925.000000000001
  0
LINE
  5
168
100
AcDbEntity
  8
1
  6
CONTINUOUS
 62
           3
100
AcDbLine
 10
3914.489527668228
 20
1917.306253419961
 11
3920.163567691039
 21
1914.030344885398
  0
LINE
  5
167
100
AcDbEntity
  8
1
  6
CONTINUOUS
 62
           3
100
AcDbLine
 10
3920.163567691039
 20
1914.030344885398
 11
3929.663567691039
 21
1919.5151724427
  0
LINE
  5
166
100
AcDbEntity
  8
1
  6
CONTINUOUS
 62
           3
100
AcDbLine
 10
3929.663567691039
 20
1919.5151724427
 11
3929.663567691039
 21
1930.484827557303
  0
LINE
  5
165
100
AcDbEntity
  8
1
  6
CONTINUOUS
 62
           3
100
AcDbLine
 10
3929.663567691039
 20
1930.484827557303
 11
3920.163567691039
 21
1935.969655114604
  0
LINE
  5
164
100
AcDbEntity
  8
1
  6
CONTINUOUS
 62
           3
100
AcDbLine
 10
3920.163567691039
 20
1935.969655114604
 11
3914.489527668228
 21
1932.693746580041
  0
LINE
  5
163
100
AcDbEntity
  8
1
  6
DOT_CENTER
 62
           3
100
AcDbLine
 10
508.472255321878
 20
1340.200848327055
 11
508.472255321878
 21
1250.202277327055
  0
LINE
  5
162
100
AcDbEntity
  8
1
  6
DOT_CENTER
 62
           3
100
AcDbLine
 10
553.472255321878
 20
1295.200848327055
 11
463.474800321874
 21
1295.200848327055
  0
LINE
  5
161
100
AcDbEntity
  8
1
  6
CONTINUOUS
 62
           3
100
AcDbLine
 10
504.936660321884
 20
1323.330711327065
 11
502.548714321874
 21
1296.073587327065
  0
LINE
  5
160
100
AcDbEntity
  8
1
  6
CONTINUOUS
 62
           3
100
AcDbLine
 10
502.548714321874
 20
1294.328109327064
 11
504.936660321884
 21
1267.070985327064
  0
LINE
  5
15F
100
AcDbEntity
  8
1
  6
CONTINUOUS
 62
           3
100
AcDbLine
 10
512.007850321894
 20
1323.330711327065
 11
514.395796321875
 21
1296.073587327065
  0
LINE
  5
15E
100
AcDbEntity
  8
1
  6
CONTINUOUS
 62
           3
100
AcDbLine
 10
514.395796321875
 20
1294.328109327064
 11
512.007850321894
 21
1267.070985327064
  0
LINE
  5
15D
100
AcDbEntity
  8
1
  6
CONTINUOUS
 62
           2
100
AcDbLine
 10
362.336090221744
 20
2537.0
 11
362.336090221744
 21
2177.0
  0
LINE
  5
15C
100
AcDbEntity
  8
1
  6
CONTINUOUS
 62
           2
100
AcDbLine
 10
404.999999999999
 20
2537.0
 11
362.336090221744
 21
2537.0
  0
LINE
  5
15B
100
AcDbEntity
  8
1
  6
CONTINUOUS
 62
           2
100
AcDbLine
 10
362.336090221744
 20
2177.0
 11
404.999999999999
 21
2177.0
  0
LINE
  5
15A
100
AcDbEntity
  8
1
  6
CONTINUOUS
 62
           2
100
AcDbLine
 10
-528.316278697896
 20
2537.0
 11
-528.316278697896
 21
2177.0
  0
LINE
  5
159
100
AcDbEntity
  8
1
  6
CONTINUOUS
 62
           2
100
AcDbLine
 10
-232.33363766124
 20
2537.0
 11
-528.316278697896
 21
2537.0
  0
LINE
  5
158
100
AcDbEntity
  8
1
  6
CONTINUOUS
 62
           2
100
AcDbLine
 10
-232.33363766124
 20
2177.0
 11
-232.33363766124
 21
2537.0
  0
LINE
  5
157
100
AcDbEntity
  8
1
  6
CONTINUOUS
 62
           2
100
AcDbLine
 10
-528.316278697896
 20
2177.0
 11
-232.33363766124
 21
2177.0
  0
LINE
  5
156
100
AcDbEntity
  8
1
  6
CONTINUOUS
 62
           4
100
AcDbLine
 10
-209.999999999999
 20
2589.500000000001
 11
-209.999999999999
 21
2588.5
  0
LINE
  5
155
100
AcDbEntity
  8
1
  6
CONTINUOUS
 62
           4
100
AcDbLine
 10
-204.993063735605
 20
2594.500000000002
 11
-209.999999999999
 21
2589.500000000001
  0
LINE
  5
154
100
AcDbEntity
  8
1
  6
CONTINUOUS
 62
           4
100
AcDbLine
 10
210.000000000001
 20
2589.500000000001
 11
205.000000000001
 21
2594.500000000002
  0
LINE
  5
153
100
AcDbEntity
  8
1
  6
CONTINUOUS
 62
           4
100
AcDbLine
 10
205.000000000001
 20
2594.500000000002
 11
-204.993063735605
 21
2594.500000000002
  0
LINE
  5
152
100
AcDbEntity
  8
1
  6
DOT_CENTER
 62
           2
100
AcDbLine
 10
0.000000000001
 20
2944.183879124644
 11
0.000000000001
 21
2049.379684115579
  0
LINE
  5
151
100
AcDbEntity
  8
1
  6
CONTINUOUS
 62
           7
100
AcDbLine
 10
-570.000000000004
 20
2583.5
 11
-570.000000000004
 21
2550.5
  0
LINE
  5
150
100
AcDbEntity
  8
1
  6
CONTINUOUS
 62
           7
100
AcDbLine
 10
-570.000000000004
 20
2583.5
 11
-566.455357142862
 21
2588.5
  0
LINE
  5
14F
100
AcDbEntity
  8
1
  6
CONTINUOUS
 62
           7
100
AcDbLine
 10
-570.000000000004
 20
2165.500000000001
 11
-569.999999999999
 21
2150.0
  0
LINE
  5
14E
100
AcDbEntity
  8
1
  6
CONTINUOUS
 62
           7
100
AcDbLine
 10
410.992065668631
 20
2588.5
 11
-566.455357142862
 21
2588.5
  0
LINE
  5
14D
100
AcDbEntity
  8
1
  6
CONTINUOUS
 62
           7
100
AcDbLine
 10
410.992065668632
 20
2550.5
 11
410.992065668631
 21
2588.5
  0
LINE
  5
14C
100
AcDbEntity
  8
1
  6
CONTINUOUS
 62
           7
100
AcDbLine
 10
415.0
 20
2550.5
 11
-579.999999999989
 21
2550.500000000001
  0
LINE
  5
14B
100
AcDbEntity
  8
1
  6
CONTINUOUS
 62
           4
100
AcDbLine
 10
210.000000000001
 20
2588.5
 11
210.000000000001
 21
2589.500000000001
  0
LINE
  5
14A
100
AcDbEntity
  8
1
  6
DOT_CENTER
 62
           2
100
AcDbLine
 10
473.997537221203
 20
2358.0
 11
-664.640400689392
 21
2358.0
  0
LINE
  5
149
100
AcDbEntity
  8
7
  6
CONTINUOUS
 62
           7
100
AcDbLine
 10
0.000000000001
 20
2825.0
 11
-114.999999999999
 21
2825.0
  0
LINE
  5
148
100
AcDbEntity
  8
7
  6
CONTINUOUS
 62
           7
100
AcDbLine
 10
-88.652847999999
 20
2907.402829999999
 11
-109.147842999999
 21
2892.329780999999
  0
LINE
  5
147
100
AcDbEntity
  8
7
  6
CONTINUOUS
 62
           7
100
AcDbLine
 10
0.000000000001
 20
2912.0
 11
-84.599999999999
 21
2912.0
  0
LINE
  5
146
100
AcDbEntity
  8
7
  6
CONTINUOUS
 62
           7
100
AcDbLine
 10
-114.999999999999
 20
2825.0
 11
-114.999999999999
 21
2852.537538373368
  0
LINE
  5
145
100
AcDbEntity
  8
7
  6
CONTINUOUS
 62
           7
100
AcDbLine
 10
115.000000000001
 20
2825.0
 11
0.000000000001
 21
2825.0
  0
LINE
  5
144
100
AcDbEntity
  8
7
  6
CONTINUOUS
 62
           7
100
AcDbLine
 10
112.000000000001
 20
2887.299999999998
 11
115.000000000001
 21
2852.537538373368
  0
LINE
  5
143
100
AcDbEntity
  8
7
  6
CONTINUOUS
 62
           4
100
AcDbLine
 10
-110.992022999999
 20
2890.5
 11
108.800000000001
 21
2890.5
  0
LINE
  5
142
100
AcDbEntity
  8
7
  6
CONTINUOUS
 62
           7
100
AcDbLine
 10
86.152847000001
 20
2907.402829999999
 11
106.776034000001
 21
2890.861695999999
  0
LINE
  5
141
100
AcDbEntity
  8
7
  6
CONTINUOUS
 62
           7
100
AcDbLine
 10
0.000000000001
 20
2912.0
 11
82.100000000001
 21
2912.0
  0
LINE
  5
140
100
AcDbEntity
  8
2
  6
CONTINUOUS
 62
           7
100
AcDbLine
 10
108.613664000001
 20
2623.000000000001
 11
97.568642000001
 21
2596.500000000001
  0
LINE
  5
13F
100
AcDbEntity
  8
2
  6
CONTINUOUS
 62
           7
100
AcDbLine
 10
108.613664000001
 20
2623.000000000001
 11
108.613664000001
 21
2813.5
  0
LINE
  5
13E
100
AcDbEntity
  8
2
  6
CONTINUOUS
 62
           7
100
AcDbLine
 10
108.613664000001
 20
2813.5
 11
103.820541000001
 21
2825.0
  0
LINE
  5
13D
100
AcDbEntity
  8
2
  6
CONTINUOUS
 62
           4
100
AcDbLine
 10
-93.249999999999
 20
2596.500000000001
 11
-93.249999999999
 21
2594.500000000002
  0
LINE
  5
13C
100
AcDbEntity
  8
2
  6
CONTINUOUS
 62
           7
100
AcDbLine
 10
-108.613663999999
 20
2623.000000000001
 11
-108.613663999999
 21
2813.5
  0
LINE
  5
13B
100
AcDbEntity
  8
2
  6
CONTINUOUS
 62
           7
100
AcDbLine
 10
-103.820540999999
 20
2825.0
 11
-108.613663999999
 21
2813.5
  0
LINE
  5
13A
100
AcDbEntity
  8
2
  6
CONTINUOUS
 62
           4
100
AcDbLine
 10
97.568642000001
 20
2596.500000000001
 11
-97.568641999999
 21
2596.500000000001
  0
LINE
  5
139
100
AcDbEntity
  8
2
  6
CONTINUOUS
 62
           7
100
AcDbLine
 10
-97.568641999999
 20
2596.500000000001
 11
-108.613663999999
 21
2623.000000000001
  0
LINE
  5
138
100
AcDbEntity
  8
1
  6
CONTINUOUS
 62
           4
100
AcDbLine
 10
115.000000000001
 20
2852.537538373368
 11
-114.999999999999
 21
2852.537538373368
  0
LINE
  5
137
100
AcDbEntity
  8
7
  6
CONTINUOUS
 62
           7
100
AcDbLine
 10
-114.999999999999
 20
2852.537538373368
 11
-112.0
 21
2887.111356999998
  0
LINE
  5
136
100
AcDbEntity
  8
7
  6
CONTINUOUS
 62
           7
100
AcDbLine
 10
115.000000000001
 20
2852.537538373368
 11
115.000000000001
 21
2825.0
  0
LINE
  5
135
100
AcDbEntity
  8
2
  6
CONTINUOUS
 62
           4
100
AcDbLine
 10
93.250000000001
 20
2594.500000000002
 11
93.250000000001
 21
2596.500000000001
  0
LINE
  5
134
100
AcDbEntity
  8
1
  6
CONTINUOUS
 62
           7
100
AcDbLine
 10
405.0
 20
2165.5
 11
404.999999999999
 21
2550.5
  0
LINE
  5
133
100
AcDbEntity
  8
1
  6
CONTINUOUS
 62
           7
100
AcDbLine
 10
415.0
 20
2165.5
 11
-579.999999999987
 21
2165.500000000001
  0
LINE
  5
132
100
AcDbEntity
  8
1
  6
CONTINUOUS
 62
           7
100
AcDbLine
 10
166.499999999999
 20
2741.300000000002
 11
166.499999999999
 21
2681.300000000003
  0
LINE
  5
131
100
AcDbEntity
  8
1
  6
CONTINUOUS
 62
           7
100
AcDbLine
 10
108.613664000001
 20
2681.300000000003
 11
108.613664000001
 21
2741.300000000002
  0
LINE
  5
130
100
AcDbEntity
  8
1
  6
CONTINUOUS
 62
           7
100
AcDbLine
 10
118.613664000001
 20
2751.300000000002
 11
156.499999999999
 21
2751.300000000002
  0
LINE
  5
12F
100
AcDbEntity
  8
1
  6
CONTINUOUS
 62
           7
100
AcDbLine
 10
156.499999999999
 20
2671.300000000003
 11
118.613664000001
 21
2671.300000000003
  0
LINE
  5
12E
100
AcDbEntity
  8
1
  6
CONTINUOUS
 62
           7
100
AcDbLine
 10
-40.387316823278
 20
2588.5
 11
-40.387316823278
 21
2550.5
  0
LINE
  5
12D
100
AcDbEntity
  8
1
  6
CONTINUOUS
 62
           7
100
AcDbLine
 10
-570.000000000004
 20
2551.300000000001
 11
-570.000000000004
 21
2164.700000000002
  0
LINE
  5
12C
100
AcDbEntity
  8
1
  6
CONTINUOUS
 62
           7
100
AcDbLine
 10
-611.000000000004
 20
2590.5
 11
-611.000000000004
 21
2150.0
  0
LINE
  5
12B
100
AcDbEntity
  8
1
  6
CONTINUOUS
 62
           7
100
AcDbLine
 10
-611.000000000004
 20
2590.5
 11
-577.413444419394
 21
2590.5
  0
LINE
  5
12A
100
AcDbEntity
  8
1
  6
CONTINUOUS
 62
           4
100
AcDbLine
 10
-587.618730888041
 20
2550.5
 11
-611.000000000004
 21
2550.5
  0
LINE
  5
129
100
AcDbEntity
  8
1
  6
CONTINUOUS
 62
           4
100
AcDbLine
 10
-587.618730888041
 20
2555.0
 11
-611.000000000004
 21
2555.0
  0
LINE
  5
128
100
AcDbEntity
  8
1
  6
CONTINUOUS
 62
           4
100
AcDbLine
 10
-587.618730888041
 20
2161.0
 11
-611.000000000004
 21
2161.0
  0
LINE
  5
127
100
AcDbEntity
  8
1
  6
CONTINUOUS
 62
           4
100
AcDbLine
 10
-587.618730888041
 20
2165.5
 11
-611.000000000004
 21
2165.5
  0
LINE
  5
126
100
AcDbEntity
  8
1
  6
CONTINUOUS
 62
           7
100
AcDbLine
 10
-40.387316823278
 20
2165.500000000005
 11
-40.387316823278
 21
2150.0
  0
LINE
  5
125
100
AcDbEntity
  8
1
  6
CONTINUOUS
 62
           7
100
AcDbLine
 10
410.992065668631
 20
2150.0
 11
410.992065668632
 21
2165.5
  0
LINE
  5
124
100
AcDbEntity
  8
1
  6
CONTINUOUS
 62
           7
100
AcDbLine
 10
4448.000000000002
 20
2550.00451815482
 11
4448.000000000002
 21
2165.5
  0
LINE
  5
123
100
AcDbEntity
  8
1
  6
CONTINUOUS
 62
           2
100
AcDbLine
 10
4286.090589533998
 20
2537.0
 11
3881.153949290649
 21
2537.0
  0
LINE
  5
122
100
AcDbEntity
  8
1
  6
CONTINUOUS
 62
           2
100
AcDbLine
 10
4286.090589533998
 20
2176.999999999996
 11
4286.090589533998
 21
2537.0
  0
LINE
  5
121
100
AcDbEntity
  8
1
  6
CONTINUOUS
 62
           2
100
AcDbLine
 10
3881.153949290649
 20
2176.999999999996
 11
4286.090589533998
 21
2176.999999999996
  0
LINE
  5
120
100
AcDbEntity
  8
1
  6
CONTINUOUS
 62
           2
100
AcDbLine
 10
3881.153949290649
 20
2537.0
 11
3881.153949290649
 21
2176.999999999996
  0
LINE
  5
11F
100
AcDbEntity
  8
1
  6
CONTINUOUS
 62
           4
100
AcDbLine
 10
4320.000000000002
 20
2588.00451815482
 11
4320.000000000002
 21
2589.00451815482
  0
LINE
  5
11E
100
AcDbEntity
  8
1
  6
CONTINUOUS
 62
           4
100
AcDbLine
 10
4320.000000000002
 20
2589.00451815482
 11
4314.993063735608
 21
2594.00451815482
  0
LINE
  5
11D
100
AcDbEntity
  8
1
  6
CONTINUOUS
 62
           4
100
AcDbLine
 10
3905.000000000002
 20
2594.00451815482
 11
3900.000000000002
 21
2589.00451815482
  0
LINE
  5
11C
100
AcDbEntity
  8
1
  6
CONTINUOUS
 62
           4
100
AcDbLine
 10
4314.993063735608
 20
2594.00451815482
 11
3905.000000000002
 21
2594.00451815482
  0
LINE
  5
11B
100
AcDbEntity
  8
1
  6
DOT_CENTER
 62
           2
100
AcDbLine
 10
4110.000000000002
 20
2049.379684115578
 11
4110.000000000002
 21
2945.483879124645
  0
LINE
  5
11A
100
AcDbEntity
  8
1
  6
CONTINUOUS
 62
           7
100
AcDbLine
 10
4510.000000000002
 20
2132.500000000003
 11
4506.455357142861
 21
2127.500000000003
  0
LINE
  5
119
100
AcDbEntity
  8
1
  6
CONTINUOUS
 62
           7
100
AcDbLine
 10
4510.000000000002
 20
2549.700000000001
 11
4510.000000000002
 21
2583.00451815482
  0
LINE
  5
118
100
AcDbEntity
  8
1
  6
CONTINUOUS
 62
           7
100
AcDbLine
 10
4506.455357142859
 20
2588.00451815482
 11
4510.000000000002
 21
2583.00451815482
  0
LINE
  5
117
100
AcDbEntity
  8
1
  6
CONTINUOUS
 62
           7
100
AcDbLine
 10
4510.000000000002
 20
2132.500000000003
 11
4510.000000000002
 21
2166.299999999999
  0
LINE
  5
116
100
AcDbEntity
  8
1
  6
CONTINUOUS
 62
           7
100
AcDbLine
 10
3583.155626997729
 20
2165.5
 11
3583.15562699773
 21
2127.500000000003
  0
LINE
  5
115
100
AcDbEntity
  8
1
  6
CONTINUOUS
 62
           7
100
AcDbLine
 10
4506.455357142859
 20
2588.00451815482
 11
4202.0
 21
2588.00451815482
  0
LINE
  5
114
100
AcDbEntity
  8
1
  6
CONTINUOUS
 62
           7
100
AcDbLine
 10
3583.15562699773
 20
2588.00451815482
 11
3583.155626997727
 21
2550.5
  0
LINE
  5
113
100
AcDbEntity
  8
1
  6
CONTINUOUS
 62
           7
100
AcDbLine
 10
4509.999999999998
 20
2550.504518154824
 11
3583.155626997727
 21
2550.5
  0
LINE
  5
112
100
AcDbEntity
  8
1
  6
CONTINUOUS
 62
           4
100
AcDbLine
 10
3900.000000000002
 20
2589.00451815482
 11
3900.000000000002
 21
2588.00451815482
  0
LINE
  5
111
100
AcDbEntity
  8
1
  6
DOT_CENTER
 62
           2
100
AcDbLine
 10
4645.45682749506
 20
2358.0
 11
3552.78049876349
 21
2358.0
  0
LINE
  5
110
100
AcDbEntity
  8
7
  6
CONTINUOUS
 62
           7
100
AcDbLine
 10
4225.000000000002
 20
2825.0
 11
4110.000000000002
 21
2825.0
  0
LINE
  5
10F
100
AcDbEntity
  8
7
  6
CONTINUOUS
 62
           7
100
AcDbLine
 10
4219.147843000003
 20
2892.329780999997
 11
4198.652848000003
 21
2907.402829999999
  0
LINE
  5
10E
100
AcDbEntity
  8
7
  6
CONTINUOUS
 62
           7
100
AcDbLine
 10
4194.600000000002
 20
2912.0
 11
4110.000000000002
 21
2912.0
  0
LINE
  5
10D
100
AcDbEntity
  8
7
  6
CONTINUOUS
 62
           7
100
AcDbLine
 10
4225.000000000002
 20
2852.537538373364
 11
4225.000000000002
 21
2825.0
  0
LINE
  5
10C
100
AcDbEntity
  8
7
  6
CONTINUOUS
 62
           7
100
AcDbLine
 10
4110.000000000002
 20
2825.0
 11
3995.000000000002
 21
2825.0
  0
LINE
  5
10B
100
AcDbEntity
  8
7
  6
CONTINUOUS
 62
           7
100
AcDbLine
 10
3995.000000000002
 20
2852.537538373364
 11
3998.000000000002
 21
2887.299999999997
  0
LINE
  5
10A
100
AcDbEntity
  8
7
  6
CONTINUOUS
 62
           7
100
AcDbLine
 10
4003.223966000001
 20
2890.861695999999
 11
4023.847153000002
 21
2907.402829999999
  0
LINE
  5
109
100
AcDbEntity
  8
7
  6
CONTINUOUS
 62
           7
100
AcDbLine
 10
4027.900000000002
 20
2912.0
 11
4110.000000000002
 21
2912.0
  0
LINE
  5
108
100
AcDbEntity
  8
2
  6
CONTINUOUS
 62
           7
100
AcDbLine
 10
4012.431358000002
 20
2596.00451815482
 11
4001.386336000001
 21
2622.50451815482
  0
LINE
  5
107
100
AcDbEntity
  8
2
  6
CONTINUOUS
 62
           7
100
AcDbLine
 10
4001.386336000001
 20
2813.5
 11
4001.386336000001
 21
2622.50451815482
  0
LINE
  5
106
100
AcDbEntity
  8
2
  6
CONTINUOUS
 62
           7
100
AcDbLine
 10
4006.179459000001
 20
2825.0
 11
4001.386336000001
 21
2813.5
  0
LINE
  5
105
100
AcDbEntity
  8
2
  6
CONTINUOUS
 62
           4
100
AcDbLine
 10
4203.250000000002
 20
2594.00451815482
 11
4203.250000000002
 21
2596.00451815482
  0
LINE
  5
104
100
AcDbEntity
  8
2
  6
CONTINUOUS
 62
           7
100
AcDbLine
 10
4218.613664000002
 20
2813.5
 11
4218.613664000002
 21
2622.50451815482
  0
LINE
  5
103
100
AcDbEntity
  8
2
  6
CONTINUOUS
 62
           7
100
AcDbLine
 10
4218.613664000002
 20
2813.5
 11
4213.820541000001
 21
2825.0
  0
LINE
  5
102
100
AcDbEntity
  8
2
  6
CONTINUOUS
 62
           4
100
AcDbLine
 10
4207.568642000002
 20
2596.00451815482
 11
4012.431358000002
 21
2596.00451815482
  0
LINE
  5
101
100
AcDbEntity
  8
2
  6
CONTINUOUS
 62
           7
100
AcDbLine
 10
4218.613664000002
 20
2622.50451815482
 11
4207.568642000002
 21
2596.00451815482
  0
LINE
  5
100
100
AcDbEntity
  8
7
  6
CONTINUOUS
 62
           7
100
AcDbLine
 10
4222.000000000002
 20
2887.111356999997
 11
4225.000000000002
 21
2852.537538373364
  0
LINE
  5
FF
100
AcDbEntity
  8
7
  6
CONTINUOUS
 62
           7
100
AcDbLine
 10
3995.000000000002
 20
2825.0
 11
3995.000000000002
 21
2852.537538373364
  0
LINE
  5
FE
100
AcDbEntity
  8
2
  6
CONTINUOUS
 62
           4
100
AcDbLine
 10
4016.750000000002
 20
2596.00451815482
 11
4016.750000000002
 21
2594.00451815482
  0
LINE
  5
FD
100
AcDbEntity
  8
1
  6
CONTINUOUS
 62
           7
100
AcDbLine
 10
3851.800000000003
 20
2127.500000000003
 11
3851.800000000003
 21
2081.0
  0
LINE
  5
FC
100
AcDbEntity
  8
1
  6
CONTINUOUS
 62
           7
100
AcDbLine
 10
3583.15562699773
 20
2127.500000000003
 11
4036.869912712013
 21
2127.500000000007
  0
LINE
  5
FB
100
AcDbEntity
  8
1
  6
CONTINUOUS
 62
           7
100
AcDbLine
 10
3629.999999999995
 20
2550.500000000001
 11
3629.999999999995
 21
2165.5
  0
LINE
  5
FA
100
AcDbEntity
  8
1
  6
CONTINUOUS
 62
           7
100
AcDbLine
 10
4368.200000000003
 20
2081.0
 11
4368.200000000003
 21
2127.500000000003
  0
LINE
  5
F9
100
AcDbEntity
  8
1
  6
CONTINUOUS
 62
           7
100
AcDbLine
 10
4510.000000000002
 20
2165.5
 11
4510.000000000002
 21
2550.5
  0
LINE
  5
F8
100
AcDbEntity
  8
1
  6
CONTINUOUS
 62
           7
100
AcDbLine
 10
4590.000000000004
 20
2555.0
 11
4590.000000000004
 21
2161.0
  0
LINE
  5
F7
100
AcDbEntity
  8
1
  6
CONTINUOUS
 62
           4
100
AcDbLine
 10
4590.000000000004
 20
2555.0
 11
4555.500000000002
 21
2555.0
  0
LINE
  5
F6
100
AcDbEntity
  8
1
  6
CONTINUOUS
 62
           4
100
AcDbLine
 10
4554.500000000002
 20
2590.5
 11
4554.500000000002
 21
2556.000000000001
  0
LINE
  5
F5
100
AcDbEntity
  8
1
  6
CONTINUOUS
 62
           4
100
AcDbLine
 10
4554.500000000002
 20
2590.5
 11
4545.500000000002
 21
2590.5
  0
LINE
  5
F4
100
AcDbEntity
  8
1
  6
CONTINUOUS
 62
           4
100
AcDbLine
 10
4545.500000000002
 20
2556.0
 11
4545.500000000002
 21
2590.5
  0
LINE
  5
F3
100
AcDbEntity
  8
1
  6
CONTINUOUS
 62
           4
100
AcDbLine
 10
4544.500000000002
 20
2555.0
 11
4509.999999999998
 21
2555.0
  0
LINE
  5
F2
100
AcDbEntity
  8
1
  6
CONTINUOUS
 62
           4
100
AcDbLine
 10
4555.500000000002
 20
2161.0
 11
4590.000000000004
 21
2161.0
  0
LINE
  5
F1
100
AcDbEntity
  8
1
  6
CONTINUOUS
 62
           4
100
AcDbLine
 10
4554.500000000002
 20
2160.0
 11
4554.500000000002
 21
2125.5
  0
LINE
  5
F0
100
AcDbEntity
  8
1
  6
CONTINUOUS
 62
           4
100
AcDbLine
 10
4509.999999999998
 20
2161.0
 11
4544.500000000002
 21
2161.0
  0
LINE
  5
EF
100
AcDbEntity
  8
1
  6
CONTINUOUS
 62
           4
100
AcDbLine
 10
4545.500000000002
 20
2125.5
 11
4545.500000000002
 21
2160.0
  0
LINE
  5
EE
100
AcDbEntity
  8
1
  6
CONTINUOUS
 62
           4
100
AcDbLine
 10
4545.500000000002
 20
2550.5
 11
4545.500000000002
 21
2165.5
  0
LINE
  5
ED
100
AcDbEntity
  8
1
  6
CONTINUOUS
 62
           4
100
AcDbLine
 10
4554.500000000002
 20
2165.5
 11
4554.500000000002
 21
2550.5
  0
LINE
  5
EC
100
AcDbEntity
  8
1
  6
CONTINUOUS
 62
           4
100
AcDbLine
 10
4545.500000000002
 20
2125.5
 11
4554.500000000002
 21
2125.5
  0
LINE
  5
EB
100
AcDbEntity
  8
1
  6
CONTINUOUS
 62
           4
100
AcDbLine
 10
3812.500000000002
 20
2081.0
 11
3812.500000000002
 21
2075.0
  0
LINE
  5
EA
100
AcDbEntity
  8
1
  6
CONTINUOUS
 62
           4
100
AcDbLine
 10
4407.500000000002
 20
2081.0
 11
4407.500000000002
 21
2075.0
  0
LINE
  5
E9
100
AcDbEntity
  8
1
  6
CONTINUOUS
 62
           4
100
AcDbLine
 10
4407.500000000002
 20
2081.0
 11
3812.500000000002
 21
2081.0
  0
LINE
  5
E8
100
AcDbEntity
  8
1
  6
CONTINUOUS
 62
           7
100
AcDbLine
 10
4110.000000000002
 20
2075.0
 11
3812.500000000002
 21
2075.0
  0
LINE
  5
E7
100
AcDbEntity
  8
1
  6
CONTINUOUS
 62
           7
100
AcDbLine
 10
4407.500000000002
 20
2075.0
 11
4110.000000000002
 21
2075.0
  0
LINE
  5
E6
100
AcDbEntity
  8
1
  6
CONTINUOUS
 62
           7
100
AcDbLine
 10
4510.000000000002
 20
2165.5
 11
3583.155626997729
 21
2165.5
  0
LINE
  5
E5
100
AcDbEntity
  8
1
  6
CONTINUOUS
 62
           4
100
AcDbLine
 10
4225.000000000002
 20
2852.537538373364
 11
3995.000000000002
 21
2852.537538373364
  0
LINE
  5
E4
100
AcDbEntity
  8
7
  6
CONTINUOUS
 62
           4
100
AcDbLine
 10
4001.200000000001
 20
2890.5
 11
4220.992023000003
 21
2890.5
  0
LINE
  5
E3
100
AcDbEntity
  8
1
  6
CONTINUOUS
 62
           7
100
AcDbLine
 10
4550.000000000002
 20
2590.5
 11
4550.000000000002
 21
2125.5
  0
LINE
  5
E2
100
AcDbEntity
  8
1
  6
CONTINUOUS
 62
           7
100
AcDbLine
 10
4509.999999999998
 20
2550.5
 11
4590.000000000004
 21
2550.5
  0
LINE
  5
E1
100
AcDbEntity
  8
1
  6
CONTINUOUS
 62
           7
100
AcDbLine
 10
4590.000000000004
 20
2165.5
 11
4509.999999999998
 21
2165.5
  0
LINE
  5
E0
100
AcDbEntity
  8
1
  6
CONTINUOUS
 62
           7
100
AcDbLine
 10
4143.750000000002
 20
2670.804518154823
 11
4076.250000000002
 21
2670.804518154823
  0
LINE
  5
DF
100
AcDbEntity
  8
1
  6
CONTINUOUS
 62
           7
100
AcDbLine
 10
4076.250000000002
 20
2750.804518154823
 11
4143.750000000002
 21
2750.804518154823
  0
LINE
  5
DE
100
AcDbEntity
  8
1
  6
CONTINUOUS
 62
           7
100
AcDbLine
 10
4153.750000000002
 20
2740.804518154823
 11
4153.750000000002
 21
2680.804518154823
  0
LINE
  5
DD
100
AcDbEntity
  8
1
  6
CONTINUOUS
 62
           7
100
AcDbLine
 10
4066.250000000002
 20
2680.804518154823
 11
4066.250000000002
 21
2740.804518154823
  0
LINE
  5
DC
100
AcDbEntity
  8
1
  6
CONTINUOUS
 62
           7
100
AcDbLine
 10
4202.0
 20
2588.00451815482
 11
4202.0
 21
2550.00451815482
  0
LINE
  5
DB
100
AcDbEntity
  8
1
  6
CONTINUOUS
 62
           7
100
AcDbLine
 10
4036.869912712013
 20
2588.00451815482
 11
4036.869912712013
 21
2550.00451815482
  0
LINE
  5
DA
100
AcDbEntity
  8
1
  6
CONTINUOUS
 62
           7
100
AcDbLine
 10
4036.869912712013
 20
2588.00451815482
 11
3583.15562699773
 21
2588.00451815482
  0
LINE
  5
D9
100
AcDbEntity
  8
1
  6
CONTINUOUS
 62
           7
100
AcDbLine
 10
4036.869912712013
 20
2165.500000000007
 11
4036.869912712013
 21
2127.500000000007
  0
LINE
  5
D8
100
AcDbEntity
  8
1
  6
CONTINUOUS
 62
           7
100
AcDbLine
 10
4202.0
 20
2165.500000000007
 11
4202.0
 21
2127.500000000007
  0
LINE
  5
D7
100
AcDbEntity
  8
1
  6
CONTINUOUS
 62
           7
100
AcDbLine
 10
4202.0
 20
2127.500000000007
 11
4506.455357142861
 21
2127.500000000003
  0
LINE
  5
D6
100
AcDbEntity
  8
1
  6
CONTINUOUS
 62
           7
100
AcDbLine
 10
4435.000000000002
 20
2127.500000000003
 11
4435.000000000002
 21
2165.5
  0
LINE
  5
D5
100
AcDbEntity
  8
1
  6
CONTINUOUS
 62
           7
100
AcDbLine
 10
4435.000000000002
 20
2550.00451815482
 11
4435.000000000002
 21
2588.00451815482
  0
LINE
  5
D4
100
AcDbEntity
  8
1
  6
CONTINUOUS
 62
           7
100
AcDbLine
 10
575.000000000001
 20
1646.282992387804
 11
-574.999999999999
 21
1646.282992387804
  0
LINE
  5
D3
100
AcDbEntity
  8
1
  6
CONTINUOUS
 62
           7
100
AcDbLine
 10
-574.999999999999
 20
941.51352679837
 11
-574.999999999999
 21
1646.282992387804
  0
LINE
  5
D2
100
AcDbEntity
  8
1
  6
CONTINUOUS
 62
           7
100
AcDbLine
 10
575.000000000001
 20
941.51352679837
 11
575.000000000001
 21
1646.282992387804
  0
LINE
  5
D1
100
AcDbEntity
  8
1
  6
CONTINUOUS
 62
           7
100
AcDbLine
 10
-574.999999999999
 20
941.51352679837
 11
575.000000000001
 21
941.51352679837
  0
LINE
  5
D0
100
AcDbEntity
  8
___S__
  6
DOT_CENTER
 62
           3
100
AcDbLine
 10
-574.999999999975
 20
1621.0528372865
 11
-574.999999999976
 21
1536.057127055392
  0
LINE
  5
CF
100
AcDbEntity
  8
____
  6
CONTINUOUS
 62
           3
100
AcDbLine
 10
-569.595947044857
 20
1614.449075506233
 11
-569.595947044857
 21
1612.571144758111
  0
LINE
  5
CE
100
AcDbEntity
  8
____
  6
CONTINUOUS
 62
           3
100
AcDbLine
 10
-579.912775413719
 20
1614.918558193265
 11
-570.087224586231
 21
1614.918558193265
  0
LINE
  5
CD
100
AcDbEntity
  8
____
  6
CONTINUOUS
 62
           3
100
AcDbLine
 10
-580.404052955094
 20
1612.571144758112
 11
-580.404052955094
 21
1614.449075506233
  0
LINE
  5
CC
100
AcDbEntity
  8
____
  6
CONTINUOUS
 62
           3
100
AcDbLine
 10
-569.497691536591
 20
1576.890460543779
 11
-580.502308463368
 21
1576.890460543779
  0
LINE
  5
CB
100
AcDbEntity
  8
____
  6
CONTINUOUS
 62
           3
100
AcDbLine
 10
-569.49769153659
 20
1612.571144758111
 11
-569.497691536591
 21
1576.890460543779
  0
LINE
  5
CA
100
AcDbEntity
  8
____
  6
CONTINUOUS
 62
           3
100
AcDbLine
 10
-580.502308463367
 20
1612.571144758112
 11
-569.49769153659
 21
1612.571144758111
  0
LINE
  5
C9
100
AcDbEntity
  8
____
  6
CONTINUOUS
 62
           3
100
AcDbLine
 10
-580.502308463368
 20
1576.890460543779
 11
-580.502308463367
 21
1612.571144758112
  0
LINE
  5
C8
100
AcDbEntity
  8
____
  6
CONTINUOUS
 62
           3
100
AcDbLine
 10
-580.404052955095
 20
1538.392880207261
 11
-580.404052955095
 21
1540.270810955385
  0
LINE
  5
C7
100
AcDbEntity
  8
____
  6
CONTINUOUS
 62
           3
100
AcDbLine
 10
-570.087224586232
 20
1537.923397520232
 11
-579.91277541372
 21
1537.923397520232
  0
LINE
  5
C6
100
AcDbEntity
  8
____
  6
CONTINUOUS
 62
           3
100
AcDbLine
 10
-569.595947044858
 20
1540.270810955385
 11
-569.595947044858
 21
1538.392880207261
  0
LINE
  5
C5
100
AcDbEntity
  8
____
  6
CONTINUOUS
 62
           3
100
AcDbLine
 10
-580.158414184407
 20
1576.890460543779
 11
-580.158414184407
 21
1575.951495169717
  0
LINE
  5
C4
100
AcDbEntity
  8
____
  6
CONTINUOUS
 62
           3
100
AcDbLine
 10
-569.841585815545
 20
1576.890460543779
 11
-580.158414184407
 21
1576.890460543779
  0
LINE
  5
C3
100
AcDbEntity
  8
____
  6
CONTINUOUS
 62
           3
100
AcDbLine
 10
-569.841585815545
 20
1575.951495169717
 11
-569.841585815545
 21
1576.890460543779
  0
LINE
  5
C2
100
AcDbEntity
  8
____
  6
CONTINUOUS
 62
           3
100
AcDbLine
 10
-580.404052955094
 20
1614.449075506233
 11
-569.595947044857
 21
1614.449075506233
  0
LINE
  5
C1
100
AcDbEntity
  8
____
  6
CONTINUOUS
 62
           3
100
AcDbLine
 10
-580.502308463368
 20
1575.951495169717
 11
-569.497691536591
 21
1575.951495169717
  0
LINE
  5
C0
100
AcDbEntity
  8
____
  6
CONTINUOUS
 62
           3
100
AcDbLine
 10
-580.502308463368
 20
1540.270810955385
 11
-580.502308463368
 21
1575.951495169717
  0
LINE
  5
BF
100
AcDbEntity
  8
____
  6
CONTINUOUS
 62
           3
100
AcDbLine
 10
-569.497691536591
 20
1540.270810955385
 11
-580.502308463368
 21
1540.270810955385
  0
LINE
  5
BE
100
AcDbEntity
  8
____
  6
CONTINUOUS
 62
           3
100
AcDbLine
 10
-569.497691536591
 20
1575.951495169717
 11
-569.497691536591
 21
1540.270810955385
  0
LINE
  5
BD
100
AcDbEntity
  8
____
  6
CONTINUOUS
 62
           3
100
AcDbLine
 10
-580.404052955094
 20
1614.449075506233
 11
-579.912775413719
 21
1614.918558193265
  0
LINE
  5
BC
100
AcDbEntity
  8
____
  6
CONTINUOUS
 62
           3
100
AcDbLine
 10
-570.087224586231
 20
1614.918558193265
 11
-569.595947044857
 21
1614.449075506233
  0
LINE
  5
BB
100
AcDbEntity
  8
____
  6
CONTINUOUS
 62
           3
100
AcDbLine
 10
-579.91277541372
 20
1537.923397520232
 11
-580.404052955095
 21
1538.392880207261
  0
LINE
  5
BA
100
AcDbEntity
  8
____
  6
CONTINUOUS
 62
           3
100
AcDbLine
 10
-569.595947044858
 20
1538.392880207261
 11
-570.087224586232
 21
1537.923397520232
  0
LINE
  5
B9
100
AcDbEntity
  8
____
  6
CONTINUOUS
 62
           3
100
AcDbLine
 10
-580.404052955095
 20
1538.392880207261
 11
-569.595947044858
 21
1538.392880207261
  0
LINE
  5
B8
100
AcDbEntity
  8
____
  6
CONTINUOUS
 62
           3
100
AcDbLine
 10
-580.404052955119
 20
984.403309517209
 11
-569.595947044881
 21
984.403309517209
  0
LINE
  5
B7
100
AcDbEntity
  8
____
  6
CONTINUOUS
 62
           3
100
AcDbLine
 10
-569.595947044881
 20
984.403309517209
 11
-570.087224586256
 21
983.933826830178
  0
LINE
  5
B6
100
AcDbEntity
  8
____
  6
CONTINUOUS
 62
           3
100
AcDbLine
 10
-579.912775413745
 20
983.933826830178
 11
-580.404052955119
 21
984.403309517209
  0
LINE
  5
B5
100
AcDbEntity
  8
____
  6
CONTINUOUS
 62
           3
100
AcDbLine
 10
-570.087224586254
 20
1060.928987503212
 11
-569.595947044879
 21
1060.459504816181
  0
LINE
  5
B4
100
AcDbEntity
  8
____
  6
CONTINUOUS
 62
           3
100
AcDbLine
 10
-580.404052955117
 20
1060.459504816181
 11
-579.912775413743
 21
1060.928987503212
  0
LINE
  5
B3
100
AcDbEntity
  8
____
  6
CONTINUOUS
 62
           3
100
AcDbLine
 10
-569.497691536607
 20
1021.961924479664
 11
-569.497691536608
 21
986.281240265332
  0
LINE
  5
B2
100
AcDbEntity
  8
____
  6
CONTINUOUS
 62
           3
100
AcDbLine
 10
-569.497691536608
 20
986.281240265332
 11
-580.502308463385
 21
986.281240265332
  0
LINE
  5
B1
100
AcDbEntity
  8
____
  6
CONTINUOUS
 62
           3
100
AcDbLine
 10
-580.502308463385
 20
986.281240265332
 11
-580.502308463384
 21
1021.961924479664
  0
LINE
  5
B0
100
AcDbEntity
  8
____
  6
CONTINUOUS
 62
           3
100
AcDbLine
 10
-580.502308463384
 20
1021.961924479664
 11
-569.497691536607
 21
1021.961924479664
  0
LINE
  5
AF
100
AcDbEntity
  8
____
  6
CONTINUOUS
 62
           3
100
AcDbLine
 10
-580.404052955117
 20
1060.459504816181
 11
-569.595947044879
 21
1060.459504816181
  0
LINE
  5
AE
100
AcDbEntity
  8
____
  6
CONTINUOUS
 62
           3
100
AcDbLine
 10
-569.841585815568
 20
1021.961924479664
 11
-569.841585815568
 21
1022.900889853725
  0
LINE
  5
AD
100
AcDbEntity
  8
____
  6
CONTINUOUS
 62
           3
100
AcDbLine
 10
-569.841585815568
 20
1022.900889853725
 11
-580.158414184431
 21
1022.900889853726
  0
LINE
  5
AC
100
AcDbEntity
  8
____
  6
CONTINUOUS
 62
           3
100
AcDbLine
 10
-580.158414184431
 20
1022.900889853726
 11
-580.158414184431
 21
1021.961924479664
  0
LINE
  5
AB
100
AcDbEntity
  8
____
  6
CONTINUOUS
 62
           3
100
AcDbLine
 10
-569.595947044881
 20
986.281240265332
 11
-569.595947044881
 21
984.403309517209
  0
LINE
  5
AA
100
AcDbEntity
  8
____
  6
CONTINUOUS
 62
           3
100
AcDbLine
 10
-570.087224586256
 20
983.933826830178
 11
-579.912775413745
 21
983.933826830178
  0
LINE
  5
A9
100
AcDbEntity
  8
____
  6
CONTINUOUS
 62
           3
100
AcDbLine
 10
-580.404052955119
 20
984.403309517209
 11
-580.404052955119
 21
986.281240265332
  0
LINE
  5
A8
100
AcDbEntity
  8
____
  6
CONTINUOUS
 62
           3
100
AcDbLine
 10
-580.502308463384
 20
1022.900889853726
 11
-580.502308463383
 21
1058.581574068058
  0
LINE
  5
A7
100
AcDbEntity
  8
____
  6
CONTINUOUS
 62
           3
100
AcDbLine
 10
-580.502308463383
 20
1058.581574068058
 11
-569.497691536607
 21
1058.581574068058
  0
LINE
  5
A6
100
AcDbEntity
  8
____
  6
CONTINUOUS
 62
           3
100
AcDbLine
 10
-569.497691536607
 20
1058.581574068058
 11
-569.497691536607
 21
1022.900889853725
  0
LINE
  5
A5
100
AcDbEntity
  8
____
  6
CONTINUOUS
 62
           3
100
AcDbLine
 10
-569.497691536607
 20
1022.900889853725
 11
-580.502308463384
 21
1022.900889853726
  0
LINE
  5
A4
100
AcDbEntity
  8
____
  6
CONTINUOUS
 62
           3
100
AcDbLine
 10
-580.404052955117
 20
1058.581574068058
 11
-580.404052955117
 21
1060.459504816181
  0
LINE
  5
A3
100
AcDbEntity
  8
____
  6
CONTINUOUS
 62
           3
100
AcDbLine
 10
-579.912775413743
 20
1060.928987503212
 11
-570.087224586254
 21
1060.928987503212
  0
LINE
  5
A2
100
AcDbEntity
  8
____
  6
CONTINUOUS
 62
           3
100
AcDbLine
 10
-569.595947044879
 20
1060.459504816181
 11
-569.595947044879
 21
1058.581574068058
  0
LINE
  5
A1
100
AcDbEntity
  8
___S__
  6
DOT_CENTER
 62
           3
100
AcDbLine
 10
-574.999999999999
 20
1067.063266596463
 11
-575.000000000001
 21
982.067556365338
  0
LINE
  5
A0
100
AcDbEntity
  8
1
  6
CONTINUOUS
 62
           7
100
AcDbLine
 10
3500.000000000004
 20
500.000000000001
 11
3500.000000000005
 21
1767.293273528178
  0
LINE
  5
9F
100
AcDbEntity
  8
1
  6
CONTINUOUS
 62
           4
100
AcDbLine
 10
3480.000000000004
 20
520.000000000001
 11
3480.000000000005
 21
1715.525103244276
  0
LINE
  5
9E
100
AcDbEntity
  8
1
  6
CONTINUOUS
 62
           4
100
AcDbLine
 10
3520.000000000004
 20
1980.000000000001
 11
3520.000000000005
 21
1814.464669216343
  0
LINE
  5
9D
100
AcDbEntity
  8
1
  6
CONTINUOUS
 62
           4
100
AcDbLine
 10
3480.000000000005
 20
1741.488764155308
 11
3480.000000000004
 21
1980.000000000001
  0
LINE
  5
9C
100
AcDbEntity
  8
1
  6
CONTINUOUS
 62
           7
100
AcDbLine
 10
3500.000000000005
 20
1784.157226830846
 11
3500.000000000004
 21
2000.000000000001
  0
LINE
  5
9B
100
AcDbEntity
  8
1
  6
CONTINUOUS
 62
           4
100
AcDbLine
 10
3520.000000000005
 20
1800.831132334587
 11
3520.000000000004
 21
520.000000000001
  0
LINE
  5
9A
100
AcDbEntity
  8
1
  6
CONTINUOUS
 62
           7
100
AcDbLine
 10
-569.497691536608
 20
986.513526798371
 11
575.000000000001
 21
986.513526798371
  0
LINE
  5
99
100
AcDbEntity
  8
1
  6
DOT_CENTER
 62
           2
100
AcDbLine
 10
3800.000000000001
 20
675.0
 11
3800.000000000001
 21
525.0
  0
LINE
  5
98
100
AcDbEntity
  8
1
  6
DOT_CENTER
 62
           2
100
AcDbLine
 10
3725.000000000002
 20
600.0
 11
3875.000000000002
 21
600.0
  0
LINE
  5
97
100
AcDbEntity
  8
1
  6
CONTINUOUS
 62
           7
100
AcDbLine
 10
-999.999999999999
 20
4020.0
 11
-999.999999999999
 21
5999.999999999999
  0
LINE
  5
96
100
AcDbEntity
  8
1
  6
CONTINUOUS
 62
           7
100
AcDbLine
 10
1000.000000000001
 20
4020.0
 11
1000.000000000001
 21
5999.999999999999
  0
LINE
  5
95
100
AcDbEntity
  8
1
  6
CONTINUOUS
 62
           7
100
AcDbLine
 10
2500.000000000003
 20
2050.0
 11
2500.000000000004
 21
2150.0
  0
LINE
  5
94
100
AcDbEntity
  8
1
  6
CONTINUOUS
 62
           7
100
AcDbLine
 10
-1049.999999999999
 20
2000.0
 11
-1049.999999999999
 21
2150.0
  0
LINE
  5
93
100
AcDbEntity
  8
1
  6
CONTINUOUS
 62
           7
100
AcDbLine
 10
1050.000000000001
 20
2000.0
 11
1050.000000000001
 21
2150.0
  0
LINE
  5
92
100
AcDbEntity
  8
1
  6
CONTINUOUS
 62
           7
100
AcDbLine
 10
1050.000000000001
 20
2150.0
 11
-1049.999999999999
 21
2150.0
  0
LINE
  5
91
100
AcDbEntity
  8
1
  6
CONTINUOUS
 62
           4
100
AcDbLine
 10
-579.999999999999
 20
5979.999999999999
 11
-979.999999999999
 21
5979.999999999999
  0
LINE
  5
90
100
AcDbEntity
  8
1
  6
CONTINUOUS
 62
           7
100
AcDbLine
 10
-569.999999999998
 20
5999.999999999999
 11
-1049.999999999999
 21
5999.999999999999
  0
LINE
  5
8F
100
AcDbEntity
  8
1
  6
CONTINUOUS
 62
           7
100
AcDbLine
 10
1550.000000000001
 20
0.0
 11
-1499.999999999999
 21
0.0
  0
LINE
  5
8E
100
AcDbEntity
  8
1
  6
CONTINUOUS
 62
           7
100
AcDbLine
 10
-499.999999999999
 20
4999.999999999999
 11
-499.999999999999
 21
5377.157287525381
  0
LINE
  5
8D
100
AcDbEntity
  8
1
  6
CONTINUOUS
 62
           4
100
AcDbLine
 10
-520.0
 20
5019.999999999999
 11
-520.0
 21
5412.613662462942
  0
LINE
  5
8C
100
AcDbEntity
  8
1
  6
CONTINUOUS
 62
           7
100
AcDbLine
 10
500.000000000001
 20
4999.999999999999
 11
500.000000000001
 21
5999.999999999999
  0
LINE
  5
8B
100
AcDbEntity
  8
1
  6
CONTINUOUS
 62
           4
100
AcDbLine
 10
520.0
 20
5979.999999999999
 11
520.0
 21
5019.999999999999
  0
LINE
  5
8A
100
AcDbEntity
  8
1
  6
CONTINUOUS
 62
           7
100
AcDbLine
 10
985.000000000001
 20
540.0
 11
-984.999999999999
 21
540.0
  0
LINE
  5
89
100
AcDbEntity
  8
1
  6
CONTINUOUS
 62
           7
100
AcDbLine
 10
-984.999999999999
 20
475.000000000001
 11
-984.999999999999
 21
540.0
  0
LINE
  5
88
100
AcDbEntity
  8
1
  6
CONTINUOUS
 62
           7
100
AcDbLine
 10
-999.999999999999
 20
475.000000000001
 11
1000.000000000001
 21
475.000000000001
  0
LINE
  5
87
100
AcDbEntity
  8
1
  6
CONTINUOUS
 62
           4
100
AcDbLine
 10
4480.000000000002
 20
1980.0
 11
3520.000000000002
 21
1980.0
  0
LINE
  5
86
100
AcDbEntity
  8
1
  6
CONTINUOUS
 62
           4
100
AcDbLine
 10
4480.000000000002
 20
520.0
 11
4480.000000000002
 21
1980.0
  0
LINE
  5
85
100
AcDbEntity
  8
1
  6
CONTINUOUS
 62
           4
100
AcDbLine
 10
3520.000000000002
 20
520.0
 11
4480.000000000002
 21
520.0
  0
LINE
  5
84
100
AcDbEntity
  8
1
  6
CONTINUOUS
 62
           4
100
AcDbLine
 10
3020.000000000002
 20
520.0
 11
3480.000000000002
 21
520.0
  0
LINE
  5
83
100
AcDbEntity
  8
1
  6
CONTINUOUS
 62
           4
100
AcDbLine
 10
3020.000000000002
 20
1980.0
 11
3020.000000000002
 21
520.0
  0
LINE
  5
82
100
AcDbEntity
  8
1
  6
CONTINUOUS
 62
           4
100
AcDbLine
 10
3480.000000000002
 20
1980.0
 11
3020.000000000002
 21
1980.0
  0
LINE
  5
81
100
AcDbEntity
  8
1
  6
CONTINUOUS
 62
           4
100
AcDbLine
 10
4479.433325304563
 20
20.0
 11
4479.433325304563
 21
479.385061529882
  0
LINE
  5
80
100
AcDbEntity
  8
1
  6
CONTINUOUS
 62
           4
100
AcDbLine
 10
3020.000000000004
 20
20.0
 11
4479.433325304563
 21
20.0
  0
LINE
  5
7F
100
AcDbEntity
  8
1
  6
CONTINUOUS
 62
           4
100
AcDbLine
 10
3020.000000000002
 20
479.385061529882
 11
3020.000000000004
 21
20.0
  0
LINE
  5
7E
100
AcDbEntity
  8
1
  6
CONTINUOUS
 62
           4
100
AcDbLine
 10
4479.433325304563
 20
479.385061529882
 11
3020.000000000002
 21
479.385061529882
  0
LINE
  5
7D
100
AcDbEntity
  8
1
  6
CONTINUOUS
 62
           7
100
AcDbLine
 10
3000.000000000002
 20
500.0
 11
4500.000000000002
 21
500.0
  0
LINE
  5
7C
100
AcDbEntity
  8
1
  6
CONTINUOUS
 62
           7
100
AcDbLine
 10
3000.000000000003
 20
0.0
 11
3000.000000000003
 21
2000.0
  0
LINE
  5
7B
100
AcDbEntity
  8
1
  6
CONTINUOUS
 62
           4
100
AcDbLine
 10
2520.000000000004
 20
1980.0
 11
2520.000000000004
 21
20.0
  0
LINE
  5
7A
100
AcDbEntity
  8
1
  6
CONTINUOUS
 62
           4
100
AcDbLine
 10
2980.000000000002
 20
1980.0
 11
2520.000000000004
 21
1980.0
  0
LINE
  5
79
100
AcDbEntity
  8
1
  6
CONTINUOUS
 62
           4
100
AcDbLine
 10
2980.000000000002
 20
20.0
 11
2980.000000000002
 21
1980.0
  0
LINE
  5
78
100
AcDbEntity
  8
1
  6
CONTINUOUS
 62
           4
100
AcDbLine
 10
2520.000000000004
 20
20.0
 11
2980.000000000002
 21
20.0
  0
LINE
  5
77
100
AcDbEntity
  8
1
  6
CONTINUOUS
 62
           7
100
AcDbLine
 10
-1049.999999999999
 20
4000.0
 11
1050.000000000001
 21
4000.0
  0
LINE
  5
76
100
AcDbEntity
  8
1
  6
CONTINUOUS
 62
           7
100
AcDbLine
 10
-1049.999999999999
 20
5999.999999999999
 11
-1049.999999999999
 21
4000.0
  0
LINE
  5
75
100
AcDbEntity
  8
1
  6
CONTINUOUS
 62
           7
100
AcDbLine
 10
-1049.999999999999
 20
4999.999999999999
 11
1050.000000000001
 21
4999.999999999999
  0
LINE
  5
74
100
AcDbEntity
  8
1
  6
CONTINUOUS
 62
           4
100
AcDbLine
 10
-979.999999999999
 20
4979.999999999999
 11
-979.999999999999
 21
4020.0
  0
LINE
  5
73
100
AcDbEntity
  8
1
  6
CONTINUOUS
 62
           4
100
AcDbLine
 10
-979.999999999999
 20
5019.999999999999
 11
-520.0
 21
5019.999999999999
  0
LINE
  5
72
100
AcDbEntity
  8
1
  6
CONTINUOUS
 62
           4
100
AcDbLine
 10
-979.999999999999
 20
5019.999999999999
 11
-979.999999999999
 21
5979.999999999999
  0
LINE
  5
71
100
AcDbEntity
  8
1
  6
CONTINUOUS
 62
           7
100
AcDbLine
 10
1050.000000000001
 20
5999.999999999999
 11
4.04145188433
 21
5999.999999999999
  0
LINE
  5
70
100
AcDbEntity
  8
1
  6
CONTINUOUS
 62
           7
100
AcDbLine
 10
1050.000000000001
 20
0.0
 11
1050.000000000001
 21
2000.0
  0
LINE
  5
6F
100
AcDbEntity
  8
1
  6
CONTINUOUS
 62
           7
100
AcDbLine
 10
1050.000000000001
 20
2000.0
 11
-1049.999999999999
 21
2000.0
  0
LINE
  5
6E
100
AcDbEntity
  8
1
  6
CONTINUOUS
 62
           7
100
AcDbLine
 10
2500.000000000003
 20
0.0
 11
2500.000000000003
 21
2050.0
  0
LINE
  5
6D
100
AcDbEntity
  8
1
  6
CONTINUOUS
 62
           7
100
AcDbLine
 10
4500.000000000002
 20
0.0
 11
4500.000000000002
 21
2075.0
  0
LINE
  5
6C
100
AcDbEntity
  8
1
  6
CONTINUOUS
 62
           7
100
AcDbLine
 10
4500.000000000002
 20
2000.0
 11
2500.000000000003
 21
2000.0
  0
LINE
  5
6B
100
AcDbEntity
  8
1
  6
CONTINUOUS
 62
           4
100
AcDbLine
 10
2500.000000000003
 20
2003.0
 11
4500.000000000002
 21
2003.0
  0
LINE
  5
6A
100
AcDbEntity
  8
1
  6
CONTINUOUS
 62
           7
100
AcDbLine
 10
2500.000000000003
 20
2050.0
 11
4500.000000000002
 21
2050.0
  0
LINE
  5
69
100
AcDbEntity
  8
1
  6
CONTINUOUS
 62
           7
100
AcDbLine
 10
3500.000000000002
 20
2000.0
 11
3500.000000000002
 21
2075.0
  0
LINE
  5
68
100
AcDbEntity
  8
1
  6
CONTINUOUS
 62
           7
100
AcDbLine
 10
-999.999999999999
 20
0.0
 11
-999.999999999999
 21
2000.0
  0
LINE
  5
67
100
AcDbEntity
  8
1
  6
CONTINUOUS
 62
           7
100
AcDbLine
 10
1000.000000000001
 20
0.0
 11
1000.000000000001
 21
2000.0
  0
LINE
  5
66
100
AcDbEntity
  8
1
  6
CONTINUOUS
 62
           7
100
AcDbLine
 10
1000.000000000001
 20
1900.0
 11
-999.999999999999
 21
1900.0
  0
LINE
  5
65
100
AcDbEntity
  8
1
  6
CONTINUOUS
 62
           7
100
AcDbLine
 10
1000.000000000001
 20
50.0
 11
-999.999999999999
 21
50.0
  0
LINE
  5
64
100
AcDbEntity
  8
1
  6
CONTINUOUS
 62
           7
100
AcDbLine
 10
-999.999999999999
 20
400.0
 11
1000.000000000001
 21
400.0
  0
LINE
  5
63
100
AcDbEntity
  8
1
  6
CONTINUOUS
 62
           7
100
AcDbLine
 10
985.000000000001
 20
540.0
 11
985.000000000001
 21
475.000000000001
  0
LINE
  5
62
100
AcDbEntity
  8
1
  6
CONTINUOUS
 62
           7
100
AcDbLine
 10
-999.999999999999
 20
513.85332266763
 11
-999.999999999999
 21
572.607085651512
  0
LINE
  5
61
100
AcDbEntity
  8
1
  6
CONTINUOUS
 62
           7
100
AcDbLine
 10
-999.999999999999
 20
800.0
 11
1000.000000000001
 21
800.0
  0
LINE
  5
60
100
AcDbEntity
  8
1
  6
CONTINUOUS
 62
           7
100
AcDbLine
 10
985.000000000001
 20
500.0
 11
1000.000000000001
 21
500.0
  0
LINE
  5
5F
100
AcDbEntity
  8
1
  6
CONTINUOUS
 62
           7
100
AcDbLine
 10
-999.999999999999
 20
500.0
 11
-984.999999999999
 21
500.0
  0
LINE
  5
5E
100
AcDbEntity
  8
1
  6
DOT_CENTER
 62
           2
100
AcDbLine
 10
0.0
 20
2075.0
 11
0.0
 21
-130.0
  0
LINE
  5
5D
100
AcDbEntity
  8
1
  6
CONTINUOUS
 62
           7
100
AcDbLine
 10
1050.000000000001
 20
4000.0
 11
1050.000000000001
 21
5999.999999999999
  0
LINE
  5
5C
100
AcDbEntity
  8
1
  6
CONTINUOUS
 62
           4
100
AcDbLine
 10
980.000000000001
 20
5979.999999999999
 11
980.000000000001
 21
5019.999999999999
  0
LINE
  5
5B
100
AcDbEntity
  8
1
  6
CONTINUOUS
 62
           4
100
AcDbLine
 10
980.000000000001
 20
4979.999999999999
 11
980.000000000001
 21
4020.0
  0
LINE
  5
5A
100
AcDbEntity
  8
1
  6
CONTINUOUS
 62
           4
100
AcDbLine
 10
1003.000000000001
 20
5999.999999999999
 11
1003.000000000001
 21
4020.0
  0
LINE
  5
59
100
AcDbEntity
  8
1
  6
CONTINUOUS
 62
           4
100
AcDbLine
 10
980.000000000001
 20
5979.999999999999
 11
520.0
 21
5979.999999999999
  0
LINE
  5
58
100
AcDbEntity
  8
1
  6
CONTINUOUS
 62
           4
100
AcDbLine
 10
980.000000000001
 20
5019.999999999999
 11
520.0
 21
5019.999999999999
  0
LINE
  5
57
100
AcDbEntity
  8
1
  6
CONTINUOUS
 62
           4
100
AcDbLine
 10
-1002.999999999999
 20
5999.999999999999
 11
-1002.999999999999
 21
4020.0
  0
LINE
  5
56
100
AcDbEntity
  8
1
  6
CONTINUOUS
 62
           4
100
AcDbLine
 10
-979.999999999999
 20
4979.999999999999
 11
980.000000000001
 21
4979.999999999999
  0
LINE
  5
55
100
AcDbEntity
  8
1
  6
CONTINUOUS
 62
           7
100
AcDbLine
 10
5000.000000000002
 20
0.0
 11
2000.000000000003
 21
0.0
  0
LINE
  5
54
100
AcDbEntity
  8
1
  6
CONTINUOUS
 62
           4
100
AcDbLine
 10
2500.000000000003
 20
2040.0
 11
4500.000000000002
 21
2040.0
  0
LINE
  5
53
100
AcDbEntity
  8
1
  6
CONTINUOUS
 62
           4
100
AcDbLine
 10
1040.000000000001
 20
5999.999999999999
 11
1040.000000000001
 21
4020.0
  0
LINE
  5
52
100
AcDbEntity
  8
1
  6
CONTINUOUS
 62
           4
100
AcDbLine
 10
-1039.999999999999
 20
5999.999999999999
 11
-1039.999999999999
 21
4020.0
  0
LINE
  5
51
100
AcDbEntity
  8
1
  6
CONTINUOUS
 62
           7
100
AcDbLine
 10
2740.000000000002
 20
1862.0
 11
2740.000000000002
 21
1950.0
  0
LINE
  5
50
100
AcDbEntity
  8
1
  6
CONTINUOUS
 62
           7
100
AcDbLine
 10
2550.000000000002
 20
1862.0
 11
2740.000000000002
 21
1862.0
  0
LINE
  5
4F
100
AcDbEntity
  8
1
  6
CONTINUOUS
 62
           7
100
AcDbLine
 10
2550.000000000002
 20
1950.0
 11
2550.000000000002
 21
1862.0
  0
LINE
  5
4E
100
AcDbEntity
  8
1
  6
CONTINUOUS
 62
           7
100
AcDbLine
 10
2740.000000000002
 20
1950.0
 11
2550.000000000002
 21
1950.0
  0
LINE
  5
4D
100
AcDbEntity
  8
1
  6
CONTINUOUS
 62
           7
100
AcDbLine
 10
3230.000000000004
 20
1350.0
 11
3050.000000000004
 21
1350.0
  0
LINE
  5
4C
100
AcDbEntity
  8
1
  6
CONTINUOUS
 62
           7
100
AcDbLine
 10
3050.000000000004
 20
1589.999999999999
 11
3230.000000000004
 21
1589.999999999999
  0
LINE
  5
4B
100
AcDbEntity
  8
1
  6
CONTINUOUS
 62
           7
100
AcDbLine
 10
3050.000000000004
 20
1350.0
 11
3050.000000000004
 21
1589.999999999999
  0
LINE
  5
4A
100
AcDbEntity
  8
1
  6
CONTINUOUS
 62
           7
100
AcDbLine
 10
3230.000000000004
 20
1589.999999999999
 11
3230.000000000004
 21
1350.0
  0
LINE
  5
49
100
AcDbEntity
  8
1
  6
CONTINUOUS
 62
           7
100
AcDbLine
 10
-1049.999999999999
 20
2000.0
 11
-1049.999999999999
 21
0.0
  0
LINE
  5
48
100
AcDbEntity
  8
1
  6
CONTINUOUS
 62
           7
100
AcDbLine
 10
3500.000000000002
 20
2075.0
 11
4500.000000000002
 21
2075.0
  0
LINE
  5
47
100
AcDbEntity
  8
1
  6
DOT_CENTER
 62
           2
100
AcDbLine
 10
0.000000000001
 20
4999.999999999999
 11
0.0
 21
3874.680676247669
  0
LINE
  5
46
100
AcDbEntity
  8
1
  6
CONTINUOUS
 62
           4
100
AcDbLine
 10
-1049.999999999999
 20
4020.0
 11
1050.000000000001
 21
4020.0
  0
LINE
  5
45
100
AcDbEntity
  8
1
  6
CONTINUOUS
 62
           7
100
AcDbLine
 10
2902.000000000005
 20
1219.750000000002
 11
2979.999999999998
 21
1219.750000000002
  0
LINE
  5
44
100
AcDbEntity
  8
1
  6
CONTINUOUS
 62
           7
100
AcDbLine
 10
2902.000000000004
 20
1239.750000000001
 11
2980.0
 21
1239.750000000002
  0
LINE
  5
43
100
AcDbEntity
  8
1
  6
CONTINUOUS
 62
           7
100
AcDbLine
 10
2865.000000000004
 20
1270.000000000002
 11
2865.000000000004
 21
1256.750000000002
  0
LINE
  5
42
100
AcDbEntity
  8
1
  6
CONTINUOUS
 62
           7
100
AcDbLine
 10
2862.500000000004
 20
1270.000000000002
 11
2887.500000000004
 21
1270.000000000002
  0
LINE
  5
41
100
AcDbEntity
  8
1
  6
CONTINUOUS
 62
           7
100
AcDbLine
 10
2887.500000000004
 20
1300.000000000002
 11
2887.500000000004
 21
1270.000000000002
  0
LINE
  5
40
100
AcDbEntity
  8
1
  6
CONTINUOUS
 62
           7
100
AcDbLine
 10
2862.500000000004
 20
1300.000000000002
 11
2862.500000000004
 21
1270.000000000002
  0
LINE
  5
3F
100
AcDbEntity
  8
1
  6
CONTINUOUS
 62
           7
100
AcDbLine
 10
2885.000000000004
 20
1256.750000000002
 11
2885.000000000004
 21
1270.000000000002
  0
LINE
  5
3E
100
AcDbEntity
  8
1
  6
CONTINUOUS
 62
           7
100
AcDbLine
 10
2750.000000000004
 20
1700.000000000002
 11
2950.000000000004
 21
1700.000000000002
  0
LINE
  5
3D
100
AcDbEntity
  8
1
  6
CONTINUOUS
 62
           7
100
AcDbLine
 10
2950.000000000004
 20
1700.000000000002
 11
2950.000000000004
 21
1300.000000000002
  0
LINE
  5
3C
100
AcDbEntity
  8
1
  6
CONTINUOUS
 62
           7
100
AcDbLine
 10
2950.000000000004
 20
1300.000000000002
 11
2750.000000000004
 21
1300.000000000002
  0
LINE
  5
3B
100
AcDbEntity
  8
1
  6
CONTINUOUS
 62
           7
100
AcDbLine
 10
2750.000000000004
 20
1300.000000000002
 11
2750.000000000004
 21
1700.000000000002
  0
LINE
  5
3A
100
AcDbEntity
  8
1
  6
CONTINUOUS
 62
           4
100
AcDbLine
 10
2950.000000000004
 20
1300.000000000002
 11
2980.000000000002
 21
1300.000000000002
  0
LINE
  5
39
100
AcDbEntity
  8
1
  6
CONTINUOUS
 62
           7
100
AcDbLine
 10
1050.000000000001
 20
1700.000000000002
 11
1210.000000000001
 21
1700.000000000002
  0
LINE
  5
38
100
AcDbEntity
  8
1
  6
CONTINUOUS
 62
           7
100
AcDbLine
 10
1210.000000000001
 20
1700.000000000002
 11
1210.000000000001
 21
1300.000000000002
  0
LINE
  5
37
100
AcDbEntity
  8
1
  6
CONTINUOUS
 62
           7
100
AcDbLine
 10
1210.000000000001
 20
1300.000000000002
 11
1050.000000000001
 21
1300.000000000002
  0
LINE
  5
36
100
AcDbEntity
  8
1
  6
CONTINUOUS
 62
           7
100
AcDbLine
 10
1050.000000000001
 20
4450.0
 11
1210.000000000001
 21
4450.0
  0
LINE
  5
35
100
AcDbEntity
  8
1
  6
CONTINUOUS
 62
           7
100
AcDbLine
 10
1210.000000000001
 20
4450.0
 11
1210.000000000001
 21
4250.0
  0
LINE
  5
34
100
AcDbEntity
  8
1
  6
CONTINUOUS
 62
           7
100
AcDbLine
 10
1210.000000000001
 20
4250.0
 11
1050.000000000001
 21
4250.0
  0
LINE
  5
33
100
AcDbEntity
  8
1
  6
CONTINUOUS
 62
           7
100
AcDbLine
 10
1000.000000000001
 20
1763.744569986043
 11
-999.999999999999
 21
1763.744569986043
  0
LINE
  5
32
100
AcDbEntity
  8
1
  6
CONTINUOUS
 62
           7
100
AcDbLine
 10
3050.000000000004
 20
1639.999999999999
 11
3230.000000000005
 21
1639.999999999999
  0
LINE
  5
31
100
AcDbEntity
  8
1
  6
CONTINUOUS
 62
           7
100
AcDbLine
 10
3230.000000000005
 20
1639.999999999999
 11
3230.000000000005
 21
1753.0
  0
LINE
  5
30
100
AcDbEntity
  8
1
  6
CONTINUOUS
 62
           7
100
AcDbLine
 10
3230.000000000005
 20
1753.0
 11
3050.000000000004
 21
1752.999999999999
  0
LINE
  5
2F
100
AcDbEntity
  8
1
  6
CONTINUOUS
 62
           7
100
AcDbLine
 10
3050.000000000004
 20
1752.999999999999
 11
3050.000000000004
 21
1639.999999999999
  0
LINE
  5
2E
100
AcDbEntity
  8
1
  6
CONTINUOUS
 62
           7
100
AcDbLine
 10
2520.000000000005
 20
2150.0
 11
2500.000000000004
 21
2150.0
  0
POINT
  5
2D
100
AcDbEntity
  8
0
 62
           3
100
AcDbPoint
 10
3333.399996721739
 20
1365.000000000117
  0
ENDSEC
  0
SECTION
  2
OBJECTS
  0
DICTIONARY
  5
19
100
AcDbDictionary
  3
ACAD_GROUP
350
1A
  3
ACAD_MLINESTYLE
350
1B
  0
DICTIONARY
  5
1A
102
{ACAD_REACTORS
330
19
102
}
100
AcDbDictionary
  0
DICTIONARY
  5
1B
102
{ACAD_REACTORS
330
19
102
}
100
AcDbDictionary
  3
STANDARD
350
1C
  0
MLINESTYLE
  5
1C
102
{ACAD_REACTORS
330
1B
102
}
100
AcDbMlineStyle
  2
STANDARD
 70
           0
  3

 62
           0
 51
90.0
 52
90.0
 71
           2
 49
0.5
 62
         256
  6
BYLAYER
 49
-0.5
 62
         256
  6
BYLAYER
  0
ENDSEC
  0
EOF
