  0
SECTION
  2
HEADER
  9
$ACADVER
  1
AC1014
  9
$ACADMAINTVER
 70
           0
  9
$DWGCODEPAGE
  3
DOS932
  9
$INSBASE
 10
0.0
 20
0.0
 30
0.0
  9
$EXTMIN
 10
1.000000000000E+20
 20
1.000000000000E+20
 30
1.000000000000E+20
  9
$EXTMAX
 10
-1.000000000000E+20
 20
-1.000000000000E+20
 30
-1.000000000000E+20
  9
$LIMMIN
 10
0.0
 20
0.0
  9
$LIMMAX
 10
0.0
 20
0.0
  9
$ORTHOMODE
 70
           0
  9
$REGENMODE
 70
           1
  9
$FILLMODE
 70
           1
  9
$QTEXTMODE
 70
           0
  9
$MIRRTEXT
 70
           1
  9
$DRAGMODE
 70
           2
  9
$LTSCALE
 40
1.0
  9
$OSMODE
 70
           0
  9
$ATTMODE
 70
           1
  9
$TEXTSIZE
 40
0.2
  9
$TRACEWID
 40
0.05
  9
$TEXTSTYLE
  7
STANDARD
  9
$CLAYER
  8
0
  9
$CELTYPE
  6
CONTINUOUS
  9
$CECOLOR
 62
         256
  9
$CELTSCALE
 40
1.0
  9
$DELOBJ
 70
           1
  9
$DISPSILH
 70
           0
  9
$DIMSCALE
 40
1.0
  9
$DIMASZ
 40
0.18
  9
$DIMEXO
 40
0.0625
  9
$DIMDLI
 40
0.38
  9
$DIMRND
 40
0.0
  9
$DIMDLE
 40
0.0
  9
$DIMEXE
 40
0.18
  9
$DIMTP
 40
0.0
  9
$DIMTM
 40
0.0
  9
$DIMTXT
 40
0.18
  9
$DIMCEN
 40
0.09
  9
$DIMTSZ
 40
0.0
  9
$DIMTOL
 70
           0
  9
$DIMLIM
 70
           0
  9
$DIMTIH
 70
           1
  9
$DIMTOH
 70
           1
  9
$DIMSE1
 70
           0
  9
$DIMSE2
 70
           0
  9
$DIMTAD
 70
           0
  9
$DIMZIN
 70
           0
  9
$DIMBLK
  1

  9
$DIMASO
 70
           1
  9
$DIMSHO
 70
           1
  9
$DIMPOST
  1

  9
$DIMAPOST
  1

  9
$DIMALT
 70
           0
  9
$DIMALTD
 70
           2
  9
$DIMALTF
 40
25.4
  9
$DIMLFAC
 40
1.0
  9
$DIMTOFL
 70
           0
  9
$DIMTVP
 40
0.0
  9
$DIMTIX
 70
           0
  9
$DIMSOXD
 70
           0
  9
$DIMSAH
 70
           0
  9
$DIMBLK1
  1

  9
$DIMBLK2
  1

  9
$DIMSTYLE
  2
STANDARD
  9
$DIMCLRD
 70
           0
  9
$DIMCLRE
 70
           0
  9
$DIMCLRT
 70
           0
  9
$DIMTFAC
 40
1.0
  9
$DIMGAP
 40
0.09
  9
$DIMJUST
 70
           0
  9
$DIMSD1
 70
           0
  9
$DIMSD2
 70
           0
  9
$DIMTOLJ
 70
           1
  9
$DIMTZIN
 70
           0
  9
$DIMALTZ
 70
           0
  9
$DIMALTTZ
 70
           0
  9
$DIMFIT
 70
           3
  9
$DIMUPT
 70
           0
  9
$DIMUNIT
 70
           2
  9
$DIMDEC
 70
           4
  9
$DIMTDEC
 70
           4
  9
$DIMALTU
 70
           2
  9
$DIMALTTD
 70
           2
  9
$DIMTXSTY
  7
STANDARD
  9
$DIMAUNIT
 70
           0
  9
$LUNITS
 70
           2
  9
$LUPREC
 70
           4
  9
$SKETCHINC
 40
0.1
  9
$FILLETRAD
 40
0.0
  9
$AUNITS
 70
           0
  9
$AUPREC
 70
           0
  9
$MENU
  1
acad
  9
$ELEVATION
 40
0.0
  9
$PELEVATION
 40
0.0
  9
$THICKNESS
 40
0.0
  9
$LIMCHECK
 70
           0
  9
$BLIPMODE
 70
           1
  9
$CHAMFERA
 40
0.0
  9
$CHAMFERB
 40
0.0
  9
$CHAMFERC
 40
0.0
  9
$CHAMFERD
 40
0.0
  9
$SKPOLY
 70
           0
  9
$TDCREATE
 40
0.000000000
  9
$TDUPDATE
 40
0.000000000
  9
$TDINDWG
 40
0.0000000000
  9
$TDUSRTIMER
 40
0.0000000000
  9
$USRTIMER
 70
           1
  9
$ANGBASE
 50
0.0
  9
$ANGDIR
 70
           0
  9
$PDMODE
 70
           0
  9
$PDSIZE
 40
0.0
  9
$PLINEWID
 40
0.0
  9
$COORDS
 70
           0
  9
$SPLFRAME
 70
           0
  9
$SPLINETYPE
 70
           6
  9
$SPLINESEGS
 70
           8
  9
$ATTDIA
 70
           0
  9
$ATTREQ
 70
           1
  9
$HANDLING
 70
           1
  9
$HANDSEED
  5
3AE
  9
$SURFTAB1
 70
           6
  9
$SURFTAB2
 70
           6
  9
$SURFTYPE
 70
           6
  9
$SURFU
 70
           6
  9
$SURFV
 70
           6
  9
$UCSNAME
  2

  9
$UCSORG
 10
0.0
 20
0.0
 30
0.0
  9
$UCSXDIR
 10
1.0
 20
0.0
 30
0.0
  9
$UCSYDIR
 10
0.0
 20
1.0
 30
0.0
  9
$PUCSNAME
  2

  9
$PUCSORG
 10
0.0
 20
0.0
 30
0.0
  9
$PUCSXDIR
 10
1.0
 20
0.0
 30
0.0
  9
$PUCSYDIR
 10
0.0
 20
1.0
 30
0.0
  9
$USERI1
 70
           0
  9
$USERI2
 70
           0
  9
$USERI3
 70
           0
  9
$USERI4
 70
           0
  9
$USERI5
 70
           0
  9
$USERR1
 40
0.0
  9
$USERR2
 40
0.0
  9
$USERR3
 40
0.0
  9
$USERR4
 40
0.0
  9
$USERR5
 40
0.0
  9
$WORLDVIEW
 70
           1
  9
$SHADEDGE
 70
           3
  9
$SHADEDIF
 70
          70
  9
$TILEMODE
 70
           1
  9
$MAXACTVP
 70
          16
  9
$PINSBASE
 10
0.0
 20
0.0
 30
0.0
  9
$PLIMCHECK
 70
           0
  9
$PEXTMIN
 10
1.000000000000E+20
 20
1.000000000000E+20
 30
1.000000000000E+20
  9
$PEXTMAX
 10
-1.000000000000E+20
 20
-1.000000000000E+20
 30
-1.000000000000E+20
  9
$PLIMMIN
 10
0.0
 20
0.0
  9
$PLIMMAX
 10
12.0
 20
9.0
  9
$UNITMODE
 70
           0
  9
$VISRETAIN
 70
           0
  9
$PLINEGEN
 70
           1
  9
$PSLTSCALE
 70
           0
  9
$TREEDEPTH
 70
        3020
  9
$PICKSTYLE
 70
           1
  9
$CMLSTYLE
  2
STANDARD
  9
$CMLJUST
 70
           0
  9
$CMLSCALE
 40
1.0
  9
$PROXYGRAPHICS
 70
           0
  9
$MEASUREMENT
 70
           0
  0
ENDSEC
  0
SECTION
  2
CLASSES
  0
CLASS
  1
LWPOLYLINE
  2
AcDbPolyline
  3
"AutoCAD"
 90
        0
280
           0
281
           1
  0
CLASS
  1
IMAGE
  2
AcDbRasterImage
  3
ISM
 90
      127
280
           0
281
           1
  0
CLASS
  1
OLE2FRAME
  2
AcDbOle2Frame
  3
""
 90
        0
280
           0
281
           1
  0
CLASS
  1
HATCH
  2
AcDbHatch
  3
"ACAD_SEDONA"
 90
        0
280
           0
281
           1
  0
CLASS
  1
DICTIONARYVAR
  2
AcDbDictionaryVar
  3
"AutoCAD"
 90
        0
280
           0
281
           0
  0
CLASS
  1
RASTERVARIABLES
  2
AcDbRasterVariables
  3
ISM
 90
        0
280
           0
281
           0
  0
CLASS
  1
IMAGEDEF
  2
AcDbRasterImageDef
  3
ISM
 90
        0
280
           0
281
           0
  0
CLASS
  1
IMAGEDEF_REACTOR
  2
AcDbRasterImageDefReactor
  3
ISM
 90
        1
280
           0
281
           0
  0
CLASS
  1
IDBUFFER
  2
AcDbIdBuffer
  3
"Acad"
 90
        0
280
           0
281
           0
  0
CLASS
  1
SPATIAL_FILTER
  2
AcDbSpatialFilter
  3
"Acad"
 90
        0
280
           0
281
           0
  0
CLASS
  1
XRECORD
  2
AcDbXrecord
  3
"<Built In>"
 90
        0
280
           0
281
           0
  0
CLASS
  1
SORTENTSTABLE
  2
AcDbSortentsTable
  3
"AutoCAD"
 90
        0
280
           0
281
           0
  0
CLASS
  1
LAYER_INDEX
  2
AcDbLayerIndex
  3
"Acad"
 90
        0
280
           0
281
           0
  0
CLASS
  1
SPATIAL_INDEX
  2
AcDbSpatialIndex
  3
"Acad"
 90
        0
280
           0
281
           0
  0
CLASS
  1
OBJECT_PTR
  2
CAseDLPNTableRecord
  3
"ASE-LPNTableRecord"
 90
        1
280
           0
281
           0
  0
CLASS
  1
LAYOUT
  2
AcDbLayout
  3
"AutoCAD 2000"
 90
        1
280
           0
281
           0
  0
CLASS
  1
PLOTSETTINGS
  2
AcDbPlotSettings
  3
"AutoCAD 2000"
 90
        1
280
           0
281
           0
  0
CLASS
  1
ACDBDICTIONARYWDFLT
  2
AcDbDictionaryWithDefault
  3
"AutoCAD 2000"
 90
        1
280
           0
281
           0
  0
CLASS
  1
ACDBPLACEHOLDER
  2
AcDbPlaceHolder
  3
"AutoCAD 2000"
 90
        1
280
           0
281
           0
  0
CLASS
  1
VBA_PROJECT
  2
AcDbVbaProject
  3
"acadvba"
 90
        1
280
           0
281
           0
  0
CLASS
  1
WIPEOUT
  2
AcDbWipeout
  3
WipeOut|AutoCAD Express Tool|expresstools@autodesk.com
 90
      127
280
           0
281
           1
  0
CLASS
  1
WIPEOUTVARIABLES
  2
AcDbWipeoutVariables
  3
WipeOut|AutoCAD Express Tool|expresstools@autodesk.com
 90
        0
280
           0
281
           0
  0
CLASS
  1
RTEXT
  2
RText
  3
RText|AutoCAD Express Tool|expresstools@autodesk.com
 90
        0
280
           0
281
           1
  0
CLASS
  1
ARCALIGNEDTEXT
  2
AcDbArcAlignedText
  3
ATEXT|AutoCAD Express Tool|expresstools@autodesk.com
 90
        0
280
           0
281
           1
  0
ENDSEC
  0
SECTION
  2
TABLES
  0
TABLE
  2
VPORT
  5
7
100
AcDbSymbolTable
 70
           1
  0
VPORT
  5
15
100
AcDbSymbolTableRecord
100
AcDbViewportTableRecord
  2
*ACTIVE
 70
           0
 10
0.0
 20
0.0
 11
1.0
 21
1.0
 12
6.591288
 22
4.579184
 13
0.0
 23
0.0
 14
1.0
 24
1.0
 15
0.0
 25
0.0
 16
0.0
 26
0.0
 36
1.0
 17
0.0
 27
0.0
 37
0.0
 40
9.158369
 41
0.688564
 42
50.0
 43
0.0
 44
0.0
 50
0.0
 51
0.0
 71
           0
 72
         100
 73
           1
 74
           1
 75
           0
 76
           0
 77
           0
 78
           0
  0
ENDTAB
  0
TABLE
  2
LTYPE
  5
4
100
AcDbSymbolTable
 70
          10
  0
LTYPE
  5
11
100
AcDbSymbolTableRecord
100
AcDbLinetypeTableRecord
  2
BYBLOCK
 70
          64
  3

 72
          65
 73
           0
 40
0.0
  0
LTYPE
  5
12
100
AcDbSymbolTableRecord
100
AcDbLinetypeTableRecord
  2
BYLAYER
 70
          64
  3

 72
          65
 73
           0
 40
0.0
  0
LTYPE
  5
13
100
AcDbSymbolTableRecord
100
AcDbLinetypeTableRecord
  2
CONTINUOUS
 70
          64
  3
Solid line
 72
          65
 73
           0
 40
0.0
  0
LTYPE
  5
1D
100
AcDbSymbolTableRecord
100
AcDbLinetypeTableRecord
  2
DASHED
 70
          64
  3
Dashed
 72
          65
 73
           2
 40
15.0
 49
12.0
 74
           0
 49
-3.0
 74
           0
  0
LTYPE
  5
1E
100
AcDbSymbolTableRecord
100
AcDbLinetypeTableRecord
  2
DOTTED
 70
          64
  3
Dotted
 72
          65
 73
           2
 40
3.5
 49
0.5
 74
           0
 49
-3.0
 74
           0
  0
LTYPE
  5
1F
100
AcDbSymbolTableRecord
100
AcDbLinetypeTableRecord
  2
DOT_CENTER
 70
          64
  3
Dot_Center
 72
          65
 73
           4
 40
2.0
 49
1.25
 74
           0
 49
-0.25
 74
           0
 49
0.25
 74
           0
 49
-0.25
 74
           0
  0
LTYPE
  5
20
100
AcDbSymbolTableRecord
100
AcDbLinetypeTableRecord
  2
LONG_DASHED
 70
          64
  3
Long_Dashed
 72
          65
 73
           2
 40
2.0
 49
1.5
 74
           0
 49
-0.5
 74
           0
  0
LTYPE
  5
21
100
AcDbSymbolTableRecord
100
AcDbLinetypeTableRecord
  2
DASH_CENTER
 70
          64
  3
Dash_Center
 72
          65
 73
           4
 40
36.0
 49
24.0
 74
           0
 49
-3.0
 74
           0
 49
6.0
 74
           0
 49
-3.0
 74
           0
  0
LTYPE
  5
22
100
AcDbSymbolTableRecord
100
AcDbLinetypeTableRecord
  2
PHANTOM
 70
          64
  3
Phantom
 72
          65
 73
           6
 40
2.5
 49
1.25
 74
           0
 49
-0.25
 74
           0
 49
0.25
 74
           0
 49
-0.25
 74
           0
 49
0.25
 74
           0
 49
-0.25
 74
           0
  0
LTYPE
  5
23
100
AcDbSymbolTableRecord
100
AcDbLinetypeTableRecord
  2
CENTER_DASH_DASH
 70
          64
  3
Center_Dash_Dash
 72
          65
 73
           6
 40
22.0
 49
12.0
 74
           0
 49
-3.0
 74
           0
 49
0.5
 74
           0
 49
-3.0
 74
           0
 49
0.5
 74
           0
 49
-3.0
 74
           0
  0
ENDTAB
  0
TABLE
  2
LAYER
  5
2
100
AcDbSymbolTable
 70
           7
  0
LAYER
  5
14
100
AcDbSymbolTableRecord
100
AcDbLayerTableRecord
  2
0
 70
           0
 62
           7
  6
CONTINUOUS
  0
LAYER
  5
24
100
AcDbSymbolTableRecord
100
AcDbLayerTableRecord
  2
___S__
 70
           0
 62
           7
  6
CONTINUOUS
  0
LAYER
  5
25
100
AcDbSymbolTableRecord
100
AcDbLayerTableRecord
  2
FORMAT
 70
           0
 62
           7
  6
CONTINUOUS
  0
LAYER
  5
26
100
AcDbSymbolTableRecord
100
AcDbLayerTableRecord
  2
1
 70
           0
 62
           7
  6
CONTINUOUS
  0
LAYER
  5
27
100
AcDbSymbolTableRecord
100
AcDbLayerTableRecord
  2
2
 70
           0
 62
           7
  6
CONTINUOUS
  0
LAYER
  5
28
100
AcDbSymbolTableRecord
100
AcDbLayerTableRecord
  2
7
 70
           0
 62
           7
  6
CONTINUOUS
  0
LAYER
  5
29
100
AcDbSymbolTableRecord
100
AcDbLayerTableRecord
  2
____
 70
           0
 62
           7
  6
CONTINUOUS
  0
ENDTAB
  0
TABLE
  2
STYLE
  5
3
100
AcDbSymbolTable
 70
           1
  0
STYLE
  5
17
100
AcDbSymbolTableRecord
100
AcDbTextStyleTableRecord
  2
STANDARD
 70
           0
 40
0.0
 41
1.0
 50
0.0
 71
           0
 42
0.0
  3
txt
  4

  0
ENDTAB
  0
TABLE
  2
VIEW
  5
5
100
AcDbSymbolTable
 70
           0
  0
ENDTAB
  0
TABLE
  2
UCS
  5
6
100
AcDbSymbolTable
 70
           0
  0
ENDTAB
  0
TABLE
  2
APPID
  5
8
100
AcDbSymbolTable
 70
           1
  0
APPID
  5
16
100
AcDbSymbolTableRecord
100
AcDbRegAppTableRecord
  2
ACAD
 70
           0
  0
ENDTAB
  0
TABLE
  2
DIMSTYLE
  5
9
100
AcDbSymbolTable
 70
           1
  0
DIMSTYLE
105
18
100
AcDbSymbolTableRecord
100
AcDbDimStyleTableRecord
  2
STANDARD
 70
           0
  3

  4

  5

  6

  7

 40
1.0
 41
0.18
 42
0.0625
 43
0.38
 44
0.18
 45
0.0
 46
0.0
 47
0.0
 48
0.0
 71
           0
 72
           0
 73
           1
 74
           1
 75
           0
 76
           0
 77
           0
 78
           0
140
0.18
141
0.09
142
0.0
143
25.4
144
1.0
145
0.0
146
1.0
147
0.09
170
           0
171
           2
172
           0
173
           0
174
           0
175
           0
176
           0
177
           0
178
           0
270
           2
271
           4
272
           4
273
           2
274
           2
275
           0
280
           0
281
           0
282
           0
283
           1
284
           0
285
           0
286
           0
287
           0
288
           0
340
17
  0
ENDTAB
  0
TABLE
  2
BLOCK_RECORD
  5
1
100
AcDbSymbolTable
 70
           0
  0
BLOCK_RECORD
  5
A
100
AcDbSymbolTableRecord
100
AcDbBlockTableRecord
  2
*MODEL_SPACE
  0
BLOCK_RECORD
  5
B
100
AcDbSymbolTableRecord
100
AcDbBlockTableRecord
  2
*PAPER_SPACE
  0
ENDTAB
  0
ENDSEC
  0
SECTION
  2
BLOCKS
  0
BLOCK
  5
D
100
AcDbEntity
  8
0
100
AcDbBlockBegin
  2
*MODEL_SPACE
 70
           0
 10
0.0
 20
0.0
 30
0.0
  3
*MODEL_SPACE
  1

  0
ENDBLK
  5
E
100
AcDbEntity
  8
0
100
AcDbBlockEnd
  0
BLOCK
  5
F
100
AcDbEntity
 67
           1
  8
0
100
AcDbBlockBegin
  2
*PAPER_SPACE
 70
           0
 10
0.0
 20
0.0
 30
0.0
  3
*PAPER_SPACE
  1

  0
ENDBLK
  5
10
100
AcDbEntity
 67
           1
  8
0
100
AcDbBlockEnd
  0
ENDSEC
  0
SECTION
  2
ENTITIES
  0
HATCH
  5
3AC
100
AcDbEntity
  8
0
  6
CONTINUOUS
 62
           2
100
AcDbHatch
 10
0.0
 20
0.0
 30
0.0
210
0.0
220
0.0
230
1.0
  2
USER
 70
           0
 71
           1
 91
        1
 92
        1
 93
        8
 72
           1
 10
3230.0000000000041
 20
1219.750000000002
 11
3230.0000000000041
 21
1239.750000000002
 72
           1
 10
3152.0000000000041
 20
1219.750000000002
 11
3230.0000000000041
 21
1219.750000000002
 72
           2
 10
3152.0000000000041
 20
1256.750000000002
 40
37.0
 50
180.0
 51
-90.0
 73
           1
 72
           1
 10
3115.0000000000041
 20
1270.000000000002
 11
3115.0000000000041
 21
1256.750000000002
 72
           1
 10
3135.0000000000041
 20
1256.750000000002
 11
3135.0000000000041
 21
1270.000000000002
 72
           1
 10
3135.0000000000041
 20
1270.000000000002
 11
3115.0000000000041
 21
1270.000000000002
 72
           2
 10
3152.0000000000041
 20
1256.750000000002
 40
17.0
 50
180.0
 51
-90.0
 73
           1
 72
           1
 10
3152.0000000000041
 20
1239.750000000002
 11
3230.0000000000041
 21
1239.750000000002
 97
        7
330
395
330
329
330
367
330
327
330
394
330
368
330
328
 75
           1
 76
           0
 52
45.0
 41
10.0
 77
           0
 78
           1
 53
45.0
 43
0.0
 44
0.0
 45
-7.0710678118654746
 46
7.0710678118654755
 79
           0
 98
        1
 10
0.0
 20
0.0
  0
ARC
  5
3AB
100
AcDbEntity
  8
1
  6
CONTINUOUS
 62
           4
100
AcDbCircle
 10
117.908702762048
 20
5585.5
 40
12.0
100
AcDbArc
 50
90.0
 51
120.430594205707
  0
ARC
  5
3AA
100
AcDbEntity
  8
1
  6
CONTINUOUS
 62
           4
100
AcDbCircle
 10
117.908702762048
 20
5494.5
 40
12.000000000002
100
AcDbArc
 50
-120.4305942057
 51
-90.0
  0
ARC
  5
3A9
100
AcDbEntity
  8
1
  6
CONTINUOUS
 62
           7
100
AcDbCircle
 10
144.824966598198
 20
5488.5
 40
12.0
100
AcDbArc
 50
180.0
 51
-90.0
  0
ARC
  5
3A8
100
AcDbEntity
  8
1
  6
CONTINUOUS
 62
           7
100
AcDbCircle
 10
144.824966598198
 20
5591.5
 40
12.0
100
AcDbArc
 50
90.0
 51
180.0
  0
ARC
  5
3A7
100
AcDbEntity
  8
1
  6
CONTINUOUS
 62
           7
100
AcDbCircle
 10
185.000000000002
 20
5488.5
 40
12.0
100
AcDbArc
 50
-90.0
 51
0.0
  0
ARC
  5
3A6
100
AcDbEntity
  8
1
  6
CONTINUOUS
 62
           7
100
AcDbCircle
 10
185.000000000002
 20
5591.5
 40
12.0
100
AcDbArc
 50
0.0
 51
90.0
  0
ARC
  5
3A5
100
AcDbEntity
  8
1
  6
CONTINUOUS
 62
           7
100
AcDbCircle
 10
185.000000000001
 20
2788.3
 40
12.0
100
AcDbArc
 50
0.0
 51
90.0
  0
ARC
  5
3A4
100
AcDbEntity
  8
1
  6
CONTINUOUS
 62
           7
100
AcDbCircle
 10
185.000000000001
 20
2712.299999999999
 40
12.0
100
AcDbArc
 50
-90.0
 51
0.0
  0
ARC
  5
3A3
100
AcDbEntity
  8
1
  6
CONTINUOUS
 62
           7
100
AcDbCircle
 10
134.4963968
 20
2788.3
 40
11.999999999999
100
AcDbArc
 50
90.000000000001
 51
180.0
  0
ARC
  5
3A2
100
AcDbEntity
  8
1
  6
CONTINUOUS
 62
           7
100
AcDbCircle
 10
134.4963968
 20
2712.299999999999
 40
12.0
100
AcDbArc
 50
180.0
 51
-90.000000000001
  0
ARC
  5
3A1
100
AcDbEntity
  8
1
  6
CONTINUOUS
 62
           7
100
AcDbCircle
 10
4238.500000000002
 20
2712.3
 40
12.0
100
AcDbArc
 50
180.0
 51
-90.0
  0
ARC
  5
3A0
100
AcDbEntity
  8
1
  6
CONTINUOUS
 62
           7
100
AcDbCircle
 10
4238.500000000002
 20
2788.3
 40
12.0
100
AcDbArc
 50
90.0
 51
180.0
  0
ARC
  5
39F
100
AcDbEntity
  8
1
  6
CONTINUOUS
 62
           7
100
AcDbCircle
 10
4341.500000000002
 20
2712.3
 40
12.0
100
AcDbArc
 50
-90.0
 51
0.0
  0
ARC
  5
39E
100
AcDbEntity
  8
1
  6
CONTINUOUS
 62
           7
100
AcDbCircle
 10
4341.500000000002
 20
2788.3
 40
12.0
100
AcDbArc
 50
0.0
 51
90.0
  0
ARC
  5
39D
100
AcDbEntity
  8
1
  6
CONTINUOUS
 62
           4
100
AcDbCircle
 10
4805.500000000002
 20
2610.500000000003
 40
1.0
100
AcDbArc
 50
180.0
 51
-90.0
  0
ARC
  5
39C
100
AcDbEntity
  8
1
  6
CONTINUOUS
 62
           4
100
AcDbCircle
 10
4794.500000000002
 20
2610.500000000003
 40
1.0
100
AcDbArc
 50
-90.0
 51
0.0
  0
ARC
  5
39B
100
AcDbEntity
  8
1
  6
CONTINUOUS
 62
           4
100
AcDbCircle
 10
4805.500000000002
 20
2159.500000000002
 40
1.0
100
AcDbArc
 50
90.0
 51
180.0
  0
ARC
  5
39A
100
AcDbEntity
  8
1
  6
CONTINUOUS
 62
           4
100
AcDbCircle
 10
4794.500000000002
 20
2159.500000000002
 40
1.0
100
AcDbArc
 50
0.0
 51
90.0
  0
ARC
  5
399
100
AcDbEntity
  8
1
  6
CONTINUOUS
 62
           3
100
AcDbCircle
 10
3999.899996810936
 20
1641.000000000001
 40
288.0
100
AcDbArc
 50
90.0
 51
180.0
  0
ARC
  5
398
100
AcDbEntity
  8
1
  6
CONTINUOUS
 62
           3
100
AcDbCircle
 10
3999.899998122329
 20
1641.000000000001
 40
280.000000000001
100
AcDbArc
 50
90.0
 51
180.0
  0
ARC
  5
397
100
AcDbEntity
  8
1
  6
CONTINUOUS
 62
           3
100
AcDbCircle
 10
4148.163567691046
 20
1932.193746580041
 40
0.5
100
AcDbArc
 50
90.0
 51
180.0
  0
ARC
  5
396
100
AcDbEntity
  8
1
  6
CONTINUOUS
 62
           3
100
AcDbCircle
 10
4148.163567691046
 20
1917.806253419961
 40
0.5
100
AcDbArc
 50
180.0
 51
-90.0
  0
LWPOLYLINE
  5
395
100
AcDbEntity
  8
1
  6
CONTINUOUS
 62
           7
 60
           1
100
AcDbPolyline
 90
        2
 70
           0
 10
3230.000000000004
 20
1219.750000000002
 10
3230.000000000004
 20
1239.750000000002
  0
LWPOLYLINE
  5
394
100
AcDbEntity
  8
1
  6
CONTINUOUS
 62
           7
 60
           1
100
AcDbPolyline
 90
        3
 70
           0
 10
3135.000000000004
 20
1256.750000000002
 10
3135.000000000004
 20
1270.000000000002
 10
3115.000000000004
 20
1270.000000000002
  0
SPLINE
  5
393
100
AcDbEntity
  8
0
  6
CONTINUOUS
 62
           3
100
AcDbSpline
210
0.0
220
0.0
230
1.0
 70
           0
 71
           3
 72
           8
 73
           5
 74
           7
 42
0.00000000001
 43
0.00000000001
 44
0.00000000001
 40
0.0
 40
0.0
 40
0.0
 40
0.5558562714149418
 40
1.5343210643708129
 40
2.9385072682923976
 40
2.9385072682923976
 40
2.9385072682923976
 10
3665.8999967216791
 20
1359.999999404049
 30
0.0
 10
3665.9684298091479
 20
1359.999553710677
 30
0.0
 10
3666.9432526000278
 20
1359.9932048512139
 30
0.0
 10
3667.8985309047471
 20
1359.7653090218639
 30
0.0
 10
3668.7867481555058
 20
1359.553411603069
 30
0.0
 11
3665.8999967216791
 21
1359.999999404049
 31
0.0
 11
3666.0396116244096
 21
1359.9990901152985
 31
0.0
 11
3666.3215901576641
 21
1359.99725363579
 31
0.0
 11
3666.8859111712895
 21
1359.9708199944769
 31
0.0
 11
3667.3355493274407
 21
1359.8996166396912
 31
0.0
 11
3667.9798398231101
 21
1359.7459115716219
 31
0.0
 11
3668.7867481555058
 21
1359.553411603069
 31
0.0
  0
SPLINE
  5
392
100
AcDbEntity
  8
0
  6
CONTINUOUS
 62
           3
100
AcDbSpline
210
0.0
220
0.0
230
1.0
 70
           0
 71
           3
 72
           8
 73
           5
 74
           7
 42
0.00000000001
 43
0.00000000001
 44
0.00000000001
 40
0.0
 40
0.0
 40
0.0
 40
0.5558558490689957
 40
1.5343195422050351
 40
2.9385037456641103
 40
2.9385037456641103
 40
2.9385037456641103
 10
3665.8999967216791
 20
1355.000004172322
 30
0.0
 10
3665.8315636362959
 20
1355.0004498783021
 30
0.0
 10
3664.8567416872452
 20
1355.006798910669
 30
0.0
 10
3663.901462916268
 20
1355.234686929231
 30
0.0
 10
3663.0132452878479
 20
1355.4465770722429
 30
0.0
 11
3665.8999967216791
 21
1355.000004172322
 31
0.0
 11
3665.7603818762509
 21
1355.0009134863226
 31
0.0
 11
3665.4784035107314
 21
1355.0027500163633
 31
0.0
 11
3664.9140828960199
 21
1355.0291829422192
 31
0.0
 11
3664.4644446988568
 21
1355.1003839311759
 31
0.0
 11
3663.8201539548099
 21
1355.2540837154702
 31
0.0
 11
3663.0132452878479
 21
1355.4465770722429
 31
0.0
  0
SPLINE
  5
391
100
AcDbEntity
  8
0
  6
CONTINUOUS
 62
           3
100
AcDbSpline
210
0.0
220
0.0
230
1.0
 70
           0
 71
           3
 72
           8
 73
           5
 74
           7
 42
0.00000000001
 43
0.00000000001
 44
0.00000000001
 40
0.0
 40
0.0
 40
0.0
 40
0.2779452695532366
 40
0.7862805426566356
 40
1.5429573556196687
 40
1.5429573556196687
 40
1.5429573556196687
 10
3670.2301237560082
 20
1355.0000041724211
 30
0.0
 10
3670.1959072124778
 20
1355.00044987719
 30
0.0
 10
3669.7084969152761
 20
1355.006798884745
 30
0.0
 10
3669.2308572149868
 20
1355.234686928467
 30
0.0
 10
3668.7867481553671
 20
1355.446577072224
 30
0.0
 11
3670.2301237560082
 21
1355.0000041724211
 31
0.0
 11
3670.1613872230673
 21
1355.0008995346445
 31
0.0
 11
3670.0236107113069
 21
1355.0026942117761
 31
0.0
 11
3669.7392914141369
 21
1355.0286664762184
 31
0.0
 11
3669.516561114689
 21
1355.0983739236069
 31
0.0
 11
3669.1912559250072
 21
1355.253581213191
 31
0.0
 11
3668.7867481553671
 21
1355.446577072224
 31
0.0
  0
SPLINE
  5
390
100
AcDbEntity
  8
0
  6
CONTINUOUS
 62
           3
100
AcDbSpline
210
0.0
220
0.0
230
1.0
 70
           0
 71
           3
 72
           8
 73
           5
 74
           7
 42
0.00000000001
 43
0.00000000001
 44
0.00000000001
 40
0.0
 40
0.0
 40
0.0
 40
0.6787700534935511
 40
1.1891668948829501
 40
1.543112374345486
 40
1.543112374345486
 40
1.543112374345486
 10
3663.0132452878479
 20
1355.4465770722429
 30
0.0
 10
3662.6438214744071
 20
1355.262448371607
 30
0.0
 10
3662.1676820506259
 20
1355.025130336785
 30
0.0
 10
3661.6793238525888
 20
1355.0046045512611
 30
0.0
 10
3661.5698696873501
 20
1355.0000041724211
 30
0.0
 11
3663.0132452878479
 21
1355.4465770722429
 31
0.0
 11
3662.6682329736414
 21
1355.2746155830077
 31
0.0
 11
3662.3720436579033
 21
1355.1269885165739
 31
0.0
 11
3662.1466781919507
 21
1355.0475647466096
 31
0.0
 11
3661.879305008647
 21
1355.0130097962933
 31
0.0
 11
3661.7019556002938
 21
1355.0055557678093
 31
0.0
 11
3661.5698696873501
 21
1355.0000041724211
 31
0.0
  0
SPLINE
  5
38F
100
AcDbEntity
  8
0
  6
CONTINUOUS
 62
           3
100
AcDbSpline
210
0.0
220
0.0
230
1.0
 70
           0
 71
           3
 72
           8
 73
           5
 74
           7
 42
0.00000000001
 43
0.00000000001
 44
0.00000000001
 40
0.0
 40
0.0
 40
0.0
 40
0.3539460334942376
 40
0.8643414136594121
 40
1.5431068113988247
 40
1.5431068113988247
 40
1.5431068113988247
 10
3661.5698696873501
 20
1359.999999404049
 30
0.0
 10
3661.6793238424261
 20
1359.9953935078311
 30
0.0
 10
3662.1676816710478
 20
1359.97484311874
 30
0.0
 10
3662.6438213484498
 20
1359.7375336343539
 30
0.0
 10
3663.0132452879739
 20
1359.5534116030219
 30
0.0
 11
3661.5698696873501
 21
1359.999999404049
 31
0.0
 11
3661.7019556855844
 21
1359.9944411463553
 31
0.0
 11
3661.8793053701361
 21
1359.9869781657098
 31
0.0
 11
3662.1466781413915
 21
1359.9524131949258
 31
0.0
 11
3662.3720438533319
 21
1359.8729883765129
 31
0.0
 11
3662.668232959551
 21
1359.7253668120607
 31
0.0
 11
3663.0132452879739
 21
1359.5534116030219
 31
0.0
  0
SPLINE
  5
38E
100
AcDbEntity
  8
0
  6
CONTINUOUS
 62
           3
100
AcDbSpline
210
0.0
220
0.0
230
1.0
 70
           0
 71
           3
 72
           8
 73
           5
 74
           7
 42
0.00000000001
 43
0.00000000001
 44
0.00000000001
 40
0.0
 40
0.0
 40
0.0
 40
0.6415450374773541
 40
1.1579303686103857
 40
1.5357381749065262
 40
1.5357381749065262
 40
1.5357381749065262
 10
3661.5698696873501
 20
1355.0000041724211
 30
0.0
 10
3661.1795237086162
 20
1355.0576336938771
 30
0.0
 10
3660.6908846293641
 20
1355.129774916885
 30
0.0
 10
3660.2210119621182
 20
1355.393522448257
 30
0.0
 10
3660.1264938539762
 20
1355.446577072224
 30
0.0
 11
3661.5698696873501
 21
1355.0000041724211
 31
0.0
 11
3661.2094282457078
 21
1355.0532186768005
 31
0.0
 11
3660.9087958782475
 21
1355.0976031470263
 31
0.0
 11
3660.6775260473232
 21
1355.1598096979631
 31
0.0
 11
3660.4195390523182
 21
1355.2820858110558
 31
0.0
 11
3660.2470142076327
 21
1355.3789269449485
 31
0.0
 11
3660.1264938539762
 21
1355.446577072224
 31
0.0
  0
SPLINE
  5
38D
100
AcDbEntity
  8
0
  6
CONTINUOUS
 62
           3
100
AcDbSpline
210
0.0
220
0.0
230
1.0
 70
           0
 71
           3
 72
           8
 73
           5
 74
           7
 42
0.00000000001
 43
0.00000000001
 44
0.00000000001
 40
0.0
 40
0.0
 40
0.0
 40
0.3778155284981008
 40
0.8942062233972479
 40
1.5357514174681031
 40
1.5357514174681031
 40
1.5357514174681031
 10
3660.1264938539762
 20
1359.5534116030219
 30
0.0
 10
3660.2210118970379
 20
1359.6064716909059
 30
0.0
 10
3660.6908817949052
 20
1359.8702450113749
 30
0.0
 10
3661.1795227343068
 20
1359.9423771862
 30
0.0
 10
3661.5698696873501
 20
1359.999999404049
 30
0.0
 11
3660.1264938539762
 21
1359.5534116030219
 31
0.0
 11
3660.24701415441
 21
1359.6210687140283
 31
0.0
 11
3660.4195389695888
 21
1359.7179198712797
 31
0.0
 11
3660.6775244143319
 21
1359.8402057052372
 31
0.0
 11
3660.9087950979279
 21
1359.9024129269196
 31
0.0
 11
3661.2094275634727
 21
1359.9467916758422
 31
0.0
 11
3661.5698696873501
 21
1359.999999404049
 31
0.0
  0
SPLINE
  5
38C
100
AcDbEntity
  8
0
  6
CONTINUOUS
 62
           3
100
AcDbSpline
210
0.0
220
0.0
230
1.0
 70
           0
 71
           3
 72
           8
 73
           5
 74
           7
 42
0.00000000001
 43
0.00000000001
 44
0.00000000001
 40
0.0
 40
0.0
 40
0.0
 40
0.2779464854656138
 40
0.7862840844019443
 40
1.5429642659218064
 40
1.5429642659218064
 40
1.5429642659218064
 10
3670.2301237559682
 20
1359.9999994039219
 30
0.0
 10
3670.2643403053671
 20
1359.999553708677
 30
0.0
 10
3670.7517530244568
 20
1359.9932048044429
 30
0.0
 10
3671.2293915040041
 20
1359.765309020481
 30
0.0
 10
3671.6734995893689
 20
1359.5534116030219
 30
0.0
 11
3670.2301237559682
 21
1359.9999994039219
 31
0.0
 11
3670.2988605017504
 21
1359.9991040580453
 31
0.0
 11
3670.4366376402995
 21
1359.9973094109055
 31
0.0
 11
3670.7209580094759
 21
1359.9713364170616
 31
0.0
 11
3670.9436883486896
 21
1359.9016266484543
 31
0.0
 11
3671.2689927365168
 21
1359.7464140731097
 31
0.0
 11
3671.6734995893689
 21
1359.5534116030219
 31
0.0
  0
SPLINE
  5
38B
100
AcDbEntity
  8
0
  6
CONTINUOUS
 62
           3
100
AcDbSpline
210
0.0
220
0.0
230
1.0
 70
           0
 71
           3
 72
           8
 73
           5
 74
           7
 42
0.00000000001
 43
0.00000000001
 44
0.00000000001
 40
0.0
 40
0.0
 40
0.0
 40
1.2475591451559556
 40
2.225703708493409
 40
2.9354142011743907
 40
2.9354142011743907
 40
2.9354142011743907
 10
3665.8999967216791
 20
1364.9999946356729
 30
0.0
 10
3665.1443416651759
 20
1364.945893300094
 30
0.0
 10
3664.166903851657
 20
1364.875913365858
 30
0.0
 10
3663.2266018489581
 20
1364.613063043367
 30
0.0
 10
3663.0132452878479
 20
1364.553421735859
 30
0.0
 11
3665.8999967216791
 21
1364.9999946356729
 31
0.0
 11
3665.1962862228406
 21
1364.9496122852595
 31
0.0
 11
3664.5964648393319
 21
1364.9066679051771
 31
0.0
 11
3664.1380633113768
 21
1364.8455202926345
 31
0.0
 11
3663.6219807028619
 21
1364.7235865336461
 31
0.0
 11
3663.2721074221563
 21
1364.6257835890597
 31
0.0
 11
3663.0132452878479
 21
1364.553421735859
 31
0.0
  0
SPLINE
  5
38A
100
AcDbEntity
  8
0
  6
CONTINUOUS
 62
           3
100
AcDbSpline
210
0.0
220
0.0
230
1.0
 70
           0
 71
           3
 72
           8
 73
           5
 74
           7
 42
0.00000000001
 43
0.00000000001
 44
0.00000000001
 40
0.0
 40
0.0
 40
0.0
 40
1.2321288292602055
 40
2.2113508927677348
 40
2.9387184667228832
 40
2.9387184667228832
 40
2.9387184667228832
 10
3668.7867481555058
 20
1364.553421735859
 30
0.0
 10
3668.0674885010571
 20
1364.7336190184301
 30
0.0
 10
3667.1156260260968
 20
1364.972090661199
 30
0.0
 10
3666.1387194651602
 20
1364.9945149114551
 30
0.0
 10
3665.8999967216791
 20
1364.9999946356729
 30
0.0
 11
3668.7867481555058
 21
1364.553421735859
 31
0.0
 11
3668.1147128338703
 21
1364.7217878300812
 31
0.0
 11
3667.537126177861
 21
1364.8664915476056
 31
0.0
 11
3667.0808665470081
 21
1364.9489075788542
 31
0.0
 11
3666.5550879579782
 21
1364.9849574454138
 31
0.0
 11
3666.1831309024947
 21
1364.9934954759992
 31
0.0
 11
3665.8999967216791
 21
1364.9999946356729
 31
0.0
  0
SPLINE
  5
389
100
AcDbEntity
  8
0
  6
CONTINUOUS
 62
           3
100
AcDbSpline
210
0.0
220
0.0
230
1.0
 70
           0
 71
           3
 72
           8
 73
           5
 74
           7
 42
0.00000000001
 43
0.00000000001
 44
0.00000000001
 40
0.0
 40
0.0
 40
0.0
 40
0.7273681394901673
 40
1.7065914567875615
 40
2.9387223240343676
 40
2.9387223240343676
 40
2.9387223240343676
 10
3665.8999967216791
 20
1359.999999404049
 30
0.0
 10
3666.138719501037
 20
1360.0054789431169
 30
0.0
 10
3667.1156271469849
 20
1360.0279024572419
 30
0.0
 10
3668.0674888562471
 20
1360.266383080512
 30
0.0
 10
3668.7867481553671
 20
1360.446587205123
 30
0.0
 11
3665.8999967216791
 21
1359.999999404049
 31
0.0
 11
3666.1831310149773
 21
1360.0064983457339
 31
0.0
 11
3666.5550883361561
 21
1360.0150360926532
 31
0.0
 11
3667.0808673755146
 21
1360.0510866331745
 31
0.0
 11
3667.5371268719346
 21
1360.1335055255618
 31
0.0
 11
3668.1147131849493
 21
1360.2782147229273
 31
0.0
 11
3668.7867481553671
 21
1360.446587205123
 31
0.0
  0
SPLINE
  5
388
100
AcDbEntity
  8
0
  6
CONTINUOUS
 62
           3
100
AcDbSpline
210
0.0
220
0.0
230
1.0
 70
           0
 71
           3
 72
           8
 73
           5
 74
           7
 42
0.00000000001
 43
0.00000000001
 44
0.00000000001
 40
0.0
 40
0.0
 40
0.0
 40
0.7097126556361723
 40
1.6878594213853007
 40
2.9354211178793328
 40
2.9354211178793328
 40
2.9354211178793328
 10
3663.0132452878479
 20
1360.446587205025
 30
0.0
 10
3663.2266017037659
 20
1360.3869403699291
 30
0.0
 10
3664.1668989125869
 20
1360.124066847621
 30
0.0
 10
3665.144340064257
 20
1360.054094671618
 30
0.0
 10
3665.8999967216791
 20
1359.999999404049
 30
0.0
 11
3663.0132452878479
 21
1360.446587205025
 31
0.0
 11
3663.2721068549272
 21
1360.3742187546168
 31
0.0
 11
3663.6219787243308
 21
1360.2764070735834
 31
0.0
 11
3664.1380594916354
 21
1360.1544641207822
 31
0.0
 11
3664.5964614170371
 21
1360.0933157143027
 31
0.0
 11
3665.1962845668072
 21
1360.0503761153968
 31
0.0
 11
3665.8999967216791
 21
1359.999999404049
 31
0.0
  0
SPLINE
  5
387
100
AcDbEntity
  8
0
  6
CONTINUOUS
 62
           3
100
AcDbSpline
210
0.0
220
0.0
230
1.0
 70
           0
 71
           3
 72
           8
 73
           5
 74
           7
 42
0.00000000001
 43
0.00000000001
 44
0.00000000001
 40
0.0
 40
0.0
 40
0.0
 40
0.2779452695532114
 40
0.7862805426559001
 40
1.5429573555008029
 40
1.5429573555008029
 40
1.5429573555008029
 10
3670.2301237560082
 20
1364.9999946356729
 30
0.0
 10
3670.1959072124778
 20
1364.999548930904
 30
0.0
 10
3669.7084969152761
 20
1364.9931999233529
 30
0.0
 10
3669.2308572149868
 20
1364.7653118796341
 30
0.0
 10
3668.7867481555058
 20
1364.553421735859
 30
0.0
 11
3670.2301237560082
 21
1364.9999946356729
 31
0.0
 11
3670.1613872230673
 21
1364.9990992734502
 31
0.0
 11
3670.0236107113069
 21
1364.9973045963193
 31
0.0
 11
3669.7392914141328
 21
1364.9713323318772
 31
0.0
 11
3669.5165611146713
 21
1364.9016248844837
 31
0.0
 11
3669.1912559250377
 21
1364.7464175949026
 31
0.0
 11
3668.7867481555058
 21
1364.553421735859
 31
0.0
  0
SPLINE
  5
386
100
AcDbEntity
  8
0
  6
CONTINUOUS
 62
           3
100
AcDbSpline
210
0.0
220
0.0
230
1.0
 70
           0
 71
           3
 72
           8
 73
           5
 74
           7
 42
0.00000000001
 43
0.00000000001
 44
0.00000000001
 40
0.0
 40
0.0
 40
0.0
 40
0.2779464854689424
 40
0.7862840844052403
 40
1.5429642659457619
 40
1.5429642659457619
 40
1.5429642659457619
 10
3670.2301237559682
 20
1359.9999994039219
 30
0.0
 10
3670.2643403053671
 20
1360.000445099425
 30
0.0
 10
3670.7517530244568
 20
1360.006794003654
 30
0.0
 10
3671.2293915040041
 20
1360.2346897876159
 30
0.0
 10
3671.6734995893689
 20
1360.446587205123
 30
0.0
 11
3670.2301237559682
 21
1359.9999994039219
 31
0.0
 11
3670.2988605017508
 21
1360.0008947499916
 31
0.0
 11
3670.4366376403009
 21
1360.0026893971949
 31
0.0
 11
3670.720958009475
 21
1360.0286623910358
 31
0.0
 11
3670.9436883486869
 21
1360.098372159641
 31
0.0
 11
3671.2689927365159
 21
1360.2535847349989
 31
0.0
 11
3671.6734995893689
 21
1360.446587205123
 31
0.0
  0
SPLINE
  5
385
100
AcDbEntity
  8
0
  6
CONTINUOUS
 62
           3
100
AcDbSpline
210
0.0
220
0.0
230
1.0
 70
           0
 71
           3
 72
           8
 73
           5
 74
           7
 42
0.00000000001
 43
0.00000000001
 44
0.00000000001
 40
0.0
 40
0.0
 40
0.0
 40
0.2779462752379235
 40
0.7862820883294128
 40
1.5429577306147992
 40
1.5429577306147992
 40
1.5429577306147992
 10
3661.5698696873501
 20
1364.9999946356729
 30
0.0
 10
3661.5356531390362
 20
1364.9995489277901
 30
0.0
 10
3661.0482408408488
 20
1364.9931998506629
 30
0.0
 10
3660.5706021281858
 20
1364.765311877484
 30
0.0
 10
3660.1264938539762
 20
1364.553421735917
 30
0.0
 11
3661.5698696873501
 21
1364.9999946356729
 31
0.0
 11
3661.5011329028084
 21
1364.9990992640387
 31
0.0
 11
3661.3633556458117
 21
1364.9973045649019
 31
0.0
 11
3661.0790356162656
 21
1364.9713322408609
 31
0.0
 11
3660.8563051375527
 21
1364.9016246972149
 31
0.0
 11
3660.531000811975
 21
1364.746417547025
 31
0.0
 11
3660.1264938539762
 21
1364.553421735917
 31
0.0
  0
SPLINE
  5
384
100
AcDbEntity
  8
0
  6
CONTINUOUS
 62
           3
100
AcDbSpline
210
0.0
220
0.0
230
1.0
 70
           0
 71
           3
 72
           8
 73
           5
 74
           7
 42
0.00000000001
 43
0.00000000001
 44
0.00000000001
 40
0.0
 40
0.0
 40
0.0
 40
0.2779454797459472
 40
0.7862825386902546
 40
1.5429638907222265
 40
1.5429638907222265
 40
1.5429638907222265
 10
3661.5698696873501
 20
1359.999999404049
 30
0.0
 10
3661.6040862319269
 20
1360.000445096307
 30
0.0
 10
3662.091496950035
 20
1360.0067939309631
 30
0.0
 10
3662.5691364171998
 20
1360.23468978547
 30
0.0
 10
3663.0132452878479
 20
1360.446587205025
 30
0.0
 11
3661.5698696873501
 21
1359.999999404049
 31
0.0
 11
3661.6386061814997
 21
1360.0008947406093
 31
0.0
 11
3661.7763825747961
 21
1360.0026893657744
 31
0.0
 11
3662.0607022116114
 21
1360.0286623000184
 31
0.0
 11
3662.2834323715811
 21
1360.0983719723736
 31
0.0
 11
3662.6087376234568
 21
1360.2535846870846
 31
0.0
 11
3663.0132452878479
 21
1360.446587205025
 31
0.0
  0
SPLINE
  5
383
100
AcDbEntity
  8
0
  6
CONTINUOUS
 62
           3
100
AcDbSpline
210
0.0
220
0.0
230
1.0
 70
           0
 71
           3
 72
           8
 73
           5
 74
           7
 42
0.00000000001
 43
0.00000000001
 44
0.00000000001
 40
0.0
 40
0.0
 40
0.0
 40
1.2475604207866644
 40
2.2257060852958013
 40
2.9354176594309624
 40
2.9354176594309624
 40
2.9354176594309624
 10
3665.8999967216791
 20
1377.5999993086671
 30
0.0
 10
3665.144340864726
 20
1377.545901007107
 30
0.0
 10
3664.1669013821652
 20
1377.4759249520071
 30
0.0
 10
3663.2266017763668
 20
1377.213063029573
 30
0.0
 10
3663.0132452878479
 20
1377.153418958268
 30
0.0
 11
3665.8999967216791
 21
1377.5999993086671
 31
0.0
 11
3665.1962853948357
 21
1377.5496197777993
 31
0.0
 11
3664.5964631282118
 21
1377.5066777883171
 31
0.0
 11
3664.1380614015402
 21
1377.4455297788077
 31
0.0
 11
3663.6219797136182
 21
1377.323591422899
 31
0.0
 11
3663.2721071385499
 21
1377.2257841100782
 31
0.0
 11
3663.0132452878479
 21
1377.153418958268
 31
0.0
  0
SPLINE
  5
382
100
AcDbEntity
  8
0
  6
CONTINUOUS
 62
           3
100
AcDbSpline
210
0.0
220
0.0
230
1.0
 70
           0
 71
           3
 72
           8
 73
           5
 74
           7
 42
0.00000000001
 43
0.00000000001
 44
0.00000000001
 40
0.0
 40
0.0
 40
0.0
 40
1.2321298483014465
 40
2.2113525386978297
 40
2.9387203954171457
 40
2.9387203954171457
 40
2.9387203954171457
 10
3668.7867481555058
 20
1377.153418958268
 30
0.0
 10
3668.0674886786478
 20
1377.3336196618161
 30
0.0
 10
3667.115626586537
 20
1377.572095794834
 30
0.0
 10
3666.1387194830959
 20
1377.5945196770231
 30
0.0
 10
3665.8999967216791
 20
1377.5999993086671
 30
0.0
 11
3668.7867481555058
 21
1377.153418958268
 31
0.0
 11
3668.1147130094214
 21
1377.3217882464453
 31
0.0
 11
3667.5371265248828
 21
1377.4664947038805
 31
0.0
 11
3667.0808669612552
 21
1377.5489121656956
 31
0.0
 11
3666.5550881470645
 21
1377.5849623692347
 31
0.0
 11
3666.1831309587342
 21
1377.5935002579872
 31
0.0
 11
3665.8999967216791
 21
1377.5999993086671
 31
0.0
  0
SPLINE
  5
381
100
AcDbEntity
  8
0
  6
CONTINUOUS
 62
           3
100
AcDbSpline
210
0.0
220
0.0
230
1.0
 70
           0
 71
           3
 72
           8
 73
           5
 74
           7
 42
0.00000000001
 43
0.00000000001
 44
0.00000000001
 40
0.0
 40
0.0
 40
0.0
 40
0.7273675739552554
 40
1.7065896374624123
 40
2.9387184666010913
 40
2.9387184666010913
 40
2.9387184666010913
 10
3665.8999967216791
 20
1372.6000040770421
 30
0.0
 10
3666.1387194651602
 20
1372.6054838012651
 30
0.0
 10
3667.1156260260968
 20
1372.6279080515201
 30
0.0
 10
3668.0674885010571
 20
1372.866379694286
 30
0.0
 10
3668.7867481553671
 20
1373.0465769769121
 30
0.0
 11
3665.8999967216791
 21
1372.6000040770421
 31
0.0
 11
3666.1831309024947
 21
1372.6065032367196
 31
0.0
 11
3666.5550879579787
 21
1372.615041267306
 31
0.0
 11
3667.0808665470145
 21
1372.6510911338662
 31
0.0
 11
3667.5371261778846
 21
1372.733507165118
 31
0.0
 11
3668.1147128338416
 21
1372.8782108826504
 31
0.0
 11
3668.7867481553671
 21
1373.0465769769121
 31
0.0
  0
SPLINE
  5
380
100
AcDbEntity
  8
0
  6
CONTINUOUS
 62
           3
100
AcDbSpline
210
0.0
220
0.0
230
1.0
 70
           0
 71
           3
 72
           8
 73
           5
 74
           7
 42
0.00000000001
 43
0.00000000001
 44
0.00000000001
 40
0.0
 40
0.0
 40
0.0
 40
0.7097104926820835
 40
1.6878550560195698
 40
2.9354142011755577
 40
2.9354142011755577
 40
2.9354142011755577
 10
3663.0132452878479
 20
1373.0465769768609
 30
0.0
 10
3663.2266018489581
 20
1372.9869356693489
 30
0.0
 10
3664.166903851657
 20
1372.7240853468579
 30
0.0
 10
3665.1443416651759
 20
1372.654105412621
 30
0.0
 10
3665.8999967216791
 20
1372.6000040770421
 30
0.0
 11
3663.0132452878479
 21
1373.0465769768609
 31
0.0
 11
3663.2721074221563
 21
1372.9742151236571
 31
0.0
 11
3663.6219807028624
 21
1372.8764121790696
 31
0.0
 11
3664.1380633113777
 21
1372.7544784200809
 31
0.0
 11
3664.5964648393328
 21
1372.6933308075384
 31
0.0
 11
3665.1962862228406
 21
1372.6503864274557
 31
0.0
 11
3665.8999967216791
 21
1372.6000040770421
 31
0.0
  0
SPLINE
  5
37F
100
AcDbEntity
  8
0
  6
CONTINUOUS
 62
           3
100
AcDbSpline
210
0.0
220
0.0
230
1.0
 70
           0
 71
           3
 72
           8
 73
           5
 74
           7
 42
0.00000000001
 43
0.00000000001
 44
0.00000000001
 40
0.0
 40
0.0
 40
0.0
 40
0.2779453746522337
 40
0.7862815406660644
 40
1.5429606230907527
 40
1.5429606230907527
 40
1.5429606230907527
 10
3670.2301237560082
 20
1377.5999993086671
 30
0.0
 10
3670.1959072119539
 20
1377.5995536101509
 30
0.0
 10
3669.7084967042952
 20
1377.5932046890459
 30
0.0
 10
3669.2308571205781
 20
1377.365312739938
 30
0.0
 10
3668.7867481555058
 20
1377.153418958268
 30
0.0
 11
3670.2301237560082
 21
1377.5999993086671
 31
0.0
 11
3670.1613872424614
 21
1377.5991039592734
 31
0.0
 11
3670.0236107899291
 21
1377.5973093081243
 31
0.0
 11
3669.739291322936
 21
1377.571336708781
 31
0.0
 11
3669.5165610932245
 21
1377.501628148907
 31
0.0
 11
3669.1912558724716
 21
1377.3464181467627
 31
0.0
 11
3668.7867481555058
 21
1377.153418958268
 31
0.0
  0
SPLINE
  5
37E
100
AcDbEntity
  8
0
  6
CONTINUOUS
 62
           3
100
AcDbSpline
210
0.0
220
0.0
230
1.0
 70
           0
 71
           3
 72
           8
 73
           5
 74
           7
 42
0.00000000001
 43
0.00000000001
 44
0.00000000001
 40
0.0
 40
0.0
 40
0.0
 40
0.2779462752402296
 40
0.7862820883282189
 40
1.5429577306516236
 40
1.5429577306516236
 40
1.5429577306516236
 10
3670.2301237560082
 20
1372.6000040770421
 30
0.0
 10
3670.2643403043271
 20
1372.600449784929
 30
0.0
 10
3670.751752602509
 20
1372.606798862053
 30
0.0
 10
3671.2293913151689
 20
1372.8346868352351
 30
0.0
 10
3671.6734995893689
 20
1373.0465769769121
 30
0.0
 11
3670.2301237560082
 21
1372.6000040770421
 31
0.0
 11
3670.2988605405531
 21
1372.600899448679
 31
0.0
 11
3670.4366377975512
 21
1372.602694147816
 31
0.0
 11
3670.7209578270913
 21
1372.6286664718552
 31
0.0
 11
3670.9436883057974
 21
1372.6983740154992
 31
0.0
 11
3671.268992631376
 21
1372.8535811657202
 31
0.0
 11
3671.6734995893689
 21
1373.0465769769121
 31
0.0
  0
SPLINE
  5
37D
100
AcDbEntity
  8
0
  6
CONTINUOUS
 62
           3
100
AcDbSpline
210
0.0
220
0.0
230
1.0
 70
           0
 71
           3
 72
           8
 73
           5
 74
           7
 42
0.00000000001
 43
0.00000000001
 44
0.00000000001
 40
0.0
 40
0.0
 40
0.0
 40
0.2779463803330571
 40
0.7862830863401414
 40
1.5429609982609434
 40
1.5429609982609434
 40
1.5429609982609434
 10
3661.5698696873501
 20
1377.5999993086671
 30
0.0
 10
3661.5356531385091
 20
1377.5995536070379
 30
0.0
 10
3661.0482406298788
 20
1377.593204616358
 30
0.0
 10
3660.5706020337661
 20
1377.3653127377879
 30
0.0
 10
3660.1264938539762
 20
1377.153418958206
 30
0.0
 11
3661.5698696873501
 21
1377.5999993086671
 31
0.0
 11
3661.501132922202
 21
1377.5991039498629
 31
0.0
 11
3661.3633557244402
 21
1377.5973092767085
 31
0.0
 11
3661.0790355250779
 21
1377.5713366177663
 31
0.0
 11
3660.8563051161159
 21
1377.5016279616409
 31
0.0
 11
3660.5310007594053
 21
1377.3464180988556
 31
0.0
 11
3660.1264938539762
 21
1377.153418958206
 31
0.0
  0
SPLINE
  5
37C
100
AcDbEntity
  8
0
  6
CONTINUOUS
 62
           3
100
AcDbSpline
210
0.0
220
0.0
230
1.0
 70
           0
 71
           3
 72
           8
 73
           5
 74
           7
 42
0.00000000001
 43
0.00000000001
 44
0.00000000001
 40
0.0
 40
0.0
 40
0.0
 40
0.277945269553926
 40
0.7862805426568721
 40
1.5429573554972509
 40
1.5429573554972509
 40
1.5429573554972509
 10
3661.5698696873501
 20
1372.6000040770421
 30
0.0
 10
3661.6040862308769
 20
1372.600449781811
 30
0.0
 10
3662.0914965280872
 20
1372.6067987893671
 30
0.0
 10
3662.5691362283678
 20
1372.834686833085
 30
0.0
 10
3663.0132452878479
 20
1373.0465769768609
 30
0.0
 11
3661.5698696873501
 21
1372.6000040770421
 31
0.0
 11
3661.6386062202887
 21
1372.6008994392653
 31
0.0
 11
3661.7763827320514
 21
1372.6026941163975
 31
0.0
 11
3662.0607020292287
 21
1372.6286663808419
 31
0.0
 11
3662.2834323286897
 21
1372.6983738282363
 31
0.0
 11
3662.6087375183183
 21
1372.8535811178169
 31
0.0
 11
3663.0132452878479
 21
1373.0465769768609
 31
0.0
  0
SPLINE
  5
37B
100
AcDbEntity
  8
0
  6
CONTINUOUS
 62
           3
100
AcDbSpline
210
0.0
220
0.0
230
1.0
 70
           0
 71
           3
 72
           8
 73
           5
 74
           7
 42
0.00000000001
 43
0.00000000001
 44
0.00000000001
 40
0.0
 40
0.0
 40
0.0
 40
1.2475616964940404
 40
2.2257084622431464
 40
2.935421117880145
 40
2.935421117880145
 40
2.935421117880145
 10
3665.8999967216791
 20
1372.6000040770421
 30
0.0
 10
3665.144340064257
 20
1372.5459088094731
 30
0.0
 10
3664.1668989125869
 20
1372.4759366334699
 30
0.0
 10
3663.2266017037659
 20
1372.213063111162
 30
0.0
 10
3663.0132452878479
 20
1372.1534162760629
 30
0.0
 11
3665.8999967216791
 21
1372.6000040770421
 31
0.0
 11
3665.1962845668072
 21
1372.5496273656938
 31
0.0
 11
3664.5964614170362
 21
1372.506687766788
 31
0.0
 11
3664.138059491635
 21
1372.4455393603087
 31
0.0
 11
3663.6219787243308
 21
1372.3235964075075
 31
0.0
 11
3663.2721068549276
 21
1372.2257847264736
 31
0.0
 11
3663.0132452878479
 21
1372.1534162760629
 31
0.0
  0
SPLINE
  5
37A
100
AcDbEntity
  8
0
  6
CONTINUOUS
 62
           3
100
AcDbSpline
210
0.0
220
0.0
230
1.0
 70
           0
 71
           3
 72
           8
 73
           5
 74
           7
 42
0.00000000001
 43
0.00000000001
 44
0.00000000001
 40
0.0
 40
0.0
 40
0.0
 40
1.2321308673583857
 40
2.2113541846555975
 40
2.9387223241458145
 40
2.9387223241458145
 40
2.9387223241458145
 10
3668.7867481555058
 20
1372.1534162760629
 30
0.0
 10
3668.0674888562471
 20
1372.33362040058
 30
0.0
 10
3667.1156271469849
 20
1372.572101023849
 30
0.0
 10
3666.138719501037
 20
1372.5945245379701
 30
0.0
 10
3665.8999967216791
 20
1372.6000040770421
 30
0.0
 11
3668.7867481555058
 21
1372.1534162760629
 31
0.0
 11
3668.114713184978
 21
1372.3217887581895
 31
0.0
 11
3667.5371268719136
 21
1372.466497955535
 31
0.0
 11
3667.0808673755096
 21
1372.5489168479169
 31
0.0
 11
3666.5550883361566
 21
1372.5849673884354
 31
0.0
 11
3666.1831310149769
 21
1372.5935051353542
 31
0.0
 11
3665.8999967216791
 21
1372.6000040770421
 31
0.0
  0
SPLINE
  5
379
100
AcDbEntity
  8
0
  6
CONTINUOUS
 62
           3
100
AcDbSpline
210
0.0
220
0.0
230
1.0
 70
           0
 71
           3
 72
           8
 73
           5
 74
           7
 42
0.00000000001
 43
0.00000000001
 44
0.00000000001
 40
0.0
 40
0.0
 40
0.0
 40
0.7273681394902144
 40
1.7065914567876086
 40
2.9387223240295519
 40
2.9387223240295519
 40
2.9387223240295519
 10
3665.8999967216791
 20
1367.599993944257
 30
0.0
 10
3666.138719501037
 20
1367.6054734833269
 30
0.0
 10
3667.1156271469849
 20
1367.6278969974519
 30
0.0
 10
3668.0674888562471
 20
1367.866377620722
 30
0.0
 10
3668.7867481553671
 20
1368.046581745313
 30
0.0
 11
3665.8999967216791
 21
1367.599993944257
 31
0.0
 11
3666.1831310149773
 21
1367.6064928859437
 31
0.0
 11
3666.5550883361561
 21
1367.6150306328632
 31
0.0
 11
3667.080867375515
 21
1367.6510811733847
 31
0.0
 11
3667.5371268719355
 21
1367.733500065772
 31
0.0
 11
3668.1147131849493
 21
1367.8782092631322
 31
0.0
 11
3668.7867481553671
 21
1368.046581745313
 31
0.0
  0
SPLINE
  5
378
100
AcDbEntity
  8
0
  6
CONTINUOUS
 62
           3
100
AcDbSpline
210
0.0
220
0.0
230
1.0
 70
           0
 71
           3
 72
           8
 73
           5
 74
           7
 42
0.00000000001
 43
0.00000000001
 44
0.00000000001
 40
0.0
 40
0.0
 40
0.0
 40
0.7097107189136058
 40
1.6878556121189958
 40
2.9354150974121929
 40
2.9354150974121929
 40
2.9354150974121929
 10
3663.0132452878479
 20
1368.0465817452359
 30
0.0
 10
3663.2266018694982
 20
1367.986940602696
 30
0.0
 10
3664.1669045504668
 20
1367.724090842953
 30
0.0
 10
3665.1443418916879
 20
1367.654102099867
 30
0.0
 10
3665.8999967216791
 20
1367.599993944257
 30
0.0
 11
3663.0132452878479
 21
1368.0465817452359
 31
0.0
 11
3663.2721075078034
 21
1367.9742200752132
 31
0.0
 11
3663.6219810043694
 21
1367.8764173502245
 31
0.0
 11
3664.1380638628589
 21
1367.754482866842
 31
0.0
 11
3664.5964653461324
 21
1367.6933324312372
 31
0.0
 11
3665.1962864627972
 21
1367.6503826438072
 31
0.0
 11
3665.8999967216791
 21
1367.599993944257
 31
0.0
  0
SPLINE
  5
377
100
AcDbEntity
  8
0
  6
CONTINUOUS
 62
           3
100
AcDbSpline
210
0.0
220
0.0
230
1.0
 70
           0
 71
           3
 72
           8
 73
           5
 74
           7
 42
0.00000000001
 43
0.00000000001
 44
0.00000000001
 40
0.0
 40
0.0
 40
0.0
 40
0.2779454797516326
 40
0.7862825386956059
 40
1.5429638907284986
 40
1.5429638907284986
 40
1.5429638907284986
 10
3670.2301237560082
 20
1372.6000040770421
 30
0.0
 10
3670.1959072114282
 20
1372.5995583847839
 30
0.0
 10
3669.7084964933151
 20
1372.593209550128
 30
0.0
 10
3669.2308570261571
 20
1372.36531369562
 30
0.0
 10
3668.7867481555058
 20
1372.1534162760629
 30
0.0
 11
3670.2301237560082
 21
1372.6000040770421
 31
0.0
 11
3670.1613872618545
 21
1372.5991087404816
 31
0.0
 11
3670.0236108685554
 21
1372.5973141153167
 31
0.0
 11
3669.7392912317391
 21
1372.5713411810723
 31
0.0
 11
3669.5165610717713
 21
1372.5016315087169
 31
0.0
 11
3669.1912558198983
 21
1372.3464187940049
 31
0.0
 11
3668.7867481555058
 21
1372.1534162760629
 31
0.0
  0
SPLINE
  5
376
100
AcDbEntity
  8
0
  6
CONTINUOUS
 62
           3
100
AcDbSpline
210
0.0
220
0.0
230
1.0
 70
           0
 71
           3
 72
           8
 73
           5
 74
           7
 42
0.00000000001
 43
0.00000000001
 44
0.00000000001
 40
0.0
 40
0.0
 40
0.0
 40
0.2779464854273126
 40
0.7862840843630217
 40
1.5429642658951228
 40
1.5429642658951228
 40
1.5429642658951228
 10
3670.2301237560082
 20
1367.599993944257
 30
0.0
 10
3670.2643403053671
 20
1367.6004396396361
 30
0.0
 10
3670.7517530244568
 20
1367.6067885438649
 30
0.0
 10
3671.2293915040041
 20
1367.8346843278241
 30
0.0
 10
3671.6734995893689
 20
1368.046581745313
 30
0.0
 11
3670.2301237560082
 21
1367.599993944257
 31
0.0
 11
3670.2988605017567
 21
1367.6008892902337
 31
0.0
 11
3670.4366376402841
 21
1367.6026839374056
 31
0.0
 11
3670.7209580094714
 21
1367.6286569312465
 31
0.0
 11
3670.9436883486878
 21
1367.6983666998512
 31
0.0
 11
3671.2689927365159
 21
1367.8535792752029
 31
0.0
 11
3671.6734995893689
 21
1368.046581745313
 31
0.0
  0
SPLINE
  5
375
100
AcDbEntity
  8
0
  6
CONTINUOUS
 62
           3
100
AcDbSpline
210
0.0
220
0.0
230
1.0
 70
           0
 71
           3
 72
           8
 73
           5
 74
           7
 42
0.00000000001
 43
0.00000000001
 44
0.00000000001
 40
0.0
 40
0.0
 40
0.0
 40
0.2779464854379079
 40
0.7862840843776835
 40
1.5429642658581053
 40
1.5429642658581053
 40
1.5429642658581053
 10
3661.5698696873501
 20
1372.6000040770421
 30
0.0
 10
3661.5356531379862
 20
1372.59955838167
 30
0.0
 10
3661.0482404188851
 20
1372.593209477441
 30
0.0
 10
3660.5706019393451
 20
1372.365313693474
 30
0.0
 10
3660.1264938539762
 20
1372.15341627611
 30
0.0
 11
3661.5698696873501
 21
1372.6000040770421
 31
0.0
 11
3661.5011329415956
 21
1372.5991087310706
 31
0.0
 11
3661.3633558030615
 21
1372.5973140839005
 31
0.0
 11
3661.0790354338696
 21
1372.5713410900573
 31
0.0
 11
3660.8563050946477
 21
1372.5016313214471
 31
0.0
 11
3660.5310007068283
 21
1372.3464187461261
 31
0.0
 11
3660.1264938539762
 21
1372.15341627611
 31
0.0
  0
SPLINE
  5
374
100
AcDbEntity
  8
0
  6
CONTINUOUS
 62
           3
100
AcDbSpline
210
0.0
220
0.0
230
1.0
 70
           0
 71
           3
 72
           8
 73
           5
 74
           7
 42
0.00000000001
 43
0.00000000001
 44
0.00000000001
 40
0.0
 40
0.0
 40
0.0
 40
0.2779454797459665
 40
0.7862825386894727
 40
1.5429638907218852
 40
1.5429638907218852
 40
1.5429638907218852
 10
3661.5698696873501
 20
1367.599993944257
 30
0.0
 10
3661.6040862319269
 20
1367.600439636514
 30
0.0
 10
3662.091496950035
 20
1367.6067884711749
 30
0.0
 10
3662.5691364171998
 20
1367.8346843256779
 30
0.0
 10
3663.0132452878479
 20
1368.0465817452359
 30
0.0
 11
3661.5698696873501
 21
1367.599993944257
 31
0.0
 11
3661.6386061814997
 21
1367.6008892808172
 31
0.0
 11
3661.7763825747961
 21
1367.6026839059832
 31
0.0
 11
3662.0607022116119
 21
1367.6286568402293
 31
0.0
 11
3662.2834323715806
 21
1367.6983665125838
 31
0.0
 11
3662.6087376234568
 21
1367.8535792272937
 31
0.0
 11
3663.0132452878479
 21
1368.0465817452359
 31
0.0
  0
SPLINE
  5
373
100
AcDbEntity
  8
0
  6
CONTINUOUS
 62
           3
100
AcDbSpline
210
0.0
220
0.0
230
1.0
 70
           0
 71
           3
 72
           8
 73
           5
 74
           7
 42
0.00000000001
 43
0.00000000001
 44
0.00000000001
 40
0.0
 40
0.0
 40
0.0
 40
0.4813884775060753
 40
1.332565594239832
 40
2.5594910572545189
 40
2.5594910572545189
 40
2.5594910572545189
 10
3663.3999967775571
 20
1384.1999992729011
 30
0.0
 10
3663.459261584399
 20
1384.2004449715539
 30
0.0
 10
3664.3034817008352
 20
1384.2067938958289
 30
0.0
 10
3665.1307775679638
 20
1384.4346858417271
 30
0.0
 10
3665.8999967216791
 20
1384.646579623296
 30
0.0
 11
3663.3999967775571
 21
1384.1999992729011
 31
0.0
 11
3663.5206888783719
 21
1384.2009069331098
 31
0.0
 11
3663.7642355671342
 21
1384.2027385164299
 31
0.0
 11
3664.2533839007128
 21
1384.2291158106436
 31
0.0
 11
3664.6423366340468
 21
1384.3001369344865
 31
0.0
 11
3665.2009721229138
 21
1384.4540220603094
 31
0.0
 11
3665.8999967216791
 21
1384.646579623296
 31
0.0
  0
SPLINE
  5
372
100
AcDbEntity
  8
0
  6
CONTINUOUS
 62
           3
100
AcDbSpline
210
0.0
220
0.0
230
1.0
 70
           0
 71
           3
 72
           8
 73
           5
 74
           7
 42
0.00000000001
 43
0.00000000001
 44
0.00000000001
 40
0.0
 40
0.0
 40
0.0
 40
0.4813883392833099
 40
1.3325653926421834
 40
2.5594910488300289
 40
2.5594910488300289
 40
2.5594910488300289
 10
3668.3999966657661
 20
1384.1999992729011
 30
0.0
 10
3668.459261471949
 20
1384.2004449713099
 30
0.0
 10
3669.3034813132949
 20
1384.2067938900659
 30
0.0
 10
3670.130777332784
 20
1384.4346858415561
 30
0.0
 10
3670.8999966098681
 20
1384.6465796233031
 30
0.0
 11
3668.3999966657661
 21
1384.1999992729011
 31
0.0
 11
3668.520688730885
 21
1384.2009069323501
 31
0.0
 11
3668.7642353138781
 21
1384.2027385138806
 31
0.0
 11
3669.2533835507465
 21
1384.2291158030616
 31
0.0
 11
3669.6423362625183
 21
1384.3001369182341
 31
0.0
 11
3670.2009718844884
 21
1384.4540220561623
 31
0.0
 11
3670.8999966098681
 21
1384.6465796233031
 31
0.0
  0
SPLINE
  5
371
100
AcDbEntity
  8
0
  6
CONTINUOUS
 62
           3
100
AcDbSpline
210
0.0
220
0.0
230
1.0
 70
           0
 71
           3
 72
           8
 73
           5
 74
           7
 42
0.00000000001
 43
0.00000000001
 44
0.00000000001
 40
0.0
 40
0.0
 40
0.0
 40
0.0169507227484473
 40
0.1476151553704312
 40
0.4465803504019732
 40
0.4465803504019732
 40
0.4465803504019732
 10
3660.8999968334369
 20
1384.1999992729011
 30
0.0
 10
3660.8999968334369
 20
1384.205607698183
 30
0.0
 10
3660.8999968334369
 20
1384.2282922931161
 30
0.0
 10
3660.8999968334369
 20
1384.466936563427
 30
0.0
 10
3660.899996833477
 20
1384.6465796233031
 30
0.0
 11
3660.8999968334369
 21
1384.1999992729011
 31
0.0
 11
3660.8999968334369
 21
1384.204856812732
 31
0.0
 11
3660.8999968334369
 21
1384.2082125816614
 31
0.0
 11
3660.8999968334369
 21
1384.2414172487588
 31
0.0
 11
3660.8999968334369
 21
1384.3008718271417
 31
0.0
 11
3660.8999968334469
 21
1384.4703311443247
 31
0.0
 11
3660.899996833477
 21
1384.6465796233031
 31
0.0
  0
SPLINE
  5
370
100
AcDbEntity
  8
0
  6
CONTINUOUS
 62
           3
100
AcDbSpline
210
0.0
220
0.0
230
1.0
 70
           0
 71
           3
 72
           8
 73
           5
 74
           7
 42
0.00000000001
 43
0.00000000001
 44
0.00000000001
 40
0.0
 40
0.0
 40
0.0
 40
0.298965195031542
 40
0.4296296276535259
 40
0.4465803504019732
 40
0.4465803504019732
 40
0.4465803504019732
 10
3670.8999966098681
 20
1384.6465796233031
 30
0.0
 10
3670.899996609915
 20
1384.466936563427
 30
0.0
 10
3670.899996609915
 20
1384.2282922931161
 30
0.0
 10
3670.899996609915
 20
1384.205607698183
 30
0.0
 10
3670.899996609915
 20
1384.1999992729011
 30
0.0
 11
3670.8999966098681
 21
1384.6465796233031
 31
0.0
 11
3670.8999966099036
 21
1384.4703311443247
 31
0.0
 11
3670.8999966099154
 21
1384.3008718271417
 31
0.0
 11
3670.899996609915
 21
1384.241417248759
 31
0.0
 11
3670.8999966099154
 21
1384.2082125816614
 31
0.0
 11
3670.899996609915
 21
1384.204856812732
 31
0.0
 11
3670.899996609915
 21
1384.1999992729011
 31
0.0
  0
CIRCLE
  5
36F
100
AcDbEntity
  8
1
  6
CONTINUOUS
 62
           7
100
AcDbCircle
 10
4050.000000000003
 20
600.000000000001
 40
7.5
  0
CIRCLE
  5
36E
100
AcDbEntity
  8
1
  6
CONTINUOUS
 62
           2
100
AcDbCircle
 10
4050.000000000003
 20
600.000000000001
 40
8.350000000001
  0
CIRCLE
  5
36D
100
AcDbEntity
  8
1
  6
CONTINUOUS
 62
           7
100
AcDbCircle
 10
4050.000000000003
 20
600.000000000001
 40
15.0
  0
CIRCLE
  5
36C
100
AcDbEntity
  8
1
  6
CONTINUOUS
 62
           3
100
AcDbCircle
 10
8.472255321879
 20
1295.200848327051
 40
40.0
  0
CIRCLE
  5
36B
100
AcDbEntity
  8
1
  6
CONTINUOUS
 62
           4
100
AcDbCircle
 10
0.000000000001
 20
5540.0
 40
100.9476
  0
CIRCLE
  5
36A
100
AcDbEntity
  8
1
  6
CONTINUOUS
 62
           4
100
AcDbCircle
 10
0.000000000001
 20
5540.0
 40
125.0
  0
CIRCLE
  5
369
100
AcDbEntity
  8
1
  6
CONTINUOUS
 62
           7
100
AcDbCircle
 10
0.000000000001
 20
5540.0
 40
360.000000000002
  0
ARC
  5
368
100
AcDbEntity
  8
1
  6
CONTINUOUS
 62
           7
100
AcDbCircle
 10
3152.000000000004
 20
1256.750000000002
 40
17.0
100
AcDbArc
 50
180.0
 51
-90.0
  0
ARC
  5
367
100
AcDbEntity
  8
1
  6
CONTINUOUS
 62
           7
100
AcDbCircle
 10
3152.000000000004
 20
1256.750000000002
 40
37.0
100
AcDbArc
 50
180.0
 51
-90.0
  0
ARC
  5
366
100
AcDbEntity
  8
1
  6
CONTINUOUS
 62
           3
100
AcDbCircle
 10
11.509758321878
 20
1267.114622327059
 40
0.500000000002
100
AcDbArc
 50
-83.827497998178
 51
-5.00679300009
  0
ARC
  5
365
100
AcDbEntity
  8
1
  6
CONTINUOUS
 62
           3
100
AcDbCircle
 10
5.434752321879
 20
1267.114622327059
 40
0.499999999996
100
AcDbArc
 50
-174.993206999831
 51
-96.172501999322
  0
ARC
  5
364
100
AcDbEntity
  8
1
  6
CONTINUOUS
 62
           3
100
AcDbCircle
 10
11.509758321878
 20
1323.287074327051
 40
0.500000000005
100
AcDbArc
 50
5.006793001362
 51
83.827497998178
  0
ARC
  5
363
100
AcDbEntity
  8
1
  6
CONTINUOUS
 62
           3
100
AcDbCircle
 10
5.434752321879
 20
1323.287074327051
 40
0.5
100
AcDbArc
 50
96.172501999322
 51
174.993206998559
  0
ARC
  5
362
100
AcDbEntity
  8
1
  6
CONTINUOUS
 62
           3
100
AcDbCircle
 10
4.433952321885
 20
1295.200848327051
 40
9.999999999999
100
AcDbArc
 50
-5.006792999978
 51
5.006793000023
  0
ARC
  5
361
100
AcDbEntity
  8
1
  6
CONTINUOUS
 62
           3
100
AcDbCircle
 10
12.510557321879
 20
1295.200848327051
 40
10.0
100
AcDbArc
 50
174.993206999977
 51
-174.993207000021
  0
ARC
  5
360
100
AcDbEntity
  8
1
  6
CONTINUOUS
 62
           3
100
AcDbCircle
 10
8.472255321879
 20
1295.200848327051
 40
10.74999999999
100
AcDbArc
 50
118.773506999971
 51
-118.773506999948
  0
ARC
  5
35F
100
AcDbEntity
  8
1
  6
CONTINUOUS
 62
           3
100
AcDbCircle
 10
8.472255321879
 20
1295.200848327051
 40
10.750000000001
100
AcDbArc
 50
-61.226493000024
 51
0.0
  0
ARC
  5
35E
100
AcDbEntity
  8
1
  6
CONTINUOUS
 62
           3
100
AcDbCircle
 10
8.472255321879
 20
1295.200848327051
 40
10.75
100
AcDbArc
 50
0.0
 51
61.226493000001
  0
ARC
  5
35D
100
AcDbEntity
  8
1
  6
CONTINUOUS
 62
           3
100
AcDbCircle
 10
8.472255321879
 20
1295.200848327051
 40
28.749999999988
100
AcDbArc
 50
-96.172501999994
 51
-83.827497999994
  0
ARC
  5
35C
100
AcDbEntity
  8
1
  6
CONTINUOUS
 62
           3
100
AcDbCircle
 10
8.472255321879
 20
1295.200848327051
 40
28.750000000008
100
AcDbArc
 50
83.827497999998
 51
96.17250199999
  0
ARC
  5
35B
100
AcDbEntity
  8
1
  6
CONTINUOUS
 62
           7
100
AcDbCircle
 10
0.000000000001
 20
5540.0
 40
150.0
100
AcDbArc
 50
23.882765003116
 51
-89.999999999999
  0
ARC
  5
35A
100
AcDbEntity
  8
1
  6
CONTINUOUS
 62
           7
100
AcDbCircle
 10
0.000000000001
 20
5540.0
 40
150.000000000002
100
AcDbArc
 50
-89.999999999999
 51
-23.882765003117
  0
ARC
  5
359
100
AcDbEntity
  8
1
  6
CONTINUOUS
 62
           7
100
AcDbCircle
 10
18.000000000005
 20
5484.999785420929
 40
459.999999999998
100
AcDbArc
 50
71.463109290188
 51
88.271493544498
  0
ARC
  5
358
100
AcDbEntity
  8
1
  6
CONTINUOUS
 62
           7
100
AcDbCircle
 10
-46.999999999995
 20
5495.0
 40
525.0
100
AcDbArc
 50
-2.792103456718
 51
-0.563719865862
  0
ARC
  5
357
100
AcDbEntity
  8
1
  6
CONTINUOUS
 62
           7
100
AcDbCircle
 10
-39.999999999995
 20
5590.0
 40
620.000000000001
100
AcDbArc
 50
-174.912285430338
 51
-90.336887134984
  0
ARC
  5
356
100
AcDbEntity
  8
1
  6
CONTINUOUS
 62
           7
100
AcDbCircle
 10
452.450424338098
 20
5636.171306523447
 40
5.0
100
AcDbArc
 50
109.497261771684
 51
-90.0
  0
ARC
  5
355
100
AcDbEntity
  8
1
  6
CONTINUOUS
 62
           7
100
AcDbCircle
 10
18.000000000005
 20
5484.999785420929
 40
460.0
100
AcDbArc
 50
0.602232686388
 51
18.563086854737
  0
ARC
  5
354
100
AcDbEntity
  8
1
  6
CONTINUOUS
 62
           7
100
AcDbCircle
 10
452.450424338098
 20
5636.171306523447
 40
5.0
100
AcDbArc
 50
-90.0
 51
-71.125521506268
  0
ARC
  5
353
100
AcDbEntity
  8
1
  6
CONTINUOUS
 62
           7
100
AcDbCircle
 10
477.109412628021
 20
5464.433292707341
 40
5.000000000002
100
AcDbArc
 50
86.935058466839
 51
-93.610617686047
  0
ARC
  5
352
100
AcDbEntity
  8
1
  6
CONTINUOUS
 62
           7
100
AcDbCircle
 10
-46.999999999995
 20
5495.0
 40
525.000000000001
100
AcDbArc
 50
-89.633899153763
 51
-3.883455762483
  0
ARC
  5
351
100
AcDbEntity
  8
1
  6
CONTINUOUS
 62
           7
100
AcDbCircle
 10
18.000000000005
 20
5484.999785420929
 40
459.999999999999
100
AcDbArc
 50
19.808653410673
 51
70.217542734251
  0
ARC
  5
350
100
AcDbEntity
  8
1
  6
CONTINUOUS
 62
           7
100
AcDbCircle
 10
168.97287067351
 20
5919.519281324854
 40
5.000000000001
100
AcDbArc
 50
161.151717651225
 51
-19.471065626776
  0
ARC
  5
34F
100
AcDbEntity
  8
1
  6
CONTINUOUS
 62
           7
100
AcDbCircle
 10
-39.999999999995
 20
5590.0
 40
620.0
100
AcDbArc
 50
-179.999999999999
 51
-175.836413410616
  0
ARC
  5
34E
100
AcDbEntity
  8
1
  6
CONTINUOUS
 62
           7
100
AcDbCircle
 10
-657.980582219211
 20
5540.0
 40
4.999999999997
100
AcDbArc
 50
-85.143317425418
 51
94.394618584451
  0
ARC
  5
34D
100
AcDbEntity
  8
7
  6
CONTINUOUS
 62
           7
100
AcDbCircle
 10
117.56
 20
2978.36
 40
3.84
100
AcDbArc
 50
0.0
 51
90.0
  0
ARC
  5
34C
100
AcDbEntity
  8
7
  6
CONTINUOUS
 62
           7
100
AcDbCircle
 10
116.5078244
 20
2984.600000000001
 40
2.400000000001
100
AcDbArc
 50
-124.999999999975
 51
-90.0
  0
ARC
  5
34B
100
AcDbEntity
  8
7
  6
CONTINUOUS
 62
           7
100
AcDbCircle
 10
91.76
 20
3004.4493608
 40
2.4
100
AcDbArc
 50
180.0
 51
-124.999999999991
  0
ARC
  5
34A
100
AcDbEntity
  8
7
  6
CONTINUOUS
 62
           7
100
AcDbCircle
 10
85.52
 20
3004.159999999999
 40
3.84
100
AcDbArc
 50
0.0
 51
90.0
  0
ARC
  5
349
100
AcDbEntity
  8
7
  6
CONTINUOUS
 62
           7
100
AcDbCircle
 10
-94.76
 20
3004.4493608
 40
2.4
100
AcDbArc
 50
-54.99999999999
 51
0.0
  0
ARC
  5
348
100
AcDbEntity
  8
7
  6
CONTINUOUS
 62
           7
100
AcDbCircle
 10
-88.52
 20
3004.159999999999
 40
3.84
100
AcDbArc
 50
90.0
 51
180.0
  0
ARC
  5
347
100
AcDbEntity
  8
7
  6
CONTINUOUS
 62
           7
100
AcDbCircle
 10
-113.959999999999
 20
2978.1336284
 40
7.44
100
AcDbArc
 50
122.681915000006
 51
180.0
  0
ARC
  5
346
100
AcDbEntity
  8
7
  6
CONTINUOUS
 62
           7
100
AcDbCircle
 10
4176.040000000001
 20
2978.133628400001
 40
7.440000000001
100
AcDbArc
 50
122.681915000002
 51
180.0
  0
ARC
  5
345
100
AcDbEntity
  8
7
  6
CONTINUOUS
 62
           7
100
AcDbCircle
 10
4201.48
 20
3004.16
 40
3.84
100
AcDbArc
 50
90.0
 51
180.0
  0
ARC
  5
344
100
AcDbEntity
  8
7
  6
CONTINUOUS
 62
           7
100
AcDbCircle
 10
4195.24
 20
3004.449360800002
 40
2.400000000002
100
AcDbArc
 50
-55.000000000005
 51
0.0
  0
ARC
  5
343
100
AcDbEntity
  8
7
  6
CONTINUOUS
 62
           7
100
AcDbCircle
 10
4375.52
 20
3004.16
 40
3.84
100
AcDbArc
 50
0.0
 51
90.0
  0
ARC
  5
342
100
AcDbEntity
  8
7
  6
CONTINUOUS
 62
           7
100
AcDbCircle
 10
4381.76
 20
3004.449360800002
 40
2.4
100
AcDbArc
 50
180.0
 51
-124.999999999959
  0
ARC
  5
341
100
AcDbEntity
  8
7
  6
CONTINUOUS
 62
           7
100
AcDbCircle
 10
4406.507824400002
 20
2984.600000000003
 40
2.400000000003
100
AcDbArc
 50
-125.0
 51
-90.0
  0
ARC
  5
340
100
AcDbEntity
  8
7
  6
CONTINUOUS
 62
           7
100
AcDbCircle
 10
4407.560000000001
 20
2978.360000000001
 40
3.839999999998
100
AcDbArc
 50
0.0
 51
90.0
  0
ARC
  5
33F
100
AcDbEntity
  8
0
  6
CONTINUOUS
 62
           3
100
AcDbCircle
 10
3665.899996721679
 20
1355.000000000222
 40
4.0
100
AcDbArc
 50
180.0
 51
0.0
  0
ARC
  5
33E
100
AcDbEntity
  8
0
  6
CONTINUOUS
 62
           3
100
AcDbCircle
 10
3665.899996721679
 20
1315.000000000059
 40
45.999999999971
100
AcDbArc
 50
180.0
 51
0.0
  0
ARC
  5
33D
100
AcDbEntity
  8
0
  6
CONTINUOUS
 62
           3
100
AcDbCircle
 10
3665.899996721679
 20
1315.000000000059
 40
53.999999999965
100
AcDbArc
 50
180.0
 51
0.0
  0
ARC
  5
33C
100
AcDbEntity
  8
0
  6
CONTINUOUS
 62
           3
100
AcDbCircle
 10
3659.426494029875
 20
1389.999999999997
 40
0.9
100
AcDbArc
 50
-117.266044450357
 51
-90.0
  0
ARC
  5
33B
100
AcDbEntity
  8
0
  6
CONTINUOUS
 62
           3
100
AcDbCircle
 10
3672.373499413466
 20
1389.999999999997
 40
0.900000000002
100
AcDbArc
 50
-90.0
 51
-62.733955549566
  0
ARC
  5
33A
100
AcDbEntity
  8
0
  6
CONTINUOUS
 62
           3
100
AcDbCircle
 10
3607.899996721818
 20
1530.99999999988
 40
0.999999999996
100
AcDbArc
 50
-90.0
 51
90.0
  0
ARC
  5
339
100
AcDbEntity
  8
0
  6
CONTINUOUS
 62
           3
100
AcDbCircle
 10
3723.899996721526
 20
1530.99999999988
 40
1.0
100
AcDbArc
 50
90.0
 51
-90.0
  0
ARC
  5
338
100
AcDbEntity
  8
0
  6
CONTINUOUS
 62
           3
100
AcDbCircle
 10
3723.899996721526
 20
1508.999999999997
 40
1.0
100
AcDbArc
 50
90.0
 51
-90.0
  0
ARC
  5
337
100
AcDbEntity
  8
0
  6
CONTINUOUS
 62
           3
100
AcDbCircle
 10
3723.899996721526
 20
1431.000000000062
 40
0.999999999997
100
AcDbArc
 50
90.0
 51
-90.0
  0
ARC
  5
336
100
AcDbEntity
  8
0
  6
CONTINUOUS
 62
           3
100
AcDbCircle
 10
3723.899996721526
 20
1409.000000000179
 40
1.0
100
AcDbArc
 50
90.0
 51
-90.0
  0
ARC
  5
335
100
AcDbEntity
  8
0
  6
CONTINUOUS
 62
           3
100
AcDbCircle
 10
3607.899996721818
 20
1409.000000000179
 40
0.999999999997
100
AcDbArc
 50
-90.0
 51
90.0
  0
ARC
  5
334
100
AcDbEntity
  8
0
  6
CONTINUOUS
 62
           3
100
AcDbCircle
 10
3607.899996721818
 20
1431.000000000062
 40
1.0
100
AcDbArc
 50
-90.0
 51
90.0
  0
ARC
  5
333
100
AcDbEntity
  8
0
  6
CONTINUOUS
 62
           3
100
AcDbCircle
 10
3607.899996721818
 20
1508.999999999997
 40
0.999999999996
100
AcDbArc
 50
-90.0
 51
90.0
  0
ARC
  5
332
100
AcDbEntity
  8
0
  6
CONTINUOUS
 62
           3
100
AcDbCircle
 10
3603.399996721828
 20
1368.000000000114
 40
2.49999999999
100
AcDbArc
 50
0.0
 51
180.0
  0
ARC
  5
331
100
AcDbEntity
  8
0
  6
CONTINUOUS
 62
           3
100
AcDbCircle
 10
3603.399996721828
 20
1631.999999999899
 40
2.5
100
AcDbArc
 50
180.0
 51
0.0
  0
ARC
  5
330
100
AcDbEntity
  8
0
  6
CONTINUOUS
 62
           3
100
AcDbCircle
 10
3728.399996721518
 20
1631.999999999899
 40
2.499999999992
100
AcDbArc
 50
180.0
 51
0.0
  0
ARC
  5
32F
100
AcDbEntity
  8
0
  6
CONTINUOUS
 62
           3
100
AcDbCircle
 10
3728.399996721518
 20
1368.000000000114
 40
2.5
100
AcDbArc
 50
0.0
 51
180.0
  0
ARC
  5
32E
100
AcDbEntity
  8
1
  6
CONTINUOUS
 62
           3
100
AcDbCircle
 10
4170.163567691046
 20
1925.000000000001
 40
5.871834995066
100
AcDbArc
 50
-90.0
 51
0.0
  0
ARC
  5
32D
100
AcDbEntity
  8
1
  6
CONTINUOUS
 62
           3
100
AcDbCircle
 10
4170.163567691046
 20
1925.000000000001
 40
5.871834995068
100
AcDbArc
 50
38.59971391793
 51
90.0
  0
ARC
  5
32C
100
AcDbEntity
  8
1
  6
CONTINUOUS
 62
           3
100
AcDbCircle
 10
4170.163567691046
 20
1925.000000000001
 40
5.87183499506
100
AcDbArc
 50
0.0
 51
38.59971391793
  0
ARC
  5
32B
100
AcDbEntity
  8
1
  6
CONTINUOUS
 62
           3
100
AcDbCircle
 10
4170.163567691046
 20
1925.000000000001
 40
9.5
100
AcDbArc
 50
0.0
 51
125.91695737144
  0
ARC
  5
32A
100
AcDbEntity
  8
1
  6
CONTINUOUS
 62
           3
100
AcDbCircle
 10
4170.163567691046
 20
1925.000000000001
 40
9.499999999998
100
AcDbArc
 50
-124.797812779173
 51
0.0
  0
LINE
  5
329
100
AcDbEntity
  8
1
  6
CONTINUOUS
 62
           7
100
AcDbLine
 10
3152.000000000004
 20
1219.750000000002
 11
3230.000000000004
 21
1219.750000000002
  0
LINE
  5
328
100
AcDbEntity
  8
1
  6
CONTINUOUS
 62
           7
100
AcDbLine
 10
3152.000000000004
 20
1239.750000000002
 11
3230.000000000004
 21
1239.750000000002
  0
LINE
  5
327
100
AcDbEntity
  8
1
  6
CONTINUOUS
 62
           7
100
AcDbLine
 10
3115.000000000004
 20
1270.000000000002
 11
3115.000000000004
 21
1256.750000000002
  0
LINE
  5
326
100
AcDbEntity
  8
1
  6
CONTINUOUS
 62
           7
100
AcDbLine
 10
3112.500000000004
 20
1270.000000000002
 11
3137.500000000004
 21
1270.000000000002
  0
LINE
  5
325
100
AcDbEntity
  8
1
  6
CONTINUOUS
 62
           7
100
AcDbLine
 10
3137.500000000004
 20
1300.000000000002
 11
3137.500000000004
 21
1270.000000000002
  0
LINE
  5
324
100
AcDbEntity
  8
1
  6
CONTINUOUS
 62
           7
100
AcDbLine
 10
3112.500000000004
 20
1300.000000000002
 11
3112.500000000004
 21
1270.000000000002
  0
LINE
  5
323
100
AcDbEntity
  8
1
  6
CONTINUOUS
 62
           7
100
AcDbLine
 10
3135.000000000004
 20
1256.750000000002
 11
3135.000000000004
 21
1270.000000000002
  0
LINE
  5
322
100
AcDbEntity
  8
1
  6
CONTINUOUS
 62
           7
100
AcDbLine
 10
3250.000000000004
 20
2050.000000000002
 11
3250.000000000004
 21
2040.000000000002
  0
LINE
  5
321
100
AcDbEntity
  8
1
  6
CONTINUOUS
 62
           4
100
AcDbLine
 10
-1019.999999999996
 20
5980.0
 11
-1019.999999999996
 21
5020.0
  0
LINE
  5
320
100
AcDbEntity
  8
1
  6
CONTINUOUS
 62
           4
100
AcDbLine
 10
-1280.0
 20
5980.0
 11
-1019.999999999996
 21
5980.0
  0
LINE
  5
31F
100
AcDbEntity
  8
1
  6
CONTINUOUS
 62
           4
100
AcDbLine
 10
-1280.0
 20
5020.0
 11
-1280.0
 21
5980.0
  0
LINE
  5
31E
100
AcDbEntity
  8
1
  6
CONTINUOUS
 62
           4
100
AcDbLine
 10
-1019.999999999996
 20
5020.0
 11
-1280.0
 21
5020.0
  0
LINE
  5
31D
100
AcDbEntity
  8
1
  6
CONTINUOUS
 62
           4
100
AcDbLine
 10
1020.0
 20
5020.0
 11
1020.0
 21
5980.0
  0
LINE
  5
31C
100
AcDbEntity
  8
1
  6
CONTINUOUS
 62
           4
100
AcDbLine
 10
1280.000000000003
 20
5020.0
 11
1020.0
 21
5020.0
  0
LINE
  5
31B
100
AcDbEntity
  8
1
  6
CONTINUOUS
 62
           4
100
AcDbLine
 10
1280.000000000003
 20
5980.0
 11
1280.000000000003
 21
5020.0
  0
LINE
  5
31A
100
AcDbEntity
  8
1
  6
CONTINUOUS
 62
           4
100
AcDbLine
 10
1020.0
 20
5980.0
 11
1280.000000000003
 21
5980.0
  0
LINE
  5
319
100
AcDbEntity
  8
1
  6
CONTINUOUS
 62
           7
100
AcDbLine
 10
-1000.0
 20
5000.0
 11
-1000.0
 21
6000.0
  0
LINE
  5
318
100
AcDbEntity
  8
1
  6
CONTINUOUS
 62
           7
100
AcDbLine
 10
1000.0
 20
5000.0
 11
1000.0
 21
6000.0
  0
LINE
  5
317
100
AcDbEntity
  8
1
  6
CONTINUOUS
 62
           7
100
AcDbLine
 10
-1249.999999999996
 20
4500.000000000001
 11
1250.000000000003
 21
4500.000000000001
  0
LINE
  5
316
100
AcDbEntity
  8
1
  6
CONTINUOUS
 62
           4
100
AcDbLine
 10
-1229.999999999996
 20
4520.000000000002
 11
1230.000000000002
 21
4520.000000000002
  0
LINE
  5
315
100
AcDbEntity
  8
1
  6
CONTINUOUS
 62
           4
100
AcDbLine
 10
-1299.999999999997
 20
4020.000000000002
 11
1300.000000000003
 21
4020.000000000002
  0
LINE
  5
314
100
AcDbEntity
  8
1
  6
CONTINUOUS
 62
           7
100
AcDbLine
 10
-499.999999999998
 20
5000.0
 11
-499.999999999998
 21
5174.30780618347
  0
LINE
  5
313
100
AcDbEntity
  8
1
  6
CONTINUOUS
 62
           4
100
AcDbLine
 10
-519.999999999998
 20
5020.0
 11
-519.999999999998
 21
5197.571662593029
  0
LINE
  5
312
100
AcDbEntity
  8
1
  6
CONTINUOUS
 62
           7
100
AcDbLine
 10
500.000000000002
 20
5000.0
 11
500.000000000002
 21
6000.0
  0
LINE
  5
311
100
AcDbEntity
  8
1
  6
CONTINUOUS
 62
           4
100
AcDbLine
 10
520.000000000002
 20
5980.0
 11
520.000000000002
 21
5020.0
  0
LINE
  5
310
100
AcDbEntity
  8
1
  6
CONTINUOUS
 62
           4
100
AcDbLine
 10
3770.000000000004
 20
1980.000000000002
 11
3770.000000000003
 21
1814.464669216336
  0
LINE
  5
30F
100
AcDbEntity
  8
1
  6
CONTINUOUS
 62
           4
100
AcDbLine
 10
4730.000000000003
 20
1980.000000000002
 11
3770.000000000004
 21
1980.000000000002
  0
LINE
  5
30E
100
AcDbEntity
  8
1
  6
CONTINUOUS
 62
           4
100
AcDbLine
 10
4730.000000000003
 20
520.000000000001
 11
4730.000000000003
 21
1980.000000000002
  0
LINE
  5
30D
100
AcDbEntity
  8
1
  6
CONTINUOUS
 62
           4
100
AcDbLine
 10
3770.000000000004
 20
520.000000000001
 11
4730.000000000003
 21
520.000000000001
  0
LINE
  5
30C
100
AcDbEntity
  8
1
  6
CONTINUOUS
 62
           4
100
AcDbLine
 10
3730.000000000004
 20
520.000000000001
 11
3730.000000000004
 21
1715.525103244268
  0
LINE
  5
30B
100
AcDbEntity
  8
1
  6
CONTINUOUS
 62
           4
100
AcDbLine
 10
3270.000000000004
 20
520.000000000001
 11
3730.000000000004
 21
520.000000000001
  0
LINE
  5
30A
100
AcDbEntity
  8
1
  6
CONTINUOUS
 62
           4
100
AcDbLine
 10
3270.000000000004
 20
1980.000000000002
 11
3270.000000000004
 21
520.000000000001
  0
LINE
  5
309
100
AcDbEntity
  8
1
  6
CONTINUOUS
 62
           4
100
AcDbLine
 10
3730.000000000004
 20
1980.000000000002
 11
3270.000000000004
 21
1980.000000000002
  0
LINE
  5
308
100
AcDbEntity
  8
1
  6
CONTINUOUS
 62
           7
100
AcDbLine
 10
3750.000000000003
 20
500.000000000001
 11
3750.000000000004
 21
1767.293273528172
  0
LINE
  5
307
100
AcDbEntity
  8
1
  6
CONTINUOUS
 62
           4
100
AcDbLine
 10
4729.433325304563
 20
20.0
 11
4729.433325304563
 21
479.385061529884
  0
LINE
  5
306
100
AcDbEntity
  8
1
  6
CONTINUOUS
 62
           4
100
AcDbLine
 10
3270.000000000004
 20
20.0
 11
4729.433325304563
 21
20.0
  0
LINE
  5
305
100
AcDbEntity
  8
1
  6
CONTINUOUS
 62
           4
100
AcDbLine
 10
3270.000000000004
 20
479.385061529884
 11
3270.000000000004
 21
20.0
  0
LINE
  5
304
100
AcDbEntity
  8
1
  6
CONTINUOUS
 62
           4
100
AcDbLine
 10
4729.433325304563
 20
479.385061529884
 11
3270.000000000004
 21
479.385061529884
  0
LINE
  5
303
100
AcDbEntity
  8
1
  6
CONTINUOUS
 62
           7
100
AcDbLine
 10
3250.000000000003
 20
500.000000000001
 11
4750.000000000004
 21
500.000000000001
  0
LINE
  5
302
100
AcDbEntity
  8
1
  6
CONTINUOUS
 62
           7
100
AcDbLine
 10
3250.000000000003
 20
0.0
 11
3250.000000000003
 21
2000.000000000002
  0
LINE
  5
301
100
AcDbEntity
  8
1
  6
CONTINUOUS
 62
           4
100
AcDbLine
 10
2770.000000000004
 20
1980.000000000002
 11
2770.000000000004
 21
20.0
  0
LINE
  5
300
100
AcDbEntity
  8
1
  6
CONTINUOUS
 62
           4
100
AcDbLine
 10
3230.000000000004
 20
1980.000000000002
 11
2770.000000000004
 21
1980.000000000002
  0
LINE
  5
2FF
100
AcDbEntity
  8
1
  6
CONTINUOUS
 62
           4
100
AcDbLine
 10
3230.000000000004
 20
20.0
 11
3230.000000000004
 21
1980.000000000002
  0
LINE
  5
2FE
100
AcDbEntity
  8
1
  6
CONTINUOUS
 62
           4
100
AcDbLine
 10
2770.000000000004
 20
20.0
 11
3230.000000000004
 21
20.0
  0
LINE
  5
2FD
100
AcDbEntity
  8
1
  6
CONTINUOUS
 62
           7
100
AcDbLine
 10
-1299.999999999996
 20
4000.000000000001
 11
1300.000000000003
 21
4000.000000000001
  0
LINE
  5
2FC
100
AcDbEntity
  8
1
  6
CONTINUOUS
 62
           7
100
AcDbLine
 10
-1299.999999999996
 20
6000.0
 11
-1299.999999999996
 21
4000.000000000001
  0
LINE
  5
2FB
100
AcDbEntity
  8
1
  6
CONTINUOUS
 62
           7
100
AcDbLine
 10
-1299.999999999996
 20
5000.0
 11
-230.525588832577
 21
5000.0
  0
LINE
  5
2FA
100
AcDbEntity
  8
1
  6
CONTINUOUS
 62
           4
100
AcDbLine
 10
1230.000000000002
 20
4520.000000000002
 11
1230.000000000003
 21
4980.0
  0
LINE
  5
2F9
100
AcDbEntity
  8
1
  6
CONTINUOUS
 62
           4
100
AcDbLine
 10
-1229.999999999996
 20
4980.0
 11
-1229.999999999996
 21
4520.000000000002
  0
LINE
  5
2F8
100
AcDbEntity
  8
1
  6
CONTINUOUS
 62
           4
100
AcDbLine
 10
-979.999999999996
 20
5019.999999999999
 11
-519.999999999998
 21
5020.0
  0
LINE
  5
2F7
100
AcDbEntity
  8
1
  6
CONTINUOUS
 62
           4
100
AcDbLine
 10
-979.999999999996
 20
5019.999999999999
 11
-979.999999999996
 21
5980.0
  0
LINE
  5
2F6
100
AcDbEntity
  8
1
  6
CONTINUOUS
 62
           7
100
AcDbLine
 10
1300.000000000003
 20
6000.0
 11
0.000000000002
 21
6000.0
  0
LINE
  5
2F5
100
AcDbEntity
  8
1
  6
CONTINUOUS
 62
           7
100
AcDbLine
 10
2750.000000000003
 20
0.0
 11
2750.000000000003
 21
2050.000000000002
  0
LINE
  5
2F4
100
AcDbEntity
  8
1
  6
CONTINUOUS
 62
           7
100
AcDbLine
 10
4750.000000000004
 20
0.0
 11
4750.000000000004
 21
2075.000000000001
  0
LINE
  5
2F3
100
AcDbEntity
  8
1
  6
CONTINUOUS
 62
           7
100
AcDbLine
 10
4750.000000000004
 20
2000.000000000002
 11
2750.000000000003
 21
2000.000000000002
  0
LINE
  5
2F2
100
AcDbEntity
  8
1
  6
CONTINUOUS
 62
           4
100
AcDbLine
 10
2750.000000000003
 20
2003.000000000002
 11
3750.000000000003
 21
2003.000000000002
  0
LINE
  5
2F1
100
AcDbEntity
  8
1
  6
CONTINUOUS
 62
           7
100
AcDbLine
 10
2750.000000000003
 20
2050.000000000002
 11
4750.000000000004
 21
2050.000000000002
  0
LINE
  5
2F0
100
AcDbEntity
  8
1
  6
CONTINUOUS
 62
           7
100
AcDbLine
 10
3750.000000000003
 20
2000.000000000002
 11
3750.000000000003
 21
2075.000000000001
  0
LINE
  5
2EF
100
AcDbEntity
  8
1
  6
CONTINUOUS
 62
           7
100
AcDbLine
 10
3750.000000000003
 20
2075.000000000001
 11
4750.000000000004
 21
2075.000000000001
  0
LINE
  5
2EE
100
AcDbEntity
  8
1
  6
DOT_CENTER
 62
           2
100
AcDbLine
 10
0.000000000002
 20
5000.0
 11
0.000000000002
 21
3874.68067624767
  0
LINE
  5
2ED
100
AcDbEntity
  8
1
  6
DOT_CENTER
 62
           2
100
AcDbLine
 10
3975.000000000003
 20
600.000000000001
 11
4125.000000000003
 21
600.000000000001
  0
LINE
  5
2EC
100
AcDbEntity
  8
1
  6
DOT_CENTER
 62
           2
100
AcDbLine
 10
4050.000000000003
 20
675.000000000001
 11
4050.000000000003
 21
525.000000000001
  0
LINE
  5
2EB
100
AcDbEntity
  8
1
  6
CONTINUOUS
 62
           7
100
AcDbLine
 10
1300.000000000003
 20
4000.000000000001
 11
1300.000000000003
 21
6000.0
  0
LINE
  5
2EA
100
AcDbEntity
  8
1
  6
CONTINUOUS
 62
           4
100
AcDbLine
 10
980.000000000003
 20
5980.0
 11
980.000000000003
 21
5020.0
  0
LINE
  5
2E9
100
AcDbEntity
  8
1
  6
CONTINUOUS
 62
           4
100
AcDbLine
 10
1230.000000000003
 20
4480.0
 11
1230.000000000003
 21
4020.000000000002
  0
LINE
  5
2E8
100
AcDbEntity
  8
1
  6
CONTINUOUS
 62
           4
100
AcDbLine
 10
1253.000000000003
 20
5000.0
 11
1253.000000000003
 21
4020.000000000002
  0
LINE
  5
2E7
100
AcDbEntity
  8
1
  6
CONTINUOUS
 62
           4
100
AcDbLine
 10
980.000000000003
 20
5980.0
 11
520.000000000002
 21
5980.0
  0
LINE
  5
2E6
100
AcDbEntity
  8
1
  6
CONTINUOUS
 62
           4
100
AcDbLine
 10
980.000000000003
 20
5020.0
 11
520.000000000002
 21
5020.0
  0
LINE
  5
2E5
100
AcDbEntity
  8
1
  6
CONTINUOUS
 62
           4
100
AcDbLine
 10
-1252.999999999996
 20
5000.0
 11
-1252.999999999996
 21
4020.000000000002
  0
LINE
  5
2E4
100
AcDbEntity
  8
1
  6
CONTINUOUS
 62
           7
100
AcDbLine
 10
5250.000000000004
 20
0.0
 11
2250.000000000003
 21
0.0
  0
LINE
  5
2E3
100
AcDbEntity
  8
1
  6
CONTINUOUS
 62
           4
100
AcDbLine
 10
-1230.0
 20
4480.0
 11
-1229.999999999997
 21
4020.000000000002
  0
LINE
  5
2E2
100
AcDbEntity
  8
1
  6
CONTINUOUS
 62
           4
100
AcDbLine
 10
1230.000000000003
 20
4480.0
 11
-1230.0
 21
4480.0
  0
LINE
  5
2E1
100
AcDbEntity
  8
1
  6
CONTINUOUS
 62
           4
100
AcDbLine
 10
2750.000000000003
 20
2040.000000000002
 11
3750.000000000003
 21
2040.000000000002
  0
LINE
  5
2E0
100
AcDbEntity
  8
1
  6
CONTINUOUS
 62
           4
100
AcDbLine
 10
1290.000000000003
 20
5000.0
 11
1290.000000000003
 21
4020.000000000002
  0
LINE
  5
2DF
100
AcDbEntity
  8
1
  6
CONTINUOUS
 62
           4
100
AcDbLine
 10
-1289.999999999996
 20
5000.0
 11
-1289.999999999996
 21
4020.000000000002
  0
LINE
  5
2DE
100
AcDbEntity
  8
1
  6
CONTINUOUS
 62
           7
100
AcDbLine
 10
2990.000000000003
 20
1862.000000000002
 11
2990.000000000003
 21
1950.000000000002
  0
LINE
  5
2DD
100
AcDbEntity
  8
1
  6
CONTINUOUS
 62
           7
100
AcDbLine
 10
2800.000000000003
 20
1862.000000000002
 11
2990.000000000003
 21
1862.000000000002
  0
LINE
  5
2DC
100
AcDbEntity
  8
1
  6
CONTINUOUS
 62
           7
100
AcDbLine
 10
2800.000000000003
 20
1950.000000000002
 11
2800.000000000003
 21
1862.000000000002
  0
LINE
  5
2DB
100
AcDbEntity
  8
1
  6
CONTINUOUS
 62
           7
100
AcDbLine
 10
2990.000000000003
 20
1950.000000000002
 11
2800.000000000003
 21
1950.000000000002
  0
LINE
  5
2DA
100
AcDbEntity
  8
1
  6
CONTINUOUS
 62
           7
100
AcDbLine
 10
3480.000000000004
 20
1350.0
 11
3300.000000000004
 21
1350.0
  0
LINE
  5
2D9
100
AcDbEntity
  8
1
  6
CONTINUOUS
 62
           7
100
AcDbLine
 10
3300.000000000004
 20
1590.000000000001
 11
3480.000000000004
 21
1590.000000000001
  0
LINE
  5
2D8
100
AcDbEntity
  8
1
  6
CONTINUOUS
 62
           7
100
AcDbLine
 10
3300.000000000004
 20
1350.0
 11
3300.000000000004
 21
1590.000000000001
  0
LINE
  5
2D7
100
AcDbEntity
  8
1
  6
CONTINUOUS
 62
           7
100
AcDbLine
 10
3480.000000000004
 20
1590.000000000001
 11
3480.000000000004
 21
1350.0
  0
LINE
  5
2D6
100
AcDbEntity
  8
1
  6
CONTINUOUS
 62
           4
100
AcDbLine
 10
1230.000000000003
 20
4980.0
 11
54.980390271857
 21
4980.0
  0
LINE
  5
2D5
100
AcDbEntity
  8
1
  6
CONTINUOUS
 62
           7
100
AcDbLine
 10
127.928556845362
 20
5000.0
 11
1300.000000000003
 21
5000.0
  0
LINE
  5
2D4
100
AcDbEntity
  8
1
  6
CONTINUOUS
 62
           7
100
AcDbLine
 10
-649.999999999998
 20
6000.0
 11
-1299.999999999996
 21
6000.0
  0
LINE
  5
2D3
100
AcDbEntity
  8
1
  6
CONTINUOUS
 62
           4
100
AcDbLine
 10
-659.999999999995
 20
5980.0
 11
-979.999999999996
 21
5980.0
  0
LINE
  5
2D2
100
AcDbEntity
  8
1
  6
CONTINUOUS
 62
           7
100
AcDbLine
 10
0.0
 20
500.0
 11
0.0
 21
800.0
  0
LINE
  5
2D1
100
AcDbEntity
  8
1
  6
CONTINUOUS
 62
           7
100
AcDbLine
 10
-15.0
 20
500.0
 11
15.0
 21
500.0
  0
LINE
  5
2D0
100
AcDbEntity
  8
1
  6
CONTINUOUS
 62
           7
100
AcDbLine
 10
-15.0
 20
540.0
 11
-1234.999999999999
 21
540.0
  0
LINE
  5
2CF
100
AcDbEntity
  8
1
  6
CONTINUOUS
 62
           7
100
AcDbLine
 10
-15.0
 20
475.000000000001
 11
-15.0
 21
540.0
  0
LINE
  5
2CE
100
AcDbEntity
  8
1
  6
CONTINUOUS
 62
           7
100
AcDbLine
 10
-1234.999999999999
 20
475.000000000001
 11
-1234.999999999999
 21
540.0
  0
LINE
  5
2CD
100
AcDbEntity
  8
1
  6
CONTINUOUS
 62
           7
100
AcDbLine
 10
-1249.999999999999
 20
475.000000000001
 11
1250.000000000001
 21
475.000000000001
  0
LINE
  5
2CC
100
AcDbEntity
  8
1
  6
CONTINUOUS
 62
           7
100
AcDbLine
 10
1300.000000000001
 20
0.0
 11
1300.000000000001
 21
2150.0
  0
LINE
  5
2CB
100
AcDbEntity
  8
1
  6
CONTINUOUS
 62
           7
100
AcDbLine
 10
-1299.999999999999
 20
2150.0
 11
-1299.999999999999
 21
0.0
  0
LINE
  5
2CA
100
AcDbEntity
  8
1
  6
CONTINUOUS
 62
           7
100
AcDbLine
 10
1300.000000000001
 20
2000.0
 11
-1299.999999999999
 21
2000.0
  0
LINE
  5
2C9
100
AcDbEntity
  8
1
  6
CONTINUOUS
 62
           7
100
AcDbLine
 10
-1249.999999999999
 20
0.0
 11
-1249.999999999999
 21
2000.0
  0
LINE
  5
2C8
100
AcDbEntity
  8
1
  6
CONTINUOUS
 62
           7
100
AcDbLine
 10
1250.000000000001
 20
0.0
 11
1250.000000000001
 21
2000.0
  0
LINE
  5
2C7
100
AcDbEntity
  8
1
  6
CONTINUOUS
 62
           7
100
AcDbLine
 10
1250.000000000001
 20
50.0
 11
-1249.999999999999
 21
50.0
  0
LINE
  5
2C6
100
AcDbEntity
  8
1
  6
CONTINUOUS
 62
           7
100
AcDbLine
 10
-1249.999999999999
 20
400.0
 11
1250.000000000001
 21
400.0
  0
LINE
  5
2C5
100
AcDbEntity
  8
1
  6
CONTINUOUS
 62
           7
100
AcDbLine
 10
1235.000000000001
 20
540.0
 11
1235.000000000001
 21
475.000000000001
  0
LINE
  5
2C4
100
AcDbEntity
  8
1
  6
CONTINUOUS
 62
           7
100
AcDbLine
 10
15.0
 20
540.0
 11
15.0
 21
475.000000000001
  0
LINE
  5
2C3
100
AcDbEntity
  8
1
  6
CONTINUOUS
 62
           7
100
AcDbLine
 10
-1249.999999999999
 20
513.85332266763
 11
-1249.999999999999
 21
572.607085651512
  0
LINE
  5
2C2
100
AcDbEntity
  8
1
  6
CONTINUOUS
 62
           7
100
AcDbLine
 10
-1249.999999999999
 20
800.0
 11
1250.000000000001
 21
800.0
  0
LINE
  5
2C1
100
AcDbEntity
  8
1
  6
CONTINUOUS
 62
           7
100
AcDbLine
 10
1235.000000000001
 20
500.0
 11
1250.000000000001
 21
500.0
  0
LINE
  5
2C0
100
AcDbEntity
  8
1
  6
CONTINUOUS
 62
           7
100
AcDbLine
 10
-1249.999999999999
 20
500.0
 11
-1234.999999999999
 21
500.0
  0
LINE
  5
2BF
100
AcDbEntity
  8
1
  6
CONTINUOUS
 62
           7
100
AcDbLine
 10
1235.000000000001
 20
540.0
 11
15.0
 21
540.0
  0
LINE
  5
2BE
100
AcDbEntity
  8
1
  6
DOT_CENTER
 62
           2
100
AcDbLine
 10
0.0
 20
2075.0
 11
0.0
 21
500.0
  0
LINE
  5
2BD
100
AcDbEntity
  8
1
  6
DOT_CENTER
 62
           2
100
AcDbLine
 10
0.0
 20
500.0
 11
0.0
 21
-130.0
  0
LINE
  5
2BC
100
AcDbEntity
  8
1
  6
CONTINUOUS
 62
           7
100
AcDbLine
 10
-249.999999999999
 20
475.000000000001
 11
-249.999999999999
 21
400.0
  0
LINE
  5
2BB
100
AcDbEntity
  8
1
  6
CONTINUOUS
 62
           7
100
AcDbLine
 10
1250.000000000001
 20
1763.744569986042
 11
-1249.999999999999
 21
1763.744569986042
  0
LINE
  5
2BA
100
AcDbEntity
  8
1
  6
CONTINUOUS
 62
           7
100
AcDbLine
 10
1800.000000000001
 20
0.0
 11
-1799.999999999999
 21
0.0
  0
LINE
  5
2B9
100
AcDbEntity
  8
1
  6
CONTINUOUS
 62
           4
100
AcDbLine
 10
-150.905365064098
 20
4980.0
 11
-1229.999999999996
 21
4980.0
  0
LINE
  5
2B8
100
AcDbEntity
  8
1
  6
CONTINUOUS
 62
           7
100
AcDbLine
 10
1300.000000000001
 20
2150.0
 11
-1299.999999999999
 21
2150.0
  0
LINE
  5
2B7
100
AcDbEntity
  8
1
  6
CONTINUOUS
 62
           7
100
AcDbLine
 10
2750.000000000003
 20
2050.000000000002
 11
2750.000000000004
 21
2150.000000000002
  0
LINE
  5
2B6
100
AcDbEntity
  8
1
  6
CONTINUOUS
 62
           7
100
AcDbLine
 10
2750.000000000004
 20
2150.000000000002
 11
2770.000000000005
 21
2150.000000000002
  0
LINE
  5
2B5
100
AcDbEntity
  8
1
  6
CONTINUOUS
 62
           7
100
AcDbLine
 10
1250.000000000003
 20
4020.000000000002
 11
1250.000000000003
 21
5000.0
  0
LINE
  5
2B4
100
AcDbEntity
  8
1
  6
CONTINUOUS
 62
           7
100
AcDbLine
 10
-1249.999999999996
 20
4020.000000000002
 11
-1249.999999999996
 21
5000.0
  0
LINE
  5
2B3
100
AcDbEntity
  8
1
  6
CONTINUOUS
 62
           7
100
AcDbLine
 10
3000.000000000004
 20
1700.000000000002
 11
3200.000000000004
 21
1700.000000000002
  0
LINE
  5
2B2
100
AcDbEntity
  8
1
  6
CONTINUOUS
 62
           7
100
AcDbLine
 10
3200.000000000004
 20
1700.000000000002
 11
3200.000000000004
 21
1300.000000000002
  0
LINE
  5
2B1
100
AcDbEntity
  8
1
  6
CONTINUOUS
 62
           7
100
AcDbLine
 10
3200.000000000004
 20
1300.000000000002
 11
3000.000000000004
 21
1300.000000000002
  0
LINE
  5
2B0
100
AcDbEntity
  8
1
  6
CONTINUOUS
 62
           7
100
AcDbLine
 10
3000.000000000004
 20
1300.000000000002
 11
3000.000000000004
 21
1700.000000000002
  0
LINE
  5
2AF
100
AcDbEntity
  8
1
  6
CONTINUOUS
 62
           4
100
AcDbLine
 10
3200.000000000004
 20
1700.000000000002
 11
3230.000000000005
 21
1700.000000000002
  0
LINE
  5
2AE
100
AcDbEntity
  8
1
  6
CONTINUOUS
 62
           4
100
AcDbLine
 10
3200.000000000004
 20
1300.000000000002
 11
3230.000000000005
 21
1300.000000000002
  0
LINE
  5
2AD
100
AcDbEntity
  8
1
  6
CONTINUOUS
 62
           7
100
AcDbLine
 10
1300.000000000001
 20
1700.000000000002
 11
1460.000000000001
 21
1700.000000000002
  0
LINE
  5
2AC
100
AcDbEntity
  8
1
  6
CONTINUOUS
 62
           7
100
AcDbLine
 10
1460.000000000001
 20
1700.000000000002
 11
1460.000000000001
 21
1300.000000000002
  0
LINE
  5
2AB
100
AcDbEntity
  8
1
  6
CONTINUOUS
 62
           7
100
AcDbLine
 10
1460.000000000001
 20
1300.000000000002
 11
1300.000000000001
 21
1300.000000000002
  0
LINE
  5
2AA
100
AcDbEntity
  8
1
  6
CONTINUOUS
 62
           7
100
AcDbLine
 10
1300.000000000003
 20
4450.000000000001
 11
1460.000000000001
 21
4450.000000000001
  0
LINE
  5
2A9
100
AcDbEntity
  8
1
  6
CONTINUOUS
 62
           7
100
AcDbLine
 10
1460.000000000001
 20
4450.000000000001
 11
1460.000000000001
 21
4250.000000000001
  0
LINE
  5
2A8
100
AcDbEntity
  8
1
  6
CONTINUOUS
 62
           7
100
AcDbLine
 10
1460.000000000001
 20
4250.000000000001
 11
1300.000000000003
 21
4250.000000000001
  0
LINE
  5
2A7
100
AcDbEntity
  8
1
  6
CONTINUOUS
 62
           7
100
AcDbLine
 10
-1069.497691536608
 20
986.513526798369
 11
75.000000000001
 21
986.513526798369
  0
LINE
  5
2A6
100
AcDbEntity
  8
___S__
  6
DOT_CENTER
 62
           3
100
AcDbLine
 10
-1074.999999999999
 20
1067.063266596461
 11
-1075.0
 21
982.067556365335
  0
LINE
  5
2A5
100
AcDbEntity
  8
____
  6
CONTINUOUS
 62
           3
100
AcDbLine
 10
-1069.595947044879
 20
1060.459504816179
 11
-1069.595947044879
 21
1058.581574068056
  0
LINE
  5
2A4
100
AcDbEntity
  8
____
  6
CONTINUOUS
 62
           3
100
AcDbLine
 10
-1079.912775413743
 20
1060.92898750321
 11
-1070.087224586254
 21
1060.92898750321
  0
LINE
  5
2A3
100
AcDbEntity
  8
____
  6
CONTINUOUS
 62
           3
100
AcDbLine
 10
-1080.404052955117
 20
1058.581574068056
 11
-1080.404052955117
 21
1060.459504816179
  0
LINE
  5
2A2
100
AcDbEntity
  8
____
  6
CONTINUOUS
 62
           3
100
AcDbLine
 10
-1069.497691536607
 20
1022.900889853723
 11
-1080.502308463384
 21
1022.900889853724
  0
LINE
  5
2A1
100
AcDbEntity
  8
____
  6
CONTINUOUS
 62
           3
100
AcDbLine
 10
-1069.497691536606
 20
1058.581574068056
 11
-1069.497691536607
 21
1022.900889853723
  0
LINE
  5
2A0
100
AcDbEntity
  8
____
  6
CONTINUOUS
 62
           3
100
AcDbLine
 10
-1080.502308463383
 20
1058.581574068056
 11
-1069.497691536606
 21
1058.581574068056
  0
LINE
  5
29F
100
AcDbEntity
  8
____
  6
CONTINUOUS
 62
           3
100
AcDbLine
 10
-1080.502308463384
 20
1022.900889853724
 11
-1080.502308463383
 21
1058.581574068056
  0
LINE
  5
29E
100
AcDbEntity
  8
____
  6
CONTINUOUS
 62
           3
100
AcDbLine
 10
-1080.404052955119
 20
984.403309517207
 11
-1080.404052955119
 21
986.281240265329
  0
LINE
  5
29D
100
AcDbEntity
  8
____
  6
CONTINUOUS
 62
           3
100
AcDbLine
 10
-1070.087224586256
 20
983.933826830175
 11
-1079.912775413745
 21
983.933826830175
  0
LINE
  5
29C
100
AcDbEntity
  8
____
  6
CONTINUOUS
 62
           3
100
AcDbLine
 10
-1069.595947044881
 20
986.281240265329
 11
-1069.595947044881
 21
984.403309517207
  0
LINE
  5
29B
100
AcDbEntity
  8
____
  6
CONTINUOUS
 62
           3
100
AcDbLine
 10
-1080.158414184431
 20
1022.900889853724
 11
-1080.158414184431
 21
1021.961924479662
  0
LINE
  5
29A
100
AcDbEntity
  8
____
  6
CONTINUOUS
 62
           3
100
AcDbLine
 10
-1069.841585815568
 20
1022.900889853723
 11
-1080.158414184431
 21
1022.900889853724
  0
LINE
  5
299
100
AcDbEntity
  8
____
  6
CONTINUOUS
 62
           3
100
AcDbLine
 10
-1069.841585815568
 20
1021.961924479662
 11
-1069.841585815568
 21
1022.900889853723
  0
LINE
  5
298
100
AcDbEntity
  8
____
  6
CONTINUOUS
 62
           3
100
AcDbLine
 10
-1080.404052955117
 20
1060.459504816179
 11
-1069.595947044879
 21
1060.459504816179
  0
LINE
  5
297
100
AcDbEntity
  8
____
  6
CONTINUOUS
 62
           3
100
AcDbLine
 10
-1080.502308463384
 20
1021.961924479662
 11
-1069.497691536607
 21
1021.961924479662
  0
LINE
  5
296
100
AcDbEntity
  8
____
  6
CONTINUOUS
 62
           3
100
AcDbLine
 10
-1080.502308463384
 20
986.281240265329
 11
-1080.502308463384
 21
1021.961924479662
  0
LINE
  5
295
100
AcDbEntity
  8
____
  6
CONTINUOUS
 62
           3
100
AcDbLine
 10
-1069.497691536608
 20
986.281240265329
 11
-1080.502308463384
 21
986.281240265329
  0
LINE
  5
294
100
AcDbEntity
  8
____
  6
CONTINUOUS
 62
           3
100
AcDbLine
 10
-1069.497691536607
 20
1021.961924479662
 11
-1069.497691536608
 21
986.281240265329
  0
LINE
  5
293
100
AcDbEntity
  8
____
  6
CONTINUOUS
 62
           3
100
AcDbLine
 10
-1080.404052955117
 20
1060.459504816179
 11
-1079.912775413743
 21
1060.92898750321
  0
LINE
  5
292
100
AcDbEntity
  8
____
  6
CONTINUOUS
 62
           3
100
AcDbLine
 10
-1070.087224586254
 20
1060.92898750321
 11
-1069.595947044879
 21
1060.459504816179
  0
LINE
  5
291
100
AcDbEntity
  8
____
  6
CONTINUOUS
 62
           3
100
AcDbLine
 10
-1079.912775413745
 20
983.933826830175
 11
-1080.404052955119
 21
984.403309517207
  0
LINE
  5
290
100
AcDbEntity
  8
____
  6
CONTINUOUS
 62
           3
100
AcDbLine
 10
-1069.595947044881
 20
984.403309517207
 11
-1070.087224586256
 21
983.933826830175
  0
LINE
  5
28F
100
AcDbEntity
  8
____
  6
CONTINUOUS
 62
           3
100
AcDbLine
 10
-1080.404052955119
 20
984.403309517207
 11
-1069.595947044881
 21
984.403309517207
  0
LINE
  5
28E
100
AcDbEntity
  8
____
  6
CONTINUOUS
 62
           3
100
AcDbLine
 10
-1080.404052955095
 20
1538.39288020726
 11
-1069.595947044857
 21
1538.39288020726
  0
LINE
  5
28D
100
AcDbEntity
  8
____
  6
CONTINUOUS
 62
           3
100
AcDbLine
 10
-1069.595947044857
 20
1538.39288020726
 11
-1070.087224586231
 21
1537.923397520231
  0
LINE
  5
28C
100
AcDbEntity
  8
____
  6
CONTINUOUS
 62
           3
100
AcDbLine
 10
-1079.91277541372
 20
1537.923397520231
 11
-1080.404052955095
 21
1538.39288020726
  0
LINE
  5
28B
100
AcDbEntity
  8
____
  6
CONTINUOUS
 62
           3
100
AcDbLine
 10
-1070.087224586231
 20
1614.918558193264
 11
-1069.595947044856
 21
1614.449075506232
  0
LINE
  5
28A
100
AcDbEntity
  8
____
  6
CONTINUOUS
 62
           3
100
AcDbLine
 10
-1080.404052955094
 20
1614.449075506232
 11
-1079.912775413719
 21
1614.918558193264
  0
LINE
  5
289
100
AcDbEntity
  8
____
  6
CONTINUOUS
 62
           3
100
AcDbLine
 10
-1069.497691536591
 20
1575.951495169716
 11
-1069.497691536591
 21
1540.270810955383
  0
LINE
  5
288
100
AcDbEntity
  8
____
  6
CONTINUOUS
 62
           3
100
AcDbLine
 10
-1069.497691536591
 20
1540.270810955383
 11
-1080.502308463368
 21
1540.270810955383
  0
LINE
  5
287
100
AcDbEntity
  8
____
  6
CONTINUOUS
 62
           3
100
AcDbLine
 10
-1080.502308463368
 20
1540.270810955383
 11
-1080.502308463368
 21
1575.951495169716
  0
LINE
  5
286
100
AcDbEntity
  8
____
  6
CONTINUOUS
 62
           3
100
AcDbLine
 10
-1080.502308463368
 20
1575.951495169716
 11
-1069.497691536591
 21
1575.951495169716
  0
LINE
  5
285
100
AcDbEntity
  8
____
  6
CONTINUOUS
 62
           3
100
AcDbLine
 10
-1080.404052955094
 20
1614.449075506232
 11
-1069.595947044856
 21
1614.449075506232
  0
LINE
  5
284
100
AcDbEntity
  8
____
  6
CONTINUOUS
 62
           3
100
AcDbLine
 10
-1069.841585815544
 20
1575.951495169716
 11
-1069.841585815544
 21
1576.890460543777
  0
LINE
  5
283
100
AcDbEntity
  8
____
  6
CONTINUOUS
 62
           3
100
AcDbLine
 10
-1069.841585815544
 20
1576.890460543777
 11
-1080.158414184407
 21
1576.890460543777
  0
LINE
  5
282
100
AcDbEntity
  8
____
  6
CONTINUOUS
 62
           3
100
AcDbLine
 10
-1080.158414184407
 20
1576.890460543777
 11
-1080.158414184407
 21
1575.951495169716
  0
LINE
  5
281
100
AcDbEntity
  8
____
  6
CONTINUOUS
 62
           3
100
AcDbLine
 10
-1069.595947044857
 20
1540.270810955383
 11
-1069.595947044857
 21
1538.39288020726
  0
LINE
  5
280
100
AcDbEntity
  8
____
  6
CONTINUOUS
 62
           3
100
AcDbLine
 10
-1070.087224586231
 20
1537.923397520231
 11
-1079.91277541372
 21
1537.923397520231
  0
LINE
  5
27F
100
AcDbEntity
  8
____
  6
CONTINUOUS
 62
           3
100
AcDbLine
 10
-1080.404052955095
 20
1538.39288020726
 11
-1080.404052955095
 21
1540.270810955383
  0
LINE
  5
27E
100
AcDbEntity
  8
____
  6
CONTINUOUS
 62
           3
100
AcDbLine
 10
-1080.502308463368
 20
1576.890460543777
 11
-1080.502308463367
 21
1612.571144758109
  0
LINE
  5
27D
100
AcDbEntity
  8
____
  6
CONTINUOUS
 62
           3
100
AcDbLine
 10
-1080.502308463367
 20
1612.571144758109
 11
-1069.49769153659
 21
1612.571144758108
  0
LINE
  5
27C
100
AcDbEntity
  8
____
  6
CONTINUOUS
 62
           3
100
AcDbLine
 10
-1069.49769153659
 20
1612.571144758108
 11
-1069.497691536591
 21
1576.890460543777
  0
LINE
  5
27B
100
AcDbEntity
  8
____
  6
CONTINUOUS
 62
           3
100
AcDbLine
 10
-1069.497691536591
 20
1576.890460543777
 11
-1080.502308463368
 21
1576.890460543777
  0
LINE
  5
27A
100
AcDbEntity
  8
____
  6
CONTINUOUS
 62
           3
100
AcDbLine
 10
-1080.404052955094
 20
1612.571144758109
 11
-1080.404052955094
 21
1614.449075506232
  0
LINE
  5
279
100
AcDbEntity
  8
____
  6
CONTINUOUS
 62
           3
100
AcDbLine
 10
-1079.912775413719
 20
1614.918558193264
 11
-1070.087224586231
 21
1614.918558193264
  0
LINE
  5
278
100
AcDbEntity
  8
____
  6
CONTINUOUS
 62
           3
100
AcDbLine
 10
-1069.595947044856
 20
1614.449075506232
 11
-1069.595947044856
 21
1612.571144758108
  0
LINE
  5
277
100
AcDbEntity
  8
___S__
  6
DOT_CENTER
 62
           3
100
AcDbLine
 10
-1074.999999999975
 20
1621.052837286498
 11
-1074.999999999976
 21
1536.05712705539
  0
LINE
  5
276
100
AcDbEntity
  8
1
  6
CONTINUOUS
 62
           7
100
AcDbLine
 10
-1074.999999999999
 20
941.513526798366
 11
75.000000000001
 21
941.513526798366
  0
LINE
  5
275
100
AcDbEntity
  8
1
  6
CONTINUOUS
 62
           7
100
AcDbLine
 10
75.000000000001
 20
941.513526798366
 11
75.000000000001
 21
1646.282992387803
  0
LINE
  5
274
100
AcDbEntity
  8
1
  6
CONTINUOUS
 62
           7
100
AcDbLine
 10
-1074.999999999999
 20
941.513526798366
 11
-1074.999999999999
 21
1646.282992387803
  0
LINE
  5
273
100
AcDbEntity
  8
1
  6
CONTINUOUS
 62
           7
100
AcDbLine
 10
75.000000000001
 20
1646.282992387803
 11
-1074.999999999999
 21
1646.282992387803
  0
LINE
  5
272
100
AcDbEntity
  8
1
  6
CONTINUOUS
 62
           3
100
AcDbLine
 10
14.395796321875
 20
1294.328109327061
 11
12.007850321894
 21
1267.07098532706
  0
LINE
  5
271
100
AcDbEntity
  8
1
  6
CONTINUOUS
 62
           3
100
AcDbLine
 10
12.007850321894
 20
1323.330711327061
 11
14.395796321875
 21
1296.073587327061
  0
LINE
  5
270
100
AcDbEntity
  8
1
  6
CONTINUOUS
 62
           3
100
AcDbLine
 10
2.548714321875
 20
1294.328109327061
 11
4.936660321885
 21
1267.07098532706
  0
LINE
  5
26F
100
AcDbEntity
  8
1
  6
CONTINUOUS
 62
           3
100
AcDbLine
 10
4.936660321885
 20
1323.330711327061
 11
2.548714321875
 21
1296.073587327061
  0
LINE
  5
26E
100
AcDbEntity
  8
1
  6
DOT_CENTER
 62
           3
100
AcDbLine
 10
53.472255321879
 20
1295.200848327051
 11
-36.525199678126
 21
1295.200848327051
  0
LINE
  5
26D
100
AcDbEntity
  8
1
  6
DOT_CENTER
 62
           3
100
AcDbLine
 10
8.472255321879
 20
1340.200848327051
 11
8.472255321879
 21
1250.202277327051
  0
LINE
  5
26C
100
AcDbEntity
  8
1
  6
CONTINUOUS
 62
           7
100
AcDbLine
 10
1250.000000000001
 20
1763.744569986044
 11
-1249.999999999999
 21
1763.744569986044
  0
LINE
  5
26B
100
AcDbEntity
  8
1
  6
CONTINUOUS
 62
           7
100
AcDbLine
 10
250.0
 20
1763.744569986044
 11
250.0
 21
800.0
  0
LINE
  5
26A
100
AcDbEntity
  8
1
  6
CONTINUOUS
 62
           7
100
AcDbLine
 10
1250.000000000001
 20
1900.000000000001
 11
-1249.999999999999
 21
1900.000000000001
  0
LINE
  5
269
100
AcDbEntity
  8
1
  6
CONTINUOUS
 62
           7
100
AcDbLine
 10
-249.999999999999
 20
2000.0
 11
-249.999999999999
 21
1763.744569986044
  0
LINE
  5
268
100
AcDbEntity
  8
1
  6
CONTINUOUS
 62
           4
100
AcDbLine
 10
3770.000000000003
 20
1800.831132334581
 11
3770.000000000004
 21
520.000000000001
  0
LINE
  5
267
100
AcDbEntity
  8
1
  6
CONTINUOUS
 62
           7
100
AcDbLine
 10
3750.000000000004
 20
1784.157226830838
 11
3750.000000000003
 21
2000.000000000002
  0
LINE
  5
266
100
AcDbEntity
  8
1
  6
CONTINUOUS
 62
           4
100
AcDbLine
 10
3730.000000000004
 20
1741.488764155298
 11
3730.000000000004
 21
1980.000000000002
  0
LINE
  5
265
100
AcDbEntity
  8
1
  6
CONTINUOUS
 62
           7
100
AcDbLine
 10
3300.000000000005
 20
1640.000000000001
 11
3480.000000000005
 21
1640.000000000001
  0
LINE
  5
264
100
AcDbEntity
  8
1
  6
CONTINUOUS
 62
           7
100
AcDbLine
 10
3480.000000000005
 20
1640.000000000001
 11
3480.000000000005
 21
1753.000000000002
  0
LINE
  5
263
100
AcDbEntity
  8
1
  6
CONTINUOUS
 62
           7
100
AcDbLine
 10
3480.000000000005
 20
1753.000000000002
 11
3300.000000000005
 21
1753.000000000001
  0
LINE
  5
262
100
AcDbEntity
  8
1
  6
CONTINUOUS
 62
           7
100
AcDbLine
 10
3300.000000000005
 20
1753.000000000001
 11
3300.000000000005
 21
1640.000000000001
  0
LINE
  5
261
100
AcDbEntity
  8
1
  6
DOT_CENTER
 62
           2
100
AcDbLine
 10
0.000000000005
 20
6127.670465041156
 11
0.000000000005
 21
4802.453178774496
  0
LINE
  5
260
100
AcDbEntity
  8
1
  6
CONTINUOUS
 62
           4
100
AcDbLine
 10
134.432661752785
 20
5482.5
 11
117.908702762048
 21
5482.5
  0
LINE
  5
25F
100
AcDbEntity
  8
1
  6
CONTINUOUS
 62
           4
100
AcDbLine
 10
134.432661752785
 20
5597.5
 11
117.908702762048
 21
5597.5
  0
LINE
  5
25E
100
AcDbEntity
  8
1
  6
CONTINUOUS
 62
           7
100
AcDbLine
 10
185.000000000002
 20
5476.5
 11
144.824966598198
 21
5476.5
  0
LINE
  5
25D
100
AcDbEntity
  8
1
  6
CONTINUOUS
 62
           7
100
AcDbLine
 10
144.824966598198
 20
5603.5
 11
185.000000000002
 21
5603.5
  0
LINE
  5
25C
100
AcDbEntity
  8
1
  6
CONTINUOUS
 62
           7
100
AcDbLine
 10
132.824966598198
 20
5488.5
 11
132.824966598198
 21
5591.5
  0
LINE
  5
25B
100
AcDbEntity
  8
1
  6
CONTINUOUS
 62
           7
100
AcDbLine
 10
197.000000000002
 20
5591.5
 11
197.000000000002
 21
5488.5
  0
LINE
  5
25A
100
AcDbEntity
  8
1
  6
CONTINUOUS
 62
           4
100
AcDbLine
 10
-689.999999999995
 20
6045.5
 11
40.000000000005
 21
6045.5
  0
LINE
  5
259
100
AcDbEntity
  8
1
  6
CONTINUOUS
 62
           7
100
AcDbLine
 10
40.000000000005
 20
6050.0
 11
-689.999999999995
 21
6050.0
  0
LINE
  5
258
100
AcDbEntity
  8
1
  6
CONTINUOUS
 62
           4
100
AcDbLine
 10
40.000000000005
 20
6054.5
 11
-689.999999999995
 21
6054.5
  0
LINE
  5
257
100
AcDbEntity
  8
1
  6
DOT_CENTER
 62
           2
100
AcDbLine
 10
-324.999999999996
 20
6158.888968922949
 11
-324.999999999996
 21
5726.651872456059
  0
LINE
  5
256
100
AcDbEntity
  8
1
  6
DOT_CENTER
 62
           2
100
AcDbLine
 10
-684.88800322481
 20
5540.0
 11
514.155542433881
 21
5540.0
  0
LINE
  5
255
100
AcDbEntity
  8
1
  6
CONTINUOUS
 62
           7
100
AcDbLine
 10
0.000000000002
 20
6000.0
 11
0.000000000005
 21
6010.0
  0
LINE
  5
254
100
AcDbEntity
  8
1
  6
CONTINUOUS
 62
           7
100
AcDbLine
 10
-649.999999999995
 20
6010.0
 11
-649.999999999995
 21
6000.0
  0
LINE
  5
253
100
AcDbEntity
  8
1
  6
CONTINUOUS
 62
           7
100
AcDbLine
 10
-659.999999999995
 20
5990.0
 11
-649.999999999995
 21
6000.0
  0
LINE
  5
252
100
AcDbEntity
  8
1
  6
CONTINUOUS
 62
           7
100
AcDbLine
 10
31.87523434135
 20
5944.790474617625
 11
0.000000000002
 21
6000.0
  0
LINE
  5
251
100
AcDbEntity
  8
1
  6
CONTINUOUS
 62
           7
100
AcDbLine
 10
-659.999999999995
 20
5990.0
 11
-659.999999999995
 21
5589.999999999996
  0
LINE
  5
250
100
AcDbEntity
  8
1
  6
CONTINUOUS
 62
           7
100
AcDbLine
 10
-689.999999999995
 20
6085.0
 11
-689.999999999995
 21
6050.0
  0
LINE
  5
24F
100
AcDbEntity
  8
1
  6
CONTINUOUS
 62
           7
100
AcDbLine
 10
-689.999999999995
 20
6085.0
 11
-684.999999999995
 21
6090.0
  0
LINE
  5
24E
100
AcDbEntity
  8
1
  6
CONTINUOUS
 62
           7
100
AcDbLine
 10
35.000000000005
 20
6090.0
 11
-684.999999999995
 21
6090.0
  0
LINE
  5
24D
100
AcDbEntity
  8
1
  6
CONTINUOUS
 62
           7
100
AcDbLine
 10
35.000000000005
 20
6090.0
 11
40.000000000005
 21
6085.0
  0
LINE
  5
24C
100
AcDbEntity
  8
1
  6
CONTINUOUS
 62
           7
100
AcDbLine
 10
40.000000000005
 20
6050.0
 11
40.000000000005
 21
6085.0
  0
LINE
  5
24B
100
AcDbEntity
  8
1
  6
CONTINUOUS
 62
           7
100
AcDbLine
 10
40.000000000005
 20
6015.0
 11
40.000000000005
 21
6050.0
  0
LINE
  5
24A
100
AcDbEntity
  8
1
  6
CONTINUOUS
 62
           7
100
AcDbLine
 10
40.000000000005
 20
6015.0
 11
35.000000000005
 21
6010.0
  0
LINE
  5
249
100
AcDbEntity
  8
1
  6
CONTINUOUS
 62
           7
100
AcDbLine
 10
-684.999999999995
 20
6010.0
 11
35.000000000005
 21
6010.0
  0
LINE
  5
248
100
AcDbEntity
  8
1
  6
CONTINUOUS
 62
           7
100
AcDbLine
 10
-684.999999999995
 20
6010.0
 11
-689.999999999995
 21
6015.0
  0
LINE
  5
247
100
AcDbEntity
  8
1
  6
CONTINUOUS
 62
           7
100
AcDbLine
 10
-689.999999999995
 20
6050.0
 11
-689.999999999995
 21
6015.0
  0
LINE
  5
246
100
AcDbEntity
  8
1
  6
CONTINUOUS
 62
           7
100
AcDbLine
 10
445.000000000005
 20
5640.0
 11
170.000000200064
 21
5915.0
  0
LINE
  5
245
100
AcDbEntity
  8
1
  6
CONTINUOUS
 62
           7
100
AcDbLine
 10
-645.983368801931
 20
5535.531349823828
 11
-56.963420073537
 21
4946.511401095433
  0
LINE
  5
244
100
AcDbEntity
  8
1
  6
CONTINUOUS
 62
           7
100
AcDbLine
 10
-179.999999999996
 20
6010.0
 11
-649.999999999997
 21
5540.0
  0
LINE
  5
243
100
AcDbEntity
  8
1
  6
CONTINUOUS
 62
           7
100
AcDbLine
 10
-650.226009489051
 20
5539.773990510948
 11
-645.983368801931
 21
5535.531349823828
  0
LINE
  5
242
100
AcDbEntity
  8
1
  6
CONTINUOUS
 62
           7
100
AcDbLine
 10
-52.720779386417
 20
4942.268760408313
 11
470.538238691627
 21
5465.527778486357
  0
LINE
  5
241
100
AcDbEntity
  8
1
  6
CONTINUOUS
 62
           7
100
AcDbLine
 10
-56.963420073537
 20
4946.511401095433
 11
-52.720779386417
 21
4942.268760408313
  0
LINE
  5
240
100
AcDbEntity
  8
1
  6
CONTINUOUS
 62
           7
100
AcDbLine
 10
-649.999999999997
 20
5540.0
 11
-650.226009489051
 21
5539.773990510948
  0
LINE
  5
23F
100
AcDbEntity
  8
1
  6
CONTINUOUS
 62
           7
100
AcDbLine
 10
216.000000000002
 20
5324.000000000002
 11
216.000000000005
 21
5810.0
  0
LINE
  5
23E
100
AcDbEntity
  8
1
  6
CONTINUOUS
 62
           7
100
AcDbLine
 10
-215.999999999996
 20
5324.000000000002
 11
270.000000000005
 21
5324.000000000002
  0
LINE
  5
23D
100
AcDbEntity
  8
1
  6
CONTINUOUS
 62
           7
100
AcDbLine
 10
-215.999999999997
 20
5756.000000000002
 11
-215.999999999996
 21
5270.0
  0
LINE
  5
23C
100
AcDbEntity
  8
1
  6
CONTINUOUS
 62
           7
100
AcDbLine
 10
216.000000000006
 20
5756.000000000002
 11
-269.999999999996
 21
5756.000000000002
  0
LINE
  5
23B
100
AcDbEntity
  8
1
  6
CONTINUOUS
 62
           7
100
AcDbLine
 10
-52.720779386419
 20
2150.0
 11
-52.720779386419
 21
2165.0
  0
LINE
  5
23A
100
AcDbEntity
  8
1
  6
CONTINUOUS
 62
           7
100
AcDbLine
 10
197.000000000001
 20
2788.3
 11
197.000000000001
 21
2712.299999999999
  0
LINE
  5
239
100
AcDbEntity
  8
1
  6
CONTINUOUS
 62
           7
100
AcDbLine
 10
122.4963968
 20
2712.299999999999
 11
122.4963968
 21
2788.3
  0
LINE
  5
238
100
AcDbEntity
  8
1
  6
CONTINUOUS
 62
           7
100
AcDbLine
 10
134.4963968
 20
2800.299999999999
 11
185.000000000001
 21
2800.299999999999
  0
LINE
  5
237
100
AcDbEntity
  8
1
  6
CONTINUOUS
 62
           7
100
AcDbLine
 10
185.000000000001
 20
2700.299999999999
 11
134.4963968
 21
2700.299999999999
  0
LINE
  5
236
100
AcDbEntity
  8
2
  6
CONTINUOUS
 62
           4
100
AcDbLine
 10
109.2423704
 20
2659.099999999999
 11
-112.242370399999
 21
2659.099999999999
  0
LINE
  5
235
100
AcDbEntity
  8
7
  6
CONTINUOUS
 62
           7
100
AcDbLine
 10
125.000000000001
 20
2945.231865248042
 11
125.000000000001
 21
2912.186819199999
  0
LINE
  5
234
100
AcDbEntity
  8
7
  6
CONTINUOUS
 62
           7
100
AcDbLine
 10
-124.999999999999
 20
2945.231865248042
 11
-121.4
 21
2978.1336284
  0
LINE
  5
233
100
AcDbEntity
  8
1
  6
CONTINUOUS
 62
           4
100
AcDbLine
 10
125.000000000001
 20
2945.231865248042
 11
-124.999999999999
 21
2945.231865248042
  0
LINE
  5
232
100
AcDbEntity
  8
2
  6
CONTINUOUS
 62
           7
100
AcDbLine
 10
-112.242370399999
 20
2659.099999999999
 11
-125.4963968
 21
2690.900000000001
  0
LINE
  5
231
100
AcDbEntity
  8
2
  6
CONTINUOUS
 62
           7
100
AcDbLine
 10
-125.4963968
 20
2766.150000000001
 11
-125.4963968
 21
2690.900000000001
  0
LINE
  5
230
100
AcDbEntity
  8
2
  6
CONTINUOUS
 62
           7
100
AcDbLine
 10
-119.7446492
 20
2912.186819199999
 11
-125.4963968
 21
2898.3868192
  0
LINE
  5
22F
100
AcDbEntity
  8
2
  6
CONTINUOUS
 62
           7
100
AcDbLine
 10
-125.4963968
 20
2766.150000000001
 11
-125.4963968
 21
2898.3868192
  0
LINE
  5
22E
100
AcDbEntity
  8
2
  6
CONTINUOUS
 62
           4
100
AcDbLine
 10
-107.06
 20
2659.099999999999
 11
-107.06
 21
2649.0
  0
LINE
  5
22D
100
AcDbEntity
  8
2
  6
CONTINUOUS
 62
           4
100
AcDbLine
 10
104.06
 20
2649.0
 11
104.06
 21
2659.099999999999
  0
LINE
  5
22C
100
AcDbEntity
  8
2
  6
CONTINUOUS
 62
           7
100
AcDbLine
 10
122.4963968
 20
2898.386819199999
 11
122.4963968
 21
2766.150000000001
  0
LINE
  5
22B
100
AcDbEntity
  8
2
  6
CONTINUOUS
 62
           7
100
AcDbLine
 10
122.4963968
 20
2898.386819199999
 11
116.7446492
 21
2912.186819199999
  0
LINE
  5
22A
100
AcDbEntity
  8
2
  6
CONTINUOUS
 62
           7
100
AcDbLine
 10
122.4963968
 20
2690.900000000001
 11
122.4963968
 21
2766.150000000001
  0
LINE
  5
229
100
AcDbEntity
  8
2
  6
CONTINUOUS
 62
           7
100
AcDbLine
 10
122.4963968
 20
2690.900000000001
 11
109.2423704
 21
2659.099999999999
  0
LINE
  5
228
100
AcDbEntity
  8
7
  6
CONTINUOUS
 62
           7
100
AcDbLine
 10
0.0
 20
3007.999999999999
 11
85.52
 21
3007.999999999999
  0
LINE
  5
227
100
AcDbEntity
  8
7
  6
CONTINUOUS
 62
           7
100
AcDbLine
 10
90.3834164
 20
3002.483395999999
 11
115.1312408
 21
2982.6340352
  0
LINE
  5
226
100
AcDbEntity
  8
7
  6
CONTINUOUS
 62
           4
100
AcDbLine
 10
-120.190427599999
 20
2982.2
 11
117.56
 21
2982.2
  0
LINE
  5
225
100
AcDbEntity
  8
7
  6
CONTINUOUS
 62
           7
100
AcDbLine
 10
121.4
 20
2978.36
 11
125.000000000001
 21
2945.231865248042
  0
LINE
  5
224
100
AcDbEntity
  8
7
  6
CONTINUOUS
 62
           7
100
AcDbLine
 10
125.000000000001
 20
2912.186819199999
 11
-124.999999999999
 21
2912.186819199999
  0
LINE
  5
223
100
AcDbEntity
  8
7
  6
CONTINUOUS
 62
           7
100
AcDbLine
 10
-124.999999999999
 20
2912.186819199999
 11
-124.999999999999
 21
2945.231865248042
  0
LINE
  5
222
100
AcDbEntity
  8
7
  6
CONTINUOUS
 62
           7
100
AcDbLine
 10
0.0
 20
3007.999999999999
 11
-88.52
 21
3007.999999999999
  0
LINE
  5
221
100
AcDbEntity
  8
7
  6
CONTINUOUS
 62
           7
100
AcDbLine
 10
-93.383417599999
 20
3002.483395999999
 11
-117.9774116
 21
2984.395737199999
  0
LINE
  5
220
100
AcDbEntity
  8
1
  6
DOT_CENTER
 62
           2
100
AcDbLine
 10
533.829689541416
 20
2385.000000000003
 11
-732.147676803783
 21
2385.000000000001
  0
LINE
  5
21F
100
AcDbEntity
  8
1
  6
CONTINUOUS
 62
           2
100
AcDbLine
 10
467.97406200061
 20
2565.000000000003
 11
425.133110726257
 21
2565.000000000003
  0
LINE
  5
21E
100
AcDbEntity
  8
1
  6
CONTINUOUS
 62
           2
100
AcDbLine
 10
425.133110726257
 20
2205.000000000002
 11
467.97406200061
 21
2205.000000000003
  0
LINE
  5
21D
100
AcDbEntity
  8
1
  6
CONTINUOUS
 62
           2
100
AcDbLine
 10
425.133110726257
 20
2565.000000000003
 11
425.133110726257
 21
2205.000000000002
  0
LINE
  5
21C
100
AcDbEntity
  8
1
  6
CONTINUOUS
 62
           7
100
AcDbLine
 10
-649.226009489053
 20
2164.999999999996
 11
-649.226009489053
 21
2150.0
  0
LINE
  5
21B
100
AcDbEntity
  8
1
  6
CONTINUOUS
 62
           7
100
AcDbLine
 10
-648.999999999994
 20
2605.0
 11
-648.999999999994
 21
2164.999999999996
  0
LINE
  5
21A
100
AcDbEntity
  8
1
  6
CONTINUOUS
 62
           7
100
AcDbLine
 10
-649.226009489053
 20
2605.0
 11
-649.226009489053
 21
2642.999999999999
  0
LINE
  5
219
100
AcDbEntity
  8
1
  6
CONTINUOUS
 62
           7
100
AcDbLine
 10
-667.432750797187
 20
2605.0
 11
-689.999999999997
 21
2605.0
  0
LINE
  5
218
100
AcDbEntity
  8
1
  6
CONTINUOUS
 62
           7
100
AcDbLine
 10
-658.999999999997
 20
2645.0
 11
-689.999999999997
 21
2645.0
  0
LINE
  5
217
100
AcDbEntity
  8
1
  6
DOT_CENTER
 62
           2
100
AcDbLine
 10
0.0
 20
3059.821372441355
 11
0.0
 21
2041.288302183319
  0
LINE
  5
216
100
AcDbEntity
  8
1
  6
CONTINUOUS
 62
           7
100
AcDbLine
 10
467.97406200061
 20
2605.0
 11
467.97406200061
 21
2165.0
  0
LINE
  5
215
100
AcDbEntity
  8
1
  6
CONTINUOUS
 62
           4
100
AcDbLine
 10
270.000000000001
 20
2643.0
 11
270.000000000001
 21
2643.999999999998
  0
LINE
  5
214
100
AcDbEntity
  8
1
  6
CONTINUOUS
 62
           4
100
AcDbLine
 10
265.000000000001
 20
2649.0
 11
-264.993063735609
 21
2649.0
  0
LINE
  5
213
100
AcDbEntity
  8
1
  6
CONTINUOUS
 62
           4
100
AcDbLine
 10
270.000000000001
 20
2643.999999999998
 11
265.000000000001
 21
2649.0
  0
LINE
  5
212
100
AcDbEntity
  8
1
  6
CONTINUOUS
 62
           7
100
AcDbLine
 10
470.538238691625
 20
2165.0
 11
470.538238691625
 21
2150.0
  0
LINE
  5
211
100
AcDbEntity
  8
1
  6
CONTINUOUS
 62
           7
100
AcDbLine
 10
470.538238691625
 20
2643.0
 11
470.538238691625
 21
2605.0
  0
LINE
  5
210
100
AcDbEntity
  8
1
  6
CONTINUOUS
 62
           7
100
AcDbLine
 10
-649.226009489053
 20
2642.999999999999
 11
470.538238691625
 21
2643.0
  0
LINE
  5
20F
100
AcDbEntity
  8
1
  6
CONTINUOUS
 62
           2
100
AcDbLine
 10
-576.93489557894
 20
2565.000000000003
 11
-576.93489557894
 21
2205.000000000002
  0
LINE
  5
20E
100
AcDbEntity
  8
1
  6
CONTINUOUS
 62
           2
100
AcDbLine
 10
-268.5423591195
 20
2565.000000000003
 11
-576.93489557894
 21
2565.000000000003
  0
LINE
  5
20D
100
AcDbEntity
  8
1
  6
CONTINUOUS
 62
           2
100
AcDbLine
 10
-268.5423591195
 20
2205.000000000002
 11
-268.5423591195
 21
2565.000000000003
  0
LINE
  5
20C
100
AcDbEntity
  8
1
  6
CONTINUOUS
 62
           2
100
AcDbLine
 10
-576.93489557894
 20
2205.000000000002
 11
-268.5423591195
 21
2205.000000000002
  0
LINE
  5
20B
100
AcDbEntity
  8
1
  6
CONTINUOUS
 62
           7
100
AcDbLine
 10
477.974589850551
 20
2165.0
 11
-658.999999999997
 21
2164.999999999996
  0
LINE
  5
20A
100
AcDbEntity
  8
1
  6
CONTINUOUS
 62
           7
100
AcDbLine
 10
477.974589850551
 20
2605.0
 11
-658.999999999997
 21
2605.0
  0
LINE
  5
209
100
AcDbEntity
  8
1
  6
CONTINUOUS
 62
           7
100
AcDbLine
 10
-689.999999999997
 20
2165.0
 11
-667.188191940733
 21
2165.0
  0
LINE
  5
208
100
AcDbEntity
  8
1
  6
CONTINUOUS
 62
           7
100
AcDbLine
 10
-689.999999999997
 20
2645.0
 11
-689.999999999997
 21
2150.0
  0
LINE
  5
207
100
AcDbEntity
  8
1
  6
CONTINUOUS
 62
           4
100
AcDbLine
 10
-264.993063735609
 20
2649.0
 11
-268.19750294482
 21
2645.8
  0
LINE
  5
206
100
AcDbEntity
  8
1
  6
CONTINUOUS
 62
           7
100
AcDbLine
 10
-52.720779386419
 20
2605.0
 11
-52.720779386419
 21
2642.999999999999
  0
LINE
  5
205
100
AcDbEntity
  8
1
  6
DOT_CENTER
 62
           2
100
AcDbLine
 10
4900.588082276607
 20
2385.000000000001
 11
3665.991794870068
 21
2385.000000000001
  0
LINE
  5
204
100
AcDbEntity
  8
2
  6
CONTINUOUS
 62
           4
100
AcDbLine
 10
4394.060000000001
 20
2649.000000000001
 11
4394.060000000001
 21
2659.1
  0
LINE
  5
203
100
AcDbEntity
  8
7
  6
CONTINUOUS
 62
           7
100
AcDbLine
 10
4196.6165824
 20
3002.483396
 11
4172.022588399999
 21
2984.3957372
  0
LINE
  5
202
100
AcDbEntity
  8
7
  6
CONTINUOUS
 62
           7
100
AcDbLine
 10
4290.000000000002
 20
3008.0
 11
4201.48
 21
3008.0
  0
LINE
  5
201
100
AcDbEntity
  8
7
  6
CONTINUOUS
 62
           7
100
AcDbLine
 10
4165.000000000002
 20
2912.186819200001
 11
4165.000000000002
 21
2945.231865248043
  0
LINE
  5
200
100
AcDbEntity
  8
7
  6
CONTINUOUS
 62
           7
100
AcDbLine
 10
4415.000000000002
 20
2912.186819200001
 11
4165.000000000002
 21
2912.186819200001
  0
LINE
  5
1FF
100
AcDbEntity
  8
7
  6
CONTINUOUS
 62
           7
100
AcDbLine
 10
4411.4
 20
2978.360000000001
 11
4415.000000000002
 21
2945.231865248043
  0
LINE
  5
1FE
100
AcDbEntity
  8
7
  6
CONTINUOUS
 62
           4
100
AcDbLine
 10
4169.809572400001
 20
2982.200000000001
 11
4407.560000000001
 21
2982.200000000001
  0
LINE
  5
1FD
100
AcDbEntity
  8
7
  6
CONTINUOUS
 62
           7
100
AcDbLine
 10
4380.383416400002
 20
3002.483396
 11
4405.131240800001
 21
2982.634035200001
  0
LINE
  5
1FC
100
AcDbEntity
  8
7
  6
CONTINUOUS
 62
           7
100
AcDbLine
 10
4290.000000000002
 20
3008.0
 11
4375.52
 21
3008.0
  0
LINE
  5
1FB
100
AcDbEntity
  8
2
  6
CONTINUOUS
 62
           7
100
AcDbLine
 10
4412.496396800001
 20
2690.900000000003
 11
4399.242370399999
 21
2659.1
  0
LINE
  5
1FA
100
AcDbEntity
  8
2
  6
CONTINUOUS
 62
           7
100
AcDbLine
 10
4412.496396800001
 20
2690.900000000003
 11
4412.496396800001
 21
2766.150000000003
  0
LINE
  5
1F9
100
AcDbEntity
  8
2
  6
CONTINUOUS
 62
           7
100
AcDbLine
 10
4412.496396800001
 20
2898.3868192
 11
4406.7446492
 21
2912.186819200001
  0
LINE
  5
1F8
100
AcDbEntity
  8
2
  6
CONTINUOUS
 62
           7
100
AcDbLine
 10
4412.496396800001
 20
2898.3868192
 11
4412.496396800001
 21
2766.150000000003
  0
LINE
  5
1F7
100
AcDbEntity
  8
2
  6
CONTINUOUS
 62
           4
100
AcDbLine
 10
4182.940000000001
 20
2659.1
 11
4182.940000000001
 21
2649.000000000001
  0
LINE
  5
1F6
100
AcDbEntity
  8
2
  6
CONTINUOUS
 62
           7
100
AcDbLine
 10
4164.503603200001
 20
2766.150000000003
 11
4164.503603200001
 21
2898.3868192
  0
LINE
  5
1F5
100
AcDbEntity
  8
2
  6
CONTINUOUS
 62
           7
100
AcDbLine
 10
4170.2553508
 20
2912.186819200001
 11
4164.503603200001
 21
2898.3868192
  0
LINE
  5
1F4
100
AcDbEntity
  8
2
  6
CONTINUOUS
 62
           7
100
AcDbLine
 10
4164.503603200001
 20
2766.150000000003
 11
4164.503603200001
 21
2690.900000000003
  0
LINE
  5
1F3
100
AcDbEntity
  8
2
  6
CONTINUOUS
 62
           7
100
AcDbLine
 10
4177.757629600001
 20
2659.1
 11
4164.503603200001
 21
2690.900000000003
  0
LINE
  5
1F2
100
AcDbEntity
  8
1
  6
CONTINUOUS
 62
           4
100
AcDbLine
 10
4415.000000000002
 20
2945.231865248043
 11
4165.000000000002
 21
2945.231865248043
  0
LINE
  5
1F1
100
AcDbEntity
  8
7
  6
CONTINUOUS
 62
           7
100
AcDbLine
 10
4165.000000000002
 20
2945.231865248043
 11
4168.600000000002
 21
2978.133628400001
  0
LINE
  5
1F0
100
AcDbEntity
  8
7
  6
CONTINUOUS
 62
           7
100
AcDbLine
 10
4415.000000000002
 20
2945.231865248043
 11
4415.000000000002
 21
2912.186819200001
  0
LINE
  5
1EF
100
AcDbEntity
  8
2
  6
CONTINUOUS
 62
           4
100
AcDbLine
 10
4399.242370399999
 20
2659.1
 11
4177.757629600001
 21
2659.1
  0
LINE
  5
1EE
100
AcDbEntity
  8
1
  6
CONTINUOUS
 62
           7
100
AcDbLine
 10
4341.500000000002
 20
2700.3
 11
4238.500000000002
 21
2700.3
  0
LINE
  5
1ED
100
AcDbEntity
  8
1
  6
CONTINUOUS
 62
           7
100
AcDbLine
 10
4238.500000000002
 20
2800.3
 11
4341.500000000002
 21
2800.3
  0
LINE
  5
1EC
100
AcDbEntity
  8
1
  6
CONTINUOUS
 62
           7
100
AcDbLine
 10
4226.500000000002
 20
2712.3
 11
4226.500000000002
 21
2788.3
  0
LINE
  5
1EB
100
AcDbEntity
  8
1
  6
CONTINUOUS
 62
           7
100
AcDbLine
 10
4353.500000000002
 20
2788.3
 11
4353.500000000002
 21
2712.3
  0
LINE
  5
1EA
100
AcDbEntity
  8
1
  6
CONTINUOUS
 62
           7
100
AcDbLine
 10
4215.527778486359
 20
2127.000000000001
 11
3692.268760408317
 21
2127.000000000001
  0
LINE
  5
1E9
100
AcDbEntity
  8
1
  6
CONTINUOUS
 62
           7
100
AcDbLine
 10
4215.527778486359
 20
2165.000000000001
 11
4215.527778486359
 21
2127.000000000001
  0
LINE
  5
1E8
100
AcDbEntity
  8
1
  6
CONTINUOUS
 62
           7
100
AcDbLine
 10
4390.000000000002
 20
2165.000000000001
 11
4390.000000000002
 21
2127.000000000001
  0
LINE
  5
1E7
100
AcDbEntity
  8
1
  6
CONTINUOUS
 62
           7
100
AcDbLine
 10
4665.000000000002
 20
2165.000000000001
 11
4665.000000000002
 21
2127.000000000001
  0
LINE
  5
1E6
100
AcDbEntity
  8
1
  6
CONTINUOUS
 62
           7
100
AcDbLine
 10
4665.000000000002
 20
2642.700000000002
 11
4665.000000000002
 21
2605.000000000001
  0
LINE
  5
1E5
100
AcDbEntity
  8
1
  6
CONTINUOUS
 62
           7
100
AcDbLine
 10
4390.000000000002
 20
2643.000000000001
 11
4756.46446609407
 21
2643.000000000002
  0
LINE
  5
1E4
100
AcDbEntity
  8
1
  6
CONTINUOUS
 62
           7
100
AcDbLine
 10
4215.527778486359
 20
2643.000000000001
 11
4215.527778486359
 21
2605.000000000001
  0
LINE
  5
1E3
100
AcDbEntity
  8
1
  6
CONTINUOUS
 62
           7
100
AcDbLine
 10
4390.000000000002
 20
2643.000000000001
 11
4390.000000000002
 21
2605.000000000001
  0
LINE
  5
1E2
100
AcDbEntity
  8
1
  6
DOT_CENTER
 62
           2
100
AcDbLine
 10
4290.000000000002
 20
2041.288302183322
 11
4290.000000000002
 21
3107.996004786781
  0
LINE
  5
1E1
100
AcDbEntity
  8
1
  6
CONTINUOUS
 62
           7
100
AcDbLine
 10
3730.010908476359
 20
2165.000000000001
 11
3730.010908476359
 21
2605.000000000001
  0
LINE
  5
1E0
100
AcDbEntity
  8
1
  6
CONTINUOUS
 62
           4
100
AcDbLine
 10
4630.000000000002
 20
2075.000000000001
 11
4630.000000000002
 21
2081.000000000001
  0
LINE
  5
1DF
100
AcDbEntity
  8
1
  6
CONTINUOUS
 62
           4
100
AcDbLine
 10
3950.000000000002
 20
2081.000000000001
 11
3950.000000000002
 21
2075.000000000001
  0
LINE
  5
1DE
100
AcDbEntity
  8
1
  6
CONTINUOUS
 62
           7
100
AcDbLine
 10
3950.000000000002
 20
2075.000000000001
 11
4630.000000000002
 21
2075.000000000001
  0
LINE
  5
1DD
100
AcDbEntity
  8
1
  6
CONTINUOUS
 62
           4
100
AcDbLine
 10
4630.000000000002
 20
2081.000000000001
 11
3950.000000000002
 21
2081.000000000001
  0
LINE
  5
1DC
100
AcDbEntity
  8
0
  6
CONTINUOUS
 62
           7
100
AcDbLine
 10
4610.000000000002
 20
2164.999999999999
 11
4544.211716344318
 21
2164.999999999999
  0
LINE
  5
1DB
100
AcDbEntity
  8
0
  6
CONTINUOUS
 62
           7
100
AcDbLine
 10
3991.800000000002
 20
2127.000000000001
 11
3991.800000000002
 21
2081.000000000001
  0
LINE
  5
1DA
100
AcDbEntity
  8
0
  6
CONTINUOUS
 62
           7
100
AcDbLine
 10
4588.200000000003
 20
2081.000000000001
 11
4588.200000000003
 21
2127.000000000001
  0
LINE
  5
1D9
100
AcDbEntity
  8
1
  6
CONTINUOUS
 62
           4
100
AcDbLine
 10
4020.000000000002
 20
2643.999999999999
 11
4020.000000000002
 21
2643.000000000001
  0
LINE
  5
1D8
100
AcDbEntity
  8
1
  6
CONTINUOUS
 62
           4
100
AcDbLine
 10
4554.99306373561
 20
2649.000000000001
 11
4025.000000000002
 21
2649.000000000001
  0
LINE
  5
1D7
100
AcDbEntity
  8
1
  6
CONTINUOUS
 62
           4
100
AcDbLine
 10
4025.000000000002
 20
2649.000000000001
 11
4020.000000000002
 21
2643.999999999999
  0
LINE
  5
1D6
100
AcDbEntity
  8
1
  6
CONTINUOUS
 62
           4
100
AcDbLine
 10
4560.000000000004
 20
2643.999999999999
 11
4554.99306373561
 21
2649.000000000001
  0
LINE
  5
1D5
100
AcDbEntity
  8
1
  6
CONTINUOUS
 62
           4
100
AcDbLine
 10
4560.000000000004
 20
2643.000000000001
 11
4560.000000000004
 21
2643.999999999999
  0
LINE
  5
1D4
100
AcDbEntity
  8
1
  6
CONTINUOUS
 62
           7
100
AcDbLine
 10
4760.000000000002
 20
2165.000000000002
 11
3692.268760408318
 21
2165.000000000001
  0
LINE
  5
1D3
100
AcDbEntity
  8
1
  6
CONTINUOUS
 62
           7
100
AcDbLine
 10
4760.000000000002
 20
2605.000000000001
 11
3692.268760408317
 21
2605.000000000001
  0
LINE
  5
1D2
100
AcDbEntity
  8
1
  6
CONTINUOUS
 62
           7
100
AcDbLine
 10
3692.268760408317
 20
2127.000000000001
 11
3692.268760408318
 21
2165.000000000001
  0
LINE
  5
1D1
100
AcDbEntity
  8
1
  6
CONTINUOUS
 62
           7
100
AcDbLine
 10
4760.000000000002
 20
2132.000000000001
 11
4756.46446609407
 21
2127.000000000001
  0
LINE
  5
1D0
100
AcDbEntity
  8
1
  6
CONTINUOUS
 62
           7
100
AcDbLine
 10
4756.46446609407
 20
2643.000000000002
 11
4760.000000000002
 21
2638.000000000001
  0
LINE
  5
1CF
100
AcDbEntity
  8
1
  6
CONTINUOUS
 62
           7
100
AcDbLine
 10
3692.268760408317
 20
2605.000000000001
 11
3692.268760408317
 21
2643.000000000001
  0
LINE
  5
1CE
100
AcDbEntity
  8
1
  6
CONTINUOUS
 62
           7
100
AcDbLine
 10
3692.268760408317
 20
2643.000000000001
 11
4215.527778486359
 21
2643.000000000001
  0
LINE
  5
1CD
100
AcDbEntity
  8
1
  6
CONTINUOUS
 62
           7
100
AcDbLine
 10
4760.000000000002
 20
2638.000000000001
 11
4760.000000000002
 21
2605.000000000001
  0
LINE
  5
1CC
100
AcDbEntity
  8
1
  6
CONTINUOUS
 62
           7
100
AcDbLine
 10
4760.000000000002
 20
2165.000000000002
 11
4760.000000000002
 21
2132.000000000001
  0
LINE
  5
1CB
100
AcDbEntity
  8
1
  6
CONTINUOUS
 62
           7
100
AcDbLine
 10
4756.46446609407
 20
2127.000000000001
 11
4390.000000000002
 21
2127.000000000001
  0
LINE
  5
1CA
100
AcDbEntity
  8
1
  6
CONTINUOUS
 62
           7
100
AcDbLine
 10
4760.000000000002
 20
2165.000000000002
 11
4794.5
 21
2165.000000000001
  0
LINE
  5
1C9
100
AcDbEntity
  8
1
  6
CONTINUOUS
 62
           7
100
AcDbLine
 10
4760.000000000002
 20
2605.000000000001
 11
4760.000000000002
 21
2165.000000000002
  0
LINE
  5
1C8
100
AcDbEntity
  8
1
  6
CONTINUOUS
 62
           4
100
AcDbLine
 10
4795.500000000002
 20
2605.000000000003
 11
4795.500000000002
 21
2165.000000000001
  0
LINE
  5
1C7
100
AcDbEntity
  8
1
  6
CONTINUOUS
 62
           4
100
AcDbLine
 10
4795.500000000002
 20
2125.000000000001
 11
4795.500000000002
 21
2159.500000000002
  0
LINE
  5
1C6
100
AcDbEntity
  8
1
  6
CONTINUOUS
 62
           4
100
AcDbLine
 10
4795.500000000002
 20
2610.500000000003
 11
4795.500000000002
 21
2645.000000000003
  0
LINE
  5
1C5
100
AcDbEntity
  8
1
  6
CONTINUOUS
 62
           7
100
AcDbLine
 10
4794.50000000002
 20
2605.000000000003
 11
4760.000000000002
 21
2605.000000000001
  0
LINE
  5
1C4
100
AcDbEntity
  8
1
  6
CONTINUOUS
 62
           7
100
AcDbLine
 10
4840.000000000002
 20
2605.000000000001
 11
4805.500000000002
 21
2605.000000000003
  0
LINE
  5
1C3
100
AcDbEntity
  8
1
  6
CONTINUOUS
 62
           4
100
AcDbLine
 10
4804.500000000004
 20
2645.000000000003
 11
4804.500000000002
 21
2610.500000000003
  0
LINE
  5
1C2
100
AcDbEntity
  8
1
  6
CONTINUOUS
 62
           4
100
AcDbLine
 10
4804.500000000002
 20
2159.500000000002
 11
4804.500000000004
 21
2125.000000000001
  0
LINE
  5
1C1
100
AcDbEntity
  8
1
  6
CONTINUOUS
 62
           4
100
AcDbLine
 10
4804.500000000002
 20
2165.000000000001
 11
4804.500000000002
 21
2605.000000000003
  0
LINE
  5
1C0
100
AcDbEntity
  8
1
  6
CONTINUOUS
 62
           7
100
AcDbLine
 10
4840.000000000002
 20
2165.000000000002
 11
4840.000000000002
 21
2605.000000000001
  0
LINE
  5
1BF
100
AcDbEntity
  8
1
  6
CONTINUOUS
 62
           7
100
AcDbLine
 10
4805.5
 20
2165.000000000001
 11
4840.000000000002
 21
2165.000000000002
  0
LINE
  5
1BE
100
AcDbEntity
  8
1
  6
CONTINUOUS
 62
           7
100
AcDbLine
 10
4800.000000000002
 20
2125.000000000002
 11
4800.000000000002
 21
2645.000000000003
  0
LINE
  5
1BD
100
AcDbEntity
  8
1
  6
CONTINUOUS
 62
           4
100
AcDbLine
 10
4760.000000000002
 20
2609.500000000001
 11
4794.500000000002
 21
2609.500000000003
  0
LINE
  5
1BC
100
AcDbEntity
  8
1
  6
CONTINUOUS
 62
           7
100
AcDbLine
 10
4760.000000000002
 20
2605.000000000001
 11
4760.000000000002
 21
2609.500000000001
  0
LINE
  5
1BB
100
AcDbEntity
  8
1
  6
CONTINUOUS
 62
           4
100
AcDbLine
 10
4840.000000000002
 20
2609.500000000006
 11
4805.500000000002
 21
2609.500000000003
  0
LINE
  5
1BA
100
AcDbEntity
  8
1
  6
CONTINUOUS
 62
           7
100
AcDbLine
 10
4840.000000000002
 20
2605.000000000001
 11
4840.000000000002
 21
2609.500000000006
  0
LINE
  5
1B9
100
AcDbEntity
  8
1
  6
CONTINUOUS
 62
           4
100
AcDbLine
 10
4795.500000000002
 20
2645.000000000003
 11
4804.500000000004
 21
2645.000000000003
  0
LINE
  5
1B8
100
AcDbEntity
  8
1
  6
CONTINUOUS
 62
           7
100
AcDbLine
 10
4805.500000000002
 20
2605.000000000003
 11
4794.50000000002
 21
2605.000000000003
  0
LINE
  5
1B7
100
AcDbEntity
  8
1
  6
CONTINUOUS
 62
           4
100
AcDbLine
 10
4795.500000000002
 20
2125.000000000001
 11
4804.500000000004
 21
2125.000000000001
  0
LINE
  5
1B6
100
AcDbEntity
  8
1
  6
CONTINUOUS
 62
           7
100
AcDbLine
 10
4760.0
 20
2160.500000000001
 11
4760.000000000002
 21
2165.000000000002
  0
LINE
  5
1B5
100
AcDbEntity
  8
1
  6
CONTINUOUS
 62
           4
100
AcDbLine
 10
4840.000000000002
 20
2160.500000000002
 11
4805.500000000002
 21
2160.500000000002
  0
LINE
  5
1B4
100
AcDbEntity
  8
1
  6
CONTINUOUS
 62
           7
100
AcDbLine
 10
4840.000000000002
 20
2165.000000000002
 11
4840.000000000002
 21
2160.500000000002
  0
LINE
  5
1B3
100
AcDbEntity
  8
1
  6
CONTINUOUS
 62
           4
100
AcDbLine
 10
4794.500000000002
 20
2160.500000000002
 11
4760.0
 21
2160.500000000001
  0
LINE
  5
1B2
100
AcDbEntity
  8
1
  6
CONTINUOUS
 62
           7
100
AcDbLine
 10
4805.5
 20
2165.000000000001
 11
4794.5
 21
2165.000000000001
  0
LINE
  5
1B1
100
AcDbEntity
  8
1
  6
CONTINUOUS
 62
           2
100
AcDbLine
 10
4442.532262743705
 20
2205.000000000001
 11
4442.532262743705
 21
2565.000000000001
  0
LINE
  5
1B0
100
AcDbEntity
  8
1
  6
CONTINUOUS
 62
           2
100
AcDbLine
 10
4442.532262743705
 20
2565.000000000001
 11
4035.31956277242
 21
2565.000000000001
  0
LINE
  5
1AF
100
AcDbEntity
  8
1
  6
CONTINUOUS
 62
           2
100
AcDbLine
 10
4035.31956277242
 20
2565.000000000001
 11
4035.31956277242
 21
2205.000000000001
  0
LINE
  5
1AE
100
AcDbEntity
  8
1
  6
CONTINUOUS
 62
           2
100
AcDbLine
 10
4035.31956277242
 20
2205.000000000001
 11
4442.532262743705
 21
2205.000000000001
  0
LINE
  5
1AD
100
AcDbEntity
  8
1
  6
CONTINUOUS
 62
           3
100
AcDbLine
 10
4147.500000000005
 20
1921.000000000002
 11
3999.899998122329
 21
1921.000000000002
  0
LINE
  5
1AC
100
AcDbEntity
  8
1
  6
CONTINUOUS
 62
           3
100
AcDbLine
 10
4147.500000000005
 20
1929.000000000001
 11
3999.899996810936
 21
1929.000000000001
  0
LINE
  5
1AB
100
AcDbEntity
  8
0
  6
CONTINUOUS
 62
           3
100
AcDbLine
 10
3619.899996632416
 20
1314.999997615957
 11
3619.899996632416
 21
1364.999994635816
  0
LINE
  5
1AA
100
AcDbEntity
  8
0
  6
CONTINUOUS
 62
           3
100
AcDbLine
 10
3660.126493853976
 20
1355.446577072224
 11
3660.899996833477
 21
1355.000004172322
  0
LINE
  5
1A9
100
AcDbEntity
  8
0
  6
CONTINUOUS
 62
           3
100
AcDbLine
 10
3670.899996609868
 20
1355.000004172322
 11
3671.673499589369
 21
1355.446577072224
  0
LINE
  5
1A8
100
AcDbEntity
  8
0
  6
CONTINUOUS
 62
           3
100
AcDbLine
 10
3660.899996833477
 20
1359.999999403922
 11
3660.126493853976
 21
1359.553411603022
  0
LINE
  5
1A7
100
AcDbEntity
  8
0
  6
CONTINUOUS
 62
           3
100
AcDbLine
 10
3671.673499589369
 20
1359.553411603022
 11
3670.899996609868
 21
1359.999999403922
  0
LINE
  5
1A6
100
AcDbEntity
  8
0
  6
CONTINUOUS
 62
           3
100
AcDbLine
 10
3660.899996833477
 20
1364.999994635816
 11
3660.126493853976
 21
1364.553421735917
  0
LINE
  5
1A5
100
AcDbEntity
  8
0
  6
CONTINUOUS
 62
           3
100
AcDbLine
 10
3671.673499589369
 20
1364.553421735917
 11
3670.899996609868
 21
1364.999994635816
  0
LINE
  5
1A4
100
AcDbEntity
  8
0
  6
CONTINUOUS
 62
           3
100
AcDbLine
 10
3670.899996609868
 20
1359.999999403922
 11
3671.673499589369
 21
1360.446587205123
  0
LINE
  5
1A3
100
AcDbEntity
  8
0
  6
CONTINUOUS
 62
           3
100
AcDbLine
 10
3660.126493853976
 20
1360.446587205123
 11
3660.899996833477
 21
1359.999999403922
  0
LINE
  5
1A2
100
AcDbEntity
  8
0
  6
CONTINUOUS
 62
           3
100
AcDbLine
 10
3660.899996833477
 20
1377.599999308605
 11
3660.126493853976
 21
1377.153418958206
  0
LINE
  5
1A1
100
AcDbEntity
  8
0
  6
CONTINUOUS
 62
           3
100
AcDbLine
 10
3671.673499589369
 20
1377.153418958206
 11
3670.899996609868
 21
1377.599999308605
  0
LINE
  5
1A0
100
AcDbEntity
  8
0
  6
CONTINUOUS
 62
           3
100
AcDbLine
 10
3670.899996609868
 20
1372.60000407701
 11
3671.673499589369
 21
1373.046576976912
  0
LINE
  5
19F
100
AcDbEntity
  8
0
  6
CONTINUOUS
 62
           3
100
AcDbLine
 10
3660.126493853976
 20
1373.046576976912
 11
3660.899996833477
 21
1372.60000407701
  0
LINE
  5
19E
100
AcDbEntity
  8
0
  6
CONTINUOUS
 62
           3
100
AcDbLine
 10
3660.899996833477
 20
1372.60000407701
 11
3660.126493853976
 21
1372.15341627611
  0
LINE
  5
19D
100
AcDbEntity
  8
0
  6
CONTINUOUS
 62
           3
100
AcDbLine
 10
3671.673499589369
 20
1372.15341627611
 11
3670.899996609868
 21
1372.60000407701
  0
LINE
  5
19C
100
AcDbEntity
  8
0
  6
CONTINUOUS
 62
           3
100
AcDbLine
 10
3670.899996609868
 20
1367.599993944114
 11
3671.673499589369
 21
1368.046581745313
  0
LINE
  5
19B
100
AcDbEntity
  8
0
  6
CONTINUOUS
 62
           3
100
AcDbLine
 10
3660.126493853976
 20
1368.046581745313
 11
3660.899996833477
 21
1367.599993944114
  0
LINE
  5
19A
100
AcDbEntity
  8
0
  6
CONTINUOUS
 62
           3
100
AcDbLine
 10
3711.899996810936
 20
1641.000000000001
 11
3711.899996810936
 21
1635.000005364197
  0
LINE
  5
199
100
AcDbEntity
  8
0
  6
CONTINUOUS
 62
           3
100
AcDbLine
 10
3711.899996810936
 20
1633.399993180997
 11
3711.899996810936
 21
1550.000000744964
  0
LINE
  5
198
100
AcDbEntity
  8
0
  6
CONTINUOUS
 62
           3
100
AcDbLine
 10
3711.899996810936
 20
1548.799999058066
 11
3711.899996810936
 21
1391.199998557594
  0
LINE
  5
197
100
AcDbEntity
  8
0
  6
CONTINUOUS
 62
           3
100
AcDbLine
 10
3711.899996810936
 20
1390.000000596098
 11
3711.899996810936
 21
1366.600006818714
  0
LINE
  5
196
100
AcDbEntity
  8
0
  6
CONTINUOUS
 62
           3
100
AcDbLine
 10
3711.899996810936
 20
1364.999994635816
 11
3711.899996810936
 21
1314.999997615957
  0
LINE
  5
195
100
AcDbEntity
  8
0
  6
CONTINUOUS
 62
           3
100
AcDbLine
 10
3719.89999812233
 20
1314.999997615957
 11
3719.89999812233
 21
1364.999994635816
  0
LINE
  5
194
100
AcDbEntity
  8
0
  6
CONTINUOUS
 62
           3
100
AcDbLine
 10
3719.89999812233
 20
1366.600006818714
 11
3719.89999812233
 21
1390.000000596098
  0
LINE
  5
193
100
AcDbEntity
  8
0
  6
CONTINUOUS
 62
           3
100
AcDbLine
 10
3719.89999812233
 20
1391.199998557594
 11
3719.89999812233
 21
1548.799999058066
  0
LINE
  5
192
100
AcDbEntity
  8
0
  6
CONTINUOUS
 62
           3
100
AcDbLine
 10
3719.89999812233
 20
1550.000000744964
 11
3719.89999812233
 21
1633.399993180997
  0
LINE
  5
191
100
AcDbEntity
  8
0
  6
CONTINUOUS
 62
           3
100
AcDbLine
 10
3719.89999812233
 20
1635.000005364197
 11
3719.89999812233
 21
1641.000000000001
  0
LINE
  5
190
100
AcDbEntity
  8
0
  6
CONTINUOUS
 62
           3
100
AcDbLine
 10
3611.899995321017
 20
1665.00000655637
 11
3611.899995321017
 21
1635.000005364197
  0
LINE
  5
18F
100
AcDbEntity
  8
0
  6
CONTINUOUS
 62
           3
100
AcDbLine
 10
3611.899995321017
 20
1633.399993180997
 11
3611.899995321017
 21
1550.000000744964
  0
LINE
  5
18E
100
AcDbEntity
  8
0
  6
CONTINUOUS
 62
           3
100
AcDbLine
 10
3611.899995321017
 20
1548.799999058066
 11
3611.899995321017
 21
1391.199998557594
  0
LINE
  5
18D
100
AcDbEntity
  8
0
  6
CONTINUOUS
 62
           3
100
AcDbLine
 10
3611.899995321017
 20
1390.000000596098
 11
3611.899995321017
 21
1366.600006818714
  0
LINE
  5
18C
100
AcDbEntity
  8
0
  6
CONTINUOUS
 62
           3
100
AcDbLine
 10
3611.899995321017
 20
1364.999994635816
 11
3611.899995321017
 21
1314.999997615957
  0
LINE
  5
18B
100
AcDbEntity
  8
0
  6
CONTINUOUS
 62
           3
100
AcDbLine
 10
3619.899996632416
 20
1366.600006818714
 11
3619.899996632416
 21
1390.000000596098
  0
LINE
  5
18A
100
AcDbEntity
  8
0
  6
CONTINUOUS
 62
           3
100
AcDbLine
 10
3619.899996632416
 20
1391.199998557594
 11
3619.899996632416
 21
1548.799999058066
  0
LINE
  5
189
100
AcDbEntity
  8
0
  6
CONTINUOUS
 62
           3
100
AcDbLine
 10
3619.899996632416
 20
1550.000000744964
 11
3619.899996632416
 21
1633.399993180997
  0
LINE
  5
188
100
AcDbEntity
  8
0
  6
CONTINUOUS
 62
           3
100
AcDbLine
 10
3619.899996632416
 20
1635.000005364197
 11
3619.899996632416
 21
1665.00000655637
  0
LINE
  5
187
100
AcDbEntity
  8
0
  6
CONTINUOUS
 62
           3
100
AcDbLine
 10
3668.899996747767
 20
1366.600006818714
 11
3668.899996747767
 21
1367.599993944114
  0
LINE
  5
186
100
AcDbEntity
  8
0
  6
CONTINUOUS
 62
           3
100
AcDbLine
 10
3668.899996747767
 20
1377.599999308605
 11
3668.899996747767
 21
1384.199999272901
  0
LINE
  5
185
100
AcDbEntity
  8
0
  6
CONTINUOUS
 62
           3
100
AcDbLine
 10
3668.899996747767
 20
1390.000000596098
 11
3668.899996747767
 21
1392.957426607595
  0
LINE
  5
184
100
AcDbEntity
  8
0
  6
CONTINUOUS
 62
           3
100
AcDbLine
 10
3668.899996747767
 20
1394.792847335492
 11
3668.899996747767
 21
1633.399993180997
  0
LINE
  5
183
100
AcDbEntity
  8
0
  6
CONTINUOUS
 62
           3
100
AcDbLine
 10
3668.899996747767
 20
1635.000005364197
 11
3668.899996747767
 21
1637.422651052294
  0
LINE
  5
182
100
AcDbEntity
  8
0
  6
CONTINUOUS
 62
           3
100
AcDbLine
 10
3662.89999669558
 20
1637.422651052294
 11
3662.89999669558
 21
1635.000005364197
  0
LINE
  5
181
100
AcDbEntity
  8
0
  6
CONTINUOUS
 62
           3
100
AcDbLine
 10
3662.89999669558
 20
1633.399993180997
 11
3662.89999669558
 21
1394.792847335492
  0
LINE
  5
180
100
AcDbEntity
  8
0
  6
CONTINUOUS
 62
           3
100
AcDbLine
 10
3662.89999669558
 20
1392.957426607595
 11
3662.89999669558
 21
1390.000000596098
  0
LINE
  5
17F
100
AcDbEntity
  8
0
  6
CONTINUOUS
 62
           3
100
AcDbLine
 10
3662.89999669558
 20
1384.199999272901
 11
3662.89999669558
 21
1377.599999308605
  0
LINE
  5
17E
100
AcDbEntity
  8
0
  6
CONTINUOUS
 62
           3
100
AcDbLine
 10
3662.89999669558
 20
1367.599993944114
 11
3662.89999669558
 21
1366.600006818714
  0
LINE
  5
17D
100
AcDbEntity
  8
0
  6
CONTINUOUS
 62
           3
100
AcDbLine
 10
3668.899996747767
 20
1637.422651052294
 11
3667.899996816564
 21
1638.422653078993
  0
LINE
  5
17C
100
AcDbEntity
  8
0
  6
CONTINUOUS
 62
           3
100
AcDbLine
 10
3663.899996626778
 20
1638.422653078993
 11
3662.89999669558
 21
1637.422651052294
  0
LINE
  5
17B
100
AcDbEntity
  8
0
  6
CONTINUOUS
 62
           3
100
AcDbLine
 10
3662.39999661358
 20
1394.799999892894
 11
3657.899996341778
 21
1394.799999892894
  0
LINE
  5
17A
100
AcDbEntity
  8
0
  6
CONTINUOUS
 62
           3
100
AcDbLine
 10
3673.899997101566
 20
1394.799999892894
 11
3669.399996829767
 21
1394.799999892894
  0
LINE
  5
179
100
AcDbEntity
  8
0
  6
CONTINUOUS
 62
           3
100
AcDbLine
 10
3659.426494029875
 20
1389.099999999995
 11
3672.373499413466
 21
1389.099999999995
  0
LINE
  5
178
100
AcDbEntity
  8
0
  6
CONTINUOUS
 62
           3
100
AcDbLine
 10
3608.899996692014
 20
1393.799997866195
 11
3611.899995321017
 21
1393.799997866195
  0
LINE
  5
177
100
AcDbEntity
  8
0
  6
CONTINUOUS
 62
           3
100
AcDbLine
 10
3619.899996632416
 20
1393.799997866195
 11
3657.899996341778
 21
1393.799997866195
  0
LINE
  5
176
100
AcDbEntity
  8
0
  6
CONTINUOUS
 62
           3
100
AcDbLine
 10
3673.899997101566
 20
1393.799997866195
 11
3711.899996810936
 21
1393.799997866195
  0
LINE
  5
175
100
AcDbEntity
  8
0
  6
CONTINUOUS
 62
           3
100
AcDbLine
 10
3719.89999812233
 20
1393.799997866195
 11
3722.899996751327
 21
1393.799997866195
  0
LINE
  5
174
100
AcDbEntity
  8
0
  6
CONTINUOUS
 62
           3
100
AcDbLine
 10
3608.899996692014
 20
1543.800000101368
 11
3608.899996692014
 21
1393.799997866195
  0
LINE
  5
173
100
AcDbEntity
  8
0
  6
CONTINUOUS
 62
           3
100
AcDbLine
 10
3722.899996751327
 20
1543.800000101368
 11
3719.89999812233
 21
1543.800000101368
  0
LINE
  5
172
100
AcDbEntity
  8
0
  6
CONTINUOUS
 62
           3
100
AcDbLine
 10
3711.899996810936
 20
1543.800000101368
 11
3668.899996747767
 21
1543.800000101368
  0
LINE
  5
171
100
AcDbEntity
  8
0
  6
CONTINUOUS
 62
           3
100
AcDbLine
 10
3662.89999669558
 20
1543.800000101368
 11
3619.899996632416
 21
1543.800000101368
  0
LINE
  5
170
100
AcDbEntity
  8
0
  6
CONTINUOUS
 62
           3
100
AcDbLine
 10
3611.899995321017
 20
1543.800000101368
 11
3608.899996692014
 21
1543.800000101368
  0
LINE
  5
16F
100
AcDbEntity
  8
0
  6
CONTINUOUS
 62
           3
100
AcDbLine
 10
3722.899996751327
 20
1393.799997866195
 11
3722.899996751327
 21
1543.800000101368
  0
LINE
  5
16E
100
AcDbEntity
  8
0
  6
CONTINUOUS
 62
           3
100
AcDbLine
 10
3668.786748155367
 20
1355.446577072224
 11
3668.786748155506
 21
1359.553411603069
  0
LINE
  5
16D
100
AcDbEntity
  8
0
  6
CONTINUOUS
 62
           3
100
AcDbLine
 10
3668.786748155367
 20
1355.446577072224
 11
3665.899996721679
 21
1355.000004172322
  0
LINE
  5
16C
100
AcDbEntity
  8
0
  6
CONTINUOUS
 62
           3
100
AcDbLine
 10
3663.013245287848
 20
1355.446577072243
 11
3663.013245287974
 21
1359.553411603022
  0
LINE
  5
16B
100
AcDbEntity
  8
0
  6
CONTINUOUS
 62
           3
100
AcDbLine
 10
3663.013245287974
 20
1359.553411603022
 11
3665.899996721679
 21
1359.999999404049
  0
LINE
  5
16A
100
AcDbEntity
  8
0
  6
CONTINUOUS
 62
           3
100
AcDbLine
 10
3665.899996721679
 20
1355.000004172322
 11
3670.230123756008
 21
1355.000004172421
  0
LINE
  5
169
100
AcDbEntity
  8
0
  6
CONTINUOUS
 62
           3
100
AcDbLine
 10
3661.56986968735
 20
1355.000004172421
 11
3665.899996721679
 21
1355.000004172322
  0
LINE
  5
168
100
AcDbEntity
  8
0
  6
CONTINUOUS
 62
           3
100
AcDbLine
 10
3661.56986968735
 20
1359.999999404049
 11
3665.899996721679
 21
1359.999999404049
  0
LINE
  5
167
100
AcDbEntity
  8
0
  6
CONTINUOUS
 62
           3
100
AcDbLine
 10
3668.786748155506
 20
1359.553411603069
 11
3670.230123755968
 21
1359.999999403922
  0
LINE
  5
166
100
AcDbEntity
  8
0
  6
CONTINUOUS
 62
           3
100
AcDbLine
 10
3665.899996721679
 20
1359.999999404049
 11
3670.230123755968
 21
1359.999999403922
  0
LINE
  5
165
100
AcDbEntity
  8
0
  6
CONTINUOUS
 62
           3
100
AcDbLine
 10
3660.126493853976
 20
1355.446577072224
 11
3660.126493853976
 21
1359.553411603022
  0
LINE
  5
164
100
AcDbEntity
  8
0
  6
CONTINUOUS
 62
           3
100
AcDbLine
 10
3671.673499589369
 20
1355.446577072224
 11
3671.673499589369
 21
1359.553411603022
  0
LINE
  5
163
100
AcDbEntity
  8
0
  6
CONTINUOUS
 62
           3
100
AcDbLine
 10
3671.673499589369
 20
1355.446577072224
 11
3670.230123756008
 21
1355.000004172421
  0
LINE
  5
162
100
AcDbEntity
  8
0
  6
CONTINUOUS
 62
           3
100
AcDbLine
 10
3660.899996833477
 20
1355.000004172322
 11
3661.56986968735
 21
1355.000004172421
  0
LINE
  5
161
100
AcDbEntity
  8
0
  6
CONTINUOUS
 62
           3
100
AcDbLine
 10
3670.899996609868
 20
1355.000004172322
 11
3670.230123756008
 21
1355.000004172421
  0
LINE
  5
160
100
AcDbEntity
  8
0
  6
CONTINUOUS
 62
           3
100
AcDbLine
 10
3660.899996833477
 20
1359.999999403922
 11
3661.56986968735
 21
1359.999999404049
  0
LINE
  5
15F
100
AcDbEntity
  8
0
  6
CONTINUOUS
 62
           3
100
AcDbLine
 10
3668.786748155506
 20
1364.553421735859
 11
3668.786748155367
 21
1360.446587205123
  0
LINE
  5
15E
100
AcDbEntity
  8
0
  6
CONTINUOUS
 62
           3
100
AcDbLine
 10
3663.013245287848
 20
1364.553421735859
 11
3663.013245287848
 21
1360.446587205025
  0
LINE
  5
15D
100
AcDbEntity
  8
0
  6
CONTINUOUS
 62
           3
100
AcDbLine
 10
3671.673499589369
 20
1364.553421735917
 11
3670.230123756008
 21
1364.999994635673
  0
LINE
  5
15C
100
AcDbEntity
  8
0
  6
CONTINUOUS
 62
           3
100
AcDbLine
 10
3671.673499589369
 20
1364.553421735917
 11
3671.673499589369
 21
1360.446587205123
  0
LINE
  5
15B
100
AcDbEntity
  8
0
  6
CONTINUOUS
 62
           3
100
AcDbLine
 10
3668.786748155367
 20
1360.446587205123
 11
3670.230123755968
 21
1359.999999403922
  0
LINE
  5
15A
100
AcDbEntity
  8
0
  6
CONTINUOUS
 62
           3
100
AcDbLine
 10
3663.013245287848
 20
1364.553421735859
 11
3661.56986968735
 21
1364.999994635673
  0
LINE
  5
159
100
AcDbEntity
  8
0
  6
CONTINUOUS
 62
           3
100
AcDbLine
 10
3660.126493853976
 20
1360.446587205123
 11
3661.56986968735
 21
1359.999999404049
  0
LINE
  5
158
100
AcDbEntity
  8
0
  6
CONTINUOUS
 62
           3
100
AcDbLine
 10
3660.126493853976
 20
1364.553421735917
 11
3660.126493853976
 21
1360.446587205123
  0
LINE
  5
157
100
AcDbEntity
  8
0
  6
CONTINUOUS
 62
           3
100
AcDbLine
 10
3668.786748155506
 20
1377.153418958268
 11
3668.786748155367
 21
1373.046576976912
  0
LINE
  5
156
100
AcDbEntity
  8
0
  6
CONTINUOUS
 62
           3
100
AcDbLine
 10
3663.013245287848
 20
1377.153418958268
 11
3663.013245287848
 21
1373.046576976861
  0
LINE
  5
155
100
AcDbEntity
  8
0
  6
CONTINUOUS
 62
           3
100
AcDbLine
 10
3671.673499589369
 20
1377.153418958206
 11
3670.230123756008
 21
1377.599999308667
  0
LINE
  5
154
100
AcDbEntity
  8
0
  6
CONTINUOUS
 62
           3
100
AcDbLine
 10
3671.673499589369
 20
1377.153418958206
 11
3671.673499589369
 21
1373.046576976912
  0
LINE
  5
153
100
AcDbEntity
  8
0
  6
CONTINUOUS
 62
           3
100
AcDbLine
 10
3668.786748155367
 20
1373.046576976912
 11
3670.230123756008
 21
1372.600004077042
  0
LINE
  5
152
100
AcDbEntity
  8
0
  6
CONTINUOUS
 62
           3
100
AcDbLine
 10
3670.230123756008
 20
1377.599999308667
 11
3665.899996721679
 21
1377.599999308667
  0
LINE
  5
151
100
AcDbEntity
  8
0
  6
CONTINUOUS
 62
           3
100
AcDbLine
 10
3663.013245287848
 20
1377.153418958268
 11
3661.56986968735
 21
1377.599999308667
  0
LINE
  5
150
100
AcDbEntity
  8
0
  6
CONTINUOUS
 62
           3
100
AcDbLine
 10
3660.126493853976
 20
1373.046576976912
 11
3661.56986968735
 21
1372.600004077042
  0
LINE
  5
14F
100
AcDbEntity
  8
0
  6
CONTINUOUS
 62
           3
100
AcDbLine
 10
3660.126493853976
 20
1377.153418958206
 11
3660.126493853976
 21
1373.046576976912
  0
LINE
  5
14E
100
AcDbEntity
  8
0
  6
CONTINUOUS
 62
           3
100
AcDbLine
 10
3665.899996721679
 20
1377.599999308667
 11
3661.56986968735
 21
1377.599999308667
  0
LINE
  5
14D
100
AcDbEntity
  8
0
  6
CONTINUOUS
 62
           3
100
AcDbLine
 10
3670.230123756008
 20
1372.600004077042
 11
3665.899996721679
 21
1372.600004077042
  0
LINE
  5
14C
100
AcDbEntity
  8
0
  6
CONTINUOUS
 62
           3
100
AcDbLine
 10
3665.899996721679
 20
1372.600004077042
 11
3661.56986968735
 21
1372.600004077042
  0
LINE
  5
14B
100
AcDbEntity
  8
0
  6
CONTINUOUS
 62
           3
100
AcDbLine
 10
3661.56986968735
 20
1377.599999308667
 11
3660.899996833477
 21
1377.599999308605
  0
LINE
  5
14A
100
AcDbEntity
  8
0
  6
CONTINUOUS
 62
           3
100
AcDbLine
 10
3670.899996609868
 20
1377.599999308605
 11
3670.230123756008
 21
1377.599999308667
  0
LINE
  5
149
100
AcDbEntity
  8
0
  6
CONTINUOUS
 62
           3
100
AcDbLine
 10
3670.899996609868
 20
1372.60000407701
 11
3670.230123756008
 21
1372.600004077042
  0
LINE
  5
148
100
AcDbEntity
  8
0
  6
CONTINUOUS
 62
           3
100
AcDbLine
 10
3668.786748155506
 20
1372.153416276063
 11
3668.786748155367
 21
1368.046581745313
  0
LINE
  5
147
100
AcDbEntity
  8
0
  6
CONTINUOUS
 62
           3
100
AcDbLine
 10
3663.013245287848
 20
1372.153416276063
 11
3663.013245287848
 21
1368.046581745236
  0
LINE
  5
146
100
AcDbEntity
  8
0
  6
CONTINUOUS
 62
           3
100
AcDbLine
 10
3671.673499589369
 20
1372.15341627611
 11
3670.230123756008
 21
1372.600004077042
  0
LINE
  5
145
100
AcDbEntity
  8
0
  6
CONTINUOUS
 62
           3
100
AcDbLine
 10
3671.673499589369
 20
1372.15341627611
 11
3671.673499589369
 21
1368.046581745313
  0
LINE
  5
144
100
AcDbEntity
  8
0
  6
CONTINUOUS
 62
           3
100
AcDbLine
 10
3668.786748155367
 20
1368.046581745313
 11
3670.230123756008
 21
1367.599993944257
  0
LINE
  5
143
100
AcDbEntity
  8
0
  6
CONTINUOUS
 62
           3
100
AcDbLine
 10
3663.013245287848
 20
1372.153416276063
 11
3661.56986968735
 21
1372.600004077042
  0
LINE
  5
142
100
AcDbEntity
  8
0
  6
CONTINUOUS
 62
           3
100
AcDbLine
 10
3660.126493853976
 20
1368.046581745313
 11
3661.56986968735
 21
1367.599993944257
  0
LINE
  5
141
100
AcDbEntity
  8
0
  6
CONTINUOUS
 62
           3
100
AcDbLine
 10
3660.126493853976
 20
1372.15341627611
 11
3660.126493853976
 21
1368.046581745313
  0
LINE
  5
140
100
AcDbEntity
  8
0
  6
CONTINUOUS
 62
           3
100
AcDbLine
 10
3665.899996721679
 20
1367.599993944257
 11
3661.56986968735
 21
1367.599993944257
  0
LINE
  5
13F
100
AcDbEntity
  8
0
  6
CONTINUOUS
 62
           3
100
AcDbLine
 10
3670.230123756008
 20
1367.599993944257
 11
3665.899996721679
 21
1367.599993944257
  0
LINE
  5
13E
100
AcDbEntity
  8
0
  6
CONTINUOUS
 62
           3
100
AcDbLine
 10
3661.56986968735
 20
1372.600004077042
 11
3660.899996833477
 21
1372.60000407701
  0
LINE
  5
13D
100
AcDbEntity
  8
0
  6
CONTINUOUS
 62
           3
100
AcDbLine
 10
3670.899996609868
 20
1367.599993944114
 11
3670.230123756008
 21
1367.599993944257
  0
LINE
  5
13C
100
AcDbEntity
  8
0
  6
CONTINUOUS
 62
           3
100
AcDbLine
 10
3661.56986968735
 20
1367.599993944257
 11
3660.899996833477
 21
1367.599993944114
  0
LINE
  5
13B
100
AcDbEntity
  8
0
  6
CONTINUOUS
 62
           3
100
AcDbLine
 10
3615.899995976714
 20
1665.00000655637
 11
3619.899996632416
 21
1665.00000655637
  0
LINE
  5
13A
100
AcDbEntity
  8
0
  6
CONTINUOUS
 62
           3
100
AcDbLine
 10
3611.899995321017
 20
1665.00000655637
 11
3615.899995976714
 21
1665.00000655637
  0
LINE
  5
139
100
AcDbEntity
  8
0
  6
CONTINUOUS
 62
           3
100
AcDbLine
 10
3662.89999669558
 20
1637.422651052294
 11
3668.899996747767
 21
1637.422651052294
  0
LINE
  5
138
100
AcDbEntity
  8
0
  6
CONTINUOUS
 62
           3
100
AcDbLine
 10
3667.899996816564
 20
1638.422653078993
 11
3663.899996626778
 21
1638.422653078993
  0
LINE
  5
137
100
AcDbEntity
  8
0
  6
CONTINUOUS
 62
           3
100
AcDbLine
 10
3673.899997101566
 20
1389.200001954996
 11
3669.399996829767
 21
1389.200001954996
  0
LINE
  5
136
100
AcDbEntity
  8
0
  6
CONTINUOUS
 62
           3
100
AcDbLine
 10
3662.39999661358
 20
1394.792847335492
 11
3669.399996829767
 21
1394.792847335492
  0
LINE
  5
135
100
AcDbEntity
  8
0
  6
CONTINUOUS
 62
           3
100
AcDbLine
 10
3662.39999661358
 20
1389.200001954996
 11
3657.899996341778
 21
1389.200001954996
  0
LINE
  5
134
100
AcDbEntity
  8
0
  6
CONTINUOUS
 62
           3
100
AcDbLine
 10
3669.399996829767
 20
1394.799999892894
 11
3669.399996829767
 21
1389.200001954996
  0
LINE
  5
133
100
AcDbEntity
  8
0
  6
CONTINUOUS
 62
           3
100
AcDbLine
 10
3662.39999661358
 20
1389.200001954996
 11
3662.39999661358
 21
1394.799999892894
  0
LINE
  5
132
100
AcDbEntity
  8
0
  6
CONTINUOUS
 62
           3
100
AcDbLine
 10
3657.899996341778
 20
1394.799999892894
 11
3657.899996341778
 21
1389.200001954996
  0
LINE
  5
131
100
AcDbEntity
  8
0
  6
CONTINUOUS
 62
           3
100
AcDbLine
 10
3673.899997101566
 20
1394.799999892894
 11
3673.899997101566
 21
1389.200001954996
  0
LINE
  5
130
100
AcDbEntity
  8
0
  6
CONTINUOUS
 62
           3
100
AcDbLine
 10
3669.399996829767
 20
1392.246469855294
 11
3668.899996747767
 21
1392.246469855294
  0
LINE
  5
12F
100
AcDbEntity
  8
0
  6
CONTINUOUS
 62
           3
100
AcDbLine
 10
3662.89999669558
 20
1392.246469855294
 11
3662.39999661358
 21
1392.246469855294
  0
LINE
  5
12E
100
AcDbEntity
  8
0
  6
CONTINUOUS
 62
           3
100
AcDbLine
 10
3669.399996829767
 20
1393.990144133493
 11
3662.39999661358
 21
1393.990144133493
  0
LINE
  5
12D
100
AcDbEntity
  8
0
  6
CONTINUOUS
 62
           3
100
AcDbLine
 10
3662.39999661358
 20
1390.000000596098
 11
3669.399996829767
 21
1390.000000596098
  0
LINE
  5
12C
100
AcDbEntity
  8
0
  6
CONTINUOUS
 62
           3
100
AcDbLine
 10
3662.39999661358
 20
1389.200001954996
 11
3669.399996829767
 21
1389.200001954996
  0
LINE
  5
12B
100
AcDbEntity
  8
0
  6
CONTINUOUS
 62
           3
100
AcDbLine
 10
3665.899996721679
 20
1384.646579623296
 11
3668.399996665766
 21
1384.199999272901
  0
LINE
  5
12A
100
AcDbEntity
  8
0
  6
CONTINUOUS
 62
           3
100
AcDbLine
 10
3663.399996777557
 20
1384.199999272901
 11
3668.399996665766
 21
1384.199999272901
  0
LINE
  5
129
100
AcDbEntity
  8
0
  6
CONTINUOUS
 62
           3
100
AcDbLine
 10
3665.899996721679
 20
1384.646579623296
 11
3665.899996721679
 21
1389.100000262195
  0
LINE
  5
128
100
AcDbEntity
  8
0
  6
CONTINUOUS
 62
           3
100
AcDbLine
 10
3660.899996833477
 20
1384.646579623303
 11
3663.399996777557
 21
1384.199999272901
  0
LINE
  5
127
100
AcDbEntity
  8
0
  6
CONTINUOUS
 62
           3
100
AcDbLine
 10
3660.899996833477
 20
1384.646579623303
 11
3660.899996833477
 21
1389.100000262195
  0
LINE
  5
126
100
AcDbEntity
  8
0
  6
CONTINUOUS
 62
           3
100
AcDbLine
 10
3670.899996609868
 20
1384.646579623303
 11
3670.899996609868
 21
1389.100000262195
  0
LINE
  5
125
100
AcDbEntity
  8
0
  6
CONTINUOUS
 62
           3
100
AcDbLine
 10
3660.899996833437
 20
1384.199999272901
 11
3663.399996777557
 21
1384.199999272901
  0
LINE
  5
124
100
AcDbEntity
  8
0
  6
CONTINUOUS
 62
           3
100
AcDbLine
 10
3668.399996665766
 20
1384.199999272901
 11
3670.899996609915
 21
1384.199999272901
  0
LINE
  5
123
100
AcDbEntity
  8
0
  6
CONTINUOUS
 62
           3
100
AcDbLine
 10
3673.899997101566
 20
1388.276241719796
 11
3670.899996609868
 21
1388.276241719796
  0
LINE
  5
122
100
AcDbEntity
  8
0
  6
CONTINUOUS
 62
           3
100
AcDbLine
 10
3660.899996833477
 20
1388.276241719796
 11
3657.899996341778
 21
1388.276241719796
  0
LINE
  5
121
100
AcDbEntity
  8
0
  6
CONTINUOUS
 62
           3
100
AcDbLine
 10
3657.899996341778
 20
1389.200001954996
 11
3657.899996341778
 21
1388.276241719796
  0
LINE
  5
120
100
AcDbEntity
  8
0
  6
CONTINUOUS
 62
           3
100
AcDbLine
 10
3673.899997101566
 20
1389.200001954996
 11
3673.899997101566
 21
1388.276241719796
  0
LINE
  5
11F
100
AcDbEntity
  8
0
  6
CONTINUOUS
 62
           3
100
AcDbLine
 10
3635.899997392194
 20
1550.000000744964
 11
3645.89999716859
 21
1550.000000744964
  0
LINE
  5
11E
100
AcDbEntity
  8
0
  6
CONTINUOUS
 62
           3
100
AcDbLine
 10
3645.89999716859
 20
1548.799999058066
 11
3645.89999716859
 21
1550.000000744964
  0
LINE
  5
11D
100
AcDbEntity
  8
0
  6
CONTINUOUS
 62
           3
100
AcDbLine
 10
3635.899997392194
 20
1548.799999058066
 11
3645.89999716859
 21
1548.799999058066
  0
LINE
  5
11C
100
AcDbEntity
  8
0
  6
CONTINUOUS
 62
           3
100
AcDbLine
 10
3635.899997392194
 20
1548.799999058066
 11
3635.899997392194
 21
1550.000000744964
  0
LINE
  5
11B
100
AcDbEntity
  8
0
  6
CONTINUOUS
 62
           3
100
AcDbLine
 10
3685.899996274756
 20
1548.799999058066
 11
3685.899996274756
 21
1550.000000744964
  0
LINE
  5
11A
100
AcDbEntity
  8
0
  6
CONTINUOUS
 62
           3
100
AcDbLine
 10
3671.149996650868
 20
1548.799999058066
 11
3685.899996274756
 21
1548.799999058066
  0
LINE
  5
119
100
AcDbEntity
  8
0
  6
CONTINUOUS
 62
           3
100
AcDbLine
 10
3671.149996650868
 20
1550.000000744964
 11
3685.899996274756
 21
1550.000000744964
  0
LINE
  5
118
100
AcDbEntity
  8
0
  6
CONTINUOUS
 62
           3
100
AcDbLine
 10
3645.89999716859
 20
1548.799999058066
 11
3660.649996792477
 21
1548.799999058066
  0
LINE
  5
117
100
AcDbEntity
  8
0
  6
CONTINUOUS
 62
           3
100
AcDbLine
 10
3645.89999716859
 20
1550.000000744964
 11
3660.649996792477
 21
1550.000000744964
  0
LINE
  5
116
100
AcDbEntity
  8
0
  6
CONTINUOUS
 62
           3
100
AcDbLine
 10
3645.89999716859
 20
1391.199998557594
 11
3645.89999716859
 21
1390.000000596098
  0
LINE
  5
115
100
AcDbEntity
  8
0
  6
CONTINUOUS
 62
           3
100
AcDbLine
 10
3645.89999716859
 20
1390.000000596098
 11
3657.899996341778
 21
1390.000000596098
  0
LINE
  5
114
100
AcDbEntity
  8
0
  6
CONTINUOUS
 62
           3
100
AcDbLine
 10
3645.89999716859
 20
1391.199998557594
 11
3657.899996341778
 21
1391.199998557594
  0
LINE
  5
113
100
AcDbEntity
  8
0
  6
CONTINUOUS
 62
           3
100
AcDbLine
 10
3669.149996788767
 20
1390.000000596098
 11
3669.149996788767
 21
1391.199998557594
  0
LINE
  5
112
100
AcDbEntity
  8
0
  6
CONTINUOUS
 62
           3
100
AcDbLine
 10
3669.149996788767
 20
1391.199998557594
 11
3669.399996829767
 21
1391.199998557594
  0
LINE
  5
111
100
AcDbEntity
  8
0
  6
CONTINUOUS
 62
           3
100
AcDbLine
 10
3695.899996051147
 20
1548.799999058066
 11
3695.899996051147
 21
1550.000000744964
  0
LINE
  5
110
100
AcDbEntity
  8
0
  6
CONTINUOUS
 62
           3
100
AcDbLine
 10
3695.899996051147
 20
1548.799999058066
 11
3685.899996274756
 21
1548.799999058066
  0
LINE
  5
10F
100
AcDbEntity
  8
0
  6
CONTINUOUS
 62
           3
100
AcDbLine
 10
3695.899996051147
 20
1550.000000744964
 11
3685.899996274756
 21
1550.000000744964
  0
LINE
  5
10E
100
AcDbEntity
  8
0
  6
CONTINUOUS
 62
           3
100
AcDbLine
 10
3669.149996788767
 20
1548.799999058066
 11
3669.149996788767
 21
1550.000000744964
  0
LINE
  5
10D
100
AcDbEntity
  8
0
  6
CONTINUOUS
 62
           3
100
AcDbLine
 10
3671.149996650868
 20
1548.799999058066
 11
3669.149996788767
 21
1548.799999058066
  0
LINE
  5
10C
100
AcDbEntity
  8
0
  6
CONTINUOUS
 62
           3
100
AcDbLine
 10
3669.149996788767
 20
1550.000000744964
 11
3671.149996650868
 21
1550.000000744964
  0
LINE
  5
10B
100
AcDbEntity
  8
0
  6
CONTINUOUS
 62
           3
100
AcDbLine
 10
3635.899997392194
 20
1391.199998557594
 11
3635.899997392194
 21
1390.000000596098
  0
LINE
  5
10A
100
AcDbEntity
  8
0
  6
CONTINUOUS
 62
           3
100
AcDbLine
 10
3635.899997392194
 20
1390.000000596098
 11
3645.89999716859
 21
1390.000000596098
  0
LINE
  5
109
100
AcDbEntity
  8
0
  6
CONTINUOUS
 62
           3
100
AcDbLine
 10
3635.899997392194
 20
1391.199998557594
 11
3645.89999716859
 21
1391.199998557594
  0
LINE
  5
108
100
AcDbEntity
  8
0
  6
CONTINUOUS
 62
           3
100
AcDbLine
 10
3685.899996274756
 20
1391.199998557594
 11
3685.899996274756
 21
1390.000000596098
  0
LINE
  5
107
100
AcDbEntity
  8
0
  6
CONTINUOUS
 62
           3
100
AcDbLine
 10
3673.899997101566
 20
1390.000000596098
 11
3685.899996274756
 21
1390.000000596098
  0
LINE
  5
106
100
AcDbEntity
  8
0
  6
CONTINUOUS
 62
           3
100
AcDbLine
 10
3673.899997101566
 20
1391.199998557594
 11
3685.899996274756
 21
1391.199998557594
  0
LINE
  5
105
100
AcDbEntity
  8
0
  6
CONTINUOUS
 62
           3
100
AcDbLine
 10
3662.64999665458
 20
1550.000000744964
 11
3662.64999665458
 21
1548.799999058066
  0
LINE
  5
104
100
AcDbEntity
  8
0
  6
CONTINUOUS
 62
           3
100
AcDbLine
 10
3662.64999665458
 20
1548.799999058066
 11
3660.649996792477
 21
1548.799999058066
  0
LINE
  5
103
100
AcDbEntity
  8
0
  6
CONTINUOUS
 62
           3
100
AcDbLine
 10
3660.649996792477
 20
1550.000000744964
 11
3662.64999665458
 21
1550.000000744964
  0
LINE
  5
102
100
AcDbEntity
  8
0
  6
CONTINUOUS
 62
           3
100
AcDbLine
 10
3695.899996051147
 20
1391.199998557594
 11
3695.899996051147
 21
1390.000000596098
  0
LINE
  5
101
100
AcDbEntity
  8
0
  6
CONTINUOUS
 62
           3
100
AcDbLine
 10
3695.899996051147
 20
1390.000000596098
 11
3685.899996274756
 21
1390.000000596098
  0
LINE
  5
100
100
AcDbEntity
  8
0
  6
CONTINUOUS
 62
           3
100
AcDbLine
 10
3695.899996051147
 20
1391.199998557594
 11
3685.899996274756
 21
1391.199998557594
  0
LINE
  5
FF
100
AcDbEntity
  8
0
  6
CONTINUOUS
 62
           3
100
AcDbLine
 10
3662.64999665458
 20
1391.199998557594
 11
3662.64999665458
 21
1390.000000596098
  0
LINE
  5
FE
100
AcDbEntity
  8
0
  6
CONTINUOUS
 62
           3
100
AcDbLine
 10
3662.39999661358
 20
1391.199998557594
 11
3662.64999665458
 21
1391.199998557594
  0
LINE
  5
FD
100
AcDbEntity
  8
0
  6
CONTINUOUS
 62
           3
100
AcDbLine
 10
3612.899997347717
 20
1390.000000596098
 11
3612.899997347717
 21
1391.199998557594
  0
LINE
  5
FC
100
AcDbEntity
  8
0
  6
CONTINUOUS
 62
           3
100
AcDbLine
 10
3610.899997019716
 20
1390.000000596098
 11
3612.899997347717
 21
1390.000000596098
  0
LINE
  5
FB
100
AcDbEntity
  8
0
  6
CONTINUOUS
 62
           3
100
AcDbLine
 10
3612.899997347717
 20
1391.199998557594
 11
3610.899997019716
 21
1391.199998557594
  0
LINE
  5
FA
100
AcDbEntity
  8
0
  6
CONTINUOUS
 62
           3
100
AcDbLine
 10
3618.899998331107
 20
1391.199998557594
 11
3618.899998331107
 21
1390.000000596098
  0
LINE
  5
F9
100
AcDbEntity
  8
0
  6
CONTINUOUS
 62
           3
100
AcDbLine
 10
3618.899998331107
 20
1390.000000596098
 11
3620.899994933707
 21
1390.000000596098
  0
LINE
  5
F8
100
AcDbEntity
  8
0
  6
CONTINUOUS
 62
           3
100
AcDbLine
 10
3620.899994933707
 20
1391.199998557594
 11
3618.899998331107
 21
1391.199998557594
  0
LINE
  5
F7
100
AcDbEntity
  8
0
  6
CONTINUOUS
 62
           3
100
AcDbLine
 10
3718.899996095924
 20
1550.000000744964
 11
3718.899996095924
 21
1548.799999058066
  0
LINE
  5
F6
100
AcDbEntity
  8
0
  6
CONTINUOUS
 62
           3
100
AcDbLine
 10
3718.899996095924
 20
1548.799999058066
 11
3720.899996423626
 21
1548.799999058066
  0
LINE
  5
F5
100
AcDbEntity
  8
0
  6
CONTINUOUS
 62
           3
100
AcDbLine
 10
3720.899996423626
 20
1550.000000744964
 11
3718.899996095924
 21
1550.000000744964
  0
LINE
  5
F4
100
AcDbEntity
  8
0
  6
CONTINUOUS
 62
           3
100
AcDbLine
 10
3712.899995112237
 20
1548.799999058066
 11
3712.899995112237
 21
1550.000000744964
  0
LINE
  5
F3
100
AcDbEntity
  8
0
  6
CONTINUOUS
 62
           3
100
AcDbLine
 10
3710.899998509635
 20
1548.799999058066
 11
3712.899995112237
 21
1548.799999058066
  0
LINE
  5
F2
100
AcDbEntity
  8
0
  6
CONTINUOUS
 62
           3
100
AcDbLine
 10
3712.899995112237
 20
1550.000000744964
 11
3710.899998509635
 21
1550.000000744964
  0
LINE
  5
F1
100
AcDbEntity
  8
0
  6
CONTINUOUS
 62
           3
100
AcDbLine
 10
3718.899996095924
 20
1390.000000596098
 11
3718.899996095924
 21
1391.199998557594
  0
LINE
  5
F0
100
AcDbEntity
  8
0
  6
CONTINUOUS
 62
           3
100
AcDbLine
 10
3720.899996423626
 20
1390.000000596098
 11
3718.899996095924
 21
1390.000000596098
  0
LINE
  5
EF
100
AcDbEntity
  8
0
  6
CONTINUOUS
 62
           3
100
AcDbLine
 10
3718.899996095924
 20
1391.199998557594
 11
3720.899996423626
 21
1391.199998557594
  0
LINE
  5
EE
100
AcDbEntity
  8
0
  6
CONTINUOUS
 62
           3
100
AcDbLine
 10
3712.899995112237
 20
1391.199998557594
 11
3712.899995112237
 21
1390.000000596098
  0
LINE
  5
ED
100
AcDbEntity
  8
0
  6
CONTINUOUS
 62
           3
100
AcDbLine
 10
3712.899995112237
 20
1390.000000596098
 11
3710.899998509635
 21
1390.000000596098
  0
LINE
  5
EC
100
AcDbEntity
  8
0
  6
CONTINUOUS
 62
           3
100
AcDbLine
 10
3710.899998509635
 20
1391.199998557594
 11
3712.899995112237
 21
1391.199998557594
  0
LINE
  5
EB
100
AcDbEntity
  8
0
  6
CONTINUOUS
 62
           3
100
AcDbLine
 10
3612.899997347717
 20
1550.000000744964
 11
3612.899997347717
 21
1548.799999058066
  0
LINE
  5
EA
100
AcDbEntity
  8
0
  6
CONTINUOUS
 62
           3
100
AcDbLine
 10
3612.899997347717
 20
1548.799999058066
 11
3610.899997019716
 21
1548.799999058066
  0
LINE
  5
E9
100
AcDbEntity
  8
0
  6
CONTINUOUS
 62
           3
100
AcDbLine
 10
3610.899997019716
 20
1550.000000744964
 11
3612.899997347717
 21
1550.000000744964
  0
LINE
  5
E8
100
AcDbEntity
  8
0
  6
CONTINUOUS
 62
           3
100
AcDbLine
 10
3618.899998331107
 20
1548.799999058066
 11
3618.899998331107
 21
1550.000000744964
  0
LINE
  5
E7
100
AcDbEntity
  8
0
  6
CONTINUOUS
 62
           3
100
AcDbLine
 10
3620.899994933707
 20
1548.799999058066
 11
3618.899998331107
 21
1548.799999058066
  0
LINE
  5
E6
100
AcDbEntity
  8
0
  6
CONTINUOUS
 62
           3
100
AcDbLine
 10
3618.899998331107
 20
1550.000000744964
 11
3620.899994933707
 21
1550.000000744964
  0
LINE
  5
E5
100
AcDbEntity
  8
0
  6
CONTINUOUS
 62
           3
100
AcDbLine
 10
3620.899994933707
 20
1390.000000596098
 11
3635.899997392194
 21
1390.000000596098
  0
LINE
  5
E4
100
AcDbEntity
  8
0
  6
CONTINUOUS
 62
           3
100
AcDbLine
 10
3620.899994933707
 20
1391.199998557594
 11
3635.899997392194
 21
1391.199998557594
  0
LINE
  5
E3
100
AcDbEntity
  8
0
  6
CONTINUOUS
 62
           3
100
AcDbLine
 10
3725.899995380624
 20
1391.199998557594
 11
3725.899995380624
 21
1390.000000596098
  0
LINE
  5
E2
100
AcDbEntity
  8
0
  6
CONTINUOUS
 62
           3
100
AcDbLine
 10
3725.899995380624
 20
1390.000000596098
 11
3720.899996423626
 21
1390.000000596098
  0
LINE
  5
E1
100
AcDbEntity
  8
0
  6
CONTINUOUS
 62
           3
100
AcDbLine
 10
3720.899996423626
 20
1391.199998557594
 11
3725.899995380624
 21
1391.199998557594
  0
LINE
  5
E0
100
AcDbEntity
  8
0
  6
CONTINUOUS
 62
           3
100
AcDbLine
 10
3620.899994933707
 20
1548.799999058066
 11
3635.899997392194
 21
1548.799999058066
  0
LINE
  5
DF
100
AcDbEntity
  8
0
  6
CONTINUOUS
 62
           3
100
AcDbLine
 10
3620.899994933707
 20
1550.000000744964
 11
3635.899997392194
 21
1550.000000744964
  0
LINE
  5
DE
100
AcDbEntity
  8
0
  6
CONTINUOUS
 62
           3
100
AcDbLine
 10
3710.899998509635
 20
1390.000000596098
 11
3695.899996051147
 21
1390.000000596098
  0
LINE
  5
DD
100
AcDbEntity
  8
0
  6
CONTINUOUS
 62
           3
100
AcDbLine
 10
3710.899998509635
 20
1391.199998557594
 11
3695.899996051147
 21
1391.199998557594
  0
LINE
  5
DC
100
AcDbEntity
  8
0
  6
CONTINUOUS
 62
           3
100
AcDbLine
 10
3725.899995380624
 20
1548.799999058066
 11
3725.899995380624
 21
1550.000000744964
  0
LINE
  5
DB
100
AcDbEntity
  8
0
  6
CONTINUOUS
 62
           3
100
AcDbLine
 10
3720.899996423626
 20
1548.799999058066
 11
3725.899995380624
 21
1548.799999058066
  0
LINE
  5
DA
100
AcDbEntity
  8
0
  6
CONTINUOUS
 62
           3
100
AcDbLine
 10
3725.899995380624
 20
1550.000000744964
 11
3720.899996423626
 21
1550.000000744964
  0
LINE
  5
D9
100
AcDbEntity
  8
0
  6
CONTINUOUS
 62
           3
100
AcDbLine
 10
3710.899998509635
 20
1548.799999058066
 11
3695.899996051147
 21
1548.799999058066
  0
LINE
  5
D8
100
AcDbEntity
  8
0
  6
CONTINUOUS
 62
           3
100
AcDbLine
 10
3710.899998509635
 20
1550.000000744964
 11
3695.899996051147
 21
1550.000000744964
  0
LINE
  5
D7
100
AcDbEntity
  8
0
  6
CONTINUOUS
 62
           3
100
AcDbLine
 10
3605.899998062718
 20
1548.799999058066
 11
3605.899998062718
 21
1550.000000744964
  0
LINE
  5
D6
100
AcDbEntity
  8
0
  6
CONTINUOUS
 62
           3
100
AcDbLine
 10
3610.899997019716
 20
1548.799999058066
 11
3605.899998062718
 21
1548.799999058066
  0
LINE
  5
D5
100
AcDbEntity
  8
0
  6
CONTINUOUS
 62
           3
100
AcDbLine
 10
3605.899998062718
 20
1550.000000744964
 11
3610.899997019716
 21
1550.000000744964
  0
LINE
  5
D4
100
AcDbEntity
  8
0
  6
CONTINUOUS
 62
           3
100
AcDbLine
 10
3605.899998062718
 20
1391.199998557594
 11
3605.899998062718
 21
1390.000000596098
  0
LINE
  5
D3
100
AcDbEntity
  8
0
  6
CONTINUOUS
 62
           3
100
AcDbLine
 10
3605.899998062718
 20
1390.000000596098
 11
3610.899997019716
 21
1390.000000596098
  0
LINE
  5
D2
100
AcDbEntity
  8
0
  6
CONTINUOUS
 62
           3
100
AcDbLine
 10
3610.899997019716
 20
1391.199998557594
 11
3605.899998062718
 21
1391.199998557594
  0
LINE
  5
D1
100
AcDbEntity
  8
0
  6
CONTINUOUS
 62
           3
100
AcDbLine
 10
3669.149996788767
 20
1391.199998557594
 11
3668.899996747767
 21
1391.199998557594
  0
LINE
  5
D0
100
AcDbEntity
  8
0
  6
CONTINUOUS
 62
           3
100
AcDbLine
 10
3662.89999669558
 20
1391.199998557594
 11
3662.64999665458
 21
1391.199998557594
  0
LINE
  5
CF
100
AcDbEntity
  8
0
  6
CONTINUOUS
 62
           3
100
AcDbLine
 10
3662.64999665458
 20
1548.799999058066
 11
3662.89999669558
 21
1548.799999058066
  0
LINE
  5
CE
100
AcDbEntity
  8
0
  6
CONTINUOUS
 62
           3
100
AcDbLine
 10
3668.899996747767
 20
1548.799999058066
 11
3669.149996788767
 21
1548.799999058066
  0
LINE
  5
CD
100
AcDbEntity
  8
0
  6
CONTINUOUS
 62
           3
100
AcDbLine
 10
3662.64999665458
 20
1550.000000744964
 11
3662.89999669558
 21
1550.000000744964
  0
LINE
  5
CC
100
AcDbEntity
  8
0
  6
CONTINUOUS
 62
           3
100
AcDbLine
 10
3668.899996747767
 20
1550.000000744964
 11
3669.149996788767
 21
1550.000000744964
  0
LINE
  5
CB
100
AcDbEntity
  8
0
  6
CONTINUOUS
 62
           3
100
AcDbLine
 10
3725.899995380624
 20
1391.199998557594
 11
3725.899995380624
 21
1391.699999570792
  0
LINE
  5
CA
100
AcDbEntity
  8
0
  6
CONTINUOUS
 62
           3
100
AcDbLine
 10
3605.899998062718
 20
1391.199998557594
 11
3605.899998062718
 21
1391.699999570792
  0
LINE
  5
C9
100
AcDbEntity
  8
0
  6
CONTINUOUS
 62
           3
100
AcDbLine
 10
3605.899998062718
 20
1548.799999058066
 11
3605.899998062718
 21
1548.300001770266
  0
LINE
  5
C8
100
AcDbEntity
  8
0
  6
CONTINUOUS
 62
           3
100
AcDbLine
 10
3725.899995380624
 20
1548.799999058066
 11
3725.899995380624
 21
1548.300001770266
  0
LINE
  5
C7
100
AcDbEntity
  8
0
  6
CONTINUOUS
 62
           3
100
AcDbLine
 10
3725.899995380624
 20
1529.999999329481
 11
3724.199996405628
 21
1529.999999329481
  0
LINE
  5
C6
100
AcDbEntity
  8
0
  6
CONTINUOUS
 62
           3
100
AcDbLine
 10
3725.899995380624
 20
1509.999999776396
 11
3725.899995380624
 21
1529.999999329481
  0
LINE
  5
C5
100
AcDbEntity
  8
0
  6
CONTINUOUS
 62
           3
100
AcDbLine
 10
3724.199996405628
 20
1509.999999776396
 11
3725.824804121025
 21
1509.999999776396
  0
LINE
  5
C4
100
AcDbEntity
  8
0
  6
CONTINUOUS
 62
           3
100
AcDbLine
 10
3607.899998390718
 20
1532.00000151988
 11
3605.899998062718
 21
1532.00000151988
  0
LINE
  5
C3
100
AcDbEntity
  8
0
  6
CONTINUOUS
 62
           3
100
AcDbLine
 10
3605.899998062718
 20
1548.300001770266
 11
3605.899998062718
 21
1532.00000151988
  0
LINE
  5
C2
100
AcDbEntity
  8
0
  6
CONTINUOUS
 62
           3
100
AcDbLine
 10
3725.899995380624
 20
1548.300001770266
 11
3725.899995380624
 21
1532.00000151988
  0
LINE
  5
C1
100
AcDbEntity
  8
0
  6
CONTINUOUS
 62
           3
100
AcDbLine
 10
3723.899995052626
 20
1532.00000151988
 11
3725.899995380624
 21
1532.00000151988
  0
LINE
  5
C0
100
AcDbEntity
  8
0
  6
CONTINUOUS
 62
           3
100
AcDbLine
 10
3724.199996405628
 20
1529.999999329481
 11
3723.899995052626
 21
1529.999999329481
  0
LINE
  5
BF
100
AcDbEntity
  8
0
  6
CONTINUOUS
 62
           3
100
AcDbLine
 10
3723.899995052626
 20
1509.999999776396
 11
3724.199996405628
 21
1509.999999776396
  0
LINE
  5
BE
100
AcDbEntity
  8
0
  6
CONTINUOUS
 62
           3
100
AcDbLine
 10
3725.899995380624
 20
1508.0000003799
 11
3723.899995052626
 21
1508.0000003799
  0
LINE
  5
BD
100
AcDbEntity
  8
0
  6
CONTINUOUS
 62
           3
100
AcDbLine
 10
3725.899995380624
 20
1508.0000003799
 11
3725.899995380624
 21
1431.99999630456
  0
LINE
  5
BC
100
AcDbEntity
  8
0
  6
CONTINUOUS
 62
           3
100
AcDbLine
 10
3725.899995380624
 20
1431.99999630456
 11
3723.899995052626
 21
1431.99999630456
  0
LINE
  5
BB
100
AcDbEntity
  8
0
  6
CONTINUOUS
 62
           3
100
AcDbLine
 10
3723.899995052626
 20
1429.999999701963
 11
3724.199996405628
 21
1429.999999701963
  0
LINE
  5
BA
100
AcDbEntity
  8
0
  6
CONTINUOUS
 62
           3
100
AcDbLine
 10
3724.199996405628
 20
1409.99999642378
 11
3723.899995052626
 21
1409.99999642378
  0
LINE
  5
B9
100
AcDbEntity
  8
0
  6
CONTINUOUS
 62
           3
100
AcDbLine
 10
3723.899995052626
 20
1407.999999821184
 11
3725.899995380624
 21
1407.999999821184
  0
LINE
  5
B8
100
AcDbEntity
  8
0
  6
CONTINUOUS
 62
           3
100
AcDbLine
 10
3725.899995380624
 20
1391.699999570792
 11
3725.899995380624
 21
1407.999999821184
  0
LINE
  5
B7
100
AcDbEntity
  8
0
  6
CONTINUOUS
 62
           3
100
AcDbLine
 10
3605.899998062718
 20
1391.699999570792
 11
3605.899998062718
 21
1407.999999821184
  0
LINE
  5
B6
100
AcDbEntity
  8
0
  6
CONTINUOUS
 62
           3
100
AcDbLine
 10
3607.899998390718
 20
1407.999999821184
 11
3605.899998062718
 21
1407.999999821184
  0
LINE
  5
B5
100
AcDbEntity
  8
0
  6
CONTINUOUS
 62
           3
100
AcDbLine
 10
3607.599997037719
 20
1409.99999642378
 11
3607.899998390718
 21
1409.99999642378
  0
LINE
  5
B4
100
AcDbEntity
  8
0
  6
CONTINUOUS
 62
           3
100
AcDbLine
 10
3607.899998390718
 20
1429.999999701963
 11
3607.599997037719
 21
1429.999999701963
  0
LINE
  5
B3
100
AcDbEntity
  8
0
  6
CONTINUOUS
 62
           3
100
AcDbLine
 10
3605.899998062718
 20
1431.99999630456
 11
3607.899998390718
 21
1431.99999630456
  0
LINE
  5
B2
100
AcDbEntity
  8
0
  6
CONTINUOUS
 62
           3
100
AcDbLine
 10
3605.899998062718
 20
1508.0000003799
 11
3605.899998062718
 21
1431.99999630456
  0
LINE
  5
B1
100
AcDbEntity
  8
0
  6
CONTINUOUS
 62
           3
100
AcDbLine
 10
3605.899998062718
 20
1508.0000003799
 11
3607.899998390718
 21
1508.0000003799
  0
LINE
  5
B0
100
AcDbEntity
  8
0
  6
CONTINUOUS
 62
           3
100
AcDbLine
 10
3607.899998390718
 20
1509.999999776396
 11
3607.599997037719
 21
1509.999999776396
  0
LINE
  5
AF
100
AcDbEntity
  8
0
  6
CONTINUOUS
 62
           3
100
AcDbLine
 10
3607.599997037719
 20
1529.999999329481
 11
3607.899998390718
 21
1529.999999329481
  0
LINE
  5
AE
100
AcDbEntity
  8
0
  6
CONTINUOUS
 62
           3
100
AcDbLine
 10
3605.899998062718
 20
1429.999999701963
 11
3605.899998062718
 21
1409.99999642378
  0
LINE
  5
AD
100
AcDbEntity
  8
0
  6
CONTINUOUS
 62
           3
100
AcDbLine
 10
3607.599997037719
 20
1429.999999701963
 11
3605.899998062718
 21
1429.999999701963
  0
LINE
  5
AC
100
AcDbEntity
  8
0
  6
CONTINUOUS
 62
           3
100
AcDbLine
 10
3605.975189322327
 20
1409.99999642378
 11
3607.599997037719
 21
1409.99999642378
  0
LINE
  5
AB
100
AcDbEntity
  8
0
  6
CONTINUOUS
 62
           3
100
AcDbLine
 10
3607.599997037719
 20
1509.999999776396
 11
3605.975189322327
 21
1509.999999776396
  0
LINE
  5
AA
100
AcDbEntity
  8
0
  6
CONTINUOUS
 62
           3
100
AcDbLine
 10
3605.899998062718
 20
1509.999999776396
 11
3605.899998062718
 21
1529.999999329481
  0
LINE
  5
A9
100
AcDbEntity
  8
0
  6
CONTINUOUS
 62
           3
100
AcDbLine
 10
3605.899998062718
 20
1529.999999329481
 11
3607.599997037719
 21
1529.999999329481
  0
LINE
  5
A8
100
AcDbEntity
  8
0
  6
CONTINUOUS
 62
           3
100
AcDbLine
 10
3725.899995380624
 20
1429.999999701963
 11
3725.899995380624
 21
1409.99999642378
  0
LINE
  5
A7
100
AcDbEntity
  8
0
  6
CONTINUOUS
 62
           3
100
AcDbLine
 10
3724.199996405628
 20
1429.999999701963
 11
3725.899995380624
 21
1429.999999701963
  0
LINE
  5
A6
100
AcDbEntity
  8
0
  6
CONTINUOUS
 62
           3
100
AcDbLine
 10
3725.824804121025
 20
1409.99999642378
 11
3724.199996405628
 21
1409.99999642378
  0
LINE
  5
A5
100
AcDbEntity
  8
0
  6
CONTINUOUS
 62
           3
100
AcDbLine
 10
3612.899997347717
 20
1364.999994635816
 11
3612.899997347717
 21
1366.600006818714
  0
LINE
  5
A4
100
AcDbEntity
  8
0
  6
CONTINUOUS
 62
           3
100
AcDbLine
 10
3610.899997019716
 20
1364.999994635816
 11
3612.899997347717
 21
1364.999994635816
  0
LINE
  5
A3
100
AcDbEntity
  8
0
  6
CONTINUOUS
 62
           3
100
AcDbLine
 10
3612.899997347717
 20
1366.600006818714
 11
3610.899997019716
 21
1366.600006818714
  0
LINE
  5
A2
100
AcDbEntity
  8
0
  6
CONTINUOUS
 62
           3
100
AcDbLine
 10
3610.899997019716
 20
1635.000005364197
 11
3612.899997347717
 21
1635.000005364197
  0
LINE
  5
A1
100
AcDbEntity
  8
0
  6
CONTINUOUS
 62
           3
100
AcDbLine
 10
3612.899997347717
 20
1635.000005364197
 11
3612.899997347717
 21
1633.399993180997
  0
LINE
  5
A0
100
AcDbEntity
  8
0
  6
CONTINUOUS
 62
           3
100
AcDbLine
 10
3612.899997347717
 20
1633.399993180997
 11
3610.899997019716
 21
1633.399993180997
  0
LINE
  5
9F
100
AcDbEntity
  8
0
  6
CONTINUOUS
 62
           3
100
AcDbLine
 10
3618.899998331107
 20
1633.399993180997
 11
3618.899998331107
 21
1635.000005364197
  0
LINE
  5
9E
100
AcDbEntity
  8
0
  6
CONTINUOUS
 62
           3
100
AcDbLine
 10
3618.899998331107
 20
1635.000005364197
 11
3620.899994933707
 21
1635.000005364197
  0
LINE
  5
9D
100
AcDbEntity
  8
0
  6
CONTINUOUS
 62
           3
100
AcDbLine
 10
3620.899994933707
 20
1633.399993180997
 11
3618.899998331107
 21
1633.399993180997
  0
LINE
  5
9C
100
AcDbEntity
  8
0
  6
CONTINUOUS
 62
           3
100
AcDbLine
 10
3618.899998331107
 20
1364.999994635816
 11
3620.899994933707
 21
1364.999994635816
  0
LINE
  5
9B
100
AcDbEntity
  8
0
  6
CONTINUOUS
 62
           3
100
AcDbLine
 10
3618.899998331107
 20
1366.600006818714
 11
3618.899998331107
 21
1364.999994635816
  0
LINE
  5
9A
100
AcDbEntity
  8
0
  6
CONTINUOUS
 62
           3
100
AcDbLine
 10
3620.899994933707
 20
1366.600006818714
 11
3618.899998331107
 21
1366.600006818714
  0
LINE
  5
99
100
AcDbEntity
  8
0
  6
CONTINUOUS
 62
           3
100
AcDbLine
 10
3620.899994933707
 20
1364.999994635816
 11
3710.899998509635
 21
1364.999994635816
  0
LINE
  5
98
100
AcDbEntity
  8
0
  6
CONTINUOUS
 62
           3
100
AcDbLine
 10
3620.899994933707
 20
1366.600006818714
 11
3710.899998509635
 21
1366.600006818714
  0
LINE
  5
97
100
AcDbEntity
  8
0
  6
CONTINUOUS
 62
           3
100
AcDbLine
 10
3620.899994933707
 20
1635.000005364197
 11
3710.899998509635
 21
1635.000005364197
  0
LINE
  5
96
100
AcDbEntity
  8
0
  6
CONTINUOUS
 62
           3
100
AcDbLine
 10
3620.899994933707
 20
1633.399993180997
 11
3710.899998509635
 21
1633.399993180997
  0
LINE
  5
95
100
AcDbEntity
  8
0
  6
CONTINUOUS
 62
           3
100
AcDbLine
 10
3605.899998062718
 20
1366.600006818714
 11
3605.899998062718
 21
1364.999994635816
  0
LINE
  5
94
100
AcDbEntity
  8
0
  6
CONTINUOUS
 62
           3
100
AcDbLine
 10
3605.899998062718
 20
1364.999994635816
 11
3610.899997019716
 21
1364.999994635816
  0
LINE
  5
93
100
AcDbEntity
  8
0
  6
CONTINUOUS
 62
           3
100
AcDbLine
 10
3610.899997019716
 20
1366.600006818714
 11
3605.899998062718
 21
1366.600006818714
  0
LINE
  5
92
100
AcDbEntity
  8
0
  6
CONTINUOUS
 62
           3
100
AcDbLine
 10
3605.899998062718
 20
1633.399993180997
 11
3605.899998062718
 21
1635.000005364197
  0
LINE
  5
91
100
AcDbEntity
  8
0
  6
CONTINUOUS
 62
           3
100
AcDbLine
 10
3605.899998062718
 20
1635.000005364197
 11
3610.899997019716
 21
1635.000005364197
  0
LINE
  5
90
100
AcDbEntity
  8
0
  6
CONTINUOUS
 62
           3
100
AcDbLine
 10
3610.899997019716
 20
1633.399993180997
 11
3605.899998062718
 21
1633.399993180997
  0
LINE
  5
8F
100
AcDbEntity
  8
0
  6
CONTINUOUS
 62
           3
100
AcDbLine
 10
3718.899996095924
 20
1635.000005364197
 11
3718.899996095924
 21
1633.399993180997
  0
LINE
  5
8E
100
AcDbEntity
  8
0
  6
CONTINUOUS
 62
           3
100
AcDbLine
 10
3720.899996423626
 20
1635.000005364197
 11
3718.899996095924
 21
1635.000005364197
  0
LINE
  5
8D
100
AcDbEntity
  8
0
  6
CONTINUOUS
 62
           3
100
AcDbLine
 10
3718.899996095924
 20
1633.399993180997
 11
3720.899996423626
 21
1633.399993180997
  0
LINE
  5
8C
100
AcDbEntity
  8
0
  6
CONTINUOUS
 62
           3
100
AcDbLine
 10
3718.899996095924
 20
1364.999994635816
 11
3718.899996095924
 21
1366.600006818714
  0
LINE
  5
8B
100
AcDbEntity
  8
0
  6
CONTINUOUS
 62
           3
100
AcDbLine
 10
3720.899996423626
 20
1364.999994635816
 11
3718.899996095924
 21
1364.999994635816
  0
LINE
  5
8A
100
AcDbEntity
  8
0
  6
CONTINUOUS
 62
           3
100
AcDbLine
 10
3718.899996095924
 20
1366.600006818714
 11
3720.899996423626
 21
1366.600006818714
  0
LINE
  5
89
100
AcDbEntity
  8
0
  6
CONTINUOUS
 62
           3
100
AcDbLine
 10
3712.899995112237
 20
1633.399993180997
 11
3712.899995112237
 21
1635.000005364197
  0
LINE
  5
88
100
AcDbEntity
  8
0
  6
CONTINUOUS
 62
           3
100
AcDbLine
 10
3712.899995112237
 20
1635.000005364197
 11
3710.899998509635
 21
1635.000005364197
  0
LINE
  5
87
100
AcDbEntity
  8
0
  6
CONTINUOUS
 62
           3
100
AcDbLine
 10
3710.899998509635
 20
1633.399993180997
 11
3712.899995112237
 21
1633.399993180997
  0
LINE
  5
86
100
AcDbEntity
  8
0
  6
CONTINUOUS
 62
           3
100
AcDbLine
 10
3712.899995112237
 20
1366.600006818714
 11
3712.899995112237
 21
1364.999994635816
  0
LINE
  5
85
100
AcDbEntity
  8
0
  6
CONTINUOUS
 62
           3
100
AcDbLine
 10
3712.899995112237
 20
1364.999994635816
 11
3710.899998509635
 21
1364.999994635816
  0
LINE
  5
84
100
AcDbEntity
  8
0
  6
CONTINUOUS
 62
           3
100
AcDbLine
 10
3710.899998509635
 20
1366.600006818714
 11
3712.899995112237
 21
1366.600006818714
  0
LINE
  5
83
100
AcDbEntity
  8
0
  6
CONTINUOUS
 62
           3
100
AcDbLine
 10
3725.899995380624
 20
1366.600006818714
 11
3725.899995380624
 21
1364.999994635816
  0
LINE
  5
82
100
AcDbEntity
  8
0
  6
CONTINUOUS
 62
           3
100
AcDbLine
 10
3725.899995380624
 20
1364.999994635816
 11
3720.899996423626
 21
1364.999994635816
  0
LINE
  5
81
100
AcDbEntity
  8
0
  6
CONTINUOUS
 62
           3
100
AcDbLine
 10
3720.899996423626
 20
1366.600006818714
 11
3725.899995380624
 21
1366.600006818714
  0
LINE
  5
80
100
AcDbEntity
  8
0
  6
CONTINUOUS
 62
           3
100
AcDbLine
 10
3725.899995380624
 20
1633.399993180997
 11
3725.899995380624
 21
1635.000005364197
  0
LINE
  5
7F
100
AcDbEntity
  8
0
  6
CONTINUOUS
 62
           3
100
AcDbLine
 10
3725.899995380624
 20
1635.000005364197
 11
3720.899996423626
 21
1635.000005364197
  0
LINE
  5
7E
100
AcDbEntity
  8
0
  6
CONTINUOUS
 62
           3
100
AcDbLine
 10
3720.899996423626
 20
1633.399993180997
 11
3725.899995380624
 21
1633.399993180997
  0
LINE
  5
7D
100
AcDbEntity
  8
0
  6
CONTINUOUS
 62
           3
100
AcDbLine
 10
3725.899995380624
 20
1633.399993180997
 11
3725.899995380624
 21
1632.699996232995
  0
LINE
  5
7C
100
AcDbEntity
  8
0
  6
CONTINUOUS
 62
           3
100
AcDbLine
 10
3605.899998062718
 20
1633.399993180997
 11
3605.899998062718
 21
1632.699996232995
  0
LINE
  5
7B
100
AcDbEntity
  8
0
  6
CONTINUOUS
 62
           3
100
AcDbLine
 10
3725.899995380624
 20
1366.600006818714
 11
3725.899995380624
 21
1367.300003767014
  0
LINE
  5
7A
100
AcDbEntity
  8
0
  6
CONTINUOUS
 62
           3
100
AcDbLine
 10
3605.899998062718
 20
1366.600006818714
 11
3605.899998062718
 21
1367.300003767014
  0
LINE
  5
79
100
AcDbEntity
  8
0
  6
CONTINUOUS
 62
           3
100
AcDbLine
 10
3585.499999189237
 20
1364.999994635816
 11
3583.399993443337
 21
1364.999994635816
  0
LINE
  5
78
100
AcDbEntity
  8
0
  6
CONTINUOUS
 62
           3
100
AcDbLine
 10
3583.399993443337
 20
1635.000005364197
 11
3583.399993443337
 21
1364.999994635816
  0
LINE
  5
77
100
AcDbEntity
  8
0
  6
CONTINUOUS
 62
           3
100
AcDbLine
 10
3585.499999189237
 20
1635.000005364197
 11
3583.399993443337
 21
1635.000005364197
  0
LINE
  5
76
100
AcDbEntity
  8
0
  6
CONTINUOUS
 62
           3
100
AcDbLine
 10
3727.399998420228
 20
1490.000000223613
 11
3725.899995380624
 21
1490.000000223613
  0
LINE
  5
75
100
AcDbEntity
  8
0
  6
CONTINUOUS
 62
           3
100
AcDbLine
 10
3724.399996066129
 20
1431.99999630456
 11
3724.399996066129
 21
1429.999999701963
  0
LINE
  5
74
100
AcDbEntity
  8
0
  6
CONTINUOUS
 62
           3
100
AcDbLine
 10
3725.824804121025
 20
1409.99999642378
 11
3727.399998420228
 21
1409.99999642378
  0
LINE
  5
73
100
AcDbEntity
  8
0
  6
CONTINUOUS
 62
           3
100
AcDbLine
 10
3727.399998420228
 20
1409.99999642378
 11
3727.399998420228
 21
1490.000000223613
  0
LINE
  5
72
100
AcDbEntity
  8
0
  6
CONTINUOUS
 62
           3
100
AcDbLine
 10
3724.399996066129
 20
1590.000003576232
 11
3727.399998420228
 21
1590.000003576232
  0
LINE
  5
71
100
AcDbEntity
  8
0
  6
CONTINUOUS
 62
           3
100
AcDbLine
 10
3724.399996066129
 20
1529.999999329481
 11
3724.399996066129
 21
1532.00000151988
  0
LINE
  5
70
100
AcDbEntity
  8
0
  6
CONTINUOUS
 62
           3
100
AcDbLine
 10
3724.399996066129
 20
1550.000000744964
 11
3724.399996066129
 21
1590.000003576232
  0
LINE
  5
6F
100
AcDbEntity
  8
0
  6
CONTINUOUS
 62
           3
100
AcDbLine
 10
3727.399998420228
 20
1509.999999776396
 11
3725.824804121025
 21
1509.999999776396
  0
LINE
  5
6E
100
AcDbEntity
  8
0
  6
CONTINUOUS
 62
           3
100
AcDbLine
 10
3727.399998420228
 20
1590.000003576232
 11
3727.399998420228
 21
1509.999999776396
  0
LINE
  5
6D
100
AcDbEntity
  8
0
  6
CONTINUOUS
 62
           3
100
AcDbLine
 10
3605.975189322327
 20
1409.99999642378
 11
3604.399995023127
 21
1409.99999642378
  0
LINE
  5
6C
100
AcDbEntity
  8
0
  6
CONTINUOUS
 62
           3
100
AcDbLine
 10
3607.39999737752
 20
1431.99999630456
 11
3607.39999737752
 21
1429.999999701963
  0
LINE
  5
6B
100
AcDbEntity
  8
0
  6
CONTINUOUS
 62
           3
100
AcDbLine
 10
3604.399995023127
 20
1490.000000223613
 11
3605.899998062718
 21
1490.000000223613
  0
LINE
  5
6A
100
AcDbEntity
  8
0
  6
CONTINUOUS
 62
           3
100
AcDbLine
 10
3604.399995023127
 20
1409.99999642378
 11
3604.399995023127
 21
1490.000000223613
  0
LINE
  5
69
100
AcDbEntity
  8
0
  6
CONTINUOUS
 62
           3
100
AcDbLine
 10
3605.899998062718
 20
1368.000000715314
 11
3605.899998062718
 21
1367.300003767014
  0
LINE
  5
68
100
AcDbEntity
  8
0
  6
CONTINUOUS
 62
           3
100
AcDbLine
 10
3600.899999106024
 20
1364.999994635816
 11
3600.899999106024
 21
1368.000000715314
  0
LINE
  5
67
100
AcDbEntity
  8
0
  6
CONTINUOUS
 62
           3
100
AcDbLine
 10
3600.899999106024
 20
1635.000005364197
 11
3585.499999189237
 21
1635.000005364197
  0
LINE
  5
66
100
AcDbEntity
  8
0
  6
CONTINUOUS
 62
           3
100
AcDbLine
 10
3600.899999106024
 20
1635.000005364197
 11
3600.899999106024
 21
1631.999999284697
  0
LINE
  5
65
100
AcDbEntity
  8
0
  6
CONTINUOUS
 62
           3
100
AcDbLine
 10
3605.899998062718
 20
1631.999999284697
 11
3605.899998062718
 21
1632.699996232995
  0
LINE
  5
64
100
AcDbEntity
  8
0
  6
CONTINUOUS
 62
           3
100
AcDbLine
 10
3725.899995380624
 20
1631.999999284697
 11
3725.899995380624
 21
1632.699996232995
  0
LINE
  5
63
100
AcDbEntity
  8
0
  6
CONTINUOUS
 62
           3
100
AcDbLine
 10
3730.899994337317
 20
1635.000005364197
 11
3730.899994337317
 21
1631.999999284697
  0
LINE
  5
62
100
AcDbEntity
  8
0
  6
CONTINUOUS
 62
           3
100
AcDbLine
 10
3730.899994337317
 20
1364.999994635816
 11
3730.899994337317
 21
1368.000000715314
  0
LINE
  5
61
100
AcDbEntity
  8
0
  6
CONTINUOUS
 62
           3
100
AcDbLine
 10
3725.899995380624
 20
1368.000000715314
 11
3725.899995380624
 21
1367.300003767014
  0
LINE
  5
60
100
AcDbEntity
  8
0
  6
CONTINUOUS
 62
           3
100
AcDbLine
 10
3604.399995023127
 20
1509.999999776396
 11
3605.975189322327
 21
1509.999999776396
  0
LINE
  5
5F
100
AcDbEntity
  8
0
  6
CONTINUOUS
 62
           3
100
AcDbLine
 10
3607.39999737752
 20
1529.999999329481
 11
3607.39999737752
 21
1532.00000151988
  0
LINE
  5
5E
100
AcDbEntity
  8
0
  6
CONTINUOUS
 62
           3
100
AcDbLine
 10
3607.39999737752
 20
1550.000000744964
 11
3607.39999737752
 21
1590.000003576232
  0
LINE
  5
5D
100
AcDbEntity
  8
0
  6
CONTINUOUS
 62
           3
100
AcDbLine
 10
3607.39999737752
 20
1590.000003576232
 11
3604.399995023127
 21
1590.000003576232
  0
LINE
  5
5C
100
AcDbEntity
  8
0
  6
CONTINUOUS
 62
           3
100
AcDbLine
 10
3604.399995023127
 20
1590.000003576232
 11
3604.399995023127
 21
1509.999999776396
  0
LINE
  5
5B
100
AcDbEntity
  8
0
  6
CONTINUOUS
 62
           3
100
AcDbLine
 10
3600.899999106024
 20
1364.999994635816
 11
3585.499999189237
 21
1364.999994635816
  0
LINE
  5
5A
100
AcDbEntity
  8
FORMAT
  6
DOT_CENTER
 62
           3
100
AcDbLine
 10
3590.999996721636
 20
1625.000000000001
 11
3577.399996721748
 21
1625.000000000001
  0
LINE
  5
59
100
AcDbEntity
  8
FORMAT
  6
DOT_CENTER
 62
           3
100
AcDbLine
 10
3590.999996721636
 20
1375.000000000008
 11
3577.399996721748
 21
1375.000000000008
  0
LINE
  5
58
100
AcDbEntity
  8
FORMAT
  6
CONTINUOUS
 62
           3
100
AcDbLine
 10
3679.899996721759
 20
1392.596845102893
 11
3669.399996721768
 21
1392.596845102893
  0
LINE
  5
57
100
AcDbEntity
  8
FORMAT
  6
CONTINUOUS
 62
           3
100
AcDbLine
 10
3669.399996721768
 20
1392.596845102893
 11
3662.399996721577
 21
1392.596845102893
  0
LINE
  5
56
100
AcDbEntity
  8
FORMAT
  6
DOT_CENTER
 62
           3
100
AcDbLine
 10
3665.899996721679
 20
1249.759397252256
 11
3665.899996721679
 21
1725.394390768569
  0
LINE
  5
55
100
AcDbEntity
  8
FORMAT
  6
CONTINUOUS
 62
           3
100
AcDbLine
 10
3662.399996721577
 20
1392.596845102893
 11
3651.899996721588
 21
1392.596845102893
  0
LINE
  5
54
100
AcDbEntity
  8
0
  6
CONTINUOUS
 62
           3
100
AcDbLine
 10
3665.899996721679
 20
1393.131740391394
 11
3666.955269949178
 21
1393.116392195193
  0
LINE
  5
53
100
AcDbEntity
  8
0
  6
CONTINUOUS
 62
           3
100
AcDbLine
 10
3666.955269949178
 20
1393.116392195193
 11
3667.896187940066
 21
1393.072016537194
  0
LINE
  5
52
100
AcDbEntity
  8
0
  6
CONTINUOUS
 62
           3
100
AcDbLine
 10
3667.896187940066
 20
1393.072016537194
 11
3668.620787869767
 21
1393.003411590992
  0
LINE
  5
51
100
AcDbEntity
  8
0
  6
CONTINUOUS
 62
           3
100
AcDbLine
 10
3668.620787869767
 20
1393.003411590992
 11
3669.050547602966
 21
1392.918020486793
  0
LINE
  5
50
100
AcDbEntity
  8
0
  6
CONTINUOUS
 62
           3
100
AcDbLine
 10
3669.050547602966
 20
1392.918020486793
 11
3669.138896354966
 21
1392.825089394993
  0
LINE
  5
4F
100
AcDbEntity
  8
0
  6
CONTINUOUS
 62
           3
100
AcDbLine
 10
3669.138896354966
 20
1392.825089394993
 11
3668.899996747767
 21
1392.739541828794
  0
LINE
  5
4E
100
AcDbEntity
  8
0
  6
CONTINUOUS
 62
           3
100
AcDbLine
 10
3662.89999669558
 20
1392.739541828794
 11
3662.661097088376
 21
1392.825089394993
  0
LINE
  5
4D
100
AcDbEntity
  8
0
  6
CONTINUOUS
 62
           3
100
AcDbLine
 10
3662.661097088376
 20
1392.825089394993
 11
3662.74944584038
 21
1392.918020486793
  0
LINE
  5
4C
100
AcDbEntity
  8
0
  6
CONTINUOUS
 62
           3
100
AcDbLine
 10
3662.74944584038
 20
1392.918020486793
 11
3663.179205573577
 21
1393.003411590992
  0
LINE
  5
4B
100
AcDbEntity
  8
0
  6
CONTINUOUS
 62
           3
100
AcDbLine
 10
3663.179205573577
 20
1393.003411590992
 11
3663.903805503279
 21
1393.072016537194
  0
LINE
  5
4A
100
AcDbEntity
  8
0
  6
CONTINUOUS
 62
           3
100
AcDbLine
 10
3663.903805503279
 20
1393.072016537194
 11
3664.844723494177
 21
1393.116392195193
  0
LINE
  5
49
100
AcDbEntity
  8
0
  6
CONTINUOUS
 62
           3
100
AcDbLine
 10
3664.844723494177
 20
1393.116392195193
 11
3665.899996721679
 21
1393.131740391394
  0
LINE
  5
48
100
AcDbEntity
  8
1
  6
CONTINUOUS
 62
           3
100
AcDbLine
 10
4170.163567691046
 20
1919.128165004935
 11
4165.254330418637
 21
1919.128165004935
  0
LINE
  5
47
100
AcDbEntity
  8
1
  6
DOT_CENTER
 62
           3
100
AcDbLine
 10
4170.163567691046
 20
1938.643555804875
 11
4170.163567691046
 21
1907.508008255126
  0
LINE
  5
46
100
AcDbEntity
  8
1
  6
CONTINUOUS
 62
           3
100
AcDbLine
 10
4165.254330418637
 20
1930.87183499507
 11
4170.163567691046
 21
1930.87183499507
  0
LINE
  5
45
100
AcDbEntity
  8
1
  6
CONTINUOUS
 62
           3
100
AcDbLine
 10
4165.254330418637
 20
1932.693746580041
 11
4159.389214871947
 21
1932.693746580041
  0
LINE
  5
44
100
AcDbEntity
  8
1
  6
CONTINUOUS
 62
           3
100
AcDbLine
 10
4165.254330418637
 20
1917.306253419961
 11
4159.389214871947
 21
1917.306253419961
  0
LINE
  5
43
100
AcDbEntity
  8
1
  6
CONTINUOUS
 62
           3
100
AcDbLine
 10
4165.254330418637
 20
1917.306253419961
 11
4165.254330418637
 21
1932.693746580041
  0
LINE
  5
42
100
AcDbEntity
  8
1
  6
CONTINUOUS
 62
           3
100
AcDbLine
 10
4159.389214871947
 20
1917.306253419961
 11
4159.389214871947
 21
1932.693746580041
  0
LINE
  5
41
100
AcDbEntity
  8
1
  6
CONTINUOUS
 62
           3
100
AcDbLine
 10
4159.389214871947
 20
1932.693746580041
 11
4159.389214871947
 21
1933.250000000001
  0
LINE
  5
40
100
AcDbEntity
  8
1
  6
CONTINUOUS
 62
           3
100
AcDbLine
 10
4149.714603906647
 20
1925.000000000001
 11
4149.714603906647
 21
1933.250000000001
  0
LINE
  5
3F
100
AcDbEntity
  8
1
  6
CONTINUOUS
 62
           3
100
AcDbLine
 10
4149.714603906647
 20
1933.250000000001
 11
4159.389214871947
 21
1933.250000000001
  0
LINE
  5
3E
100
AcDbEntity
  8
1
  6
CONTINUOUS
 62
           3
100
AcDbLine
 10
4148.868798384466
 20
1931.000000000001
 11
4149.714603906647
 21
1931.000000000001
  0
LINE
  5
3D
100
AcDbEntity
  8
1
  6
CONTINUOUS
 62
           3
100
AcDbLine
 10
4148.868798384466
 20
1925.000000000001
 11
4148.868798384466
 21
1932.693746580041
  0
LINE
  5
3C
100
AcDbEntity
  8
1
  6
CONTINUOUS
 62
           3
100
AcDbLine
 10
4148.163567691046
 20
1932.693746580041
 11
4148.868798384466
 21
1932.693746580041
  0
LINE
  5
3B
100
AcDbEntity
  8
1
  6
CONTINUOUS
 62
           3
100
AcDbLine
 10
4147.663567691046
 20
1932.193746580041
 11
4147.663567691046
 21
1925.000000000001
  0
LINE
  5
3A
100
AcDbEntity
  8
1
  6
CONTINUOUS
 62
           3
100
AcDbLine
 10
4147.663567691046
 20
1925.000000000001
 11
4147.663567691046
 21
1917.806253419961
  0
LINE
  5
39
100
AcDbEntity
  8
1
  6
CONTINUOUS
 62
           3
100
AcDbLine
 10
4148.868798384466
 20
1917.306253419961
 11
4148.163567691046
 21
1917.306253419961
  0
LINE
  5
38
100
AcDbEntity
  8
1
  6
CONTINUOUS
 62
           3
100
AcDbLine
 10
4148.868798384466
 20
1917.306253419961
 11
4148.868798384466
 21
1925.000000000001
  0
LINE
  5
37
100
AcDbEntity
  8
1
  6
CONTINUOUS
 62
           3
100
AcDbLine
 10
4149.714603906647
 20
1919.000000000001
 11
4148.868798384466
 21
1919.000000000001
  0
LINE
  5
36
100
AcDbEntity
  8
1
  6
CONTINUOUS
 62
           3
100
AcDbLine
 10
4149.714603906647
 20
1916.750000000001
 11
4149.714603906647
 21
1925.000000000001
  0
LINE
  5
35
100
AcDbEntity
  8
1
  6
CONTINUOUS
 62
           3
100
AcDbLine
 10
4159.389214871947
 20
1916.750000000001
 11
4149.714603906647
 21
1916.750000000001
  0
LINE
  5
34
100
AcDbEntity
  8
1
  6
CONTINUOUS
 62
           3
100
AcDbLine
 10
4159.389214871947
 20
1916.750000000001
 11
4159.389214871947
 21
1917.306253419961
  0
LINE
  5
33
100
AcDbEntity
  8
1
  6
DOT_CENTER
 62
           3
100
AcDbLine
 10
4146.218519558625
 20
1925.000000000001
 11
4187.667695262445
 21
1925.000000000001
  0
LINE
  5
32
100
AcDbEntity
  8
1
  6
CONTINUOUS
 62
           3
100
AcDbLine
 10
4164.489527668234
 20
1917.306253419961
 11
4170.163567691046
 21
1914.030344885399
  0
LINE
  5
31
100
AcDbEntity
  8
1
  6
CONTINUOUS
 62
           3
100
AcDbLine
 10
4170.163567691046
 20
1914.030344885399
 11
4179.663567691046
 21
1919.5151724427
  0
LINE
  5
30
100
AcDbEntity
  8
1
  6
CONTINUOUS
 62
           3
100
AcDbLine
 10
4179.663567691046
 20
1919.5151724427
 11
4179.663567691046
 21
1930.484827557303
  0
LINE
  5
2F
100
AcDbEntity
  8
1
  6
CONTINUOUS
 62
           3
100
AcDbLine
 10
4179.663567691046
 20
1930.484827557303
 11
4170.163567691046
 21
1935.969655114603
  0
LINE
  5
2E
100
AcDbEntity
  8
1
  6
CONTINUOUS
 62
           3
100
AcDbLine
 10
4170.163567691046
 20
1935.969655114603
 11
4164.489527668226
 21
1932.693746580041
  0
POINT
  5
2D
100
AcDbEntity
  8
0
 62
           3
100
AcDbPoint
 10
3583.399996721737
 20
1365.000000000118
  0
ENDSEC
  0
SECTION
  2
OBJECTS
  0
DICTIONARY
  5
19
100
AcDbDictionary
  3
ACAD_GROUP
350
1A
  3
ACAD_MLINESTYLE
350
1B
  0
DICTIONARY
  5
1A
102
{ACAD_REACTORS
330
19
102
}
100
AcDbDictionary
  0
DICTIONARY
  5
1B
102
{ACAD_REACTORS
330
19
102
}
100
AcDbDictionary
  3
STANDARD
350
1C
  0
MLINESTYLE
  5
1C
102
{ACAD_REACTORS
330
1B
102
}
100
AcDbMlineStyle
  2
STANDARD
 70
           0
  3

 62
           0
 51
90.0
 52
90.0
 71
           2
 49
0.5
 62
         256
  6
BYLAYER
 49
-0.5
 62
         256
  6
BYLAYER
  0
ENDSEC
  0
EOF
