  0
SECTION
  2
HEADER
  9
$ACADVER
  1
AC1014
  9
$ACADMAINTVER
 70
           0
  9
$DWGCODEPAGE
  3
DOS932
  9
$INSBASE
 10
0.0
 20
0.0
 30
0.0
  9
$EXTMIN
 10
1.000000000000E+20
 20
1.000000000000E+20
 30
1.000000000000E+20
  9
$EXTMAX
 10
-1.000000000000E+20
 20
-1.000000000000E+20
 30
-1.000000000000E+20
  9
$LIMMIN
 10
0.0
 20
0.0
  9
$LIMMAX
 10
0.0
 20
0.0
  9
$ORTHOMODE
 70
           0
  9
$REGENMODE
 70
           1
  9
$FILLMODE
 70
           1
  9
$QTEXTMODE
 70
           0
  9
$MIRRTEXT
 70
           1
  9
$DRAGMODE
 70
           2
  9
$LTSCALE
 40
1.0
  9
$OSMODE
 70
           0
  9
$ATTMODE
 70
           1
  9
$TEXTSIZE
 40
0.2
  9
$TRACEWID
 40
0.05
  9
$TEXTSTYLE
  7
STANDARD
  9
$CLAYER
  8
0
  9
$CELTYPE
  6
CONTINUOUS
  9
$CECOLOR
 62
         256
  9
$CELTSCALE
 40
1.0
  9
$DELOBJ
 70
           1
  9
$DISPSILH
 70
           0
  9
$DIMSCALE
 40
1.0
  9
$DIMASZ
 40
0.18
  9
$DIMEXO
 40
0.0625
  9
$DIMDLI
 40
0.38
  9
$DIMRND
 40
0.0
  9
$DIMDLE
 40
0.0
  9
$DIMEXE
 40
0.18
  9
$DIMTP
 40
0.0
  9
$DIMTM
 40
0.0
  9
$DIMTXT
 40
0.18
  9
$DIMCEN
 40
0.09
  9
$DIMTSZ
 40
0.0
  9
$DIMTOL
 70
           0
  9
$DIMLIM
 70
           0
  9
$DIMTIH
 70
           1
  9
$DIMTOH
 70
           1
  9
$DIMSE1
 70
           0
  9
$DIMSE2
 70
           0
  9
$DIMTAD
 70
           0
  9
$DIMZIN
 70
           0
  9
$DIMBLK
  1

  9
$DIMASO
 70
           1
  9
$DIMSHO
 70
           1
  9
$DIMPOST
  1

  9
$DIMAPOST
  1

  9
$DIMALT
 70
           0
  9
$DIMALTD
 70
           2
  9
$DIMALTF
 40
25.4
  9
$DIMLFAC
 40
1.0
  9
$DIMTOFL
 70
           0
  9
$DIMTVP
 40
0.0
  9
$DIMTIX
 70
           0
  9
$DIMSOXD
 70
           0
  9
$DIMSAH
 70
           0
  9
$DIMBLK1
  1

  9
$DIMBLK2
  1

  9
$DIMSTYLE
  2
STANDARD
  9
$DIMCLRD
 70
           0
  9
$DIMCLRE
 70
           0
  9
$DIMCLRT
 70
           0
  9
$DIMTFAC
 40
1.0
  9
$DIMGAP
 40
0.09
  9
$DIMJUST
 70
           0
  9
$DIMSD1
 70
           0
  9
$DIMSD2
 70
           0
  9
$DIMTOLJ
 70
           1
  9
$DIMTZIN
 70
           0
  9
$DIMALTZ
 70
           0
  9
$DIMALTTZ
 70
           0
  9
$DIMFIT
 70
           3
  9
$DIMUPT
 70
           0
  9
$DIMUNIT
 70
           2
  9
$DIMDEC
 70
           4
  9
$DIMTDEC
 70
           4
  9
$DIMALTU
 70
           2
  9
$DIMALTTD
 70
           2
  9
$DIMTXSTY
  7
STANDARD
  9
$DIMAUNIT
 70
           0
  9
$LUNITS
 70
           2
  9
$LUPREC
 70
           4
  9
$SKETCHINC
 40
0.1
  9
$FILLETRAD
 40
0.0
  9
$AUNITS
 70
           0
  9
$AUPREC
 70
           0
  9
$MENU
  1
acad
  9
$ELEVATION
 40
0.0
  9
$PELEVATION
 40
0.0
  9
$THICKNESS
 40
0.0
  9
$LIMCHECK
 70
           0
  9
$BLIPMODE
 70
           1
  9
$CHAMFERA
 40
0.0
  9
$CHAMFERB
 40
0.0
  9
$CHAMFERC
 40
0.0
  9
$CHAMFERD
 40
0.0
  9
$SKPOLY
 70
           0
  9
$TDCREATE
 40
0.000000000
  9
$TDUPDATE
 40
0.000000000
  9
$TDINDWG
 40
0.0000000000
  9
$TDUSRTIMER
 40
0.0000000000
  9
$USRTIMER
 70
           1
  9
$ANGBASE
 50
0.0
  9
$ANGDIR
 70
           0
  9
$PDMODE
 70
           0
  9
$PDSIZE
 40
0.0
  9
$PLINEWID
 40
0.0
  9
$COORDS
 70
           0
  9
$SPLFRAME
 70
           0
  9
$SPLINETYPE
 70
           6
  9
$SPLINESEGS
 70
           8
  9
$ATTDIA
 70
           0
  9
$ATTREQ
 70
           1
  9
$HANDLING
 70
           1
  9
$HANDSEED
  5
3A5
  9
$SURFTAB1
 70
           6
  9
$SURFTAB2
 70
           6
  9
$SURFTYPE
 70
           6
  9
$SURFU
 70
           6
  9
$SURFV
 70
           6
  9
$UCSNAME
  2

  9
$UCSORG
 10
0.0
 20
0.0
 30
0.0
  9
$UCSXDIR
 10
1.0
 20
0.0
 30
0.0
  9
$UCSYDIR
 10
0.0
 20
1.0
 30
0.0
  9
$PUCSNAME
  2

  9
$PUCSORG
 10
0.0
 20
0.0
 30
0.0
  9
$PUCSXDIR
 10
1.0
 20
0.0
 30
0.0
  9
$PUCSYDIR
 10
0.0
 20
1.0
 30
0.0
  9
$USERI1
 70
           0
  9
$USERI2
 70
           0
  9
$USERI3
 70
           0
  9
$USERI4
 70
           0
  9
$USERI5
 70
           0
  9
$USERR1
 40
0.0
  9
$USERR2
 40
0.0
  9
$USERR3
 40
0.0
  9
$USERR4
 40
0.0
  9
$USERR5
 40
0.0
  9
$WORLDVIEW
 70
           1
  9
$SHADEDGE
 70
           3
  9
$SHADEDIF
 70
          70
  9
$TILEMODE
 70
           1
  9
$MAXACTVP
 70
          16
  9
$PINSBASE
 10
0.0
 20
0.0
 30
0.0
  9
$PLIMCHECK
 70
           0
  9
$PEXTMIN
 10
1.000000000000E+20
 20
1.000000000000E+20
 30
1.000000000000E+20
  9
$PEXTMAX
 10
-1.000000000000E+20
 20
-1.000000000000E+20
 30
-1.000000000000E+20
  9
$PLIMMIN
 10
0.0
 20
0.0
  9
$PLIMMAX
 10
12.0
 20
9.0
  9
$UNITMODE
 70
           0
  9
$VISRETAIN
 70
           0
  9
$PLINEGEN
 70
           1
  9
$PSLTSCALE
 70
           0
  9
$TREEDEPTH
 70
        3020
  9
$PICKSTYLE
 70
           1
  9
$CMLSTYLE
  2
STANDARD
  9
$CMLJUST
 70
           0
  9
$CMLSCALE
 40
1.0
  9
$PROXYGRAPHICS
 70
           0
  9
$MEASUREMENT
 70
           0
  0
ENDSEC
  0
SECTION
  2
CLASSES
  0
CLASS
  1
LWPOLYLINE
  2
AcDbPolyline
  3
"AutoCAD"
 90
        0
280
           0
281
           1
  0
CLASS
  1
IMAGE
  2
AcDbRasterImage
  3
ISM
 90
      127
280
           0
281
           1
  0
CLASS
  1
OLE2FRAME
  2
AcDbOle2Frame
  3
""
 90
        0
280
           0
281
           1
  0
CLASS
  1
HATCH
  2
AcDbHatch
  3
"ACAD_SEDONA"
 90
        0
280
           0
281
           1
  0
CLASS
  1
DICTIONARYVAR
  2
AcDbDictionaryVar
  3
"AutoCAD"
 90
        0
280
           0
281
           0
  0
CLASS
  1
RASTERVARIABLES
  2
AcDbRasterVariables
  3
ISM
 90
        0
280
           0
281
           0
  0
CLASS
  1
IMAGEDEF
  2
AcDbRasterImageDef
  3
ISM
 90
        0
280
           0
281
           0
  0
CLASS
  1
IMAGEDEF_REACTOR
  2
AcDbRasterImageDefReactor
  3
ISM
 90
        1
280
           0
281
           0
  0
CLASS
  1
IDBUFFER
  2
AcDbIdBuffer
  3
"Acad"
 90
        0
280
           0
281
           0
  0
CLASS
  1
SPATIAL_FILTER
  2
AcDbSpatialFilter
  3
"Acad"
 90
        0
280
           0
281
           0
  0
CLASS
  1
XRECORD
  2
AcDbXrecord
  3
"<Built In>"
 90
        0
280
           0
281
           0
  0
CLASS
  1
SORTENTSTABLE
  2
AcDbSortentsTable
  3
"AutoCAD"
 90
        0
280
           0
281
           0
  0
CLASS
  1
LAYER_INDEX
  2
AcDbLayerIndex
  3
"Acad"
 90
        0
280
           0
281
           0
  0
CLASS
  1
SPATIAL_INDEX
  2
AcDbSpatialIndex
  3
"Acad"
 90
        0
280
           0
281
           0
  0
CLASS
  1
OBJECT_PTR
  2
CAseDLPNTableRecord
  3
"ASE-LPNTableRecord"
 90
        1
280
           0
281
           0
  0
CLASS
  1
LAYOUT
  2
AcDbLayout
  3
"AutoCAD 2000"
 90
        1
280
           0
281
           0
  0
CLASS
  1
PLOTSETTINGS
  2
AcDbPlotSettings
  3
"AutoCAD 2000"
 90
        1
280
           0
281
           0
  0
CLASS
  1
ACDBDICTIONARYWDFLT
  2
AcDbDictionaryWithDefault
  3
"AutoCAD 2000"
 90
        1
280
           0
281
           0
  0
CLASS
  1
ACDBPLACEHOLDER
  2
AcDbPlaceHolder
  3
"AutoCAD 2000"
 90
        1
280
           0
281
           0
  0
CLASS
  1
VBA_PROJECT
  2
AcDbVbaProject
  3
"acadvba"
 90
        1
280
           0
281
           0
  0
CLASS
  1
WIPEOUT
  2
AcDbWipeout
  3
WipeOut|AutoCAD Express Tool|expresstools@autodesk.com
 90
      127
280
           0
281
           1
  0
CLASS
  1
WIPEOUTVARIABLES
  2
AcDbWipeoutVariables
  3
WipeOut|AutoCAD Express Tool|expresstools@autodesk.com
 90
        0
280
           0
281
           0
  0
CLASS
  1
RTEXT
  2
RText
  3
RText|AutoCAD Express Tool|expresstools@autodesk.com
 90
        0
280
           0
281
           1
  0
CLASS
  1
ARCALIGNEDTEXT
  2
AcDbArcAlignedText
  3
ATEXT|AutoCAD Express Tool|expresstools@autodesk.com
 90
        0
280
           0
281
           1
  0
ENDSEC
  0
SECTION
  2
TABLES
  0
TABLE
  2
VPORT
  5
7
100
AcDbSymbolTable
 70
           1
  0
VPORT
  5
15
100
AcDbSymbolTableRecord
100
AcDbViewportTableRecord
  2
*ACTIVE
 70
           0
 10
0.0
 20
0.0
 11
1.0
 21
1.0
 12
6.591288
 22
4.579184
 13
0.0
 23
0.0
 14
1.0
 24
1.0
 15
0.0
 25
0.0
 16
0.0
 26
0.0
 36
1.0
 17
0.0
 27
0.0
 37
0.0
 40
9.158369
 41
0.688564
 42
50.0
 43
0.0
 44
0.0
 50
0.0
 51
0.0
 71
           0
 72
         100
 73
           1
 74
           1
 75
           0
 76
           0
 77
           0
 78
           0
  0
ENDTAB
  0
TABLE
  2
LTYPE
  5
4
100
AcDbSymbolTable
 70
          10
  0
LTYPE
  5
11
100
AcDbSymbolTableRecord
100
AcDbLinetypeTableRecord
  2
BYBLOCK
 70
          64
  3

 72
          65
 73
           0
 40
0.0
  0
LTYPE
  5
12
100
AcDbSymbolTableRecord
100
AcDbLinetypeTableRecord
  2
BYLAYER
 70
          64
  3

 72
          65
 73
           0
 40
0.0
  0
LTYPE
  5
13
100
AcDbSymbolTableRecord
100
AcDbLinetypeTableRecord
  2
CONTINUOUS
 70
          64
  3
Solid line
 72
          65
 73
           0
 40
0.0
  0
LTYPE
  5
1D
100
AcDbSymbolTableRecord
100
AcDbLinetypeTableRecord
  2
DASHED
 70
          64
  3
Dashed
 72
          65
 73
           2
 40
15.0
 49
12.0
 74
           0
 49
-3.0
 74
           0
  0
LTYPE
  5
1E
100
AcDbSymbolTableRecord
100
AcDbLinetypeTableRecord
  2
DOTTED
 70
          64
  3
Dotted
 72
          65
 73
           2
 40
3.5
 49
0.5
 74
           0
 49
-3.0
 74
           0
  0
LTYPE
  5
1F
100
AcDbSymbolTableRecord
100
AcDbLinetypeTableRecord
  2
DOT_CENTER
 70
          64
  3
Dot_Center
 72
          65
 73
           4
 40
2.0
 49
1.25
 74
           0
 49
-0.25
 74
           0
 49
0.25
 74
           0
 49
-0.25
 74
           0
  0
LTYPE
  5
20
100
AcDbSymbolTableRecord
100
AcDbLinetypeTableRecord
  2
LONG_DASHED
 70
          64
  3
Long_Dashed
 72
          65
 73
           2
 40
2.0
 49
1.5
 74
           0
 49
-0.5
 74
           0
  0
LTYPE
  5
21
100
AcDbSymbolTableRecord
100
AcDbLinetypeTableRecord
  2
DASH_CENTER
 70
          64
  3
Dash_Center
 72
          65
 73
           4
 40
36.0
 49
24.0
 74
           0
 49
-3.0
 74
           0
 49
6.0
 74
           0
 49
-3.0
 74
           0
  0
LTYPE
  5
22
100
AcDbSymbolTableRecord
100
AcDbLinetypeTableRecord
  2
PHANTOM
 70
          64
  3
Phantom
 72
          65
 73
           6
 40
2.5
 49
1.25
 74
           0
 49
-0.25
 74
           0
 49
0.25
 74
           0
 49
-0.25
 74
           0
 49
0.25
 74
           0
 49
-0.25
 74
           0
  0
LTYPE
  5
23
100
AcDbSymbolTableRecord
100
AcDbLinetypeTableRecord
  2
CENTER_DASH_DASH
 70
          64
  3
Center_Dash_Dash
 72
          65
 73
           6
 40
22.0
 49
12.0
 74
           0
 49
-3.0
 74
           0
 49
0.5
 74
           0
 49
-3.0
 74
           0
 49
0.5
 74
           0
 49
-3.0
 74
           0
  0
ENDTAB
  0
TABLE
  2
LAYER
  5
2
100
AcDbSymbolTable
 70
           7
  0
LAYER
  5
14
100
AcDbSymbolTableRecord
100
AcDbLayerTableRecord
  2
0
 70
           0
 62
           7
  6
CONTINUOUS
  0
LAYER
  5
24
100
AcDbSymbolTableRecord
100
AcDbLayerTableRecord
  2
___S__
 70
           0
 62
           7
  6
CONTINUOUS
  0
LAYER
  5
25
100
AcDbSymbolTableRecord
100
AcDbLayerTableRecord
  2
FORMAT
 70
           0
 62
           7
  6
CONTINUOUS
  0
LAYER
  5
26
100
AcDbSymbolTableRecord
100
AcDbLayerTableRecord
  2
1
 70
           0
 62
           7
  6
CONTINUOUS
  0
LAYER
  5
27
100
AcDbSymbolTableRecord
100
AcDbLayerTableRecord
  2
2
 70
           0
 62
           7
  6
CONTINUOUS
  0
LAYER
  5
28
100
AcDbSymbolTableRecord
100
AcDbLayerTableRecord
  2
7
 70
           0
 62
           7
  6
CONTINUOUS
  0
LAYER
  5
29
100
AcDbSymbolTableRecord
100
AcDbLayerTableRecord
  2
____
 70
           0
 62
           7
  6
CONTINUOUS
  0
ENDTAB
  0
TABLE
  2
STYLE
  5
3
100
AcDbSymbolTable
 70
           1
  0
STYLE
  5
17
100
AcDbSymbolTableRecord
100
AcDbTextStyleTableRecord
  2
STANDARD
 70
           0
 40
0.0
 41
1.0
 50
0.0
 71
           0
 42
0.0
  3
txt
  4

  0
ENDTAB
  0
TABLE
  2
VIEW
  5
5
100
AcDbSymbolTable
 70
           0
  0
ENDTAB
  0
TABLE
  2
UCS
  5
6
100
AcDbSymbolTable
 70
           0
  0
ENDTAB
  0
TABLE
  2
APPID
  5
8
100
AcDbSymbolTable
 70
           1
  0
APPID
  5
16
100
AcDbSymbolTableRecord
100
AcDbRegAppTableRecord
  2
ACAD
 70
           0
  0
ENDTAB
  0
TABLE
  2
DIMSTYLE
  5
9
100
AcDbSymbolTable
 70
           1
  0
DIMSTYLE
105
18
100
AcDbSymbolTableRecord
100
AcDbDimStyleTableRecord
  2
STANDARD
 70
           0
  3

  4

  5

  6

  7

 40
1.0
 41
0.18
 42
0.0625
 43
0.38
 44
0.18
 45
0.0
 46
0.0
 47
0.0
 48
0.0
 71
           0
 72
           0
 73
           1
 74
           1
 75
           0
 76
           0
 77
           0
 78
           0
140
0.18
141
0.09
142
0.0
143
25.4
144
1.0
145
0.0
146
1.0
147
0.09
170
           0
171
           2
172
           0
173
           0
174
           0
175
           0
176
           0
177
           0
178
           0
270
           2
271
           4
272
           4
273
           2
274
           2
275
           0
280
           0
281
           0
282
           0
283
           1
284
           0
285
           0
286
           0
287
           0
288
           0
340
17
  0
ENDTAB
  0
TABLE
  2
BLOCK_RECORD
  5
1
100
AcDbSymbolTable
 70
           0
  0
BLOCK_RECORD
  5
A
100
AcDbSymbolTableRecord
100
AcDbBlockTableRecord
  2
*MODEL_SPACE
  0
BLOCK_RECORD
  5
B
100
AcDbSymbolTableRecord
100
AcDbBlockTableRecord
  2
*PAPER_SPACE
  0
ENDTAB
  0
ENDSEC
  0
SECTION
  2
BLOCKS
  0
BLOCK
  5
D
100
AcDbEntity
  8
0
100
AcDbBlockBegin
  2
*MODEL_SPACE
 70
           0
 10
0.0
 20
0.0
 30
0.0
  3
*MODEL_SPACE
  1

  0
ENDBLK
  5
E
100
AcDbEntity
  8
0
100
AcDbBlockEnd
  0
BLOCK
  5
F
100
AcDbEntity
 67
           1
  8
0
100
AcDbBlockBegin
  2
*PAPER_SPACE
 70
           0
 10
0.0
 20
0.0
 30
0.0
  3
*PAPER_SPACE
  1

  0
ENDBLK
  5
10
100
AcDbEntity
 67
           1
  8
0
100
AcDbBlockEnd
  0
ENDSEC
  0
SECTION
  2
ENTITIES
  0
HATCH
  5
3A3
100
AcDbEntity
  8
0
  6
CONTINUOUS
 62
           2
100
AcDbHatch
 10
0.0
 20
0.0
 30
0.0
210
0.0
220
0.0
230
1.0
  2
USER
 70
           0
 71
           1
 91
        1
 92
        1
 93
        8
 72
           1
 10
3534.3846950708948
 20
1219.750000000002
 11
3534.3846950708948
 21
1239.750000000002
 72
           1
 10
3456.3846950708962
 20
1219.750000000002
 11
3534.3846950708948
 21
1219.750000000002
 72
           2
 10
3456.3846950708962
 20
1256.750000000002
 40
37.0
 50
180.0
 51
-90.0
 73
           1
 72
           1
 10
3419.3846950708962
 20
1270.000000000002
 11
3419.3846950708962
 21
1256.750000000002
 72
           1
 10
3439.3846950708962
 20
1256.750000000002
 11
3439.3846950708962
 21
1270.000000000002
 72
           1
 10
3439.3846950708962
 20
1270.000000000002
 11
3419.3846950708962
 21
1270.000000000002
 72
           2
 10
3456.3846950708962
 20
1256.750000000002
 40
17.0
 50
180.0
 51
-90.0
 73
           1
 72
           1
 10
3456.3846950708962
 20
1239.750000000002
 11
3534.3846950708948
 21
1239.750000000002
 97
        7
330
38C
330
E4
330
32A
330
E2
330
38B
330
32B
330
E3
 75
           1
 76
           0
 52
45.0
 41
10.0
 77
           0
 78
           1
 53
45.0
 43
0.0
 44
0.0
 45
-7.0710678118654746
 46
7.0710678118654755
 79
           0
 98
        1
 10
0.0
 20
0.0
  0
ARC
  5
3A2
100
AcDbEntity
  8
1
  6
CONTINUOUS
 62
           3
100
AcDbCircle
 10
4304.284691881827
 20
1641.000000000001
 40
288.0
100
AcDbArc
 50
90.0
 51
180.0
  0
ARC
  5
3A1
100
AcDbEntity
  8
1
  6
CONTINUOUS
 62
           3
100
AcDbCircle
 10
4304.28469319322
 20
1641.000000000001
 40
280.000000000001
100
AcDbArc
 50
90.0
 51
180.0
  0
ARC
  5
3A0
100
AcDbEntity
  8
1
  6
CONTINUOUS
 62
           3
100
AcDbCircle
 10
4452.548262761937
 20
1932.193746580041
 40
0.5
100
AcDbArc
 50
90.0
 51
180.0
  0
ARC
  5
39F
100
AcDbEntity
  8
1
  6
CONTINUOUS
 62
           3
100
AcDbCircle
 10
4452.548262761937
 20
1917.806253419961
 40
0.5
100
AcDbArc
 50
180.0
 51
-90.0
  0
ARC
  5
39E
100
AcDbEntity
  8
1
  6
CONTINUOUS
 62
           4
100
AcDbCircle
 10
5109.884695070894
 20
2556.000000000003
 40
1.0
100
AcDbArc
 50
180.0
 51
-90.0
  0
ARC
  5
39D
100
AcDbEntity
  8
1
  6
CONTINUOUS
 62
           4
100
AcDbCircle
 10
5098.884695070894
 20
2556.000000000003
 40
1.0
100
AcDbArc
 50
-90.0
 51
0.0
  0
ARC
  5
39C
100
AcDbEntity
  8
1
  6
CONTINUOUS
 62
           4
100
AcDbCircle
 10
5109.884695070894
 20
2160.000000000004
 40
1.0
100
AcDbArc
 50
90.0
 51
180.0
  0
ARC
  5
39B
100
AcDbEntity
  8
1
  6
CONTINUOUS
 62
           4
100
AcDbCircle
 10
5098.884695070894
 20
2160.000000000004
 40
1.0
100
AcDbArc
 50
0.0
 51
90.0
  0
ARC
  5
39A
100
AcDbEntity
  8
1
  6
CONTINUOUS
 62
           7
100
AcDbCircle
 10
4698.134695070894
 20
2680.000000000002
 40
10.0
100
AcDbArc
 50
-90.0
 51
0.0
  0
ARC
  5
399
100
AcDbEntity
  8
1
  6
CONTINUOUS
 62
           7
100
AcDbCircle
 10
4630.634695070894
 20
2680.000000000002
 40
10.0
100
AcDbArc
 50
180.0
 51
-90.0
  0
ARC
  5
398
100
AcDbEntity
  8
1
  6
CONTINUOUS
 62
           7
100
AcDbCircle
 10
4698.134695070894
 20
2740.000000000002
 40
10.0
100
AcDbArc
 50
0.0
 51
90.0
  0
ARC
  5
397
100
AcDbEntity
  8
1
  6
CONTINUOUS
 62
           7
100
AcDbCircle
 10
4630.634695070894
 20
2740.000000000002
 40
10.0
100
AcDbArc
 50
90.0
 51
180.0
  0
ARC
  5
396
100
AcDbEntity
  8
1
  6
CONTINUOUS
 62
           4
100
AcDbCircle
 10
109.26566811172
 20
5638.750000000001
 40
10.0
100
AcDbArc
 50
90.0
 51
120.430594205715
  0
ARC
  5
395
100
AcDbEntity
  8
1
  6
CONTINUOUS
 62
           4
100
AcDbCircle
 10
109.26566811172
 20
5581.250000000001
 40
10.000000000001
100
AcDbArc
 50
-120.43059420571
 51
-90.0
  0
ARC
  5
394
100
AcDbEntity
  8
1
  6
CONTINUOUS
 62
           7
100
AcDbCircle
 10
123.946258446659
 20
5576.250000000001
 40
10.0
100
AcDbArc
 50
180.0
 51
-90.0
  0
ARC
  5
393
100
AcDbEntity
  8
1
  6
CONTINUOUS
 62
           7
100
AcDbCircle
 10
123.946258446659
 20
5643.750000000001
 40
10.0
100
AcDbArc
 50
90.0
 51
180.0
  0
ARC
  5
392
100
AcDbEntity
  8
1
  6
CONTINUOUS
 62
           7
100
AcDbCircle
 10
156.499999999998
 20
5576.250000000001
 40
10.0
100
AcDbArc
 50
-90.0
 51
0.0
  0
ARC
  5
391
100
AcDbEntity
  8
1
  6
CONTINUOUS
 62
           7
100
AcDbCircle
 10
156.499999999998
 20
5643.750000000001
 40
10.0
100
AcDbArc
 50
0.0
 51
90.0
  0
ARC
  5
390
100
AcDbEntity
  8
1
  6
CONTINUOUS
 62
           7
100
AcDbCircle
 10
156.499999999999
 20
2741.300000000002
 40
10.0
100
AcDbArc
 50
0.0
 51
90.0
  0
ARC
  5
38F
100
AcDbEntity
  8
1
  6
CONTINUOUS
 62
           7
100
AcDbCircle
 10
156.499999999999
 20
2681.300000000003
 40
10.0
100
AcDbArc
 50
-90.0
 51
0.0
  0
ARC
  5
38E
100
AcDbEntity
  8
1
  6
CONTINUOUS
 62
           7
100
AcDbCircle
 10
118.613664000001
 20
2741.300000000002
 40
10.0
100
AcDbArc
 50
90.0
 51
180.0
  0
ARC
  5
38D
100
AcDbEntity
  8
1
  6
CONTINUOUS
 62
           7
100
AcDbCircle
 10
118.613664000001
 20
2681.300000000003
 40
10.0
100
AcDbArc
 50
180.0
 51
-90.0
  0
LWPOLYLINE
  5
38C
100
AcDbEntity
  8
1
  6
CONTINUOUS
 62
           7
 60
           1
100
AcDbPolyline
 90
        2
 70
           0
 10
3534.384695070895
 20
1219.750000000002
 10
3534.384695070895
 20
1239.750000000002
  0
LWPOLYLINE
  5
38B
100
AcDbEntity
  8
1
  6
CONTINUOUS
 62
           7
 60
           1
100
AcDbPolyline
 90
        3
 70
           0
 10
3439.384695070896
 20
1256.750000000002
 10
3439.384695070896
 20
1270.000000000002
 10
3419.384695070896
 20
1270.000000000002
  0
SPLINE
  5
38A
100
AcDbEntity
  8
0
  6
CONTINUOUS
 62
           3
100
AcDbSpline
210
0.0
220
0.0
230
1.0
 70
           0
 71
           3
 72
           8
 73
           5
 74
           7
 42
0.00000000001
 43
0.00000000001
 44
0.00000000001
 40
0.0
 40
0.0
 40
0.0
 40
0.5558562714153965
 40
1.5343210643710465
 40
2.9385072682928524
 40
2.9385072682928524
 40
2.9385072682928524
 10
3970.2846917925699
 20
1359.999999404049
 30
0.0
 10
3970.3531248800391
 20
1359.999553710677
 30
0.0
 10
3971.327947670919
 20
1359.9932048512139
 30
0.0
 10
3972.2832259756378
 20
1359.7653090218639
 30
0.0
 10
3973.1714432263971
 20
1359.553411603069
 30
0.0
 11
3970.2846917925699
 21
1359.999999404049
 31
0.0
 11
3970.4243066953004
 21
1359.999090115298
 31
0.0
 11
3970.7062852285553
 21
1359.99725363579
 31
0.0
 11
3971.2706062421812
 21
1359.9708199944773
 31
0.0
 11
3971.7202443983315
 21
1359.8996166396912
 31
0.0
 11
3972.3645348940008
 21
1359.7459115716219
 31
0.0
 11
3973.1714432263971
 21
1359.553411603069
 31
0.0
  0
SPLINE
  5
389
100
AcDbEntity
  8
0
  6
CONTINUOUS
 62
           3
100
AcDbSpline
210
0.0
220
0.0
230
1.0
 70
           0
 71
           3
 72
           8
 73
           5
 74
           7
 42
0.00000000001
 43
0.00000000001
 44
0.00000000001
 40
0.0
 40
0.0
 40
0.0
 40
0.5558558490687683
 40
1.5343195422048139
 40
2.938503745663668
 40
2.938503745663668
 40
2.938503745663668
 10
3970.2846917925699
 20
1355.000004172322
 30
0.0
 10
3970.2162587071871
 20
1355.0004498783021
 30
0.0
 10
3969.2414367581359
 20
1355.006798910669
 30
0.0
 10
3968.2861579871592
 20
1355.234686929231
 30
0.0
 10
3967.3979403587391
 20
1355.4465770722429
 30
0.0
 11
3970.2846917925699
 21
1355.000004172322
 31
0.0
 11
3970.1450769471421
 21
1355.0009134863224
 31
0.0
 11
3969.8630985816226
 21
1355.0027500163633
 31
0.0
 11
3969.2987779669111
 21
1355.0291829422194
 31
0.0
 11
3968.8491397697471
 21
1355.1003839311759
 31
0.0
 11
3968.2048490257012
 21
1355.2540837154702
 31
0.0
 11
3967.3979403587391
 21
1355.4465770722429
 31
0.0
  0
SPLINE
  5
388
100
AcDbEntity
  8
0
  6
CONTINUOUS
 62
           3
100
AcDbSpline
210
0.0
220
0.0
230
1.0
 70
           0
 71
           3
 72
           8
 73
           5
 74
           7
 42
0.00000000001
 43
0.00000000001
 44
0.00000000001
 40
0.0
 40
0.0
 40
0.0
 40
0.2779452695530092
 40
0.7862805426566262
 40
1.5429573556200604
 40
1.5429573556200604
 40
1.5429573556200604
 10
3974.614818826899
 20
1355.0000041724211
 30
0.0
 10
3974.580602283369
 20
1355.00044987719
 30
0.0
 10
3974.0931919861669
 20
1355.006798884745
 30
0.0
 10
3973.615552285878
 20
1355.2346869284679
 30
0.0
 10
3973.1714432262579
 20
1355.446577072225
 30
0.0
 11
3974.614818826899
 21
1355.0000041724211
 31
0.0
 11
3974.546082293959
 21
1355.0008995346443
 31
0.0
 11
3974.4083057821977
 21
1355.0026942117761
 31
0.0
 11
3974.1239864850281
 21
1355.0286664762184
 31
0.0
 11
3973.9012561855798
 21
1355.0983739236071
 31
0.0
 11
3973.5759509958989
 21
1355.2535812131923
 31
0.0
 11
3973.1714432262579
 21
1355.446577072225
 31
0.0
  0
SPLINE
  5
387
100
AcDbEntity
  8
0
  6
CONTINUOUS
 62
           3
100
AcDbSpline
210
0.0
220
0.0
230
1.0
 70
           0
 71
           3
 72
           8
 73
           5
 74
           7
 42
0.00000000001
 43
0.00000000001
 44
0.00000000001
 40
0.0
 40
0.0
 40
0.0
 40
0.6787700534937546
 40
1.1891668948829501
 40
1.5431123743459403
 40
1.5431123743459403
 40
1.5431123743459403
 10
3967.3979403587391
 20
1355.4465770722429
 30
0.0
 10
3967.0285165452979
 20
1355.262448371607
 30
0.0
 10
3966.5523771215171
 20
1355.025130336785
 30
0.0
 10
3966.06401892348
 20
1355.0046045512611
 30
0.0
 10
3965.9545647582408
 20
1355.0000041724211
 30
0.0
 11
3967.3979403587391
 21
1355.4465770722429
 31
0.0
 11
3967.0529280445317
 21
1355.2746155830075
 31
0.0
 11
3966.7567387287941
 21
1355.1269885165739
 31
0.0
 11
3966.531373262841
 21
1355.0475647466094
 31
0.0
 11
3966.2640000795382
 21
1355.0130097962933
 31
0.0
 11
3966.0866506711845
 21
1355.0055557678093
 31
0.0
 11
3965.9545647582408
 21
1355.0000041724211
 31
0.0
  0
SPLINE
  5
386
100
AcDbEntity
  8
0
  6
CONTINUOUS
 62
           3
100
AcDbSpline
210
0.0
220
0.0
230
1.0
 70
           0
 71
           3
 72
           8
 73
           5
 74
           7
 42
0.00000000001
 43
0.00000000001
 44
0.00000000001
 40
0.0
 40
0.0
 40
0.0
 40
0.3539460334944648
 40
0.8643414136598666
 40
1.5431068113992792
 40
1.5431068113992792
 40
1.5431068113992792
 10
3965.9545647582408
 20
1359.999999404049
 30
0.0
 10
3966.0640189133169
 20
1359.9953935078311
 30
0.0
 10
3966.552376741939
 20
1359.97484311874
 30
0.0
 10
3967.028516419341
 20
1359.7375336343539
 30
0.0
 10
3967.3979403588651
 20
1359.5534116030219
 30
0.0
 11
3965.9545647582408
 21
1359.999999404049
 31
0.0
 11
3966.0866507564751
 21
1359.994441146355
 31
0.0
 11
3966.2640004410268
 21
1359.9869781657098
 31
0.0
 11
3966.5313732122822
 21
1359.9524131949256
 31
0.0
 11
3966.7567389242231
 21
1359.8729883765127
 31
0.0
 11
3967.0529280304431
 21
1359.7253668120607
 31
0.0
 11
3967.3979403588651
 21
1359.5534116030219
 31
0.0
  0
SPLINE
  5
385
100
AcDbEntity
  8
0
  6
CONTINUOUS
 62
           3
100
AcDbSpline
210
0.0
220
0.0
230
1.0
 70
           0
 71
           3
 72
           8
 73
           5
 74
           7
 42
0.00000000001
 43
0.00000000001
 44
0.00000000001
 40
0.0
 40
0.0
 40
0.0
 40
0.6415450374773541
 40
1.1579303686103857
 40
1.5357381749069714
 40
1.5357381749069714
 40
1.5357381749069714
 10
3965.9545647582408
 20
1355.0000041724211
 30
0.0
 10
3965.564218779507
 20
1355.0576336938771
 30
0.0
 10
3965.0755797002548
 20
1355.129774916885
 30
0.0
 10
3964.6057070330089
 20
1355.393522448257
 30
0.0
 10
3964.5111889248669
 20
1355.446577072225
 30
0.0
 11
3965.9545647582408
 21
1355.0000041724211
 31
0.0
 11
3965.5941233165981
 21
1355.0532186768005
 31
0.0
 11
3965.2934909491387
 21
1355.0976031470263
 31
0.0
 11
3965.062221118214
 21
1355.1598096979631
 31
0.0
 11
3964.804234123209
 21
1355.2820858110556
 31
0.0
 11
3964.6317092785234
 21
1355.3789269449485
 31
0.0
 11
3964.5111889248669
 21
1355.446577072225
 31
0.0
  0
SPLINE
  5
384
100
AcDbEntity
  8
0
  6
CONTINUOUS
 62
           3
100
AcDbSpline
210
0.0
220
0.0
230
1.0
 70
           0
 71
           3
 72
           8
 73
           5
 74
           7
 42
0.00000000001
 43
0.00000000001
 44
0.00000000001
 40
0.0
 40
0.0
 40
0.0
 40
0.377815528498299
 40
0.8942062233974729
 40
1.5357514174681033
 40
1.5357514174681033
 40
1.5357514174681033
 10
3964.5111889248669
 20
1359.5534116030219
 30
0.0
 10
3964.6057069679291
 20
1359.6064716909059
 30
0.0
 10
3965.0755768657959
 20
1359.8702450113749
 30
0.0
 10
3965.564217805198
 20
1359.9423771862
 30
0.0
 10
3965.9545647582408
 20
1359.999999404049
 30
0.0
 11
3964.5111889248669
 21
1359.5534116030219
 31
0.0
 11
3964.6317092253016
 21
1359.6210687140283
 31
0.0
 11
3964.80423404048
 21
1359.7179198712797
 31
0.0
 11
3965.0622194852226
 21
1359.8402057052372
 31
0.0
 11
3965.2934901688186
 21
1359.9024129269196
 31
0.0
 11
3965.5941226343639
 21
1359.9467916758422
 31
0.0
 11
3965.9545647582408
 21
1359.999999404049
 31
0.0
  0
SPLINE
  5
383
100
AcDbEntity
  8
0
  6
CONTINUOUS
 62
           3
100
AcDbSpline
210
0.0
220
0.0
230
1.0
 70
           0
 71
           3
 72
           8
 73
           5
 74
           7
 42
0.00000000001
 43
0.00000000001
 44
0.00000000001
 40
0.0
 40
0.0
 40
0.0
 40
0.2779464854658412
 40
0.7862840844021939
 40
1.5429642659222609
 40
1.5429642659222609
 40
1.5429642659222609
 10
3974.6148188268589
 20
1359.9999994039219
 30
0.0
 10
3974.6490353762579
 20
1359.999553708677
 30
0.0
 10
3975.136448095348
 20
1359.9932048044429
 30
0.0
 10
3975.6140865748948
 20
1359.765309020481
 30
0.0
 10
3976.0581946602601
 20
1359.5534116030219
 30
0.0
 11
3974.6148188268589
 21
1359.9999994039219
 31
0.0
 11
3974.6835555726411
 21
1359.9991040580453
 31
0.0
 11
3974.8213327111907
 21
1359.9973094109055
 31
0.0
 11
3975.1056530803671
 21
1359.9713364170616
 31
0.0
 11
3975.3283834195809
 21
1359.9016266484546
 31
0.0
 11
3975.6536878074076
 21
1359.7464140731097
 31
0.0
 11
3976.0581946602601
 21
1359.5534116030219
 31
0.0
  0
SPLINE
  5
382
100
AcDbEntity
  8
0
  6
CONTINUOUS
 62
           3
100
AcDbSpline
210
0.0
220
0.0
230
1.0
 70
           0
 71
           3
 72
           8
 73
           5
 74
           7
 42
0.00000000001
 43
0.00000000001
 44
0.00000000001
 40
0.0
 40
0.0
 40
0.0
 40
1.2475591451557289
 40
2.225703708493409
 40
2.9354142011739528
 40
2.9354142011739528
 40
2.9354142011739528
 10
3970.2846917925699
 20
1364.9999946356729
 30
0.0
 10
3969.5290367360672
 20
1364.945893300094
 30
0.0
 10
3968.5515989225478
 20
1364.875913365858
 30
0.0
 10
3967.6112969198489
 20
1364.613063043367
 30
0.0
 10
3967.3979403587391
 20
1364.553421735859
 30
0.0
 11
3970.2846917925699
 21
1364.9999946356729
 31
0.0
 11
3969.5809812937318
 21
1364.9496122852593
 31
0.0
 11
3968.9811599102236
 21
1364.9066679051771
 31
0.0
 11
3968.522758382268
 21
1364.8455202926348
 31
0.0
 11
3968.0066757737522
 21
1364.7235865336461
 31
0.0
 11
3967.6568024930475
 21
1364.6257835890597
 31
0.0
 11
3967.3979403587391
 21
1364.553421735859
 31
0.0
  0
SPLINE
  5
381
100
AcDbEntity
  8
0
  6
CONTINUOUS
 62
           3
100
AcDbSpline
210
0.0
220
0.0
230
1.0
 70
           0
 71
           3
 72
           8
 73
           5
 74
           7
 42
0.00000000001
 43
0.00000000001
 44
0.00000000001
 40
0.0
 40
0.0
 40
0.0
 40
1.232128829260426
 40
2.2113508927679622
 40
2.9387184667233375
 40
2.9387184667233375
 40
2.9387184667233375
 10
3973.1714432263971
 20
1364.553421735859
 30
0.0
 10
3972.4521835719479
 20
1364.7336190184301
 30
0.0
 10
3971.500321096988
 20
1364.972090661199
 30
0.0
 10
3970.523414536051
 20
1364.9945149114551
 30
0.0
 10
3970.2846917925699
 20
1364.9999946356729
 30
0.0
 11
3973.1714432263971
 21
1364.553421735859
 31
0.0
 11
3972.4994079047619
 21
1364.7217878300812
 31
0.0
 11
3971.9218212487522
 21
1364.8664915476056
 31
0.0
 11
3971.4655616178993
 21
1364.9489075788542
 31
0.0
 11
3970.9397830288694
 21
1364.9849574454138
 31
0.0
 11
3970.5678259733859
 21
1364.9934954759992
 31
0.0
 11
3970.2846917925699
 21
1364.9999946356729
 31
0.0
  0
SPLINE
  5
380
100
AcDbEntity
  8
0
  6
CONTINUOUS
 62
           3
100
AcDbSpline
210
0.0
220
0.0
230
1.0
 70
           0
 71
           3
 72
           8
 73
           5
 74
           7
 42
0.00000000001
 43
0.00000000001
 44
0.00000000001
 40
0.0
 40
0.0
 40
0.0
 40
0.7273681394903947
 40
1.7065914567877958
 40
2.9387223240343814
 40
2.9387223240343814
 40
2.9387223240343814
 10
3970.2846917925699
 20
1359.999999404049
 30
0.0
 10
3970.5234145719278
 20
1360.0054789431169
 30
0.0
 10
3971.5003222178761
 20
1360.0279024572419
 30
0.0
 10
3972.4521839271379
 20
1360.266383080512
 30
0.0
 10
3973.1714432262579
 20
1360.446587205123
 30
0.0
 11
3970.2846917925699
 21
1359.999999404049
 31
0.0
 11
3970.5678260858685
 21
1360.0064983457339
 31
0.0
 11
3970.9397834070469
 21
1360.0150360926532
 31
0.0
 11
3971.4655624464067
 21
1360.0510866331749
 31
0.0
 11
3971.9218219428258
 21
1360.1335055255618
 31
0.0
 11
3972.4994082558396
 21
1360.278214722927
 31
0.0
 11
3973.1714432262579
 21
1360.446587205123
 31
0.0
  0
SPLINE
  5
37F
100
AcDbEntity
  8
0
  6
CONTINUOUS
 62
           3
100
AcDbSpline
210
0.0
220
0.0
230
1.0
 70
           0
 71
           3
 72
           8
 73
           5
 74
           7
 42
0.00000000001
 43
0.00000000001
 44
0.00000000001
 40
0.0
 40
0.0
 40
0.0
 40
0.7097126556361723
 40
1.6878594213853007
 40
2.9354211178788794
 40
2.9354211178788794
 40
2.9354211178788794
 10
3967.3979403587391
 20
1360.446587205025
 30
0.0
 10
3967.6112967746571
 20
1360.3869403699291
 30
0.0
 10
3968.5515939834781
 20
1360.124066847621
 30
0.0
 10
3969.5290351351482
 20
1360.054094671618
 30
0.0
 10
3970.2846917925699
 20
1359.999999404049
 30
0.0
 11
3967.3979403587391
 21
1360.446587205025
 31
0.0
 11
3967.6568019258184
 21
1360.3742187546168
 31
0.0
 11
3968.006673795222
 21
1360.2764070735834
 31
0.0
 11
3968.5227545625271
 21
1360.1544641207822
 31
0.0
 11
3968.9811564879278
 21
1360.0933157143029
 31
0.0
 11
3969.5809796376989
 21
1360.0503761153971
 31
0.0
 11
3970.2846917925699
 21
1359.999999404049
 31
0.0
  0
SPLINE
  5
37E
100
AcDbEntity
  8
0
  6
CONTINUOUS
 62
           3
100
AcDbSpline
210
0.0
220
0.0
230
1.0
 70
           0
 71
           3
 72
           8
 73
           5
 74
           7
 42
0.00000000001
 43
0.00000000001
 44
0.00000000001
 40
0.0
 40
0.0
 40
0.0
 40
0.277945269552984
 40
0.7862805426556947
 40
1.5429573555003924
 40
1.5429573555003924
 40
1.5429573555003924
 10
3974.614818826899
 20
1364.9999946356729
 30
0.0
 10
3974.580602283369
 20
1364.999548930904
 30
0.0
 10
3974.0931919861669
 20
1364.9931999233529
 30
0.0
 10
3973.615552285878
 20
1364.7653118796341
 30
0.0
 10
3973.1714432263971
 20
1364.553421735859
 30
0.0
 11
3974.614818826899
 21
1364.9999946356729
 31
0.0
 11
3974.5460822939585
 21
1364.9990992734502
 31
0.0
 11
3974.4083057821977
 21
1364.9973045963193
 31
0.0
 11
3974.1239864850236
 21
1364.9713323318772
 31
0.0
 11
3973.9012561855625
 21
1364.9016248844837
 31
0.0
 11
3973.5759509959289
 21
1364.7464175949026
 31
0.0
 11
3973.1714432263971
 21
1364.553421735859
 31
0.0
  0
SPLINE
  5
37D
100
AcDbEntity
  8
0
  6
CONTINUOUS
 62
           3
100
AcDbSpline
210
0.0
220
0.0
230
1.0
 70
           0
 71
           3
 72
           8
 73
           5
 74
           7
 42
0.00000000001
 43
0.00000000001
 44
0.00000000001
 40
0.0
 40
0.0
 40
0.0
 40
0.2779464854691698
 40
0.7862840844054899
 40
1.5429642659462166
 40
1.5429642659462166
 40
1.5429642659462166
 10
3974.6148188268589
 20
1359.9999994039219
 30
0.0
 10
3974.6490353762579
 20
1360.000445099425
 30
0.0
 10
3975.136448095348
 20
1360.006794003654
 30
0.0
 10
3975.6140865748948
 20
1360.2346897876159
 30
0.0
 10
3976.0581946602601
 20
1360.446587205123
 30
0.0
 11
3974.6148188268589
 21
1359.9999994039219
 31
0.0
 11
3974.683555572642
 21
1360.0008947499916
 31
0.0
 11
3974.8213327111916
 21
1360.0026893971949
 31
0.0
 11
3975.1056530803662
 21
1360.0286623910361
 31
0.0
 11
3975.3283834195777
 21
1360.098372159641
 31
0.0
 11
3975.6536878074066
 21
1360.2535847349991
 31
0.0
 11
3976.0581946602601
 21
1360.446587205123
 31
0.0
  0
SPLINE
  5
37C
100
AcDbEntity
  8
0
  6
CONTINUOUS
 62
           3
100
AcDbSpline
210
0.0
220
0.0
230
1.0
 70
           0
 71
           3
 72
           8
 73
           5
 74
           7
 42
0.00000000001
 43
0.00000000001
 44
0.00000000001
 40
0.0
 40
0.0
 40
0.0
 40
0.2779462752376962
 40
0.7862820883289581
 40
1.5429577306147548
 40
1.5429577306147548
 40
1.5429577306147548
 10
3965.9545647582408
 20
1364.9999946356729
 30
0.0
 10
3965.9203482099269
 20
1364.9995489277901
 30
0.0
 10
3965.4329359117401
 20
1364.9931998506629
 30
0.0
 10
3964.955297199077
 20
1364.765311877484
 30
0.0
 10
3964.5111889248669
 20
1364.553421735917
 30
0.0
 11
3965.9545647582408
 21
1364.9999946356729
 31
0.0
 11
3965.8858279736996
 21
1364.9990992640387
 31
0.0
 11
3965.7480507167029
 21
1364.9973045649017
 31
0.0
 11
3965.4637306871568
 21
1364.9713322408606
 31
0.0
 11
3965.2410002084434
 21
1364.9016246972149
 31
0.0
 11
3964.9156958828667
 21
1364.746417547025
 31
0.0
 11
3964.5111889248669
 21
1364.553421735917
 31
0.0
  0
SPLINE
  5
37B
100
AcDbEntity
  8
0
  6
CONTINUOUS
 62
           3
100
AcDbSpline
210
0.0
220
0.0
230
1.0
 70
           0
 71
           3
 72
           8
 73
           5
 74
           7
 42
0.00000000001
 43
0.00000000001
 44
0.00000000001
 40
0.0
 40
0.0
 40
0.0
 40
0.277945479746402
 40
0.7862825386907093
 40
1.5429638907226813
 40
1.5429638907226813
 40
1.5429638907226813
 10
3965.9545647582408
 20
1359.999999404049
 30
0.0
 10
3965.9887813028181
 20
1360.000445096307
 30
0.0
 10
3966.4761920209262
 20
1360.0067939309631
 30
0.0
 10
3966.9538314880911
 20
1360.23468978547
 30
0.0
 10
3967.3979403587391
 20
1360.446587205025
 30
0.0
 11
3965.9545647582408
 21
1359.999999404049
 31
0.0
 11
3966.0233012523913
 21
1360.0008947406093
 31
0.0
 11
3966.1610776456869
 21
1360.0026893657744
 31
0.0
 11
3966.4453972825022
 21
1360.0286623000184
 31
0.0
 11
3966.6681274424723
 21
1360.0983719723736
 31
0.0
 11
3966.9934326943476
 21
1360.2535846870846
 31
0.0
 11
3967.3979403587391
 21
1360.446587205025
 31
0.0
  0
SPLINE
  5
37A
100
AcDbEntity
  8
0
  6
CONTINUOUS
 62
           3
100
AcDbSpline
210
0.0
220
0.0
230
1.0
 70
           0
 71
           3
 72
           8
 73
           5
 74
           7
 42
0.00000000001
 43
0.00000000001
 44
0.00000000001
 40
0.0
 40
0.0
 40
0.0
 40
1.2475604207866318
 40
2.2257060852956401
 40
2.9354176594307044
 40
2.9354176594307044
 40
2.9354176594307044
 10
3970.2846917925699
 20
1377.5999993086671
 30
0.0
 10
3969.5290359356168
 20
1377.545901007107
 30
0.0
 10
3968.5515964530559
 20
1377.475924952008
 30
0.0
 10
3967.611296847258
 20
1377.213063029573
 30
0.0
 10
3967.3979403587391
 20
1377.153418958268
 30
0.0
 11
3970.2846917925699
 21
1377.5999993086671
 31
0.0
 11
3969.5809804657265
 21
1377.5496197777998
 31
0.0
 11
3968.981158199103
 21
1377.5066777883176
 31
0.0
 11
3968.522756472431
 21
1377.4455297788083
 31
0.0
 11
3968.0066747845094
 21
1377.3235914228994
 31
0.0
 11
3967.6568022094407
 21
1377.2257841100784
 31
0.0
 11
3967.3979403587391
 21
1377.153418958268
 31
0.0
  0
SPLINE
  5
379
100
AcDbEntity
  8
0
  6
CONTINUOUS
 62
           3
100
AcDbSpline
210
0.0
220
0.0
230
1.0
 70
           0
 71
           3
 72
           8
 73
           5
 74
           7
 42
0.00000000001
 43
0.00000000001
 44
0.00000000001
 40
0.0
 40
0.0
 40
0.0
 40
1.2321298483016669
 40
2.2113525386980539
 40
2.9387203954175867
 40
2.9387203954175867
 40
2.9387203954175867
 10
3973.1714432263971
 20
1377.153418958268
 30
0.0
 10
3972.452183749539
 20
1377.3336196618161
 30
0.0
 10
3971.5003216574278
 20
1377.572095794834
 30
0.0
 10
3970.5234145539871
 20
1377.594519677024
 30
0.0
 10
3970.2846917925699
 20
1377.5999993086671
 30
0.0
 11
3973.1714432263971
 21
1377.153418958268
 31
0.0
 11
3972.4994080803122
 21
1377.3217882464453
 31
0.0
 11
3971.9218215957744
 21
1377.4664947038805
 31
0.0
 11
3971.4655620321464
 21
1377.548912165696
 31
0.0
 11
3970.9397832179552
 21
1377.5849623692352
 31
0.0
 11
3970.5678260296254
 21
1377.5935002579877
 31
0.0
 11
3970.2846917925699
 21
1377.5999993086671
 31
0.0
  0
SPLINE
  5
378
100
AcDbEntity
  8
0
  6
CONTINUOUS
 62
           3
100
AcDbSpline
210
0.0
220
0.0
230
1.0
 70
           0
 71
           3
 72
           8
 73
           5
 74
           7
 42
0.00000000001
 43
0.00000000001
 44
0.00000000001
 40
0.0
 40
0.0
 40
0.0
 40
0.7273675739554931
 40
1.7065896374626672
 40
2.9387184666009043
 40
2.9387184666009043
 40
2.9387184666009043
 10
3970.2846917925699
 20
1372.6000040770421
 30
0.0
 10
3970.523414536051
 20
1372.6054838012651
 30
0.0
 10
3971.500321096988
 20
1372.627908051521
 30
0.0
 10
3972.4521835719479
 20
1372.8663796942869
 30
0.0
 10
3973.1714432262579
 20
1373.0465769769121
 30
0.0
 11
3970.2846917925699
 21
1372.6000040770421
 31
0.0
 11
3970.5678259733859
 21
1372.6065032367196
 31
0.0
 11
3970.9397830288699
 21
1372.6150412673064
 31
0.0
 11
3971.4655616179052
 21
1372.6510911338669
 31
0.0
 11
3971.9218212487754
 21
1372.7335071651187
 31
0.0
 11
3972.4994079047324
 21
1372.8782108826513
 31
0.0
 11
3973.1714432262579
 21
1373.0465769769121
 31
0.0
  0
SPLINE
  5
377
100
AcDbEntity
  8
0
  6
CONTINUOUS
 62
           3
100
AcDbSpline
210
0.0
220
0.0
230
1.0
 70
           0
 71
           3
 72
           8
 73
           5
 74
           7
 42
0.00000000001
 43
0.00000000001
 44
0.00000000001
 40
0.0
 40
0.0
 40
0.0
 40
0.7097104926816455
 40
1.6878550560193584
 40
2.9354142011751199
 40
2.9354142011751199
 40
2.9354142011751199
 10
3967.3979403587391
 20
1373.0465769768609
 30
0.0
 10
3967.6112969198489
 20
1372.9869356693489
 30
0.0
 10
3968.5515989225478
 20
1372.7240853468579
 30
0.0
 10
3969.5290367360672
 20
1372.654105412621
 30
0.0
 10
3970.2846917925699
 20
1372.6000040770421
 30
0.0
 11
3967.3979403587391
 21
1373.0465769768609
 31
0.0
 11
3967.6568024930475
 21
1372.9742151236571
 31
0.0
 11
3968.0066757737527
 21
1372.8764121790698
 31
0.0
 11
3968.5227583822684
 21
1372.7544784200809
 31
0.0
 11
3968.9811599102241
 21
1372.6933308075384
 31
0.0
 11
3969.5809812937323
 21
1372.6503864274559
 31
0.0
 11
3970.2846917925699
 21
1372.6000040770421
 31
0.0
  0
SPLINE
  5
376
100
AcDbEntity
  8
0
  6
CONTINUOUS
 62
           3
100
AcDbSpline
210
0.0
220
0.0
230
1.0
 70
           0
 71
           3
 72
           8
 73
           5
 74
           7
 42
0.00000000001
 43
0.00000000001
 44
0.00000000001
 40
0.0
 40
0.0
 40
0.0
 40
0.2779453746520064
 40
0.7862815406660644
 40
1.5429606230903423
 40
1.5429606230903423
 40
1.5429606230903423
 10
3974.614818826899
 20
1377.5999993086671
 30
0.0
 10
3974.5806022828451
 20
1377.5995536101509
 30
0.0
 10
3974.0931917751859
 20
1377.5932046890459
 30
0.0
 10
3973.6155521914689
 20
1377.365312739938
 30
0.0
 10
3973.1714432263971
 20
1377.153418958268
 30
0.0
 11
3974.614818826899
 21
1377.5999993086671
 31
0.0
 11
3974.5460823133526
 21
1377.5991039592734
 31
0.0
 11
3974.4083058608203
 21
1377.5973093081243
 31
0.0
 11
3974.1239863938272
 21
1377.5713367087808
 31
0.0
 11
3973.9012561641148
 21
1377.501628148907
 31
0.0
 11
3973.5759509433619
 21
1377.3464181467625
 31
0.0
 11
3973.1714432263971
 21
1377.153418958268
 31
0.0
  0
SPLINE
  5
375
100
AcDbEntity
  8
0
  6
CONTINUOUS
 62
           3
100
AcDbSpline
210
0.0
220
0.0
230
1.0
 70
           0
 71
           3
 72
           8
 73
           5
 74
           7
 42
0.00000000001
 43
0.00000000001
 44
0.00000000001
 40
0.0
 40
0.0
 40
0.0
 40
0.277946275240457
 40
0.7862820883288695
 40
1.5429577306520783
 40
1.5429577306520783
 40
1.5429577306520783
 10
3974.614818826899
 20
1372.6000040770421
 30
0.0
 10
3974.6490353752179
 20
1372.600449784929
 30
0.0
 10
3975.1364476734002
 20
1372.606798862053
 30
0.0
 10
3975.6140863860601
 20
1372.834686835236
 30
0.0
 10
3976.0581946602601
 20
1373.0465769769121
 30
0.0
 11
3974.614818826899
 21
1372.6000040770421
 31
0.0
 11
3974.6835556114438
 21
1372.6008994486788
 31
0.0
 11
3974.8213328684424
 21
1372.602694147816
 31
0.0
 11
3975.105652897983
 21
1372.6286664718555
 31
0.0
 11
3975.3283833766886
 21
1372.6983740154997
 31
0.0
 11
3975.6536877022672
 21
1372.8535811657212
 31
0.0
 11
3976.0581946602601
 21
1373.0465769769121
 31
0.0
  0
SPLINE
  5
374
100
AcDbEntity
  8
0
  6
CONTINUOUS
 62
           3
100
AcDbSpline
210
0.0
220
0.0
230
1.0
 70
           0
 71
           3
 72
           8
 73
           5
 74
           7
 42
0.00000000001
 43
0.00000000001
 44
0.00000000001
 40
0.0
 40
0.0
 40
0.0
 40
0.2779463803328297
 40
0.7862830863398919
 40
1.5429609982608989
 40
1.5429609982608989
 40
1.5429609982608989
 10
3965.9545647582408
 20
1377.5999993086671
 30
0.0
 10
3965.9203482093999
 20
1377.5995536070379
 30
0.0
 10
3965.43293570077
 20
1377.593204616358
 30
0.0
 10
3964.9552971046569
 20
1377.3653127377879
 30
0.0
 10
3964.5111889248669
 20
1377.153418958206
 30
0.0
 11
3965.9545647582408
 21
1377.5999993086671
 31
0.0
 11
3965.8858279930928
 21
1377.5991039498629
 31
0.0
 11
3965.7480507953305
 21
1377.5973092767083
 31
0.0
 11
3965.4637305959691
 21
1377.5713366177663
 31
0.0
 11
3965.2410001870066
 21
1377.5016279616409
 31
0.0
 11
3964.915695830297
 21
1377.3464180988556
 31
0.0
 11
3964.5111889248669
 21
1377.153418958206
 31
0.0
  0
SPLINE
  5
373
100
AcDbEntity
  8
0
  6
CONTINUOUS
 62
           3
100
AcDbSpline
210
0.0
220
0.0
230
1.0
 70
           0
 71
           3
 72
           8
 73
           5
 74
           7
 42
0.00000000001
 43
0.00000000001
 44
0.00000000001
 40
0.0
 40
0.0
 40
0.0
 40
0.2779452695541534
 40
0.7862805426572731
 40
1.5429573554976612
 40
1.5429573554976612
 40
1.5429573554976612
 10
3965.9545647582408
 20
1372.6000040770421
 30
0.0
 10
3965.9887813017681
 20
1372.600449781811
 30
0.0
 10
3966.4761915989779
 20
1372.6067987893671
 30
0.0
 10
3966.953831299259
 20
1372.8346868330859
 30
0.0
 10
3967.3979403587391
 20
1373.0465769768609
 30
0.0
 11
3965.9545647582408
 21
1372.6000040770421
 31
0.0
 11
3966.0233012911804
 21
1372.6008994392655
 31
0.0
 11
3966.1610778029426
 21
1372.6026941163975
 31
0.0
 11
3966.4453971001199
 21
1372.6286663808421
 31
0.0
 11
3966.6681273995805
 21
1372.6983738282365
 31
0.0
 11
3966.9934325892091
 21
1372.8535811178169
 31
0.0
 11
3967.3979403587391
 21
1373.0465769768609
 31
0.0
  0
SPLINE
  5
372
100
AcDbEntity
  8
0
  6
CONTINUOUS
 62
           3
100
AcDbSpline
210
0.0
220
0.0
230
1.0
 70
           0
 71
           3
 72
           8
 73
           5
 74
           7
 42
0.00000000001
 43
0.00000000001
 44
0.00000000001
 40
0.0
 40
0.0
 40
0.0
 40
1.2475616964935867
 40
2.2257084622426926
 40
2.9354211178796912
 40
2.9354211178796912
 40
2.9354211178796912
 10
3970.2846917925699
 20
1372.6000040770421
 30
0.0
 10
3969.5290351351482
 20
1372.5459088094731
 30
0.0
 10
3968.5515939834781
 20
1372.4759366334699
 30
0.0
 10
3967.6112967746571
 20
1372.213063111162
 30
0.0
 10
3967.3979403587391
 20
1372.1534162760629
 30
0.0
 11
3970.2846917925699
 21
1372.6000040770421
 31
0.0
 11
3969.5809796376984
 21
1372.5496273656941
 31
0.0
 11
3968.9811564879274
 21
1372.506687766788
 31
0.0
 11
3968.5227545625271
 21
1372.4455393603091
 31
0.0
 11
3968.0066737952229
 21
1372.3235964075077
 31
0.0
 11
3967.6568019258193
 21
1372.2257847264736
 31
0.0
 11
3967.3979403587391
 21
1372.1534162760629
 31
0.0
  0
SPLINE
  5
371
100
AcDbEntity
  8
0
  6
CONTINUOUS
 62
           3
100
AcDbSpline
210
0.0
220
0.0
230
1.0
 70
           0
 71
           3
 72
           8
 73
           5
 74
           7
 42
0.00000000001
 43
0.00000000001
 44
0.00000000001
 40
0.0
 40
0.0
 40
0.0
 40
1.2321308673586064
 40
2.2113541846558249
 40
2.9387223241462688
 40
2.9387223241462688
 40
2.9387223241462688
 10
3973.1714432263971
 20
1372.1534162760629
 30
0.0
 10
3972.4521839271379
 20
1372.33362040058
 30
0.0
 10
3971.5003222178761
 20
1372.572101023849
 30
0.0
 10
3970.5234145719278
 20
1372.5945245379701
 30
0.0
 10
3970.2846917925699
 20
1372.6000040770421
 30
0.0
 11
3973.1714432263971
 21
1372.1534162760629
 31
0.0
 11
3972.4994082558687
 21
1372.3217887581893
 31
0.0
 11
3971.9218219428044
 21
1372.466497955535
 31
0.0
 11
3971.4655624464003
 21
1372.5489168479171
 31
0.0
 11
3970.9397834070473
 21
1372.5849673884354
 31
0.0
 11
3970.5678260858676
 21
1372.5935051353542
 31
0.0
 11
3970.2846917925699
 21
1372.6000040770421
 31
0.0
  0
SPLINE
  5
370
100
AcDbEntity
  8
0
  6
CONTINUOUS
 62
           3
100
AcDbSpline
210
0.0
220
0.0
230
1.0
 70
           0
 71
           3
 72
           8
 73
           5
 74
           7
 42
0.00000000001
 43
0.00000000001
 44
0.00000000001
 40
0.0
 40
0.0
 40
0.0
 40
0.7273681394904417
 40
1.7065914567878426
 40
2.9387223240295652
 40
2.9387223240295652
 40
2.9387223240295652
 10
3970.2846917925699
 20
1367.599993944257
 30
0.0
 10
3970.5234145719278
 20
1367.6054734833269
 30
0.0
 10
3971.5003222178761
 20
1367.6278969974519
 30
0.0
 10
3972.4521839271379
 20
1367.866377620722
 30
0.0
 10
3973.1714432262579
 20
1368.046581745313
 30
0.0
 11
3970.2846917925699
 21
1367.599993944257
 31
0.0
 11
3970.5678260858685
 21
1367.6064928859435
 31
0.0
 11
3970.9397834070469
 21
1367.6150306328632
 31
0.0
 11
3971.4655624464062
 21
1367.6510811733847
 31
0.0
 11
3971.9218219428267
 21
1367.733500065772
 31
0.0
 11
3972.4994082558401
 21
1367.8782092631322
 31
0.0
 11
3973.1714432262579
 21
1368.046581745313
 31
0.0
  0
SPLINE
  5
36F
100
AcDbEntity
  8
0
  6
CONTINUOUS
 62
           3
100
AcDbSpline
210
0.0
220
0.0
230
1.0
 70
           0
 71
           3
 72
           8
 73
           5
 74
           7
 42
0.00000000001
 43
0.00000000001
 44
0.00000000001
 40
0.0
 40
0.0
 40
0.0
 40
0.7097107189133869
 40
1.6878556121189634
 40
2.9354150974117394
 40
2.9354150974117394
 40
2.9354150974117394
 10
3967.3979403587391
 20
1368.0465817452359
 30
0.0
 10
3967.6112969403889
 20
1367.986940602696
 30
0.0
 10
3968.551599621358
 20
1367.724090842953
 30
0.0
 10
3969.5290369625791
 20
1367.6541020998679
 30
0.0
 10
3970.2846917925699
 20
1367.599993944257
 30
0.0
 11
3967.3979403587391
 21
1368.0465817452359
 31
0.0
 11
3967.6568025786937
 21
1367.974220075213
 31
0.0
 11
3968.0066760752602
 21
1367.8764173502248
 31
0.0
 11
3968.5227589337501
 21
1367.7544828668422
 31
0.0
 11
3968.9811604170236
 21
1367.6933324312376
 31
0.0
 11
3969.5809815336879
 21
1367.6503826438077
 31
0.0
 11
3970.2846917925699
 21
1367.599993944257
 31
0.0
  0
SPLINE
  5
36E
100
AcDbEntity
  8
0
  6
CONTINUOUS
 62
           3
100
AcDbSpline
210
0.0
220
0.0
230
1.0
 70
           0
 71
           3
 72
           8
 73
           5
 74
           7
 42
0.00000000001
 43
0.00000000001
 44
0.00000000001
 40
0.0
 40
0.0
 40
0.0
 40
0.2779454797516326
 40
0.7862825386956059
 40
1.5429638907280883
 40
1.5429638907280883
 40
1.5429638907280883
 10
3974.614818826899
 20
1372.6000040770421
 30
0.0
 10
3974.580602282319
 20
1372.5995583847839
 30
0.0
 10
3974.0931915642059
 20
1372.593209550128
 30
0.0
 10
3973.6155520970478
 20
1372.36531369562
 30
0.0
 10
3973.1714432263971
 20
1372.1534162760629
 30
0.0
 11
3974.614818826899
 21
1372.6000040770421
 31
0.0
 11
3974.5460823327453
 21
1372.5991087404816
 31
0.0
 11
3974.4083059394461
 21
1372.5973141153167
 31
0.0
 11
3974.1239863026299
 21
1372.5713411810723
 31
0.0
 11
3973.9012561426625
 21
1372.5016315087169
 31
0.0
 11
3973.5759508907886
 21
1372.3464187940046
 31
0.0
 11
3973.1714432263971
 21
1372.1534162760629
 31
0.0
  0
SPLINE
  5
36D
100
AcDbEntity
  8
0
  6
CONTINUOUS
 62
           3
100
AcDbSpline
210
0.0
220
0.0
230
1.0
 70
           0
 71
           3
 72
           8
 73
           5
 74
           7
 42
0.00000000001
 43
0.00000000001
 44
0.00000000001
 40
0.0
 40
0.0
 40
0.0
 40
0.27794648542754
 40
0.7862840843632711
 40
1.5429642658955773
 40
1.5429642658955773
 40
1.5429642658955773
 10
3974.614818826899
 20
1367.599993944257
 30
0.0
 10
3974.6490353762579
 20
1367.6004396396361
 30
0.0
 10
3975.136448095348
 20
1367.6067885438649
 30
0.0
 10
3975.6140865748948
 20
1367.8346843278241
 30
0.0
 10
3976.0581946602601
 20
1368.046581745313
 30
0.0
 11
3974.614818826899
 21
1367.599993944257
 31
0.0
 11
3974.683555572647
 21
1367.6008892902337
 31
0.0
 11
3974.8213327111753
 21
1367.6026839374056
 31
0.0
 11
3975.1056530803626
 21
1367.6286569312467
 31
0.0
 11
3975.328383419579
 21
1367.6983666998512
 31
0.0
 11
3975.6536878074076
 21
1367.8535792752032
 31
0.0
 11
3976.0581946602601
 21
1368.046581745313
 31
0.0
  0
SPLINE
  5
36C
100
AcDbEntity
  8
0
  6
CONTINUOUS
 62
           3
100
AcDbSpline
210
0.0
220
0.0
230
1.0
 70
           0
 71
           3
 72
           8
 73
           5
 74
           7
 42
0.00000000001
 43
0.00000000001
 44
0.00000000001
 40
0.0
 40
0.0
 40
0.0
 40
0.2779464854379079
 40
0.7862840843774877
 40
1.5429642658581053
 40
1.5429642658581053
 40
1.5429642658581053
 10
3965.9545647582408
 20
1372.6000040770421
 30
0.0
 10
3965.9203482088769
 20
1372.59955838167
 30
0.0
 10
3965.4329354897759
 20
1372.593209477441
 30
0.0
 10
3964.9552970102359
 20
1372.3653136934749
 30
0.0
 10
3964.5111889248669
 20
1372.15341627611
 30
0.0
 11
3965.9545647582408
 21
1372.6000040770421
 31
0.0
 11
3965.8858280124864
 21
1372.5991087310706
 31
0.0
 11
3965.7480508739527
 21
1372.5973140839005
 31
0.0
 11
3965.4637305047609
 21
1372.5713410900576
 31
0.0
 11
3965.2410001655389
 21
1372.5016313214476
 31
0.0
 11
3964.9156957777195
 21
1372.3464187461268
 31
0.0
 11
3964.5111889248669
 21
1372.15341627611
 31
0.0
  0
SPLINE
  5
36B
100
AcDbEntity
  8
0
  6
CONTINUOUS
 62
           3
100
AcDbSpline
210
0.0
220
0.0
230
1.0
 70
           0
 71
           3
 72
           8
 73
           5
 74
           7
 42
0.00000000001
 43
0.00000000001
 44
0.00000000001
 40
0.0
 40
0.0
 40
0.0
 40
0.2779454797464213
 40
0.7862825386899275
 40
1.54296389072234
 40
1.54296389072234
 40
1.54296389072234
 10
3965.9545647582408
 20
1367.599993944257
 30
0.0
 10
3965.9887813028181
 20
1367.600439636514
 30
0.0
 10
3966.4761920209262
 20
1367.6067884711749
 30
0.0
 10
3966.9538314880911
 20
1367.8346843256779
 30
0.0
 10
3967.3979403587391
 20
1368.0465817452359
 30
0.0
 11
3965.9545647582408
 21
1367.599993944257
 31
0.0
 11
3966.0233012523918
 21
1367.600889280817
 31
0.0
 11
3966.1610776456873
 21
1367.602683905983
 31
0.0
 11
3966.4453972825031
 21
1367.6286568402293
 31
0.0
 11
3966.6681274424718
 21
1367.6983665125838
 31
0.0
 11
3966.9934326943476
 21
1367.8535792272937
 31
0.0
 11
3967.3979403587391
 21
1368.0465817452359
 31
0.0
  0
SPLINE
  5
36A
100
AcDbEntity
  8
0
  6
CONTINUOUS
 62
           3
100
AcDbSpline
210
0.0
220
0.0
230
1.0
 70
           0
 71
           3
 72
           8
 73
           5
 74
           7
 42
0.00000000001
 43
0.00000000001
 44
0.00000000001
 40
0.0
 40
0.0
 40
0.0
 40
0.4813884775063027
 40
1.332565594240172
 40
2.5594910572545189
 40
2.5594910572545189
 40
2.5594910572545189
 10
3967.7846918484479
 20
1384.1999992729011
 30
0.0
 10
3967.8439566552902
 20
1384.2004449715539
 30
0.0
 10
3968.6881767717259
 20
1384.2067938958289
 30
0.0
 10
3969.515472638855
 20
1384.434685841728
 30
0.0
 10
3970.2846917925699
 20
1384.646579623296
 30
0.0
 11
3967.7846918484479
 21
1384.1999992729011
 31
0.0
 11
3967.905383949264
 21
1384.20090693311
 31
0.0
 11
3968.1489306380254
 21
1384.2027385164299
 31
0.0
 11
3968.6380789716036
 21
1384.2291158106436
 31
0.0
 11
3969.0270317049381
 21
1384.300136934487
 31
0.0
 11
3969.5856671938045
 21
1384.4540220603099
 31
0.0
 11
3970.2846917925699
 21
1384.646579623296
 31
0.0
  0
SPLINE
  5
369
100
AcDbEntity
  8
0
  6
CONTINUOUS
 62
           3
100
AcDbSpline
210
0.0
220
0.0
230
1.0
 70
           0
 71
           3
 72
           8
 73
           5
 74
           7
 42
0.00000000001
 43
0.00000000001
 44
0.00000000001
 40
0.0
 40
0.0
 40
0.0
 40
0.4813883392835373
 40
1.3325653926427588
 40
2.5594910488300449
 40
2.5594910488300449
 40
2.5594910488300449
 10
3972.7846917366569
 20
1384.1999992729011
 30
0.0
 10
3972.8439565428398
 20
1384.2004449713099
 30
0.0
 10
3973.6881763841861
 20
1384.2067938900659
 30
0.0
 10
3974.5154724036752
 20
1384.434685841557
 30
0.0
 10
3975.2846916807589
 20
1384.6465796233031
 30
0.0
 11
3972.7846917366569
 21
1384.1999992729011
 31
0.0
 11
3972.9053838017762
 21
1384.2009069323506
 31
0.0
 11
3973.1489303847684
 21
1384.2027385138804
 31
0.0
 11
3973.6380786216378
 21
1384.2291158030616
 31
0.0
 11
3974.0270313334095
 21
1384.3001369182343
 31
0.0
 11
3974.5856669553796
 21
1384.4540220561628
 31
0.0
 11
3975.2846916807589
 21
1384.6465796233031
 31
0.0
  0
SPLINE
  5
368
100
AcDbEntity
  8
0
  6
CONTINUOUS
 62
           3
100
AcDbSpline
210
0.0
220
0.0
230
1.0
 70
           0
 71
           3
 72
           8
 73
           5
 74
           7
 42
0.00000000001
 43
0.00000000001
 44
0.00000000001
 40
0.0
 40
0.0
 40
0.0
 40
0.0169507227489021
 40
0.1476151553704312
 40
0.4465803504019732
 40
0.4465803504019732
 40
0.4465803504019732
 10
3965.2846919043282
 20
1384.1999992729011
 30
0.0
 10
3965.2846919043282
 20
1384.2056076981839
 30
0.0
 10
3965.2846919043282
 20
1384.2282922931161
 30
0.0
 10
3965.2846919043282
 20
1384.466936563427
 30
0.0
 10
3965.2846919043682
 20
1384.6465796233031
 30
0.0
 11
3965.2846919043282
 21
1384.1999992729011
 31
0.0
 11
3965.2846919043282
 21
1384.2048568127329
 31
0.0
 11
3965.2846919043286
 21
1384.2082125816623
 31
0.0
 11
3965.2846919043277
 21
1384.2414172487588
 31
0.0
 11
3965.2846919043282
 21
1384.3008718271415
 31
0.0
 11
3965.2846919043382
 21
1384.4703311443247
 31
0.0
 11
3965.2846919043682
 21
1384.6465796233031
 31
0.0
  0
SPLINE
  5
367
100
AcDbEntity
  8
0
  6
CONTINUOUS
 62
           3
100
AcDbSpline
210
0.0
220
0.0
230
1.0
 70
           0
 71
           3
 72
           8
 73
           5
 74
           7
 42
0.00000000001
 43
0.00000000001
 44
0.00000000001
 40
0.0
 40
0.0
 40
0.0
 40
0.298965195031542
 40
0.4296296276530711
 40
0.4465803504019732
 40
0.4465803504019732
 40
0.4465803504019732
 10
3975.2846916807589
 20
1384.6465796233031
 30
0.0
 10
3975.2846916808062
 20
1384.466936563427
 30
0.0
 10
3975.2846916808062
 20
1384.2282922931161
 30
0.0
 10
3975.2846916808062
 20
1384.2056076981839
 30
0.0
 10
3975.2846916808062
 20
1384.1999992729011
 30
0.0
 11
3975.2846916807589
 21
1384.6465796233031
 31
0.0
 11
3975.2846916807948
 21
1384.4703311443247
 31
0.0
 11
3975.2846916808066
 21
1384.3008718271415
 31
0.0
 11
3975.2846916808062
 21
1384.2414172487588
 31
0.0
 11
3975.2846916808066
 21
1384.2082125816623
 31
0.0
 11
3975.2846916808062
 21
1384.2048568127329
 31
0.0
 11
3975.2846916808062
 21
1384.1999992729011
 31
0.0
  0
CIRCLE
  5
366
100
AcDbEntity
  8
1
  6
CONTINUOUS
 62
           7
100
AcDbCircle
 10
0.0
 20
5610.000000000001
 40
317.5
  0
CIRCLE
  5
365
100
AcDbEntity
  8
1
  6
CONTINUOUS
 62
           4
100
AcDbCircle
 10
-0.000000000002
 20
5610.000000000001
 40
84.123
  0
CIRCLE
  5
364
100
AcDbEntity
  8
1
  6
CONTINUOUS
 62
           4
100
AcDbCircle
 10
-0.000000000002
 20
5610.000000000001
 40
110.700000000001
  0
CIRCLE
  5
363
100
AcDbEntity
  8
1
  6
CONTINUOUS
 62
           7
100
AcDbCircle
 10
4354.384695070894
 20
600.000000000001
 40
15.0
  0
CIRCLE
  5
362
100
AcDbEntity
  8
1
  6
CONTINUOUS
 62
           2
100
AcDbCircle
 10
4354.384695070894
 20
600.000000000001
 40
8.35
  0
CIRCLE
  5
361
100
AcDbEntity
  8
1
  6
CONTINUOUS
 62
           7
100
AcDbCircle
 10
4354.384695070894
 20
600.000000000001
 40
7.5
  0
CIRCLE
  5
360
100
AcDbEntity
  8
1
  6
CONTINUOUS
 62
           3
100
AcDbCircle
 10
8.472255321879
 20
1295.200848327051
 40
40.0
  0
ARC
  5
35F
100
AcDbEntity
  8
0
  6
CONTINUOUS
 62
           3
100
AcDbCircle
 10
3970.28469179257
 20
1355.000000000222
 40
4.0
100
AcDbArc
 50
180.0
 51
0.0
  0
ARC
  5
35E
100
AcDbEntity
  8
0
  6
CONTINUOUS
 62
           3
100
AcDbCircle
 10
3970.28469179257
 20
1315.000000000059
 40
45.999999999971
100
AcDbArc
 50
180.0
 51
0.0
  0
ARC
  5
35D
100
AcDbEntity
  8
0
  6
CONTINUOUS
 62
           3
100
AcDbCircle
 10
3970.28469179257
 20
1315.000000000059
 40
53.999999999965
100
AcDbArc
 50
180.0
 51
0.0
  0
ARC
  5
35C
100
AcDbEntity
  8
0
  6
CONTINUOUS
 62
           3
100
AcDbCircle
 10
3963.811189100766
 20
1389.999999999997
 40
0.900000000001
100
AcDbArc
 50
-117.266044450382
 51
-90.0
  0
ARC
  5
35B
100
AcDbEntity
  8
0
  6
CONTINUOUS
 62
           3
100
AcDbCircle
 10
3976.758194484357
 20
1389.999999999997
 40
0.900000000002
100
AcDbArc
 50
-90.0
 51
-62.733955549566
  0
ARC
  5
35A
100
AcDbEntity
  8
0
  6
CONTINUOUS
 62
           3
100
AcDbCircle
 10
3912.284691792709
 20
1530.99999999988
 40
0.999999999995
100
AcDbArc
 50
-90.0
 51
90.0
  0
ARC
  5
359
100
AcDbEntity
  8
0
  6
CONTINUOUS
 62
           3
100
AcDbCircle
 10
4028.284691792417
 20
1530.99999999988
 40
1.0
100
AcDbArc
 50
90.0
 51
-90.0
  0
ARC
  5
358
100
AcDbEntity
  8
0
  6
CONTINUOUS
 62
           3
100
AcDbCircle
 10
4028.284691792417
 20
1508.999999999997
 40
1.0
100
AcDbArc
 50
90.0
 51
-90.0
  0
ARC
  5
357
100
AcDbEntity
  8
0
  6
CONTINUOUS
 62
           3
100
AcDbCircle
 10
4028.284691792417
 20
1431.000000000062
 40
0.999999999997
100
AcDbArc
 50
90.0
 51
-90.0
  0
ARC
  5
356
100
AcDbEntity
  8
0
  6
CONTINUOUS
 62
           3
100
AcDbCircle
 10
4028.284691792417
 20
1409.000000000179
 40
1.0
100
AcDbArc
 50
90.0
 51
-90.0
  0
ARC
  5
355
100
AcDbEntity
  8
0
  6
CONTINUOUS
 62
           3
100
AcDbCircle
 10
3912.284691792709
 20
1409.000000000179
 40
0.999999999997
100
AcDbArc
 50
-90.0
 51
90.0
  0
ARC
  5
354
100
AcDbEntity
  8
0
  6
CONTINUOUS
 62
           3
100
AcDbCircle
 10
3912.284691792709
 20
1431.000000000062
 40
1.0
100
AcDbArc
 50
-90.0
 51
90.0
  0
ARC
  5
353
100
AcDbEntity
  8
0
  6
CONTINUOUS
 62
           3
100
AcDbCircle
 10
3912.284691792709
 20
1508.999999999997
 40
0.999999999996
100
AcDbArc
 50
-90.0
 51
90.0
  0
ARC
  5
352
100
AcDbEntity
  8
0
  6
CONTINUOUS
 62
           3
100
AcDbCircle
 10
3907.784691792719
 20
1368.000000000114
 40
2.49999999999
100
AcDbArc
 50
0.0
 51
180.0
  0
ARC
  5
351
100
AcDbEntity
  8
0
  6
CONTINUOUS
 62
           3
100
AcDbCircle
 10
3907.784691792719
 20
1631.999999999899
 40
2.5
100
AcDbArc
 50
180.0
 51
0.0
  0
ARC
  5
350
100
AcDbEntity
  8
0
  6
CONTINUOUS
 62
           3
100
AcDbCircle
 10
4032.784691792409
 20
1631.999999999899
 40
2.499999999992
100
AcDbArc
 50
180.0
 51
0.0
  0
ARC
  5
34F
100
AcDbEntity
  8
0
  6
CONTINUOUS
 62
           3
100
AcDbCircle
 10
4032.784691792409
 20
1368.000000000114
 40
2.5
100
AcDbArc
 50
0.0
 51
180.0
  0
ARC
  5
34E
100
AcDbEntity
  8
1
  6
CONTINUOUS
 62
           3
100
AcDbCircle
 10
4474.548262761937
 20
1925.000000000001
 40
5.871834995066
100
AcDbArc
 50
-90.0
 51
0.0
  0
ARC
  5
34D
100
AcDbEntity
  8
1
  6
CONTINUOUS
 62
           3
100
AcDbCircle
 10
4474.548262761937
 20
1925.000000000001
 40
5.871834995068
100
AcDbArc
 50
38.59971391793
 51
90.0
  0
ARC
  5
34C
100
AcDbEntity
  8
1
  6
CONTINUOUS
 62
           3
100
AcDbCircle
 10
4474.548262761937
 20
1925.000000000001
 40
5.87183499506
100
AcDbArc
 50
0.0
 51
38.59971391793
  0
ARC
  5
34B
100
AcDbEntity
  8
1
  6
CONTINUOUS
 62
           3
100
AcDbCircle
 10
4474.548262761937
 20
1925.000000000001
 40
9.5
100
AcDbArc
 50
0.0
 51
125.91695737144
  0
ARC
  5
34A
100
AcDbEntity
  8
1
  6
CONTINUOUS
 62
           3
100
AcDbCircle
 10
4474.548262761937
 20
1925.000000000001
 40
9.499999999998
100
AcDbArc
 50
-124.797812779173
 51
0.0
  0
ARC
  5
349
100
AcDbEntity
  8
7
  6
CONTINUOUS
 62
           7
100
AcDbCircle
 10
4770.184695070893
 20
2927.111356999999
 40
6.200000000001
100
AcDbArc
 50
0.0
 51
57.318084999995
  0
ARC
  5
348
100
AcDbEntity
  8
7
  6
CONTINUOUS
 62
           7
100
AcDbCircle
 10
4748.984695070895
 20
2948.799999999997
 40
3.199999999998
100
AcDbArc
 50
0.0
 51
90.0
  0
ARC
  5
347
100
AcDbEntity
  8
7
  6
CONTINUOUS
 62
           7
100
AcDbCircle
 10
4754.184695070893
 20
2949.041133999997
 40
2.0
100
AcDbArc
 50
180.0
 51
-125.000000000024
  0
ARC
  5
346
100
AcDbEntity
  8
7
  6
CONTINUOUS
 62
           7
100
AcDbCircle
 10
4582.284695070895
 20
2948.799999999997
 40
3.200000000002
100
AcDbArc
 50
90.0
 51
180.0
  0
ARC
  5
345
100
AcDbEntity
  8
7
  6
CONTINUOUS
 62
           7
100
AcDbCircle
 10
4577.084695070893
 20
2949.041133999997
 40
1.999999999999
100
AcDbArc
 50
-54.999999999933
 51
0.0
  0
ARC
  5
344
100
AcDbEntity
  8
7
  6
CONTINUOUS
 62
           7
100
AcDbCircle
 10
4556.461508070895
 20
2932.500000000001
 40
2.0
100
AcDbArc
 50
-90.0
 51
-55.000000000101
  0
ARC
  5
343
100
AcDbEntity
  8
7
  6
CONTINUOUS
 62
           7
100
AcDbCircle
 10
4555.584695070893
 20
2927.299999999997
 40
3.200000000004
100
AcDbArc
 50
90.0
 51
180.0
  0
ARC
  5
342
100
AcDbEntity
  8
1
  6
CONTINUOUS
 62
           7
100
AcDbCircle
 10
-0.000000000002
 20
5610.000000000001
 40
125.0
100
AcDbArc
 50
19.47546158221
 51
90.0
  0
ARC
  5
341
100
AcDbEntity
  8
1
  6
CONTINUOUS
 62
           7
100
AcDbCircle
 10
-0.000000000002
 20
5610.000000000001
 40
125.0
100
AcDbArc
 50
90.0
 51
-19.47546158221
  0
ARC
  5
340
100
AcDbEntity
  8
1
  6
CONTINUOUS
 62
           7
100
AcDbCircle
 10
54.999999999999
 20
5594.999999999999
 40
360.0
100
AcDbArc
 50
-1.498629881627
 51
0.0
  0
ARC
  5
33F
100
AcDbEntity
  8
1
  6
CONTINUOUS
 62
           7
100
AcDbCircle
 10
160.551161566787
 20
5939.178663330401
 40
5.000000000001
100
AcDbArc
 50
163.348397297217
 51
-17.447383814429
  0
ARC
  5
33E
100
AcDbEntity
  8
1
  6
CONTINUOUS
 62
           7
100
AcDbCircle
 10
54.999999999999
 20
5594.999999999999
 40
360.0
100
AcDbArc
 50
18.095065654746
 51
72.15472562971
  0
ARC
  5
33D
100
AcDbEntity
  8
1
  6
CONTINUOUS
 62
           7
100
AcDbCircle
 10
54.999999999999
 20
5594.999999999999
 40
360.000000000001
100
AcDbArc
 50
0.0
 51
16.503503431389
  0
ARC
  5
33C
100
AcDbEntity
  8
1
  6
CONTINUOUS
 62
           7
100
AcDbCircle
 10
398.7152245979
 20
5702.05066267714
 40
5.0
100
AcDbArc
 50
107.697175098909
 51
-73.098606012765
  0
ARC
  5
33B
100
AcDbEntity
  8
1
  6
CONTINUOUS
 62
           7
100
AcDbCircle
 10
413.419036500111
 20
5537.103069526534
 40
5.0
100
AcDbArc
 50
90.0
 51
-95.092511460495
  0
ARC
  5
33A
100
AcDbEntity
  8
1
  6
CONTINUOUS
 62
           7
100
AcDbCircle
 10
413.419036500111
 20
5537.103069526534
 40
5.000000000001
100
AcDbArc
 50
85.537115658269
 51
90.0
  0
ARC
  5
339
100
AcDbEntity
  8
1
  6
CONTINUOUS
 62
           7
100
AcDbCircle
 10
-42.747816968457
 20
5572.5
 40
457.508251836064
100
AcDbArc
 50
-89.655876673074
 51
-5.063201692938
  0
ARC
  5
338
100
AcDbEntity
  8
1
  6
CONTINUOUS
 62
           7
100
AcDbCircle
 10
-40.0
 20
5659.999999999999
 40
540.0
100
AcDbArc
 50
180.0
 51
-175.217743666854
  0
ARC
  5
337
100
AcDbEntity
  8
1
  6
CONTINUOUS
 62
           7
100
AcDbCircle
 10
-577.680202350803
 20
5610.000000000001
 40
5.000000000001
100
AcDbArc
 50
-84.421966108667
 51
90.0
  0
ARC
  5
336
100
AcDbEntity
  8
1
  6
CONTINUOUS
 62
           7
100
AcDbCircle
 10
-577.680202350803
 20
5610.000000000001
 40
5.0
100
AcDbArc
 50
90.0
 51
95.047515519199
  0
ARC
  5
335
100
AcDbEntity
  8
1
  6
CONTINUOUS
 62
           7
100
AcDbCircle
 10
-37.231092924514
 20
5657.499999999999
 40
542.507066171854
100
AcDbArc
 50
-174.449140676885
 51
-90.292433754283
  0
ARC
  5
334
100
AcDbEntity
  8
1
  6
CONTINUOUS
 62
           7
100
AcDbCircle
 10
54.999999999999
 20
5594.999999999999
 40
360.000000000001
100
AcDbArc
 50
73.746287853067
 51
93.901683355293
  0
ARC
  5
333
100
AcDbEntity
  8
1
  6
CONTINUOUS
 62
           7
100
AcDbCircle
 10
-40.0
 20
5574.999999999999
 40
454.999999999998
100
AcDbArc
 50
-4.148070782362
 51
1.333022116547
  0
ARC
  5
332
100
AcDbEntity
  8
7
  6
CONTINUOUS
 62
           7
100
AcDbCircle
 10
-105.799999999999
 20
2927.411356999999
 40
6.2
100
AcDbArc
 50
122.681915000002
 51
180.0
  0
ARC
  5
331
100
AcDbEntity
  8
7
  6
CONTINUOUS
 62
           7
100
AcDbCircle
 10
-84.75
 20
2948.949999999998
 40
3.053686296922
100
AcDbArc
 50
87.184443315762
 51
177.184443315751
  0
ARC
  5
330
100
AcDbEntity
  8
7
  6
CONTINUOUS
 62
           7
100
AcDbCircle
 10
-89.799999999999
 20
2949.341134000001
 40
2.000000000002
100
AcDbArc
 50
-55.00000000004
 51
0.0
  0
ARC
  5
32F
100
AcDbEntity
  8
7
  6
CONTINUOUS
 62
           7
100
AcDbCircle
 10
82.250000000003
 20
2948.949999999998
 40
3.053686296919
100
AcDbArc
 50
2.815556684249
 51
92.815556684237
  0
ARC
  5
32E
100
AcDbEntity
  8
7
  6
CONTINUOUS
 62
           7
100
AcDbCircle
 10
87.300000000001
 20
2949.341134000001
 40
2.0
100
AcDbArc
 50
180.0
 51
-124.99999999996
  0
ARC
  5
32D
100
AcDbEntity
  8
7
  6
CONTINUOUS
 62
           7
100
AcDbCircle
 10
107.923187000001
 20
2932.800000000001
 40
2.0
100
AcDbArc
 50
-124.999999999997
 51
-90.0
  0
ARC
  5
32C
100
AcDbEntity
  8
7
  6
CONTINUOUS
 62
           7
100
AcDbCircle
 10
108.800000000001
 20
2927.6
 40
3.2
100
AcDbArc
 50
0.0
 51
90.0
  0
ARC
  5
32B
100
AcDbEntity
  8
1
  6
CONTINUOUS
 62
           7
100
AcDbCircle
 10
3456.384695070896
 20
1256.750000000002
 40
17.0
100
AcDbArc
 50
180.0
 51
-90.0
  0
ARC
  5
32A
100
AcDbEntity
  8
1
  6
CONTINUOUS
 62
           7
100
AcDbCircle
 10
3456.384695070896
 20
1256.750000000002
 40
37.0
100
AcDbArc
 50
180.0
 51
-90.0
  0
ARC
  5
329
100
AcDbEntity
  8
1
  6
CONTINUOUS
 62
           3
100
AcDbCircle
 10
11.509758321878
 20
1267.114622327059
 40
0.500000000002
100
AcDbArc
 50
-83.827497998177
 51
-5.00679300009
  0
ARC
  5
328
100
AcDbEntity
  8
1
  6
CONTINUOUS
 62
           3
100
AcDbCircle
 10
5.434752321879
 20
1267.114622327059
 40
0.499999999996
100
AcDbArc
 50
-174.993206999831
 51
-96.172501999322
  0
ARC
  5
327
100
AcDbEntity
  8
1
  6
CONTINUOUS
 62
           3
100
AcDbCircle
 10
11.509758321878
 20
1323.287074327051
 40
0.500000000005
100
AcDbArc
 50
5.006793001362
 51
83.827497998177
  0
ARC
  5
326
100
AcDbEntity
  8
1
  6
CONTINUOUS
 62
           3
100
AcDbCircle
 10
5.434752321879
 20
1323.287074327051
 40
0.5
100
AcDbArc
 50
96.172501999322
 51
174.993206998559
  0
ARC
  5
325
100
AcDbEntity
  8
1
  6
CONTINUOUS
 62
           3
100
AcDbCircle
 10
4.433952321885
 20
1295.200848327051
 40
9.999999999999
100
AcDbArc
 50
-5.006792999978
 51
5.006793000023
  0
ARC
  5
324
100
AcDbEntity
  8
1
  6
CONTINUOUS
 62
           3
100
AcDbCircle
 10
12.510557321879
 20
1295.200848327051
 40
10.0
100
AcDbArc
 50
174.993206999977
 51
-174.993207000021
  0
ARC
  5
323
100
AcDbEntity
  8
1
  6
CONTINUOUS
 62
           3
100
AcDbCircle
 10
8.472255321879
 20
1295.200848327051
 40
10.749999999991
100
AcDbArc
 50
118.773506999969
 51
-118.773506999948
  0
ARC
  5
322
100
AcDbEntity
  8
1
  6
CONTINUOUS
 62
           3
100
AcDbCircle
 10
8.472255321879
 20
1295.200848327051
 40
10.750000000001
100
AcDbArc
 50
-61.226493000024
 51
0.0
  0
ARC
  5
321
100
AcDbEntity
  8
1
  6
CONTINUOUS
 62
           3
100
AcDbCircle
 10
8.472255321879
 20
1295.200848327051
 40
10.75
100
AcDbArc
 50
0.0
 51
61.226493000003
  0
ARC
  5
320
100
AcDbEntity
  8
1
  6
CONTINUOUS
 62
           3
100
AcDbCircle
 10
8.472255321879
 20
1295.200848327051
 40
28.749999999988
100
AcDbArc
 50
-96.172501999994
 51
-83.827497999994
  0
ARC
  5
31F
100
AcDbEntity
  8
1
  6
CONTINUOUS
 62
           3
100
AcDbCircle
 10
8.472255321879
 20
1295.200848327051
 40
28.750000000008
100
AcDbArc
 50
83.827497999998
 51
96.17250199999
  0
LINE
  5
31E
100
AcDbEntity
  8
1
  6
CONTINUOUS
 62
           7
100
AcDbLine
 10
-40.387316823278
 20
2165.5
 11
-40.387316823278
 21
2150.0
  0
LINE
  5
31D
100
AcDbEntity
  8
1
  6
CONTINUOUS
 62
           3
100
AcDbLine
 10
4451.884695070895
 20
1921.000000000002
 11
4304.28469319322
 21
1921.000000000002
  0
LINE
  5
31C
100
AcDbEntity
  8
1
  6
CONTINUOUS
 62
           3
100
AcDbLine
 10
4451.884695070895
 20
1929.000000000001
 11
4304.284691881827
 21
1929.000000000001
  0
LINE
  5
31B
100
AcDbEntity
  8
0
  6
CONTINUOUS
 62
           3
100
AcDbLine
 10
3924.284691703307
 20
1314.999997615957
 11
3924.284691703307
 21
1364.999994635816
  0
LINE
  5
31A
100
AcDbEntity
  8
0
  6
CONTINUOUS
 62
           3
100
AcDbLine
 10
3964.511188924867
 20
1355.446577072225
 11
3965.284691904368
 21
1355.000004172322
  0
LINE
  5
319
100
AcDbEntity
  8
0
  6
CONTINUOUS
 62
           3
100
AcDbLine
 10
3975.284691680759
 20
1355.000004172322
 11
3976.05819466026
 21
1355.446577072225
  0
LINE
  5
318
100
AcDbEntity
  8
0
  6
CONTINUOUS
 62
           3
100
AcDbLine
 10
3965.284691904368
 20
1359.999999403922
 11
3964.511188924867
 21
1359.553411603022
  0
LINE
  5
317
100
AcDbEntity
  8
0
  6
CONTINUOUS
 62
           3
100
AcDbLine
 10
3976.05819466026
 20
1359.553411603022
 11
3975.284691680759
 21
1359.999999403922
  0
LINE
  5
316
100
AcDbEntity
  8
0
  6
CONTINUOUS
 62
           3
100
AcDbLine
 10
3965.284691904368
 20
1364.999994635816
 11
3964.511188924867
 21
1364.553421735917
  0
LINE
  5
315
100
AcDbEntity
  8
0
  6
CONTINUOUS
 62
           3
100
AcDbLine
 10
3976.05819466026
 20
1364.553421735917
 11
3975.284691680759
 21
1364.999994635816
  0
LINE
  5
314
100
AcDbEntity
  8
0
  6
CONTINUOUS
 62
           3
100
AcDbLine
 10
3975.284691680759
 20
1359.999999403922
 11
3976.05819466026
 21
1360.446587205123
  0
LINE
  5
313
100
AcDbEntity
  8
0
  6
CONTINUOUS
 62
           3
100
AcDbLine
 10
3964.511188924867
 20
1360.446587205123
 11
3965.284691904368
 21
1359.999999403922
  0
LINE
  5
312
100
AcDbEntity
  8
0
  6
CONTINUOUS
 62
           3
100
AcDbLine
 10
3965.284691904368
 20
1377.599999308605
 11
3964.511188924867
 21
1377.153418958206
  0
LINE
  5
311
100
AcDbEntity
  8
0
  6
CONTINUOUS
 62
           3
100
AcDbLine
 10
3976.05819466026
 20
1377.153418958206
 11
3975.284691680759
 21
1377.599999308605
  0
LINE
  5
310
100
AcDbEntity
  8
0
  6
CONTINUOUS
 62
           3
100
AcDbLine
 10
3975.284691680759
 20
1372.60000407701
 11
3976.05819466026
 21
1373.046576976912
  0
LINE
  5
30F
100
AcDbEntity
  8
0
  6
CONTINUOUS
 62
           3
100
AcDbLine
 10
3964.511188924867
 20
1373.046576976912
 11
3965.284691904368
 21
1372.60000407701
  0
LINE
  5
30E
100
AcDbEntity
  8
0
  6
CONTINUOUS
 62
           3
100
AcDbLine
 10
3965.284691904368
 20
1372.60000407701
 11
3964.511188924867
 21
1372.15341627611
  0
LINE
  5
30D
100
AcDbEntity
  8
0
  6
CONTINUOUS
 62
           3
100
AcDbLine
 10
3976.05819466026
 20
1372.15341627611
 11
3975.284691680759
 21
1372.60000407701
  0
LINE
  5
30C
100
AcDbEntity
  8
0
  6
CONTINUOUS
 62
           3
100
AcDbLine
 10
3975.284691680759
 20
1367.599993944114
 11
3976.05819466026
 21
1368.046581745313
  0
LINE
  5
30B
100
AcDbEntity
  8
0
  6
CONTINUOUS
 62
           3
100
AcDbLine
 10
3964.511188924867
 20
1368.046581745313
 11
3965.284691904368
 21
1367.599993944114
  0
LINE
  5
30A
100
AcDbEntity
  8
0
  6
CONTINUOUS
 62
           3
100
AcDbLine
 10
4016.284691881827
 20
1641.000000000001
 11
4016.284691881827
 21
1635.000005364197
  0
LINE
  5
309
100
AcDbEntity
  8
0
  6
CONTINUOUS
 62
           3
100
AcDbLine
 10
4016.284691881827
 20
1633.399993180997
 11
4016.284691881827
 21
1550.000000744964
  0
LINE
  5
308
100
AcDbEntity
  8
0
  6
CONTINUOUS
 62
           3
100
AcDbLine
 10
4016.284691881827
 20
1548.799999058066
 11
4016.284691881827
 21
1391.199998557594
  0
LINE
  5
307
100
AcDbEntity
  8
0
  6
CONTINUOUS
 62
           3
100
AcDbLine
 10
4016.284691881827
 20
1390.000000596098
 11
4016.284691881827
 21
1366.600006818714
  0
LINE
  5
306
100
AcDbEntity
  8
0
  6
CONTINUOUS
 62
           3
100
AcDbLine
 10
4016.284691881827
 20
1364.999994635816
 11
4016.284691881827
 21
1314.999997615957
  0
LINE
  5
305
100
AcDbEntity
  8
0
  6
CONTINUOUS
 62
           3
100
AcDbLine
 10
4024.284693193221
 20
1314.999997615957
 11
4024.284693193221
 21
1364.999994635816
  0
LINE
  5
304
100
AcDbEntity
  8
0
  6
CONTINUOUS
 62
           3
100
AcDbLine
 10
4024.284693193221
 20
1366.600006818714
 11
4024.284693193221
 21
1390.000000596098
  0
LINE
  5
303
100
AcDbEntity
  8
0
  6
CONTINUOUS
 62
           3
100
AcDbLine
 10
4024.284693193221
 20
1391.199998557594
 11
4024.284693193221
 21
1548.799999058066
  0
LINE
  5
302
100
AcDbEntity
  8
0
  6
CONTINUOUS
 62
           3
100
AcDbLine
 10
4024.284693193221
 20
1550.000000744964
 11
4024.284693193221
 21
1633.399993180997
  0
LINE
  5
301
100
AcDbEntity
  8
0
  6
CONTINUOUS
 62
           3
100
AcDbLine
 10
4024.284693193221
 20
1635.000005364197
 11
4024.284693193221
 21
1641.000000000001
  0
LINE
  5
300
100
AcDbEntity
  8
0
  6
CONTINUOUS
 62
           3
100
AcDbLine
 10
3916.284690391908
 20
1665.00000655637
 11
3916.284690391908
 21
1635.000005364197
  0
LINE
  5
2FF
100
AcDbEntity
  8
0
  6
CONTINUOUS
 62
           3
100
AcDbLine
 10
3916.284690391908
 20
1633.399993180997
 11
3916.284690391908
 21
1550.000000744964
  0
LINE
  5
2FE
100
AcDbEntity
  8
0
  6
CONTINUOUS
 62
           3
100
AcDbLine
 10
3916.284690391908
 20
1548.799999058066
 11
3916.284690391908
 21
1391.199998557594
  0
LINE
  5
2FD
100
AcDbEntity
  8
0
  6
CONTINUOUS
 62
           3
100
AcDbLine
 10
3916.284690391908
 20
1390.000000596098
 11
3916.284690391908
 21
1366.600006818714
  0
LINE
  5
2FC
100
AcDbEntity
  8
0
  6
CONTINUOUS
 62
           3
100
AcDbLine
 10
3916.284690391908
 20
1364.999994635816
 11
3916.284690391908
 21
1314.999997615957
  0
LINE
  5
2FB
100
AcDbEntity
  8
0
  6
CONTINUOUS
 62
           3
100
AcDbLine
 10
3924.284691703307
 20
1366.600006818714
 11
3924.284691703307
 21
1390.000000596098
  0
LINE
  5
2FA
100
AcDbEntity
  8
0
  6
CONTINUOUS
 62
           3
100
AcDbLine
 10
3924.284691703307
 20
1391.199998557594
 11
3924.284691703307
 21
1548.799999058066
  0
LINE
  5
2F9
100
AcDbEntity
  8
0
  6
CONTINUOUS
 62
           3
100
AcDbLine
 10
3924.284691703307
 20
1550.000000744964
 11
3924.284691703307
 21
1633.399993180997
  0
LINE
  5
2F8
100
AcDbEntity
  8
0
  6
CONTINUOUS
 62
           3
100
AcDbLine
 10
3924.284691703307
 20
1635.000005364197
 11
3924.284691703307
 21
1665.00000655637
  0
LINE
  5
2F7
100
AcDbEntity
  8
0
  6
CONTINUOUS
 62
           3
100
AcDbLine
 10
3973.284691818658
 20
1366.600006818714
 11
3973.284691818658
 21
1367.599993944114
  0
LINE
  5
2F6
100
AcDbEntity
  8
0
  6
CONTINUOUS
 62
           3
100
AcDbLine
 10
3973.284691818658
 20
1377.599999308605
 11
3973.284691818658
 21
1384.199999272901
  0
LINE
  5
2F5
100
AcDbEntity
  8
0
  6
CONTINUOUS
 62
           3
100
AcDbLine
 10
3973.284691818658
 20
1390.000000596098
 11
3973.284691818658
 21
1392.957426607595
  0
LINE
  5
2F4
100
AcDbEntity
  8
0
  6
CONTINUOUS
 62
           3
100
AcDbLine
 10
3973.284691818658
 20
1394.792847335492
 11
3973.284691818658
 21
1633.399993180997
  0
LINE
  5
2F3
100
AcDbEntity
  8
0
  6
CONTINUOUS
 62
           3
100
AcDbLine
 10
3973.284691818658
 20
1635.000005364197
 11
3973.284691818658
 21
1637.422651052294
  0
LINE
  5
2F2
100
AcDbEntity
  8
0
  6
CONTINUOUS
 62
           3
100
AcDbLine
 10
3967.284691766471
 20
1637.422651052294
 11
3967.284691766471
 21
1635.000005364197
  0
LINE
  5
2F1
100
AcDbEntity
  8
0
  6
CONTINUOUS
 62
           3
100
AcDbLine
 10
3967.284691766471
 20
1633.399993180997
 11
3967.284691766471
 21
1394.792847335492
  0
LINE
  5
2F0
100
AcDbEntity
  8
0
  6
CONTINUOUS
 62
           3
100
AcDbLine
 10
3967.284691766471
 20
1392.957426607595
 11
3967.284691766471
 21
1390.000000596098
  0
LINE
  5
2EF
100
AcDbEntity
  8
0
  6
CONTINUOUS
 62
           3
100
AcDbLine
 10
3967.284691766471
 20
1384.199999272901
 11
3967.284691766471
 21
1377.599999308605
  0
LINE
  5
2EE
100
AcDbEntity
  8
0
  6
CONTINUOUS
 62
           3
100
AcDbLine
 10
3967.284691766471
 20
1367.599993944114
 11
3967.284691766471
 21
1366.600006818714
  0
LINE
  5
2ED
100
AcDbEntity
  8
0
  6
CONTINUOUS
 62
           3
100
AcDbLine
 10
3973.284691818658
 20
1637.422651052294
 11
3972.284691887455
 21
1638.422653078993
  0
LINE
  5
2EC
100
AcDbEntity
  8
0
  6
CONTINUOUS
 62
           3
100
AcDbLine
 10
3968.284691697669
 20
1638.422653078993
 11
3967.284691766471
 21
1637.422651052294
  0
LINE
  5
2EB
100
AcDbEntity
  8
0
  6
CONTINUOUS
 62
           3
100
AcDbLine
 10
3966.784691684471
 20
1394.799999892894
 11
3962.284691412669
 21
1394.799999892894
  0
LINE
  5
2EA
100
AcDbEntity
  8
0
  6
CONTINUOUS
 62
           3
100
AcDbLine
 10
3978.284692172457
 20
1394.799999892894
 11
3973.784691900658
 21
1394.799999892894
  0
LINE
  5
2E9
100
AcDbEntity
  8
0
  6
CONTINUOUS
 62
           3
100
AcDbLine
 10
3963.811189100766
 20
1389.099999999995
 11
3976.758194484357
 21
1389.099999999995
  0
LINE
  5
2E8
100
AcDbEntity
  8
0
  6
CONTINUOUS
 62
           3
100
AcDbLine
 10
3913.284691762905
 20
1393.799997866195
 11
3916.284690391908
 21
1393.799997866195
  0
LINE
  5
2E7
100
AcDbEntity
  8
0
  6
CONTINUOUS
 62
           3
100
AcDbLine
 10
3924.284691703307
 20
1393.799997866195
 11
3962.284691412669
 21
1393.799997866195
  0
LINE
  5
2E6
100
AcDbEntity
  8
0
  6
CONTINUOUS
 62
           3
100
AcDbLine
 10
3978.284692172457
 20
1393.799997866195
 11
4016.284691881827
 21
1393.799997866195
  0
LINE
  5
2E5
100
AcDbEntity
  8
0
  6
CONTINUOUS
 62
           3
100
AcDbLine
 10
4024.284693193221
 20
1393.799997866195
 11
4027.284691822218
 21
1393.799997866195
  0
LINE
  5
2E4
100
AcDbEntity
  8
0
  6
CONTINUOUS
 62
           3
100
AcDbLine
 10
3913.284691762905
 20
1543.800000101368
 11
3913.284691762905
 21
1393.799997866195
  0
LINE
  5
2E3
100
AcDbEntity
  8
0
  6
CONTINUOUS
 62
           3
100
AcDbLine
 10
4027.284691822218
 20
1543.800000101368
 11
4024.284693193221
 21
1543.800000101368
  0
LINE
  5
2E2
100
AcDbEntity
  8
0
  6
CONTINUOUS
 62
           3
100
AcDbLine
 10
4016.284691881827
 20
1543.800000101368
 11
3973.284691818658
 21
1543.800000101368
  0
LINE
  5
2E1
100
AcDbEntity
  8
0
  6
CONTINUOUS
 62
           3
100
AcDbLine
 10
3967.284691766471
 20
1543.800000101368
 11
3924.284691703307
 21
1543.800000101368
  0
LINE
  5
2E0
100
AcDbEntity
  8
0
  6
CONTINUOUS
 62
           3
100
AcDbLine
 10
3916.284690391908
 20
1543.800000101368
 11
3913.284691762905
 21
1543.800000101368
  0
LINE
  5
2DF
100
AcDbEntity
  8
0
  6
CONTINUOUS
 62
           3
100
AcDbLine
 10
4027.284691822218
 20
1393.799997866195
 11
4027.284691822218
 21
1543.800000101368
  0
LINE
  5
2DE
100
AcDbEntity
  8
0
  6
CONTINUOUS
 62
           3
100
AcDbLine
 10
3973.171443226258
 20
1355.446577072225
 11
3973.171443226397
 21
1359.553411603069
  0
LINE
  5
2DD
100
AcDbEntity
  8
0
  6
CONTINUOUS
 62
           3
100
AcDbLine
 10
3973.171443226258
 20
1355.446577072225
 11
3970.28469179257
 21
1355.000004172322
  0
LINE
  5
2DC
100
AcDbEntity
  8
0
  6
CONTINUOUS
 62
           3
100
AcDbLine
 10
3967.397940358739
 20
1355.446577072243
 11
3967.397940358865
 21
1359.553411603022
  0
LINE
  5
2DB
100
AcDbEntity
  8
0
  6
CONTINUOUS
 62
           3
100
AcDbLine
 10
3967.397940358865
 20
1359.553411603022
 11
3970.28469179257
 21
1359.999999404049
  0
LINE
  5
2DA
100
AcDbEntity
  8
0
  6
CONTINUOUS
 62
           3
100
AcDbLine
 10
3970.28469179257
 20
1355.000004172322
 11
3974.614818826899
 21
1355.000004172421
  0
LINE
  5
2D9
100
AcDbEntity
  8
0
  6
CONTINUOUS
 62
           3
100
AcDbLine
 10
3965.954564758241
 20
1355.000004172421
 11
3970.28469179257
 21
1355.000004172322
  0
LINE
  5
2D8
100
AcDbEntity
  8
0
  6
CONTINUOUS
 62
           3
100
AcDbLine
 10
3965.954564758241
 20
1359.999999404049
 11
3970.28469179257
 21
1359.999999404049
  0
LINE
  5
2D7
100
AcDbEntity
  8
0
  6
CONTINUOUS
 62
           3
100
AcDbLine
 10
3973.171443226397
 20
1359.553411603069
 11
3974.614818826859
 21
1359.999999403922
  0
LINE
  5
2D6
100
AcDbEntity
  8
0
  6
CONTINUOUS
 62
           3
100
AcDbLine
 10
3970.28469179257
 20
1359.999999404049
 11
3974.614818826859
 21
1359.999999403922
  0
LINE
  5
2D5
100
AcDbEntity
  8
0
  6
CONTINUOUS
 62
           3
100
AcDbLine
 10
3964.511188924867
 20
1355.446577072225
 11
3964.511188924867
 21
1359.553411603022
  0
LINE
  5
2D4
100
AcDbEntity
  8
0
  6
CONTINUOUS
 62
           3
100
AcDbLine
 10
3976.05819466026
 20
1355.446577072225
 11
3976.05819466026
 21
1359.553411603022
  0
LINE
  5
2D3
100
AcDbEntity
  8
0
  6
CONTINUOUS
 62
           3
100
AcDbLine
 10
3976.05819466026
 20
1355.446577072225
 11
3974.614818826899
 21
1355.000004172421
  0
LINE
  5
2D2
100
AcDbEntity
  8
0
  6
CONTINUOUS
 62
           3
100
AcDbLine
 10
3965.284691904368
 20
1355.000004172322
 11
3965.954564758241
 21
1355.000004172421
  0
LINE
  5
2D1
100
AcDbEntity
  8
0
  6
CONTINUOUS
 62
           3
100
AcDbLine
 10
3975.284691680759
 20
1355.000004172322
 11
3974.614818826899
 21
1355.000004172421
  0
LINE
  5
2D0
100
AcDbEntity
  8
0
  6
CONTINUOUS
 62
           3
100
AcDbLine
 10
3965.284691904368
 20
1359.999999403922
 11
3965.954564758241
 21
1359.999999404049
  0
LINE
  5
2CF
100
AcDbEntity
  8
0
  6
CONTINUOUS
 62
           3
100
AcDbLine
 10
3973.171443226397
 20
1364.553421735859
 11
3973.171443226258
 21
1360.446587205123
  0
LINE
  5
2CE
100
AcDbEntity
  8
0
  6
CONTINUOUS
 62
           3
100
AcDbLine
 10
3967.397940358739
 20
1364.553421735859
 11
3967.397940358739
 21
1360.446587205025
  0
LINE
  5
2CD
100
AcDbEntity
  8
0
  6
CONTINUOUS
 62
           3
100
AcDbLine
 10
3976.05819466026
 20
1364.553421735917
 11
3974.614818826899
 21
1364.999994635673
  0
LINE
  5
2CC
100
AcDbEntity
  8
0
  6
CONTINUOUS
 62
           3
100
AcDbLine
 10
3976.05819466026
 20
1364.553421735917
 11
3976.05819466026
 21
1360.446587205123
  0
LINE
  5
2CB
100
AcDbEntity
  8
0
  6
CONTINUOUS
 62
           3
100
AcDbLine
 10
3973.171443226258
 20
1360.446587205123
 11
3974.614818826859
 21
1359.999999403922
  0
LINE
  5
2CA
100
AcDbEntity
  8
0
  6
CONTINUOUS
 62
           3
100
AcDbLine
 10
3967.397940358739
 20
1364.553421735859
 11
3965.954564758241
 21
1364.999994635673
  0
LINE
  5
2C9
100
AcDbEntity
  8
0
  6
CONTINUOUS
 62
           3
100
AcDbLine
 10
3964.511188924867
 20
1360.446587205123
 11
3965.954564758241
 21
1359.999999404049
  0
LINE
  5
2C8
100
AcDbEntity
  8
0
  6
CONTINUOUS
 62
           3
100
AcDbLine
 10
3964.511188924867
 20
1364.553421735917
 11
3964.511188924867
 21
1360.446587205123
  0
LINE
  5
2C7
100
AcDbEntity
  8
0
  6
CONTINUOUS
 62
           3
100
AcDbLine
 10
3973.171443226397
 20
1377.153418958268
 11
3973.171443226258
 21
1373.046576976912
  0
LINE
  5
2C6
100
AcDbEntity
  8
0
  6
CONTINUOUS
 62
           3
100
AcDbLine
 10
3967.397940358739
 20
1377.153418958268
 11
3967.397940358739
 21
1373.046576976861
  0
LINE
  5
2C5
100
AcDbEntity
  8
0
  6
CONTINUOUS
 62
           3
100
AcDbLine
 10
3976.05819466026
 20
1377.153418958206
 11
3974.614818826899
 21
1377.599999308667
  0
LINE
  5
2C4
100
AcDbEntity
  8
0
  6
CONTINUOUS
 62
           3
100
AcDbLine
 10
3976.05819466026
 20
1377.153418958206
 11
3976.05819466026
 21
1373.046576976912
  0
LINE
  5
2C3
100
AcDbEntity
  8
0
  6
CONTINUOUS
 62
           3
100
AcDbLine
 10
3973.171443226258
 20
1373.046576976912
 11
3974.614818826899
 21
1372.600004077042
  0
LINE
  5
2C2
100
AcDbEntity
  8
0
  6
CONTINUOUS
 62
           3
100
AcDbLine
 10
3974.614818826899
 20
1377.599999308667
 11
3970.28469179257
 21
1377.599999308667
  0
LINE
  5
2C1
100
AcDbEntity
  8
0
  6
CONTINUOUS
 62
           3
100
AcDbLine
 10
3967.397940358739
 20
1377.153418958268
 11
3965.954564758241
 21
1377.599999308667
  0
LINE
  5
2C0
100
AcDbEntity
  8
0
  6
CONTINUOUS
 62
           3
100
AcDbLine
 10
3964.511188924867
 20
1373.046576976912
 11
3965.954564758241
 21
1372.600004077042
  0
LINE
  5
2BF
100
AcDbEntity
  8
0
  6
CONTINUOUS
 62
           3
100
AcDbLine
 10
3964.511188924867
 20
1377.153418958206
 11
3964.511188924867
 21
1373.046576976912
  0
LINE
  5
2BE
100
AcDbEntity
  8
0
  6
CONTINUOUS
 62
           3
100
AcDbLine
 10
3970.28469179257
 20
1377.599999308667
 11
3965.954564758241
 21
1377.599999308667
  0
LINE
  5
2BD
100
AcDbEntity
  8
0
  6
CONTINUOUS
 62
           3
100
AcDbLine
 10
3974.614818826899
 20
1372.600004077042
 11
3970.28469179257
 21
1372.600004077042
  0
LINE
  5
2BC
100
AcDbEntity
  8
0
  6
CONTINUOUS
 62
           3
100
AcDbLine
 10
3970.28469179257
 20
1372.600004077042
 11
3965.954564758241
 21
1372.600004077042
  0
LINE
  5
2BB
100
AcDbEntity
  8
0
  6
CONTINUOUS
 62
           3
100
AcDbLine
 10
3965.954564758241
 20
1377.599999308667
 11
3965.284691904368
 21
1377.599999308605
  0
LINE
  5
2BA
100
AcDbEntity
  8
0
  6
CONTINUOUS
 62
           3
100
AcDbLine
 10
3975.284691680759
 20
1377.599999308605
 11
3974.614818826899
 21
1377.599999308667
  0
LINE
  5
2B9
100
AcDbEntity
  8
0
  6
CONTINUOUS
 62
           3
100
AcDbLine
 10
3975.284691680759
 20
1372.60000407701
 11
3974.614818826899
 21
1372.600004077042
  0
LINE
  5
2B8
100
AcDbEntity
  8
0
  6
CONTINUOUS
 62
           3
100
AcDbLine
 10
3973.171443226397
 20
1372.153416276063
 11
3973.171443226258
 21
1368.046581745313
  0
LINE
  5
2B7
100
AcDbEntity
  8
0
  6
CONTINUOUS
 62
           3
100
AcDbLine
 10
3967.397940358739
 20
1372.153416276063
 11
3967.397940358739
 21
1368.046581745236
  0
LINE
  5
2B6
100
AcDbEntity
  8
0
  6
CONTINUOUS
 62
           3
100
AcDbLine
 10
3976.05819466026
 20
1372.15341627611
 11
3974.614818826899
 21
1372.600004077042
  0
LINE
  5
2B5
100
AcDbEntity
  8
0
  6
CONTINUOUS
 62
           3
100
AcDbLine
 10
3976.05819466026
 20
1372.15341627611
 11
3976.05819466026
 21
1368.046581745313
  0
LINE
  5
2B4
100
AcDbEntity
  8
0
  6
CONTINUOUS
 62
           3
100
AcDbLine
 10
3973.171443226258
 20
1368.046581745313
 11
3974.614818826899
 21
1367.599993944257
  0
LINE
  5
2B3
100
AcDbEntity
  8
0
  6
CONTINUOUS
 62
           3
100
AcDbLine
 10
3967.397940358739
 20
1372.153416276063
 11
3965.954564758241
 21
1372.600004077042
  0
LINE
  5
2B2
100
AcDbEntity
  8
0
  6
CONTINUOUS
 62
           3
100
AcDbLine
 10
3964.511188924867
 20
1368.046581745313
 11
3965.954564758241
 21
1367.599993944257
  0
LINE
  5
2B1
100
AcDbEntity
  8
0
  6
CONTINUOUS
 62
           3
100
AcDbLine
 10
3964.511188924867
 20
1372.15341627611
 11
3964.511188924867
 21
1368.046581745313
  0
LINE
  5
2B0
100
AcDbEntity
  8
0
  6
CONTINUOUS
 62
           3
100
AcDbLine
 10
3970.28469179257
 20
1367.599993944257
 11
3965.954564758241
 21
1367.599993944257
  0
LINE
  5
2AF
100
AcDbEntity
  8
0
  6
CONTINUOUS
 62
           3
100
AcDbLine
 10
3974.614818826899
 20
1367.599993944257
 11
3970.28469179257
 21
1367.599993944257
  0
LINE
  5
2AE
100
AcDbEntity
  8
0
  6
CONTINUOUS
 62
           3
100
AcDbLine
 10
3965.954564758241
 20
1372.600004077042
 11
3965.284691904368
 21
1372.60000407701
  0
LINE
  5
2AD
100
AcDbEntity
  8
0
  6
CONTINUOUS
 62
           3
100
AcDbLine
 10
3975.284691680759
 20
1367.599993944114
 11
3974.614818826899
 21
1367.599993944257
  0
LINE
  5
2AC
100
AcDbEntity
  8
0
  6
CONTINUOUS
 62
           3
100
AcDbLine
 10
3965.954564758241
 20
1367.599993944257
 11
3965.284691904368
 21
1367.599993944114
  0
LINE
  5
2AB
100
AcDbEntity
  8
0
  6
CONTINUOUS
 62
           3
100
AcDbLine
 10
3920.284691047605
 20
1665.00000655637
 11
3924.284691703307
 21
1665.00000655637
  0
LINE
  5
2AA
100
AcDbEntity
  8
0
  6
CONTINUOUS
 62
           3
100
AcDbLine
 10
3916.284690391908
 20
1665.00000655637
 11
3920.284691047605
 21
1665.00000655637
  0
LINE
  5
2A9
100
AcDbEntity
  8
0
  6
CONTINUOUS
 62
           3
100
AcDbLine
 10
3967.284691766471
 20
1637.422651052294
 11
3973.284691818658
 21
1637.422651052294
  0
LINE
  5
2A8
100
AcDbEntity
  8
0
  6
CONTINUOUS
 62
           3
100
AcDbLine
 10
3972.284691887455
 20
1638.422653078993
 11
3968.284691697669
 21
1638.422653078993
  0
LINE
  5
2A7
100
AcDbEntity
  8
0
  6
CONTINUOUS
 62
           3
100
AcDbLine
 10
3978.284692172457
 20
1389.200001954996
 11
3973.784691900658
 21
1389.200001954996
  0
LINE
  5
2A6
100
AcDbEntity
  8
0
  6
CONTINUOUS
 62
           3
100
AcDbLine
 10
3966.784691684471
 20
1394.792847335492
 11
3973.784691900658
 21
1394.792847335492
  0
LINE
  5
2A5
100
AcDbEntity
  8
0
  6
CONTINUOUS
 62
           3
100
AcDbLine
 10
3966.784691684471
 20
1389.200001954996
 11
3962.284691412669
 21
1389.200001954996
  0
LINE
  5
2A4
100
AcDbEntity
  8
0
  6
CONTINUOUS
 62
           3
100
AcDbLine
 10
3973.784691900658
 20
1394.799999892894
 11
3973.784691900658
 21
1389.200001954996
  0
LINE
  5
2A3
100
AcDbEntity
  8
0
  6
CONTINUOUS
 62
           3
100
AcDbLine
 10
3966.784691684471
 20
1389.200001954996
 11
3966.784691684471
 21
1394.799999892894
  0
LINE
  5
2A2
100
AcDbEntity
  8
0
  6
CONTINUOUS
 62
           3
100
AcDbLine
 10
3962.284691412669
 20
1394.799999892894
 11
3962.284691412669
 21
1389.200001954996
  0
LINE
  5
2A1
100
AcDbEntity
  8
0
  6
CONTINUOUS
 62
           3
100
AcDbLine
 10
3978.284692172457
 20
1394.799999892894
 11
3978.284692172457
 21
1389.200001954996
  0
LINE
  5
2A0
100
AcDbEntity
  8
0
  6
CONTINUOUS
 62
           3
100
AcDbLine
 10
3973.784691900658
 20
1392.246469855294
 11
3973.284691818658
 21
1392.246469855294
  0
LINE
  5
29F
100
AcDbEntity
  8
0
  6
CONTINUOUS
 62
           3
100
AcDbLine
 10
3967.284691766471
 20
1392.246469855294
 11
3966.784691684471
 21
1392.246469855294
  0
LINE
  5
29E
100
AcDbEntity
  8
0
  6
CONTINUOUS
 62
           3
100
AcDbLine
 10
3973.784691900658
 20
1393.990144133493
 11
3966.784691684471
 21
1393.990144133493
  0
LINE
  5
29D
100
AcDbEntity
  8
0
  6
CONTINUOUS
 62
           3
100
AcDbLine
 10
3966.784691684471
 20
1390.000000596098
 11
3973.784691900658
 21
1390.000000596098
  0
LINE
  5
29C
100
AcDbEntity
  8
0
  6
CONTINUOUS
 62
           3
100
AcDbLine
 10
3966.784691684471
 20
1389.200001954996
 11
3973.784691900658
 21
1389.200001954996
  0
LINE
  5
29B
100
AcDbEntity
  8
0
  6
CONTINUOUS
 62
           3
100
AcDbLine
 10
3970.28469179257
 20
1384.646579623296
 11
3972.784691736657
 21
1384.199999272901
  0
LINE
  5
29A
100
AcDbEntity
  8
0
  6
CONTINUOUS
 62
           3
100
AcDbLine
 10
3967.784691848448
 20
1384.199999272901
 11
3972.784691736657
 21
1384.199999272901
  0
LINE
  5
299
100
AcDbEntity
  8
0
  6
CONTINUOUS
 62
           3
100
AcDbLine
 10
3970.28469179257
 20
1384.646579623296
 11
3970.28469179257
 21
1389.100000262195
  0
LINE
  5
298
100
AcDbEntity
  8
0
  6
CONTINUOUS
 62
           3
100
AcDbLine
 10
3965.284691904368
 20
1384.646579623303
 11
3967.784691848448
 21
1384.199999272901
  0
LINE
  5
297
100
AcDbEntity
  8
0
  6
CONTINUOUS
 62
           3
100
AcDbLine
 10
3965.284691904368
 20
1384.646579623303
 11
3965.284691904368
 21
1389.100000262195
  0
LINE
  5
296
100
AcDbEntity
  8
0
  6
CONTINUOUS
 62
           3
100
AcDbLine
 10
3975.284691680759
 20
1384.646579623303
 11
3975.284691680759
 21
1389.100000262195
  0
LINE
  5
295
100
AcDbEntity
  8
0
  6
CONTINUOUS
 62
           3
100
AcDbLine
 10
3965.284691904328
 20
1384.199999272901
 11
3967.784691848448
 21
1384.199999272901
  0
LINE
  5
294
100
AcDbEntity
  8
0
  6
CONTINUOUS
 62
           3
100
AcDbLine
 10
3972.784691736657
 20
1384.199999272901
 11
3975.284691680806
 21
1384.199999272901
  0
LINE
  5
293
100
AcDbEntity
  8
0
  6
CONTINUOUS
 62
           3
100
AcDbLine
 10
3978.284692172457
 20
1388.276241719796
 11
3975.284691680759
 21
1388.276241719796
  0
LINE
  5
292
100
AcDbEntity
  8
0
  6
CONTINUOUS
 62
           3
100
AcDbLine
 10
3965.284691904368
 20
1388.276241719796
 11
3962.284691412669
 21
1388.276241719796
  0
LINE
  5
291
100
AcDbEntity
  8
0
  6
CONTINUOUS
 62
           3
100
AcDbLine
 10
3962.284691412669
 20
1389.200001954996
 11
3962.284691412669
 21
1388.276241719796
  0
LINE
  5
290
100
AcDbEntity
  8
0
  6
CONTINUOUS
 62
           3
100
AcDbLine
 10
3978.284692172457
 20
1389.200001954996
 11
3978.284692172457
 21
1388.276241719796
  0
LINE
  5
28F
100
AcDbEntity
  8
0
  6
CONTINUOUS
 62
           3
100
AcDbLine
 10
3940.284692463085
 20
1550.000000744964
 11
3950.284692239481
 21
1550.000000744964
  0
LINE
  5
28E
100
AcDbEntity
  8
0
  6
CONTINUOUS
 62
           3
100
AcDbLine
 10
3950.284692239481
 20
1548.799999058066
 11
3950.284692239481
 21
1550.000000744964
  0
LINE
  5
28D
100
AcDbEntity
  8
0
  6
CONTINUOUS
 62
           3
100
AcDbLine
 10
3940.284692463085
 20
1548.799999058066
 11
3950.284692239481
 21
1548.799999058066
  0
LINE
  5
28C
100
AcDbEntity
  8
0
  6
CONTINUOUS
 62
           3
100
AcDbLine
 10
3940.284692463085
 20
1548.799999058066
 11
3940.284692463085
 21
1550.000000744964
  0
LINE
  5
28B
100
AcDbEntity
  8
0
  6
CONTINUOUS
 62
           3
100
AcDbLine
 10
3990.284691345647
 20
1548.799999058066
 11
3990.284691345647
 21
1550.000000744964
  0
LINE
  5
28A
100
AcDbEntity
  8
0
  6
CONTINUOUS
 62
           3
100
AcDbLine
 10
3975.534691721759
 20
1548.799999058066
 11
3990.284691345647
 21
1548.799999058066
  0
LINE
  5
289
100
AcDbEntity
  8
0
  6
CONTINUOUS
 62
           3
100
AcDbLine
 10
3975.534691721759
 20
1550.000000744964
 11
3990.284691345647
 21
1550.000000744964
  0
LINE
  5
288
100
AcDbEntity
  8
0
  6
CONTINUOUS
 62
           3
100
AcDbLine
 10
3950.284692239481
 20
1548.799999058066
 11
3965.034691863368
 21
1548.799999058066
  0
LINE
  5
287
100
AcDbEntity
  8
0
  6
CONTINUOUS
 62
           3
100
AcDbLine
 10
3950.284692239481
 20
1550.000000744964
 11
3965.034691863368
 21
1550.000000744964
  0
LINE
  5
286
100
AcDbEntity
  8
0
  6
CONTINUOUS
 62
           3
100
AcDbLine
 10
3950.284692239481
 20
1391.199998557594
 11
3950.284692239481
 21
1390.000000596098
  0
LINE
  5
285
100
AcDbEntity
  8
0
  6
CONTINUOUS
 62
           3
100
AcDbLine
 10
3950.284692239481
 20
1390.000000596098
 11
3962.284691412669
 21
1390.000000596098
  0
LINE
  5
284
100
AcDbEntity
  8
0
  6
CONTINUOUS
 62
           3
100
AcDbLine
 10
3950.284692239481
 20
1391.199998557594
 11
3962.284691412669
 21
1391.199998557594
  0
LINE
  5
283
100
AcDbEntity
  8
0
  6
CONTINUOUS
 62
           3
100
AcDbLine
 10
3973.534691859658
 20
1390.000000596098
 11
3973.534691859658
 21
1391.199998557594
  0
LINE
  5
282
100
AcDbEntity
  8
0
  6
CONTINUOUS
 62
           3
100
AcDbLine
 10
3973.534691859658
 20
1391.199998557594
 11
3973.784691900658
 21
1391.199998557594
  0
LINE
  5
281
100
AcDbEntity
  8
0
  6
CONTINUOUS
 62
           3
100
AcDbLine
 10
4000.284691122038
 20
1548.799999058066
 11
4000.284691122038
 21
1550.000000744964
  0
LINE
  5
280
100
AcDbEntity
  8
0
  6
CONTINUOUS
 62
           3
100
AcDbLine
 10
4000.284691122038
 20
1548.799999058066
 11
3990.284691345647
 21
1548.799999058066
  0
LINE
  5
27F
100
AcDbEntity
  8
0
  6
CONTINUOUS
 62
           3
100
AcDbLine
 10
4000.284691122038
 20
1550.000000744964
 11
3990.284691345647
 21
1550.000000744964
  0
LINE
  5
27E
100
AcDbEntity
  8
0
  6
CONTINUOUS
 62
           3
100
AcDbLine
 10
3973.534691859658
 20
1548.799999058066
 11
3973.534691859658
 21
1550.000000744964
  0
LINE
  5
27D
100
AcDbEntity
  8
0
  6
CONTINUOUS
 62
           3
100
AcDbLine
 10
3975.534691721759
 20
1548.799999058066
 11
3973.534691859658
 21
1548.799999058066
  0
LINE
  5
27C
100
AcDbEntity
  8
0
  6
CONTINUOUS
 62
           3
100
AcDbLine
 10
3973.534691859658
 20
1550.000000744964
 11
3975.534691721759
 21
1550.000000744964
  0
LINE
  5
27B
100
AcDbEntity
  8
0
  6
CONTINUOUS
 62
           3
100
AcDbLine
 10
3940.284692463085
 20
1391.199998557594
 11
3940.284692463085
 21
1390.000000596098
  0
LINE
  5
27A
100
AcDbEntity
  8
0
  6
CONTINUOUS
 62
           3
100
AcDbLine
 10
3940.284692463085
 20
1390.000000596098
 11
3950.284692239481
 21
1390.000000596098
  0
LINE
  5
279
100
AcDbEntity
  8
0
  6
CONTINUOUS
 62
           3
100
AcDbLine
 10
3940.284692463085
 20
1391.199998557594
 11
3950.284692239481
 21
1391.199998557594
  0
LINE
  5
278
100
AcDbEntity
  8
0
  6
CONTINUOUS
 62
           3
100
AcDbLine
 10
3990.284691345647
 20
1391.199998557594
 11
3990.284691345647
 21
1390.000000596098
  0
LINE
  5
277
100
AcDbEntity
  8
0
  6
CONTINUOUS
 62
           3
100
AcDbLine
 10
3978.284692172457
 20
1390.000000596098
 11
3990.284691345647
 21
1390.000000596098
  0
LINE
  5
276
100
AcDbEntity
  8
0
  6
CONTINUOUS
 62
           3
100
AcDbLine
 10
3978.284692172457
 20
1391.199998557594
 11
3990.284691345647
 21
1391.199998557594
  0
LINE
  5
275
100
AcDbEntity
  8
0
  6
CONTINUOUS
 62
           3
100
AcDbLine
 10
3967.034691725471
 20
1550.000000744964
 11
3967.034691725471
 21
1548.799999058066
  0
LINE
  5
274
100
AcDbEntity
  8
0
  6
CONTINUOUS
 62
           3
100
AcDbLine
 10
3967.034691725471
 20
1548.799999058066
 11
3965.034691863368
 21
1548.799999058066
  0
LINE
  5
273
100
AcDbEntity
  8
0
  6
CONTINUOUS
 62
           3
100
AcDbLine
 10
3965.034691863368
 20
1550.000000744964
 11
3967.034691725471
 21
1550.000000744964
  0
LINE
  5
272
100
AcDbEntity
  8
0
  6
CONTINUOUS
 62
           3
100
AcDbLine
 10
4000.284691122038
 20
1391.199998557594
 11
4000.284691122038
 21
1390.000000596098
  0
LINE
  5
271
100
AcDbEntity
  8
0
  6
CONTINUOUS
 62
           3
100
AcDbLine
 10
4000.284691122038
 20
1390.000000596098
 11
3990.284691345647
 21
1390.000000596098
  0
LINE
  5
270
100
AcDbEntity
  8
0
  6
CONTINUOUS
 62
           3
100
AcDbLine
 10
4000.284691122038
 20
1391.199998557594
 11
3990.284691345647
 21
1391.199998557594
  0
LINE
  5
26F
100
AcDbEntity
  8
0
  6
CONTINUOUS
 62
           3
100
AcDbLine
 10
3967.034691725471
 20
1391.199998557594
 11
3967.034691725471
 21
1390.000000596098
  0
LINE
  5
26E
100
AcDbEntity
  8
0
  6
CONTINUOUS
 62
           3
100
AcDbLine
 10
3966.784691684471
 20
1391.199998557594
 11
3967.034691725471
 21
1391.199998557594
  0
LINE
  5
26D
100
AcDbEntity
  8
0
  6
CONTINUOUS
 62
           3
100
AcDbLine
 10
3917.284692418608
 20
1390.000000596098
 11
3917.284692418608
 21
1391.199998557594
  0
LINE
  5
26C
100
AcDbEntity
  8
0
  6
CONTINUOUS
 62
           3
100
AcDbLine
 10
3915.284692090607
 20
1390.000000596098
 11
3917.284692418608
 21
1390.000000596098
  0
LINE
  5
26B
100
AcDbEntity
  8
0
  6
CONTINUOUS
 62
           3
100
AcDbLine
 10
3917.284692418608
 20
1391.199998557594
 11
3915.284692090607
 21
1391.199998557594
  0
LINE
  5
26A
100
AcDbEntity
  8
0
  6
CONTINUOUS
 62
           3
100
AcDbLine
 10
3923.284693401998
 20
1391.199998557594
 11
3923.284693401998
 21
1390.000000596098
  0
LINE
  5
269
100
AcDbEntity
  8
0
  6
CONTINUOUS
 62
           3
100
AcDbLine
 10
3923.284693401998
 20
1390.000000596098
 11
3925.284690004598
 21
1390.000000596098
  0
LINE
  5
268
100
AcDbEntity
  8
0
  6
CONTINUOUS
 62
           3
100
AcDbLine
 10
3925.284690004598
 20
1391.199998557594
 11
3923.284693401998
 21
1391.199998557594
  0
LINE
  5
267
100
AcDbEntity
  8
0
  6
CONTINUOUS
 62
           3
100
AcDbLine
 10
4023.284691166815
 20
1550.000000744964
 11
4023.284691166815
 21
1548.799999058066
  0
LINE
  5
266
100
AcDbEntity
  8
0
  6
CONTINUOUS
 62
           3
100
AcDbLine
 10
4023.284691166815
 20
1548.799999058066
 11
4025.284691494517
 21
1548.799999058066
  0
LINE
  5
265
100
AcDbEntity
  8
0
  6
CONTINUOUS
 62
           3
100
AcDbLine
 10
4025.284691494517
 20
1550.000000744964
 11
4023.284691166815
 21
1550.000000744964
  0
LINE
  5
264
100
AcDbEntity
  8
0
  6
CONTINUOUS
 62
           3
100
AcDbLine
 10
4017.284690183128
 20
1548.799999058066
 11
4017.284690183128
 21
1550.000000744964
  0
LINE
  5
263
100
AcDbEntity
  8
0
  6
CONTINUOUS
 62
           3
100
AcDbLine
 10
4015.284693580526
 20
1548.799999058066
 11
4017.284690183128
 21
1548.799999058066
  0
LINE
  5
262
100
AcDbEntity
  8
0
  6
CONTINUOUS
 62
           3
100
AcDbLine
 10
4017.284690183128
 20
1550.000000744964
 11
4015.284693580526
 21
1550.000000744964
  0
LINE
  5
261
100
AcDbEntity
  8
0
  6
CONTINUOUS
 62
           3
100
AcDbLine
 10
4023.284691166815
 20
1390.000000596098
 11
4023.284691166815
 21
1391.199998557594
  0
LINE
  5
260
100
AcDbEntity
  8
0
  6
CONTINUOUS
 62
           3
100
AcDbLine
 10
4025.284691494517
 20
1390.000000596098
 11
4023.284691166815
 21
1390.000000596098
  0
LINE
  5
25F
100
AcDbEntity
  8
0
  6
CONTINUOUS
 62
           3
100
AcDbLine
 10
4023.284691166815
 20
1391.199998557594
 11
4025.284691494517
 21
1391.199998557594
  0
LINE
  5
25E
100
AcDbEntity
  8
0
  6
CONTINUOUS
 62
           3
100
AcDbLine
 10
4017.284690183128
 20
1391.199998557594
 11
4017.284690183128
 21
1390.000000596098
  0
LINE
  5
25D
100
AcDbEntity
  8
0
  6
CONTINUOUS
 62
           3
100
AcDbLine
 10
4017.284690183128
 20
1390.000000596098
 11
4015.284693580526
 21
1390.000000596098
  0
LINE
  5
25C
100
AcDbEntity
  8
0
  6
CONTINUOUS
 62
           3
100
AcDbLine
 10
4015.284693580526
 20
1391.199998557594
 11
4017.284690183128
 21
1391.199998557594
  0
LINE
  5
25B
100
AcDbEntity
  8
0
  6
CONTINUOUS
 62
           3
100
AcDbLine
 10
3917.284692418608
 20
1550.000000744964
 11
3917.284692418608
 21
1548.799999058066
  0
LINE
  5
25A
100
AcDbEntity
  8
0
  6
CONTINUOUS
 62
           3
100
AcDbLine
 10
3917.284692418608
 20
1548.799999058066
 11
3915.284692090607
 21
1548.799999058066
  0
LINE
  5
259
100
AcDbEntity
  8
0
  6
CONTINUOUS
 62
           3
100
AcDbLine
 10
3915.284692090607
 20
1550.000000744964
 11
3917.284692418608
 21
1550.000000744964
  0
LINE
  5
258
100
AcDbEntity
  8
0
  6
CONTINUOUS
 62
           3
100
AcDbLine
 10
3923.284693401998
 20
1548.799999058066
 11
3923.284693401998
 21
1550.000000744964
  0
LINE
  5
257
100
AcDbEntity
  8
0
  6
CONTINUOUS
 62
           3
100
AcDbLine
 10
3925.284690004598
 20
1548.799999058066
 11
3923.284693401998
 21
1548.799999058066
  0
LINE
  5
256
100
AcDbEntity
  8
0
  6
CONTINUOUS
 62
           3
100
AcDbLine
 10
3923.284693401998
 20
1550.000000744964
 11
3925.284690004598
 21
1550.000000744964
  0
LINE
  5
255
100
AcDbEntity
  8
0
  6
CONTINUOUS
 62
           3
100
AcDbLine
 10
3925.284690004598
 20
1390.000000596098
 11
3940.284692463085
 21
1390.000000596098
  0
LINE
  5
254
100
AcDbEntity
  8
0
  6
CONTINUOUS
 62
           3
100
AcDbLine
 10
3925.284690004598
 20
1391.199998557594
 11
3940.284692463085
 21
1391.199998557594
  0
LINE
  5
253
100
AcDbEntity
  8
0
  6
CONTINUOUS
 62
           3
100
AcDbLine
 10
4030.284690451515
 20
1391.199998557594
 11
4030.284690451515
 21
1390.000000596098
  0
LINE
  5
252
100
AcDbEntity
  8
0
  6
CONTINUOUS
 62
           3
100
AcDbLine
 10
4030.284690451515
 20
1390.000000596098
 11
4025.284691494517
 21
1390.000000596098
  0
LINE
  5
251
100
AcDbEntity
  8
0
  6
CONTINUOUS
 62
           3
100
AcDbLine
 10
4025.284691494517
 20
1391.199998557594
 11
4030.284690451515
 21
1391.199998557594
  0
LINE
  5
250
100
AcDbEntity
  8
0
  6
CONTINUOUS
 62
           3
100
AcDbLine
 10
3925.284690004598
 20
1548.799999058066
 11
3940.284692463085
 21
1548.799999058066
  0
LINE
  5
24F
100
AcDbEntity
  8
0
  6
CONTINUOUS
 62
           3
100
AcDbLine
 10
3925.284690004598
 20
1550.000000744964
 11
3940.284692463085
 21
1550.000000744964
  0
LINE
  5
24E
100
AcDbEntity
  8
0
  6
CONTINUOUS
 62
           3
100
AcDbLine
 10
4015.284693580526
 20
1390.000000596098
 11
4000.284691122038
 21
1390.000000596098
  0
LINE
  5
24D
100
AcDbEntity
  8
0
  6
CONTINUOUS
 62
           3
100
AcDbLine
 10
4015.284693580526
 20
1391.199998557594
 11
4000.284691122038
 21
1391.199998557594
  0
LINE
  5
24C
100
AcDbEntity
  8
0
  6
CONTINUOUS
 62
           3
100
AcDbLine
 10
4030.284690451515
 20
1548.799999058066
 11
4030.284690451515
 21
1550.000000744964
  0
LINE
  5
24B
100
AcDbEntity
  8
0
  6
CONTINUOUS
 62
           3
100
AcDbLine
 10
4025.284691494517
 20
1548.799999058066
 11
4030.284690451515
 21
1548.799999058066
  0
LINE
  5
24A
100
AcDbEntity
  8
0
  6
CONTINUOUS
 62
           3
100
AcDbLine
 10
4030.284690451515
 20
1550.000000744964
 11
4025.284691494517
 21
1550.000000744964
  0
LINE
  5
249
100
AcDbEntity
  8
0
  6
CONTINUOUS
 62
           3
100
AcDbLine
 10
4015.284693580526
 20
1548.799999058066
 11
4000.284691122038
 21
1548.799999058066
  0
LINE
  5
248
100
AcDbEntity
  8
0
  6
CONTINUOUS
 62
           3
100
AcDbLine
 10
4015.284693580526
 20
1550.000000744964
 11
4000.284691122038
 21
1550.000000744964
  0
LINE
  5
247
100
AcDbEntity
  8
0
  6
CONTINUOUS
 62
           3
100
AcDbLine
 10
3910.284693133609
 20
1548.799999058066
 11
3910.284693133609
 21
1550.000000744964
  0
LINE
  5
246
100
AcDbEntity
  8
0
  6
CONTINUOUS
 62
           3
100
AcDbLine
 10
3915.284692090607
 20
1548.799999058066
 11
3910.284693133609
 21
1548.799999058066
  0
LINE
  5
245
100
AcDbEntity
  8
0
  6
CONTINUOUS
 62
           3
100
AcDbLine
 10
3910.284693133609
 20
1550.000000744964
 11
3915.284692090607
 21
1550.000000744964
  0
LINE
  5
244
100
AcDbEntity
  8
0
  6
CONTINUOUS
 62
           3
100
AcDbLine
 10
3910.284693133609
 20
1391.199998557594
 11
3910.284693133609
 21
1390.000000596098
  0
LINE
  5
243
100
AcDbEntity
  8
0
  6
CONTINUOUS
 62
           3
100
AcDbLine
 10
3910.284693133609
 20
1390.000000596098
 11
3915.284692090607
 21
1390.000000596098
  0
LINE
  5
242
100
AcDbEntity
  8
0
  6
CONTINUOUS
 62
           3
100
AcDbLine
 10
3915.284692090607
 20
1391.199998557594
 11
3910.284693133609
 21
1391.199998557594
  0
LINE
  5
241
100
AcDbEntity
  8
0
  6
CONTINUOUS
 62
           3
100
AcDbLine
 10
3973.534691859658
 20
1391.199998557594
 11
3973.284691818658
 21
1391.199998557594
  0
LINE
  5
240
100
AcDbEntity
  8
0
  6
CONTINUOUS
 62
           3
100
AcDbLine
 10
3967.284691766471
 20
1391.199998557594
 11
3967.034691725471
 21
1391.199998557594
  0
LINE
  5
23F
100
AcDbEntity
  8
0
  6
CONTINUOUS
 62
           3
100
AcDbLine
 10
3967.034691725471
 20
1548.799999058066
 11
3967.284691766471
 21
1548.799999058066
  0
LINE
  5
23E
100
AcDbEntity
  8
0
  6
CONTINUOUS
 62
           3
100
AcDbLine
 10
3973.284691818658
 20
1548.799999058066
 11
3973.534691859658
 21
1548.799999058066
  0
LINE
  5
23D
100
AcDbEntity
  8
0
  6
CONTINUOUS
 62
           3
100
AcDbLine
 10
3967.034691725471
 20
1550.000000744964
 11
3967.284691766471
 21
1550.000000744964
  0
LINE
  5
23C
100
AcDbEntity
  8
0
  6
CONTINUOUS
 62
           3
100
AcDbLine
 10
3973.284691818658
 20
1550.000000744964
 11
3973.534691859658
 21
1550.000000744964
  0
LINE
  5
23B
100
AcDbEntity
  8
0
  6
CONTINUOUS
 62
           3
100
AcDbLine
 10
4030.284690451515
 20
1391.199998557594
 11
4030.284690451515
 21
1391.699999570792
  0
LINE
  5
23A
100
AcDbEntity
  8
0
  6
CONTINUOUS
 62
           3
100
AcDbLine
 10
3910.284693133609
 20
1391.199998557594
 11
3910.284693133609
 21
1391.699999570792
  0
LINE
  5
239
100
AcDbEntity
  8
0
  6
CONTINUOUS
 62
           3
100
AcDbLine
 10
3910.284693133609
 20
1548.799999058066
 11
3910.284693133609
 21
1548.300001770266
  0
LINE
  5
238
100
AcDbEntity
  8
0
  6
CONTINUOUS
 62
           3
100
AcDbLine
 10
4030.284690451515
 20
1548.799999058066
 11
4030.284690451515
 21
1548.300001770266
  0
LINE
  5
237
100
AcDbEntity
  8
0
  6
CONTINUOUS
 62
           3
100
AcDbLine
 10
4030.284690451515
 20
1529.999999329481
 11
4028.584691476519
 21
1529.999999329481
  0
LINE
  5
236
100
AcDbEntity
  8
0
  6
CONTINUOUS
 62
           3
100
AcDbLine
 10
4030.284690451515
 20
1509.999999776396
 11
4030.284690451515
 21
1529.999999329481
  0
LINE
  5
235
100
AcDbEntity
  8
0
  6
CONTINUOUS
 62
           3
100
AcDbLine
 10
4028.584691476519
 20
1509.999999776396
 11
4030.209499191916
 21
1509.999999776396
  0
LINE
  5
234
100
AcDbEntity
  8
0
  6
CONTINUOUS
 62
           3
100
AcDbLine
 10
3912.284693461609
 20
1532.00000151988
 11
3910.284693133609
 21
1532.00000151988
  0
LINE
  5
233
100
AcDbEntity
  8
0
  6
CONTINUOUS
 62
           3
100
AcDbLine
 10
3910.284693133609
 20
1548.300001770266
 11
3910.284693133609
 21
1532.00000151988
  0
LINE
  5
232
100
AcDbEntity
  8
0
  6
CONTINUOUS
 62
           3
100
AcDbLine
 10
4030.284690451515
 20
1548.300001770266
 11
4030.284690451515
 21
1532.00000151988
  0
LINE
  5
231
100
AcDbEntity
  8
0
  6
CONTINUOUS
 62
           3
100
AcDbLine
 10
4028.284690123517
 20
1532.00000151988
 11
4030.284690451515
 21
1532.00000151988
  0
LINE
  5
230
100
AcDbEntity
  8
0
  6
CONTINUOUS
 62
           3
100
AcDbLine
 10
4028.584691476519
 20
1529.999999329481
 11
4028.284690123517
 21
1529.999999329481
  0
LINE
  5
22F
100
AcDbEntity
  8
0
  6
CONTINUOUS
 62
           3
100
AcDbLine
 10
4028.284690123517
 20
1509.999999776396
 11
4028.584691476519
 21
1509.999999776396
  0
LINE
  5
22E
100
AcDbEntity
  8
0
  6
CONTINUOUS
 62
           3
100
AcDbLine
 10
4030.284690451515
 20
1508.000000379901
 11
4028.284690123517
 21
1508.000000379901
  0
LINE
  5
22D
100
AcDbEntity
  8
0
  6
CONTINUOUS
 62
           3
100
AcDbLine
 10
4030.284690451515
 20
1508.000000379901
 11
4030.284690451515
 21
1431.99999630456
  0
LINE
  5
22C
100
AcDbEntity
  8
0
  6
CONTINUOUS
 62
           3
100
AcDbLine
 10
4030.284690451515
 20
1431.99999630456
 11
4028.284690123517
 21
1431.99999630456
  0
LINE
  5
22B
100
AcDbEntity
  8
0
  6
CONTINUOUS
 62
           3
100
AcDbLine
 10
4028.284690123517
 20
1429.999999701963
 11
4028.584691476519
 21
1429.999999701963
  0
LINE
  5
22A
100
AcDbEntity
  8
0
  6
CONTINUOUS
 62
           3
100
AcDbLine
 10
4028.584691476519
 20
1409.99999642378
 11
4028.284690123517
 21
1409.99999642378
  0
LINE
  5
229
100
AcDbEntity
  8
0
  6
CONTINUOUS
 62
           3
100
AcDbLine
 10
4028.284690123517
 20
1407.999999821184
 11
4030.284690451515
 21
1407.999999821184
  0
LINE
  5
228
100
AcDbEntity
  8
0
  6
CONTINUOUS
 62
           3
100
AcDbLine
 10
4030.284690451515
 20
1391.699999570792
 11
4030.284690451515
 21
1407.999999821184
  0
LINE
  5
227
100
AcDbEntity
  8
0
  6
CONTINUOUS
 62
           3
100
AcDbLine
 10
3910.284693133609
 20
1391.699999570792
 11
3910.284693133609
 21
1407.999999821184
  0
LINE
  5
226
100
AcDbEntity
  8
0
  6
CONTINUOUS
 62
           3
100
AcDbLine
 10
3912.284693461609
 20
1407.999999821184
 11
3910.284693133609
 21
1407.999999821184
  0
LINE
  5
225
100
AcDbEntity
  8
0
  6
CONTINUOUS
 62
           3
100
AcDbLine
 10
3911.98469210861
 20
1409.99999642378
 11
3912.284693461609
 21
1409.99999642378
  0
LINE
  5
224
100
AcDbEntity
  8
0
  6
CONTINUOUS
 62
           3
100
AcDbLine
 10
3912.284693461609
 20
1429.999999701963
 11
3911.98469210861
 21
1429.999999701963
  0
LINE
  5
223
100
AcDbEntity
  8
0
  6
CONTINUOUS
 62
           3
100
AcDbLine
 10
3910.284693133609
 20
1431.99999630456
 11
3912.284693461609
 21
1431.99999630456
  0
LINE
  5
222
100
AcDbEntity
  8
0
  6
CONTINUOUS
 62
           3
100
AcDbLine
 10
3910.284693133609
 20
1508.000000379901
 11
3910.284693133609
 21
1431.99999630456
  0
LINE
  5
221
100
AcDbEntity
  8
0
  6
CONTINUOUS
 62
           3
100
AcDbLine
 10
3910.284693133609
 20
1508.000000379901
 11
3912.284693461609
 21
1508.000000379901
  0
LINE
  5
220
100
AcDbEntity
  8
0
  6
CONTINUOUS
 62
           3
100
AcDbLine
 10
3912.284693461609
 20
1509.999999776396
 11
3911.98469210861
 21
1509.999999776396
  0
LINE
  5
21F
100
AcDbEntity
  8
0
  6
CONTINUOUS
 62
           3
100
AcDbLine
 10
3911.98469210861
 20
1529.999999329481
 11
3912.284693461609
 21
1529.999999329481
  0
LINE
  5
21E
100
AcDbEntity
  8
0
  6
CONTINUOUS
 62
           3
100
AcDbLine
 10
3910.284693133609
 20
1429.999999701963
 11
3910.284693133609
 21
1409.99999642378
  0
LINE
  5
21D
100
AcDbEntity
  8
0
  6
CONTINUOUS
 62
           3
100
AcDbLine
 10
3911.98469210861
 20
1429.999999701963
 11
3910.284693133609
 21
1429.999999701963
  0
LINE
  5
21C
100
AcDbEntity
  8
0
  6
CONTINUOUS
 62
           3
100
AcDbLine
 10
3910.359884393218
 20
1409.99999642378
 11
3911.98469210861
 21
1409.99999642378
  0
LINE
  5
21B
100
AcDbEntity
  8
0
  6
CONTINUOUS
 62
           3
100
AcDbLine
 10
3911.98469210861
 20
1509.999999776396
 11
3910.359884393218
 21
1509.999999776396
  0
LINE
  5
21A
100
AcDbEntity
  8
0
  6
CONTINUOUS
 62
           3
100
AcDbLine
 10
3910.284693133609
 20
1509.999999776396
 11
3910.284693133609
 21
1529.999999329481
  0
LINE
  5
219
100
AcDbEntity
  8
0
  6
CONTINUOUS
 62
           3
100
AcDbLine
 10
3910.284693133609
 20
1529.999999329481
 11
3911.98469210861
 21
1529.999999329481
  0
LINE
  5
218
100
AcDbEntity
  8
0
  6
CONTINUOUS
 62
           3
100
AcDbLine
 10
4030.284690451515
 20
1429.999999701963
 11
4030.284690451515
 21
1409.99999642378
  0
LINE
  5
217
100
AcDbEntity
  8
0
  6
CONTINUOUS
 62
           3
100
AcDbLine
 10
4028.584691476519
 20
1429.999999701963
 11
4030.284690451515
 21
1429.999999701963
  0
LINE
  5
216
100
AcDbEntity
  8
0
  6
CONTINUOUS
 62
           3
100
AcDbLine
 10
4030.209499191916
 20
1409.99999642378
 11
4028.584691476519
 21
1409.99999642378
  0
LINE
  5
215
100
AcDbEntity
  8
0
  6
CONTINUOUS
 62
           3
100
AcDbLine
 10
3917.284692418608
 20
1364.999994635816
 11
3917.284692418608
 21
1366.600006818714
  0
LINE
  5
214
100
AcDbEntity
  8
0
  6
CONTINUOUS
 62
           3
100
AcDbLine
 10
3915.284692090607
 20
1364.999994635816
 11
3917.284692418608
 21
1364.999994635816
  0
LINE
  5
213
100
AcDbEntity
  8
0
  6
CONTINUOUS
 62
           3
100
AcDbLine
 10
3917.284692418608
 20
1366.600006818714
 11
3915.284692090607
 21
1366.600006818714
  0
LINE
  5
212
100
AcDbEntity
  8
0
  6
CONTINUOUS
 62
           3
100
AcDbLine
 10
3915.284692090607
 20
1635.000005364197
 11
3917.284692418608
 21
1635.000005364197
  0
LINE
  5
211
100
AcDbEntity
  8
0
  6
CONTINUOUS
 62
           3
100
AcDbLine
 10
3917.284692418608
 20
1635.000005364197
 11
3917.284692418608
 21
1633.399993180997
  0
LINE
  5
210
100
AcDbEntity
  8
0
  6
CONTINUOUS
 62
           3
100
AcDbLine
 10
3917.284692418608
 20
1633.399993180997
 11
3915.284692090607
 21
1633.399993180997
  0
LINE
  5
20F
100
AcDbEntity
  8
0
  6
CONTINUOUS
 62
           3
100
AcDbLine
 10
3923.284693401998
 20
1633.399993180997
 11
3923.284693401998
 21
1635.000005364197
  0
LINE
  5
20E
100
AcDbEntity
  8
0
  6
CONTINUOUS
 62
           3
100
AcDbLine
 10
3923.284693401998
 20
1635.000005364197
 11
3925.284690004598
 21
1635.000005364197
  0
LINE
  5
20D
100
AcDbEntity
  8
0
  6
CONTINUOUS
 62
           3
100
AcDbLine
 10
3925.284690004598
 20
1633.399993180997
 11
3923.284693401998
 21
1633.399993180997
  0
LINE
  5
20C
100
AcDbEntity
  8
0
  6
CONTINUOUS
 62
           3
100
AcDbLine
 10
3923.284693401998
 20
1364.999994635816
 11
3925.284690004598
 21
1364.999994635816
  0
LINE
  5
20B
100
AcDbEntity
  8
0
  6
CONTINUOUS
 62
           3
100
AcDbLine
 10
3923.284693401998
 20
1366.600006818714
 11
3923.284693401998
 21
1364.999994635816
  0
LINE
  5
20A
100
AcDbEntity
  8
0
  6
CONTINUOUS
 62
           3
100
AcDbLine
 10
3925.284690004598
 20
1366.600006818714
 11
3923.284693401998
 21
1366.600006818714
  0
LINE
  5
209
100
AcDbEntity
  8
0
  6
CONTINUOUS
 62
           3
100
AcDbLine
 10
3925.284690004598
 20
1364.999994635816
 11
4015.284693580526
 21
1364.999994635816
  0
LINE
  5
208
100
AcDbEntity
  8
0
  6
CONTINUOUS
 62
           3
100
AcDbLine
 10
3925.284690004598
 20
1366.600006818714
 11
4015.284693580526
 21
1366.600006818714
  0
LINE
  5
207
100
AcDbEntity
  8
0
  6
CONTINUOUS
 62
           3
100
AcDbLine
 10
3925.284690004598
 20
1635.000005364197
 11
4015.284693580526
 21
1635.000005364197
  0
LINE
  5
206
100
AcDbEntity
  8
0
  6
CONTINUOUS
 62
           3
100
AcDbLine
 10
3925.284690004598
 20
1633.399993180997
 11
4015.284693580526
 21
1633.399993180997
  0
LINE
  5
205
100
AcDbEntity
  8
0
  6
CONTINUOUS
 62
           3
100
AcDbLine
 10
3910.284693133609
 20
1366.600006818714
 11
3910.284693133609
 21
1364.999994635816
  0
LINE
  5
204
100
AcDbEntity
  8
0
  6
CONTINUOUS
 62
           3
100
AcDbLine
 10
3910.284693133609
 20
1364.999994635816
 11
3915.284692090607
 21
1364.999994635816
  0
LINE
  5
203
100
AcDbEntity
  8
0
  6
CONTINUOUS
 62
           3
100
AcDbLine
 10
3915.284692090607
 20
1366.600006818714
 11
3910.284693133609
 21
1366.600006818714
  0
LINE
  5
202
100
AcDbEntity
  8
0
  6
CONTINUOUS
 62
           3
100
AcDbLine
 10
3910.284693133609
 20
1633.399993180997
 11
3910.284693133609
 21
1635.000005364197
  0
LINE
  5
201
100
AcDbEntity
  8
0
  6
CONTINUOUS
 62
           3
100
AcDbLine
 10
3910.284693133609
 20
1635.000005364197
 11
3915.284692090607
 21
1635.000005364197
  0
LINE
  5
200
100
AcDbEntity
  8
0
  6
CONTINUOUS
 62
           3
100
AcDbLine
 10
3915.284692090607
 20
1633.399993180997
 11
3910.284693133609
 21
1633.399993180997
  0
LINE
  5
1FF
100
AcDbEntity
  8
0
  6
CONTINUOUS
 62
           3
100
AcDbLine
 10
4023.284691166815
 20
1635.000005364197
 11
4023.284691166815
 21
1633.399993180997
  0
LINE
  5
1FE
100
AcDbEntity
  8
0
  6
CONTINUOUS
 62
           3
100
AcDbLine
 10
4025.284691494517
 20
1635.000005364197
 11
4023.284691166815
 21
1635.000005364197
  0
LINE
  5
1FD
100
AcDbEntity
  8
0
  6
CONTINUOUS
 62
           3
100
AcDbLine
 10
4023.284691166815
 20
1633.399993180997
 11
4025.284691494517
 21
1633.399993180997
  0
LINE
  5
1FC
100
AcDbEntity
  8
0
  6
CONTINUOUS
 62
           3
100
AcDbLine
 10
4023.284691166815
 20
1364.999994635816
 11
4023.284691166815
 21
1366.600006818714
  0
LINE
  5
1FB
100
AcDbEntity
  8
0
  6
CONTINUOUS
 62
           3
100
AcDbLine
 10
4025.284691494517
 20
1364.999994635816
 11
4023.284691166815
 21
1364.999994635816
  0
LINE
  5
1FA
100
AcDbEntity
  8
0
  6
CONTINUOUS
 62
           3
100
AcDbLine
 10
4023.284691166815
 20
1366.600006818714
 11
4025.284691494517
 21
1366.600006818714
  0
LINE
  5
1F9
100
AcDbEntity
  8
0
  6
CONTINUOUS
 62
           3
100
AcDbLine
 10
4017.284690183128
 20
1633.399993180997
 11
4017.284690183128
 21
1635.000005364197
  0
LINE
  5
1F8
100
AcDbEntity
  8
0
  6
CONTINUOUS
 62
           3
100
AcDbLine
 10
4017.284690183128
 20
1635.000005364197
 11
4015.284693580526
 21
1635.000005364197
  0
LINE
  5
1F7
100
AcDbEntity
  8
0
  6
CONTINUOUS
 62
           3
100
AcDbLine
 10
4015.284693580526
 20
1633.399993180997
 11
4017.284690183128
 21
1633.399993180997
  0
LINE
  5
1F6
100
AcDbEntity
  8
0
  6
CONTINUOUS
 62
           3
100
AcDbLine
 10
4017.284690183128
 20
1366.600006818714
 11
4017.284690183128
 21
1364.999994635816
  0
LINE
  5
1F5
100
AcDbEntity
  8
0
  6
CONTINUOUS
 62
           3
100
AcDbLine
 10
4017.284690183128
 20
1364.999994635816
 11
4015.284693580526
 21
1364.999994635816
  0
LINE
  5
1F4
100
AcDbEntity
  8
0
  6
CONTINUOUS
 62
           3
100
AcDbLine
 10
4015.284693580526
 20
1366.600006818714
 11
4017.284690183128
 21
1366.600006818714
  0
LINE
  5
1F3
100
AcDbEntity
  8
0
  6
CONTINUOUS
 62
           3
100
AcDbLine
 10
4030.284690451515
 20
1366.600006818714
 11
4030.284690451515
 21
1364.999994635816
  0
LINE
  5
1F2
100
AcDbEntity
  8
0
  6
CONTINUOUS
 62
           3
100
AcDbLine
 10
4030.284690451515
 20
1364.999994635816
 11
4025.284691494517
 21
1364.999994635816
  0
LINE
  5
1F1
100
AcDbEntity
  8
0
  6
CONTINUOUS
 62
           3
100
AcDbLine
 10
4025.284691494517
 20
1366.600006818714
 11
4030.284690451515
 21
1366.600006818714
  0
LINE
  5
1F0
100
AcDbEntity
  8
0
  6
CONTINUOUS
 62
           3
100
AcDbLine
 10
4030.284690451515
 20
1633.399993180997
 11
4030.284690451515
 21
1635.000005364197
  0
LINE
  5
1EF
100
AcDbEntity
  8
0
  6
CONTINUOUS
 62
           3
100
AcDbLine
 10
4030.284690451515
 20
1635.000005364197
 11
4025.284691494517
 21
1635.000005364197
  0
LINE
  5
1EE
100
AcDbEntity
  8
0
  6
CONTINUOUS
 62
           3
100
AcDbLine
 10
4025.284691494517
 20
1633.399993180997
 11
4030.284690451515
 21
1633.399993180997
  0
LINE
  5
1ED
100
AcDbEntity
  8
0
  6
CONTINUOUS
 62
           3
100
AcDbLine
 10
4030.284690451515
 20
1633.399993180997
 11
4030.284690451515
 21
1632.699996232995
  0
LINE
  5
1EC
100
AcDbEntity
  8
0
  6
CONTINUOUS
 62
           3
100
AcDbLine
 10
3910.284693133609
 20
1633.399993180997
 11
3910.284693133609
 21
1632.699996232995
  0
LINE
  5
1EB
100
AcDbEntity
  8
0
  6
CONTINUOUS
 62
           3
100
AcDbLine
 10
4030.284690451515
 20
1366.600006818714
 11
4030.284690451515
 21
1367.300003767015
  0
LINE
  5
1EA
100
AcDbEntity
  8
0
  6
CONTINUOUS
 62
           3
100
AcDbLine
 10
3910.284693133609
 20
1366.600006818714
 11
3910.284693133609
 21
1367.300003767015
  0
LINE
  5
1E9
100
AcDbEntity
  8
0
  6
CONTINUOUS
 62
           3
100
AcDbLine
 10
3889.884694260128
 20
1364.999994635816
 11
3887.784688514228
 21
1364.999994635816
  0
LINE
  5
1E8
100
AcDbEntity
  8
0
  6
CONTINUOUS
 62
           3
100
AcDbLine
 10
3887.784688514228
 20
1635.000005364197
 11
3887.784688514228
 21
1364.999994635816
  0
LINE
  5
1E7
100
AcDbEntity
  8
0
  6
CONTINUOUS
 62
           3
100
AcDbLine
 10
3889.884694260128
 20
1635.000005364197
 11
3887.784688514228
 21
1635.000005364197
  0
LINE
  5
1E6
100
AcDbEntity
  8
0
  6
CONTINUOUS
 62
           3
100
AcDbLine
 10
4031.784693491119
 20
1490.000000223613
 11
4030.284690451515
 21
1490.000000223613
  0
LINE
  5
1E5
100
AcDbEntity
  8
0
  6
CONTINUOUS
 62
           3
100
AcDbLine
 10
4028.78469113702
 20
1431.99999630456
 11
4028.78469113702
 21
1429.999999701963
  0
LINE
  5
1E4
100
AcDbEntity
  8
0
  6
CONTINUOUS
 62
           3
100
AcDbLine
 10
4030.209499191916
 20
1409.99999642378
 11
4031.784693491119
 21
1409.99999642378
  0
LINE
  5
1E3
100
AcDbEntity
  8
0
  6
CONTINUOUS
 62
           3
100
AcDbLine
 10
4031.784693491119
 20
1409.99999642378
 11
4031.784693491119
 21
1490.000000223613
  0
LINE
  5
1E2
100
AcDbEntity
  8
0
  6
CONTINUOUS
 62
           3
100
AcDbLine
 10
4028.78469113702
 20
1590.000003576232
 11
4031.784693491119
 21
1590.000003576232
  0
LINE
  5
1E1
100
AcDbEntity
  8
0
  6
CONTINUOUS
 62
           3
100
AcDbLine
 10
4028.78469113702
 20
1529.999999329481
 11
4028.78469113702
 21
1532.00000151988
  0
LINE
  5
1E0
100
AcDbEntity
  8
0
  6
CONTINUOUS
 62
           3
100
AcDbLine
 10
4028.78469113702
 20
1550.000000744964
 11
4028.78469113702
 21
1590.000003576232
  0
LINE
  5
1DF
100
AcDbEntity
  8
0
  6
CONTINUOUS
 62
           3
100
AcDbLine
 10
4031.784693491119
 20
1509.999999776396
 11
4030.209499191916
 21
1509.999999776396
  0
LINE
  5
1DE
100
AcDbEntity
  8
0
  6
CONTINUOUS
 62
           3
100
AcDbLine
 10
4031.784693491119
 20
1590.000003576232
 11
4031.784693491119
 21
1509.999999776396
  0
LINE
  5
1DD
100
AcDbEntity
  8
0
  6
CONTINUOUS
 62
           3
100
AcDbLine
 10
3910.359884393218
 20
1409.99999642378
 11
3908.784690094018
 21
1409.99999642378
  0
LINE
  5
1DC
100
AcDbEntity
  8
0
  6
CONTINUOUS
 62
           3
100
AcDbLine
 10
3911.784692448411
 20
1431.99999630456
 11
3911.784692448411
 21
1429.999999701963
  0
LINE
  5
1DB
100
AcDbEntity
  8
0
  6
CONTINUOUS
 62
           3
100
AcDbLine
 10
3908.784690094018
 20
1490.000000223613
 11
3910.284693133609
 21
1490.000000223613
  0
LINE
  5
1DA
100
AcDbEntity
  8
0
  6
CONTINUOUS
 62
           3
100
AcDbLine
 10
3908.784690094018
 20
1409.99999642378
 11
3908.784690094018
 21
1490.000000223613
  0
LINE
  5
1D9
100
AcDbEntity
  8
0
  6
CONTINUOUS
 62
           3
100
AcDbLine
 10
3910.284693133609
 20
1368.000000715314
 11
3910.284693133609
 21
1367.300003767015
  0
LINE
  5
1D8
100
AcDbEntity
  8
0
  6
CONTINUOUS
 62
           3
100
AcDbLine
 10
3905.284694176915
 20
1364.999994635816
 11
3905.284694176915
 21
1368.000000715314
  0
LINE
  5
1D7
100
AcDbEntity
  8
0
  6
CONTINUOUS
 62
           3
100
AcDbLine
 10
3905.284694176915
 20
1635.000005364197
 11
3889.884694260128
 21
1635.000005364197
  0
LINE
  5
1D6
100
AcDbEntity
  8
0
  6
CONTINUOUS
 62
           3
100
AcDbLine
 10
3905.284694176915
 20
1635.000005364197
 11
3905.284694176915
 21
1631.999999284697
  0
LINE
  5
1D5
100
AcDbEntity
  8
0
  6
CONTINUOUS
 62
           3
100
AcDbLine
 10
3910.284693133609
 20
1631.999999284697
 11
3910.284693133609
 21
1632.699996232995
  0
LINE
  5
1D4
100
AcDbEntity
  8
0
  6
CONTINUOUS
 62
           3
100
AcDbLine
 10
4030.284690451515
 20
1631.999999284697
 11
4030.284690451515
 21
1632.699996232995
  0
LINE
  5
1D3
100
AcDbEntity
  8
0
  6
CONTINUOUS
 62
           3
100
AcDbLine
 10
4035.284689408208
 20
1635.000005364197
 11
4035.284689408208
 21
1631.999999284697
  0
LINE
  5
1D2
100
AcDbEntity
  8
0
  6
CONTINUOUS
 62
           3
100
AcDbLine
 10
4035.284689408208
 20
1364.999994635816
 11
4035.284689408208
 21
1368.000000715314
  0
LINE
  5
1D1
100
AcDbEntity
  8
0
  6
CONTINUOUS
 62
           3
100
AcDbLine
 10
4030.284690451515
 20
1368.000000715314
 11
4030.284690451515
 21
1367.300003767015
  0
LINE
  5
1D0
100
AcDbEntity
  8
0
  6
CONTINUOUS
 62
           3
100
AcDbLine
 10
3908.784690094018
 20
1509.999999776396
 11
3910.359884393218
 21
1509.999999776396
  0
LINE
  5
1CF
100
AcDbEntity
  8
0
  6
CONTINUOUS
 62
           3
100
AcDbLine
 10
3911.784692448411
 20
1529.999999329481
 11
3911.784692448411
 21
1532.00000151988
  0
LINE
  5
1CE
100
AcDbEntity
  8
0
  6
CONTINUOUS
 62
           3
100
AcDbLine
 10
3911.784692448411
 20
1550.000000744964
 11
3911.784692448411
 21
1590.000003576232
  0
LINE
  5
1CD
100
AcDbEntity
  8
0
  6
CONTINUOUS
 62
           3
100
AcDbLine
 10
3911.784692448411
 20
1590.000003576232
 11
3908.784690094018
 21
1590.000003576232
  0
LINE
  5
1CC
100
AcDbEntity
  8
0
  6
CONTINUOUS
 62
           3
100
AcDbLine
 10
3908.784690094018
 20
1590.000003576232
 11
3908.784690094018
 21
1509.999999776396
  0
LINE
  5
1CB
100
AcDbEntity
  8
0
  6
CONTINUOUS
 62
           3
100
AcDbLine
 10
3905.284694176915
 20
1364.999994635816
 11
3889.884694260128
 21
1364.999994635816
  0
LINE
  5
1CA
100
AcDbEntity
  8
FORMAT
  6
DOT_CENTER
 62
           3
100
AcDbLine
 10
3895.384691792527
 20
1625.000000000001
 11
3881.784691792639
 21
1625.000000000001
  0
LINE
  5
1C9
100
AcDbEntity
  8
FORMAT
  6
DOT_CENTER
 62
           3
100
AcDbLine
 10
3895.384691792527
 20
1375.000000000008
 11
3881.784691792639
 21
1375.000000000008
  0
LINE
  5
1C8
100
AcDbEntity
  8
FORMAT
  6
CONTINUOUS
 62
           3
100
AcDbLine
 10
3984.28469179265
 20
1392.596845102893
 11
3973.784691792659
 21
1392.596845102893
  0
LINE
  5
1C7
100
AcDbEntity
  8
FORMAT
  6
CONTINUOUS
 62
           3
100
AcDbLine
 10
3973.784691792659
 20
1392.596845102893
 11
3966.784691792468
 21
1392.596845102893
  0
LINE
  5
1C6
100
AcDbEntity
  8
FORMAT
  6
DOT_CENTER
 62
           3
100
AcDbLine
 10
3970.28469179257
 20
1249.759397252256
 11
3970.28469179257
 21
1725.394390768569
  0
LINE
  5
1C5
100
AcDbEntity
  8
FORMAT
  6
CONTINUOUS
 62
           3
100
AcDbLine
 10
3966.784691792468
 20
1392.596845102893
 11
3956.284691792479
 21
1392.596845102893
  0
LINE
  5
1C4
100
AcDbEntity
  8
0
  6
CONTINUOUS
 62
           3
100
AcDbLine
 10
3970.28469179257
 20
1393.131740391394
 11
3971.339965020069
 21
1393.116392195193
  0
LINE
  5
1C3
100
AcDbEntity
  8
0
  6
CONTINUOUS
 62
           3
100
AcDbLine
 10
3971.339965020069
 20
1393.116392195193
 11
3972.280883010957
 21
1393.072016537194
  0
LINE
  5
1C2
100
AcDbEntity
  8
0
  6
CONTINUOUS
 62
           3
100
AcDbLine
 10
3972.280883010957
 20
1393.072016537194
 11
3973.005482940658
 21
1393.003411590992
  0
LINE
  5
1C1
100
AcDbEntity
  8
0
  6
CONTINUOUS
 62
           3
100
AcDbLine
 10
3973.005482940658
 20
1393.003411590992
 11
3973.435242673857
 21
1392.918020486793
  0
LINE
  5
1C0
100
AcDbEntity
  8
0
  6
CONTINUOUS
 62
           3
100
AcDbLine
 10
3973.435242673857
 20
1392.918020486793
 11
3973.523591425857
 21
1392.825089394993
  0
LINE
  5
1BF
100
AcDbEntity
  8
0
  6
CONTINUOUS
 62
           3
100
AcDbLine
 10
3973.523591425857
 20
1392.825089394993
 11
3973.284691818658
 21
1392.739541828794
  0
LINE
  5
1BE
100
AcDbEntity
  8
0
  6
CONTINUOUS
 62
           3
100
AcDbLine
 10
3967.284691766471
 20
1392.739541828794
 11
3967.045792159267
 21
1392.825089394993
  0
LINE
  5
1BD
100
AcDbEntity
  8
0
  6
CONTINUOUS
 62
           3
100
AcDbLine
 10
3967.045792159267
 20
1392.825089394993
 11
3967.134140911271
 21
1392.918020486793
  0
LINE
  5
1BC
100
AcDbEntity
  8
0
  6
CONTINUOUS
 62
           3
100
AcDbLine
 10
3967.134140911271
 20
1392.918020486793
 11
3967.563900644468
 21
1393.003411590992
  0
LINE
  5
1BB
100
AcDbEntity
  8
0
  6
CONTINUOUS
 62
           3
100
AcDbLine
 10
3967.563900644468
 20
1393.003411590992
 11
3968.28850057417
 21
1393.072016537194
  0
LINE
  5
1BA
100
AcDbEntity
  8
0
  6
CONTINUOUS
 62
           3
100
AcDbLine
 10
3968.28850057417
 20
1393.072016537194
 11
3969.229418565068
 21
1393.116392195193
  0
LINE
  5
1B9
100
AcDbEntity
  8
0
  6
CONTINUOUS
 62
           3
100
AcDbLine
 10
3969.229418565068
 20
1393.116392195193
 11
3970.28469179257
 21
1393.131740391394
  0
LINE
  5
1B8
100
AcDbEntity
  8
1
  6
CONTINUOUS
 62
           3
100
AcDbLine
 10
4474.548262761937
 20
1919.128165004935
 11
4469.639025489528
 21
1919.128165004935
  0
LINE
  5
1B7
100
AcDbEntity
  8
1
  6
DOT_CENTER
 62
           3
100
AcDbLine
 10
4474.548262761937
 20
1938.643555804875
 11
4474.548262761937
 21
1907.508008255126
  0
LINE
  5
1B6
100
AcDbEntity
  8
1
  6
CONTINUOUS
 62
           3
100
AcDbLine
 10
4469.639025489528
 20
1930.87183499507
 11
4474.548262761937
 21
1930.87183499507
  0
LINE
  5
1B5
100
AcDbEntity
  8
1
  6
CONTINUOUS
 62
           3
100
AcDbLine
 10
4469.639025489528
 20
1932.693746580041
 11
4463.773909942837
 21
1932.693746580041
  0
LINE
  5
1B4
100
AcDbEntity
  8
1
  6
CONTINUOUS
 62
           3
100
AcDbLine
 10
4469.639025489528
 20
1917.306253419961
 11
4463.773909942837
 21
1917.306253419961
  0
LINE
  5
1B3
100
AcDbEntity
  8
1
  6
CONTINUOUS
 62
           3
100
AcDbLine
 10
4469.639025489528
 20
1917.306253419961
 11
4469.639025489528
 21
1932.693746580041
  0
LINE
  5
1B2
100
AcDbEntity
  8
1
  6
CONTINUOUS
 62
           3
100
AcDbLine
 10
4463.773909942837
 20
1917.306253419961
 11
4463.773909942837
 21
1932.693746580041
  0
LINE
  5
1B1
100
AcDbEntity
  8
1
  6
CONTINUOUS
 62
           3
100
AcDbLine
 10
4463.773909942837
 20
1932.693746580041
 11
4463.773909942837
 21
1933.250000000001
  0
LINE
  5
1B0
100
AcDbEntity
  8
1
  6
CONTINUOUS
 62
           3
100
AcDbLine
 10
4454.099298977538
 20
1925.000000000001
 11
4454.099298977538
 21
1933.250000000001
  0
LINE
  5
1AF
100
AcDbEntity
  8
1
  6
CONTINUOUS
 62
           3
100
AcDbLine
 10
4454.099298977538
 20
1933.250000000001
 11
4463.773909942837
 21
1933.250000000001
  0
LINE
  5
1AE
100
AcDbEntity
  8
1
  6
CONTINUOUS
 62
           3
100
AcDbLine
 10
4453.253493455356
 20
1931.000000000001
 11
4454.099298977538
 21
1931.000000000001
  0
LINE
  5
1AD
100
AcDbEntity
  8
1
  6
CONTINUOUS
 62
           3
100
AcDbLine
 10
4453.253493455356
 20
1925.000000000001
 11
4453.253493455356
 21
1932.693746580041
  0
LINE
  5
1AC
100
AcDbEntity
  8
1
  6
CONTINUOUS
 62
           3
100
AcDbLine
 10
4452.548262761937
 20
1932.693746580041
 11
4453.253493455356
 21
1932.693746580041
  0
LINE
  5
1AB
100
AcDbEntity
  8
1
  6
CONTINUOUS
 62
           3
100
AcDbLine
 10
4452.048262761937
 20
1932.193746580041
 11
4452.048262761937
 21
1925.000000000001
  0
LINE
  5
1AA
100
AcDbEntity
  8
1
  6
CONTINUOUS
 62
           3
100
AcDbLine
 10
4452.048262761937
 20
1925.000000000001
 11
4452.048262761937
 21
1917.806253419961
  0
LINE
  5
1A9
100
AcDbEntity
  8
1
  6
CONTINUOUS
 62
           3
100
AcDbLine
 10
4453.253493455356
 20
1917.306253419961
 11
4452.548262761937
 21
1917.306253419961
  0
LINE
  5
1A8
100
AcDbEntity
  8
1
  6
CONTINUOUS
 62
           3
100
AcDbLine
 10
4453.253493455356
 20
1917.306253419961
 11
4453.253493455356
 21
1925.000000000001
  0
LINE
  5
1A7
100
AcDbEntity
  8
1
  6
CONTINUOUS
 62
           3
100
AcDbLine
 10
4454.099298977538
 20
1919.000000000001
 11
4453.253493455356
 21
1919.000000000001
  0
LINE
  5
1A6
100
AcDbEntity
  8
1
  6
CONTINUOUS
 62
           3
100
AcDbLine
 10
4454.099298977538
 20
1916.750000000001
 11
4454.099298977538
 21
1925.000000000001
  0
LINE
  5
1A5
100
AcDbEntity
  8
1
  6
CONTINUOUS
 62
           3
100
AcDbLine
 10
4463.773909942837
 20
1916.750000000001
 11
4454.099298977538
 21
1916.750000000001
  0
LINE
  5
1A4
100
AcDbEntity
  8
1
  6
CONTINUOUS
 62
           3
100
AcDbLine
 10
4463.773909942837
 20
1916.750000000001
 11
4463.773909942837
 21
1917.306253419961
  0
LINE
  5
1A3
100
AcDbEntity
  8
1
  6
DOT_CENTER
 62
           3
100
AcDbLine
 10
4450.603214629516
 20
1925.000000000001
 11
4492.052390333335
 21
1925.000000000001
  0
LINE
  5
1A2
100
AcDbEntity
  8
1
  6
CONTINUOUS
 62
           3
100
AcDbLine
 10
4468.874222739124
 20
1917.306253419961
 11
4474.548262761937
 21
1914.030344885399
  0
LINE
  5
1A1
100
AcDbEntity
  8
1
  6
CONTINUOUS
 62
           3
100
AcDbLine
 10
4474.548262761937
 20
1914.030344885399
 11
4484.048262761937
 21
1919.515172442701
  0
LINE
  5
1A0
100
AcDbEntity
  8
1
  6
CONTINUOUS
 62
           3
100
AcDbLine
 10
4484.048262761937
 20
1919.515172442701
 11
4484.048262761937
 21
1930.484827557303
  0
LINE
  5
19F
100
AcDbEntity
  8
1
  6
CONTINUOUS
 62
           3
100
AcDbLine
 10
4484.048262761937
 20
1930.484827557303
 11
4474.548262761937
 21
1935.969655114604
  0
LINE
  5
19E
100
AcDbEntity
  8
1
  6
CONTINUOUS
 62
           3
100
AcDbLine
 10
4474.548262761937
 20
1935.969655114604
 11
4468.874222739117
 21
1932.693746580041
  0
LINE
  5
19D
100
AcDbEntity
  8
1
  6
CONTINUOUS
 62
           7
100
AcDbLine
 10
4999.384695070894
 20
2550.500000000002
 11
4999.384695070894
 21
2165.500000000002
  0
LINE
  5
19C
100
AcDbEntity
  8
1
  6
CONTINUOUS
 62
           2
100
AcDbLine
 10
4840.475284604891
 20
2537.000000000002
 11
4435.538644361541
 21
2537.000000000002
  0
LINE
  5
19B
100
AcDbEntity
  8
1
  6
CONTINUOUS
 62
           2
100
AcDbLine
 10
4840.475284604891
 20
2177.000000000002
 11
4840.475284604891
 21
2537.000000000002
  0
LINE
  5
19A
100
AcDbEntity
  8
1
  6
CONTINUOUS
 62
           2
100
AcDbLine
 10
4435.538644361541
 20
2177.000000000002
 11
4840.475284604891
 21
2177.000000000002
  0
LINE
  5
199
100
AcDbEntity
  8
1
  6
CONTINUOUS
 62
           2
100
AcDbLine
 10
4435.538644361541
 20
2537.000000000002
 11
4435.538644361541
 21
2177.000000000002
  0
LINE
  5
198
100
AcDbEntity
  8
1
  6
CONTINUOUS
 62
           4
100
AcDbLine
 10
4874.384695070894
 20
2587.199999999999
 11
4874.384695070894
 21
2589.500000000004
  0
LINE
  5
197
100
AcDbEntity
  8
1
  6
CONTINUOUS
 62
           4
100
AcDbLine
 10
4874.384695070894
 20
2589.500000000004
 11
4869.377758806501
 21
2594.500000000004
  0
LINE
  5
196
100
AcDbEntity
  8
1
  6
CONTINUOUS
 62
           4
100
AcDbLine
 10
4459.384695070894
 20
2594.500000000004
 11
4454.384695070894
 21
2589.500000000004
  0
LINE
  5
195
100
AcDbEntity
  8
1
  6
CONTINUOUS
 62
           4
100
AcDbLine
 10
4869.377758806501
 20
2594.500000000004
 11
4459.384695070894
 21
2594.500000000004
  0
LINE
  5
194
100
AcDbEntity
  8
1
  6
DOT_CENTER
 62
           2
100
AcDbLine
 10
4664.384695070894
 20
2049.37968411558
 11
4664.384695070894
 21
3003.483879124647
  0
LINE
  5
193
100
AcDbEntity
  8
1
  6
CONTINUOUS
 62
           7
100
AcDbLine
 10
5064.384695070894
 20
2132.500000000004
 11
5060.840052213752
 21
2127.500000000004
  0
LINE
  5
192
100
AcDbEntity
  8
1
  6
CONTINUOUS
 62
           7
100
AcDbLine
 10
5060.840052213752
 20
2587.199999999999
 11
5064.384695070894
 21
2582.199999999999
  0
LINE
  5
191
100
AcDbEntity
  8
1
  6
CONTINUOUS
 62
           7
100
AcDbLine
 10
5064.384695070894
 20
2132.500000000004
 11
5064.384695070894
 21
2165.500000000002
  0
LINE
  5
190
100
AcDbEntity
  8
1
  6
CONTINUOUS
 62
           7
100
AcDbLine
 10
4137.540322068622
 20
2165.500000000002
 11
4137.540322068623
 21
2127.500000000004
  0
LINE
  5
18F
100
AcDbEntity
  8
1
  6
CONTINUOUS
 62
           7
100
AcDbLine
 10
5060.840052213752
 20
2587.199999999999
 11
4756.384695070892
 21
2587.199999999999
  0
LINE
  5
18E
100
AcDbEntity
  8
1
  6
CONTINUOUS
 62
           7
100
AcDbLine
 10
4137.540322068623
 20
2587.199999999999
 11
4137.540322068623
 21
2550.500000000002
  0
LINE
  5
18D
100
AcDbEntity
  8
1
  6
CONTINUOUS
 62
           7
100
AcDbLine
 10
5064.38469507089
 20
2550.500000000002
 11
4137.540322068623
 21
2550.500000000002
  0
LINE
  5
18C
100
AcDbEntity
  8
1
  6
CONTINUOUS
 62
           4
100
AcDbLine
 10
4454.384695070894
 20
2589.500000000004
 11
4454.384695070894
 21
2587.199999999999
  0
LINE
  5
18B
100
AcDbEntity
  8
1
  6
DOT_CENTER
 62
           2
100
AcDbLine
 10
5199.841522565952
 20
2358.000000000002
 11
4107.165193834383
 21
2358.000000000002
  0
LINE
  5
18A
100
AcDbEntity
  8
7
  6
CONTINUOUS
 62
           7
100
AcDbLine
 10
4779.384695070894
 20
2865.000000000001
 11
4664.384695070894
 21
2865.000000000001
  0
LINE
  5
189
100
AcDbEntity
  8
7
  6
CONTINUOUS
 62
           7
100
AcDbLine
 10
4773.532538070896
 20
2932.329780999998
 11
4753.037543070894
 21
2947.40283
  0
LINE
  5
188
100
AcDbEntity
  8
7
  6
CONTINUOUS
 62
           7
100
AcDbLine
 10
4748.984695070895
 20
2951.999999999999
 11
4664.384695070894
 21
2951.999999999999
  0
LINE
  5
187
100
AcDbEntity
  8
7
  6
CONTINUOUS
 62
           7
100
AcDbLine
 10
4779.384695070894
 20
2892.537538373369
 11
4779.384695070894
 21
2865.000000000001
  0
LINE
  5
186
100
AcDbEntity
  8
7
  6
CONTINUOUS
 62
           7
100
AcDbLine
 10
4664.384695070894
 20
2865.000000000001
 11
4549.384695070894
 21
2865.000000000001
  0
LINE
  5
185
100
AcDbEntity
  8
7
  6
CONTINUOUS
 62
           7
100
AcDbLine
 10
4549.384695070894
 20
2892.537538373369
 11
4552.384695070894
 21
2927.299999999997
  0
LINE
  5
184
100
AcDbEntity
  8
7
  6
CONTINUOUS
 62
           7
100
AcDbLine
 10
4557.608661070894
 20
2930.861695999999
 11
4578.231848070896
 21
2947.40283
  0
LINE
  5
183
100
AcDbEntity
  8
7
  6
CONTINUOUS
 62
           7
100
AcDbLine
 10
4582.284695070895
 20
2951.999999999999
 11
4664.384695070894
 21
2951.999999999999
  0
LINE
  5
182
100
AcDbEntity
  8
2
  6
CONTINUOUS
 62
           7
100
AcDbLine
 10
4566.816053070895
 20
2596.500000000004
 11
4555.771031070894
 21
2621.700000000001
  0
LINE
  5
181
100
AcDbEntity
  8
2
  6
CONTINUOUS
 62
           7
100
AcDbLine
 10
4555.771031070894
 20
2853.500000000001
 11
4555.771031070894
 21
2621.700000000001
  0
LINE
  5
180
100
AcDbEntity
  8
2
  6
CONTINUOUS
 62
           7
100
AcDbLine
 10
4560.564154070893
 20
2865.000000000001
 11
4555.771031070894
 21
2853.500000000001
  0
LINE
  5
17F
100
AcDbEntity
  8
2
  6
CONTINUOUS
 62
           4
100
AcDbLine
 10
4757.634695070894
 20
2594.500000000004
 11
4757.634695070894
 21
2596.500000000004
  0
LINE
  5
17E
100
AcDbEntity
  8
2
  6
CONTINUOUS
 62
           7
100
AcDbLine
 10
4772.998359070895
 20
2853.500000000001
 11
4772.998359070895
 21
2621.700000000001
  0
LINE
  5
17D
100
AcDbEntity
  8
2
  6
CONTINUOUS
 62
           7
100
AcDbLine
 10
4772.998359070895
 20
2853.500000000001
 11
4768.205236070893
 21
2865.000000000001
  0
LINE
  5
17C
100
AcDbEntity
  8
2
  6
CONTINUOUS
 62
           4
100
AcDbLine
 10
4761.953337070894
 20
2596.500000000004
 11
4566.816053070895
 21
2596.500000000004
  0
LINE
  5
17B
100
AcDbEntity
  8
2
  6
CONTINUOUS
 62
           7
100
AcDbLine
 10
4772.998359070895
 20
2621.700000000001
 11
4761.953337070894
 21
2596.500000000004
  0
LINE
  5
17A
100
AcDbEntity
  8
7
  6
CONTINUOUS
 62
           7
100
AcDbLine
 10
4776.384695070894
 20
2927.111356999999
 11
4779.384695070894
 21
2892.537538373369
  0
LINE
  5
179
100
AcDbEntity
  8
7
  6
CONTINUOUS
 62
           7
100
AcDbLine
 10
4549.384695070894
 20
2865.000000000001
 11
4549.384695070894
 21
2892.537538373369
  0
LINE
  5
178
100
AcDbEntity
  8
2
  6
CONTINUOUS
 62
           4
100
AcDbLine
 10
4571.134695070894
 20
2596.500000000004
 11
4571.134695070894
 21
2594.500000000004
  0
LINE
  5
177
100
AcDbEntity
  8
1
  6
CONTINUOUS
 62
           7
100
AcDbLine
 10
4406.184695070895
 20
2127.500000000004
 11
4406.184695070895
 21
2081.000000000002
  0
LINE
  5
176
100
AcDbEntity
  8
1
  6
CONTINUOUS
 62
           7
100
AcDbLine
 10
4137.540322068623
 20
2127.500000000004
 11
4591.254607782905
 21
2127.500000000007
  0
LINE
  5
175
100
AcDbEntity
  8
1
  6
CONTINUOUS
 62
           7
100
AcDbLine
 10
4184.384695070888
 20
2550.500000000002
 11
4184.384695070888
 21
2165.500000000002
  0
LINE
  5
174
100
AcDbEntity
  8
1
  6
CONTINUOUS
 62
           7
100
AcDbLine
 10
4922.584695070895
 20
2081.000000000002
 11
4922.584695070895
 21
2127.500000000004
  0
LINE
  5
173
100
AcDbEntity
  8
1
  6
CONTINUOUS
 62
           7
100
AcDbLine
 10
5064.384695070894
 20
2165.500000000002
 11
5064.384695070894
 21
2582.199999999999
  0
LINE
  5
172
100
AcDbEntity
  8
1
  6
CONTINUOUS
 62
           7
100
AcDbLine
 10
5144.384695070897
 20
2555.000000000003
 11
5144.384695070897
 21
2161.000000000004
  0
LINE
  5
171
100
AcDbEntity
  8
1
  6
CONTINUOUS
 62
           4
100
AcDbLine
 10
5144.384695070897
 20
2555.000000000003
 11
5109.884695070894
 21
2555.000000000003
  0
LINE
  5
170
100
AcDbEntity
  8
1
  6
CONTINUOUS
 62
           4
100
AcDbLine
 10
5108.884695070894
 20
2590.500000000003
 11
5108.884695070894
 21
2556.000000000003
  0
LINE
  5
16F
100
AcDbEntity
  8
1
  6
CONTINUOUS
 62
           4
100
AcDbLine
 10
5108.884695070894
 20
2590.500000000003
 11
5099.884695070894
 21
2590.500000000003
  0
LINE
  5
16E
100
AcDbEntity
  8
1
  6
CONTINUOUS
 62
           4
100
AcDbLine
 10
5099.884695070894
 20
2556.000000000003
 11
5099.884695070894
 21
2590.500000000003
  0
LINE
  5
16D
100
AcDbEntity
  8
1
  6
CONTINUOUS
 62
           4
100
AcDbLine
 10
5098.884695070894
 20
2555.000000000003
 11
5064.38469507089
 21
2555.000000000003
  0
LINE
  5
16C
100
AcDbEntity
  8
1
  6
CONTINUOUS
 62
           4
100
AcDbLine
 10
5109.884695070894
 20
2161.000000000004
 11
5144.384695070897
 21
2161.000000000004
  0
LINE
  5
16B
100
AcDbEntity
  8
1
  6
CONTINUOUS
 62
           4
100
AcDbLine
 10
5108.884695070894
 20
2160.000000000004
 11
5108.884695070894
 21
2125.500000000004
  0
LINE
  5
16A
100
AcDbEntity
  8
1
  6
CONTINUOUS
 62
           4
100
AcDbLine
 10
5064.38469507089
 20
2161.000000000004
 11
5098.884695070894
 21
2161.000000000004
  0
LINE
  5
169
100
AcDbEntity
  8
1
  6
CONTINUOUS
 62
           4
100
AcDbLine
 10
5099.884695070894
 20
2125.500000000004
 11
5099.884695070894
 21
2160.000000000004
  0
LINE
  5
168
100
AcDbEntity
  8
1
  6
CONTINUOUS
 62
           4
100
AcDbLine
 10
5099.884695070894
 20
2550.500000000007
 11
5099.884695070897
 21
2165.500000000003
  0
LINE
  5
167
100
AcDbEntity
  8
1
  6
CONTINUOUS
 62
           4
100
AcDbLine
 10
5108.884695070897
 20
2165.500000000002
 11
5108.884695070894
 21
2550.500000000007
  0
LINE
  5
166
100
AcDbEntity
  8
1
  6
CONTINUOUS
 62
           4
100
AcDbLine
 10
5099.884695070894
 20
2125.500000000004
 11
5108.884695070894
 21
2125.500000000004
  0
LINE
  5
165
100
AcDbEntity
  8
1
  6
CONTINUOUS
 62
           4
100
AcDbLine
 10
4366.884695070895
 20
2081.000000000002
 11
4366.884695070895
 21
2075.000000000002
  0
LINE
  5
164
100
AcDbEntity
  8
1
  6
CONTINUOUS
 62
           4
100
AcDbLine
 10
4961.884695070894
 20
2081.000000000002
 11
4961.884695070894
 21
2075.000000000002
  0
LINE
  5
163
100
AcDbEntity
  8
1
  6
CONTINUOUS
 62
           4
100
AcDbLine
 10
4961.884695070894
 20
2081.000000000002
 11
4366.884695070895
 21
2081.000000000002
  0
LINE
  5
162
100
AcDbEntity
  8
1
  6
CONTINUOUS
 62
           7
100
AcDbLine
 10
4664.384695070894
 20
2075.000000000001
 11
4366.884695070895
 21
2075.000000000002
  0
LINE
  5
161
100
AcDbEntity
  8
1
  6
CONTINUOUS
 62
           7
100
AcDbLine
 10
4961.884695070894
 20
2075.000000000002
 11
4664.384695070894
 21
2075.000000000001
  0
LINE
  5
160
100
AcDbEntity
  8
1
  6
CONTINUOUS
 62
           7
100
AcDbLine
 10
5064.384695070894
 20
2165.500000000002
 11
4137.540322068622
 21
2165.500000000002
  0
LINE
  5
15F
100
AcDbEntity
  8
1
  6
CONTINUOUS
 62
           4
100
AcDbLine
 10
4779.384695070894
 20
2892.537538373369
 11
4549.384695070894
 21
2892.537538373369
  0
LINE
  5
15E
100
AcDbEntity
  8
7
  6
CONTINUOUS
 62
           4
100
AcDbLine
 10
4555.584695070893
 20
2930.500000000001
 11
4775.376718070895
 21
2930.500000000001
  0
LINE
  5
15D
100
AcDbEntity
  8
1
  6
CONTINUOUS
 62
           7
100
AcDbLine
 10
5104.384695070894
 20
2590.500000000003
 11
5104.384695070894
 21
2125.500000000004
  0
LINE
  5
15C
100
AcDbEntity
  8
1
  6
CONTINUOUS
 62
           7
100
AcDbLine
 10
5064.38469507089
 20
2550.500000000002
 11
5144.384695070898
 21
2550.500000000003
  0
LINE
  5
15B
100
AcDbEntity
  8
1
  6
CONTINUOUS
 62
           7
100
AcDbLine
 10
5144.384695070897
 20
2165.500000000004
 11
5064.384695070889
 21
2165.500000000004
  0
LINE
  5
15A
100
AcDbEntity
  8
1
  6
CONTINUOUS
 62
           7
100
AcDbLine
 10
4698.134695070894
 20
2670.000000000002
 11
4630.634695070894
 21
2670.000000000002
  0
LINE
  5
159
100
AcDbEntity
  8
1
  6
CONTINUOUS
 62
           7
100
AcDbLine
 10
4630.634695070894
 20
2750.000000000002
 11
4698.134695070894
 21
2750.000000000002
  0
LINE
  5
158
100
AcDbEntity
  8
1
  6
CONTINUOUS
 62
           7
100
AcDbLine
 10
4708.134695070894
 20
2740.000000000002
 11
4708.134695070894
 21
2680.000000000002
  0
LINE
  5
157
100
AcDbEntity
  8
1
  6
CONTINUOUS
 62
           7
100
AcDbLine
 10
4620.634695070894
 20
2680.000000000002
 11
4620.634695070894
 21
2740.000000000002
  0
LINE
  5
156
100
AcDbEntity
  8
1
  6
CONTINUOUS
 62
           7
100
AcDbLine
 10
4756.384695070892
 20
2587.199999999999
 11
4756.384695070892
 21
2550.500000000002
  0
LINE
  5
155
100
AcDbEntity
  8
1
  6
CONTINUOUS
 62
           7
100
AcDbLine
 10
4591.254607782905
 20
2587.199999999999
 11
4591.254607782905
 21
2550.500000000002
  0
LINE
  5
154
100
AcDbEntity
  8
1
  6
CONTINUOUS
 62
           7
100
AcDbLine
 10
4591.254607782905
 20
2587.199999999999
 11
4137.540322068623
 21
2587.199999999999
  0
LINE
  5
153
100
AcDbEntity
  8
1
  6
CONTINUOUS
 62
           7
100
AcDbLine
 10
4591.254607782905
 20
2165.500000000007
 11
4591.254607782905
 21
2127.500000000007
  0
LINE
  5
152
100
AcDbEntity
  8
1
  6
CONTINUOUS
 62
           7
100
AcDbLine
 10
4756.384695070892
 20
2165.500000000007
 11
4756.384695070892
 21
2127.500000000007
  0
LINE
  5
151
100
AcDbEntity
  8
1
  6
CONTINUOUS
 62
           7
100
AcDbLine
 10
4756.384695070892
 20
2127.500000000007
 11
5060.840052213752
 21
2127.500000000004
  0
LINE
  5
150
100
AcDbEntity
  8
1
  6
CONTINUOUS
 62
           7
100
AcDbLine
 10
4986.384695070894
 20
2127.500000000004
 11
4986.384695070894
 21
2165.500000000002
  0
LINE
  5
14F
100
AcDbEntity
  8
1
  6
CONTINUOUS
 62
           7
100
AcDbLine
 10
4986.384695070894
 20
2550.500000000002
 11
4986.384695070894
 21
2587.199999999999
  0
LINE
  5
14E
100
AcDbEntity
  8
1
  6
DOT_CENTER
 62
           2
100
AcDbLine
 10
-285.000000000005
 20
6155.267084004819
 11
-285.000000000005
 21
5812.460449015837
  0
LINE
  5
14D
100
AcDbEntity
  8
1
  6
DOT_CENTER
 62
           2
100
AcDbLine
 10
0.0
 20
6155.267084004819
 11
0.0
 21
5610.000000000001
  0
LINE
  5
14C
100
AcDbEntity
  8
1
  6
CONTINUOUS
 62
           4
100
AcDbLine
 10
39.999999999995
 20
6054.500000000001
 11
-610.000000000005
 21
6054.500000000001
  0
LINE
  5
14B
100
AcDbEntity
  8
1
  6
CONTINUOUS
 62
           7
100
AcDbLine
 10
-610.000000000005
 20
6050.000000000001
 11
39.999999999995
 21
6050.000000000001
  0
LINE
  5
14A
100
AcDbEntity
  8
1
  6
CONTINUOUS
 62
           4
100
AcDbLine
 10
-610.000000000005
 20
6045.500000000001
 11
39.999999999995
 21
6045.500000000001
  0
LINE
  5
149
100
AcDbEntity
  8
1
  6
CONTINUOUS
 62
           7
100
AcDbLine
 10
-610.000000000005
 20
6050.000000000001
 11
-610.000000000005
 21
6085.000000000001
  0
LINE
  5
148
100
AcDbEntity
  8
1
  6
CONTINUOUS
 62
           7
100
AcDbLine
 10
-610.000000000005
 20
6085.000000000001
 11
-605.000000000005
 21
6090.000000000001
  0
LINE
  5
147
100
AcDbEntity
  8
1
  6
CONTINUOUS
 62
           7
100
AcDbLine
 10
-605.000000000005
 20
6090.000000000001
 11
34.999999999995
 21
6090.000000000001
  0
LINE
  5
146
100
AcDbEntity
  8
1
  6
CONTINUOUS
 62
           7
100
AcDbLine
 10
39.999999999995
 20
6085.000000000001
 11
34.999999999995
 21
6090.000000000001
  0
LINE
  5
145
100
AcDbEntity
  8
1
  6
CONTINUOUS
 62
           7
100
AcDbLine
 10
39.999999999995
 20
6085.000000000001
 11
39.999999999995
 21
6050.000000000001
  0
LINE
  5
144
100
AcDbEntity
  8
1
  6
CONTINUOUS
 62
           7
100
AcDbLine
 10
34.999999999995
 20
6010.000000000001
 11
-605.000000000005
 21
6010.000000000001
  0
LINE
  5
143
100
AcDbEntity
  8
1
  6
CONTINUOUS
 62
           7
100
AcDbLine
 10
39.999999999995
 20
6050.000000000001
 11
39.999999999995
 21
6015.000000000001
  0
LINE
  5
142
100
AcDbEntity
  8
1
  6
CONTINUOUS
 62
           7
100
AcDbLine
 10
-610.000000000005
 20
6015.000000000001
 11
-610.000000000005
 21
6050.000000000001
  0
LINE
  5
141
100
AcDbEntity
  8
1
  6
CONTINUOUS
 62
           7
100
AcDbLine
 10
-605.000000000005
 20
6010.000000000001
 11
-610.000000000005
 21
6015.000000000001
  0
LINE
  5
140
100
AcDbEntity
  8
1
  6
CONTINUOUS
 62
           7
100
AcDbLine
 10
34.999999999995
 20
6010.000000000001
 11
39.999999999995
 21
6015.000000000001
  0
LINE
  5
13F
100
AcDbEntity
  8
1
  6
CONTINUOUS
 62
           7
100
AcDbLine
 10
389.999999999999
 20
5701.999999999999
 11
160.000000000001
 21
5931.999999999999
  0
LINE
  5
13E
100
AcDbEntity
  8
1
  6
CONTINUOUS
 62
           4
100
AcDbLine
 10
115.286004408815
 20
5571.250000000001
 11
109.26566811172
 21
5571.250000000001
  0
LINE
  5
13D
100
AcDbEntity
  8
1
  6
CONTINUOUS
 62
           4
100
AcDbLine
 10
115.286004408815
 20
5648.750000000001
 11
109.26566811172
 21
5648.750000000001
  0
LINE
  5
13C
100
AcDbEntity
  8
1
  6
CONTINUOUS
 62
           7
100
AcDbLine
 10
156.499999999998
 20
5566.250000000001
 11
123.946258446659
 21
5566.250000000001
  0
LINE
  5
13B
100
AcDbEntity
  8
1
  6
CONTINUOUS
 62
           7
100
AcDbLine
 10
123.946258446659
 20
5653.750000000001
 11
156.499999999998
 21
5653.750000000001
  0
LINE
  5
13A
100
AcDbEntity
  8
1
  6
CONTINUOUS
 62
           7
100
AcDbLine
 10
113.946258446659
 20
5576.250000000001
 11
113.946258446659
 21
5643.750000000001
  0
LINE
  5
139
100
AcDbEntity
  8
1
  6
CONTINUOUS
 62
           7
100
AcDbLine
 10
166.499999999998
 20
5643.750000000001
 11
166.499999999998
 21
5576.250000000001
  0
LINE
  5
138
100
AcDbEntity
  8
1
  6
DOT_CENTER
 62
           2
100
AcDbLine
 10
0.0
 20
5610.000000000001
 11
477.325994331976
 21
5609.999999999999
  0
LINE
  5
137
100
AcDbEntity
  8
1
  6
CONTINUOUS
 62
           7
100
AcDbLine
 10
410.99206566863
 20
5536.869912712012
 11
-40.387316823279
 21
5083.155626997727
  0
LINE
  5
136
100
AcDbEntity
  8
1
  6
CONTINUOUS
 62
           7
100
AcDbLine
 10
-569.956959680419
 20
5610.000000000003
 11
-175.0
 21
6010.000000000002
  0
LINE
  5
135
100
AcDbEntity
  8
1
  6
CONTINUOUS
 62
           7
100
AcDbLine
 10
-40.387316823279
 20
5083.155626997727
 11
-569.956959680419
 21
5610.000000000003
  0
LINE
  5
134
100
AcDbEntity
  8
1
  6
CONTINUOUS
 62
           7
100
AcDbLine
 10
-570.000000000001
 20
6010.000000000001
 11
-570.000000000001
 21
6000.000000000001
  0
LINE
  5
133
100
AcDbEntity
  8
1
  6
DOT_CENTER
 62
           2
100
AcDbLine
 10
-604.888003224814
 20
5610.000000000001
 11
0.0
 21
5610.000000000001
  0
LINE
  5
132
100
AcDbEntity
  8
1
  6
DOT_CENTER
 62
           2
100
AcDbLine
 10
0.0
 20
5610.000000000001
 11
0.0
 21
5046.311422949076
  0
LINE
  5
131
100
AcDbEntity
  8
1
  6
CONTINUOUS
 62
           7
100
AcDbLine
 10
-580.000000000002
 20
5987.000000000001
 11
-570.000000000001
 21
6000.000000000001
  0
LINE
  5
130
100
AcDbEntity
  8
1
  6
CONTINUOUS
 62
           7
100
AcDbLine
 10
-580.000000000002
 20
5987.000000000001
 11
-580.0
 21
5659.999999999999
  0
LINE
  5
12F
100
AcDbEntity
  8
1
  6
CONTINUOUS
 62
           7
100
AcDbLine
 10
30.50394303083
 20
5954.165620839415
 11
0.0
 21
6010.000000000001
  0
LINE
  5
12E
100
AcDbEntity
  8
1
  6
CONTINUOUS
 62
           7
100
AcDbLine
 10
-186.0
 20
5424.000000000001
 11
210.000000000001
 21
5424.000000000001
  0
LINE
  5
12D
100
AcDbEntity
  8
1
  6
CONTINUOUS
 62
           7
100
AcDbLine
 10
185.999999999992
 20
5424.000000000001
 11
185.999999999992
 21
5820.000000000001
  0
LINE
  5
12C
100
AcDbEntity
  8
1
  6
CONTINUOUS
 62
           7
100
AcDbLine
 10
185.999999999992
 20
5795.999999999994
 11
-210.0
 21
5795.999999999994
  0
LINE
  5
12B
100
AcDbEntity
  8
1
  6
CONTINUOUS
 62
           7
100
AcDbLine
 10
-186.0
 20
5795.999999999994
 11
-186.0
 21
5400.000000000001
  0
LINE
  5
12A
100
AcDbEntity
  8
1
  6
CONTINUOUS
 62
           7
100
AcDbLine
 10
410.992065668631
 20
2150.700000000002
 11
410.992065668632
 21
2165.5
  0
LINE
  5
129
100
AcDbEntity
  8
1
  6
CONTINUOUS
 62
           2
100
AcDbLine
 10
362.336090221744
 20
2537.0
 11
362.336090221744
 21
2177.0
  0
LINE
  5
128
100
AcDbEntity
  8
1
  6
CONTINUOUS
 62
           2
100
AcDbLine
 10
404.999999999999
 20
2538.0
 11
362.336090221744
 21
2538.0
  0
LINE
  5
127
100
AcDbEntity
  8
1
  6
CONTINUOUS
 62
           2
100
AcDbLine
 10
362.336090221744
 20
2177.0
 11
404.999999999999
 21
2177.0
  0
LINE
  5
126
100
AcDbEntity
  8
1
  6
CONTINUOUS
 62
           2
100
AcDbLine
 10
-528.316278697896
 20
2537.0
 11
-528.316278697896
 21
2177.0
  0
LINE
  5
125
100
AcDbEntity
  8
1
  6
CONTINUOUS
 62
           2
100
AcDbLine
 10
-232.33363766124
 20
2538.0
 11
-528.316278697896
 21
2538.0
  0
LINE
  5
124
100
AcDbEntity
  8
1
  6
CONTINUOUS
 62
           2
100
AcDbLine
 10
-232.33363766124
 20
2177.0
 11
-232.33363766124
 21
2537.0
  0
LINE
  5
123
100
AcDbEntity
  8
1
  6
CONTINUOUS
 62
           2
100
AcDbLine
 10
-528.316278697896
 20
2177.0
 11
-232.33363766124
 21
2177.0
  0
LINE
  5
122
100
AcDbEntity
  8
1
  6
CONTINUOUS
 62
           4
100
AcDbLine
 10
-209.999999999999
 20
2589.500000000001
 11
-209.999999999999
 21
2588.500000000001
  0
LINE
  5
121
100
AcDbEntity
  8
1
  6
CONTINUOUS
 62
           4
100
AcDbLine
 10
-204.993063735605
 20
2594.500000000002
 11
-209.999999999999
 21
2589.500000000001
  0
LINE
  5
120
100
AcDbEntity
  8
1
  6
CONTINUOUS
 62
           4
100
AcDbLine
 10
210.000000000001
 20
2589.500000000001
 11
205.000000000001
 21
2594.500000000002
  0
LINE
  5
11F
100
AcDbEntity
  8
1
  6
CONTINUOUS
 62
           4
100
AcDbLine
 10
205.000000000001
 20
2594.500000000002
 11
-204.993063735605
 21
2594.500000000002
  0
LINE
  5
11E
100
AcDbEntity
  8
1
  6
DOT_CENTER
 62
           2
100
AcDbLine
 10
0.000000000001
 20
2984.483879124645
 11
0.000000000001
 21
2049.379684115579
  0
LINE
  5
11D
100
AcDbEntity
  8
1
  6
CONTINUOUS
 62
           7
100
AcDbLine
 10
-570.000000000004
 20
2583.5
 11
-570.000000000004
 21
2550.5
  0
LINE
  5
11C
100
AcDbEntity
  8
1
  6
CONTINUOUS
 62
           7
100
AcDbLine
 10
-570.000000000004
 20
2583.5
 11
-566.455357142862
 21
2588.5
  0
LINE
  5
11B
100
AcDbEntity
  8
1
  6
CONTINUOUS
 62
           7
100
AcDbLine
 10
-570.000000000004
 20
2165.500000000001
 11
-570.000000000004
 21
2150.700000000002
  0
LINE
  5
11A
100
AcDbEntity
  8
1
  6
CONTINUOUS
 62
           7
100
AcDbLine
 10
410.992065668631
 20
2588.5
 11
-566.455357142862
 21
2588.5
  0
LINE
  5
119
100
AcDbEntity
  8
1
  6
CONTINUOUS
 62
           7
100
AcDbLine
 10
410.992065668632
 20
2550.5
 11
410.992065668631
 21
2588.5
  0
LINE
  5
118
100
AcDbEntity
  8
1
  6
CONTINUOUS
 62
           7
100
AcDbLine
 10
415.0
 20
2550.5
 11
-579.999999999989
 21
2550.5
  0
LINE
  5
117
100
AcDbEntity
  8
1
  6
CONTINUOUS
 62
           4
100
AcDbLine
 10
210.000000000001
 20
2588.500000000001
 11
210.000000000001
 21
2589.500000000001
  0
LINE
  5
116
100
AcDbEntity
  8
1
  6
DOT_CENTER
 62
           2
100
AcDbLine
 10
473.997537221203
 20
2358.0
 11
-664.640400689392
 21
2358.0
  0
LINE
  5
115
100
AcDbEntity
  8
7
  6
CONTINUOUS
 62
           7
100
AcDbLine
 10
0.000000000001
 20
2865.300000000001
 11
-114.999999999999
 21
2865.300000000001
  0
LINE
  5
114
100
AcDbEntity
  8
7
  6
CONTINUOUS
 62
           7
100
AcDbLine
 10
-88.652847999999
 20
2947.702830000001
 11
-109.147842999999
 21
2932.629781000001
  0
LINE
  5
113
100
AcDbEntity
  8
7
  6
CONTINUOUS
 62
           7
100
AcDbLine
 10
0.000000000001
 20
2951.999999999999
 11
-84.599999999999
 21
2951.999999999999
  0
LINE
  5
112
100
AcDbEntity
  8
7
  6
CONTINUOUS
 62
           7
100
AcDbLine
 10
-114.999999999999
 20
2865.300000000001
 11
-114.999999999999
 21
2892.837538373369
  0
LINE
  5
111
100
AcDbEntity
  8
7
  6
CONTINUOUS
 62
           7
100
AcDbLine
 10
115.000000000001
 20
2865.300000000001
 11
0.000000000001
 21
2865.300000000001
  0
LINE
  5
110
100
AcDbEntity
  8
7
  6
CONTINUOUS
 62
           7
100
AcDbLine
 10
112.000000000001
 20
2927.6
 11
115.000000000001
 21
2892.837538373369
  0
LINE
  5
10F
100
AcDbEntity
  8
7
  6
CONTINUOUS
 62
           4
100
AcDbLine
 10
-110.992022999999
 20
2930.800000000001
 11
108.800000000001
 21
2930.800000000001
  0
LINE
  5
10E
100
AcDbEntity
  8
7
  6
CONTINUOUS
 62
           7
100
AcDbLine
 10
86.152847000001
 20
2947.702830000001
 11
106.776034000001
 21
2931.161696000001
  0
LINE
  5
10D
100
AcDbEntity
  8
7
  6
CONTINUOUS
 62
           7
100
AcDbLine
 10
0.000000000001
 20
2951.999999999999
 11
82.100000000001
 21
2951.999999999999
  0
LINE
  5
10C
100
AcDbEntity
  8
2
  6
CONTINUOUS
 62
           7
100
AcDbLine
 10
108.613664000001
 20
2623.000000000001
 11
97.568642000001
 21
2596.500000000001
  0
LINE
  5
10B
100
AcDbEntity
  8
2
  6
CONTINUOUS
 62
           7
100
AcDbLine
 10
108.613664000001
 20
2623.000000000001
 11
108.613664000001
 21
2853.800000000001
  0
LINE
  5
10A
100
AcDbEntity
  8
2
  6
CONTINUOUS
 62
           7
100
AcDbLine
 10
108.613664000001
 20
2853.800000000001
 11
103.820541000001
 21
2865.300000000001
  0
LINE
  5
109
100
AcDbEntity
  8
2
  6
CONTINUOUS
 62
           4
100
AcDbLine
 10
-93.249999999999
 20
2596.500000000001
 11
-93.249999999999
 21
2594.500000000002
  0
LINE
  5
108
100
AcDbEntity
  8
2
  6
CONTINUOUS
 62
           7
100
AcDbLine
 10
-108.613663999999
 20
2623.000000000001
 11
-108.613663999999
 21
2853.800000000001
  0
LINE
  5
107
100
AcDbEntity
  8
2
  6
CONTINUOUS
 62
           7
100
AcDbLine
 10
-103.820540999999
 20
2865.300000000001
 11
-108.613663999999
 21
2853.800000000001
  0
LINE
  5
106
100
AcDbEntity
  8
2
  6
CONTINUOUS
 62
           4
100
AcDbLine
 10
97.568642000001
 20
2596.500000000001
 11
-97.568641999999
 21
2596.500000000001
  0
LINE
  5
105
100
AcDbEntity
  8
2
  6
CONTINUOUS
 62
           7
100
AcDbLine
 10
-97.568641999999
 20
2596.500000000001
 11
-108.613663999999
 21
2623.000000000001
  0
LINE
  5
104
100
AcDbEntity
  8
1
  6
CONTINUOUS
 62
           4
100
AcDbLine
 10
115.000000000001
 20
2892.837538373369
 11
-114.999999999999
 21
2892.837538373369
  0
LINE
  5
103
100
AcDbEntity
  8
7
  6
CONTINUOUS
 62
           7
100
AcDbLine
 10
-114.999999999999
 20
2892.837538373369
 11
-112.0
 21
2927.411356999999
  0
LINE
  5
102
100
AcDbEntity
  8
7
  6
CONTINUOUS
 62
           7
100
AcDbLine
 10
115.000000000001
 20
2892.837538373369
 11
115.000000000001
 21
2865.300000000001
  0
LINE
  5
101
100
AcDbEntity
  8
2
  6
CONTINUOUS
 62
           4
100
AcDbLine
 10
93.250000000001
 20
2594.500000000002
 11
93.250000000001
 21
2596.500000000001
  0
LINE
  5
100
100
AcDbEntity
  8
1
  6
CONTINUOUS
 62
           7
100
AcDbLine
 10
405.0
 20
2165.5
 11
404.999999999999
 21
2549.5
  0
LINE
  5
FF
100
AcDbEntity
  8
1
  6
CONTINUOUS
 62
           7
100
AcDbLine
 10
415.0
 20
2165.5
 11
-579.999999999987
 21
2165.5
  0
LINE
  5
FE
100
AcDbEntity
  8
1
  6
CONTINUOUS
 62
           7
100
AcDbLine
 10
166.499999999999
 20
2741.300000000002
 11
166.499999999999
 21
2681.300000000003
  0
LINE
  5
FD
100
AcDbEntity
  8
1
  6
CONTINUOUS
 62
           7
100
AcDbLine
 10
108.613664000001
 20
2681.300000000003
 11
108.613664000001
 21
2741.300000000002
  0
LINE
  5
FC
100
AcDbEntity
  8
1
  6
CONTINUOUS
 62
           7
100
AcDbLine
 10
118.613664000001
 20
2751.300000000002
 11
156.499999999999
 21
2751.300000000002
  0
LINE
  5
FB
100
AcDbEntity
  8
1
  6
CONTINUOUS
 62
           7
100
AcDbLine
 10
156.499999999999
 20
2671.300000000003
 11
118.613664000001
 21
2671.300000000003
  0
LINE
  5
FA
100
AcDbEntity
  8
1
  6
CONTINUOUS
 62
           7
100
AcDbLine
 10
-40.387316823278
 20
2588.5
 11
-40.387316823278
 21
2550.199999999997
  0
LINE
  5
F9
100
AcDbEntity
  8
1
  6
CONTINUOUS
 62
           7
100
AcDbLine
 10
-570.000000000004
 20
2550.300000000001
 11
-570.000000000004
 21
2164.700000000002
  0
LINE
  5
F8
100
AcDbEntity
  8
1
  6
CONTINUOUS
 62
           7
100
AcDbLine
 10
-611.000000000004
 20
2590.500000000001
 11
-611.000000000004
 21
2151.499999999997
  0
LINE
  5
F7
100
AcDbEntity
  8
1
  6
CONTINUOUS
 62
           7
100
AcDbLine
 10
-611.000000000004
 20
2590.500000000001
 11
-577.413444419394
 21
2590.500000000001
  0
LINE
  5
F6
100
AcDbEntity
  8
1
  6
CONTINUOUS
 62
           4
100
AcDbLine
 10
-587.618730888041
 20
2550.500000000001
 11
-611.000000000004
 21
2550.500000000001
  0
LINE
  5
F5
100
AcDbEntity
  8
1
  6
CONTINUOUS
 62
           4
100
AcDbLine
 10
-587.618730888041
 20
2555.000000000001
 11
-611.000000000004
 21
2555.000000000001
  0
LINE
  5
F4
100
AcDbEntity
  8
1
  6
CONTINUOUS
 62
           4
100
AcDbLine
 10
-587.618730888041
 20
2161.0
 11
-611.000000000004
 21
2161.0
  0
LINE
  5
F3
100
AcDbEntity
  8
1
  6
CONTINUOUS
 62
           4
100
AcDbLine
 10
-587.618730888041
 20
2165.5
 11
-611.000000000004
 21
2165.5
  0
LINE
  5
F2
100
AcDbEntity
  8
1
  6
CONTINUOUS
 62
           7
100
AcDbLine
 10
1460.000000000001
 20
4250.000000000001
 11
1300.000000000003
 21
4250.000000000001
  0
LINE
  5
F1
100
AcDbEntity
  8
1
  6
CONTINUOUS
 62
           7
100
AcDbLine
 10
1460.000000000001
 20
4450.000000000001
 11
1460.000000000001
 21
4250.000000000001
  0
LINE
  5
F0
100
AcDbEntity
  8
1
  6
CONTINUOUS
 62
           7
100
AcDbLine
 10
1300.000000000003
 20
4450.000000000001
 11
1460.000000000001
 21
4450.000000000001
  0
LINE
  5
EF
100
AcDbEntity
  8
1
  6
CONTINUOUS
 62
           7
100
AcDbLine
 10
1460.000000000001
 20
1300.000000000002
 11
1300.000000000001
 21
1300.000000000002
  0
LINE
  5
EE
100
AcDbEntity
  8
1
  6
CONTINUOUS
 62
           7
100
AcDbLine
 10
1460.000000000001
 20
1700.000000000002
 11
1460.000000000001
 21
1300.000000000002
  0
LINE
  5
ED
100
AcDbEntity
  8
1
  6
CONTINUOUS
 62
           7
100
AcDbLine
 10
1300.000000000001
 20
1700.000000000002
 11
1460.000000000001
 21
1700.000000000002
  0
LINE
  5
EC
100
AcDbEntity
  8
1
  6
CONTINUOUS
 62
           7
100
AcDbLine
 10
3304.384695070895
 20
1300.000000000002
 11
3304.384695070895
 21
1700.000000000002
  0
LINE
  5
EB
100
AcDbEntity
  8
1
  6
CONTINUOUS
 62
           7
100
AcDbLine
 10
3504.384695070895
 20
1300.000000000002
 11
3304.384695070895
 21
1300.000000000002
  0
LINE
  5
EA
100
AcDbEntity
  8
1
  6
CONTINUOUS
 62
           7
100
AcDbLine
 10
3504.384695070895
 20
1700.000000000002
 11
3504.384695070895
 21
1300.000000000002
  0
LINE
  5
E9
100
AcDbEntity
  8
1
  6
CONTINUOUS
 62
           7
100
AcDbLine
 10
3304.384695070895
 20
1700.000000000002
 11
3504.384695070895
 21
1700.000000000002
  0
LINE
  5
E8
100
AcDbEntity
  8
1
  6
CONTINUOUS
 62
           7
100
AcDbLine
 10
3054.384695070894
 20
2050.000000000002
 11
3054.384695070895
 21
2150.000000000002
  0
LINE
  5
E7
100
AcDbEntity
  8
1
  6
CONTINUOUS
 62
           7
100
AcDbLine
 10
1300.000000000001
 20
2150.0
 11
-1299.999999999999
 21
2150.0
  0
LINE
  5
E6
100
AcDbEntity
  8
1
  6
CONTINUOUS
 62
           7
100
AcDbLine
 10
1250.000000000003
 20
4020.000000000002
 11
1250.000000000003
 21
5000.0
  0
LINE
  5
E5
100
AcDbEntity
  8
1
  6
CONTINUOUS
 62
           7
100
AcDbLine
 10
-1249.999999999996
 20
4020.000000000002
 11
-1249.999999999996
 21
5000.0
  0
LINE
  5
E4
100
AcDbEntity
  8
1
  6
CONTINUOUS
 62
           7
100
AcDbLine
 10
3456.384695070896
 20
1219.750000000002
 11
3534.384695070895
 21
1219.750000000002
  0
LINE
  5
E3
100
AcDbEntity
  8
1
  6
CONTINUOUS
 62
           7
100
AcDbLine
 10
3456.384695070896
 20
1239.750000000002
 11
3534.384695070895
 21
1239.750000000002
  0
LINE
  5
E2
100
AcDbEntity
  8
1
  6
CONTINUOUS
 62
           7
100
AcDbLine
 10
3419.384695070896
 20
1270.000000000002
 11
3419.384695070896
 21
1256.750000000002
  0
LINE
  5
E1
100
AcDbEntity
  8
1
  6
CONTINUOUS
 62
           7
100
AcDbLine
 10
3416.884695070896
 20
1270.000000000002
 11
3441.884695070896
 21
1270.000000000002
  0
LINE
  5
E0
100
AcDbEntity
  8
1
  6
CONTINUOUS
 62
           7
100
AcDbLine
 10
3441.884695070896
 20
1300.000000000002
 11
3441.884695070896
 21
1270.000000000002
  0
LINE
  5
DF
100
AcDbEntity
  8
1
  6
CONTINUOUS
 62
           7
100
AcDbLine
 10
3416.884695070896
 20
1300.000000000002
 11
3416.884695070896
 21
1270.000000000002
  0
LINE
  5
DE
100
AcDbEntity
  8
1
  6
CONTINUOUS
 62
           7
100
AcDbLine
 10
3439.384695070896
 20
1256.750000000002
 11
3439.384695070896
 21
1270.000000000002
  0
LINE
  5
DD
100
AcDbEntity
  8
1
  6
CONTINUOUS
 62
           7
100
AcDbLine
 10
3554.384695070895
 20
2040.000000000002
 11
3554.384695070895
 21
2050.000000000002
  0
LINE
  5
DC
100
AcDbEntity
  8
1
  6
CONTINUOUS
 62
           7
100
AcDbLine
 10
1800.000000000001
 20
0.0
 11
-1799.999999999999
 21
0.0
  0
LINE
  5
DB
100
AcDbEntity
  8
1
  6
CONTINUOUS
 62
           2
100
AcDbLine
 10
1250.000000000001
 20
1900.0
 11
-1249.999999999999
 21
1900.0
  0
LINE
  5
DA
100
AcDbEntity
  8
1
  6
CONTINUOUS
 62
           7
100
AcDbLine
 10
-249.999999999999
 20
475.000000000001
 11
-249.999999999999
 21
400.0
  0
LINE
  5
D9
100
AcDbEntity
  8
1
  6
DOT_CENTER
 62
           2
100
AcDbLine
 10
0.0
 20
500.0
 11
0.0
 21
-130.0
  0
LINE
  5
D8
100
AcDbEntity
  8
1
  6
DOT_CENTER
 62
           2
100
AcDbLine
 10
0.0
 20
2075.0
 11
0.0
 21
500.0
  0
LINE
  5
D7
100
AcDbEntity
  8
1
  6
CONTINUOUS
 62
           7
100
AcDbLine
 10
1235.000000000001
 20
540.0
 11
15.0
 21
540.0
  0
LINE
  5
D6
100
AcDbEntity
  8
1
  6
CONTINUOUS
 62
           7
100
AcDbLine
 10
-1249.999999999999
 20
500.0
 11
-1234.999999999999
 21
500.0
  0
LINE
  5
D5
100
AcDbEntity
  8
1
  6
CONTINUOUS
 62
           7
100
AcDbLine
 10
1235.000000000001
 20
500.0
 11
1250.000000000001
 21
500.0
  0
LINE
  5
D4
100
AcDbEntity
  8
1
  6
CONTINUOUS
 62
           7
100
AcDbLine
 10
-1249.999999999999
 20
800.0
 11
1250.000000000001
 21
800.0
  0
LINE
  5
D3
100
AcDbEntity
  8
1
  6
CONTINUOUS
 62
           7
100
AcDbLine
 10
-1249.999999999999
 20
513.85332266763
 11
-1249.999999999999
 21
572.607085651512
  0
LINE
  5
D2
100
AcDbEntity
  8
1
  6
CONTINUOUS
 62
           7
100
AcDbLine
 10
15.0
 20
540.0
 11
15.0
 21
475.000000000001
  0
LINE
  5
D1
100
AcDbEntity
  8
1
  6
CONTINUOUS
 62
           7
100
AcDbLine
 10
1235.000000000001
 20
540.0
 11
1235.000000000001
 21
475.000000000001
  0
LINE
  5
D0
100
AcDbEntity
  8
1
  6
CONTINUOUS
 62
           7
100
AcDbLine
 10
-1249.999999999999
 20
400.0
 11
1250.000000000001
 21
400.0
  0
LINE
  5
CF
100
AcDbEntity
  8
1
  6
CONTINUOUS
 62
           7
100
AcDbLine
 10
1250.000000000001
 20
50.0
 11
-1249.999999999999
 21
50.0
  0
LINE
  5
CE
100
AcDbEntity
  8
1
  6
CONTINUOUS
 62
           7
100
AcDbLine
 10
1250.000000000001
 20
0.0
 11
1250.000000000001
 21
2000.0
  0
LINE
  5
CD
100
AcDbEntity
  8
1
  6
CONTINUOUS
 62
           7
100
AcDbLine
 10
-1249.999999999999
 20
0.0
 11
-1249.999999999999
 21
2000.0
  0
LINE
  5
CC
100
AcDbEntity
  8
1
  6
CONTINUOUS
 62
           7
100
AcDbLine
 10
1300.000000000001
 20
2000.0
 11
-1299.999999999999
 21
2000.0
  0
LINE
  5
CB
100
AcDbEntity
  8
1
  6
CONTINUOUS
 62
           7
100
AcDbLine
 10
-1299.999999999999
 20
2150.0
 11
-1299.999999999999
 21
0.0
  0
LINE
  5
CA
100
AcDbEntity
  8
1
  6
CONTINUOUS
 62
           7
100
AcDbLine
 10
1300.000000000001
 20
0.0
 11
1300.000000000001
 21
2150.0
  0
LINE
  5
C9
100
AcDbEntity
  8
1
  6
CONTINUOUS
 62
           7
100
AcDbLine
 10
-1249.999999999999
 20
475.000000000001
 11
1250.000000000001
 21
475.000000000001
  0
LINE
  5
C8
100
AcDbEntity
  8
1
  6
CONTINUOUS
 62
           7
100
AcDbLine
 10
-1234.999999999999
 20
475.000000000001
 11
-1234.999999999999
 21
540.0
  0
LINE
  5
C7
100
AcDbEntity
  8
1
  6
CONTINUOUS
 62
           7
100
AcDbLine
 10
-15.0
 20
475.000000000001
 11
-15.0
 21
540.0
  0
LINE
  5
C6
100
AcDbEntity
  8
1
  6
CONTINUOUS
 62
           7
100
AcDbLine
 10
-15.0
 20
540.0
 11
-1234.999999999999
 21
540.0
  0
LINE
  5
C5
100
AcDbEntity
  8
1
  6
CONTINUOUS
 62
           7
100
AcDbLine
 10
-15.0
 20
500.0
 11
15.0
 21
500.0
  0
LINE
  5
C4
100
AcDbEntity
  8
1
  6
CONTINUOUS
 62
           7
100
AcDbLine
 10
0.0
 20
500.0
 11
0.0
 21
800.0
  0
LINE
  5
C3
100
AcDbEntity
  8
1
  6
CONTINUOUS
 62
           4
100
AcDbLine
 10
-593.396011562032
 20
5980.0
 11
-979.999999999996
 21
5980.0
  0
LINE
  5
C2
100
AcDbEntity
  8
1
  6
CONTINUOUS
 62
           7
100
AcDbLine
 10
-583.396011562032
 20
6000.0
 11
-1299.999999999996
 21
6000.0
  0
LINE
  5
C1
100
AcDbEntity
  8
1
  6
CONTINUOUS
 62
           4
100
AcDbLine
 10
1230.000000000003
 20
4980.0
 11
-1229.999999999996
 21
4980.0
  0
LINE
  5
C0
100
AcDbEntity
  8
1
  6
CONTINUOUS
 62
           7
100
AcDbLine
 10
3784.384695070895
 20
1590.000000000001
 11
3784.384695070895
 21
1350.0
  0
LINE
  5
BF
100
AcDbEntity
  8
1
  6
CONTINUOUS
 62
           7
100
AcDbLine
 10
3604.384695070895
 20
1350.0
 11
3604.384695070895
 21
1590.000000000001
  0
LINE
  5
BE
100
AcDbEntity
  8
1
  6
CONTINUOUS
 62
           7
100
AcDbLine
 10
3604.384695070895
 20
1590.000000000001
 11
3784.384695070895
 21
1590.000000000001
  0
LINE
  5
BD
100
AcDbEntity
  8
1
  6
CONTINUOUS
 62
           7
100
AcDbLine
 10
3784.384695070895
 20
1350.0
 11
3604.384695070895
 21
1350.0
  0
LINE
  5
BC
100
AcDbEntity
  8
1
  6
CONTINUOUS
 62
           7
100
AcDbLine
 10
3294.384695070894
 20
1950.000000000002
 11
3104.384695070894
 21
1950.000000000002
  0
LINE
  5
BB
100
AcDbEntity
  8
1
  6
CONTINUOUS
 62
           7
100
AcDbLine
 10
3104.384695070894
 20
1950.000000000002
 11
3104.384695070894
 21
1862.000000000002
  0
LINE
  5
BA
100
AcDbEntity
  8
1
  6
CONTINUOUS
 62
           7
100
AcDbLine
 10
3104.384695070894
 20
1862.000000000002
 11
3294.384695070894
 21
1862.000000000002
  0
LINE
  5
B9
100
AcDbEntity
  8
1
  6
CONTINUOUS
 62
           7
100
AcDbLine
 10
3294.384695070894
 20
1862.000000000002
 11
3294.384695070894
 21
1950.000000000002
  0
LINE
  5
B8
100
AcDbEntity
  8
1
  6
CONTINUOUS
 62
           4
100
AcDbLine
 10
-1289.999999999996
 20
5000.0
 11
-1289.999999999996
 21
4020.000000000002
  0
LINE
  5
B7
100
AcDbEntity
  8
1
  6
CONTINUOUS
 62
           4
100
AcDbLine
 10
1290.000000000003
 20
5000.0
 11
1290.000000000003
 21
4020.000000000002
  0
LINE
  5
B6
100
AcDbEntity
  8
1
  6
CONTINUOUS
 62
           4
100
AcDbLine
 10
3054.384695070894
 20
2040.000000000002
 11
4054.384695070894
 21
2040.000000000002
  0
LINE
  5
B5
100
AcDbEntity
  8
1
  6
CONTINUOUS
 62
           4
100
AcDbLine
 10
1230.000000000003
 20
4480.0
 11
-1230.0
 21
4480.0
  0
LINE
  5
B4
100
AcDbEntity
  8
1
  6
CONTINUOUS
 62
           4
100
AcDbLine
 10
-1230.0
 20
4480.0
 11
-1229.999999999997
 21
4020.000000000002
  0
LINE
  5
B3
100
AcDbEntity
  8
1
  6
CONTINUOUS
 62
           7
100
AcDbLine
 10
5554.384695070894
 20
0.0
 11
2554.384695070894
 21
0.0
  0
LINE
  5
B2
100
AcDbEntity
  8
1
  6
CONTINUOUS
 62
           4
100
AcDbLine
 10
-1252.999999999996
 20
5000.0
 11
-1252.999999999996
 21
4020.000000000002
  0
LINE
  5
B1
100
AcDbEntity
  8
1
  6
CONTINUOUS
 62
           4
100
AcDbLine
 10
980.000000000003
 20
5020.0
 11
520.000000000002
 21
5020.0
  0
LINE
  5
B0
100
AcDbEntity
  8
1
  6
CONTINUOUS
 62
           4
100
AcDbLine
 10
980.000000000003
 20
5980.0
 11
520.000000000002
 21
5980.0
  0
LINE
  5
AF
100
AcDbEntity
  8
1
  6
CONTINUOUS
 62
           4
100
AcDbLine
 10
1253.000000000003
 20
5000.0
 11
1253.000000000003
 21
4020.000000000002
  0
LINE
  5
AE
100
AcDbEntity
  8
1
  6
CONTINUOUS
 62
           4
100
AcDbLine
 10
1230.000000000003
 20
4480.0
 11
1230.000000000003
 21
4020.000000000002
  0
LINE
  5
AD
100
AcDbEntity
  8
1
  6
CONTINUOUS
 62
           4
100
AcDbLine
 10
980.000000000003
 20
5980.0
 11
980.000000000003
 21
5020.0
  0
LINE
  5
AC
100
AcDbEntity
  8
1
  6
CONTINUOUS
 62
           7
100
AcDbLine
 10
1300.000000000003
 20
4000.000000000001
 11
1300.000000000003
 21
6000.0
  0
LINE
  5
AB
100
AcDbEntity
  8
1
  6
DOT_CENTER
 62
           2
100
AcDbLine
 10
4354.384695070894
 20
675.000000000001
 11
4354.384695070894
 21
525.000000000001
  0
LINE
  5
AA
100
AcDbEntity
  8
1
  6
DOT_CENTER
 62
           2
100
AcDbLine
 10
4279.384695070894
 20
600.000000000001
 11
4429.384695070893
 21
600.000000000001
  0
LINE
  5
A9
100
AcDbEntity
  8
1
  6
DOT_CENTER
 62
           2
100
AcDbLine
 10
0.000000000002
 20
5000.0
 11
0.000000000002
 21
3874.68067624767
  0
LINE
  5
A8
100
AcDbEntity
  8
1
  6
CONTINUOUS
 62
           7
100
AcDbLine
 10
4054.384695070894
 20
2075.000000000001
 11
5054.384695070894
 21
2075.000000000001
  0
LINE
  5
A7
100
AcDbEntity
  8
1
  6
CONTINUOUS
 62
           7
100
AcDbLine
 10
4054.384695070894
 20
2000.000000000002
 11
4054.384695070894
 21
2075.000000000001
  0
LINE
  5
A6
100
AcDbEntity
  8
1
  6
CONTINUOUS
 62
           7
100
AcDbLine
 10
3054.384695070894
 20
2050.000000000002
 11
5054.384695070894
 21
2050.000000000002
  0
LINE
  5
A5
100
AcDbEntity
  8
1
  6
CONTINUOUS
 62
           4
100
AcDbLine
 10
3054.384695070894
 20
2003.000000000002
 11
4054.384695070894
 21
2003.000000000002
  0
LINE
  5
A4
100
AcDbEntity
  8
1
  6
CONTINUOUS
 62
           7
100
AcDbLine
 10
5054.384695070894
 20
2000.000000000002
 11
3054.384695070894
 21
2000.000000000002
  0
LINE
  5
A3
100
AcDbEntity
  8
1
  6
CONTINUOUS
 62
           7
100
AcDbLine
 10
5054.384695070894
 20
0.0
 11
5054.384695070894
 21
2075.000000000001
  0
LINE
  5
A2
100
AcDbEntity
  8
1
  6
CONTINUOUS
 62
           7
100
AcDbLine
 10
3054.384695070894
 20
0.0
 11
3054.384695070894
 21
2050.000000000002
  0
LINE
  5
A1
100
AcDbEntity
  8
1
  6
CONTINUOUS
 62
           7
100
AcDbLine
 10
1300.000000000003
 20
6000.0
 11
0.000000000002
 21
6000.0
  0
LINE
  5
A0
100
AcDbEntity
  8
1
  6
CONTINUOUS
 62
           4
100
AcDbLine
 10
-979.999999999996
 20
5019.999999999999
 11
-979.999999999996
 21
5980.0
  0
LINE
  5
9F
100
AcDbEntity
  8
1
  6
CONTINUOUS
 62
           4
100
AcDbLine
 10
-979.999999999996
 20
5019.999999999999
 11
-519.999999999998
 21
5020.0
  0
LINE
  5
9E
100
AcDbEntity
  8
1
  6
CONTINUOUS
 62
           4
100
AcDbLine
 10
-1229.999999999996
 20
4980.0
 11
-1229.999999999996
 21
4520.000000000002
  0
LINE
  5
9D
100
AcDbEntity
  8
1
  6
CONTINUOUS
 62
           4
100
AcDbLine
 10
1230.000000000002
 20
4520.000000000002
 11
1230.000000000003
 21
4980.0
  0
LINE
  5
9C
100
AcDbEntity
  8
1
  6
CONTINUOUS
 62
           7
100
AcDbLine
 10
-1299.999999999996
 20
5000.0
 11
1300.000000000003
 21
5000.0
  0
LINE
  5
9B
100
AcDbEntity
  8
1
  6
CONTINUOUS
 62
           7
100
AcDbLine
 10
-1299.999999999996
 20
6000.0
 11
-1299.999999999996
 21
4000.000000000001
  0
LINE
  5
9A
100
AcDbEntity
  8
1
  6
CONTINUOUS
 62
           7
100
AcDbLine
 10
-1299.999999999996
 20
4000.000000000001
 11
1300.000000000003
 21
4000.000000000001
  0
LINE
  5
99
100
AcDbEntity
  8
1
  6
CONTINUOUS
 62
           4
100
AcDbLine
 10
3074.384695070895
 20
20.0
 11
3534.384695070895
 21
20.0
  0
LINE
  5
98
100
AcDbEntity
  8
1
  6
CONTINUOUS
 62
           4
100
AcDbLine
 10
3534.384695070895
 20
20.0
 11
3534.384695070895
 21
1980.000000000002
  0
LINE
  5
97
100
AcDbEntity
  8
1
  6
CONTINUOUS
 62
           4
100
AcDbLine
 10
3534.384695070895
 20
1980.000000000002
 11
3074.384695070895
 21
1980.000000000002
  0
LINE
  5
96
100
AcDbEntity
  8
1
  6
CONTINUOUS
 62
           4
100
AcDbLine
 10
3074.384695070895
 20
1980.000000000002
 11
3074.384695070895
 21
20.0
  0
LINE
  5
95
100
AcDbEntity
  8
1
  6
CONTINUOUS
 62
           7
100
AcDbLine
 10
3554.384695070894
 20
0.0
 11
3554.384695070894
 21
2000.000000000002
  0
LINE
  5
94
100
AcDbEntity
  8
1
  6
CONTINUOUS
 62
           7
100
AcDbLine
 10
3554.384695070894
 20
500.000000000001
 11
5054.384695070894
 21
500.000000000001
  0
LINE
  5
93
100
AcDbEntity
  8
1
  6
CONTINUOUS
 62
           4
100
AcDbLine
 10
5033.818020375454
 20
479.385061529884
 11
3574.384695070895
 21
479.385061529884
  0
LINE
  5
92
100
AcDbEntity
  8
1
  6
CONTINUOUS
 62
           4
100
AcDbLine
 10
3574.384695070895
 20
479.385061529884
 11
3574.384695070895
 21
20.0
  0
LINE
  5
91
100
AcDbEntity
  8
1
  6
CONTINUOUS
 62
           4
100
AcDbLine
 10
3574.384695070895
 20
20.0
 11
5033.818020375454
 21
20.0
  0
LINE
  5
90
100
AcDbEntity
  8
1
  6
CONTINUOUS
 62
           4
100
AcDbLine
 10
5033.818020375454
 20
20.0
 11
5033.818020375454
 21
479.385061529884
  0
LINE
  5
8F
100
AcDbEntity
  8
1
  6
CONTINUOUS
 62
           7
100
AcDbLine
 10
4054.384695070894
 20
500.000000000001
 11
4054.384695070894
 21
1767.29327352817
  0
LINE
  5
8E
100
AcDbEntity
  8
1
  6
CONTINUOUS
 62
           4
100
AcDbLine
 10
4034.384695070895
 20
1980.000000000002
 11
3574.384695070895
 21
1980.000000000002
  0
LINE
  5
8D
100
AcDbEntity
  8
1
  6
CONTINUOUS
 62
           4
100
AcDbLine
 10
3574.384695070895
 20
1980.000000000002
 11
3574.384695070895
 21
520.000000000001
  0
LINE
  5
8C
100
AcDbEntity
  8
1
  6
CONTINUOUS
 62
           4
100
AcDbLine
 10
3574.384695070895
 20
520.000000000001
 11
4034.384695070895
 21
520.000000000001
  0
LINE
  5
8B
100
AcDbEntity
  8
1
  6
CONTINUOUS
 62
           4
100
AcDbLine
 10
4034.384695070895
 20
520.000000000001
 11
4034.384695070895
 21
1715.525103244266
  0
LINE
  5
8A
100
AcDbEntity
  8
1
  6
CONTINUOUS
 62
           4
100
AcDbLine
 10
4074.384695070895
 20
520.000000000001
 11
5034.384695070893
 21
520.000000000001
  0
LINE
  5
89
100
AcDbEntity
  8
1
  6
CONTINUOUS
 62
           4
100
AcDbLine
 10
5034.384695070893
 20
520.000000000001
 11
5034.384695070893
 21
1980.000000000002
  0
LINE
  5
88
100
AcDbEntity
  8
1
  6
CONTINUOUS
 62
           4
100
AcDbLine
 10
5034.384695070893
 20
1980.000000000002
 11
4074.384695070895
 21
1980.000000000002
  0
LINE
  5
87
100
AcDbEntity
  8
1
  6
CONTINUOUS
 62
           4
100
AcDbLine
 10
4074.384695070895
 20
1980.000000000002
 11
4074.384695070895
 21
1814.464669216339
  0
LINE
  5
86
100
AcDbEntity
  8
1
  6
CONTINUOUS
 62
           4
100
AcDbLine
 10
520.000000000002
 20
5980.0
 11
520.000000000002
 21
5020.0
  0
LINE
  5
85
100
AcDbEntity
  8
1
  6
CONTINUOUS
 62
           7
100
AcDbLine
 10
500.000000000002
 20
5000.0
 11
500.000000000002
 21
6000.0
  0
LINE
  5
84
100
AcDbEntity
  8
1
  6
CONTINUOUS
 62
           4
100
AcDbLine
 10
-519.999999999998
 20
5020.0
 11
-519.999999999998
 21
5406.67455144063
  0
LINE
  5
83
100
AcDbEntity
  8
1
  6
CONTINUOUS
 62
           7
100
AcDbLine
 10
-499.999999999998
 20
5000.0
 11
-499.999999999998
 21
5373.091147075653
  0
LINE
  5
82
100
AcDbEntity
  8
1
  6
CONTINUOUS
 62
           4
100
AcDbLine
 10
-1299.999999999997
 20
4020.000000000002
 11
1300.000000000003
 21
4020.000000000002
  0
LINE
  5
81
100
AcDbEntity
  8
1
  6
CONTINUOUS
 62
           4
100
AcDbLine
 10
-1229.999999999996
 20
4520.000000000002
 11
1230.000000000002
 21
4520.000000000002
  0
LINE
  5
80
100
AcDbEntity
  8
1
  6
CONTINUOUS
 62
           7
100
AcDbLine
 10
-1249.999999999996
 20
4500.000000000001
 11
1250.000000000003
 21
4500.000000000001
  0
LINE
  5
7F
100
AcDbEntity
  8
1
  6
CONTINUOUS
 62
           7
100
AcDbLine
 10
1000.0
 20
5000.0
 11
1000.0
 21
6000.0
  0
LINE
  5
7E
100
AcDbEntity
  8
1
  6
CONTINUOUS
 62
           7
100
AcDbLine
 10
-1000.0
 20
5000.0
 11
-1000.0
 21
6000.0
  0
LINE
  5
7D
100
AcDbEntity
  8
1
  6
CONTINUOUS
 62
           4
100
AcDbLine
 10
1020.0
 20
5980.0
 11
1280.000000000003
 21
5980.0
  0
LINE
  5
7C
100
AcDbEntity
  8
1
  6
CONTINUOUS
 62
           4
100
AcDbLine
 10
1280.000000000003
 20
5980.0
 11
1280.000000000003
 21
5020.0
  0
LINE
  5
7B
100
AcDbEntity
  8
1
  6
CONTINUOUS
 62
           4
100
AcDbLine
 10
1280.000000000003
 20
5020.0
 11
1020.0
 21
5020.0
  0
LINE
  5
7A
100
AcDbEntity
  8
1
  6
CONTINUOUS
 62
           4
100
AcDbLine
 10
1020.0
 20
5020.0
 11
1020.0
 21
5980.0
  0
LINE
  5
79
100
AcDbEntity
  8
1
  6
CONTINUOUS
 62
           4
100
AcDbLine
 10
-1019.999999999996
 20
5020.0
 11
-1280.0
 21
5020.0
  0
LINE
  5
78
100
AcDbEntity
  8
1
  6
CONTINUOUS
 62
           4
100
AcDbLine
 10
-1280.0
 20
5020.0
 11
-1280.0
 21
5980.0
  0
LINE
  5
77
100
AcDbEntity
  8
1
  6
CONTINUOUS
 62
           4
100
AcDbLine
 10
-1280.0
 20
5980.0
 11
-1019.999999999996
 21
5980.0
  0
LINE
  5
76
100
AcDbEntity
  8
1
  6
CONTINUOUS
 62
           4
100
AcDbLine
 10
-1019.999999999996
 20
5980.0
 11
-1019.999999999996
 21
5020.0
  0
LINE
  5
75
100
AcDbEntity
  8
1
  6
CONTINUOUS
 62
           4
100
AcDbLine
 10
3504.384695070895
 20
1700.000000000002
 11
3534.384695070896
 21
1700.000000000002
  0
LINE
  5
74
100
AcDbEntity
  8
1
  6
CONTINUOUS
 62
           4
100
AcDbLine
 10
3504.384695070895
 20
1300.000000000002
 11
3534.384695070896
 21
1300.000000000002
  0
LINE
  5
73
100
AcDbEntity
  8
1
  6
CONTINUOUS
 62
           7
100
AcDbLine
 10
3054.384695070895
 20
2150.000000000002
 11
3074.384695070895
 21
2150.000000000002
  0
LINE
  5
72
100
AcDbEntity
  8
1
  6
CONTINUOUS
 62
           7
100
AcDbLine
 10
-1069.497691536608
 20
986.513526798369
 11
75.000000000001
 21
986.513526798369
  0
LINE
  5
71
100
AcDbEntity
  8
___S__
  6
DOT_CENTER
 62
           3
100
AcDbLine
 10
-1074.999999999999
 20
1067.063266596461
 11
-1075.0
 21
982.067556365335
  0
LINE
  5
70
100
AcDbEntity
  8
____
  6
CONTINUOUS
 62
           3
100
AcDbLine
 10
-1069.595947044879
 20
1060.459504816179
 11
-1069.595947044879
 21
1058.581574068056
  0
LINE
  5
6F
100
AcDbEntity
  8
____
  6
CONTINUOUS
 62
           3
100
AcDbLine
 10
-1079.912775413743
 20
1060.92898750321
 11
-1070.087224586254
 21
1060.92898750321
  0
LINE
  5
6E
100
AcDbEntity
  8
____
  6
CONTINUOUS
 62
           3
100
AcDbLine
 10
-1080.404052955117
 20
1058.581574068056
 11
-1080.404052955117
 21
1060.459504816179
  0
LINE
  5
6D
100
AcDbEntity
  8
____
  6
CONTINUOUS
 62
           3
100
AcDbLine
 10
-1069.497691536607
 20
1022.900889853723
 11
-1080.502308463384
 21
1022.900889853724
  0
LINE
  5
6C
100
AcDbEntity
  8
____
  6
CONTINUOUS
 62
           3
100
AcDbLine
 10
-1069.497691536606
 20
1058.581574068056
 11
-1069.497691536607
 21
1022.900889853723
  0
LINE
  5
6B
100
AcDbEntity
  8
____
  6
CONTINUOUS
 62
           3
100
AcDbLine
 10
-1080.502308463383
 20
1058.581574068056
 11
-1069.497691536606
 21
1058.581574068056
  0
LINE
  5
6A
100
AcDbEntity
  8
____
  6
CONTINUOUS
 62
           3
100
AcDbLine
 10
-1080.502308463384
 20
1022.900889853724
 11
-1080.502308463383
 21
1058.581574068056
  0
LINE
  5
69
100
AcDbEntity
  8
____
  6
CONTINUOUS
 62
           3
100
AcDbLine
 10
-1080.404052955119
 20
984.403309517207
 11
-1080.404052955119
 21
986.281240265329
  0
LINE
  5
68
100
AcDbEntity
  8
____
  6
CONTINUOUS
 62
           3
100
AcDbLine
 10
-1070.087224586256
 20
983.933826830174
 11
-1079.912775413745
 21
983.933826830174
  0
LINE
  5
67
100
AcDbEntity
  8
____
  6
CONTINUOUS
 62
           3
100
AcDbLine
 10
-1069.595947044881
 20
986.281240265329
 11
-1069.595947044881
 21
984.403309517207
  0
LINE
  5
66
100
AcDbEntity
  8
____
  6
CONTINUOUS
 62
           3
100
AcDbLine
 10
-1080.158414184431
 20
1022.900889853724
 11
-1080.158414184431
 21
1021.961924479662
  0
LINE
  5
65
100
AcDbEntity
  8
____
  6
CONTINUOUS
 62
           3
100
AcDbLine
 10
-1069.841585815568
 20
1022.900889853723
 11
-1080.158414184431
 21
1022.900889853724
  0
LINE
  5
64
100
AcDbEntity
  8
____
  6
CONTINUOUS
 62
           3
100
AcDbLine
 10
-1069.841585815568
 20
1021.961924479662
 11
-1069.841585815568
 21
1022.900889853723
  0
LINE
  5
63
100
AcDbEntity
  8
____
  6
CONTINUOUS
 62
           3
100
AcDbLine
 10
-1080.404052955117
 20
1060.459504816179
 11
-1069.595947044879
 21
1060.459504816179
  0
LINE
  5
62
100
AcDbEntity
  8
____
  6
CONTINUOUS
 62
           3
100
AcDbLine
 10
-1080.502308463384
 20
1021.961924479662
 11
-1069.497691536607
 21
1021.961924479662
  0
LINE
  5
61
100
AcDbEntity
  8
____
  6
CONTINUOUS
 62
           3
100
AcDbLine
 10
-1080.502308463384
 20
986.281240265329
 11
-1080.502308463384
 21
1021.961924479662
  0
LINE
  5
60
100
AcDbEntity
  8
____
  6
CONTINUOUS
 62
           3
100
AcDbLine
 10
-1069.497691536608
 20
986.281240265329
 11
-1080.502308463384
 21
986.281240265329
  0
LINE
  5
5F
100
AcDbEntity
  8
____
  6
CONTINUOUS
 62
           3
100
AcDbLine
 10
-1069.497691536607
 20
1021.961924479662
 11
-1069.497691536608
 21
986.281240265329
  0
LINE
  5
5E
100
AcDbEntity
  8
____
  6
CONTINUOUS
 62
           3
100
AcDbLine
 10
-1080.404052955117
 20
1060.459504816179
 11
-1079.912775413743
 21
1060.92898750321
  0
LINE
  5
5D
100
AcDbEntity
  8
____
  6
CONTINUOUS
 62
           3
100
AcDbLine
 10
-1070.087224586254
 20
1060.92898750321
 11
-1069.595947044879
 21
1060.459504816179
  0
LINE
  5
5C
100
AcDbEntity
  8
____
  6
CONTINUOUS
 62
           3
100
AcDbLine
 10
-1079.912775413745
 20
983.933826830174
 11
-1080.404052955119
 21
984.403309517207
  0
LINE
  5
5B
100
AcDbEntity
  8
____
  6
CONTINUOUS
 62
           3
100
AcDbLine
 10
-1069.595947044881
 20
984.403309517207
 11
-1070.087224586256
 21
983.933826830174
  0
LINE
  5
5A
100
AcDbEntity
  8
____
  6
CONTINUOUS
 62
           3
100
AcDbLine
 10
-1080.404052955119
 20
984.403309517207
 11
-1069.595947044881
 21
984.403309517207
  0
LINE
  5
59
100
AcDbEntity
  8
____
  6
CONTINUOUS
 62
           3
100
AcDbLine
 10
-1080.404052955095
 20
1538.392880207261
 11
-1069.595947044857
 21
1538.392880207261
  0
LINE
  5
58
100
AcDbEntity
  8
____
  6
CONTINUOUS
 62
           3
100
AcDbLine
 10
-1069.595947044857
 20
1538.392880207261
 11
-1070.087224586231
 21
1537.923397520231
  0
LINE
  5
57
100
AcDbEntity
  8
____
  6
CONTINUOUS
 62
           3
100
AcDbLine
 10
-1079.91277541372
 20
1537.923397520231
 11
-1080.404052955095
 21
1538.392880207261
  0
LINE
  5
56
100
AcDbEntity
  8
____
  6
CONTINUOUS
 62
           3
100
AcDbLine
 10
-1070.087224586231
 20
1614.918558193264
 11
-1069.595947044856
 21
1614.449075506233
  0
LINE
  5
55
100
AcDbEntity
  8
____
  6
CONTINUOUS
 62
           3
100
AcDbLine
 10
-1080.404052955094
 20
1614.449075506233
 11
-1079.912775413719
 21
1614.918558193264
  0
LINE
  5
54
100
AcDbEntity
  8
____
  6
CONTINUOUS
 62
           3
100
AcDbLine
 10
-1069.497691536591
 20
1575.951495169717
 11
-1069.497691536591
 21
1540.270810955383
  0
LINE
  5
53
100
AcDbEntity
  8
____
  6
CONTINUOUS
 62
           3
100
AcDbLine
 10
-1069.497691536591
 20
1540.270810955383
 11
-1080.502308463368
 21
1540.270810955383
  0
LINE
  5
52
100
AcDbEntity
  8
____
  6
CONTINUOUS
 62
           3
100
AcDbLine
 10
-1080.502308463368
 20
1540.270810955383
 11
-1080.502308463368
 21
1575.951495169717
  0
LINE
  5
51
100
AcDbEntity
  8
____
  6
CONTINUOUS
 62
           3
100
AcDbLine
 10
-1080.502308463368
 20
1575.951495169717
 11
-1069.497691536591
 21
1575.951495169717
  0
LINE
  5
50
100
AcDbEntity
  8
____
  6
CONTINUOUS
 62
           3
100
AcDbLine
 10
-1080.404052955094
 20
1614.449075506233
 11
-1069.595947044856
 21
1614.449075506233
  0
LINE
  5
4F
100
AcDbEntity
  8
____
  6
CONTINUOUS
 62
           3
100
AcDbLine
 10
-1069.841585815544
 20
1575.951495169717
 11
-1069.841585815544
 21
1576.890460543777
  0
LINE
  5
4E
100
AcDbEntity
  8
____
  6
CONTINUOUS
 62
           3
100
AcDbLine
 10
-1069.841585815544
 20
1576.890460543777
 11
-1080.158414184407
 21
1576.890460543777
  0
LINE
  5
4D
100
AcDbEntity
  8
____
  6
CONTINUOUS
 62
           3
100
AcDbLine
 10
-1080.158414184407
 20
1576.890460543777
 11
-1080.158414184407
 21
1575.951495169717
  0
LINE
  5
4C
100
AcDbEntity
  8
____
  6
CONTINUOUS
 62
           3
100
AcDbLine
 10
-1069.595947044857
 20
1540.270810955383
 11
-1069.595947044857
 21
1538.392880207261
  0
LINE
  5
4B
100
AcDbEntity
  8
____
  6
CONTINUOUS
 62
           3
100
AcDbLine
 10
-1070.087224586231
 20
1537.923397520231
 11
-1079.91277541372
 21
1537.923397520231
  0
LINE
  5
4A
100
AcDbEntity
  8
____
  6
CONTINUOUS
 62
           3
100
AcDbLine
 10
-1080.404052955095
 20
1538.392880207261
 11
-1080.404052955095
 21
1540.270810955383
  0
LINE
  5
49
100
AcDbEntity
  8
____
  6
CONTINUOUS
 62
           3
100
AcDbLine
 10
-1080.502308463368
 20
1576.890460543777
 11
-1080.502308463367
 21
1612.571144758109
  0
LINE
  5
48
100
AcDbEntity
  8
____
  6
CONTINUOUS
 62
           3
100
AcDbLine
 10
-1080.502308463367
 20
1612.571144758109
 11
-1069.49769153659
 21
1612.571144758108
  0
LINE
  5
47
100
AcDbEntity
  8
____
  6
CONTINUOUS
 62
           3
100
AcDbLine
 10
-1069.49769153659
 20
1612.571144758108
 11
-1069.497691536591
 21
1576.890460543777
  0
LINE
  5
46
100
AcDbEntity
  8
____
  6
CONTINUOUS
 62
           3
100
AcDbLine
 10
-1069.497691536591
 20
1576.890460543777
 11
-1080.502308463368
 21
1576.890460543777
  0
LINE
  5
45
100
AcDbEntity
  8
____
  6
CONTINUOUS
 62
           3
100
AcDbLine
 10
-1080.404052955094
 20
1612.571144758109
 11
-1080.404052955094
 21
1614.449075506233
  0
LINE
  5
44
100
AcDbEntity
  8
____
  6
CONTINUOUS
 62
           3
100
AcDbLine
 10
-1079.912775413719
 20
1614.918558193264
 11
-1070.087224586231
 21
1614.918558193264
  0
LINE
  5
43
100
AcDbEntity
  8
____
  6
CONTINUOUS
 62
           3
100
AcDbLine
 10
-1069.595947044856
 20
1614.449075506233
 11
-1069.595947044856
 21
1612.571144758108
  0
LINE
  5
42
100
AcDbEntity
  8
___S__
  6
DOT_CENTER
 62
           3
100
AcDbLine
 10
-1074.999999999975
 20
1621.052837286498
 11
-1074.999999999976
 21
1536.05712705539
  0
LINE
  5
41
100
AcDbEntity
  8
1
  6
CONTINUOUS
 62
           7
100
AcDbLine
 10
-1074.999999999999
 20
941.513526798366
 11
75.000000000001
 21
941.513526798366
  0
LINE
  5
40
100
AcDbEntity
  8
1
  6
CONTINUOUS
 62
           7
100
AcDbLine
 10
75.000000000001
 20
941.513526798366
 11
75.000000000001
 21
1646.282992387804
  0
LINE
  5
3F
100
AcDbEntity
  8
1
  6
CONTINUOUS
 62
           7
100
AcDbLine
 10
-1074.999999999999
 20
941.513526798366
 11
-1074.999999999999
 21
1646.282992387804
  0
LINE
  5
3E
100
AcDbEntity
  8
1
  6
CONTINUOUS
 62
           7
100
AcDbLine
 10
75.000000000001
 20
1646.282992387804
 11
-1074.999999999999
 21
1646.282992387804
  0
LINE
  5
3D
100
AcDbEntity
  8
1
  6
CONTINUOUS
 62
           3
100
AcDbLine
 10
14.395796321875
 20
1294.328109327061
 11
12.007850321894
 21
1267.07098532706
  0
LINE
  5
3C
100
AcDbEntity
  8
1
  6
CONTINUOUS
 62
           3
100
AcDbLine
 10
12.007850321894
 20
1323.330711327061
 11
14.395796321875
 21
1296.073587327061
  0
LINE
  5
3B
100
AcDbEntity
  8
1
  6
CONTINUOUS
 62
           3
100
AcDbLine
 10
2.548714321875
 20
1294.328109327061
 11
4.936660321885
 21
1267.07098532706
  0
LINE
  5
3A
100
AcDbEntity
  8
1
  6
CONTINUOUS
 62
           3
100
AcDbLine
 10
4.936660321885
 20
1323.330711327061
 11
2.548714321875
 21
1296.073587327061
  0
LINE
  5
39
100
AcDbEntity
  8
1
  6
DOT_CENTER
 62
           3
100
AcDbLine
 10
53.472255321879
 20
1295.200848327051
 11
-36.525199678126
 21
1295.200848327051
  0
LINE
  5
38
100
AcDbEntity
  8
1
  6
DOT_CENTER
 62
           3
100
AcDbLine
 10
8.472255321879
 20
1340.200848327051
 11
8.472255321879
 21
1250.202277327051
  0
LINE
  5
37
100
AcDbEntity
  8
1
  6
CONTINUOUS
 62
           7
100
AcDbLine
 10
1250.000000000001
 20
1763.744569986044
 11
-1249.999999999999
 21
1763.744569986044
  0
LINE
  5
36
100
AcDbEntity
  8
1
  6
CONTINUOUS
 62
           7
100
AcDbLine
 10
250.0
 20
1763.744569986044
 11
250.0
 21
800.0
  0
LINE
  5
35
100
AcDbEntity
  8
1
  6
CONTINUOUS
 62
           7
100
AcDbLine
 10
-249.999999999999
 20
2000.0
 11
-249.999999999999
 21
1763.744569986044
  0
LINE
  5
34
100
AcDbEntity
  8
1
  6
CONTINUOUS
 62
           7
100
AcDbLine
 10
3604.384695070896
 20
1640.000000000001
 11
3784.384695070896
 21
1640.000000000001
  0
LINE
  5
33
100
AcDbEntity
  8
1
  6
CONTINUOUS
 62
           7
100
AcDbLine
 10
3784.384695070896
 20
1640.000000000001
 11
3784.384695070896
 21
1753.000000000002
  0
LINE
  5
32
100
AcDbEntity
  8
1
  6
CONTINUOUS
 62
           7
100
AcDbLine
 10
3784.384695070896
 20
1753.000000000002
 11
3604.384695070896
 21
1753.000000000001
  0
LINE
  5
31
100
AcDbEntity
  8
1
  6
CONTINUOUS
 62
           7
100
AcDbLine
 10
3604.384695070896
 20
1753.000000000001
 11
3604.384695070896
 21
1640.000000000001
  0
LINE
  5
30
100
AcDbEntity
  8
1
  6
CONTINUOUS
 62
           4
100
AcDbLine
 10
4034.384695070895
 20
1741.488764155298
 11
4034.384695070895
 21
1980.000000000002
  0
LINE
  5
2F
100
AcDbEntity
  8
1
  6
CONTINUOUS
 62
           7
100
AcDbLine
 10
4054.384695070894
 20
1783.411003821871
 11
4054.384695070894
 21
2000.000000000002
  0
LINE
  5
2E
100
AcDbEntity
  8
1
  6
CONTINUOUS
 62
           4
100
AcDbLine
 10
4074.384695070895
 20
1800.831132334582
 11
4074.384695070895
 21
520.000000000001
  0
POINT
  5
2D
100
AcDbEntity
  8
0
 62
           3
100
AcDbPoint
 10
3887.784691792628
 20
1365.000000000118
  0
ENDSEC
  0
SECTION
  2
OBJECTS
  0
DICTIONARY
  5
19
100
AcDbDictionary
  3
ACAD_GROUP
350
1A
  3
ACAD_MLINESTYLE
350
1B
  0
DICTIONARY
  5
1A
102
{ACAD_REACTORS
330
19
102
}
100
AcDbDictionary
  0
DICTIONARY
  5
1B
102
{ACAD_REACTORS
330
19
102
}
100
AcDbDictionary
  3
STANDARD
350
1C
  0
MLINESTYLE
  5
1C
102
{ACAD_REACTORS
330
1B
102
}
100
AcDbMlineStyle
  2
STANDARD
 70
           0
  3

 62
           0
 51
90.0
 52
90.0
 71
           2
 49
0.5
 62
         256
  6
BYLAYER
 49
-0.5
 62
         256
  6
BYLAYER
  0
ENDSEC
  0
EOF
