  0
SECTION
  2
HEADER
  9
$ACADVER
  1
AC1014
  9
$ACADMAINTVER
 70
           0
  9
$DWGCODEPAGE
  3
DOS932
  9
$INSBASE
 10
0.0
 20
0.0
 30
0.0
  9
$EXTMIN
 10
1.000000000000E+20
 20
1.000000000000E+20
 30
1.000000000000E+20
  9
$EXTMAX
 10
-1.000000000000E+20
 20
-1.000000000000E+20
 30
-1.000000000000E+20
  9
$LIMMIN
 10
0.0
 20
0.0
  9
$LIMMAX
 10
0.0
 20
0.0
  9
$ORTHOMODE
 70
           0
  9
$REGENMODE
 70
           1
  9
$FILLMODE
 70
           1
  9
$QTEXTMODE
 70
           0
  9
$MIRRTEXT
 70
           1
  9
$DRAGMODE
 70
           2
  9
$LTSCALE
 40
1.0
  9
$OSMODE
 70
           0
  9
$ATTMODE
 70
           1
  9
$TEXTSIZE
 40
0.2
  9
$TRACEWID
 40
0.05
  9
$TEXTSTYLE
  7
STANDARD
  9
$CLAYER
  8
0
  9
$CELTYPE
  6
CONTINUOUS
  9
$CECOLOR
 62
         256
  9
$CELTSCALE
 40
1.0
  9
$DELOBJ
 70
           1
  9
$DISPSILH
 70
           0
  9
$DIMSCALE
 40
1.0
  9
$DIMASZ
 40
0.18
  9
$DIMEXO
 40
0.0625
  9
$DIMDLI
 40
0.38
  9
$DIMRND
 40
0.0
  9
$DIMDLE
 40
0.0
  9
$DIMEXE
 40
0.18
  9
$DIMTP
 40
0.0
  9
$DIMTM
 40
0.0
  9
$DIMTXT
 40
0.18
  9
$DIMCEN
 40
0.09
  9
$DIMTSZ
 40
0.0
  9
$DIMTOL
 70
           0
  9
$DIMLIM
 70
           0
  9
$DIMTIH
 70
           1
  9
$DIMTOH
 70
           1
  9
$DIMSE1
 70
           0
  9
$DIMSE2
 70
           0
  9
$DIMTAD
 70
           0
  9
$DIMZIN
 70
           0
  9
$DIMBLK
  1

  9
$DIMASO
 70
           1
  9
$DIMSHO
 70
           1
  9
$DIMPOST
  1

  9
$DIMAPOST
  1

  9
$DIMALT
 70
           0
  9
$DIMALTD
 70
           2
  9
$DIMALTF
 40
25.4
  9
$DIMLFAC
 40
1.0
  9
$DIMTOFL
 70
           0
  9
$DIMTVP
 40
0.0
  9
$DIMTIX
 70
           0
  9
$DIMSOXD
 70
           0
  9
$DIMSAH
 70
           0
  9
$DIMBLK1
  1

  9
$DIMBLK2
  1

  9
$DIMSTYLE
  2
STANDARD
  9
$DIMCLRD
 70
           0
  9
$DIMCLRE
 70
           0
  9
$DIMCLRT
 70
           0
  9
$DIMTFAC
 40
1.0
  9
$DIMGAP
 40
0.09
  9
$DIMJUST
 70
           0
  9
$DIMSD1
 70
           0
  9
$DIMSD2
 70
           0
  9
$DIMTOLJ
 70
           1
  9
$DIMTZIN
 70
           0
  9
$DIMALTZ
 70
           0
  9
$DIMALTTZ
 70
           0
  9
$DIMFIT
 70
           3
  9
$DIMUPT
 70
           0
  9
$DIMUNIT
 70
           2
  9
$DIMDEC
 70
           4
  9
$DIMTDEC
 70
           4
  9
$DIMALTU
 70
           2
  9
$DIMALTTD
 70
           2
  9
$DIMTXSTY
  7
STANDARD
  9
$DIMAUNIT
 70
           0
  9
$LUNITS
 70
           2
  9
$LUPREC
 70
           4
  9
$SKETCHINC
 40
0.1
  9
$FILLETRAD
 40
0.0
  9
$AUNITS
 70
           0
  9
$AUPREC
 70
           0
  9
$MENU
  1
acad
  9
$ELEVATION
 40
0.0
  9
$PELEVATION
 40
0.0
  9
$THICKNESS
 40
0.0
  9
$LIMCHECK
 70
           0
  9
$BLIPMODE
 70
           1
  9
$CHAMFERA
 40
0.0
  9
$CHAMFERB
 40
0.0
  9
$CHAMFERC
 40
0.0
  9
$CHAMFERD
 40
0.0
  9
$SKPOLY
 70
           0
  9
$TDCREATE
 40
0.000000000
  9
$TDUPDATE
 40
0.000000000
  9
$TDINDWG
 40
0.0000000000
  9
$TDUSRTIMER
 40
0.0000000000
  9
$USRTIMER
 70
           1
  9
$ANGBASE
 50
0.0
  9
$ANGDIR
 70
           0
  9
$PDMODE
 70
           0
  9
$PDSIZE
 40
0.0
  9
$PLINEWID
 40
0.0
  9
$COORDS
 70
           0
  9
$SPLFRAME
 70
           0
  9
$SPLINETYPE
 70
           6
  9
$SPLINESEGS
 70
           8
  9
$ATTDIA
 70
           0
  9
$ATTREQ
 70
           1
  9
$HANDLING
 70
           1
  9
$HANDSEED
  5
399
  9
$SURFTAB1
 70
           6
  9
$SURFTAB2
 70
           6
  9
$SURFTYPE
 70
           6
  9
$SURFU
 70
           6
  9
$SURFV
 70
           6
  9
$UCSNAME
  2

  9
$UCSORG
 10
0.0
 20
0.0
 30
0.0
  9
$UCSXDIR
 10
1.0
 20
0.0
 30
0.0
  9
$UCSYDIR
 10
0.0
 20
1.0
 30
0.0
  9
$PUCSNAME
  2

  9
$PUCSORG
 10
0.0
 20
0.0
 30
0.0
  9
$PUCSXDIR
 10
1.0
 20
0.0
 30
0.0
  9
$PUCSYDIR
 10
0.0
 20
1.0
 30
0.0
  9
$USERI1
 70
           0
  9
$USERI2
 70
           0
  9
$USERI3
 70
           0
  9
$USERI4
 70
           0
  9
$USERI5
 70
           0
  9
$USERR1
 40
0.0
  9
$USERR2
 40
0.0
  9
$USERR3
 40
0.0
  9
$USERR4
 40
0.0
  9
$USERR5
 40
0.0
  9
$WORLDVIEW
 70
           1
  9
$SHADEDGE
 70
           3
  9
$SHADEDIF
 70
          70
  9
$TILEMODE
 70
           1
  9
$MAXACTVP
 70
          16
  9
$PINSBASE
 10
0.0
 20
0.0
 30
0.0
  9
$PLIMCHECK
 70
           0
  9
$PEXTMIN
 10
1.000000000000E+20
 20
1.000000000000E+20
 30
1.000000000000E+20
  9
$PEXTMAX
 10
-1.000000000000E+20
 20
-1.000000000000E+20
 30
-1.000000000000E+20
  9
$PLIMMIN
 10
0.0
 20
0.0
  9
$PLIMMAX
 10
12.0
 20
9.0
  9
$UNITMODE
 70
           0
  9
$VISRETAIN
 70
           0
  9
$PLINEGEN
 70
           1
  9
$PSLTSCALE
 70
           0
  9
$TREEDEPTH
 70
        3020
  9
$PICKSTYLE
 70
           1
  9
$CMLSTYLE
  2
STANDARD
  9
$CMLJUST
 70
           0
  9
$CMLSCALE
 40
1.0
  9
$PROXYGRAPHICS
 70
           0
  9
$MEASUREMENT
 70
           0
  0
ENDSEC
  0
SECTION
  2
CLASSES
  0
CLASS
  1
LWPOLYLINE
  2
AcDbPolyline
  3
"AutoCAD"
 90
        0
280
           0
281
           1
  0
CLASS
  1
IMAGE
  2
AcDbRasterImage
  3
ISM
 90
      127
280
           0
281
           1
  0
CLASS
  1
OLE2FRAME
  2
AcDbOle2Frame
  3
""
 90
        0
280
           0
281
           1
  0
CLASS
  1
HATCH
  2
AcDbHatch
  3
"ACAD_SEDONA"
 90
        0
280
           0
281
           1
  0
CLASS
  1
DICTIONARYVAR
  2
AcDbDictionaryVar
  3
"AutoCAD"
 90
        0
280
           0
281
           0
  0
CLASS
  1
RASTERVARIABLES
  2
AcDbRasterVariables
  3
ISM
 90
        0
280
           0
281
           0
  0
CLASS
  1
IMAGEDEF
  2
AcDbRasterImageDef
  3
ISM
 90
        0
280
           0
281
           0
  0
CLASS
  1
IMAGEDEF_REACTOR
  2
AcDbRasterImageDefReactor
  3
ISM
 90
        1
280
           0
281
           0
  0
CLASS
  1
IDBUFFER
  2
AcDbIdBuffer
  3
"Acad"
 90
        0
280
           0
281
           0
  0
CLASS
  1
SPATIAL_FILTER
  2
AcDbSpatialFilter
  3
"Acad"
 90
        0
280
           0
281
           0
  0
CLASS
  1
XRECORD
  2
AcDbXrecord
  3
"<Built In>"
 90
        0
280
           0
281
           0
  0
CLASS
  1
SORTENTSTABLE
  2
AcDbSortentsTable
  3
"AutoCAD"
 90
        0
280
           0
281
           0
  0
CLASS
  1
LAYER_INDEX
  2
AcDbLayerIndex
  3
"Acad"
 90
        0
280
           0
281
           0
  0
CLASS
  1
SPATIAL_INDEX
  2
AcDbSpatialIndex
  3
"Acad"
 90
        0
280
           0
281
           0
  0
CLASS
  1
OBJECT_PTR
  2
CAseDLPNTableRecord
  3
"ASE-LPNTableRecord"
 90
        1
280
           0
281
           0
  0
CLASS
  1
LAYOUT
  2
AcDbLayout
  3
"AutoCAD 2000"
 90
        1
280
           0
281
           0
  0
CLASS
  1
PLOTSETTINGS
  2
AcDbPlotSettings
  3
"AutoCAD 2000"
 90
        1
280
           0
281
           0
  0
CLASS
  1
ACDBDICTIONARYWDFLT
  2
AcDbDictionaryWithDefault
  3
"AutoCAD 2000"
 90
        1
280
           0
281
           0
  0
CLASS
  1
ACDBPLACEHOLDER
  2
AcDbPlaceHolder
  3
"AutoCAD 2000"
 90
        1
280
           0
281
           0
  0
CLASS
  1
VBA_PROJECT
  2
AcDbVbaProject
  3
"acadvba"
 90
        1
280
           0
281
           0
  0
CLASS
  1
WIPEOUT
  2
AcDbWipeout
  3
WipeOut|AutoCAD Express Tool|expresstools@autodesk.com
 90
      127
280
           0
281
           1
  0
CLASS
  1
WIPEOUTVARIABLES
  2
AcDbWipeoutVariables
  3
WipeOut|AutoCAD Express Tool|expresstools@autodesk.com
 90
        0
280
           0
281
           0
  0
CLASS
  1
RTEXT
  2
RText
  3
RText|AutoCAD Express Tool|expresstools@autodesk.com
 90
        0
280
           0
281
           1
  0
CLASS
  1
ARCALIGNEDTEXT
  2
AcDbArcAlignedText
  3
ATEXT|AutoCAD Express Tool|expresstools@autodesk.com
 90
        0
280
           0
281
           1
  0
ENDSEC
  0
SECTION
  2
TABLES
  0
TABLE
  2
VPORT
  5
7
100
AcDbSymbolTable
 70
           1
  0
VPORT
  5
15
100
AcDbSymbolTableRecord
100
AcDbViewportTableRecord
  2
*ACTIVE
 70
           0
 10
0.0
 20
0.0
 11
1.0
 21
1.0
 12
6.591288
 22
4.579184
 13
0.0
 23
0.0
 14
1.0
 24
1.0
 15
0.0
 25
0.0
 16
0.0
 26
0.0
 36
1.0
 17
0.0
 27
0.0
 37
0.0
 40
9.158369
 41
0.688564
 42
50.0
 43
0.0
 44
0.0
 50
0.0
 51
0.0
 71
           0
 72
         100
 73
           1
 74
           1
 75
           0
 76
           0
 77
           0
 78
           0
  0
ENDTAB
  0
TABLE
  2
LTYPE
  5
4
100
AcDbSymbolTable
 70
          10
  0
LTYPE
  5
11
100
AcDbSymbolTableRecord
100
AcDbLinetypeTableRecord
  2
BYBLOCK
 70
          64
  3

 72
          65
 73
           0
 40
0.0
  0
LTYPE
  5
12
100
AcDbSymbolTableRecord
100
AcDbLinetypeTableRecord
  2
BYLAYER
 70
          64
  3

 72
          65
 73
           0
 40
0.0
  0
LTYPE
  5
13
100
AcDbSymbolTableRecord
100
AcDbLinetypeTableRecord
  2
CONTINUOUS
 70
          64
  3
Solid line
 72
          65
 73
           0
 40
0.0
  0
LTYPE
  5
1D
100
AcDbSymbolTableRecord
100
AcDbLinetypeTableRecord
  2
DASHED
 70
          64
  3
Dashed
 72
          65
 73
           2
 40
15.0
 49
12.0
 74
           0
 49
-3.0
 74
           0
  0
LTYPE
  5
1E
100
AcDbSymbolTableRecord
100
AcDbLinetypeTableRecord
  2
DOTTED
 70
          64
  3
Dotted
 72
          65
 73
           2
 40
3.5
 49
0.5
 74
           0
 49
-3.0
 74
           0
  0
LTYPE
  5
1F
100
AcDbSymbolTableRecord
100
AcDbLinetypeTableRecord
  2
DOT_CENTER
 70
          64
  3
Dot_Center
 72
          65
 73
           4
 40
2.0
 49
1.25
 74
           0
 49
-0.25
 74
           0
 49
0.25
 74
           0
 49
-0.25
 74
           0
  0
LTYPE
  5
20
100
AcDbSymbolTableRecord
100
AcDbLinetypeTableRecord
  2
LONG_DASHED
 70
          64
  3
Long_Dashed
 72
          65
 73
           2
 40
2.0
 49
1.5
 74
           0
 49
-0.5
 74
           0
  0
LTYPE
  5
21
100
AcDbSymbolTableRecord
100
AcDbLinetypeTableRecord
  2
DASH_CENTER
 70
          64
  3
Dash_Center
 72
          65
 73
           4
 40
36.0
 49
24.0
 74
           0
 49
-3.0
 74
           0
 49
6.0
 74
           0
 49
-3.0
 74
           0
  0
LTYPE
  5
22
100
AcDbSymbolTableRecord
100
AcDbLinetypeTableRecord
  2
PHANTOM
 70
          64
  3
Phantom
 72
          65
 73
           6
 40
2.5
 49
1.25
 74
           0
 49
-0.25
 74
           0
 49
0.25
 74
           0
 49
-0.25
 74
           0
 49
0.25
 74
           0
 49
-0.25
 74
           0
  0
LTYPE
  5
23
100
AcDbSymbolTableRecord
100
AcDbLinetypeTableRecord
  2
CENTER_DASH_DASH
 70
          64
  3
Center_Dash_Dash
 72
          65
 73
           6
 40
22.0
 49
12.0
 74
           0
 49
-3.0
 74
           0
 49
0.5
 74
           0
 49
-3.0
 74
           0
 49
0.5
 74
           0
 49
-3.0
 74
           0
  0
ENDTAB
  0
TABLE
  2
LAYER
  5
2
100
AcDbSymbolTable
 70
           7
  0
LAYER
  5
14
100
AcDbSymbolTableRecord
100
AcDbLayerTableRecord
  2
0
 70
           0
 62
           7
  6
CONTINUOUS
  0
LAYER
  5
24
100
AcDbSymbolTableRecord
100
AcDbLayerTableRecord
  2
___S__
 70
           0
 62
           7
  6
CONTINUOUS
  0
LAYER
  5
25
100
AcDbSymbolTableRecord
100
AcDbLayerTableRecord
  2
FORMAT
 70
           0
 62
           7
  6
CONTINUOUS
  0
LAYER
  5
26
100
AcDbSymbolTableRecord
100
AcDbLayerTableRecord
  2
1
 70
           0
 62
           7
  6
CONTINUOUS
  0
LAYER
  5
27
100
AcDbSymbolTableRecord
100
AcDbLayerTableRecord
  2
2
 70
           0
 62
           7
  6
CONTINUOUS
  0
LAYER
  5
28
100
AcDbSymbolTableRecord
100
AcDbLayerTableRecord
  2
7
 70
           0
 62
           7
  6
CONTINUOUS
  0
LAYER
  5
29
100
AcDbSymbolTableRecord
100
AcDbLayerTableRecord
  2
____
 70
           0
 62
           7
  6
CONTINUOUS
  0
ENDTAB
  0
TABLE
  2
STYLE
  5
3
100
AcDbSymbolTable
 70
           1
  0
STYLE
  5
17
100
AcDbSymbolTableRecord
100
AcDbTextStyleTableRecord
  2
STANDARD
 70
           0
 40
0.0
 41
1.0
 50
0.0
 71
           0
 42
0.0
  3
txt
  4

  0
ENDTAB
  0
TABLE
  2
VIEW
  5
5
100
AcDbSymbolTable
 70
           0
  0
ENDTAB
  0
TABLE
  2
UCS
  5
6
100
AcDbSymbolTable
 70
           0
  0
ENDTAB
  0
TABLE
  2
APPID
  5
8
100
AcDbSymbolTable
 70
           1
  0
APPID
  5
16
100
AcDbSymbolTableRecord
100
AcDbRegAppTableRecord
  2
ACAD
 70
           0
  0
ENDTAB
  0
TABLE
  2
DIMSTYLE
  5
9
100
AcDbSymbolTable
 70
           1
  0
DIMSTYLE
105
18
100
AcDbSymbolTableRecord
100
AcDbDimStyleTableRecord
  2
STANDARD
 70
           0
  3

  4

  5

  6

  7

 40
1.0
 41
0.18
 42
0.0625
 43
0.38
 44
0.18
 45
0.0
 46
0.0
 47
0.0
 48
0.0
 71
           0
 72
           0
 73
           1
 74
           1
 75
           0
 76
           0
 77
           0
 78
           0
140
0.18
141
0.09
142
0.0
143
25.4
144
1.0
145
0.0
146
1.0
147
0.09
170
           0
171
           2
172
           0
173
           0
174
           0
175
           0
176
           0
177
           0
178
           0
270
           2
271
           4
272
           4
273
           2
274
           2
275
           0
280
           0
281
           0
282
           0
283
           1
284
           0
285
           0
286
           0
287
           0
288
           0
340
17
  0
ENDTAB
  0
TABLE
  2
BLOCK_RECORD
  5
1
100
AcDbSymbolTable
 70
           0
  0
BLOCK_RECORD
  5
A
100
AcDbSymbolTableRecord
100
AcDbBlockTableRecord
  2
*MODEL_SPACE
  0
BLOCK_RECORD
  5
B
100
AcDbSymbolTableRecord
100
AcDbBlockTableRecord
  2
*PAPER_SPACE
  0
ENDTAB
  0
ENDSEC
  0
SECTION
  2
BLOCKS
  0
BLOCK
  5
D
100
AcDbEntity
  8
0
100
AcDbBlockBegin
  2
*MODEL_SPACE
 70
           0
 10
0.0
 20
0.0
 30
0.0
  3
*MODEL_SPACE
  1

  0
ENDBLK
  5
E
100
AcDbEntity
  8
0
100
AcDbBlockEnd
  0
BLOCK
  5
F
100
AcDbEntity
 67
           1
  8
0
100
AcDbBlockBegin
  2
*PAPER_SPACE
 70
           0
 10
0.0
 20
0.0
 30
0.0
  3
*PAPER_SPACE
  1

  0
ENDBLK
  5
10
100
AcDbEntity
 67
           1
  8
0
100
AcDbBlockEnd
  0
ENDSEC
  0
SECTION
  2
ENTITIES
  0
HATCH
  5
397
100
AcDbEntity
  8
0
  6
CONTINUOUS
 62
           2
100
AcDbHatch
 10
0.0
 20
0.0
 30
0.0
210
0.0
220
0.0
230
1.0
  2
USER
 70
           0
 71
           1
 91
        1
 92
        1
 93
        8
 72
           1
 10
3979.9999999999991
 20
1107.5
 11
3979.9999999999991
 21
1092.5
 72
           1
 10
3979.9999999999991
 20
1092.5
 11
3882.4999999999991
 21
1092.5
 72
           2
 10
3882.4999999999991
 20
1112.5
 40
20.0
 50
180.0
 51
-90.0
 73
           1
 72
           1
 10
3862.4999999999991
 20
1180.0
 11
3862.4999999999991
 21
1112.5
 72
           1
 10
3862.4999999999991
 20
1180.0
 11
3877.5
 21
1180.0
 72
           1
 10
3877.5
 20
1180.0
 11
3877.5
 21
1112.5
 72
           2
 10
3882.4999999999991
 20
1112.5
 40
4.9999999999990905
 50
180.0
 51
-90.0
 73
           1
 72
           1
 10
3979.9999999999991
 20
1107.5
 11
3882.4999999999991
 21
1107.5
 97
        7
330
37D
330
37F
330
C7
330
37E
330
C6
330
380
330
C8
 75
           1
 76
           0
 52
45.0
 41
10.0
 77
           0
 78
           1
 53
45.0
 43
0.0
 44
0.0
 45
-7.0710678118654746
 46
7.0710678118654755
 79
           0
 98
        1
 10
0.0
 20
0.0
  0
ARC
  5
396
100
AcDbEntity
  8
1
  6
CONTINUOUS
 62
           3
100
AcDbCircle
 10
4898.163567691042
 20
1917.80625341996
 40
0.5
100
AcDbArc
 50
180.0
 51
-90.0
  0
ARC
  5
395
100
AcDbEntity
  8
1
  6
CONTINUOUS
 62
           3
100
AcDbCircle
 10
4898.163567691042
 20
1932.19374658004
 40
0.5
100
AcDbArc
 50
90.0
 51
180.0
  0
ARC
  5
394
100
AcDbEntity
  8
1
  6
CONTINUOUS
 62
           3
100
AcDbCircle
 10
4749.899998122325
 20
1641.000000000001
 40
280.0
100
AcDbArc
 50
90.0
 51
180.0
  0
ARC
  5
393
100
AcDbEntity
  8
1
  6
CONTINUOUS
 62
           3
100
AcDbCircle
 10
4749.899996810932
 20
1641.0
 40
288.0
100
AcDbArc
 50
90.0
 51
180.0
  0
ARC
  5
392
100
AcDbEntity
  8
1
  6
CONTINUOUS
 62
           4
100
AcDbCircle
 10
117.908702762047
 20
5585.5
 40
12.0
100
AcDbArc
 50
90.0
 51
120.430594205705
  0
ARC
  5
391
100
AcDbEntity
  8
1
  6
CONTINUOUS
 62
           4
100
AcDbCircle
 10
117.908702762047
 20
5494.5
 40
12.000000000002
100
AcDbArc
 50
-120.430594205701
 51
-90.0
  0
ARC
  5
390
100
AcDbEntity
  8
1
  6
CONTINUOUS
 62
           7
100
AcDbCircle
 10
144.824966598197
 20
5488.5
 40
12.0
100
AcDbArc
 50
180.0
 51
-90.0
  0
ARC
  5
38F
100
AcDbEntity
  8
1
  6
CONTINUOUS
 62
           7
100
AcDbCircle
 10
144.824966598197
 20
5591.5
 40
12.0
100
AcDbArc
 50
90.0
 51
180.0
  0
ARC
  5
38E
100
AcDbEntity
  8
1
  6
CONTINUOUS
 62
           7
100
AcDbCircle
 10
185.000000000001
 20
5488.5
 40
12.0
100
AcDbArc
 50
-90.0
 51
0.0
  0
ARC
  5
38D
100
AcDbEntity
  8
1
  6
CONTINUOUS
 62
           7
100
AcDbCircle
 10
185.000000000001
 20
5591.5
 40
12.0
100
AcDbArc
 50
0.0
 51
90.0
  0
ARC
  5
38C
100
AcDbEntity
  8
1
  6
CONTINUOUS
 62
           7
100
AcDbCircle
 10
185.000000000002
 20
2788.3
 40
12.0
100
AcDbArc
 50
0.0
 51
90.0
  0
ARC
  5
38B
100
AcDbEntity
  8
1
  6
CONTINUOUS
 62
           7
100
AcDbCircle
 10
185.000000000002
 20
2712.3
 40
12.0
100
AcDbArc
 50
-90.0
 51
0.0
  0
ARC
  5
38A
100
AcDbEntity
  8
1
  6
CONTINUOUS
 62
           7
100
AcDbCircle
 10
134.496396800001
 20
2788.3
 40
12.0
100
AcDbArc
 50
90.0
 51
180.0
  0
ARC
  5
389
100
AcDbEntity
  8
1
  6
CONTINUOUS
 62
           7
100
AcDbCircle
 10
134.496396800001
 20
2712.3
 40
12.0
100
AcDbArc
 50
180.0
 51
-90.0
  0
ARC
  5
388
100
AcDbEntity
  8
1
  6
CONTINUOUS
 62
           7
100
AcDbCircle
 10
4988.499999999999
 20
2712.299999999997
 40
12.0
100
AcDbArc
 50
180.0
 51
-90.0
  0
ARC
  5
387
100
AcDbEntity
  8
1
  6
CONTINUOUS
 62
           7
100
AcDbCircle
 10
4988.499999999999
 20
2788.299999999997
 40
12.0
100
AcDbArc
 50
90.0
 51
180.0
  0
ARC
  5
386
100
AcDbEntity
  8
1
  6
CONTINUOUS
 62
           7
100
AcDbCircle
 10
5091.499999999999
 20
2712.299999999997
 40
12.0
100
AcDbArc
 50
-90.0
 51
0.0
  0
ARC
  5
385
100
AcDbEntity
  8
1
  6
CONTINUOUS
 62
           7
100
AcDbCircle
 10
5091.499999999999
 20
2788.299999999997
 40
12.0
100
AcDbArc
 50
0.0
 51
90.0
  0
ARC
  5
384
100
AcDbEntity
  8
1
  6
CONTINUOUS
 62
           4
100
AcDbCircle
 10
5555.499999999999
 20
2610.500000000001
 40
1.0
100
AcDbArc
 50
180.0
 51
-90.0
  0
ARC
  5
383
100
AcDbEntity
  8
1
  6
CONTINUOUS
 62
           4
100
AcDbCircle
 10
5544.499999999999
 20
2610.500000000001
 40
1.0
100
AcDbArc
 50
-90.0
 51
0.0
  0
ARC
  5
382
100
AcDbEntity
  8
1
  6
CONTINUOUS
 62
           4
100
AcDbCircle
 10
5555.499999999999
 20
2159.5
 40
1.0
100
AcDbArc
 50
90.0
 51
180.0
  0
ARC
  5
381
100
AcDbEntity
  8
1
  6
CONTINUOUS
 62
           4
100
AcDbCircle
 10
5544.499999999999
 20
2159.5
 40
1.0
100
AcDbArc
 50
0.0
 51
90.0
  0
ARC
  5
380
100
AcDbEntity
  8
1
  6
CONTINUOUS
 62
           7
100
AcDbCircle
 10
3882.499999999999
 20
1112.5
 40
4.999999999999
100
AcDbArc
 50
180.0
 51
-90.0
  0
ARC
  5
37F
100
AcDbEntity
  8
1
  6
CONTINUOUS
 62
           7
100
AcDbCircle
 10
3882.499999999999
 20
1112.5
 40
20.0
100
AcDbArc
 50
180.0
 51
-90.0
  0
LWPOLYLINE
  5
37E
100
AcDbEntity
  8
1
  6
CONTINUOUS
 62
           7
 60
           1
100
AcDbPolyline
 90
        2
 70
           0
 10
3862.499999999999
 20
1180.0
 10
3877.5
 20
1180.0
  0
LWPOLYLINE
  5
37D
100
AcDbEntity
  8
1
  6
CONTINUOUS
 62
           7
 60
           1
100
AcDbPolyline
 90
        3
 70
           0
 10
3979.999999999999
 20
1107.5
 10
3979.999999999999
 20
1092.5
 10
3882.499999999999
 20
1092.5
  0
SPLINE
  5
37C
100
AcDbEntity
  8
0
  6
CONTINUOUS
 62
           3
100
AcDbSpline
210
0.0
220
0.0
230
1.0
 70
           0
 71
           3
 72
           8
 73
           5
 74
           7
 42
0.00000000001
 43
0.00000000001
 44
0.00000000001
 40
0.0
 40
0.0
 40
0.0
 40
0.2989651950319967
 40
0.4296296276535259
 40
0.4465803504019732
 40
0.4465803504019732
 40
0.4465803504019732
 10
4420.8999966098654
 20
1384.6465796233019
 30
0.0
 10
4420.8999966099118
 20
1384.466936563425
 30
0.0
 10
4420.8999966099118
 20
1384.2282922931149
 30
0.0
 10
4420.8999966099118
 20
1384.2056076981819
 30
0.0
 10
4420.8999966099118
 20
1384.1999992729
 30
0.0
 11
4420.8999966098654
 21
1384.6465796233019
 31
0.0
 11
4420.8999966099
 21
1384.4703311443227
 31
0.0
 11
4420.8999966099118
 21
1384.3008718271399
 31
0.0
 11
4420.8999966099118
 21
1384.2414172487574
 31
0.0
 11
4420.8999966099118
 21
1384.2082125816601
 31
0.0
 11
4420.8999966099118
 21
1384.2048568127309
 31
0.0
 11
4420.8999966099118
 21
1384.1999992729
 31
0.0
  0
SPLINE
  5
37B
100
AcDbEntity
  8
0
  6
CONTINUOUS
 62
           3
100
AcDbSpline
210
0.0
220
0.0
230
1.0
 70
           0
 71
           3
 72
           8
 73
           5
 74
           7
 42
0.00000000001
 43
0.00000000001
 44
0.00000000001
 40
0.0
 40
0.0
 40
0.0
 40
0.0169507227484473
 40
0.1476151553699765
 40
0.4465803504019732
 40
0.4465803504019732
 40
0.4465803504019732
 10
4410.8999968334329
 20
1384.1999992729
 30
0.0
 10
4410.8999968334329
 20
1384.2056076981819
 30
0.0
 10
4410.8999968334329
 20
1384.2282922931149
 30
0.0
 10
4410.8999968334329
 20
1384.466936563425
 30
0.0
 10
4410.8999968334729
 20
1384.6465796233019
 30
0.0
 11
4410.8999968334329
 21
1384.1999992729
 31
0.0
 11
4410.8999968334319
 21
1384.2048568127309
 31
0.0
 11
4410.8999968334329
 21
1384.2082125816601
 31
0.0
 11
4410.8999968334329
 21
1384.2414172487577
 31
0.0
 11
4410.8999968334329
 21
1384.3008718271399
 31
0.0
 11
4410.8999968334429
 21
1384.4703311443232
 31
0.0
 11
4410.8999968334729
 21
1384.6465796233019
 31
0.0
  0
SPLINE
  5
37A
100
AcDbEntity
  8
0
  6
CONTINUOUS
 62
           3
100
AcDbSpline
210
0.0
220
0.0
230
1.0
 70
           0
 71
           3
 72
           8
 73
           5
 74
           7
 42
0.00000000001
 43
0.00000000001
 44
0.00000000001
 40
0.0
 40
0.0
 40
0.0
 40
0.4813883392837732
 40
1.3325653926425118
 40
2.5594910488310831
 40
2.5594910488310831
 40
2.5594910488310831
 10
4418.399996665762
 20
1384.1999992729
 30
0.0
 10
4418.459261471945
 20
1384.2004449713099
 30
0.0
 10
4419.3034813132917
 20
1384.2067938900659
 30
0.0
 10
4420.1307773327799
 20
1384.4346858415549
 30
0.0
 10
4420.8999966098654
 20
1384.6465796233019
 30
0.0
 11
4418.399996665762
 21
1384.1999992729
 31
0.0
 11
4418.5206887308814
 21
1384.2009069323501
 31
0.0
 11
4418.7642353138745
 21
1384.2027385138806
 31
0.0
 11
4419.253383550742
 21
1384.2291158030612
 31
0.0
 11
4419.6423362625146
 21
1384.3001369182336
 31
0.0
 11
4420.2009718844856
 21
1384.4540220561614
 31
0.0
 11
4420.8999966098654
 21
1384.6465796233019
 31
0.0
  0
SPLINE
  5
379
100
AcDbEntity
  8
0
  6
CONTINUOUS
 62
           3
100
AcDbSpline
210
0.0
220
0.0
230
1.0
 70
           0
 71
           3
 72
           8
 73
           5
 74
           7
 42
0.00000000001
 43
0.00000000001
 44
0.00000000001
 40
0.0
 40
0.0
 40
0.0
 40
0.4813884775047128
 40
1.3325655942388779
 40
2.5594910572531564
 40
2.5594910572531564
 40
2.5594910572531564
 10
4413.3999967775544
 20
1384.1999992729
 30
0.0
 10
4413.4592615843949
 20
1384.200444971553
 30
0.0
 10
4414.3034817008311
 20
1384.206793895828
 30
0.0
 10
4415.1307775679606
 20
1384.4346858417259
 30
0.0
 10
4415.8999967216751
 20
1384.6465796232951
 30
0.0
 11
4413.3999967775544
 21
1384.1999992729
 31
0.0
 11
4413.5206888783687
 21
1384.2009069331086
 31
0.0
 11
4413.7642355671296
 21
1384.202738516429
 31
0.0
 11
4414.2533839007092
 21
1384.2291158106427
 31
0.0
 11
4414.6423366340432
 21
1384.3001369344859
 31
0.0
 11
4415.2009721229097
 21
1384.454022060308
 31
0.0
 11
4415.8999967216751
 21
1384.6465796232951
 31
0.0
  0
SPLINE
  5
378
100
AcDbEntity
  8
0
  6
CONTINUOUS
 62
           3
100
AcDbSpline
210
0.0
220
0.0
230
1.0
 70
           0
 71
           3
 72
           8
 73
           5
 74
           7
 42
0.00000000001
 43
0.00000000001
 44
0.00000000001
 40
0.0
 40
0.0
 40
0.0
 40
0.2779454797462013
 40
0.7862825386896926
 40
1.5429638907223102
 40
1.5429638907223102
 40
1.5429638907223102
 10
4411.569869687346
 20
1367.5999939442549
 30
0.0
 10
4411.6040862319232
 20
1367.600439636512
 30
0.0
 10
4412.0914969500309
 20
1367.606788471174
 30
0.0
 10
4412.5691364171962
 20
1367.834684325677
 30
0.0
 10
4413.0132452878443
 20
1368.046581745235
 30
0.0
 11
4411.569869687346
 21
1367.5999939442549
 31
0.0
 11
4411.6386061814965
 21
1367.6008892808152
 31
0.0
 11
4411.7763825747925
 21
1367.6026839059814
 31
0.0
 11
4412.0607022116073
 21
1367.6286568402281
 31
0.0
 11
4412.283432371577
 21
1367.6983665125831
 31
0.0
 11
4412.6087376234536
 21
1367.853579227293
 31
0.0
 11
4413.0132452878443
 21
1368.046581745235
 31
0.0
  0
SPLINE
  5
377
100
AcDbEntity
  8
0
  6
CONTINUOUS
 62
           3
100
AcDbSpline
210
0.0
220
0.0
230
1.0
 70
           0
 71
           3
 72
           8
 73
           5
 74
           7
 42
0.00000000001
 43
0.00000000001
 44
0.00000000001
 40
0.0
 40
0.0
 40
0.0
 40
0.2779464854372303
 40
0.7862840843769809
 40
1.5429642658567382
 40
1.5429642658567382
 40
1.5429642658567382
 10
4411.569869687346
 20
1372.6000040770409
 30
0.0
 10
4411.5356531379821
 20
1372.599558381668
 30
0.0
 10
4411.0482404188824
 20
1372.59320947744
 30
0.0
 10
4410.570601939341
 20
1372.3653136934729
 30
0.0
 10
4410.1264938539734
 20
1372.1534162761091
 30
0.0
 11
4411.569869687346
 21
1372.6000040770409
 31
0.0
 11
4411.501132941592
 21
1372.599108731069
 31
0.0
 11
4411.3633558030579
 21
1372.5973140838987
 31
0.0
 11
4411.0790354338669
 21
1372.5713410900562
 31
0.0
 11
4410.856305094645
 21
1372.501631321446
 31
0.0
 11
4410.5310007068256
 21
1372.3464187461254
 31
0.0
 11
4410.1264938539734
 21
1372.1534162761091
 31
0.0
  0
SPLINE
  5
376
100
AcDbEntity
  8
0
  6
CONTINUOUS
 62
           3
100
AcDbSpline
210
0.0
220
0.0
230
1.0
 70
           0
 71
           3
 72
           8
 73
           5
 74
           7
 42
0.00000000001
 43
0.00000000001
 44
0.00000000001
 40
0.0
 40
0.0
 40
0.0
 40
0.2779464854282354
 40
0.7862840843632371
 40
1.5429642658946923
 40
1.5429642658946923
 40
1.5429642658946923
 10
4420.2301237560041
 20
1367.5999939442549
 30
0.0
 10
4420.2643403053644
 20
1367.6004396396349
 30
0.0
 10
4420.7517530244531
 20
1367.606788543864
 30
0.0
 10
4421.229391504
 20
1367.834684327823
 30
0.0
 10
4421.6734995893648
 20
1368.046581745311
 30
0.0
 11
4420.2301237560041
 21
1367.5999939442549
 31
0.0
 11
4420.2988605017526
 21
1367.6008892902323
 31
0.0
 11
4420.4366376402813
 21
1367.6026839374044
 31
0.0
 11
4420.7209580094677
 21
1367.6286569312456
 31
0.0
 11
4420.9436883486842
 21
1367.6983666998503
 31
0.0
 11
4421.2689927365127
 21
1367.853579275202
 31
0.0
 11
4421.6734995893648
 21
1368.046581745311
 31
0.0
  0
SPLINE
  5
375
100
AcDbEntity
  8
0
  6
CONTINUOUS
 62
           3
100
AcDbSpline
210
0.0
220
0.0
230
1.0
 70
           0
 71
           3
 72
           8
 73
           5
 74
           7
 42
0.00000000001
 43
0.00000000001
 44
0.00000000001
 40
0.0
 40
0.0
 40
0.0
 40
0.2779454797516296
 40
0.7862825386954071
 40
1.5429638907280854
 40
1.5429638907280854
 40
1.5429638907280854
 10
4420.2301237560041
 20
1372.6000040770409
 30
0.0
 10
4420.1959072114241
 20
1372.599558384783
 30
0.0
 10
4419.708496493311
 20
1372.5932095501271
 30
0.0
 10
4419.230857026153
 20
1372.36531369562
 30
0.0
 10
4418.7867481555022
 20
1372.153416276062
 30
0.0
 11
4420.2301237560041
 21
1372.6000040770409
 31
0.0
 11
4420.1613872618509
 21
1372.5991087404807
 31
0.0
 11
4420.0236108685513
 21
1372.5973141153156
 31
0.0
 11
4419.7392912317355
 21
1372.5713411810716
 31
0.0
 11
4419.5165610717677
 21
1372.5016315087164
 31
0.0
 11
4419.1912558198946
 21
1372.3464187940046
 31
0.0
 11
4418.7867481555022
 21
1372.153416276062
 31
0.0
  0
SPLINE
  5
374
100
AcDbEntity
  8
0
  6
CONTINUOUS
 62
           3
100
AcDbSpline
210
0.0
220
0.0
230
1.0
 70
           0
 71
           3
 72
           8
 73
           5
 74
           7
 42
0.00000000001
 43
0.00000000001
 44
0.00000000001
 40
0.0
 40
0.0
 40
0.0
 40
0.709710718913952
 40
1.6878556121190571
 40
2.9354150974118656
 40
2.9354150974118656
 40
2.9354150974118656
 10
4413.0132452878443
 20
1368.046581745235
 30
0.0
 10
4413.2266018694954
 20
1367.986940602696
 30
0.0
 10
4414.1669045504632
 20
1367.7240908429519
 30
0.0
 10
4415.1443418916842
 20
1367.6541020998659
 30
0.0
 10
4415.8999967216751
 20
1367.5999939442549
 30
0.0
 11
4413.0132452878443
 21
1368.046581745235
 31
0.0
 11
4413.2721075078007
 21
1367.9742200752128
 31
0.0
 11
4413.6219810043658
 21
1367.8764173502241
 31
0.0
 11
4414.1380638628552
 21
1367.7544828668413
 31
0.0
 11
4414.5964653461288
 21
1367.6933324312363
 31
0.0
 11
4415.1962864627931
 21
1367.6503826438056
 31
0.0
 11
4415.8999967216751
 21
1367.5999939442549
 31
0.0
  0
SPLINE
  5
373
100
AcDbEntity
  8
0
  6
CONTINUOUS
 62
           3
100
AcDbSpline
210
0.0
220
0.0
230
1.0
 70
           0
 71
           3
 72
           8
 73
           5
 74
           7
 42
0.00000000001
 43
0.00000000001
 44
0.00000000001
 40
0.0
 40
0.0
 40
0.0
 40
0.7273681394907159
 40
1.7065914567885365
 40
2.9387223240291283
 40
2.9387223240291283
 40
2.9387223240291283
 10
4415.8999967216751
 20
1367.5999939442549
 30
0.0
 10
4416.1387195010329
 20
1367.6054734833269
 30
0.0
 10
4417.1156271469818
 20
1367.6278969974519
 30
0.0
 10
4418.0674888562444
 20
1367.86637762072
 30
0.0
 10
4418.7867481553631
 20
1368.046581745311
 30
0.0
 11
4415.8999967216751
 21
1367.5999939442549
 31
0.0
 11
4416.1831310149737
 21
1367.606492885943
 31
0.0
 11
4416.555088336152
 21
1367.6150306328632
 31
0.0
 11
4417.0808673755118
 21
1367.6510811733845
 31
0.0
 11
4417.5371268719327
 21
1367.7335000657713
 31
0.0
 11
4418.1147131849466
 21
1367.8782092631307
 31
0.0
 11
4418.7867481553631
 21
1368.046581745311
 31
0.0
  0
SPLINE
  5
372
100
AcDbEntity
  8
0
  6
CONTINUOUS
 62
           3
100
AcDbSpline
210
0.0
220
0.0
230
1.0
 70
           0
 71
           3
 72
           8
 73
           5
 74
           7
 42
0.00000000001
 43
0.00000000001
 44
0.00000000001
 40
0.0
 40
0.0
 40
0.0
 40
1.2321308673578346
 40
2.211354184655832
 40
2.938722324146477
 40
2.938722324146477
 40
2.938722324146477
 10
4418.7867481555022
 20
1372.153416276062
 30
0.0
 10
4418.0674888562444
 20
1372.3336204005791
 30
0.0
 10
4417.1156271469818
 20
1372.572101023849
 30
0.0
 10
4416.1387195010329
 20
1372.5945245379701
 30
0.0
 10
4415.8999967216751
 20
1372.6000040770409
 30
0.0
 11
4418.7867481555022
 21
1372.153416276062
 31
0.0
 11
4418.1147131849748
 21
1372.3217887581886
 31
0.0
 11
4417.5371268719109
 21
1372.4664979555346
 31
0.0
 11
4417.0808673755064
 21
1372.5489168479169
 31
0.0
 11
4416.555088336152
 21
1372.5849673884354
 31
0.0
 11
4416.1831310149737
 21
1372.593505135354
 31
0.0
 11
4415.8999967216751
 21
1372.6000040770409
 31
0.0
  0
SPLINE
  5
371
100
AcDbEntity
  8
0
  6
CONTINUOUS
 62
           3
100
AcDbSpline
210
0.0
220
0.0
230
1.0
 70
           0
 71
           3
 72
           8
 73
           5
 74
           7
 42
0.00000000001
 43
0.00000000001
 44
0.00000000001
 40
0.0
 40
0.0
 40
0.0
 40
1.2475616964931251
 40
2.225708462242376
 40
2.9354211178796592
 40
2.9354211178796592
 40
2.9354211178796592
 10
4415.8999967216751
 20
1372.6000040770409
 30
0.0
 10
4415.1443400642538
 20
1372.5459088094719
 30
0.0
 10
4414.1668989125837
 20
1372.475936633469
 30
0.0
 10
4413.2266017037628
 20
1372.21306311116
 30
0.0
 10
4413.0132452878443
 20
1372.153416276062
 30
0.0
 11
4415.8999967216751
 21
1372.6000040770409
 31
0.0
 11
4415.196284566804
 21
1372.5496273656929
 31
0.0
 11
4414.5964614170334
 21
1372.5066877667871
 31
0.0
 11
4414.1380594916318
 21
1372.4455393603077
 31
0.0
 11
4413.6219787243281
 21
1372.3235964075061
 31
0.0
 11
4413.2721068549245
 21
1372.2257847264718
 31
0.0
 11
4413.0132452878443
 21
1372.153416276062
 31
0.0
  0
SPLINE
  5
370
100
AcDbEntity
  8
0
  6
CONTINUOUS
 62
           3
100
AcDbSpline
210
0.0
220
0.0
230
1.0
 70
           0
 71
           3
 72
           8
 73
           5
 74
           7
 42
0.00000000001
 43
0.00000000001
 44
0.00000000001
 40
0.0
 40
0.0
 40
0.0
 40
0.2779452695546022
 40
0.7862805426575715
 40
1.5429573554978033
 40
1.5429573554978033
 40
1.5429573554978033
 10
4411.569869687346
 20
1372.6000040770409
 30
0.0
 10
4411.6040862308737
 20
1372.6004497818089
 30
0.0
 10
4412.0914965280836
 20
1372.6067987893659
 30
0.0
 10
4412.5691362283642
 20
1372.834686833085
 30
0.0
 10
4413.0132452878443
 20
1373.04657697686
 30
0.0
 11
4411.569869687346
 21
1372.6000040770409
 31
0.0
 11
4411.6386062202855
 21
1372.6008994392637
 31
0.0
 11
4411.7763827320487
 21
1372.6026941163959
 31
0.0
 11
4412.0607020292246
 21
1372.6286663808407
 31
0.0
 11
4412.2834323286852
 21
1372.6983738282356
 31
0.0
 11
4412.6087375183151
 21
1372.8535811178165
 31
0.0
 11
4413.0132452878443
 21
1373.04657697686
 31
0.0
  0
SPLINE
  5
36F
100
AcDbEntity
  8
0
  6
CONTINUOUS
 62
           3
100
AcDbSpline
210
0.0
220
0.0
230
1.0
 70
           0
 71
           3
 72
           8
 73
           5
 74
           7
 42
0.00000000001
 43
0.00000000001
 44
0.00000000001
 40
0.0
 40
0.0
 40
0.0
 40
0.2779463803328208
 40
0.786283086339877
 40
1.5429609982605341
 40
1.5429609982605341
 40
1.5429609982605341
 10
4411.569869687346
 20
1377.5999993086659
 30
0.0
 10
4411.535653138505
 20
1377.599553607037
 30
0.0
 10
4411.0482406298752
 20
1377.593204616358
 30
0.0
 10
4410.570602033762
 20
1377.3653127377879
 30
0.0
 10
4410.1264938539734
 20
1377.1534189582039
 30
0.0
 11
4411.569869687346
 21
1377.5999993086659
 31
0.0
 11
4411.5011329221979
 21
1377.5991039498617
 31
0.0
 11
4411.3633557244357
 21
1377.5973092767078
 31
0.0
 11
4411.0790355250747
 21
1377.5713366177661
 31
0.0
 11
4410.8563051161118
 21
1377.5016279616407
 31
0.0
 11
4410.5310007594026
 21
1377.3464180988551
 31
0.0
 11
4410.1264938539734
 21
1377.1534189582039
 31
0.0
  0
SPLINE
  5
36E
100
AcDbEntity
  8
0
  6
CONTINUOUS
 62
           3
100
AcDbSpline
210
0.0
220
0.0
230
1.0
 70
           0
 71
           3
 72
           8
 73
           5
 74
           7
 42
0.00000000001
 43
0.00000000001
 44
0.00000000001
 40
0.0
 40
0.0
 40
0.0
 40
0.2779462752402385
 40
0.786282088328194
 40
1.5429577306511488
 40
1.5429577306511488
 40
1.5429577306511488
 10
4420.2301237560041
 20
1372.6000040770409
 30
0.0
 10
4420.264340304323
 20
1372.6004497849281
 30
0.0
 10
4420.7517526025049
 20
1372.606798862053
 30
0.0
 10
4421.2293913151652
 20
1372.8346868352339
 30
0.0
 10
4421.6734995893648
 20
1373.046576976911
 30
0.0
 11
4420.2301237560041
 21
1372.6000040770409
 31
0.0
 11
4420.298860540549
 21
1372.6008994486781
 31
0.0
 11
4420.4366377975475
 21
1372.6026941478153
 31
0.0
 11
4420.7209578270886
 21
1372.6286664718552
 31
0.0
 11
4420.9436883057933
 21
1372.6983740154988
 31
0.0
 11
4421.2689926313715
 21
1372.8535811657193
 31
0.0
 11
4421.6734995893648
 21
1373.046576976911
 31
0.0
  0
SPLINE
  5
36D
100
AcDbEntity
  8
0
  6
CONTINUOUS
 62
           3
100
AcDbSpline
210
0.0
220
0.0
230
1.0
 70
           0
 71
           3
 72
           8
 73
           5
 74
           7
 42
0.00000000001
 43
0.00000000001
 44
0.00000000001
 40
0.0
 40
0.0
 40
0.0
 40
0.2779453746517701
 40
0.7862815406658656
 40
1.5429606230904371
 40
1.5429606230904371
 40
1.5429606230904371
 10
4420.2301237560041
 20
1377.5999993086659
 30
0.0
 10
4420.1959072119507
 20
1377.5995536101509
 30
0.0
 10
4419.7084967042911
 20
1377.593204689045
 30
0.0
 10
4419.230857120574
 20
1377.365312739938
 30
0.0
 10
4418.7867481555022
 20
1377.1534189582669
 30
0.0
 11
4420.2301237560041
 21
1377.5999993086659
 31
0.0
 11
4420.1613872424577
 21
1377.599103959273
 31
0.0
 11
4420.0236107899264
 21
1377.5973093081241
 31
0.0
 11
4419.7392913229323
 21
1377.5713367087801
 31
0.0
 11
4419.5165610932199
 21
1377.5016281489065
 31
0.0
 11
4419.1912558724671
 21
1377.3464181467623
 31
0.0
 11
4418.7867481555022
 21
1377.1534189582669
 31
0.0
  0
SPLINE
  5
36C
100
AcDbEntity
  8
0
  6
CONTINUOUS
 62
           3
100
AcDbSpline
210
0.0
220
0.0
230
1.0
 70
           0
 71
           3
 72
           8
 73
           5
 74
           7
 42
0.00000000001
 43
0.00000000001
 44
0.00000000001
 40
0.0
 40
0.0
 40
0.0
 40
0.7097104926820577
 40
1.6878550560188867
 40
2.935414201174956
 40
2.935414201174956
 40
2.935414201174956
 10
4413.0132452878443
 20
1373.04657697686
 30
0.0
 10
4413.2266018489554
 20
1372.9869356693489
 30
0.0
 10
4414.1669038516529
 20
1372.7240853468579
 30
0.0
 10
4415.1443416651719
 20
1372.654105412621
 30
0.0
 10
4415.8999967216751
 20
1372.6000040770409
 30
0.0
 11
4413.0132452878443
 21
1373.04657697686
 31
0.0
 11
4413.2721074221536
 21
1372.9742151236569
 31
0.0
 11
4413.6219807028592
 21
1372.8764121790696
 31
0.0
 11
4414.1380633113731
 21
1372.7544784200809
 31
0.0
 11
4414.5964648393283
 21
1372.6933308075384
 31
0.0
 11
4415.1962862228374
 21
1372.6503864274555
 31
0.0
 11
4415.8999967216751
 21
1372.6000040770409
 31
0.0
  0
SPLINE
  5
36B
100
AcDbEntity
  8
0
  6
CONTINUOUS
 62
           3
100
AcDbSpline
210
0.0
220
0.0
230
1.0
 70
           0
 71
           3
 72
           8
 73
           5
 74
           7
 42
0.00000000001
 43
0.00000000001
 44
0.00000000001
 40
0.0
 40
0.0
 40
0.0
 40
0.7273675739554827
 40
1.7065896374626464
 40
2.9387184666011046
 40
2.9387184666011046
 40
2.9387184666011046
 10
4415.8999967216751
 20
1372.6000040770409
 30
0.0
 10
4416.1387194651561
 20
1372.605483801264
 30
0.0
 10
4417.1156260260932
 20
1372.6279080515189
 30
0.0
 10
4418.067488501053
 20
1372.8663796942849
 30
0.0
 10
4418.7867481553631
 20
1373.046576976911
 30
0.0
 11
4415.8999967216751
 21
1372.6000040770409
 31
0.0
 11
4416.1831309024901
 21
1372.6065032367183
 31
0.0
 11
4416.555087957975
 21
1372.6150412673048
 31
0.0
 11
4417.0808665470104
 21
1372.6510911338646
 31
0.0
 11
4417.5371261778801
 21
1372.7335071651169
 31
0.0
 11
4418.1147128338371
 21
1372.8782108826495
 31
0.0
 11
4418.7867481553631
 21
1373.046576976911
 31
0.0
  0
SPLINE
  5
36A
100
AcDbEntity
  8
0
  6
CONTINUOUS
 62
           3
100
AcDbSpline
210
0.0
220
0.0
230
1.0
 70
           0
 71
           3
 72
           8
 73
           5
 74
           7
 42
0.00000000001
 43
0.00000000001
 44
0.00000000001
 40
0.0
 40
0.0
 40
0.0
 40
1.2321298483013359
 40
2.2113525386978328
 40
2.9387203954173864
 40
2.9387203954173864
 40
2.9387203954173864
 10
4418.7867481555022
 20
1377.1534189582669
 30
0.0
 10
4418.0674886786446
 20
1377.333619661815
 30
0.0
 10
4417.1156265865329
 20
1377.572095794832
 30
0.0
 10
4416.1387194830922
 20
1377.5945196770219
 30
0.0
 10
4415.8999967216751
 20
1377.5999993086659
 30
0.0
 11
4418.7867481555022
 21
1377.1534189582669
 31
0.0
 11
4418.1147130094178
 21
1377.3217882464439
 31
0.0
 11
4417.5371265248796
 21
1377.4664947038791
 31
0.0
 11
4417.0808669612516
 21
1377.5489121656942
 31
0.0
 11
4416.5550881470608
 21
1377.5849623692334
 31
0.0
 11
4416.1831309587305
 21
1377.5935002579859
 31
0.0
 11
4415.8999967216751
 21
1377.5999993086659
 31
0.0
  0
SPLINE
  5
369
100
AcDbEntity
  8
0
  6
CONTINUOUS
 62
           3
100
AcDbSpline
210
0.0
220
0.0
230
1.0
 70
           0
 71
           3
 72
           8
 73
           5
 74
           7
 42
0.00000000001
 43
0.00000000001
 44
0.00000000001
 40
0.0
 40
0.0
 40
0.0
 40
1.247560420786697
 40
2.2257060852955828
 40
2.9354176594305246
 40
2.9354176594305246
 40
2.9354176594305246
 10
4415.8999967216751
 20
1377.5999993086659
 30
0.0
 10
4415.1443408647219
 20
1377.5459010071049
 30
0.0
 10
4414.1669013821611
 20
1377.4759249520059
 30
0.0
 10
4413.2266017763632
 20
1377.2130630295719
 30
0.0
 10
4413.0132452878443
 20
1377.1534189582669
 30
0.0
 11
4415.8999967216751
 21
1377.5999993086659
 31
0.0
 11
4415.1962853948316
 21
1377.5496197777979
 31
0.0
 11
4414.5964631282077
 21
1377.5066777883158
 31
0.0
 11
4414.1380614015361
 21
1377.4455297788065
 31
0.0
 11
4413.6219797136146
 21
1377.3235914228978
 31
0.0
 11
4413.2721071385458
 21
1377.2257841100773
 31
0.0
 11
4413.0132452878443
 21
1377.1534189582669
 31
0.0
  0
SPLINE
  5
368
100
AcDbEntity
  8
0
  6
CONTINUOUS
 62
           3
100
AcDbSpline
210
0.0
220
0.0
230
1.0
 70
           0
 71
           3
 72
           8
 73
           5
 74
           7
 42
0.00000000001
 43
0.00000000001
 44
0.00000000001
 40
0.0
 40
0.0
 40
0.0
 40
0.2779454797461836
 40
0.7862825386904746
 40
1.5429638907221621
 40
1.5429638907221621
 40
1.5429638907221621
 10
4411.569869687346
 20
1359.9999994040479
 30
0.0
 10
4411.6040862319232
 20
1360.0004450963061
 30
0.0
 10
4412.0914969500309
 20
1360.0067939309631
 30
0.0
 10
4412.5691364171962
 20
1360.23468978547
 30
0.0
 10
4413.0132452878443
 20
1360.4465872050239
 30
0.0
 11
4411.569869687346
 21
1359.9999994040479
 31
0.0
 11
4411.6386061814965
 21
1360.0008947406084
 31
0.0
 11
4411.7763825747916
 21
1360.0026893657737
 31
0.0
 11
4412.0607022116073
 21
1360.0286623000184
 31
0.0
 11
4412.2834323715779
 21
1360.0983719723736
 31
0.0
 11
4412.6087376234536
 21
1360.2535846870846
 31
0.0
 11
4413.0132452878443
 21
1360.4465872050239
 31
0.0
  0
SPLINE
  5
367
100
AcDbEntity
  8
0
  6
CONTINUOUS
 62
           3
100
AcDbSpline
210
0.0
220
0.0
230
1.0
 70
           0
 71
           3
 72
           8
 73
           5
 74
           7
 42
0.00000000001
 43
0.00000000001
 44
0.00000000001
 40
0.0
 40
0.0
 40
0.0
 40
0.2779462752374747
 40
0.7862820883292148
 40
1.542957730614025
 40
1.542957730614025
 40
1.542957730614025
 10
4411.569869687346
 20
1364.9999946356729
 30
0.0
 10
4411.5356531390325
 20
1364.9995489277901
 30
0.0
 10
4411.0482408408452
 20
1364.993199850662
 30
0.0
 10
4410.5706021281821
 20
1364.765311877482
 30
0.0
 10
4410.1264938539734
 20
1364.553421735915
 30
0.0
 11
4411.569869687346
 21
1364.9999946356729
 31
0.0
 11
4411.5011329028048
 21
1364.9990992640387
 31
0.0
 11
4411.363355645808
 21
1364.9973045649017
 31
0.0
 11
4411.0790356162624
 21
1364.97133224086
 31
0.0
 11
4410.8563051375486
 21
1364.9016246972135
 31
0.0
 11
4410.5310008119723
 21
1364.7464175470232
 31
0.0
 11
4410.1264938539734
 21
1364.553421735915
 31
0.0
  0
SPLINE
  5
366
100
AcDbEntity
  8
0
  6
CONTINUOUS
 62
           3
100
AcDbSpline
210
0.0
220
0.0
230
1.0
 70
           0
 71
           3
 72
           8
 73
           5
 74
           7
 42
0.00000000001
 43
0.00000000001
 44
0.00000000001
 40
0.0
 40
0.0
 40
0.0
 40
0.2779464854698445
 40
0.7862840844059157
 40
1.5429642659457914
 40
1.5429642659457914
 40
1.5429642659457914
 10
4420.2301237559641
 20
1359.999999403921
 30
0.0
 10
4420.2643403053644
 20
1360.000445099424
 30
0.0
 10
4420.7517530244531
 20
1360.006794003652
 30
0.0
 10
4421.229391504
 20
1360.2346897876159
 30
0.0
 10
4421.6734995893648
 20
1360.446587205121
 30
0.0
 11
4420.2301237559641
 21
1359.999999403921
 31
0.0
 11
4420.2988605017481
 21
1360.0008947499907
 31
0.0
 11
4420.4366376402986
 21
1360.0026893971935
 31
0.0
 11
4420.7209580094723
 21
1360.0286623910342
 31
0.0
 11
4420.9436883486833
 21
1360.0983721596399
 31
0.0
 11
4421.2689927365118
 21
1360.2535847349982
 31
0.0
 11
4421.6734995893648
 21
1360.446587205121
 31
0.0
  0
SPLINE
  5
365
100
AcDbEntity
  8
0
  6
CONTINUOUS
 62
           3
100
AcDbSpline
210
0.0
220
0.0
230
1.0
 70
           0
 71
           3
 72
           8
 73
           5
 74
           7
 42
0.00000000001
 43
0.00000000001
 44
0.00000000001
 40
0.0
 40
0.0
 40
0.0
 40
0.2779452695527626
 40
0.7862805426557556
 40
1.5429573555005023
 40
1.5429573555005023
 40
1.5429573555005023
 10
4420.2301237560041
 20
1364.9999946356729
 30
0.0
 10
4420.1959072124746
 20
1364.999548930904
 30
0.0
 10
4419.708496915272
 20
1364.993199923352
 30
0.0
 10
4419.2308572149832
 20
1364.7653118796329
 30
0.0
 10
4418.7867481555022
 20
1364.5534217358579
 30
0.0
 11
4420.2301237560041
 21
1364.9999946356729
 31
0.0
 11
4420.1613872230646
 21
1364.9990992734502
 31
0.0
 11
4420.0236107113033
 21
1364.9973045963191
 31
0.0
 11
4419.7392914141283
 21
1364.9713323318763
 31
0.0
 11
4419.5165611146676
 21
1364.9016248844828
 31
0.0
 11
4419.1912559250341
 21
1364.7464175949017
 31
0.0
 11
4418.7867481555022
 21
1364.5534217358579
 31
0.0
  0
SPLINE
  5
364
100
AcDbEntity
  8
0
  6
CONTINUOUS
 62
           3
100
AcDbSpline
210
0.0
220
0.0
230
1.0
 70
           0
 71
           3
 72
           8
 73
           5
 74
           7
 42
0.00000000001
 43
0.00000000001
 44
0.00000000001
 40
0.0
 40
0.0
 40
0.0
 40
0.7097126556365796
 40
1.6878594213857179
 40
2.935421117878819
 40
2.935421117878819
 40
2.935421117878819
 10
4413.0132452878443
 20
1360.4465872050239
 30
0.0
 10
4413.2266017037628
 20
1360.386940369928
 30
0.0
 10
4414.1668989125837
 20
1360.12406684762
 30
0.0
 10
4415.1443400642538
 20
1360.054094671616
 30
0.0
 10
4415.8999967216751
 20
1359.9999994040479
 30
0.0
 11
4413.0132452878443
 21
1360.4465872050239
 31
0.0
 11
4413.2721068549245
 21
1360.3742187546154
 31
0.0
 11
4413.6219787243281
 21
1360.2764070735825
 31
0.0
 11
4414.1380594916318
 21
1360.1544641207806
 31
0.0
 11
4414.5964614170334
 21
1360.0933157143013
 31
0.0
 11
4415.196284566804
 21
1360.0503761153952
 31
0.0
 11
4415.8999967216751
 21
1359.9999994040479
 31
0.0
  0
SPLINE
  5
363
100
AcDbEntity
  8
0
  6
CONTINUOUS
 62
           3
100
AcDbSpline
210
0.0
220
0.0
230
1.0
 70
           0
 71
           3
 72
           8
 73
           5
 74
           7
 42
0.00000000001
 43
0.00000000001
 44
0.00000000001
 40
0.0
 40
0.0
 40
0.0
 40
0.7273681394906273
 40
1.7065914567885585
 40
2.9387223240341238
 40
2.9387223240341238
 40
2.9387223240341238
 10
4415.8999967216751
 20
1359.9999994040479
 30
0.0
 10
4416.1387195010329
 20
1360.005478943116
 30
0.0
 10
4417.1156271469818
 20
1360.027902457241
 30
0.0
 10
4418.0674888562444
 20
1360.26638308051
 30
0.0
 10
4418.7867481553631
 20
1360.446587205121
 30
0.0
 11
4415.8999967216751
 21
1359.9999994040479
 31
0.0
 11
4416.1831310149728
 21
1360.006498345733
 31
0.0
 11
4416.555088336152
 21
1360.0150360926523
 31
0.0
 11
4417.0808673755118
 21
1360.0510866331736
 31
0.0
 11
4417.5371268719318
 21
1360.1335055255604
 31
0.0
 11
4418.1147131849466
 21
1360.2782147229254
 31
0.0
 11
4418.7867481553631
 21
1360.446587205121
 31
0.0
  0
SPLINE
  5
362
100
AcDbEntity
  8
0
  6
CONTINUOUS
 62
           3
100
AcDbSpline
210
0.0
220
0.0
230
1.0
 70
           0
 71
           3
 72
           8
 73
           5
 74
           7
 42
0.00000000001
 43
0.00000000001
 44
0.00000000001
 40
0.0
 40
0.0
 40
0.0
 40
1.2321288292603156
 40
2.2113508927677517
 40
2.9387184667231638
 40
2.9387184667231638
 40
2.9387184667231638
 10
4418.7867481555022
 20
1364.5534217358579
 30
0.0
 10
4418.067488501053
 20
1364.733619018429
 30
0.0
 10
4417.1156260260932
 20
1364.9720906611969
 30
0.0
 10
4416.1387194651561
 20
1364.994514911454
 30
0.0
 10
4415.8999967216751
 20
1364.9999946356729
 30
0.0
 11
4418.7867481555022
 21
1364.5534217358579
 31
0.0
 11
4418.1147128338662
 21
1364.7217878300798
 31
0.0
 11
4417.5371261778573
 21
1364.866491547604
 31
0.0
 11
4417.080866547004
 21
1364.9489075788524
 31
0.0
 11
4416.5550879579741
 21
1364.9849574454122
 31
0.0
 11
4416.183130902491
 21
1364.9934954759983
 31
0.0
 11
4415.8999967216751
 21
1364.9999946356729
 31
0.0
  0
SPLINE
  5
361
100
AcDbEntity
  8
0
  6
CONTINUOUS
 62
           3
100
AcDbSpline
210
0.0
220
0.0
230
1.0
 70
           0
 71
           3
 72
           8
 73
           5
 74
           7
 42
0.00000000001
 43
0.00000000001
 44
0.00000000001
 40
0.0
 40
0.0
 40
0.0
 40
1.2475591451560613
 40
2.2257037084929707
 40
2.9354142011740794
 40
2.9354142011740794
 40
2.9354142011740794
 10
4415.8999967216751
 20
1364.9999946356729
 30
0.0
 10
4415.1443416651719
 20
1364.9458933000919
 30
0.0
 10
4414.1669038516529
 20
1364.8759133658571
 30
0.0
 10
4413.2266018489554
 20
1364.6130630433649
 30
0.0
 10
4413.0132452878443
 20
1364.5534217358579
 30
0.0
 11
4415.8999967216751
 21
1364.9999946356729
 31
0.0
 11
4415.1962862228365
 21
1364.9496122852581
 31
0.0
 11
4414.5964648393283
 21
1364.9066679051757
 31
0.0
 11
4414.1380633113731
 21
1364.8455202926336
 31
0.0
 11
4413.6219807028592
 21
1364.7235865336447
 31
0.0
 11
4413.2721074221536
 21
1364.6257835890581
 31
0.0
 11
4413.0132452878443
 21
1364.5534217358579
 31
0.0
  0
SPLINE
  5
360
100
AcDbEntity
  8
0
  6
CONTINUOUS
 62
           3
100
AcDbSpline
210
0.0
220
0.0
230
1.0
 70
           0
 71
           3
 72
           8
 73
           5
 74
           7
 42
0.00000000001
 43
0.00000000001
 44
0.00000000001
 40
0.0
 40
0.0
 40
0.0
 40
0.2779464854665173
 40
0.7862840844026227
 40
1.5429642659222305
 40
1.5429642659222305
 40
1.5429642659222305
 10
4420.2301237559641
 20
1359.999999403921
 30
0.0
 10
4420.2643403053644
 20
1359.9995537086761
 30
0.0
 10
4420.7517530244531
 20
1359.9932048044429
 30
0.0
 10
4421.229391504
 20
1359.765309020479
 30
0.0
 10
4421.6734995893648
 20
1359.553411603021
 30
0.0
 11
4420.2301237559641
 21
1359.999999403921
 31
0.0
 11
4420.2988605017472
 21
1359.9991040580444
 31
0.0
 11
4420.4366376402968
 21
1359.997309410905
 31
0.0
 11
4420.7209580094723
 21
1359.9713364170611
 31
0.0
 11
4420.943688348686
 21
1359.9016266484537
 31
0.0
 11
4421.2689927365127
 21
1359.7464140731081
 31
0.0
 11
4421.6734995893648
 21
1359.553411603021
 31
0.0
  0
SPLINE
  5
35F
100
AcDbEntity
  8
0
  6
CONTINUOUS
 62
           3
100
AcDbSpline
210
0.0
220
0.0
230
1.0
 70
           0
 71
           3
 72
           8
 73
           5
 74
           7
 42
0.00000000001
 43
0.00000000001
 44
0.00000000001
 40
0.0
 40
0.0
 40
0.0
 40
0.3778155284983235
 40
0.8942062233972833
 40
1.535751417466614
 40
1.535751417466614
 40
1.535751417466614
 10
4410.1264938539734
 20
1359.553411603021
 30
0.0
 10
4410.2210118970343
 20
1359.6064716909059
 30
0.0
 10
4410.6908817949034
 20
1359.870245011374
 30
0.0
 10
4411.1795227343036
 20
1359.942377186198
 30
0.0
 10
4411.569869687346
 20
1359.9999994040479
 30
0.0
 11
4410.1264938539734
 21
1359.553411603021
 31
0.0
 11
4410.2470141544063
 21
1359.6210687140278
 31
0.0
 11
4410.419538969586
 21
1359.7179198712795
 31
0.0
 11
4410.67752441433
 21
1359.8402057052363
 31
0.0
 11
4410.9087950979256
 21
1359.9024129269183
 31
0.0
 11
4411.2094275634699
 21
1359.9467916758408
 31
0.0
 11
4411.569869687346
 21
1359.9999994040479
 31
0.0
  0
SPLINE
  5
35E
100
AcDbEntity
  8
0
  6
CONTINUOUS
 62
           3
100
AcDbSpline
210
0.0
220
0.0
230
1.0
 70
           0
 71
           3
 72
           8
 73
           5
 74
           7
 42
0.00000000001
 43
0.00000000001
 44
0.00000000001
 40
0.0
 40
0.0
 40
0.0
 40
0.6415450374770628
 40
1.1579303686104754
 40
1.5357381749056489
 40
1.5357381749056489
 40
1.5357381749056489
 10
4411.569869687346
 20
1355.0000041724199
 30
0.0
 10
4411.1795237086126
 20
1355.0576336938759
 30
0.0
 10
4410.69088462936
 20
1355.129774916883
 30
0.0
 10
4410.2210119621141
 20
1355.3935224482559
 30
0.0
 10
4410.1264938539734
 20
1355.4465770722229
 30
0.0
 11
4411.569869687346
 21
1355.0000041724199
 31
0.0
 11
4411.2094282457037
 21
1355.0532186767991
 31
0.0
 11
4410.9087958782438
 21
1355.0976031470245
 31
0.0
 11
4410.6775260473196
 21
1355.1598096979612
 31
0.0
 11
4410.4195390523137
 21
1355.2820858110545
 31
0.0
 11
4410.247014207629
 21
1355.3789269449471
 31
0.0
 11
4410.1264938539734
 21
1355.4465770722229
 31
0.0
  0
SPLINE
  5
35D
100
AcDbEntity
  8
0
  6
CONTINUOUS
 62
           3
100
AcDbSpline
210
0.0
220
0.0
230
1.0
 70
           0
 71
           3
 72
           8
 73
           5
 74
           7
 42
0.00000000001
 43
0.00000000001
 44
0.00000000001
 40
0.0
 40
0.0
 40
0.0
 40
0.3539460334951224
 40
0.8643414136598189
 40
1.5431068114000444
 40
1.5431068114000444
 40
1.5431068114000444
 10
4411.569869687346
 20
1359.9999994040479
 30
0.0
 10
4411.6793238424234
 20
1359.9953935078299
 30
0.0
 10
4412.1676816710442
 20
1359.97484311874
 30
0.0
 10
4412.6438213484462
 20
1359.7375336343539
 30
0.0
 10
4413.0132452879707
 20
1359.553411603021
 30
0.0
 11
4411.569869687346
 21
1359.9999994040479
 31
0.0
 11
4411.7019556855812
 21
1359.9944411463539
 31
0.0
 11
4411.8793053701338
 21
1359.9869781657089
 31
0.0
 11
4412.1466781413874
 21
1359.9524131949254
 31
0.0
 11
4412.3720438533283
 21
1359.8729883765131
 31
0.0
 11
4412.6682329595478
 21
1359.7253668120604
 31
0.0
 11
4413.0132452879707
 21
1359.553411603021
 31
0.0
  0
SPLINE
  5
35C
100
AcDbEntity
  8
0
  6
CONTINUOUS
 62
           3
100
AcDbSpline
210
0.0
220
0.0
230
1.0
 70
           0
 71
           3
 72
           8
 73
           5
 74
           7
 42
0.00000000001
 43
0.00000000001
 44
0.00000000001
 40
0.0
 40
0.0
 40
0.0
 40
0.6787700534938047
 40
1.1891668948827512
 40
1.5431123743459971
 40
1.5431123743459971
 40
1.5431123743459971
 10
4413.0132452878443
 20
1355.446577072242
 30
0.0
 10
4412.643821474403
 20
1355.2624483716049
 30
0.0
 10
4412.1676820506227
 20
1355.0251303367841
 30
0.0
 10
4411.6793238525852
 20
1355.0046045512611
 30
0.0
 10
4411.569869687346
 20
1355.0000041724199
 30
0.0
 11
4413.0132452878443
 21
1355.446577072242
 31
0.0
 11
4412.6682329736377
 21
1355.2746155830059
 31
0.0
 11
4412.3720436578988
 21
1355.1269885165721
 31
0.0
 11
4412.146678191948
 21
1355.0475647466087
 31
0.0
 11
4411.8793050086433
 21
1355.0130097962929
 31
0.0
 11
4411.7019556002906
 21
1355.0055557678088
 31
0.0
 11
4411.569869687346
 21
1355.0000041724199
 31
0.0
  0
SPLINE
  5
35B
100
AcDbEntity
  8
0
  6
CONTINUOUS
 62
           3
100
AcDbSpline
210
0.0
220
0.0
230
1.0
 70
           0
 71
           3
 72
           8
 73
           5
 74
           7
 42
0.00000000001
 43
0.00000000001
 44
0.00000000001
 40
0.0
 40
0.0
 40
0.0
 40
0.2779452695527848
 40
0.7862805426566293
 40
1.5429573556195739
 40
1.5429573556195739
 40
1.5429573556195739
 10
4420.2301237560041
 20
1355.0000041724199
 30
0.0
 10
4420.1959072124746
 20
1355.0004498771891
 30
0.0
 10
4419.708496915272
 20
1355.0067988847441
 30
0.0
 10
4419.2308572149832
 20
1355.234686928467
 30
0.0
 10
4418.7867481553631
 20
1355.4465770722229
 30
0.0
 11
4420.2301237560041
 21
1355.0000041724199
 31
0.0
 11
4420.1613872230646
 21
1355.0008995346434
 31
0.0
 11
4420.0236107113033
 21
1355.0026942117752
 31
0.0
 11
4419.7392914141328
 21
1355.0286664762175
 31
0.0
 11
4419.5165611146849
 21
1355.0983739236067
 31
0.0
 11
4419.1912559250031
 21
1355.2535812131907
 31
0.0
 11
4418.7867481553631
 21
1355.4465770722229
 31
0.0
  0
SPLINE
  5
35A
100
AcDbEntity
  8
0
  6
CONTINUOUS
 62
           3
100
AcDbSpline
210
0.0
220
0.0
230
1.0
 70
           0
 71
           3
 72
           8
 73
           5
 74
           7
 42
0.00000000001
 43
0.00000000001
 44
0.00000000001
 40
0.0
 40
0.0
 40
0.0
 40
0.5558558490687616
 40
1.5343195422052593
 40
2.9385037456639185
 40
2.9385037456639185
 40
2.9385037456639185
 10
4415.8999967216751
 20
1355.000004172322
 30
0.0
 10
4415.8315636362922
 20
1355.0004498783021
 30
0.0
 10
4414.8567416872411
 20
1355.0067989106669
 30
0.0
 10
4413.9014629162639
 20
1355.234686929231
 30
0.0
 10
4413.0132452878443
 20
1355.446577072242
 30
0.0
 11
4415.8999967216751
 21
1355.000004172322
 31
0.0
 11
4415.7603818762473
 21
1355.0009134863221
 31
0.0
 11
4415.4784035107277
 21
1355.0027500163626
 31
0.0
 11
4414.9140828960153
 21
1355.0291829422174
 31
0.0
 11
4414.4644446988523
 21
1355.1003839311747
 31
0.0
 11
4413.8201539548063
 21
1355.2540837154697
 31
0.0
 11
4413.0132452878443
 21
1355.446577072242
 31
0.0
  0
SPLINE
  5
359
100
AcDbEntity
  8
0
  6
CONTINUOUS
 62
           3
100
AcDbSpline
210
0.0
220
0.0
230
1.0
 70
           0
 71
           3
 72
           8
 73
           5
 74
           7
 42
0.00000000001
 43
0.00000000001
 44
0.00000000001
 40
0.0
 40
0.0
 40
0.0
 40
0.5558562714156194
 40
1.5343210643712788
 40
2.9385072682926525
 40
2.9385072682926525
 40
2.9385072682926525
 10
4415.8999967216751
 20
1359.9999994040479
 30
0.0
 10
4415.9684298091443
 20
1359.999553710677
 30
0.0
 10
4416.9432526000246
 20
1359.993204851213
 30
0.0
 10
4417.898530904743
 20
1359.765309021863
 30
0.0
 10
4418.7867481555022
 20
1359.553411603069
 30
0.0
 11
4415.8999967216751
 21
1359.9999994040479
 31
0.0
 11
4416.0396116244065
 21
1359.9990901152978
 31
0.0
 11
4416.3215901576605
 21
1359.9972536357895
 31
0.0
 11
4416.8859111712873
 21
1359.9708199944766
 31
0.0
 11
4417.3355493274375
 21
1359.8996166396903
 31
0.0
 11
4417.9798398231069
 21
1359.7459115716213
 31
0.0
 11
4418.7867481555022
 21
1359.553411603069
 31
0.0
  0
CIRCLE
  5
358
100
AcDbEntity
  8
1
  6
CONTINUOUS
 62
           4
100
AcDbCircle
 10
0.0
 20
5540.0
 40
100.9476
  0
CIRCLE
  5
357
100
AcDbEntity
  8
1
  6
CONTINUOUS
 62
           4
100
AcDbCircle
 10
0.0
 20
5540.0
 40
125.0
  0
CIRCLE
  5
356
100
AcDbEntity
  8
1
  6
CONTINUOUS
 62
           7
100
AcDbCircle
 10
0.0
 20
5540.0
 40
360.000000000002
  0
CIRCLE
  5
355
100
AcDbEntity
  8
1
  6
CONTINUOUS
 62
           7
100
AcDbCircle
 10
4799.999999999999
 20
600.0
 40
15.0
  0
CIRCLE
  5
354
100
AcDbEntity
  8
1
  6
CONTINUOUS
 62
           2
100
AcDbCircle
 10
4799.999999999999
 20
600.0
 40
8.350000000001
  0
CIRCLE
  5
353
100
AcDbEntity
  8
1
  6
CONTINUOUS
 62
           7
100
AcDbCircle
 10
4799.999999999999
 20
600.0
 40
7.5
  0
CIRCLE
  5
352
100
AcDbEntity
  8
1
  6
CONTINUOUS
 62
           3
100
AcDbCircle
 10
-491.52774467812
 20
1295.200848327049
 40
40.0
  0
ARC
  5
351
100
AcDbEntity
  8
1
  6
CONTINUOUS
 62
           3
100
AcDbCircle
 10
4920.163567691042
 20
1925.0
 40
9.499999999999
100
AcDbArc
 50
-124.797812779177
 51
0.0
  0
ARC
  5
350
100
AcDbEntity
  8
1
  6
CONTINUOUS
 62
           3
100
AcDbCircle
 10
4920.163567691042
 20
1925.0
 40
9.5
100
AcDbArc
 50
0.0
 51
125.916957371441
  0
ARC
  5
34F
100
AcDbEntity
  8
1
  6
CONTINUOUS
 62
           3
100
AcDbCircle
 10
4920.163567691042
 20
1925.0
 40
5.871834995061
100
AcDbArc
 50
0.0
 51
38.599713917924
  0
ARC
  5
34E
100
AcDbEntity
  8
1
  6
CONTINUOUS
 62
           3
100
AcDbCircle
 10
4920.163567691042
 20
1925.0
 40
5.871834995069
100
AcDbArc
 50
38.599713917924
 51
90.0
  0
ARC
  5
34D
100
AcDbEntity
  8
1
  6
CONTINUOUS
 62
           3
100
AcDbCircle
 10
4920.163567691042
 20
1925.0
 40
5.871834995066
100
AcDbArc
 50
-90.0
 51
0.0
  0
ARC
  5
34C
100
AcDbEntity
  8
0
  6
CONTINUOUS
 62
           3
100
AcDbCircle
 10
4478.399996721514
 20
1368.000000000113
 40
2.5
100
AcDbArc
 50
0.0
 51
180.0
  0
ARC
  5
34B
100
AcDbEntity
  8
0
  6
CONTINUOUS
 62
           3
100
AcDbCircle
 10
4478.399996721514
 20
1631.999999999898
 40
2.499999999992
100
AcDbArc
 50
180.0
 51
0.0
  0
ARC
  5
34A
100
AcDbEntity
  8
0
  6
CONTINUOUS
 62
           3
100
AcDbCircle
 10
4353.399996721824
 20
1631.999999999898
 40
2.5
100
AcDbArc
 50
180.0
 51
0.0
  0
ARC
  5
349
100
AcDbEntity
  8
0
  6
CONTINUOUS
 62
           3
100
AcDbCircle
 10
4353.399996721824
 20
1368.000000000113
 40
2.49999999999
100
AcDbArc
 50
0.0
 51
180.0
  0
ARC
  5
348
100
AcDbEntity
  8
0
  6
CONTINUOUS
 62
           3
100
AcDbCircle
 10
4357.899996721814
 20
1508.999999999996
 40
0.999999999996
100
AcDbArc
 50
-90.0
 51
90.0
  0
ARC
  5
347
100
AcDbEntity
  8
0
  6
CONTINUOUS
 62
           3
100
AcDbCircle
 10
4357.899996721814
 20
1431.000000000062
 40
1.0
100
AcDbArc
 50
-90.0
 51
90.0
  0
ARC
  5
346
100
AcDbEntity
  8
0
  6
CONTINUOUS
 62
           3
100
AcDbCircle
 10
4357.899996721814
 20
1409.000000000178
 40
0.999999999996
100
AcDbArc
 50
-90.0
 51
90.0
  0
ARC
  5
345
100
AcDbEntity
  8
0
  6
CONTINUOUS
 62
           3
100
AcDbCircle
 10
4473.899996721522
 20
1409.000000000178
 40
1.0
100
AcDbArc
 50
90.0
 51
-90.0
  0
ARC
  5
344
100
AcDbEntity
  8
0
  6
CONTINUOUS
 62
           3
100
AcDbCircle
 10
4473.899996721522
 20
1431.000000000062
 40
0.999999999996
100
AcDbArc
 50
90.0
 51
-90.0
  0
ARC
  5
343
100
AcDbEntity
  8
0
  6
CONTINUOUS
 62
           3
100
AcDbCircle
 10
4473.899996721522
 20
1508.999999999996
 40
1.0
100
AcDbArc
 50
90.0
 51
-90.0
  0
ARC
  5
342
100
AcDbEntity
  8
0
  6
CONTINUOUS
 62
           3
100
AcDbCircle
 10
4473.899996721522
 20
1530.99999999988
 40
1.0
100
AcDbArc
 50
90.0
 51
-90.0
  0
ARC
  5
341
100
AcDbEntity
  8
0
  6
CONTINUOUS
 62
           3
100
AcDbCircle
 10
4357.899996721814
 20
1530.99999999988
 40
0.999999999997
100
AcDbArc
 50
-90.0
 51
90.0
  0
ARC
  5
340
100
AcDbEntity
  8
0
  6
CONTINUOUS
 62
           3
100
AcDbCircle
 10
4422.373499413462
 20
1389.999999999996
 40
0.900000000001
100
AcDbArc
 50
-90.0
 51
-62.733955549507
  0
ARC
  5
33F
100
AcDbEntity
  8
0
  6
CONTINUOUS
 62
           3
100
AcDbCircle
 10
4409.426494029872
 20
1389.999999999996
 40
0.9
100
AcDbArc
 50
-117.266044450441
 51
-90.0
  0
ARC
  5
33E
100
AcDbEntity
  8
0
  6
CONTINUOUS
 62
           3
100
AcDbCircle
 10
4415.899996721675
 20
1315.000000000058
 40
53.999999999964
100
AcDbArc
 50
180.0
 51
0.0
  0
ARC
  5
33D
100
AcDbEntity
  8
0
  6
CONTINUOUS
 62
           3
100
AcDbCircle
 10
4415.899996721675
 20
1315.000000000058
 40
45.999999999971
100
AcDbArc
 50
180.0
 51
0.0
  0
ARC
  5
33C
100
AcDbEntity
  8
0
  6
CONTINUOUS
 62
           3
100
AcDbCircle
 10
4415.899996721675
 20
1355.000000000222
 40
4.0
100
AcDbArc
 50
180.0
 51
0.0
  0
ARC
  5
33B
100
AcDbEntity
  8
1
  6
CONTINUOUS
 62
           7
100
AcDbCircle
 10
0.0
 20
5540.0
 40
150.0
100
AcDbArc
 50
23.882765003116
 51
-89.999999999999
  0
ARC
  5
33A
100
AcDbEntity
  8
1
  6
CONTINUOUS
 62
           7
100
AcDbCircle
 10
0.0
 20
5540.0
 40
150.000000000002
100
AcDbArc
 50
-89.999999999999
 51
-23.882765003116
  0
ARC
  5
339
100
AcDbEntity
  8
1
  6
CONTINUOUS
 62
           7
100
AcDbCircle
 10
18.000000000004
 20
5484.999785420929
 40
459.999999999998
100
AcDbArc
 50
71.463109290188
 51
88.271493544498
  0
ARC
  5
338
100
AcDbEntity
  8
1
  6
CONTINUOUS
 62
           7
100
AcDbCircle
 10
-46.999999999996
 20
5495.0
 40
525.0
100
AcDbArc
 50
-2.792103456718
 51
-0.563719865862
  0
ARC
  5
337
100
AcDbEntity
  8
1
  6
CONTINUOUS
 62
           7
100
AcDbCircle
 10
-39.999999999996
 20
5590.0
 40
620.000000000001
100
AcDbArc
 50
-174.912285430338
 51
-90.336887134984
  0
ARC
  5
336
100
AcDbEntity
  8
1
  6
CONTINUOUS
 62
           7
100
AcDbCircle
 10
452.450424338097
 20
5636.171306523447
 40
5.0
100
AcDbArc
 50
109.497261771682
 51
-90.0
  0
ARC
  5
335
100
AcDbEntity
  8
1
  6
CONTINUOUS
 62
           7
100
AcDbCircle
 10
18.000000000004
 20
5484.999785420929
 40
460.0
100
AcDbArc
 50
0.602232686388
 51
18.563086854737
  0
ARC
  5
334
100
AcDbEntity
  8
1
  6
CONTINUOUS
 62
           7
100
AcDbCircle
 10
452.450424338097
 20
5636.171306523447
 40
5.0
100
AcDbArc
 50
-90.0
 51
-71.125521506268
  0
ARC
  5
333
100
AcDbEntity
  8
1
  6
CONTINUOUS
 62
           7
100
AcDbCircle
 10
477.10941262802
 20
5464.433292707341
 40
5.000000000002
100
AcDbArc
 50
86.935058466838
 51
-93.610617686046
  0
ARC
  5
332
100
AcDbEntity
  8
1
  6
CONTINUOUS
 62
           7
100
AcDbCircle
 10
-46.999999999996
 20
5495.0
 40
525.000000000001
100
AcDbArc
 50
-89.633899153763
 51
-3.883455762483
  0
ARC
  5
331
100
AcDbEntity
  8
1
  6
CONTINUOUS
 62
           7
100
AcDbCircle
 10
18.000000000004
 20
5484.999785420929
 40
459.999999999999
100
AcDbArc
 50
19.808653410673
 51
70.217542734251
  0
ARC
  5
330
100
AcDbEntity
  8
1
  6
CONTINUOUS
 62
           7
100
AcDbCircle
 10
168.972870673509
 20
5919.519281324854
 40
5.000000000001
100
AcDbArc
 50
161.151717651225
 51
-19.471065626766
  0
ARC
  5
32F
100
AcDbEntity
  8
1
  6
CONTINUOUS
 62
           7
100
AcDbCircle
 10
-39.999999999996
 20
5590.0
 40
620.0
100
AcDbArc
 50
-179.999999999999
 51
-175.836413410616
  0
ARC
  5
32E
100
AcDbEntity
  8
1
  6
CONTINUOUS
 62
           7
100
AcDbCircle
 10
-657.980582219212
 20
5540.0
 40
4.999999999997
100
AcDbArc
 50
-85.143317425418
 51
94.394618584461
  0
ARC
  5
32D
100
AcDbEntity
  8
7
  6
CONTINUOUS
 62
           7
100
AcDbCircle
 10
117.560000000001
 20
3049.360000000002
 40
3.84
100
AcDbArc
 50
0.0
 51
90.0
  0
ARC
  5
32C
100
AcDbEntity
  8
7
  6
CONTINUOUS
 62
           7
100
AcDbCircle
 10
116.507824400002
 20
3055.600000000002
 40
2.400000000002
100
AcDbArc
 50
-124.999999999972
 51
-90.0
  0
ARC
  5
32B
100
AcDbEntity
  8
7
  6
CONTINUOUS
 62
           7
100
AcDbCircle
 10
91.760000000001
 20
3075.449360800001
 40
2.4
100
AcDbArc
 50
180.0
 51
-124.999999999981
  0
ARC
  5
32A
100
AcDbEntity
  8
7
  6
CONTINUOUS
 62
           7
100
AcDbCircle
 10
85.520000000001
 20
3075.16
 40
3.84
100
AcDbArc
 50
0.0
 51
90.0
  0
ARC
  5
329
100
AcDbEntity
  8
7
  6
CONTINUOUS
 62
           7
100
AcDbCircle
 10
-94.759999999999
 20
3075.449360800001
 40
2.4
100
AcDbArc
 50
-55.00000000001
 51
0.0
  0
ARC
  5
328
100
AcDbEntity
  8
7
  6
CONTINUOUS
 62
           7
100
AcDbCircle
 10
-88.519999999999
 20
3075.16
 40
3.84
100
AcDbArc
 50
90.0
 51
180.0
  0
ARC
  5
327
100
AcDbEntity
  8
7
  6
CONTINUOUS
 62
           7
100
AcDbCircle
 10
-113.959999999998
 20
3049.133628400001
 40
7.440000000001
100
AcDbArc
 50
122.681915000002
 51
180.0
  0
ARC
  5
326
100
AcDbEntity
  8
7
  6
CONTINUOUS
 62
           7
100
AcDbCircle
 10
4926.039999999998
 20
3049.133628400001
 40
7.440000000001
100
AcDbArc
 50
122.681915000002
 51
180.0
  0
ARC
  5
325
100
AcDbEntity
  8
7
  6
CONTINUOUS
 62
           7
100
AcDbCircle
 10
4951.479999999997
 20
3075.16
 40
3.840000000001
100
AcDbArc
 50
90.0
 51
180.0
  0
ARC
  5
324
100
AcDbEntity
  8
7
  6
CONTINUOUS
 62
           7
100
AcDbCircle
 10
4945.239999999997
 20
3075.449360800002
 40
2.400000000001
100
AcDbArc
 50
-54.999999999992
 51
0.0
  0
ARC
  5
323
100
AcDbEntity
  8
7
  6
CONTINUOUS
 62
           7
100
AcDbCircle
 10
5125.52
 20
3075.16
 40
3.839999999997
100
AcDbArc
 50
0.0
 51
90.0
  0
ARC
  5
322
100
AcDbEntity
  8
7
  6
CONTINUOUS
 62
           7
100
AcDbCircle
 10
5131.759999999998
 20
3075.449360800002
 40
2.400000000001
100
AcDbArc
 50
180.0
 51
-124.99999999999
  0
ARC
  5
321
100
AcDbEntity
  8
7
  6
CONTINUOUS
 62
           7
100
AcDbCircle
 10
5156.507824399999
 20
3055.600000000003
 40
2.400000000002
100
AcDbArc
 50
-124.999999999983
 51
-90.0
  0
ARC
  5
320
100
AcDbEntity
  8
7
  6
CONTINUOUS
 62
           7
100
AcDbCircle
 10
5157.56
 20
3049.360000000001
 40
3.839999999997
100
AcDbArc
 50
0.0
 51
90.0
  0
ARC
  5
31F
100
AcDbEntity
  8
1
  6
CONTINUOUS
 62
           3
100
AcDbCircle
 10
-491.52774467812
 20
1295.200848327049
 40
28.75000000001
100
AcDbArc
 50
83.827497999999
 51
96.172501999989
  0
ARC
  5
31E
100
AcDbEntity
  8
1
  6
CONTINUOUS
 62
           3
100
AcDbCircle
 10
-491.52774467812
 20
1295.200848327049
 40
28.749999999987
100
AcDbArc
 50
-96.172501999994
 51
-83.827497999994
  0
ARC
  5
31D
100
AcDbEntity
  8
1
  6
CONTINUOUS
 62
           3
100
AcDbCircle
 10
-491.52774467812
 20
1295.200848327049
 40
10.75
100
AcDbArc
 50
0.0
 51
61.226493000003
  0
ARC
  5
31C
100
AcDbEntity
  8
1
  6
CONTINUOUS
 62
           3
100
AcDbCircle
 10
-491.52774467812
 20
1295.200848327049
 40
10.749999999999
100
AcDbArc
 50
-61.226493000019
 51
0.0
  0
ARC
  5
31B
100
AcDbEntity
  8
1
  6
CONTINUOUS
 62
           3
100
AcDbCircle
 10
-491.52774467812
 20
1295.200848327049
 40
10.749999999991
100
AcDbArc
 50
118.773506999969
 51
-118.773506999954
  0
ARC
  5
31A
100
AcDbEntity
  8
1
  6
CONTINUOUS
 62
           3
100
AcDbCircle
 10
-487.48944267812
 20
1295.200848327049
 40
10.0
100
AcDbArc
 50
174.993206999971
 51
-174.993207000022
  0
ARC
  5
319
100
AcDbEntity
  8
1
  6
CONTINUOUS
 62
           3
100
AcDbCircle
 10
-495.566047678114
 20
1295.200848327049
 40
9.999999999999
100
AcDbArc
 50
-5.006792999977
 51
5.006793000029
  0
ARC
  5
318
100
AcDbEntity
  8
1
  6
CONTINUOUS
 62
           3
100
AcDbCircle
 10
-494.56524767812
 20
1323.287074327051
 40
0.499999999999
100
AcDbArc
 50
96.172501999313
 51
174.993206998663
  0
ARC
  5
317
100
AcDbEntity
  8
1
  6
CONTINUOUS
 62
           3
100
AcDbCircle
 10
-488.490241678121
 20
1323.287074327051
 40
0.500000000005
100
AcDbArc
 50
5.006793001258
 51
83.827497998161
  0
ARC
  5
316
100
AcDbEntity
  8
1
  6
CONTINUOUS
 62
           3
100
AcDbCircle
 10
-494.56524767812
 20
1267.114622327059
 40
0.499999999996
100
AcDbArc
 50
-174.993206999702
 51
-96.172501999302
  0
ARC
  5
315
100
AcDbEntity
  8
1
  6
CONTINUOUS
 62
           3
100
AcDbCircle
 10
-488.490241678121
 20
1267.114622327059
 40
0.500000000002
100
AcDbArc
 50
-83.827497998172
 51
-5.00679300022
  0
LINE
  5
314
100
AcDbEntity
  8
1
  6
CONTINUOUS
 62
           3
100
AcDbLine
 10
4920.163567691042
 20
1935.969655114602
 11
4914.489527668223
 21
1932.69374658004
  0
LINE
  5
313
100
AcDbEntity
  8
1
  6
CONTINUOUS
 62
           3
100
AcDbLine
 10
4929.663567691042
 20
1930.484827557302
 11
4920.163567691042
 21
1935.969655114602
  0
LINE
  5
312
100
AcDbEntity
  8
1
  6
CONTINUOUS
 62
           3
100
AcDbLine
 10
4929.663567691042
 20
1919.515172442699
 11
4929.663567691042
 21
1930.484827557302
  0
LINE
  5
311
100
AcDbEntity
  8
1
  6
CONTINUOUS
 62
           3
100
AcDbLine
 10
4920.163567691042
 20
1914.030344885397
 11
4929.663567691042
 21
1919.515172442699
  0
LINE
  5
310
100
AcDbEntity
  8
1
  6
CONTINUOUS
 62
           3
100
AcDbLine
 10
4914.48952766823
 20
1917.30625341996
 11
4920.163567691042
 21
1914.030344885397
  0
LINE
  5
30F
100
AcDbEntity
  8
1
  6
DOT_CENTER
 62
           3
100
AcDbLine
 10
4896.218519558622
 20
1925.0
 11
4937.667695262441
 21
1925.0
  0
LINE
  5
30E
100
AcDbEntity
  8
1
  6
CONTINUOUS
 62
           3
100
AcDbLine
 10
4909.389214871943
 20
1916.75
 11
4909.389214871943
 21
1917.30625341996
  0
LINE
  5
30D
100
AcDbEntity
  8
1
  6
CONTINUOUS
 62
           3
100
AcDbLine
 10
4909.389214871943
 20
1916.75
 11
4899.714603906644
 21
1916.75
  0
LINE
  5
30C
100
AcDbEntity
  8
1
  6
CONTINUOUS
 62
           3
100
AcDbLine
 10
4899.714603906644
 20
1916.75
 11
4899.714603906644
 21
1925.0
  0
LINE
  5
30B
100
AcDbEntity
  8
1
  6
CONTINUOUS
 62
           3
100
AcDbLine
 10
4899.714603906644
 20
1919.0
 11
4898.868798384462
 21
1919.0
  0
LINE
  5
30A
100
AcDbEntity
  8
1
  6
CONTINUOUS
 62
           3
100
AcDbLine
 10
4898.868798384462
 20
1917.30625341996
 11
4898.868798384462
 21
1925.0
  0
LINE
  5
309
100
AcDbEntity
  8
1
  6
CONTINUOUS
 62
           3
100
AcDbLine
 10
4898.868798384462
 20
1917.30625341996
 11
4898.163567691042
 21
1917.30625341996
  0
LINE
  5
308
100
AcDbEntity
  8
1
  6
CONTINUOUS
 62
           3
100
AcDbLine
 10
4897.663567691042
 20
1925.0
 11
4897.663567691042
 21
1917.80625341996
  0
LINE
  5
307
100
AcDbEntity
  8
1
  6
CONTINUOUS
 62
           3
100
AcDbLine
 10
4897.663567691042
 20
1932.19374658004
 11
4897.663567691042
 21
1925.0
  0
LINE
  5
306
100
AcDbEntity
  8
1
  6
CONTINUOUS
 62
           3
100
AcDbLine
 10
4898.163567691042
 20
1932.69374658004
 11
4898.868798384462
 21
1932.69374658004
  0
LINE
  5
305
100
AcDbEntity
  8
1
  6
CONTINUOUS
 62
           3
100
AcDbLine
 10
4898.868798384462
 20
1925.0
 11
4898.868798384462
 21
1932.69374658004
  0
LINE
  5
304
100
AcDbEntity
  8
1
  6
CONTINUOUS
 62
           3
100
AcDbLine
 10
4898.868798384462
 20
1931.0
 11
4899.714603906644
 21
1931.0
  0
LINE
  5
303
100
AcDbEntity
  8
1
  6
CONTINUOUS
 62
           3
100
AcDbLine
 10
4899.714603906644
 20
1933.25
 11
4909.389214871943
 21
1933.25
  0
LINE
  5
302
100
AcDbEntity
  8
1
  6
CONTINUOUS
 62
           3
100
AcDbLine
 10
4899.714603906644
 20
1925.0
 11
4899.714603906644
 21
1933.25
  0
LINE
  5
301
100
AcDbEntity
  8
1
  6
CONTINUOUS
 62
           3
100
AcDbLine
 10
4909.389214871943
 20
1932.69374658004
 11
4909.389214871943
 21
1933.25
  0
LINE
  5
300
100
AcDbEntity
  8
1
  6
CONTINUOUS
 62
           3
100
AcDbLine
 10
4909.389214871943
 20
1917.30625341996
 11
4909.389214871943
 21
1932.69374658004
  0
LINE
  5
2FF
100
AcDbEntity
  8
1
  6
CONTINUOUS
 62
           3
100
AcDbLine
 10
4915.254330418634
 20
1917.30625341996
 11
4915.254330418634
 21
1932.69374658004
  0
LINE
  5
2FE
100
AcDbEntity
  8
1
  6
CONTINUOUS
 62
           3
100
AcDbLine
 10
4915.254330418634
 20
1917.30625341996
 11
4909.389214871943
 21
1917.30625341996
  0
LINE
  5
2FD
100
AcDbEntity
  8
1
  6
CONTINUOUS
 62
           3
100
AcDbLine
 10
4915.254330418634
 20
1932.69374658004
 11
4909.389214871943
 21
1932.69374658004
  0
LINE
  5
2FC
100
AcDbEntity
  8
1
  6
CONTINUOUS
 62
           3
100
AcDbLine
 10
4915.254330418634
 20
1930.871834995069
 11
4920.163567691042
 21
1930.871834995069
  0
LINE
  5
2FB
100
AcDbEntity
  8
1
  6
DOT_CENTER
 62
           3
100
AcDbLine
 10
4920.163567691042
 20
1938.643555804874
 11
4920.163567691042
 21
1907.508008255125
  0
LINE
  5
2FA
100
AcDbEntity
  8
1
  6
CONTINUOUS
 62
           3
100
AcDbLine
 10
4920.163567691042
 20
1919.128165004934
 11
4915.254330418634
 21
1919.128165004934
  0
LINE
  5
2F9
100
AcDbEntity
  8
0
  6
CONTINUOUS
 62
           3
100
AcDbLine
 10
4414.844723494173
 20
1393.116392195192
 11
4415.899996721675
 21
1393.131740391393
  0
LINE
  5
2F8
100
AcDbEntity
  8
0
  6
CONTINUOUS
 62
           3
100
AcDbLine
 10
4413.903805503275
 20
1393.072016537193
 11
4414.844723494173
 21
1393.116392195192
  0
LINE
  5
2F7
100
AcDbEntity
  8
0
  6
CONTINUOUS
 62
           3
100
AcDbLine
 10
4413.179205573573
 20
1393.003411590991
 11
4413.903805503275
 21
1393.072016537193
  0
LINE
  5
2F6
100
AcDbEntity
  8
0
  6
CONTINUOUS
 62
           3
100
AcDbLine
 10
4412.749445840376
 20
1392.918020486792
 11
4413.179205573573
 21
1393.003411590991
  0
LINE
  5
2F5
100
AcDbEntity
  8
0
  6
CONTINUOUS
 62
           3
100
AcDbLine
 10
4412.661097088372
 20
1392.825089394992
 11
4412.749445840376
 21
1392.918020486792
  0
LINE
  5
2F4
100
AcDbEntity
  8
0
  6
CONTINUOUS
 62
           3
100
AcDbLine
 10
4412.899996695576
 20
1392.739541828792
 11
4412.661097088372
 21
1392.825089394992
  0
LINE
  5
2F3
100
AcDbEntity
  8
0
  6
CONTINUOUS
 62
           3
100
AcDbLine
 10
4419.138896354963
 20
1392.825089394992
 11
4418.899996747763
 21
1392.739541828792
  0
LINE
  5
2F2
100
AcDbEntity
  8
0
  6
CONTINUOUS
 62
           3
100
AcDbLine
 10
4419.050547602962
 20
1392.918020486792
 11
4419.138896354963
 21
1392.825089394992
  0
LINE
  5
2F1
100
AcDbEntity
  8
0
  6
CONTINUOUS
 62
           3
100
AcDbLine
 10
4418.620787869763
 20
1393.003411590991
 11
4419.050547602962
 21
1392.918020486792
  0
LINE
  5
2F0
100
AcDbEntity
  8
0
  6
CONTINUOUS
 62
           3
100
AcDbLine
 10
4417.896187940062
 20
1393.072016537193
 11
4418.620787869763
 21
1393.003411590991
  0
LINE
  5
2EF
100
AcDbEntity
  8
0
  6
CONTINUOUS
 62
           3
100
AcDbLine
 10
4416.955269949174
 20
1393.116392195192
 11
4417.896187940062
 21
1393.072016537193
  0
LINE
  5
2EE
100
AcDbEntity
  8
0
  6
CONTINUOUS
 62
           3
100
AcDbLine
 10
4415.899996721675
 20
1393.131740391393
 11
4416.955269949174
 21
1393.116392195192
  0
LINE
  5
2ED
100
AcDbEntity
  8
FORMAT
  6
CONTINUOUS
 62
           3
100
AcDbLine
 10
4412.399996721573
 20
1392.596845102893
 11
4401.899996721584
 21
1392.596845102893
  0
LINE
  5
2EC
100
AcDbEntity
  8
FORMAT
  6
DOT_CENTER
 62
           3
100
AcDbLine
 10
4415.899996721675
 20
1249.759397252255
 11
4415.899996721675
 21
1725.394390768569
  0
LINE
  5
2EB
100
AcDbEntity
  8
FORMAT
  6
CONTINUOUS
 62
           3
100
AcDbLine
 10
4419.399996721764
 20
1392.596845102893
 11
4412.399996721573
 21
1392.596845102893
  0
LINE
  5
2EA
100
AcDbEntity
  8
FORMAT
  6
CONTINUOUS
 62
           3
100
AcDbLine
 10
4429.899996721755
 20
1392.596845102893
 11
4419.399996721764
 21
1392.596845102893
  0
LINE
  5
2E9
100
AcDbEntity
  8
FORMAT
  6
DOT_CENTER
 62
           3
100
AcDbLine
 10
4340.999996721633
 20
1375.000000000007
 11
4327.399996721744
 21
1375.000000000007
  0
LINE
  5
2E8
100
AcDbEntity
  8
FORMAT
  6
DOT_CENTER
 62
           3
100
AcDbLine
 10
4340.999996721633
 20
1625.0
 11
4327.399996721744
 21
1625.0
  0
LINE
  5
2E7
100
AcDbEntity
  8
0
  6
CONTINUOUS
 62
           3
100
AcDbLine
 10
4350.89999910602
 20
1364.999994635815
 11
4335.499999189234
 21
1364.999994635815
  0
LINE
  5
2E6
100
AcDbEntity
  8
0
  6
CONTINUOUS
 62
           3
100
AcDbLine
 10
4354.399995023124
 20
1590.000003576231
 11
4354.399995023124
 21
1509.999999776395
  0
LINE
  5
2E5
100
AcDbEntity
  8
0
  6
CONTINUOUS
 62
           3
100
AcDbLine
 10
4357.399997377516
 20
1590.000003576231
 11
4354.399995023124
 21
1590.000003576231
  0
LINE
  5
2E4
100
AcDbEntity
  8
0
  6
CONTINUOUS
 62
           3
100
AcDbLine
 10
4357.399997377516
 20
1550.000000744964
 11
4357.399997377516
 21
1590.000003576231
  0
LINE
  5
2E3
100
AcDbEntity
  8
0
  6
CONTINUOUS
 62
           3
100
AcDbLine
 10
4357.399997377516
 20
1529.999999329481
 11
4357.399997377516
 21
1532.000001519878
  0
LINE
  5
2E2
100
AcDbEntity
  8
0
  6
CONTINUOUS
 62
           3
100
AcDbLine
 10
4354.399995023124
 20
1509.999999776395
 11
4355.975189322323
 21
1509.999999776395
  0
LINE
  5
2E1
100
AcDbEntity
  8
0
  6
CONTINUOUS
 62
           3
100
AcDbLine
 10
4475.899995380621
 20
1368.000000715314
 11
4475.899995380621
 21
1367.300003767014
  0
LINE
  5
2E0
100
AcDbEntity
  8
0
  6
CONTINUOUS
 62
           3
100
AcDbLine
 10
4480.899994337314
 20
1364.999994635815
 11
4480.899994337314
 21
1368.000000715314
  0
LINE
  5
2DF
100
AcDbEntity
  8
0
  6
CONTINUOUS
 62
           3
100
AcDbLine
 10
4480.899994337314
 20
1635.000005364196
 11
4480.899994337314
 21
1631.999999284697
  0
LINE
  5
2DE
100
AcDbEntity
  8
0
  6
CONTINUOUS
 62
           3
100
AcDbLine
 10
4475.899995380621
 20
1631.999999284697
 11
4475.899995380621
 21
1632.699996232994
  0
LINE
  5
2DD
100
AcDbEntity
  8
0
  6
CONTINUOUS
 62
           3
100
AcDbLine
 10
4355.899998062714
 20
1631.999999284697
 11
4355.899998062714
 21
1632.699996232994
  0
LINE
  5
2DC
100
AcDbEntity
  8
0
  6
CONTINUOUS
 62
           3
100
AcDbLine
 10
4350.89999910602
 20
1635.000005364196
 11
4350.89999910602
 21
1631.999999284697
  0
LINE
  5
2DB
100
AcDbEntity
  8
0
  6
CONTINUOUS
 62
           3
100
AcDbLine
 10
4350.89999910602
 20
1635.000005364196
 11
4335.499999189234
 21
1635.000005364196
  0
LINE
  5
2DA
100
AcDbEntity
  8
0
  6
CONTINUOUS
 62
           3
100
AcDbLine
 10
4350.89999910602
 20
1364.999994635815
 11
4350.89999910602
 21
1368.000000715314
  0
LINE
  5
2D9
100
AcDbEntity
  8
0
  6
CONTINUOUS
 62
           3
100
AcDbLine
 10
4355.899998062714
 20
1368.000000715314
 11
4355.899998062714
 21
1367.300003767014
  0
LINE
  5
2D8
100
AcDbEntity
  8
0
  6
CONTINUOUS
 62
           3
100
AcDbLine
 10
4354.399995023124
 20
1409.99999642378
 11
4354.399995023124
 21
1490.000000223612
  0
LINE
  5
2D7
100
AcDbEntity
  8
0
  6
CONTINUOUS
 62
           3
100
AcDbLine
 10
4354.399995023124
 20
1490.000000223612
 11
4355.899998062714
 21
1490.000000223612
  0
LINE
  5
2D6
100
AcDbEntity
  8
0
  6
CONTINUOUS
 62
           3
100
AcDbLine
 10
4357.399997377516
 20
1431.999996304558
 11
4357.399997377516
 21
1429.999999701962
  0
LINE
  5
2D5
100
AcDbEntity
  8
0
  6
CONTINUOUS
 62
           3
100
AcDbLine
 10
4355.975189322323
 20
1409.99999642378
 11
4354.399995023124
 21
1409.99999642378
  0
LINE
  5
2D4
100
AcDbEntity
  8
0
  6
CONTINUOUS
 62
           3
100
AcDbLine
 10
4477.399998420225
 20
1590.000003576231
 11
4477.399998420225
 21
1509.999999776395
  0
LINE
  5
2D3
100
AcDbEntity
  8
0
  6
CONTINUOUS
 62
           3
100
AcDbLine
 10
4477.399998420225
 20
1509.999999776395
 11
4475.824804121022
 21
1509.999999776395
  0
LINE
  5
2D2
100
AcDbEntity
  8
0
  6
CONTINUOUS
 62
           3
100
AcDbLine
 10
4474.399996066125
 20
1550.000000744964
 11
4474.399996066125
 21
1590.000003576231
  0
LINE
  5
2D1
100
AcDbEntity
  8
0
  6
CONTINUOUS
 62
           3
100
AcDbLine
 10
4474.399996066125
 20
1529.999999329481
 11
4474.399996066125
 21
1532.000001519878
  0
LINE
  5
2D0
100
AcDbEntity
  8
0
  6
CONTINUOUS
 62
           3
100
AcDbLine
 10
4474.399996066125
 20
1590.000003576231
 11
4477.399998420225
 21
1590.000003576231
  0
LINE
  5
2CF
100
AcDbEntity
  8
0
  6
CONTINUOUS
 62
           3
100
AcDbLine
 10
4477.399998420225
 20
1409.99999642378
 11
4477.399998420225
 21
1490.000000223612
  0
LINE
  5
2CE
100
AcDbEntity
  8
0
  6
CONTINUOUS
 62
           3
100
AcDbLine
 10
4475.824804121022
 20
1409.99999642378
 11
4477.399998420225
 21
1409.99999642378
  0
LINE
  5
2CD
100
AcDbEntity
  8
0
  6
CONTINUOUS
 62
           3
100
AcDbLine
 10
4474.399996066125
 20
1431.999996304558
 11
4474.399996066125
 21
1429.999999701962
  0
LINE
  5
2CC
100
AcDbEntity
  8
0
  6
CONTINUOUS
 62
           3
100
AcDbLine
 10
4477.399998420225
 20
1490.000000223612
 11
4475.899995380621
 21
1490.000000223612
  0
LINE
  5
2CB
100
AcDbEntity
  8
0
  6
CONTINUOUS
 62
           3
100
AcDbLine
 10
4335.499999189234
 20
1635.000005364196
 11
4333.399993443333
 21
1635.000005364196
  0
LINE
  5
2CA
100
AcDbEntity
  8
0
  6
CONTINUOUS
 62
           3
100
AcDbLine
 10
4333.399993443333
 20
1635.000005364196
 11
4333.399993443333
 21
1364.999994635815
  0
LINE
  5
2C9
100
AcDbEntity
  8
0
  6
CONTINUOUS
 62
           3
100
AcDbLine
 10
4335.499999189234
 20
1364.999994635815
 11
4333.399993443333
 21
1364.999994635815
  0
LINE
  5
2C8
100
AcDbEntity
  8
0
  6
CONTINUOUS
 62
           3
100
AcDbLine
 10
4355.899998062714
 20
1366.600006818713
 11
4355.899998062714
 21
1367.300003767014
  0
LINE
  5
2C7
100
AcDbEntity
  8
0
  6
CONTINUOUS
 62
           3
100
AcDbLine
 10
4475.899995380621
 20
1366.600006818713
 11
4475.899995380621
 21
1367.300003767014
  0
LINE
  5
2C6
100
AcDbEntity
  8
0
  6
CONTINUOUS
 62
           3
100
AcDbLine
 10
4355.899998062714
 20
1633.399993180996
 11
4355.899998062714
 21
1632.699996232994
  0
LINE
  5
2C5
100
AcDbEntity
  8
0
  6
CONTINUOUS
 62
           3
100
AcDbLine
 10
4475.899995380621
 20
1633.399993180996
 11
4475.899995380621
 21
1632.699996232994
  0
LINE
  5
2C4
100
AcDbEntity
  8
0
  6
CONTINUOUS
 62
           3
100
AcDbLine
 10
4470.899996423622
 20
1633.399993180996
 11
4475.899995380621
 21
1633.399993180996
  0
LINE
  5
2C3
100
AcDbEntity
  8
0
  6
CONTINUOUS
 62
           3
100
AcDbLine
 10
4475.899995380621
 20
1635.000005364196
 11
4470.899996423622
 21
1635.000005364196
  0
LINE
  5
2C2
100
AcDbEntity
  8
0
  6
CONTINUOUS
 62
           3
100
AcDbLine
 10
4475.899995380621
 20
1633.399993180996
 11
4475.899995380621
 21
1635.000005364196
  0
LINE
  5
2C1
100
AcDbEntity
  8
0
  6
CONTINUOUS
 62
           3
100
AcDbLine
 10
4470.899996423622
 20
1366.600006818713
 11
4475.899995380621
 21
1366.600006818713
  0
LINE
  5
2C0
100
AcDbEntity
  8
0
  6
CONTINUOUS
 62
           3
100
AcDbLine
 10
4475.899995380621
 20
1364.999994635815
 11
4470.899996423622
 21
1364.999994635815
  0
LINE
  5
2BF
100
AcDbEntity
  8
0
  6
CONTINUOUS
 62
           3
100
AcDbLine
 10
4475.899995380621
 20
1366.600006818713
 11
4475.899995380621
 21
1364.999994635815
  0
LINE
  5
2BE
100
AcDbEntity
  8
0
  6
CONTINUOUS
 62
           3
100
AcDbLine
 10
4460.899998509632
 20
1366.600006818713
 11
4462.899995112233
 21
1366.600006818713
  0
LINE
  5
2BD
100
AcDbEntity
  8
0
  6
CONTINUOUS
 62
           3
100
AcDbLine
 10
4462.899995112233
 20
1364.999994635815
 11
4460.899998509632
 21
1364.999994635815
  0
LINE
  5
2BC
100
AcDbEntity
  8
0
  6
CONTINUOUS
 62
           3
100
AcDbLine
 10
4462.899995112233
 20
1366.600006818713
 11
4462.899995112233
 21
1364.999994635815
  0
LINE
  5
2BB
100
AcDbEntity
  8
0
  6
CONTINUOUS
 62
           3
100
AcDbLine
 10
4460.899998509632
 20
1633.399993180996
 11
4462.899995112233
 21
1633.399993180996
  0
LINE
  5
2BA
100
AcDbEntity
  8
0
  6
CONTINUOUS
 62
           3
100
AcDbLine
 10
4462.899995112233
 20
1635.000005364196
 11
4460.899998509632
 21
1635.000005364196
  0
LINE
  5
2B9
100
AcDbEntity
  8
0
  6
CONTINUOUS
 62
           3
100
AcDbLine
 10
4462.899995112233
 20
1633.399993180996
 11
4462.899995112233
 21
1635.000005364196
  0
LINE
  5
2B8
100
AcDbEntity
  8
0
  6
CONTINUOUS
 62
           3
100
AcDbLine
 10
4468.89999609592
 20
1366.600006818713
 11
4470.899996423622
 21
1366.600006818713
  0
LINE
  5
2B7
100
AcDbEntity
  8
0
  6
CONTINUOUS
 62
           3
100
AcDbLine
 10
4470.899996423622
 20
1364.999994635815
 11
4468.89999609592
 21
1364.999994635815
  0
LINE
  5
2B6
100
AcDbEntity
  8
0
  6
CONTINUOUS
 62
           3
100
AcDbLine
 10
4468.89999609592
 20
1364.999994635815
 11
4468.89999609592
 21
1366.600006818713
  0
LINE
  5
2B5
100
AcDbEntity
  8
0
  6
CONTINUOUS
 62
           3
100
AcDbLine
 10
4468.89999609592
 20
1633.399993180996
 11
4470.899996423622
 21
1633.399993180996
  0
LINE
  5
2B4
100
AcDbEntity
  8
0
  6
CONTINUOUS
 62
           3
100
AcDbLine
 10
4470.899996423622
 20
1635.000005364196
 11
4468.89999609592
 21
1635.000005364196
  0
LINE
  5
2B3
100
AcDbEntity
  8
0
  6
CONTINUOUS
 62
           3
100
AcDbLine
 10
4468.89999609592
 20
1635.000005364196
 11
4468.89999609592
 21
1633.399993180996
  0
LINE
  5
2B2
100
AcDbEntity
  8
0
  6
CONTINUOUS
 62
           3
100
AcDbLine
 10
4360.899997019712
 20
1633.399993180996
 11
4355.899998062714
 21
1633.399993180996
  0
LINE
  5
2B1
100
AcDbEntity
  8
0
  6
CONTINUOUS
 62
           3
100
AcDbLine
 10
4355.899998062714
 20
1635.000005364196
 11
4360.899997019712
 21
1635.000005364196
  0
LINE
  5
2B0
100
AcDbEntity
  8
0
  6
CONTINUOUS
 62
           3
100
AcDbLine
 10
4355.899998062714
 20
1633.399993180996
 11
4355.899998062714
 21
1635.000005364196
  0
LINE
  5
2AF
100
AcDbEntity
  8
0
  6
CONTINUOUS
 62
           3
100
AcDbLine
 10
4360.899997019712
 20
1366.600006818713
 11
4355.899998062714
 21
1366.600006818713
  0
LINE
  5
2AE
100
AcDbEntity
  8
0
  6
CONTINUOUS
 62
           3
100
AcDbLine
 10
4355.899998062714
 20
1364.999994635815
 11
4360.899997019712
 21
1364.999994635815
  0
LINE
  5
2AD
100
AcDbEntity
  8
0
  6
CONTINUOUS
 62
           3
100
AcDbLine
 10
4355.899998062714
 20
1366.600006818713
 11
4355.899998062714
 21
1364.999994635815
  0
LINE
  5
2AC
100
AcDbEntity
  8
0
  6
CONTINUOUS
 62
           3
100
AcDbLine
 10
4370.899994933703
 20
1633.399993180996
 11
4460.899998509632
 21
1633.399993180996
  0
LINE
  5
2AB
100
AcDbEntity
  8
0
  6
CONTINUOUS
 62
           3
100
AcDbLine
 10
4370.899994933703
 20
1635.000005364196
 11
4460.899998509632
 21
1635.000005364196
  0
LINE
  5
2AA
100
AcDbEntity
  8
0
  6
CONTINUOUS
 62
           3
100
AcDbLine
 10
4370.899994933703
 20
1366.600006818713
 11
4460.899998509632
 21
1366.600006818713
  0
LINE
  5
2A9
100
AcDbEntity
  8
0
  6
CONTINUOUS
 62
           3
100
AcDbLine
 10
4370.899994933703
 20
1364.999994635815
 11
4460.899998509632
 21
1364.999994635815
  0
LINE
  5
2A8
100
AcDbEntity
  8
0
  6
CONTINUOUS
 62
           3
100
AcDbLine
 10
4370.899994933703
 20
1366.600006818713
 11
4368.899998331103
 21
1366.600006818713
  0
LINE
  5
2A7
100
AcDbEntity
  8
0
  6
CONTINUOUS
 62
           3
100
AcDbLine
 10
4368.899998331103
 20
1366.600006818713
 11
4368.899998331103
 21
1364.999994635815
  0
LINE
  5
2A6
100
AcDbEntity
  8
0
  6
CONTINUOUS
 62
           3
100
AcDbLine
 10
4368.899998331103
 20
1364.999994635815
 11
4370.899994933703
 21
1364.999994635815
  0
LINE
  5
2A5
100
AcDbEntity
  8
0
  6
CONTINUOUS
 62
           3
100
AcDbLine
 10
4370.899994933703
 20
1633.399993180996
 11
4368.899998331103
 21
1633.399993180996
  0
LINE
  5
2A4
100
AcDbEntity
  8
0
  6
CONTINUOUS
 62
           3
100
AcDbLine
 10
4368.899998331103
 20
1635.000005364196
 11
4370.899994933703
 21
1635.000005364196
  0
LINE
  5
2A3
100
AcDbEntity
  8
0
  6
CONTINUOUS
 62
           3
100
AcDbLine
 10
4368.899998331103
 20
1633.399993180996
 11
4368.899998331103
 21
1635.000005364196
  0
LINE
  5
2A2
100
AcDbEntity
  8
0
  6
CONTINUOUS
 62
           3
100
AcDbLine
 10
4362.899997347713
 20
1633.399993180996
 11
4360.899997019712
 21
1633.399993180996
  0
LINE
  5
2A1
100
AcDbEntity
  8
0
  6
CONTINUOUS
 62
           3
100
AcDbLine
 10
4362.899997347713
 20
1635.000005364196
 11
4362.899997347713
 21
1633.399993180996
  0
LINE
  5
2A0
100
AcDbEntity
  8
0
  6
CONTINUOUS
 62
           3
100
AcDbLine
 10
4360.899997019712
 20
1635.000005364196
 11
4362.899997347713
 21
1635.000005364196
  0
LINE
  5
29F
100
AcDbEntity
  8
0
  6
CONTINUOUS
 62
           3
100
AcDbLine
 10
4362.899997347713
 20
1366.600006818713
 11
4360.899997019712
 21
1366.600006818713
  0
LINE
  5
29E
100
AcDbEntity
  8
0
  6
CONTINUOUS
 62
           3
100
AcDbLine
 10
4360.899997019712
 20
1364.999994635815
 11
4362.899997347713
 21
1364.999994635815
  0
LINE
  5
29D
100
AcDbEntity
  8
0
  6
CONTINUOUS
 62
           3
100
AcDbLine
 10
4362.899997347713
 20
1364.999994635815
 11
4362.899997347713
 21
1366.600006818713
  0
LINE
  5
29C
100
AcDbEntity
  8
0
  6
CONTINUOUS
 62
           3
100
AcDbLine
 10
4475.824804121022
 20
1409.99999642378
 11
4474.199996405624
 21
1409.99999642378
  0
LINE
  5
29B
100
AcDbEntity
  8
0
  6
CONTINUOUS
 62
           3
100
AcDbLine
 10
4474.199996405624
 20
1429.999999701962
 11
4475.899995380621
 21
1429.999999701962
  0
LINE
  5
29A
100
AcDbEntity
  8
0
  6
CONTINUOUS
 62
           3
100
AcDbLine
 10
4475.899995380621
 20
1429.999999701962
 11
4475.899995380621
 21
1409.99999642378
  0
LINE
  5
299
100
AcDbEntity
  8
0
  6
CONTINUOUS
 62
           3
100
AcDbLine
 10
4355.899998062714
 20
1529.999999329481
 11
4357.599997037715
 21
1529.999999329481
  0
LINE
  5
298
100
AcDbEntity
  8
0
  6
CONTINUOUS
 62
           3
100
AcDbLine
 10
4355.899998062714
 20
1509.999999776395
 11
4355.899998062714
 21
1529.999999329481
  0
LINE
  5
297
100
AcDbEntity
  8
0
  6
CONTINUOUS
 62
           3
100
AcDbLine
 10
4357.599997037715
 20
1509.999999776395
 11
4355.975189322323
 21
1509.999999776395
  0
LINE
  5
296
100
AcDbEntity
  8
0
  6
CONTINUOUS
 62
           3
100
AcDbLine
 10
4355.975189322323
 20
1409.99999642378
 11
4357.599997037715
 21
1409.99999642378
  0
LINE
  5
295
100
AcDbEntity
  8
0
  6
CONTINUOUS
 62
           3
100
AcDbLine
 10
4357.599997037715
 20
1429.999999701962
 11
4355.899998062714
 21
1429.999999701962
  0
LINE
  5
294
100
AcDbEntity
  8
0
  6
CONTINUOUS
 62
           3
100
AcDbLine
 10
4355.899998062714
 20
1429.999999701962
 11
4355.899998062714
 21
1409.99999642378
  0
LINE
  5
293
100
AcDbEntity
  8
0
  6
CONTINUOUS
 62
           3
100
AcDbLine
 10
4357.599997037715
 20
1529.999999329481
 11
4357.899998390714
 21
1529.999999329481
  0
LINE
  5
292
100
AcDbEntity
  8
0
  6
CONTINUOUS
 62
           3
100
AcDbLine
 10
4357.899998390714
 20
1509.999999776395
 11
4357.599997037715
 21
1509.999999776395
  0
LINE
  5
291
100
AcDbEntity
  8
0
  6
CONTINUOUS
 62
           3
100
AcDbLine
 10
4355.899998062714
 20
1508.000000379899
 11
4357.899998390714
 21
1508.000000379899
  0
LINE
  5
290
100
AcDbEntity
  8
0
  6
CONTINUOUS
 62
           3
100
AcDbLine
 10
4355.899998062714
 20
1508.000000379899
 11
4355.899998062714
 21
1431.999996304558
  0
LINE
  5
28F
100
AcDbEntity
  8
0
  6
CONTINUOUS
 62
           3
100
AcDbLine
 10
4355.899998062714
 20
1431.999996304558
 11
4357.899998390714
 21
1431.999996304558
  0
LINE
  5
28E
100
AcDbEntity
  8
0
  6
CONTINUOUS
 62
           3
100
AcDbLine
 10
4357.899998390714
 20
1429.999999701962
 11
4357.599997037715
 21
1429.999999701962
  0
LINE
  5
28D
100
AcDbEntity
  8
0
  6
CONTINUOUS
 62
           3
100
AcDbLine
 10
4357.599997037715
 20
1409.99999642378
 11
4357.899998390714
 21
1409.99999642378
  0
LINE
  5
28C
100
AcDbEntity
  8
0
  6
CONTINUOUS
 62
           3
100
AcDbLine
 10
4357.899998390714
 20
1407.999999821182
 11
4355.899998062714
 21
1407.999999821182
  0
LINE
  5
28B
100
AcDbEntity
  8
0
  6
CONTINUOUS
 62
           3
100
AcDbLine
 10
4355.899998062714
 20
1391.699999570792
 11
4355.899998062714
 21
1407.999999821182
  0
LINE
  5
28A
100
AcDbEntity
  8
0
  6
CONTINUOUS
 62
           3
100
AcDbLine
 10
4475.899995380621
 20
1391.699999570792
 11
4475.899995380621
 21
1407.999999821182
  0
LINE
  5
289
100
AcDbEntity
  8
0
  6
CONTINUOUS
 62
           3
100
AcDbLine
 10
4473.899995052622
 20
1407.999999821182
 11
4475.899995380621
 21
1407.999999821182
  0
LINE
  5
288
100
AcDbEntity
  8
0
  6
CONTINUOUS
 62
           3
100
AcDbLine
 10
4474.199996405624
 20
1409.99999642378
 11
4473.899995052622
 21
1409.99999642378
  0
LINE
  5
287
100
AcDbEntity
  8
0
  6
CONTINUOUS
 62
           3
100
AcDbLine
 10
4473.899995052622
 20
1429.999999701962
 11
4474.199996405624
 21
1429.999999701962
  0
LINE
  5
286
100
AcDbEntity
  8
0
  6
CONTINUOUS
 62
           3
100
AcDbLine
 10
4475.899995380621
 20
1431.999996304558
 11
4473.899995052622
 21
1431.999996304558
  0
LINE
  5
285
100
AcDbEntity
  8
0
  6
CONTINUOUS
 62
           3
100
AcDbLine
 10
4475.899995380621
 20
1508.000000379899
 11
4475.899995380621
 21
1431.999996304558
  0
LINE
  5
284
100
AcDbEntity
  8
0
  6
CONTINUOUS
 62
           3
100
AcDbLine
 10
4475.899995380621
 20
1508.000000379899
 11
4473.899995052622
 21
1508.000000379899
  0
LINE
  5
283
100
AcDbEntity
  8
0
  6
CONTINUOUS
 62
           3
100
AcDbLine
 10
4473.899995052622
 20
1509.999999776395
 11
4474.199996405624
 21
1509.999999776395
  0
LINE
  5
282
100
AcDbEntity
  8
0
  6
CONTINUOUS
 62
           3
100
AcDbLine
 10
4474.199996405624
 20
1529.999999329481
 11
4473.899995052622
 21
1529.999999329481
  0
LINE
  5
281
100
AcDbEntity
  8
0
  6
CONTINUOUS
 62
           3
100
AcDbLine
 10
4473.899995052622
 20
1532.000001519878
 11
4475.899995380621
 21
1532.000001519878
  0
LINE
  5
280
100
AcDbEntity
  8
0
  6
CONTINUOUS
 62
           3
100
AcDbLine
 10
4475.899995380621
 20
1548.300001770265
 11
4475.899995380621
 21
1532.000001519878
  0
LINE
  5
27F
100
AcDbEntity
  8
0
  6
CONTINUOUS
 62
           3
100
AcDbLine
 10
4355.899998062714
 20
1548.300001770265
 11
4355.899998062714
 21
1532.000001519878
  0
LINE
  5
27E
100
AcDbEntity
  8
0
  6
CONTINUOUS
 62
           3
100
AcDbLine
 10
4357.899998390714
 20
1532.000001519878
 11
4355.899998062714
 21
1532.000001519878
  0
LINE
  5
27D
100
AcDbEntity
  8
0
  6
CONTINUOUS
 62
           3
100
AcDbLine
 10
4474.199996405624
 20
1509.999999776395
 11
4475.824804121022
 21
1509.999999776395
  0
LINE
  5
27C
100
AcDbEntity
  8
0
  6
CONTINUOUS
 62
           3
100
AcDbLine
 10
4475.899995380621
 20
1509.999999776395
 11
4475.899995380621
 21
1529.999999329481
  0
LINE
  5
27B
100
AcDbEntity
  8
0
  6
CONTINUOUS
 62
           3
100
AcDbLine
 10
4475.899995380621
 20
1529.999999329481
 11
4474.199996405624
 21
1529.999999329481
  0
LINE
  5
27A
100
AcDbEntity
  8
0
  6
CONTINUOUS
 62
           3
100
AcDbLine
 10
4475.899995380621
 20
1548.799999058065
 11
4475.899995380621
 21
1548.300001770265
  0
LINE
  5
279
100
AcDbEntity
  8
0
  6
CONTINUOUS
 62
           3
100
AcDbLine
 10
4355.899998062714
 20
1548.799999058065
 11
4355.899998062714
 21
1548.300001770265
  0
LINE
  5
278
100
AcDbEntity
  8
0
  6
CONTINUOUS
 62
           3
100
AcDbLine
 10
4355.899998062714
 20
1391.199998557593
 11
4355.899998062714
 21
1391.699999570792
  0
LINE
  5
277
100
AcDbEntity
  8
0
  6
CONTINUOUS
 62
           3
100
AcDbLine
 10
4475.899995380621
 20
1391.199998557593
 11
4475.899995380621
 21
1391.699999570792
  0
LINE
  5
276
100
AcDbEntity
  8
0
  6
CONTINUOUS
 62
           3
100
AcDbLine
 10
4418.899996747763
 20
1550.000000744964
 11
4419.149996788763
 21
1550.000000744964
  0
LINE
  5
275
100
AcDbEntity
  8
0
  6
CONTINUOUS
 62
           3
100
AcDbLine
 10
4412.649996654576
 20
1550.000000744964
 11
4412.899996695576
 21
1550.000000744964
  0
LINE
  5
274
100
AcDbEntity
  8
0
  6
CONTINUOUS
 62
           3
100
AcDbLine
 10
4418.899996747763
 20
1548.799999058065
 11
4419.149996788763
 21
1548.799999058065
  0
LINE
  5
273
100
AcDbEntity
  8
0
  6
CONTINUOUS
 62
           3
100
AcDbLine
 10
4412.649996654576
 20
1548.799999058065
 11
4412.899996695576
 21
1548.799999058065
  0
LINE
  5
272
100
AcDbEntity
  8
0
  6
CONTINUOUS
 62
           3
100
AcDbLine
 10
4412.899996695576
 20
1391.199998557593
 11
4412.649996654576
 21
1391.199998557593
  0
LINE
  5
271
100
AcDbEntity
  8
0
  6
CONTINUOUS
 62
           3
100
AcDbLine
 10
4419.149996788763
 20
1391.199998557593
 11
4418.899996747763
 21
1391.199998557593
  0
LINE
  5
270
100
AcDbEntity
  8
0
  6
CONTINUOUS
 62
           3
100
AcDbLine
 10
4360.899997019712
 20
1391.199998557593
 11
4355.899998062714
 21
1391.199998557593
  0
LINE
  5
26F
100
AcDbEntity
  8
0
  6
CONTINUOUS
 62
           3
100
AcDbLine
 10
4355.899998062714
 20
1390.000000596097
 11
4360.899997019712
 21
1390.000000596097
  0
LINE
  5
26E
100
AcDbEntity
  8
0
  6
CONTINUOUS
 62
           3
100
AcDbLine
 10
4355.899998062714
 20
1391.199998557593
 11
4355.899998062714
 21
1390.000000596097
  0
LINE
  5
26D
100
AcDbEntity
  8
0
  6
CONTINUOUS
 62
           3
100
AcDbLine
 10
4355.899998062714
 20
1550.000000744964
 11
4360.899997019712
 21
1550.000000744964
  0
LINE
  5
26C
100
AcDbEntity
  8
0
  6
CONTINUOUS
 62
           3
100
AcDbLine
 10
4360.899997019712
 20
1548.799999058065
 11
4355.899998062714
 21
1548.799999058065
  0
LINE
  5
26B
100
AcDbEntity
  8
0
  6
CONTINUOUS
 62
           3
100
AcDbLine
 10
4355.899998062714
 20
1548.799999058065
 11
4355.899998062714
 21
1550.000000744964
  0
LINE
  5
26A
100
AcDbEntity
  8
0
  6
CONTINUOUS
 62
           3
100
AcDbLine
 10
4460.899998509632
 20
1550.000000744964
 11
4445.899996051144
 21
1550.000000744964
  0
LINE
  5
269
100
AcDbEntity
  8
0
  6
CONTINUOUS
 62
           3
100
AcDbLine
 10
4460.899998509632
 20
1548.799999058065
 11
4445.899996051144
 21
1548.799999058065
  0
LINE
  5
268
100
AcDbEntity
  8
0
  6
CONTINUOUS
 62
           3
100
AcDbLine
 10
4475.899995380621
 20
1550.000000744964
 11
4470.899996423622
 21
1550.000000744964
  0
LINE
  5
267
100
AcDbEntity
  8
0
  6
CONTINUOUS
 62
           3
100
AcDbLine
 10
4470.899996423622
 20
1548.799999058065
 11
4475.899995380621
 21
1548.799999058065
  0
LINE
  5
266
100
AcDbEntity
  8
0
  6
CONTINUOUS
 62
           3
100
AcDbLine
 10
4475.899995380621
 20
1548.799999058065
 11
4475.899995380621
 21
1550.000000744964
  0
LINE
  5
265
100
AcDbEntity
  8
0
  6
CONTINUOUS
 62
           3
100
AcDbLine
 10
4460.899998509632
 20
1391.199998557593
 11
4445.899996051144
 21
1391.199998557593
  0
LINE
  5
264
100
AcDbEntity
  8
0
  6
CONTINUOUS
 62
           3
100
AcDbLine
 10
4460.899998509632
 20
1390.000000596097
 11
4445.899996051144
 21
1390.000000596097
  0
LINE
  5
263
100
AcDbEntity
  8
0
  6
CONTINUOUS
 62
           3
100
AcDbLine
 10
4370.899994933703
 20
1550.000000744964
 11
4385.89999739219
 21
1550.000000744964
  0
LINE
  5
262
100
AcDbEntity
  8
0
  6
CONTINUOUS
 62
           3
100
AcDbLine
 10
4370.899994933703
 20
1548.799999058065
 11
4385.89999739219
 21
1548.799999058065
  0
LINE
  5
261
100
AcDbEntity
  8
0
  6
CONTINUOUS
 62
           3
100
AcDbLine
 10
4470.899996423622
 20
1391.199998557593
 11
4475.899995380621
 21
1391.199998557593
  0
LINE
  5
260
100
AcDbEntity
  8
0
  6
CONTINUOUS
 62
           3
100
AcDbLine
 10
4475.899995380621
 20
1390.000000596097
 11
4470.899996423622
 21
1390.000000596097
  0
LINE
  5
25F
100
AcDbEntity
  8
0
  6
CONTINUOUS
 62
           3
100
AcDbLine
 10
4475.899995380621
 20
1391.199998557593
 11
4475.899995380621
 21
1390.000000596097
  0
LINE
  5
25E
100
AcDbEntity
  8
0
  6
CONTINUOUS
 62
           3
100
AcDbLine
 10
4370.899994933703
 20
1391.199998557593
 11
4385.89999739219
 21
1391.199998557593
  0
LINE
  5
25D
100
AcDbEntity
  8
0
  6
CONTINUOUS
 62
           3
100
AcDbLine
 10
4370.899994933703
 20
1390.000000596097
 11
4385.89999739219
 21
1390.000000596097
  0
LINE
  5
25C
100
AcDbEntity
  8
0
  6
CONTINUOUS
 62
           3
100
AcDbLine
 10
4368.899998331103
 20
1550.000000744964
 11
4370.899994933703
 21
1550.000000744964
  0
LINE
  5
25B
100
AcDbEntity
  8
0
  6
CONTINUOUS
 62
           3
100
AcDbLine
 10
4370.899994933703
 20
1548.799999058065
 11
4368.899998331103
 21
1548.799999058065
  0
LINE
  5
25A
100
AcDbEntity
  8
0
  6
CONTINUOUS
 62
           3
100
AcDbLine
 10
4368.899998331103
 20
1548.799999058065
 11
4368.899998331103
 21
1550.000000744964
  0
LINE
  5
259
100
AcDbEntity
  8
0
  6
CONTINUOUS
 62
           3
100
AcDbLine
 10
4360.899997019712
 20
1550.000000744964
 11
4362.899997347713
 21
1550.000000744964
  0
LINE
  5
258
100
AcDbEntity
  8
0
  6
CONTINUOUS
 62
           3
100
AcDbLine
 10
4362.899997347713
 20
1548.799999058065
 11
4360.899997019712
 21
1548.799999058065
  0
LINE
  5
257
100
AcDbEntity
  8
0
  6
CONTINUOUS
 62
           3
100
AcDbLine
 10
4362.899997347713
 20
1550.000000744964
 11
4362.899997347713
 21
1548.799999058065
  0
LINE
  5
256
100
AcDbEntity
  8
0
  6
CONTINUOUS
 62
           3
100
AcDbLine
 10
4460.899998509632
 20
1391.199998557593
 11
4462.899995112233
 21
1391.199998557593
  0
LINE
  5
255
100
AcDbEntity
  8
0
  6
CONTINUOUS
 62
           3
100
AcDbLine
 10
4462.899995112233
 20
1390.000000596097
 11
4460.899998509632
 21
1390.000000596097
  0
LINE
  5
254
100
AcDbEntity
  8
0
  6
CONTINUOUS
 62
           3
100
AcDbLine
 10
4462.899995112233
 20
1391.199998557593
 11
4462.899995112233
 21
1390.000000596097
  0
LINE
  5
253
100
AcDbEntity
  8
0
  6
CONTINUOUS
 62
           3
100
AcDbLine
 10
4468.89999609592
 20
1391.199998557593
 11
4470.899996423622
 21
1391.199998557593
  0
LINE
  5
252
100
AcDbEntity
  8
0
  6
CONTINUOUS
 62
           3
100
AcDbLine
 10
4470.899996423622
 20
1390.000000596097
 11
4468.89999609592
 21
1390.000000596097
  0
LINE
  5
251
100
AcDbEntity
  8
0
  6
CONTINUOUS
 62
           3
100
AcDbLine
 10
4468.89999609592
 20
1390.000000596097
 11
4468.89999609592
 21
1391.199998557593
  0
LINE
  5
250
100
AcDbEntity
  8
0
  6
CONTINUOUS
 62
           3
100
AcDbLine
 10
4462.899995112233
 20
1550.000000744964
 11
4460.899998509632
 21
1550.000000744964
  0
LINE
  5
24F
100
AcDbEntity
  8
0
  6
CONTINUOUS
 62
           3
100
AcDbLine
 10
4460.899998509632
 20
1548.799999058065
 11
4462.899995112233
 21
1548.799999058065
  0
LINE
  5
24E
100
AcDbEntity
  8
0
  6
CONTINUOUS
 62
           3
100
AcDbLine
 10
4462.899995112233
 20
1548.799999058065
 11
4462.899995112233
 21
1550.000000744964
  0
LINE
  5
24D
100
AcDbEntity
  8
0
  6
CONTINUOUS
 62
           3
100
AcDbLine
 10
4470.899996423622
 20
1550.000000744964
 11
4468.89999609592
 21
1550.000000744964
  0
LINE
  5
24C
100
AcDbEntity
  8
0
  6
CONTINUOUS
 62
           3
100
AcDbLine
 10
4468.89999609592
 20
1548.799999058065
 11
4470.899996423622
 21
1548.799999058065
  0
LINE
  5
24B
100
AcDbEntity
  8
0
  6
CONTINUOUS
 62
           3
100
AcDbLine
 10
4468.89999609592
 20
1550.000000744964
 11
4468.89999609592
 21
1548.799999058065
  0
LINE
  5
24A
100
AcDbEntity
  8
0
  6
CONTINUOUS
 62
           3
100
AcDbLine
 10
4370.899994933703
 20
1391.199998557593
 11
4368.899998331103
 21
1391.199998557593
  0
LINE
  5
249
100
AcDbEntity
  8
0
  6
CONTINUOUS
 62
           3
100
AcDbLine
 10
4368.899998331103
 20
1390.000000596097
 11
4370.899994933703
 21
1390.000000596097
  0
LINE
  5
248
100
AcDbEntity
  8
0
  6
CONTINUOUS
 62
           3
100
AcDbLine
 10
4368.899998331103
 20
1391.199998557593
 11
4368.899998331103
 21
1390.000000596097
  0
LINE
  5
247
100
AcDbEntity
  8
0
  6
CONTINUOUS
 62
           3
100
AcDbLine
 10
4362.899997347713
 20
1391.199998557593
 11
4360.899997019712
 21
1391.199998557593
  0
LINE
  5
246
100
AcDbEntity
  8
0
  6
CONTINUOUS
 62
           3
100
AcDbLine
 10
4360.899997019712
 20
1390.000000596097
 11
4362.899997347713
 21
1390.000000596097
  0
LINE
  5
245
100
AcDbEntity
  8
0
  6
CONTINUOUS
 62
           3
100
AcDbLine
 10
4362.899997347713
 20
1390.000000596097
 11
4362.899997347713
 21
1391.199998557593
  0
LINE
  5
244
100
AcDbEntity
  8
0
  6
CONTINUOUS
 62
           3
100
AcDbLine
 10
4412.399996613576
 20
1391.199998557593
 11
4412.649996654576
 21
1391.199998557593
  0
LINE
  5
243
100
AcDbEntity
  8
0
  6
CONTINUOUS
 62
           3
100
AcDbLine
 10
4412.649996654576
 20
1391.199998557593
 11
4412.649996654576
 21
1390.000000596097
  0
LINE
  5
242
100
AcDbEntity
  8
0
  6
CONTINUOUS
 62
           3
100
AcDbLine
 10
4445.899996051144
 20
1391.199998557593
 11
4435.899996274752
 21
1391.199998557593
  0
LINE
  5
241
100
AcDbEntity
  8
0
  6
CONTINUOUS
 62
           3
100
AcDbLine
 10
4445.899996051144
 20
1390.000000596097
 11
4435.899996274752
 21
1390.000000596097
  0
LINE
  5
240
100
AcDbEntity
  8
0
  6
CONTINUOUS
 62
           3
100
AcDbLine
 10
4445.899996051144
 20
1391.199998557593
 11
4445.899996051144
 21
1390.000000596097
  0
LINE
  5
23F
100
AcDbEntity
  8
0
  6
CONTINUOUS
 62
           3
100
AcDbLine
 10
4410.649996792473
 20
1550.000000744964
 11
4412.649996654576
 21
1550.000000744964
  0
LINE
  5
23E
100
AcDbEntity
  8
0
  6
CONTINUOUS
 62
           3
100
AcDbLine
 10
4412.649996654576
 20
1548.799999058065
 11
4410.649996792473
 21
1548.799999058065
  0
LINE
  5
23D
100
AcDbEntity
  8
0
  6
CONTINUOUS
 62
           3
100
AcDbLine
 10
4412.649996654576
 20
1550.000000744964
 11
4412.649996654576
 21
1548.799999058065
  0
LINE
  5
23C
100
AcDbEntity
  8
0
  6
CONTINUOUS
 62
           3
100
AcDbLine
 10
4423.899997101563
 20
1391.199998557593
 11
4435.899996274752
 21
1391.199998557593
  0
LINE
  5
23B
100
AcDbEntity
  8
0
  6
CONTINUOUS
 62
           3
100
AcDbLine
 10
4423.899997101563
 20
1390.000000596097
 11
4435.899996274752
 21
1390.000000596097
  0
LINE
  5
23A
100
AcDbEntity
  8
0
  6
CONTINUOUS
 62
           3
100
AcDbLine
 10
4435.899996274752
 20
1391.199998557593
 11
4435.899996274752
 21
1390.000000596097
  0
LINE
  5
239
100
AcDbEntity
  8
0
  6
CONTINUOUS
 62
           3
100
AcDbLine
 10
4385.89999739219
 20
1391.199998557593
 11
4395.899997168586
 21
1391.199998557593
  0
LINE
  5
238
100
AcDbEntity
  8
0
  6
CONTINUOUS
 62
           3
100
AcDbLine
 10
4385.89999739219
 20
1390.000000596097
 11
4395.899997168586
 21
1390.000000596097
  0
LINE
  5
237
100
AcDbEntity
  8
0
  6
CONTINUOUS
 62
           3
100
AcDbLine
 10
4385.89999739219
 20
1391.199998557593
 11
4385.89999739219
 21
1390.000000596097
  0
LINE
  5
236
100
AcDbEntity
  8
0
  6
CONTINUOUS
 62
           3
100
AcDbLine
 10
4419.149996788763
 20
1550.000000744964
 11
4421.149996650865
 21
1550.000000744964
  0
LINE
  5
235
100
AcDbEntity
  8
0
  6
CONTINUOUS
 62
           3
100
AcDbLine
 10
4421.149996650865
 20
1548.799999058065
 11
4419.149996788763
 21
1548.799999058065
  0
LINE
  5
234
100
AcDbEntity
  8
0
  6
CONTINUOUS
 62
           3
100
AcDbLine
 10
4419.149996788763
 20
1548.799999058065
 11
4419.149996788763
 21
1550.000000744964
  0
LINE
  5
233
100
AcDbEntity
  8
0
  6
CONTINUOUS
 62
           3
100
AcDbLine
 10
4445.899996051144
 20
1550.000000744964
 11
4435.899996274752
 21
1550.000000744964
  0
LINE
  5
232
100
AcDbEntity
  8
0
  6
CONTINUOUS
 62
           3
100
AcDbLine
 10
4445.899996051144
 20
1548.799999058065
 11
4435.899996274752
 21
1548.799999058065
  0
LINE
  5
231
100
AcDbEntity
  8
0
  6
CONTINUOUS
 62
           3
100
AcDbLine
 10
4445.899996051144
 20
1548.799999058065
 11
4445.899996051144
 21
1550.000000744964
  0
LINE
  5
230
100
AcDbEntity
  8
0
  6
CONTINUOUS
 62
           3
100
AcDbLine
 10
4419.149996788763
 20
1391.199998557593
 11
4419.399996829763
 21
1391.199998557593
  0
LINE
  5
22F
100
AcDbEntity
  8
0
  6
CONTINUOUS
 62
           3
100
AcDbLine
 10
4419.149996788763
 20
1390.000000596097
 11
4419.149996788763
 21
1391.199998557593
  0
LINE
  5
22E
100
AcDbEntity
  8
0
  6
CONTINUOUS
 62
           3
100
AcDbLine
 10
4395.899997168586
 20
1391.199998557593
 11
4407.899996341775
 21
1391.199998557593
  0
LINE
  5
22D
100
AcDbEntity
  8
0
  6
CONTINUOUS
 62
           3
100
AcDbLine
 10
4395.899997168586
 20
1390.000000596097
 11
4407.899996341775
 21
1390.000000596097
  0
LINE
  5
22C
100
AcDbEntity
  8
0
  6
CONTINUOUS
 62
           3
100
AcDbLine
 10
4395.899997168586
 20
1391.199998557593
 11
4395.899997168586
 21
1390.000000596097
  0
LINE
  5
22B
100
AcDbEntity
  8
0
  6
CONTINUOUS
 62
           3
100
AcDbLine
 10
4395.899997168586
 20
1550.000000744964
 11
4410.649996792473
 21
1550.000000744964
  0
LINE
  5
22A
100
AcDbEntity
  8
0
  6
CONTINUOUS
 62
           3
100
AcDbLine
 10
4395.899997168586
 20
1548.799999058065
 11
4410.649996792473
 21
1548.799999058065
  0
LINE
  5
229
100
AcDbEntity
  8
0
  6
CONTINUOUS
 62
           3
100
AcDbLine
 10
4421.149996650865
 20
1550.000000744964
 11
4435.899996274752
 21
1550.000000744964
  0
LINE
  5
228
100
AcDbEntity
  8
0
  6
CONTINUOUS
 62
           3
100
AcDbLine
 10
4421.149996650865
 20
1548.799999058065
 11
4435.899996274752
 21
1548.799999058065
  0
LINE
  5
227
100
AcDbEntity
  8
0
  6
CONTINUOUS
 62
           3
100
AcDbLine
 10
4435.899996274752
 20
1548.799999058065
 11
4435.899996274752
 21
1550.000000744964
  0
LINE
  5
226
100
AcDbEntity
  8
0
  6
CONTINUOUS
 62
           3
100
AcDbLine
 10
4385.89999739219
 20
1548.799999058065
 11
4385.89999739219
 21
1550.000000744964
  0
LINE
  5
225
100
AcDbEntity
  8
0
  6
CONTINUOUS
 62
           3
100
AcDbLine
 10
4385.89999739219
 20
1548.799999058065
 11
4395.899997168586
 21
1548.799999058065
  0
LINE
  5
224
100
AcDbEntity
  8
0
  6
CONTINUOUS
 62
           3
100
AcDbLine
 10
4395.899997168586
 20
1548.799999058065
 11
4395.899997168586
 21
1550.000000744964
  0
LINE
  5
223
100
AcDbEntity
  8
0
  6
CONTINUOUS
 62
           3
100
AcDbLine
 10
4385.89999739219
 20
1550.000000744964
 11
4395.899997168586
 21
1550.000000744964
  0
LINE
  5
222
100
AcDbEntity
  8
0
  6
CONTINUOUS
 62
           3
100
AcDbLine
 10
4423.899997101563
 20
1389.200001954996
 11
4423.899997101563
 21
1388.276241719796
  0
LINE
  5
221
100
AcDbEntity
  8
0
  6
CONTINUOUS
 62
           3
100
AcDbLine
 10
4407.899996341775
 20
1389.200001954996
 11
4407.899996341775
 21
1388.276241719796
  0
LINE
  5
220
100
AcDbEntity
  8
0
  6
CONTINUOUS
 62
           3
100
AcDbLine
 10
4410.899996833473
 20
1388.276241719796
 11
4407.899996341775
 21
1388.276241719796
  0
LINE
  5
21F
100
AcDbEntity
  8
0
  6
CONTINUOUS
 62
           3
100
AcDbLine
 10
4423.899997101563
 20
1388.276241719796
 11
4420.899996609865
 21
1388.276241719796
  0
LINE
  5
21E
100
AcDbEntity
  8
0
  6
CONTINUOUS
 62
           3
100
AcDbLine
 10
4418.399996665762
 20
1384.1999992729
 11
4420.899996609912
 21
1384.1999992729
  0
LINE
  5
21D
100
AcDbEntity
  8
0
  6
CONTINUOUS
 62
           3
100
AcDbLine
 10
4410.899996833433
 20
1384.1999992729
 11
4413.399996777554
 21
1384.1999992729
  0
LINE
  5
21C
100
AcDbEntity
  8
0
  6
CONTINUOUS
 62
           3
100
AcDbLine
 10
4420.899996609865
 20
1384.646579623302
 11
4420.899996609865
 21
1389.100000262195
  0
LINE
  5
21B
100
AcDbEntity
  8
0
  6
CONTINUOUS
 62
           3
100
AcDbLine
 10
4410.899996833473
 20
1384.646579623302
 11
4410.899996833473
 21
1389.100000262195
  0
LINE
  5
21A
100
AcDbEntity
  8
0
  6
CONTINUOUS
 62
           3
100
AcDbLine
 10
4410.899996833473
 20
1384.646579623302
 11
4413.399996777554
 21
1384.1999992729
  0
LINE
  5
219
100
AcDbEntity
  8
0
  6
CONTINUOUS
 62
           3
100
AcDbLine
 10
4415.899996721675
 20
1384.646579623295
 11
4415.899996721675
 21
1389.100000262195
  0
LINE
  5
218
100
AcDbEntity
  8
0
  6
CONTINUOUS
 62
           3
100
AcDbLine
 10
4413.399996777554
 20
1384.1999992729
 11
4418.399996665762
 21
1384.1999992729
  0
LINE
  5
217
100
AcDbEntity
  8
0
  6
CONTINUOUS
 62
           3
100
AcDbLine
 10
4415.899996721675
 20
1384.646579623295
 11
4418.399996665762
 21
1384.1999992729
  0
LINE
  5
216
100
AcDbEntity
  8
0
  6
CONTINUOUS
 62
           3
100
AcDbLine
 10
4412.399996613576
 20
1389.200001954996
 11
4419.399996829763
 21
1389.200001954996
  0
LINE
  5
215
100
AcDbEntity
  8
0
  6
CONTINUOUS
 62
           3
100
AcDbLine
 10
4412.399996613576
 20
1390.000000596097
 11
4419.399996829763
 21
1390.000000596097
  0
LINE
  5
214
100
AcDbEntity
  8
0
  6
CONTINUOUS
 62
           3
100
AcDbLine
 10
4419.399996829763
 20
1393.990144133491
 11
4412.399996613576
 21
1393.990144133491
  0
LINE
  5
213
100
AcDbEntity
  8
0
  6
CONTINUOUS
 62
           3
100
AcDbLine
 10
4412.899996695576
 20
1392.246469855294
 11
4412.399996613576
 21
1392.246469855294
  0
LINE
  5
212
100
AcDbEntity
  8
0
  6
CONTINUOUS
 62
           3
100
AcDbLine
 10
4419.399996829763
 20
1392.246469855294
 11
4418.899996747763
 21
1392.246469855294
  0
LINE
  5
211
100
AcDbEntity
  8
0
  6
CONTINUOUS
 62
           3
100
AcDbLine
 10
4423.899997101563
 20
1394.799999892894
 11
4423.899997101563
 21
1389.200001954996
  0
LINE
  5
210
100
AcDbEntity
  8
0
  6
CONTINUOUS
 62
           3
100
AcDbLine
 10
4407.899996341775
 20
1394.799999892894
 11
4407.899996341775
 21
1389.200001954996
  0
LINE
  5
20F
100
AcDbEntity
  8
0
  6
CONTINUOUS
 62
           3
100
AcDbLine
 10
4412.399996613576
 20
1389.200001954996
 11
4412.399996613576
 21
1394.799999892894
  0
LINE
  5
20E
100
AcDbEntity
  8
0
  6
CONTINUOUS
 62
           3
100
AcDbLine
 10
4419.399996829763
 20
1394.799999892894
 11
4419.399996829763
 21
1389.200001954996
  0
LINE
  5
20D
100
AcDbEntity
  8
0
  6
CONTINUOUS
 62
           3
100
AcDbLine
 10
4412.399996613576
 20
1389.200001954996
 11
4407.899996341775
 21
1389.200001954996
  0
LINE
  5
20C
100
AcDbEntity
  8
0
  6
CONTINUOUS
 62
           3
100
AcDbLine
 10
4412.399996613576
 20
1394.792847335491
 11
4419.399996829763
 21
1394.792847335491
  0
LINE
  5
20B
100
AcDbEntity
  8
0
  6
CONTINUOUS
 62
           3
100
AcDbLine
 10
4423.899997101563
 20
1389.200001954996
 11
4419.399996829763
 21
1389.200001954996
  0
LINE
  5
20A
100
AcDbEntity
  8
0
  6
CONTINUOUS
 62
           3
100
AcDbLine
 10
4417.89999681656
 20
1638.422653078993
 11
4413.899996626774
 21
1638.422653078993
  0
LINE
  5
209
100
AcDbEntity
  8
0
  6
CONTINUOUS
 62
           3
100
AcDbLine
 10
4412.899996695576
 20
1637.422651052293
 11
4418.899996747763
 21
1637.422651052293
  0
LINE
  5
208
100
AcDbEntity
  8
0
  6
CONTINUOUS
 62
           3
100
AcDbLine
 10
4361.899995321013
 20
1665.000006556369
 11
4365.899995976711
 21
1665.000006556369
  0
LINE
  5
207
100
AcDbEntity
  8
0
  6
CONTINUOUS
 62
           3
100
AcDbLine
 10
4365.899995976711
 20
1665.000006556369
 11
4369.899996632413
 21
1665.000006556369
  0
LINE
  5
206
100
AcDbEntity
  8
0
  6
CONTINUOUS
 62
           3
100
AcDbLine
 10
4411.569869687346
 20
1367.599993944255
 11
4410.899996833473
 21
1367.599993944114
  0
LINE
  5
205
100
AcDbEntity
  8
0
  6
CONTINUOUS
 62
           3
100
AcDbLine
 10
4420.899996609865
 20
1367.599993944114
 11
4420.230123756004
 21
1367.599993944255
  0
LINE
  5
204
100
AcDbEntity
  8
0
  6
CONTINUOUS
 62
           3
100
AcDbLine
 10
4411.569869687346
 20
1372.600004077041
 11
4410.899996833473
 21
1372.600004077009
  0
LINE
  5
203
100
AcDbEntity
  8
0
  6
CONTINUOUS
 62
           3
100
AcDbLine
 10
4420.230123756004
 20
1367.599993944255
 11
4415.899996721675
 21
1367.599993944255
  0
LINE
  5
202
100
AcDbEntity
  8
0
  6
CONTINUOUS
 62
           3
100
AcDbLine
 10
4415.899996721675
 20
1367.599993944255
 11
4411.569869687346
 21
1367.599993944255
  0
LINE
  5
201
100
AcDbEntity
  8
0
  6
CONTINUOUS
 62
           3
100
AcDbLine
 10
4410.126493853973
 20
1372.153416276109
 11
4410.126493853973
 21
1368.046581745311
  0
LINE
  5
200
100
AcDbEntity
  8
0
  6
CONTINUOUS
 62
           3
100
AcDbLine
 10
4410.126493853973
 20
1368.046581745311
 11
4411.569869687346
 21
1367.599993944255
  0
LINE
  5
1FF
100
AcDbEntity
  8
0
  6
CONTINUOUS
 62
           3
100
AcDbLine
 10
4413.013245287844
 20
1372.153416276062
 11
4411.569869687346
 21
1372.600004077041
  0
LINE
  5
1FE
100
AcDbEntity
  8
0
  6
CONTINUOUS
 62
           3
100
AcDbLine
 10
4418.786748155363
 20
1368.046581745311
 11
4420.230123756004
 21
1367.599993944255
  0
LINE
  5
1FD
100
AcDbEntity
  8
0
  6
CONTINUOUS
 62
           3
100
AcDbLine
 10
4421.673499589365
 20
1372.153416276109
 11
4421.673499589365
 21
1368.046581745311
  0
LINE
  5
1FC
100
AcDbEntity
  8
0
  6
CONTINUOUS
 62
           3
100
AcDbLine
 10
4421.673499589365
 20
1372.153416276109
 11
4420.230123756004
 21
1372.600004077041
  0
LINE
  5
1FB
100
AcDbEntity
  8
0
  6
CONTINUOUS
 62
           3
100
AcDbLine
 10
4413.013245287844
 20
1372.153416276062
 11
4413.013245287844
 21
1368.046581745235
  0
LINE
  5
1FA
100
AcDbEntity
  8
0
  6
CONTINUOUS
 62
           3
100
AcDbLine
 10
4418.786748155502
 20
1372.153416276062
 11
4418.786748155363
 21
1368.046581745311
  0
LINE
  5
1F9
100
AcDbEntity
  8
0
  6
CONTINUOUS
 62
           3
100
AcDbLine
 10
4420.899996609865
 20
1372.600004077009
 11
4420.230123756004
 21
1372.600004077041
  0
LINE
  5
1F8
100
AcDbEntity
  8
0
  6
CONTINUOUS
 62
           3
100
AcDbLine
 10
4420.899996609865
 20
1377.599999308603
 11
4420.230123756004
 21
1377.599999308666
  0
LINE
  5
1F7
100
AcDbEntity
  8
0
  6
CONTINUOUS
 62
           3
100
AcDbLine
 10
4411.569869687346
 20
1377.599999308666
 11
4410.899996833473
 21
1377.599999308603
  0
LINE
  5
1F6
100
AcDbEntity
  8
0
  6
CONTINUOUS
 62
           3
100
AcDbLine
 10
4415.899996721675
 20
1372.600004077041
 11
4411.569869687346
 21
1372.600004077041
  0
LINE
  5
1F5
100
AcDbEntity
  8
0
  6
CONTINUOUS
 62
           3
100
AcDbLine
 10
4420.230123756004
 20
1372.600004077041
 11
4415.899996721675
 21
1372.600004077041
  0
LINE
  5
1F4
100
AcDbEntity
  8
0
  6
CONTINUOUS
 62
           3
100
AcDbLine
 10
4415.899996721675
 20
1377.599999308666
 11
4411.569869687346
 21
1377.599999308666
  0
LINE
  5
1F3
100
AcDbEntity
  8
0
  6
CONTINUOUS
 62
           3
100
AcDbLine
 10
4410.126493853973
 20
1377.153418958204
 11
4410.126493853973
 21
1373.046576976911
  0
LINE
  5
1F2
100
AcDbEntity
  8
0
  6
CONTINUOUS
 62
           3
100
AcDbLine
 10
4410.126493853973
 20
1373.046576976911
 11
4411.569869687346
 21
1372.600004077041
  0
LINE
  5
1F1
100
AcDbEntity
  8
0
  6
CONTINUOUS
 62
           3
100
AcDbLine
 10
4413.013245287844
 20
1377.153418958267
 11
4411.569869687346
 21
1377.599999308666
  0
LINE
  5
1F0
100
AcDbEntity
  8
0
  6
CONTINUOUS
 62
           3
100
AcDbLine
 10
4420.230123756004
 20
1377.599999308666
 11
4415.899996721675
 21
1377.599999308666
  0
LINE
  5
1EF
100
AcDbEntity
  8
0
  6
CONTINUOUS
 62
           3
100
AcDbLine
 10
4418.786748155363
 20
1373.046576976911
 11
4420.230123756004
 21
1372.600004077041
  0
LINE
  5
1EE
100
AcDbEntity
  8
0
  6
CONTINUOUS
 62
           3
100
AcDbLine
 10
4421.673499589365
 20
1377.153418958204
 11
4421.673499589365
 21
1373.046576976911
  0
LINE
  5
1ED
100
AcDbEntity
  8
0
  6
CONTINUOUS
 62
           3
100
AcDbLine
 10
4421.673499589365
 20
1377.153418958204
 11
4420.230123756004
 21
1377.599999308666
  0
LINE
  5
1EC
100
AcDbEntity
  8
0
  6
CONTINUOUS
 62
           3
100
AcDbLine
 10
4413.013245287844
 20
1377.153418958267
 11
4413.013245287844
 21
1373.04657697686
  0
LINE
  5
1EB
100
AcDbEntity
  8
0
  6
CONTINUOUS
 62
           3
100
AcDbLine
 10
4418.786748155502
 20
1377.153418958267
 11
4418.786748155363
 21
1373.046576976911
  0
LINE
  5
1EA
100
AcDbEntity
  8
0
  6
CONTINUOUS
 62
           3
100
AcDbLine
 10
4410.126493853973
 20
1364.553421735915
 11
4410.126493853973
 21
1360.446587205121
  0
LINE
  5
1E9
100
AcDbEntity
  8
0
  6
CONTINUOUS
 62
           3
100
AcDbLine
 10
4410.126493853973
 20
1360.446587205121
 11
4411.569869687346
 21
1359.999999404048
  0
LINE
  5
1E8
100
AcDbEntity
  8
0
  6
CONTINUOUS
 62
           3
100
AcDbLine
 10
4413.013245287844
 20
1364.553421735858
 11
4411.569869687346
 21
1364.999994635673
  0
LINE
  5
1E7
100
AcDbEntity
  8
0
  6
CONTINUOUS
 62
           3
100
AcDbLine
 10
4418.786748155363
 20
1360.446587205121
 11
4420.230123755964
 21
1359.999999403921
  0
LINE
  5
1E6
100
AcDbEntity
  8
0
  6
CONTINUOUS
 62
           3
100
AcDbLine
 10
4421.673499589365
 20
1364.553421735915
 11
4421.673499589365
 21
1360.446587205121
  0
LINE
  5
1E5
100
AcDbEntity
  8
0
  6
CONTINUOUS
 62
           3
100
AcDbLine
 10
4421.673499589365
 20
1364.553421735915
 11
4420.230123756004
 21
1364.999994635673
  0
LINE
  5
1E4
100
AcDbEntity
  8
0
  6
CONTINUOUS
 62
           3
100
AcDbLine
 10
4413.013245287844
 20
1364.553421735858
 11
4413.013245287844
 21
1360.446587205024
  0
LINE
  5
1E3
100
AcDbEntity
  8
0
  6
CONTINUOUS
 62
           3
100
AcDbLine
 10
4418.786748155502
 20
1364.553421735858
 11
4418.786748155363
 21
1360.446587205121
  0
LINE
  5
1E2
100
AcDbEntity
  8
0
  6
CONTINUOUS
 62
           3
100
AcDbLine
 10
4410.899996833473
 20
1359.999999403921
 11
4411.569869687346
 21
1359.999999404048
  0
LINE
  5
1E1
100
AcDbEntity
  8
0
  6
CONTINUOUS
 62
           3
100
AcDbLine
 10
4420.899996609865
 20
1355.000004172322
 11
4420.230123756004
 21
1355.00000417242
  0
LINE
  5
1E0
100
AcDbEntity
  8
0
  6
CONTINUOUS
 62
           3
100
AcDbLine
 10
4410.899996833473
 20
1355.000004172322
 11
4411.569869687346
 21
1355.00000417242
  0
LINE
  5
1DF
100
AcDbEntity
  8
0
  6
CONTINUOUS
 62
           3
100
AcDbLine
 10
4421.673499589365
 20
1355.446577072223
 11
4420.230123756004
 21
1355.00000417242
  0
LINE
  5
1DE
100
AcDbEntity
  8
0
  6
CONTINUOUS
 62
           3
100
AcDbLine
 10
4421.673499589365
 20
1355.446577072223
 11
4421.673499589365
 21
1359.553411603021
  0
LINE
  5
1DD
100
AcDbEntity
  8
0
  6
CONTINUOUS
 62
           3
100
AcDbLine
 10
4410.126493853973
 20
1355.446577072223
 11
4410.126493853973
 21
1359.553411603021
  0
LINE
  5
1DC
100
AcDbEntity
  8
0
  6
CONTINUOUS
 62
           3
100
AcDbLine
 10
4415.899996721675
 20
1359.999999404048
 11
4420.230123755964
 21
1359.999999403921
  0
LINE
  5
1DB
100
AcDbEntity
  8
0
  6
CONTINUOUS
 62
           3
100
AcDbLine
 10
4418.786748155502
 20
1359.553411603069
 11
4420.230123755964
 21
1359.999999403921
  0
LINE
  5
1DA
100
AcDbEntity
  8
0
  6
CONTINUOUS
 62
           3
100
AcDbLine
 10
4411.569869687346
 20
1359.999999404048
 11
4415.899996721675
 21
1359.999999404048
  0
LINE
  5
1D9
100
AcDbEntity
  8
0
  6
CONTINUOUS
 62
           3
100
AcDbLine
 10
4411.569869687346
 20
1355.00000417242
 11
4415.899996721675
 21
1355.000004172322
  0
LINE
  5
1D8
100
AcDbEntity
  8
0
  6
CONTINUOUS
 62
           3
100
AcDbLine
 10
4415.899996721675
 20
1355.000004172322
 11
4420.230123756004
 21
1355.00000417242
  0
LINE
  5
1D7
100
AcDbEntity
  8
0
  6
CONTINUOUS
 62
           3
100
AcDbLine
 10
4413.013245287971
 20
1359.553411603021
 11
4415.899996721675
 21
1359.999999404048
  0
LINE
  5
1D6
100
AcDbEntity
  8
0
  6
CONTINUOUS
 62
           3
100
AcDbLine
 10
4413.013245287844
 20
1355.446577072242
 11
4413.013245287971
 21
1359.553411603021
  0
LINE
  5
1D5
100
AcDbEntity
  8
0
  6
CONTINUOUS
 62
           3
100
AcDbLine
 10
4418.786748155363
 20
1355.446577072223
 11
4415.899996721675
 21
1355.000004172322
  0
LINE
  5
1D4
100
AcDbEntity
  8
0
  6
CONTINUOUS
 62
           3
100
AcDbLine
 10
4418.786748155363
 20
1355.446577072223
 11
4418.786748155502
 21
1359.553411603069
  0
LINE
  5
1D3
100
AcDbEntity
  8
0
  6
CONTINUOUS
 62
           3
100
AcDbLine
 10
4472.899996751324
 20
1393.799997866194
 11
4472.899996751324
 21
1543.800000101368
  0
LINE
  5
1D2
100
AcDbEntity
  8
0
  6
CONTINUOUS
 62
           3
100
AcDbLine
 10
4361.899995321013
 20
1543.800000101368
 11
4358.89999669201
 21
1543.800000101368
  0
LINE
  5
1D1
100
AcDbEntity
  8
0
  6
CONTINUOUS
 62
           3
100
AcDbLine
 10
4412.899996695576
 20
1543.800000101368
 11
4369.899996632413
 21
1543.800000101368
  0
LINE
  5
1D0
100
AcDbEntity
  8
0
  6
CONTINUOUS
 62
           3
100
AcDbLine
 10
4461.899996810932
 20
1543.800000101368
 11
4418.899996747763
 21
1543.800000101368
  0
LINE
  5
1CF
100
AcDbEntity
  8
0
  6
CONTINUOUS
 62
           3
100
AcDbLine
 10
4472.899996751324
 20
1543.800000101368
 11
4469.899998122326
 21
1543.800000101368
  0
LINE
  5
1CE
100
AcDbEntity
  8
0
  6
CONTINUOUS
 62
           3
100
AcDbLine
 10
4358.89999669201
 20
1543.800000101368
 11
4358.89999669201
 21
1393.799997866194
  0
LINE
  5
1CD
100
AcDbEntity
  8
0
  6
CONTINUOUS
 62
           3
100
AcDbLine
 10
4469.899998122326
 20
1393.799997866194
 11
4472.899996751324
 21
1393.799997866194
  0
LINE
  5
1CC
100
AcDbEntity
  8
0
  6
CONTINUOUS
 62
           3
100
AcDbLine
 10
4423.899997101563
 20
1393.799997866194
 11
4461.899996810932
 21
1393.799997866194
  0
LINE
  5
1CB
100
AcDbEntity
  8
0
  6
CONTINUOUS
 62
           3
100
AcDbLine
 10
4369.899996632413
 20
1393.799997866194
 11
4407.899996341775
 21
1393.799997866194
  0
LINE
  5
1CA
100
AcDbEntity
  8
0
  6
CONTINUOUS
 62
           3
100
AcDbLine
 10
4358.89999669201
 20
1393.799997866194
 11
4361.899995321013
 21
1393.799997866194
  0
LINE
  5
1C9
100
AcDbEntity
  8
0
  6
CONTINUOUS
 62
           3
100
AcDbLine
 10
4409.426494029872
 20
1389.099999999995
 11
4422.373499413462
 21
1389.099999999995
  0
LINE
  5
1C8
100
AcDbEntity
  8
0
  6
CONTINUOUS
 62
           3
100
AcDbLine
 10
4423.899997101563
 20
1394.799999892894
 11
4419.399996829763
 21
1394.799999892894
  0
LINE
  5
1C7
100
AcDbEntity
  8
0
  6
CONTINUOUS
 62
           3
100
AcDbLine
 10
4412.399996613576
 20
1394.799999892894
 11
4407.899996341775
 21
1394.799999892894
  0
LINE
  5
1C6
100
AcDbEntity
  8
0
  6
CONTINUOUS
 62
           3
100
AcDbLine
 10
4413.899996626774
 20
1638.422653078993
 11
4412.899996695576
 21
1637.422651052293
  0
LINE
  5
1C5
100
AcDbEntity
  8
0
  6
CONTINUOUS
 62
           3
100
AcDbLine
 10
4418.899996747763
 20
1637.422651052293
 11
4417.89999681656
 21
1638.422653078993
  0
LINE
  5
1C4
100
AcDbEntity
  8
0
  6
CONTINUOUS
 62
           3
100
AcDbLine
 10
4412.899996695576
 20
1367.599993944114
 11
4412.899996695576
 21
1366.600006818713
  0
LINE
  5
1C3
100
AcDbEntity
  8
0
  6
CONTINUOUS
 62
           3
100
AcDbLine
 10
4412.899996695576
 20
1384.1999992729
 11
4412.899996695576
 21
1377.599999308603
  0
LINE
  5
1C2
100
AcDbEntity
  8
0
  6
CONTINUOUS
 62
           3
100
AcDbLine
 10
4412.899996695576
 20
1392.957426607594
 11
4412.899996695576
 21
1390.000000596097
  0
LINE
  5
1C1
100
AcDbEntity
  8
0
  6
CONTINUOUS
 62
           3
100
AcDbLine
 10
4412.899996695576
 20
1633.399993180996
 11
4412.899996695576
 21
1394.792847335491
  0
LINE
  5
1C0
100
AcDbEntity
  8
0
  6
CONTINUOUS
 62
           3
100
AcDbLine
 10
4412.899996695576
 20
1637.422651052293
 11
4412.899996695576
 21
1635.000005364196
  0
LINE
  5
1BF
100
AcDbEntity
  8
0
  6
CONTINUOUS
 62
           3
100
AcDbLine
 10
4418.899996747763
 20
1635.000005364196
 11
4418.899996747763
 21
1637.422651052293
  0
LINE
  5
1BE
100
AcDbEntity
  8
0
  6
CONTINUOUS
 62
           3
100
AcDbLine
 10
4418.899996747763
 20
1394.792847335491
 11
4418.899996747763
 21
1633.399993180996
  0
LINE
  5
1BD
100
AcDbEntity
  8
0
  6
CONTINUOUS
 62
           3
100
AcDbLine
 10
4418.899996747763
 20
1390.000000596097
 11
4418.899996747763
 21
1392.957426607594
  0
LINE
  5
1BC
100
AcDbEntity
  8
0
  6
CONTINUOUS
 62
           3
100
AcDbLine
 10
4418.899996747763
 20
1377.599999308603
 11
4418.899996747763
 21
1384.1999992729
  0
LINE
  5
1BB
100
AcDbEntity
  8
0
  6
CONTINUOUS
 62
           3
100
AcDbLine
 10
4418.899996747763
 20
1366.600006818713
 11
4418.899996747763
 21
1367.599993944114
  0
LINE
  5
1BA
100
AcDbEntity
  8
0
  6
CONTINUOUS
 62
           3
100
AcDbLine
 10
4369.899996632413
 20
1635.000005364196
 11
4369.899996632413
 21
1665.000006556369
  0
LINE
  5
1B9
100
AcDbEntity
  8
0
  6
CONTINUOUS
 62
           3
100
AcDbLine
 10
4369.899996632413
 20
1550.000000744964
 11
4369.899996632413
 21
1633.399993180996
  0
LINE
  5
1B8
100
AcDbEntity
  8
0
  6
CONTINUOUS
 62
           3
100
AcDbLine
 10
4369.899996632413
 20
1391.199998557593
 11
4369.899996632413
 21
1548.799999058065
  0
LINE
  5
1B7
100
AcDbEntity
  8
0
  6
CONTINUOUS
 62
           3
100
AcDbLine
 10
4369.899996632413
 20
1366.600006818713
 11
4369.899996632413
 21
1390.000000596097
  0
LINE
  5
1B6
100
AcDbEntity
  8
0
  6
CONTINUOUS
 62
           3
100
AcDbLine
 10
4361.899995321013
 20
1364.999994635815
 11
4361.899995321013
 21
1314.999997615956
  0
LINE
  5
1B5
100
AcDbEntity
  8
0
  6
CONTINUOUS
 62
           3
100
AcDbLine
 10
4361.899995321013
 20
1390.000000596097
 11
4361.899995321013
 21
1366.600006818713
  0
LINE
  5
1B4
100
AcDbEntity
  8
0
  6
CONTINUOUS
 62
           3
100
AcDbLine
 10
4361.899995321013
 20
1548.799999058065
 11
4361.899995321013
 21
1391.199998557593
  0
LINE
  5
1B3
100
AcDbEntity
  8
0
  6
CONTINUOUS
 62
           3
100
AcDbLine
 10
4361.899995321013
 20
1633.399993180996
 11
4361.899995321013
 21
1550.000000744964
  0
LINE
  5
1B2
100
AcDbEntity
  8
0
  6
CONTINUOUS
 62
           3
100
AcDbLine
 10
4361.899995321013
 20
1665.000006556369
 11
4361.899995321013
 21
1635.000005364196
  0
LINE
  5
1B1
100
AcDbEntity
  8
0
  6
CONTINUOUS
 62
           3
100
AcDbLine
 10
4469.899998122326
 20
1635.000005364196
 11
4469.899998122326
 21
1641.000000000001
  0
LINE
  5
1B0
100
AcDbEntity
  8
0
  6
CONTINUOUS
 62
           3
100
AcDbLine
 10
4469.899998122326
 20
1550.000000744964
 11
4469.899998122326
 21
1633.399993180996
  0
LINE
  5
1AF
100
AcDbEntity
  8
0
  6
CONTINUOUS
 62
           3
100
AcDbLine
 10
4469.899998122326
 20
1391.199998557593
 11
4469.899998122326
 21
1548.799999058065
  0
LINE
  5
1AE
100
AcDbEntity
  8
0
  6
CONTINUOUS
 62
           3
100
AcDbLine
 10
4469.899998122326
 20
1366.600006818713
 11
4469.899998122326
 21
1390.000000596097
  0
LINE
  5
1AD
100
AcDbEntity
  8
0
  6
CONTINUOUS
 62
           3
100
AcDbLine
 10
4469.899998122326
 20
1314.999997615956
 11
4469.899998122326
 21
1364.999994635815
  0
LINE
  5
1AC
100
AcDbEntity
  8
0
  6
CONTINUOUS
 62
           3
100
AcDbLine
 10
4461.899996810932
 20
1364.999994635815
 11
4461.899996810932
 21
1314.999997615956
  0
LINE
  5
1AB
100
AcDbEntity
  8
0
  6
CONTINUOUS
 62
           3
100
AcDbLine
 10
4461.899996810932
 20
1390.000000596097
 11
4461.899996810932
 21
1366.600006818713
  0
LINE
  5
1AA
100
AcDbEntity
  8
0
  6
CONTINUOUS
 62
           3
100
AcDbLine
 10
4461.899996810932
 20
1548.799999058065
 11
4461.899996810932
 21
1391.199998557593
  0
LINE
  5
1A9
100
AcDbEntity
  8
0
  6
CONTINUOUS
 62
           3
100
AcDbLine
 10
4461.899996810932
 20
1633.399993180996
 11
4461.899996810932
 21
1550.000000744964
  0
LINE
  5
1A8
100
AcDbEntity
  8
0
  6
CONTINUOUS
 62
           3
100
AcDbLine
 10
4461.899996810932
 20
1641.0
 11
4461.899996810932
 21
1635.000005364196
  0
LINE
  5
1A7
100
AcDbEntity
  8
0
  6
CONTINUOUS
 62
           3
100
AcDbLine
 10
4410.126493853973
 20
1368.046581745311
 11
4410.899996833473
 21
1367.599993944114
  0
LINE
  5
1A6
100
AcDbEntity
  8
0
  6
CONTINUOUS
 62
           3
100
AcDbLine
 10
4420.899996609865
 20
1367.599993944114
 11
4421.673499589365
 21
1368.046581745311
  0
LINE
  5
1A5
100
AcDbEntity
  8
0
  6
CONTINUOUS
 62
           3
100
AcDbLine
 10
4421.673499589365
 20
1372.153416276109
 11
4420.899996609865
 21
1372.600004077009
  0
LINE
  5
1A4
100
AcDbEntity
  8
0
  6
CONTINUOUS
 62
           3
100
AcDbLine
 10
4410.899996833473
 20
1372.600004077009
 11
4410.126493853973
 21
1372.153416276109
  0
LINE
  5
1A3
100
AcDbEntity
  8
0
  6
CONTINUOUS
 62
           3
100
AcDbLine
 10
4410.126493853973
 20
1373.046576976911
 11
4410.899996833473
 21
1372.600004077009
  0
LINE
  5
1A2
100
AcDbEntity
  8
0
  6
CONTINUOUS
 62
           3
100
AcDbLine
 10
4420.899996609865
 20
1372.600004077009
 11
4421.673499589365
 21
1373.046576976911
  0
LINE
  5
1A1
100
AcDbEntity
  8
0
  6
CONTINUOUS
 62
           3
100
AcDbLine
 10
4421.673499589365
 20
1377.153418958204
 11
4420.899996609865
 21
1377.599999308603
  0
LINE
  5
1A0
100
AcDbEntity
  8
0
  6
CONTINUOUS
 62
           3
100
AcDbLine
 10
4410.899996833473
 20
1377.599999308603
 11
4410.126493853973
 21
1377.153418958204
  0
LINE
  5
19F
100
AcDbEntity
  8
0
  6
CONTINUOUS
 62
           3
100
AcDbLine
 10
4410.126493853973
 20
1360.446587205121
 11
4410.899996833473
 21
1359.999999403921
  0
LINE
  5
19E
100
AcDbEntity
  8
0
  6
CONTINUOUS
 62
           3
100
AcDbLine
 10
4420.899996609865
 20
1359.999999403921
 11
4421.673499589365
 21
1360.446587205121
  0
LINE
  5
19D
100
AcDbEntity
  8
0
  6
CONTINUOUS
 62
           3
100
AcDbLine
 10
4421.673499589365
 20
1364.553421735915
 11
4420.899996609865
 21
1364.999994635815
  0
LINE
  5
19C
100
AcDbEntity
  8
0
  6
CONTINUOUS
 62
           3
100
AcDbLine
 10
4410.899996833473
 20
1364.999994635815
 11
4410.126493853973
 21
1364.553421735915
  0
LINE
  5
19B
100
AcDbEntity
  8
0
  6
CONTINUOUS
 62
           3
100
AcDbLine
 10
4421.673499589365
 20
1359.553411603021
 11
4420.899996609865
 21
1359.999999403921
  0
LINE
  5
19A
100
AcDbEntity
  8
0
  6
CONTINUOUS
 62
           3
100
AcDbLine
 10
4410.899996833473
 20
1359.999999403921
 11
4410.126493853973
 21
1359.553411603021
  0
LINE
  5
199
100
AcDbEntity
  8
0
  6
CONTINUOUS
 62
           3
100
AcDbLine
 10
4420.899996609865
 20
1355.000004172322
 11
4421.673499589365
 21
1355.446577072223
  0
LINE
  5
198
100
AcDbEntity
  8
0
  6
CONTINUOUS
 62
           3
100
AcDbLine
 10
4410.126493853973
 20
1355.446577072223
 11
4410.899996833473
 21
1355.000004172322
  0
LINE
  5
197
100
AcDbEntity
  8
0
  6
CONTINUOUS
 62
           3
100
AcDbLine
 10
4369.899996632413
 20
1314.999997615956
 11
4369.899996632413
 21
1364.999994635815
  0
LINE
  5
196
100
AcDbEntity
  8
1
  6
CONTINUOUS
 62
           3
100
AcDbLine
 10
4897.500000000001
 20
1929.0
 11
4749.899996810932
 21
1929.0
  0
LINE
  5
195
100
AcDbEntity
  8
1
  6
CONTINUOUS
 62
           3
100
AcDbLine
 10
4897.500000000001
 20
1921.000000000001
 11
4749.899998122325
 21
1921.000000000001
  0
LINE
  5
194
100
AcDbEntity
  8
1
  6
CONTINUOUS
 62
           4
100
AcDbLine
 10
134.432661752785
 20
5482.5
 11
117.908702762047
 21
5482.5
  0
LINE
  5
193
100
AcDbEntity
  8
1
  6
CONTINUOUS
 62
           4
100
AcDbLine
 10
134.432661752785
 20
5597.5
 11
117.908702762047
 21
5597.5
  0
LINE
  5
192
100
AcDbEntity
  8
1
  6
CONTINUOUS
 62
           7
100
AcDbLine
 10
185.000000000001
 20
5476.5
 11
144.824966598197
 21
5476.5
  0
LINE
  5
191
100
AcDbEntity
  8
1
  6
CONTINUOUS
 62
           7
100
AcDbLine
 10
144.824966598197
 20
5603.5
 11
185.000000000001
 21
5603.5
  0
LINE
  5
190
100
AcDbEntity
  8
1
  6
CONTINUOUS
 62
           7
100
AcDbLine
 10
132.824966598197
 20
5488.5
 11
132.824966598197
 21
5591.5
  0
LINE
  5
18F
100
AcDbEntity
  8
1
  6
CONTINUOUS
 62
           7
100
AcDbLine
 10
197.000000000001
 20
5591.5
 11
197.000000000001
 21
5488.5
  0
LINE
  5
18E
100
AcDbEntity
  8
1
  6
CONTINUOUS
 62
           4
100
AcDbLine
 10
-689.999999999996
 20
6045.5
 11
40.000000000004
 21
6045.5
  0
LINE
  5
18D
100
AcDbEntity
  8
1
  6
CONTINUOUS
 62
           7
100
AcDbLine
 10
40.000000000004
 20
6050.0
 11
-689.999999999996
 21
6050.0
  0
LINE
  5
18C
100
AcDbEntity
  8
1
  6
CONTINUOUS
 62
           4
100
AcDbLine
 10
40.000000000004
 20
6054.5
 11
-689.999999999996
 21
6054.5
  0
LINE
  5
18B
100
AcDbEntity
  8
1
  6
DOT_CENTER
 62
           2
100
AcDbLine
 10
-324.999999999996
 20
6158.888968922949
 11
-324.999999999996
 21
5918.045008217872
  0
LINE
  5
18A
100
AcDbEntity
  8
1
  6
CONTINUOUS
 62
           7
100
AcDbLine
 10
0.000000000002
 20
6000.0
 11
0.000000000004
 21
6010.0
  0
LINE
  5
189
100
AcDbEntity
  8
1
  6
CONTINUOUS
 62
           7
100
AcDbLine
 10
-649.999999999996
 20
6010.0
 11
-649.999999999996
 21
6000.0
  0
LINE
  5
188
100
AcDbEntity
  8
1
  6
CONTINUOUS
 62
           7
100
AcDbLine
 10
-659.999999999996
 20
5990.0
 11
-649.999999999996
 21
6000.0
  0
LINE
  5
187
100
AcDbEntity
  8
1
  6
CONTINUOUS
 62
           7
100
AcDbLine
 10
31.875234341349
 20
5944.790474617625
 11
0.000000000002
 21
6000.0
  0
LINE
  5
186
100
AcDbEntity
  8
1
  6
CONTINUOUS
 62
           7
100
AcDbLine
 10
-659.999999999996
 20
5990.0
 11
-659.999999999996
 21
5589.999999999998
  0
LINE
  5
185
100
AcDbEntity
  8
1
  6
CONTINUOUS
 62
           7
100
AcDbLine
 10
-689.999999999996
 20
6085.0
 11
-689.999999999996
 21
6050.0
  0
LINE
  5
184
100
AcDbEntity
  8
1
  6
CONTINUOUS
 62
           7
100
AcDbLine
 10
-689.999999999996
 20
6085.0
 11
-684.999999999996
 21
6090.0
  0
LINE
  5
183
100
AcDbEntity
  8
1
  6
CONTINUOUS
 62
           7
100
AcDbLine
 10
35.000000000004
 20
6090.0
 11
-684.999999999996
 21
6090.0
  0
LINE
  5
182
100
AcDbEntity
  8
1
  6
CONTINUOUS
 62
           7
100
AcDbLine
 10
35.000000000004
 20
6090.0
 11
40.000000000004
 21
6085.0
  0
LINE
  5
181
100
AcDbEntity
  8
1
  6
CONTINUOUS
 62
           7
100
AcDbLine
 10
40.000000000004
 20
6050.0
 11
40.000000000004
 21
6085.0
  0
LINE
  5
180
100
AcDbEntity
  8
1
  6
CONTINUOUS
 62
           7
100
AcDbLine
 10
40.000000000004
 20
6015.0
 11
40.000000000004
 21
6050.0
  0
LINE
  5
17F
100
AcDbEntity
  8
1
  6
CONTINUOUS
 62
           7
100
AcDbLine
 10
40.000000000004
 20
6015.0
 11
35.000000000004
 21
6010.0
  0
LINE
  5
17E
100
AcDbEntity
  8
1
  6
CONTINUOUS
 62
           7
100
AcDbLine
 10
-684.999999999996
 20
6010.0
 11
35.000000000004
 21
6010.0
  0
LINE
  5
17D
100
AcDbEntity
  8
1
  6
CONTINUOUS
 62
           7
100
AcDbLine
 10
-684.999999999996
 20
6010.0
 11
-689.999999999996
 21
6015.0
  0
LINE
  5
17C
100
AcDbEntity
  8
1
  6
CONTINUOUS
 62
           7
100
AcDbLine
 10
-689.999999999996
 20
6050.0
 11
-689.999999999996
 21
6015.0
  0
LINE
  5
17B
100
AcDbEntity
  8
1
  6
CONTINUOUS
 62
           7
100
AcDbLine
 10
445.000000000004
 20
5640.0
 11
170.000000200063
 21
5915.0
  0
LINE
  5
17A
100
AcDbEntity
  8
1
  6
CONTINUOUS
 62
           7
100
AcDbLine
 10
-645.983368801931
 20
5535.531349823828
 11
-56.963420073538
 21
4946.511401095433
  0
LINE
  5
179
100
AcDbEntity
  8
1
  6
CONTINUOUS
 62
           7
100
AcDbLine
 10
-179.999999999996
 20
6010.0
 11
-649.999999999998
 21
5540.0
  0
LINE
  5
178
100
AcDbEntity
  8
1
  6
CONTINUOUS
 62
           7
100
AcDbLine
 10
-650.226009489051
 20
5539.773990510948
 11
-645.983368801931
 21
5535.531349823828
  0
LINE
  5
177
100
AcDbEntity
  8
1
  6
CONTINUOUS
 62
           7
100
AcDbLine
 10
-52.720779386418
 20
4942.268760408313
 11
470.538238691626
 21
5465.527778486357
  0
LINE
  5
176
100
AcDbEntity
  8
1
  6
CONTINUOUS
 62
           7
100
AcDbLine
 10
-56.963420073538
 20
4946.511401095433
 11
-52.720779386418
 21
4942.268760408313
  0
LINE
  5
175
100
AcDbEntity
  8
1
  6
CONTINUOUS
 62
           7
100
AcDbLine
 10
-649.999999999998
 20
5540.0
 11
-650.226009489051
 21
5539.773990510948
  0
LINE
  5
174
100
AcDbEntity
  8
1
  6
CONTINUOUS
 62
           7
100
AcDbLine
 10
216.000000000001
 20
5324.000000000002
 11
216.000000000004
 21
5810.0
  0
LINE
  5
173
100
AcDbEntity
  8
1
  6
CONTINUOUS
 62
           7
100
AcDbLine
 10
-215.999999999996
 20
5324.000000000002
 11
270.000000000004
 21
5324.000000000002
  0
LINE
  5
172
100
AcDbEntity
  8
1
  6
CONTINUOUS
 62
           7
100
AcDbLine
 10
-215.999999999998
 20
5756.000000000002
 11
-215.999999999996
 21
5270.0
  0
LINE
  5
171
100
AcDbEntity
  8
1
  6
CONTINUOUS
 62
           7
100
AcDbLine
 10
216.000000000005
 20
5756.000000000002
 11
-269.999999999996
 21
5756.000000000002
  0
LINE
  5
170
100
AcDbEntity
  8
1
  6
CONTINUOUS
 62
           7
100
AcDbLine
 10
-52.720779386418
 20
2150.0
 11
-52.720779386418
 21
2165.0
  0
LINE
  5
16F
100
AcDbEntity
  8
1
  6
CONTINUOUS
 62
           7
100
AcDbLine
 10
197.000000000002
 20
2788.3
 11
197.000000000002
 21
2712.3
  0
LINE
  5
16E
100
AcDbEntity
  8
1
  6
CONTINUOUS
 62
           7
100
AcDbLine
 10
122.496396800001
 20
2712.3
 11
122.496396800001
 21
2788.3
  0
LINE
  5
16D
100
AcDbEntity
  8
1
  6
CONTINUOUS
 62
           7
100
AcDbLine
 10
134.496396800001
 20
2800.3
 11
185.000000000002
 21
2800.3
  0
LINE
  5
16C
100
AcDbEntity
  8
1
  6
CONTINUOUS
 62
           7
100
AcDbLine
 10
185.000000000002
 20
2700.3
 11
134.496396800001
 21
2700.3
  0
LINE
  5
16B
100
AcDbEntity
  8
2
  6
CONTINUOUS
 62
           4
100
AcDbLine
 10
109.242370400001
 20
2659.099999999999
 11
-112.242370399998
 21
2659.099999999999
  0
LINE
  5
16A
100
AcDbEntity
  8
7
  6
CONTINUOUS
 62
           7
100
AcDbLine
 10
125.000000000001
 20
3016.231865248044
 11
125.000000000001
 21
2983.1868192
  0
LINE
  5
169
100
AcDbEntity
  8
7
  6
CONTINUOUS
 62
           7
100
AcDbLine
 10
-124.999999999998
 20
3016.231865248044
 11
-121.399999999999
 21
3049.133628400001
  0
LINE
  5
168
100
AcDbEntity
  8
1
  6
CONTINUOUS
 62
           4
100
AcDbLine
 10
125.000000000001
 20
3016.231865248044
 11
-124.999999999998
 21
3016.231865248044
  0
LINE
  5
167
100
AcDbEntity
  8
2
  6
CONTINUOUS
 62
           7
100
AcDbLine
 10
-112.242370399998
 20
2659.099999999999
 11
-125.496396799999
 21
2690.900000000002
  0
LINE
  5
166
100
AcDbEntity
  8
2
  6
CONTINUOUS
 62
           7
100
AcDbLine
 10
-125.496396799999
 20
2766.150000000002
 11
-125.496396799999
 21
2690.900000000002
  0
LINE
  5
165
100
AcDbEntity
  8
2
  6
CONTINUOUS
 62
           7
100
AcDbLine
 10
-119.744649199999
 20
2983.1868192
 11
-125.496396799999
 21
2969.386819199998
  0
LINE
  5
164
100
AcDbEntity
  8
2
  6
CONTINUOUS
 62
           7
100
AcDbLine
 10
-125.496396799999
 20
2766.150000000002
 11
-125.496396799999
 21
2969.386819199998
  0
LINE
  5
163
100
AcDbEntity
  8
2
  6
CONTINUOUS
 62
           4
100
AcDbLine
 10
-107.059999999999
 20
2659.099999999999
 11
-107.059999999999
 21
2649.0
  0
LINE
  5
162
100
AcDbEntity
  8
2
  6
CONTINUOUS
 62
           4
100
AcDbLine
 10
104.060000000001
 20
2649.0
 11
104.060000000001
 21
2659.099999999999
  0
LINE
  5
161
100
AcDbEntity
  8
2
  6
CONTINUOUS
 62
           7
100
AcDbLine
 10
122.496396800001
 20
2969.386819199999
 11
122.496396800001
 21
2766.150000000002
  0
LINE
  5
160
100
AcDbEntity
  8
2
  6
CONTINUOUS
 62
           7
100
AcDbLine
 10
122.496396800001
 20
2969.386819199999
 11
116.744649200001
 21
2983.1868192
  0
LINE
  5
15F
100
AcDbEntity
  8
2
  6
CONTINUOUS
 62
           7
100
AcDbLine
 10
122.496396800001
 20
2690.900000000002
 11
122.496396800001
 21
2766.150000000002
  0
LINE
  5
15E
100
AcDbEntity
  8
2
  6
CONTINUOUS
 62
           7
100
AcDbLine
 10
122.496396800001
 20
2690.900000000002
 11
109.242370400001
 21
2659.099999999999
  0
LINE
  5
15D
100
AcDbEntity
  8
7
  6
CONTINUOUS
 62
           7
100
AcDbLine
 10
0.000000000001
 20
3079.0
 11
85.520000000001
 21
3079.0
  0
LINE
  5
15C
100
AcDbEntity
  8
7
  6
CONTINUOUS
 62
           7
100
AcDbLine
 10
90.383416400001
 20
3073.483396000001
 11
115.131240800001
 21
3053.634035200002
  0
LINE
  5
15B
100
AcDbEntity
  8
7
  6
CONTINUOUS
 62
           4
100
AcDbLine
 10
-120.190427599998
 20
3053.200000000002
 11
117.560000000001
 21
3053.200000000002
  0
LINE
  5
15A
100
AcDbEntity
  8
7
  6
CONTINUOUS
 62
           7
100
AcDbLine
 10
121.400000000001
 20
3049.360000000002
 11
125.000000000001
 21
3016.231865248044
  0
LINE
  5
159
100
AcDbEntity
  8
7
  6
CONTINUOUS
 62
           7
100
AcDbLine
 10
125.000000000001
 20
2983.1868192
 11
-124.999999999998
 21
2983.1868192
  0
LINE
  5
158
100
AcDbEntity
  8
7
  6
CONTINUOUS
 62
           7
100
AcDbLine
 10
-124.999999999998
 20
2983.1868192
 11
-124.999999999998
 21
3016.231865248044
  0
LINE
  5
157
100
AcDbEntity
  8
7
  6
CONTINUOUS
 62
           7
100
AcDbLine
 10
0.000000000001
 20
3079.0
 11
-88.519999999999
 21
3079.0
  0
LINE
  5
156
100
AcDbEntity
  8
7
  6
CONTINUOUS
 62
           7
100
AcDbLine
 10
-93.383417599998
 20
3073.483396000001
 11
-117.977411599999
 21
3055.3957372
  0
LINE
  5
155
100
AcDbEntity
  8
1
  6
DOT_CENTER
 62
           2
100
AcDbLine
 10
533.829689541417
 20
2385.000000000004
 11
-732.147676803781
 21
2385.0
  0
LINE
  5
154
100
AcDbEntity
  8
1
  6
CONTINUOUS
 62
           2
100
AcDbLine
 10
467.974062000611
 20
2565.000000000004
 11
425.133110726258
 21
2565.000000000004
  0
LINE
  5
153
100
AcDbEntity
  8
1
  6
CONTINUOUS
 62
           2
100
AcDbLine
 10
425.133110726258
 20
2205.000000000002
 11
467.974062000611
 21
2205.000000000004
  0
LINE
  5
152
100
AcDbEntity
  8
1
  6
CONTINUOUS
 62
           2
100
AcDbLine
 10
425.133110726258
 20
2565.000000000004
 11
425.133110726258
 21
2205.000000000002
  0
LINE
  5
151
100
AcDbEntity
  8
1
  6
CONTINUOUS
 62
           7
100
AcDbLine
 10
-649.226009489052
 20
2164.999999999997
 11
-649.226009489052
 21
2150.0
  0
LINE
  5
150
100
AcDbEntity
  8
1
  6
CONTINUOUS
 62
           7
100
AcDbLine
 10
-648.999999999993
 20
2605.0
 11
-648.999999999992
 21
2164.999999999997
  0
LINE
  5
14F
100
AcDbEntity
  8
1
  6
CONTINUOUS
 62
           7
100
AcDbLine
 10
-649.226009489052
 20
2605.0
 11
-649.226009489052
 21
2642.999999999999
  0
LINE
  5
14E
100
AcDbEntity
  8
1
  6
CONTINUOUS
 62
           7
100
AcDbLine
 10
-667.432750797186
 20
2605.0
 11
-689.999999999997
 21
2605.0
  0
LINE
  5
14D
100
AcDbEntity
  8
1
  6
CONTINUOUS
 62
           7
100
AcDbLine
 10
-658.999999999997
 20
2645.0
 11
-689.999999999997
 21
2645.0
  0
LINE
  5
14C
100
AcDbEntity
  8
1
  6
CONTINUOUS
 62
           7
100
AcDbLine
 10
467.974062000611
 20
2605.0
 11
467.974062000611
 21
2165.0
  0
LINE
  5
14B
100
AcDbEntity
  8
1
  6
CONTINUOUS
 62
           4
100
AcDbLine
 10
270.000000000001
 20
2643.0
 11
270.000000000001
 21
2643.999999999997
  0
LINE
  5
14A
100
AcDbEntity
  8
1
  6
CONTINUOUS
 62
           4
100
AcDbLine
 10
265.000000000001
 20
2649.0
 11
-264.993063735608
 21
2649.0
  0
LINE
  5
149
100
AcDbEntity
  8
1
  6
CONTINUOUS
 62
           4
100
AcDbLine
 10
270.000000000001
 20
2643.999999999997
 11
265.000000000001
 21
2649.0
  0
LINE
  5
148
100
AcDbEntity
  8
1
  6
CONTINUOUS
 62
           7
100
AcDbLine
 10
470.538238691626
 20
2165.0
 11
470.538238691626
 21
2150.0
  0
LINE
  5
147
100
AcDbEntity
  8
1
  6
CONTINUOUS
 62
           7
100
AcDbLine
 10
470.538238691626
 20
2643.0
 11
470.538238691626
 21
2605.0
  0
LINE
  5
146
100
AcDbEntity
  8
1
  6
CONTINUOUS
 62
           7
100
AcDbLine
 10
-649.226009489052
 20
2642.999999999999
 11
470.538238691626
 21
2643.0
  0
LINE
  5
145
100
AcDbEntity
  8
1
  6
CONTINUOUS
 62
           2
100
AcDbLine
 10
-576.934895578941
 20
2565.000000000004
 11
-576.934895578941
 21
2205.000000000002
  0
LINE
  5
144
100
AcDbEntity
  8
1
  6
CONTINUOUS
 62
           2
100
AcDbLine
 10
-268.5423591195
 20
2565.000000000004
 11
-576.934895578941
 21
2565.000000000004
  0
LINE
  5
143
100
AcDbEntity
  8
1
  6
CONTINUOUS
 62
           2
100
AcDbLine
 10
-268.5423591195
 20
2205.000000000002
 11
-268.5423591195
 21
2565.000000000004
  0
LINE
  5
142
100
AcDbEntity
  8
1
  6
CONTINUOUS
 62
           2
100
AcDbLine
 10
-576.934895578941
 20
2205.000000000002
 11
-268.5423591195
 21
2205.000000000002
  0
LINE
  5
141
100
AcDbEntity
  8
1
  6
CONTINUOUS
 62
           7
100
AcDbLine
 10
477.974589850552
 20
2165.0
 11
-658.999999999996
 21
2164.999999999997
  0
LINE
  5
140
100
AcDbEntity
  8
1
  6
CONTINUOUS
 62
           7
100
AcDbLine
 10
477.974589850552
 20
2605.0
 11
-658.999999999996
 21
2605.0
  0
LINE
  5
13F
100
AcDbEntity
  8
1
  6
CONTINUOUS
 62
           7
100
AcDbLine
 10
-689.999999999997
 20
2165.0
 11
-667.188191940732
 21
2165.0
  0
LINE
  5
13E
100
AcDbEntity
  8
1
  6
CONTINUOUS
 62
           7
100
AcDbLine
 10
-689.999999999997
 20
2645.0
 11
-689.999999999997
 21
2150.0
  0
LINE
  5
13D
100
AcDbEntity
  8
1
  6
CONTINUOUS
 62
           4
100
AcDbLine
 10
-264.993063735608
 20
2649.0
 11
-268.197502944819
 21
2645.8
  0
LINE
  5
13C
100
AcDbEntity
  8
1
  6
CONTINUOUS
 62
           7
100
AcDbLine
 10
-52.720779386418
 20
2605.0
 11
-52.720779386418
 21
2642.999999999999
  0
LINE
  5
13B
100
AcDbEntity
  8
1
  6
DOT_CENTER
 62
           2
100
AcDbLine
 10
5650.588082276609
 20
2385.0
 11
4415.991794870065
 21
2385.0
  0
LINE
  5
13A
100
AcDbEntity
  8
2
  6
CONTINUOUS
 62
           4
100
AcDbLine
 10
5144.06
 20
2649.0
 11
5144.06
 21
2659.099999999998
  0
LINE
  5
139
100
AcDbEntity
  8
7
  6
CONTINUOUS
 62
           7
100
AcDbLine
 10
4946.616582399997
 20
3073.483396
 11
4922.022588399997
 21
3055.395737200001
  0
LINE
  5
138
100
AcDbEntity
  8
7
  6
CONTINUOUS
 62
           7
100
AcDbLine
 10
5039.999999999999
 20
3079.000000000001
 11
4951.479999999997
 21
3079.000000000001
  0
LINE
  5
137
100
AcDbEntity
  8
7
  6
CONTINUOUS
 62
           7
100
AcDbLine
 10
4914.999999999999
 20
2983.186819200001
 11
4914.999999999999
 21
3016.231865248043
  0
LINE
  5
136
100
AcDbEntity
  8
7
  6
CONTINUOUS
 62
           7
100
AcDbLine
 10
5164.999999999999
 20
2983.186819200001
 11
4914.999999999999
 21
2983.186819200001
  0
LINE
  5
135
100
AcDbEntity
  8
7
  6
CONTINUOUS
 62
           7
100
AcDbLine
 10
5161.399999999997
 20
3049.360000000001
 11
5164.999999999999
 21
3016.231865248043
  0
LINE
  5
134
100
AcDbEntity
  8
7
  6
CONTINUOUS
 62
           4
100
AcDbLine
 10
4919.8095724
 20
3053.200000000001
 11
5157.56
 21
3053.200000000001
  0
LINE
  5
133
100
AcDbEntity
  8
7
  6
CONTINUOUS
 62
           7
100
AcDbLine
 10
5130.383416399999
 20
3073.483396
 11
5155.131240799999
 21
3053.634035200001
  0
LINE
  5
132
100
AcDbEntity
  8
7
  6
CONTINUOUS
 62
           7
100
AcDbLine
 10
5039.999999999999
 20
3079.000000000001
 11
5125.52
 21
3079.000000000001
  0
LINE
  5
131
100
AcDbEntity
  8
2
  6
CONTINUOUS
 62
           7
100
AcDbLine
 10
5162.496396799998
 20
2690.900000000001
 11
5149.242370399998
 21
2659.099999999998
  0
LINE
  5
130
100
AcDbEntity
  8
2
  6
CONTINUOUS
 62
           7
100
AcDbLine
 10
5162.496396799998
 20
2690.900000000001
 11
5162.496396799998
 21
2766.150000000001
  0
LINE
  5
12F
100
AcDbEntity
  8
2
  6
CONTINUOUS
 62
           7
100
AcDbLine
 10
5162.496396799998
 20
2969.386819200001
 11
5156.744649199997
 21
2983.186819200001
  0
LINE
  5
12E
100
AcDbEntity
  8
2
  6
CONTINUOUS
 62
           7
100
AcDbLine
 10
5162.496396799998
 20
2969.386819200001
 11
5162.496396799998
 21
2766.150000000001
  0
LINE
  5
12D
100
AcDbEntity
  8
2
  6
CONTINUOUS
 62
           4
100
AcDbLine
 10
4932.939999999998
 20
2659.099999999998
 11
4932.939999999998
 21
2649.0
  0
LINE
  5
12C
100
AcDbEntity
  8
2
  6
CONTINUOUS
 62
           7
100
AcDbLine
 10
4914.503603199998
 20
2766.150000000001
 11
4914.503603199998
 21
2969.386819200001
  0
LINE
  5
12B
100
AcDbEntity
  8
2
  6
CONTINUOUS
 62
           7
100
AcDbLine
 10
4920.255350799997
 20
2983.186819200001
 11
4914.503603199998
 21
2969.386819200001
  0
LINE
  5
12A
100
AcDbEntity
  8
2
  6
CONTINUOUS
 62
           7
100
AcDbLine
 10
4914.503603199998
 20
2766.150000000001
 11
4914.503603199998
 21
2690.900000000001
  0
LINE
  5
129
100
AcDbEntity
  8
2
  6
CONTINUOUS
 62
           7
100
AcDbLine
 10
4927.757629599998
 20
2659.099999999998
 11
4914.503603199998
 21
2690.900000000001
  0
LINE
  5
128
100
AcDbEntity
  8
1
  6
CONTINUOUS
 62
           4
100
AcDbLine
 10
5164.999999999999
 20
3016.231865248043
 11
4914.999999999999
 21
3016.231865248043
  0
LINE
  5
127
100
AcDbEntity
  8
7
  6
CONTINUOUS
 62
           7
100
AcDbLine
 10
4914.999999999999
 20
3016.231865248043
 11
4918.6
 21
3049.133628400001
  0
LINE
  5
126
100
AcDbEntity
  8
7
  6
CONTINUOUS
 62
           7
100
AcDbLine
 10
5164.999999999999
 20
3016.231865248043
 11
5164.999999999999
 21
2983.186819200001
  0
LINE
  5
125
100
AcDbEntity
  8
2
  6
CONTINUOUS
 62
           4
100
AcDbLine
 10
5149.242370399998
 20
2659.099999999998
 11
4927.757629599998
 21
2659.099999999998
  0
LINE
  5
124
100
AcDbEntity
  8
1
  6
CONTINUOUS
 62
           7
100
AcDbLine
 10
5091.499999999999
 20
2700.299999999997
 11
4988.499999999999
 21
2700.299999999997
  0
LINE
  5
123
100
AcDbEntity
  8
1
  6
CONTINUOUS
 62
           7
100
AcDbLine
 10
4988.499999999999
 20
2800.299999999997
 11
5091.499999999999
 21
2800.299999999997
  0
LINE
  5
122
100
AcDbEntity
  8
1
  6
CONTINUOUS
 62
           7
100
AcDbLine
 10
4976.499999999999
 20
2712.299999999997
 11
4976.499999999999
 21
2788.299999999997
  0
LINE
  5
121
100
AcDbEntity
  8
1
  6
CONTINUOUS
 62
           7
100
AcDbLine
 10
5103.499999999999
 20
2788.299999999997
 11
5103.499999999999
 21
2712.299999999997
  0
LINE
  5
120
100
AcDbEntity
  8
1
  6
CONTINUOUS
 62
           7
100
AcDbLine
 10
4965.527778486357
 20
2127.0
 11
4442.268760408314
 21
2127.0
  0
LINE
  5
11F
100
AcDbEntity
  8
1
  6
CONTINUOUS
 62
           7
100
AcDbLine
 10
4965.527778486357
 20
2165.0
 11
4965.527778486357
 21
2127.0
  0
LINE
  5
11E
100
AcDbEntity
  8
1
  6
CONTINUOUS
 62
           7
100
AcDbLine
 10
5139.999999999999
 20
2165.0
 11
5139.999999999999
 21
2127.0
  0
LINE
  5
11D
100
AcDbEntity
  8
1
  6
CONTINUOUS
 62
           7
100
AcDbLine
 10
5414.999999999999
 20
2165.0
 11
5414.999999999999
 21
2127.0
  0
LINE
  5
11C
100
AcDbEntity
  8
1
  6
CONTINUOUS
 62
           7
100
AcDbLine
 10
5414.999999999999
 20
2642.7
 11
5414.999999999999
 21
2605.0
  0
LINE
  5
11B
100
AcDbEntity
  8
1
  6
CONTINUOUS
 62
           7
100
AcDbLine
 10
5139.999999999999
 20
2643.0
 11
5506.464466094068
 21
2643.0
  0
LINE
  5
11A
100
AcDbEntity
  8
1
  6
CONTINUOUS
 62
           7
100
AcDbLine
 10
4965.527778486357
 20
2643.0
 11
4965.527778486357
 21
2605.0
  0
LINE
  5
119
100
AcDbEntity
  8
1
  6
CONTINUOUS
 62
           7
100
AcDbLine
 10
5139.999999999999
 20
2643.0
 11
5139.999999999999
 21
2605.0
  0
LINE
  5
118
100
AcDbEntity
  8
1
  6
DOT_CENTER
 62
           2
100
AcDbLine
 10
5039.999999999999
 20
2041.28830218332
 11
5039.999999999999
 21
3152.57476930189
  0
LINE
  5
117
100
AcDbEntity
  8
1
  6
CONTINUOUS
 62
           7
100
AcDbLine
 10
4480.010908476356
 20
2165.0
 11
4480.010908476356
 21
2605.0
  0
LINE
  5
116
100
AcDbEntity
  8
1
  6
CONTINUOUS
 62
           4
100
AcDbLine
 10
5379.999999999999
 20
2075.0
 11
5379.999999999999
 21
2081.0
  0
LINE
  5
115
100
AcDbEntity
  8
1
  6
CONTINUOUS
 62
           4
100
AcDbLine
 10
4699.999999999999
 20
2081.0
 11
4699.999999999999
 21
2075.0
  0
LINE
  5
114
100
AcDbEntity
  8
1
  6
CONTINUOUS
 62
           7
100
AcDbLine
 10
4699.999999999999
 20
2075.0
 11
5379.999999999999
 21
2075.0
  0
LINE
  5
113
100
AcDbEntity
  8
1
  6
CONTINUOUS
 62
           4
100
AcDbLine
 10
5379.999999999999
 20
2081.0
 11
4699.999999999999
 21
2081.0
  0
LINE
  5
112
100
AcDbEntity
  8
0
  6
CONTINUOUS
 62
           7
100
AcDbLine
 10
5359.999999999999
 20
2164.999999999996
 11
5294.211716344315
 21
2164.999999999996
  0
LINE
  5
111
100
AcDbEntity
  8
0
  6
CONTINUOUS
 62
           7
100
AcDbLine
 10
4741.799999999998
 20
2127.0
 11
4741.799999999998
 21
2081.0
  0
LINE
  5
110
100
AcDbEntity
  8
0
  6
CONTINUOUS
 62
           7
100
AcDbLine
 10
5338.2
 20
2081.0
 11
5338.2
 21
2127.0
  0
LINE
  5
10F
100
AcDbEntity
  8
1
  6
CONTINUOUS
 62
           4
100
AcDbLine
 10
4769.999999999999
 20
2643.999999999996
 11
4769.999999999999
 21
2643.0
  0
LINE
  5
10E
100
AcDbEntity
  8
1
  6
CONTINUOUS
 62
           4
100
AcDbLine
 10
5304.993063735607
 20
2649.0
 11
4774.999999999999
 21
2649.0
  0
LINE
  5
10D
100
AcDbEntity
  8
1
  6
CONTINUOUS
 62
           4
100
AcDbLine
 10
4774.999999999999
 20
2649.0
 11
4769.999999999999
 21
2643.999999999996
  0
LINE
  5
10C
100
AcDbEntity
  8
1
  6
CONTINUOUS
 62
           4
100
AcDbLine
 10
5310.000000000001
 20
2643.999999999996
 11
5304.993063735607
 21
2649.0
  0
LINE
  5
10B
100
AcDbEntity
  8
1
  6
CONTINUOUS
 62
           4
100
AcDbLine
 10
5310.000000000001
 20
2643.0
 11
5310.000000000001
 21
2643.999999999996
  0
LINE
  5
10A
100
AcDbEntity
  8
1
  6
CONTINUOUS
 62
           7
100
AcDbLine
 10
5509.999999999999
 20
2165.0
 11
4442.268760408316
 21
2165.0
  0
LINE
  5
109
100
AcDbEntity
  8
1
  6
CONTINUOUS
 62
           7
100
AcDbLine
 10
5509.999999999999
 20
2605.0
 11
4442.268760408314
 21
2605.0
  0
LINE
  5
108
100
AcDbEntity
  8
1
  6
CONTINUOUS
 62
           7
100
AcDbLine
 10
4442.268760408314
 20
2127.0
 11
4442.268760408316
 21
2165.0
  0
LINE
  5
107
100
AcDbEntity
  8
1
  6
CONTINUOUS
 62
           7
100
AcDbLine
 10
5509.999999999999
 20
2132.0
 11
5506.464466094068
 21
2127.0
  0
LINE
  5
106
100
AcDbEntity
  8
1
  6
CONTINUOUS
 62
           7
100
AcDbLine
 10
5506.464466094068
 20
2643.0
 11
5509.999999999999
 21
2638.0
  0
LINE
  5
105
100
AcDbEntity
  8
1
  6
CONTINUOUS
 62
           7
100
AcDbLine
 10
4442.268760408314
 20
2605.0
 11
4442.268760408314
 21
2643.0
  0
LINE
  5
104
100
AcDbEntity
  8
1
  6
CONTINUOUS
 62
           7
100
AcDbLine
 10
4442.268760408314
 20
2643.0
 11
4965.527778486357
 21
2643.0
  0
LINE
  5
103
100
AcDbEntity
  8
1
  6
CONTINUOUS
 62
           7
100
AcDbLine
 10
5509.999999999999
 20
2638.0
 11
5509.999999999999
 21
2605.0
  0
LINE
  5
102
100
AcDbEntity
  8
1
  6
CONTINUOUS
 62
           7
100
AcDbLine
 10
5509.999999999999
 20
2165.0
 11
5509.999999999999
 21
2132.0
  0
LINE
  5
101
100
AcDbEntity
  8
1
  6
CONTINUOUS
 62
           7
100
AcDbLine
 10
5506.464466094068
 20
2127.0
 11
5139.999999999999
 21
2127.0
  0
LINE
  5
100
100
AcDbEntity
  8
1
  6
CONTINUOUS
 62
           7
100
AcDbLine
 10
5509.999999999999
 20
2165.0
 11
5544.499999999999
 21
2165.0
  0
LINE
  5
FF
100
AcDbEntity
  8
1
  6
CONTINUOUS
 62
           7
100
AcDbLine
 10
5509.999999999999
 20
2605.0
 11
5509.999999999999
 21
2165.0
  0
LINE
  5
FE
100
AcDbEntity
  8
1
  6
CONTINUOUS
 62
           4
100
AcDbLine
 10
5545.499999999999
 20
2605.000000000001
 11
5545.499999999999
 21
2165.0
  0
LINE
  5
FD
100
AcDbEntity
  8
1
  6
CONTINUOUS
 62
           4
100
AcDbLine
 10
5545.499999999999
 20
2125.0
 11
5545.499999999999
 21
2159.5
  0
LINE
  5
FC
100
AcDbEntity
  8
1
  6
CONTINUOUS
 62
           4
100
AcDbLine
 10
5545.499999999999
 20
2610.500000000001
 11
5545.499999999999
 21
2645.000000000001
  0
LINE
  5
FB
100
AcDbEntity
  8
1
  6
CONTINUOUS
 62
           7
100
AcDbLine
 10
5544.500000000019
 20
2605.000000000001
 11
5509.999999999999
 21
2605.0
  0
LINE
  5
FA
100
AcDbEntity
  8
1
  6
CONTINUOUS
 62
           7
100
AcDbLine
 10
5589.999999999999
 20
2605.0
 11
5555.499999999999
 21
2605.000000000001
  0
LINE
  5
F9
100
AcDbEntity
  8
1
  6
CONTINUOUS
 62
           4
100
AcDbLine
 10
5554.499999999999
 20
2645.000000000001
 11
5554.499999999999
 21
2610.500000000001
  0
LINE
  5
F8
100
AcDbEntity
  8
1
  6
CONTINUOUS
 62
           4
100
AcDbLine
 10
5554.499999999999
 20
2159.5
 11
5554.499999999999
 21
2125.0
  0
LINE
  5
F7
100
AcDbEntity
  8
1
  6
CONTINUOUS
 62
           4
100
AcDbLine
 10
5554.499999999999
 20
2165.0
 11
5554.499999999999
 21
2605.000000000001
  0
LINE
  5
F6
100
AcDbEntity
  8
1
  6
CONTINUOUS
 62
           7
100
AcDbLine
 10
5589.999999999999
 20
2165.0
 11
5589.999999999999
 21
2605.0
  0
LINE
  5
F5
100
AcDbEntity
  8
1
  6
CONTINUOUS
 62
           7
100
AcDbLine
 10
5555.499999999999
 20
2165.0
 11
5589.999999999999
 21
2165.0
  0
LINE
  5
F4
100
AcDbEntity
  8
1
  6
CONTINUOUS
 62
           7
100
AcDbLine
 10
5549.999999999999
 20
2125.0
 11
5549.999999999999
 21
2645.000000000001
  0
LINE
  5
F3
100
AcDbEntity
  8
1
  6
CONTINUOUS
 62
           4
100
AcDbLine
 10
5509.999999999999
 20
2609.5
 11
5544.499999999999
 21
2609.500000000001
  0
LINE
  5
F2
100
AcDbEntity
  8
1
  6
CONTINUOUS
 62
           7
100
AcDbLine
 10
5509.999999999999
 20
2605.0
 11
5509.999999999999
 21
2609.5
  0
LINE
  5
F1
100
AcDbEntity
  8
1
  6
CONTINUOUS
 62
           4
100
AcDbLine
 10
5589.999999999999
 20
2609.500000000003
 11
5555.499999999999
 21
2609.500000000001
  0
LINE
  5
F0
100
AcDbEntity
  8
1
  6
CONTINUOUS
 62
           7
100
AcDbLine
 10
5589.999999999999
 20
2605.0
 11
5589.999999999999
 21
2609.500000000003
  0
LINE
  5
EF
100
AcDbEntity
  8
1
  6
CONTINUOUS
 62
           4
100
AcDbLine
 10
5545.499999999999
 20
2645.000000000001
 11
5554.499999999999
 21
2645.000000000001
  0
LINE
  5
EE
100
AcDbEntity
  8
1
  6
CONTINUOUS
 62
           7
100
AcDbLine
 10
5555.499999999999
 20
2605.000000000001
 11
5544.500000000019
 21
2605.000000000001
  0
LINE
  5
ED
100
AcDbEntity
  8
1
  6
CONTINUOUS
 62
           4
100
AcDbLine
 10
5545.499999999999
 20
2125.0
 11
5554.499999999999
 21
2125.0
  0
LINE
  5
EC
100
AcDbEntity
  8
1
  6
CONTINUOUS
 62
           7
100
AcDbLine
 10
5509.999999999997
 20
2160.5
 11
5509.999999999999
 21
2165.0
  0
LINE
  5
EB
100
AcDbEntity
  8
1
  6
CONTINUOUS
 62
           4
100
AcDbLine
 10
5589.999999999999
 20
2160.5
 11
5555.499999999999
 21
2160.5
  0
LINE
  5
EA
100
AcDbEntity
  8
1
  6
CONTINUOUS
 62
           7
100
AcDbLine
 10
5589.999999999999
 20
2165.0
 11
5589.999999999999
 21
2160.5
  0
LINE
  5
E9
100
AcDbEntity
  8
1
  6
CONTINUOUS
 62
           4
100
AcDbLine
 10
5544.499999999999
 20
2160.5
 11
5509.999999999997
 21
2160.5
  0
LINE
  5
E8
100
AcDbEntity
  8
1
  6
CONTINUOUS
 62
           7
100
AcDbLine
 10
5555.499999999999
 20
2165.0
 11
5544.499999999999
 21
2165.0
  0
LINE
  5
E7
100
AcDbEntity
  8
1
  6
CONTINUOUS
 62
           2
100
AcDbLine
 10
5192.532262743705
 20
2205.0
 11
5192.532262743705
 21
2565.0
  0
LINE
  5
E6
100
AcDbEntity
  8
1
  6
CONTINUOUS
 62
           2
100
AcDbLine
 10
5192.532262743705
 20
2565.0
 11
4785.319562772417
 21
2565.0
  0
LINE
  5
E5
100
AcDbEntity
  8
1
  6
CONTINUOUS
 62
           2
100
AcDbLine
 10
4785.319562772417
 20
2565.0
 11
4785.319562772417
 21
2205.0
  0
LINE
  5
E4
100
AcDbEntity
  8
1
  6
CONTINUOUS
 62
           2
100
AcDbLine
 10
4785.319562772417
 20
2205.0
 11
5192.532262743705
 21
2205.0
  0
LINE
  5
E3
100
AcDbEntity
  8
1
  6
CONTINUOUS
 62
           7
100
AcDbLine
 10
4230.0
 20
1639.999999999999
 11
4230.0
 21
1753.0
  0
LINE
  5
E2
100
AcDbEntity
  8
1
  6
CONTINUOUS
 62
           7
100
AcDbLine
 10
4050.0
 20
1639.999999999999
 11
4230.0
 21
1639.999999999999
  0
LINE
  5
E1
100
AcDbEntity
  8
1
  6
CONTINUOUS
 62
           7
100
AcDbLine
 10
4050.0
 20
1752.999999999999
 11
4050.0
 21
1639.999999999999
  0
LINE
  5
E0
100
AcDbEntity
  8
1
  6
CONTINUOUS
 62
           7
100
AcDbLine
 10
4230.0
 20
1753.0
 11
4050.0
 21
1752.999999999999
  0
LINE
  5
DF
100
AcDbEntity
  8
1
  6
CONTINUOUS
 62
           4
100
AcDbLine
 10
-150.905365064099
 20
4980.0
 11
-1979.999999999999
 21
4980.0
  0
LINE
  5
DE
100
AcDbEntity
  8
1
  6
CONTINUOUS
 62
           7
100
AcDbLine
 10
2325.32493487326
 20
0.0
 11
-2213.22080291971
 21
0.0
  0
LINE
  5
DD
100
AcDbEntity
  8
1
  6
CONTINUOUS
 62
           7
100
AcDbLine
 10
500.000000000001
 20
5000.0
 11
500.000000000001
 21
6000.0
  0
LINE
  5
DC
100
AcDbEntity
  8
1
  6
CONTINUOUS
 62
           7
100
AcDbLine
 10
-2049.999999999999
 20
5000.0
 11
-469.686848609768
 21
5000.0
  0
LINE
  5
DB
100
AcDbEntity
  8
1
  6
CONTINUOUS
 62
           7
100
AcDbLine
 10
4230.0
 20
1589.999999999999
 11
4230.0
 21
1350.0
  0
LINE
  5
DA
100
AcDbEntity
  8
1
  6
CONTINUOUS
 62
           7
100
AcDbLine
 10
4050.0
 20
1350.0
 11
4050.0
 21
1589.999999999999
  0
LINE
  5
D9
100
AcDbEntity
  8
1
  6
CONTINUOUS
 62
           7
100
AcDbLine
 10
4050.0
 20
1589.999999999999
 11
4230.0
 21
1589.999999999999
  0
LINE
  5
D8
100
AcDbEntity
  8
1
  6
CONTINUOUS
 62
           7
100
AcDbLine
 10
4230.0
 20
1350.0
 11
4050.0
 21
1350.0
  0
LINE
  5
D7
100
AcDbEntity
  8
1
  6
CONTINUOUS
 62
           7
100
AcDbLine
 10
3739.999999999999
 20
1950.0
 11
3550.0
 21
1950.0
  0
LINE
  5
D6
100
AcDbEntity
  8
1
  6
CONTINUOUS
 62
           7
100
AcDbLine
 10
3550.0
 20
1950.0
 11
3550.0
 21
1862.0
  0
LINE
  5
D5
100
AcDbEntity
  8
1
  6
CONTINUOUS
 62
           7
100
AcDbLine
 10
3550.0
 20
1862.0
 11
3739.999999999999
 21
1862.0
  0
LINE
  5
D4
100
AcDbEntity
  8
1
  6
CONTINUOUS
 62
           7
100
AcDbLine
 10
3739.999999999999
 20
1862.0
 11
3739.999999999999
 21
1950.0
  0
LINE
  5
D3
100
AcDbEntity
  8
1
  6
CONTINUOUS
 62
           4
100
AcDbLine
 10
-2039.999999999999
 20
6000.0
 11
-2039.999999999999
 21
4050.0
  0
LINE
  5
D2
100
AcDbEntity
  8
1
  6
CONTINUOUS
 62
           4
100
AcDbLine
 10
2040.000000000001
 20
6000.0
 11
2040.000000000001
 21
4050.0
  0
LINE
  5
D1
100
AcDbEntity
  8
1
  6
CONTINUOUS
 62
           4
100
AcDbLine
 10
3500.0
 20
2040.0
 11
5499.999999999999
 21
2040.0
  0
LINE
  5
D0
100
AcDbEntity
  8
1
  6
CONTINUOUS
 62
           7
100
AcDbLine
 10
0.0
 20
475.000000000001
 11
0.0
 21
400.0
  0
LINE
  5
CF
100
AcDbEntity
  8
1
  6
CONTINUOUS
 62
           4
100
AcDbLine
 10
1980.000000000001
 20
4980.0
 11
54.980390271865
 21
4980.0
  0
LINE
  5
CE
100
AcDbEntity
  8
1
  6
CONTINUOUS
 62
           7
100
AcDbLine
 10
6000.0
 20
0.0
 11
3000.0
 21
0.0
  0
LINE
  5
CD
100
AcDbEntity
  8
1
  6
CONTINUOUS
 62
           4
100
AcDbLine
 10
-2002.999999999999
 20
6000.0
 11
-2002.999999999999
 21
4050.0
  0
LINE
  5
CC
100
AcDbEntity
  8
1
  6
CONTINUOUS
 62
           4
100
AcDbLine
 10
1980.000000000001
 20
5020.0
 11
520.0
 21
5020.0
  0
LINE
  5
CB
100
AcDbEntity
  8
1
  6
CONTINUOUS
 62
           4
100
AcDbLine
 10
1980.000000000001
 20
5980.0
 11
520.0
 21
5980.0
  0
LINE
  5
CA
100
AcDbEntity
  8
1
  6
CONTINUOUS
 62
           4
100
AcDbLine
 10
2003.000000000001
 20
6000.0
 11
2003.000000000001
 21
4050.0
  0
LINE
  5
C9
100
AcDbEntity
  8
1
  6
CONTINUOUS
 62
           7
100
AcDbLine
 10
3979.999999999999
 20
1092.5
 11
3882.499999999999
 21
1092.5
  0
LINE
  5
C8
100
AcDbEntity
  8
1
  6
CONTINUOUS
 62
           7
100
AcDbLine
 10
3979.999999999999
 20
1107.5
 11
3882.499999999999
 21
1107.5
  0
LINE
  5
C7
100
AcDbEntity
  8
1
  6
CONTINUOUS
 62
           7
100
AcDbLine
 10
3862.499999999999
 20
1180.0
 11
3862.499999999999
 21
1112.5
  0
LINE
  5
C6
100
AcDbEntity
  8
1
  6
CONTINUOUS
 62
           7
100
AcDbLine
 10
3877.5
 20
1180.0
 11
3877.5
 21
1112.5
  0
LINE
  5
C5
100
AcDbEntity
  8
1
  6
CONTINUOUS
 62
           4
100
AcDbLine
 10
1980.000000000001
 20
4980.0
 11
1980.000000000001
 21
4050.0
  0
LINE
  5
C4
100
AcDbEntity
  8
1
  6
CONTINUOUS
 62
           4
100
AcDbLine
 10
1980.000000000001
 20
5980.0
 11
1980.000000000001
 21
5020.0
  0
LINE
  5
C3
100
AcDbEntity
  8
1
  6
CONTINUOUS
 62
           7
100
AcDbLine
 10
2050.000000000001
 20
4000.0
 11
2050.000000000001
 21
6000.0
  0
LINE
  5
C2
100
AcDbEntity
  8
1
  6
CONTINUOUS
 62
           7
100
AcDbLine
 10
3600.0
 20
1630.0
 11
3600.0
 21
1180.0
  0
LINE
  5
C1
100
AcDbEntity
  8
1
  6
CONTINUOUS
 62
           7
100
AcDbLine
 10
3899.999999999999
 20
1630.0
 11
3600.0
 21
1630.0
  0
LINE
  5
C0
100
AcDbEntity
  8
1
  6
CONTINUOUS
 62
           7
100
AcDbLine
 10
3899.999999999999
 20
1180.0
 11
3899.999999999999
 21
1630.0
  0
LINE
  5
BF
100
AcDbEntity
  8
1
  6
CONTINUOUS
 62
           7
100
AcDbLine
 10
3600.0
 20
1180.0
 11
3899.999999999999
 21
1180.0
  0
LINE
  5
BE
100
AcDbEntity
  8
1
  6
DOT_CENTER
 62
           2
100
AcDbLine
 10
4799.999999999999
 20
675.0
 11
4799.999999999999
 21
525.0
  0
LINE
  5
BD
100
AcDbEntity
  8
1
  6
DOT_CENTER
 62
           2
100
AcDbLine
 10
4724.999999999999
 20
600.0
 11
4874.999999999999
 21
600.0
  0
LINE
  5
BC
100
AcDbEntity
  8
1
  6
DOT_CENTER
 62
           2
100
AcDbLine
 10
0.0
 20
6167.733172941551
 11
0.0
 21
3882.15732944827
  0
LINE
  5
BB
100
AcDbEntity
  8
1
  6
CONTINUOUS
 62
           7
100
AcDbLine
 10
0.0
 20
1763.744569986044
 11
0.0
 21
500.0
  0
LINE
  5
BA
100
AcDbEntity
  8
1
  6
CONTINUOUS
 62
           7
100
AcDbLine
 10
1985.000000000001
 20
540.0
 11
15.0
 21
540.0
  0
LINE
  5
B9
100
AcDbEntity
  8
1
  6
CONTINUOUS
 62
           7
100
AcDbLine
 10
-1999.999999999999
 20
500.0
 11
-1984.999999999999
 21
500.0
  0
LINE
  5
B8
100
AcDbEntity
  8
1
  6
CONTINUOUS
 62
           7
100
AcDbLine
 10
1985.000000000001
 20
500.0
 11
2000.000000000001
 21
500.0
  0
LINE
  5
B7
100
AcDbEntity
  8
1
  6
CONTINUOUS
 62
           7
100
AcDbLine
 10
-1999.999999999999
 20
800.0
 11
2000.000000000001
 21
800.0
  0
LINE
  5
B6
100
AcDbEntity
  8
1
  6
CONTINUOUS
 62
           7
100
AcDbLine
 10
-1999.999999999999
 20
513.85332266763
 11
-1999.999999999999
 21
572.607085651512
  0
LINE
  5
B5
100
AcDbEntity
  8
1
  6
CONTINUOUS
 62
           7
100
AcDbLine
 10
15.0
 20
540.0
 11
15.0
 21
475.000000000001
  0
LINE
  5
B4
100
AcDbEntity
  8
1
  6
CONTINUOUS
 62
           7
100
AcDbLine
 10
1985.000000000001
 20
540.0
 11
1985.000000000001
 21
475.000000000001
  0
LINE
  5
B3
100
AcDbEntity
  8
1
  6
CONTINUOUS
 62
           7
100
AcDbLine
 10
-1999.999999999999
 20
400.0
 11
2000.000000000001
 21
400.0
  0
LINE
  5
B2
100
AcDbEntity
  8
1
  6
CONTINUOUS
 62
           7
100
AcDbLine
 10
2000.000000000001
 20
50.0
 11
-1999.999999999999
 21
50.0
  0
LINE
  5
B1
100
AcDbEntity
  8
1
  6
CONTINUOUS
 62
           2
100
AcDbLine
 10
2000.000000000001
 20
1900.0
 11
-1999.999999999999
 21
1900.0
  0
LINE
  5
B0
100
AcDbEntity
  8
1
  6
CONTINUOUS
 62
           7
100
AcDbLine
 10
2000.000000000001
 20
0.0
 11
2000.000000000001
 21
2000.0
  0
LINE
  5
AF
100
AcDbEntity
  8
1
  6
CONTINUOUS
 62
           7
100
AcDbLine
 10
-1999.999999999999
 20
0.0
 11
-1999.999999999999
 21
2000.0
  0
LINE
  5
AE
100
AcDbEntity
  8
1
  6
CONTINUOUS
 62
           7
100
AcDbLine
 10
4499.999999999999
 20
2075.0
 11
5499.999999999999
 21
2075.0
  0
LINE
  5
AD
100
AcDbEntity
  8
1
  6
CONTINUOUS
 62
           7
100
AcDbLine
 10
4499.999999999999
 20
2000.0
 11
4499.999999999999
 21
2075.0
  0
LINE
  5
AC
100
AcDbEntity
  8
1
  6
CONTINUOUS
 62
           7
100
AcDbLine
 10
3500.0
 20
2050.0
 11
5499.999999999999
 21
2050.0
  0
LINE
  5
AB
100
AcDbEntity
  8
1
  6
CONTINUOUS
 62
           4
100
AcDbLine
 10
3500.0
 20
2003.0
 11
5499.999999999999
 21
2003.0
  0
LINE
  5
AA
100
AcDbEntity
  8
1
  6
CONTINUOUS
 62
           7
100
AcDbLine
 10
3550.0
 20
2130.0
 11
3550.000000000001
 21
2150.0
  0
LINE
  5
A9
100
AcDbEntity
  8
1
  6
CONTINUOUS
 62
           7
100
AcDbLine
 10
3500.0
 20
2150.0
 11
3550.000000000001
 21
2150.0
  0
LINE
  5
A8
100
AcDbEntity
  8
1
  6
CONTINUOUS
 62
           7
100
AcDbLine
 10
5499.999999999999
 20
2000.0
 11
3500.0
 21
2000.0
  0
LINE
  5
A7
100
AcDbEntity
  8
1
  6
CONTINUOUS
 62
           7
100
AcDbLine
 10
5500.0
 20
0.0
 11
5499.999999999999
 21
2075.0
  0
LINE
  5
A6
100
AcDbEntity
  8
1
  6
CONTINUOUS
 62
           7
100
AcDbLine
 10
3500.0
 20
0.0
 11
3500.0
 21
2150.0
  0
LINE
  5
A5
100
AcDbEntity
  8
1
  6
CONTINUOUS
 62
           7
100
AcDbLine
 10
2050.000000000001
 20
2000.0
 11
-2049.999999999999
 21
2000.0
  0
LINE
  5
A4
100
AcDbEntity
  8
1
  6
CONTINUOUS
 62
           7
100
AcDbLine
 10
-2049.999999999999
 20
2150.0
 11
-2049.999999999999
 21
0.0
  0
LINE
  5
A3
100
AcDbEntity
  8
1
  6
CONTINUOUS
 62
           7
100
AcDbLine
 10
2050.000000000001
 20
0.0
 11
2050.000000000001
 21
2150.0
  0
LINE
  5
A2
100
AcDbEntity
  8
1
  6
CONTINUOUS
 62
           7
100
AcDbLine
 10
2050.000000000001
 20
1630.0
 11
2170.000000000001
 21
1630.0
  0
LINE
  5
A1
100
AcDbEntity
  8
1
  6
CONTINUOUS
 62
           7
100
AcDbLine
 10
2050.000000000001
 20
1180.0
 11
2170.000000000001
 21
1180.0
  0
LINE
  5
A0
100
AcDbEntity
  8
1
  6
CONTINUOUS
 62
           7
100
AcDbLine
 10
2050.000000000001
 20
6000.0
 11
0.0
 21
6000.0
  0
LINE
  5
9F
100
AcDbEntity
  8
1
  6
CONTINUOUS
 62
           7
100
AcDbLine
 10
2050.000000000001
 20
4100.0
 11
2170.000000000001
 21
4100.0
  0
LINE
  5
9E
100
AcDbEntity
  8
1
  6
CONTINUOUS
 62
           7
100
AcDbLine
 10
2050.000000000001
 20
4400.0
 11
2170.000000000001
 21
4400.0
  0
LINE
  5
9D
100
AcDbEntity
  8
1
  6
CONTINUOUS
 62
           4
100
AcDbLine
 10
-1979.999999999999
 20
5020.0
 11
-1979.999999999999
 21
5980.0
  0
LINE
  5
9C
100
AcDbEntity
  8
1
  6
CONTINUOUS
 62
           4
100
AcDbLine
 10
-1979.999999999999
 20
5020.0
 11
-520.0
 21
5020.0
  0
LINE
  5
9B
100
AcDbEntity
  8
1
  6
CONTINUOUS
 62
           7
100
AcDbLine
 10
2000.000000000001
 20
4050.0
 11
2000.000000000001
 21
6000.0
  0
LINE
  5
9A
100
AcDbEntity
  8
1
  6
CONTINUOUS
 62
           7
100
AcDbLine
 10
-1999.999999999999
 20
4050.0
 11
-1999.999999999999
 21
6000.0
  0
LINE
  5
99
100
AcDbEntity
  8
1
  6
CONTINUOUS
 62
           4
100
AcDbLine
 10
-1979.999999999999
 20
4980.0
 11
-1979.999999999999
 21
4050.0
  0
LINE
  5
98
100
AcDbEntity
  8
1
  6
CONTINUOUS
 62
           7
100
AcDbLine
 10
-2049.999999999999
 20
4050.0
 11
2050.000000000001
 21
4050.0
  0
LINE
  5
97
100
AcDbEntity
  8
1
  6
CONTINUOUS
 62
           4
100
AcDbLine
 10
-20.0
 20
4050.0
 11
-20.0
 21
4970.694745401115
  0
LINE
  5
96
100
AcDbEntity
  8
1
  6
CONTINUOUS
 62
           7
100
AcDbLine
 10
-2049.999999999999
 20
6000.0
 11
-2049.999999999999
 21
4000.0
  0
LINE
  5
95
100
AcDbEntity
  8
1
  6
CONTINUOUS
 62
           7
100
AcDbLine
 10
-2049.999999999999
 20
4000.0
 11
2050.000000000001
 21
4000.0
  0
LINE
  5
94
100
AcDbEntity
  8
1
  6
CONTINUOUS
 62
           4
100
AcDbLine
 10
3520.0
 20
20.0
 11
3979.999999999999
 21
20.0
  0
LINE
  5
93
100
AcDbEntity
  8
1
  6
CONTINUOUS
 62
           4
100
AcDbLine
 10
3979.999999999999
 20
20.0
 11
3979.999999999999
 21
1980.0
  0
LINE
  5
92
100
AcDbEntity
  8
1
  6
CONTINUOUS
 62
           4
100
AcDbLine
 10
3979.999999999999
 20
1980.0
 11
3520.0
 21
1980.0
  0
LINE
  5
91
100
AcDbEntity
  8
1
  6
CONTINUOUS
 62
           4
100
AcDbLine
 10
3520.0
 20
1980.0
 11
3520.0
 21
20.0
  0
LINE
  5
90
100
AcDbEntity
  8
1
  6
CONTINUOUS
 62
           7
100
AcDbLine
 10
4000.0
 20
0.0
 11
3999.999999999999
 21
2000.0
  0
LINE
  5
8F
100
AcDbEntity
  8
1
  6
CONTINUOUS
 62
           7
100
AcDbLine
 10
3999.999999999999
 20
500.0
 11
5499.999999999999
 21
500.0
  0
LINE
  5
8E
100
AcDbEntity
  8
1
  6
CONTINUOUS
 62
           4
100
AcDbLine
 10
5479.433325304561
 20
479.385061529882
 11
4019.999999999999
 21
479.385061529882
  0
LINE
  5
8D
100
AcDbEntity
  8
1
  6
CONTINUOUS
 62
           4
100
AcDbLine
 10
4019.999999999999
 20
479.385061529882
 11
4019.999999999999
 21
20.0
  0
LINE
  5
8C
100
AcDbEntity
  8
1
  6
CONTINUOUS
 62
           4
100
AcDbLine
 10
4019.999999999999
 20
20.0
 11
5479.433325304561
 21
20.0
  0
LINE
  5
8B
100
AcDbEntity
  8
1
  6
CONTINUOUS
 62
           4
100
AcDbLine
 10
5479.433325304561
 20
20.0
 11
5479.433325304561
 21
479.385061529882
  0
LINE
  5
8A
100
AcDbEntity
  8
1
  6
CONTINUOUS
 62
           4
100
AcDbLine
 10
4479.999999999999
 20
1980.0
 11
4019.999999999999
 21
1980.0
  0
LINE
  5
89
100
AcDbEntity
  8
1
  6
CONTINUOUS
 62
           4
100
AcDbLine
 10
4019.999999999999
 20
1980.0
 11
4019.999999999999
 21
520.0
  0
LINE
  5
88
100
AcDbEntity
  8
1
  6
CONTINUOUS
 62
           4
100
AcDbLine
 10
4019.999999999999
 20
520.0
 11
4479.999999999999
 21
520.0
  0
LINE
  5
87
100
AcDbEntity
  8
1
  6
CONTINUOUS
 62
           4
100
AcDbLine
 10
4519.999999999999
 20
520.0
 11
5479.999999999999
 21
520.0
  0
LINE
  5
86
100
AcDbEntity
  8
1
  6
CONTINUOUS
 62
           4
100
AcDbLine
 10
5479.999999999999
 20
520.0
 11
5479.999999999999
 21
1980.0
  0
LINE
  5
85
100
AcDbEntity
  8
1
  6
CONTINUOUS
 62
           4
100
AcDbLine
 10
5479.999999999999
 20
1980.0
 11
4519.999999999999
 21
1980.0
  0
LINE
  5
84
100
AcDbEntity
  8
1
  6
CONTINUOUS
 62
           7
100
AcDbLine
 10
2170.000000000001
 20
1180.0
 11
2170.000000000001
 21
1630.0
  0
LINE
  5
83
100
AcDbEntity
  8
1
  6
CONTINUOUS
 62
           7
100
AcDbLine
 10
2170.000000000001
 20
4400.0
 11
2170.000000000001
 21
4100.0
  0
LINE
  5
82
100
AcDbEntity
  8
1
  6
CONTINUOUS
 62
           7
100
AcDbLine
 10
-1999.999999999999
 20
475.000000000001
 11
2000.000000000001
 21
475.000000000001
  0
LINE
  5
81
100
AcDbEntity
  8
1
  6
CONTINUOUS
 62
           7
100
AcDbLine
 10
-1984.999999999999
 20
475.000000000001
 11
-1984.999999999999
 21
540.0
  0
LINE
  5
80
100
AcDbEntity
  8
1
  6
CONTINUOUS
 62
           7
100
AcDbLine
 10
-15.0
 20
475.000000000001
 11
-15.0
 21
540.0
  0
LINE
  5
7F
100
AcDbEntity
  8
1
  6
CONTINUOUS
 62
           7
100
AcDbLine
 10
-15.0
 20
540.0
 11
-1984.999999999999
 21
540.0
  0
LINE
  5
7E
100
AcDbEntity
  8
1
  6
CONTINUOUS
 62
           7
100
AcDbLine
 10
-15.0
 20
500.0
 11
15.0
 21
500.0
  0
LINE
  5
7D
100
AcDbEntity
  8
1
  6
CONTINUOUS
 62
           4
100
AcDbLine
 10
520.0
 20
5980.0
 11
520.0
 21
5020.0
  0
LINE
  5
7C
100
AcDbEntity
  8
1
  6
CONTINUOUS
 62
           4
100
AcDbLine
 10
-520.0
 20
5020.0
 11
-520.0
 21
5197.57166259303
  0
LINE
  5
7B
100
AcDbEntity
  8
1
  6
CONTINUOUS
 62
           7
100
AcDbLine
 10
-499.999999999999
 20
5000.0
 11
-499.999999999999
 21
5174.307806183472
  0
LINE
  5
7A
100
AcDbEntity
  8
1
  6
CONTINUOUS
 62
           7
100
AcDbLine
 10
-469.686848609768
 20
5000.0
 11
-230.525588832578
 21
5000.0
  0
LINE
  5
79
100
AcDbEntity
  8
1
  6
CONTINUOUS
 62
           7
100
AcDbLine
 10
-650.000000000002
 20
6000.0
 11
-2049.999999999999
 21
6000.0
  0
LINE
  5
78
100
AcDbEntity
  8
1
  6
CONTINUOUS
 62
           4
100
AcDbLine
 10
-659.999999999997
 20
5980.0
 11
-1979.999999999999
 21
5980.0
  0
LINE
  5
77
100
AcDbEntity
  8
1
  6
CONTINUOUS
 62
           7
100
AcDbLine
 10
2050.000000000001
 20
2150.0
 11
-2049.999999999999
 21
2150.0
  0
LINE
  5
76
100
AcDbEntity
  8
1
  6
DOT_CENTER
 62
           2
100
AcDbLine
 10
-700.926074853366
 20
5540.0
 11
596.047409963129
 21
5540.0
  0
LINE
  5
75
100
AcDbEntity
  8
1
  6
CONTINUOUS
 62
           7
100
AcDbLine
 10
127.928556845365
 20
5000.0
 11
2050.000000000001
 21
5000.0
  0
LINE
  5
74
100
AcDbEntity
  8
1
  6
CONTINUOUS
 62
           7
100
AcDbLine
 10
-0.000000000002
 20
4972.108041752408
 11
0.0
 21
4050.0
  0
LINE
  5
73
100
AcDbEntity
  8
1
  6
CONTINUOUS
 62
           4
100
AcDbLine
 10
20.0
 20
4974.292788603805
 11
20.0
 21
4050.0
  0
LINE
  5
72
100
AcDbEntity
  8
1
  6
DOT_CENTER
 62
           2
100
AcDbLine
 10
0.0
 20
3130.821372441355
 11
0.0
 21
-130.0
  0
LINE
  5
71
100
AcDbEntity
  8
1
  6
CONTINUOUS
 62
           7
100
AcDbLine
 10
4499.999999999999
 20
500.0
 11
4499.999999999999
 21
1767.293273528169
  0
LINE
  5
70
100
AcDbEntity
  8
1
  6
CONTINUOUS
 62
           4
100
AcDbLine
 10
4479.999999999999
 20
520.0
 11
4479.999999999999
 21
1714.44658929451
  0
LINE
  5
6F
100
AcDbEntity
  8
1
  6
CONTINUOUS
 62
           4
100
AcDbLine
 10
4519.999999999999
 20
1980.0
 11
4519.999999999999
 21
1814.464669216337
  0
LINE
  5
6E
100
AcDbEntity
  8
1
  6
DOT_CENTER
 62
           3
100
AcDbLine
 10
-491.52774467812
 20
1340.200848327049
 11
-491.52774467812
 21
1250.20227732705
  0
LINE
  5
6D
100
AcDbEntity
  8
1
  6
DOT_CENTER
 62
           3
100
AcDbLine
 10
-446.52774467812
 20
1295.200848327049
 11
-536.525199678125
 21
1295.200848327049
  0
LINE
  5
6C
100
AcDbEntity
  8
1
  6
CONTINUOUS
 62
           3
100
AcDbLine
 10
-495.063339678115
 20
1323.33071132706
 11
-497.451285678124
 21
1296.073587327061
  0
LINE
  5
6B
100
AcDbEntity
  8
1
  6
CONTINUOUS
 62
           3
100
AcDbLine
 10
-497.451285678124
 20
1294.32810932706
 11
-495.063339678115
 21
1267.070985327058
  0
LINE
  5
6A
100
AcDbEntity
  8
1
  6
CONTINUOUS
 62
           3
100
AcDbLine
 10
-487.992149678105
 20
1323.33071132706
 11
-485.604203678124
 21
1296.073587327061
  0
LINE
  5
69
100
AcDbEntity
  8
1
  6
CONTINUOUS
 62
           3
100
AcDbLine
 10
-485.604203678124
 20
1294.32810932706
 11
-487.992149678105
 21
1267.070985327058
  0
LINE
  5
68
100
AcDbEntity
  8
1
  6
CONTINUOUS
 62
           7
100
AcDbLine
 10
-424.999999999998
 20
1646.282992387802
 11
-1574.999999999998
 21
1646.282992387802
  0
LINE
  5
67
100
AcDbEntity
  8
1
  6
CONTINUOUS
 62
           7
100
AcDbLine
 10
-1574.999999999998
 20
941.513526798366
 11
-1574.999999999998
 21
1646.282992387802
  0
LINE
  5
66
100
AcDbEntity
  8
1
  6
CONTINUOUS
 62
           7
100
AcDbLine
 10
-424.999999999998
 20
941.513526798366
 11
-424.999999999998
 21
1646.282992387802
  0
LINE
  5
65
100
AcDbEntity
  8
1
  6
CONTINUOUS
 62
           7
100
AcDbLine
 10
-1574.999999999998
 20
941.513526798366
 11
-424.999999999998
 21
941.513526798366
  0
LINE
  5
64
100
AcDbEntity
  8
___S__
  6
DOT_CENTER
 62
           3
100
AcDbLine
 10
-1574.999999999974
 20
1621.052837286497
 11
-1574.999999999975
 21
1536.057127055388
  0
LINE
  5
63
100
AcDbEntity
  8
____
  6
CONTINUOUS
 62
           3
100
AcDbLine
 10
-1569.595947044855
 20
1614.449075506231
 11
-1569.595947044855
 21
1612.571144758108
  0
LINE
  5
62
100
AcDbEntity
  8
____
  6
CONTINUOUS
 62
           3
100
AcDbLine
 10
-1579.912775413718
 20
1614.918558193263
 11
-1570.08722458623
 21
1614.918558193263
  0
LINE
  5
61
100
AcDbEntity
  8
____
  6
CONTINUOUS
 62
           3
100
AcDbLine
 10
-1580.404052955093
 20
1612.571144758109
 11
-1580.404052955093
 21
1614.449075506231
  0
LINE
  5
60
100
AcDbEntity
  8
____
  6
CONTINUOUS
 62
           3
100
AcDbLine
 10
-1569.49769153659
 20
1576.890460543777
 11
-1580.502308463367
 21
1576.890460543777
  0
LINE
  5
5F
100
AcDbEntity
  8
____
  6
CONTINUOUS
 62
           3
100
AcDbLine
 10
-1569.497691536589
 20
1612.571144758108
 11
-1569.49769153659
 21
1576.890460543777
  0
LINE
  5
5E
100
AcDbEntity
  8
____
  6
CONTINUOUS
 62
           3
100
AcDbLine
 10
-1580.502308463366
 20
1612.571144758109
 11
-1569.497691536589
 21
1612.571144758108
  0
LINE
  5
5D
100
AcDbEntity
  8
____
  6
CONTINUOUS
 62
           3
100
AcDbLine
 10
-1580.502308463367
 20
1576.890460543777
 11
-1580.502308463366
 21
1612.571144758109
  0
LINE
  5
5C
100
AcDbEntity
  8
____
  6
CONTINUOUS
 62
           3
100
AcDbLine
 10
-1580.404052955094
 20
1538.392880207259
 11
-1580.404052955094
 21
1540.270810955382
  0
LINE
  5
5B
100
AcDbEntity
  8
____
  6
CONTINUOUS
 62
           3
100
AcDbLine
 10
-1570.08722458623
 20
1537.92339752023
 11
-1579.912775413719
 21
1537.92339752023
  0
LINE
  5
5A
100
AcDbEntity
  8
____
  6
CONTINUOUS
 62
           3
100
AcDbLine
 10
-1569.595947044856
 20
1540.270810955382
 11
-1569.595947044856
 21
1538.392880207259
  0
LINE
  5
59
100
AcDbEntity
  8
____
  6
CONTINUOUS
 62
           3
100
AcDbLine
 10
-1580.158414184406
 20
1576.890460543777
 11
-1580.158414184406
 21
1575.951495169715
  0
LINE
  5
58
100
AcDbEntity
  8
____
  6
CONTINUOUS
 62
           3
100
AcDbLine
 10
-1569.841585815543
 20
1576.890460543777
 11
-1580.158414184406
 21
1576.890460543777
  0
LINE
  5
57
100
AcDbEntity
  8
____
  6
CONTINUOUS
 62
           3
100
AcDbLine
 10
-1569.841585815543
 20
1575.951495169715
 11
-1569.841585815543
 21
1576.890460543777
  0
LINE
  5
56
100
AcDbEntity
  8
____
  6
CONTINUOUS
 62
           3
100
AcDbLine
 10
-1580.404052955093
 20
1614.449075506231
 11
-1569.595947044855
 21
1614.449075506231
  0
LINE
  5
55
100
AcDbEntity
  8
____
  6
CONTINUOUS
 62
           3
100
AcDbLine
 10
-1580.502308463367
 20
1575.951495169715
 11
-1569.49769153659
 21
1575.951495169715
  0
LINE
  5
54
100
AcDbEntity
  8
____
  6
CONTINUOUS
 62
           3
100
AcDbLine
 10
-1580.502308463367
 20
1540.270810955382
 11
-1580.502308463367
 21
1575.951495169715
  0
LINE
  5
53
100
AcDbEntity
  8
____
  6
CONTINUOUS
 62
           3
100
AcDbLine
 10
-1569.49769153659
 20
1540.270810955382
 11
-1580.502308463367
 21
1540.270810955382
  0
LINE
  5
52
100
AcDbEntity
  8
____
  6
CONTINUOUS
 62
           3
100
AcDbLine
 10
-1569.49769153659
 20
1575.951495169715
 11
-1569.49769153659
 21
1540.270810955382
  0
LINE
  5
51
100
AcDbEntity
  8
____
  6
CONTINUOUS
 62
           3
100
AcDbLine
 10
-1580.404052955093
 20
1614.449075506231
 11
-1579.912775413718
 21
1614.918558193263
  0
LINE
  5
50
100
AcDbEntity
  8
____
  6
CONTINUOUS
 62
           3
100
AcDbLine
 10
-1570.08722458623
 20
1614.918558193263
 11
-1569.595947044855
 21
1614.449075506231
  0
LINE
  5
4F
100
AcDbEntity
  8
____
  6
CONTINUOUS
 62
           3
100
AcDbLine
 10
-1579.912775413719
 20
1537.92339752023
 11
-1580.404052955094
 21
1538.392880207259
  0
LINE
  5
4E
100
AcDbEntity
  8
____
  6
CONTINUOUS
 62
           3
100
AcDbLine
 10
-1569.595947044856
 20
1538.392880207259
 11
-1570.08722458623
 21
1537.92339752023
  0
LINE
  5
4D
100
AcDbEntity
  8
____
  6
CONTINUOUS
 62
           3
100
AcDbLine
 10
-1580.404052955094
 20
1538.392880207259
 11
-1569.595947044856
 21
1538.392880207259
  0
LINE
  5
4C
100
AcDbEntity
  8
____
  6
CONTINUOUS
 62
           3
100
AcDbLine
 10
-1580.404052955118
 20
984.403309517206
 11
-1569.59594704488
 21
984.403309517206
  0
LINE
  5
4B
100
AcDbEntity
  8
____
  6
CONTINUOUS
 62
           3
100
AcDbLine
 10
-1569.59594704488
 20
984.403309517206
 11
-1570.087224586255
 21
983.933826830174
  0
LINE
  5
4A
100
AcDbEntity
  8
____
  6
CONTINUOUS
 62
           3
100
AcDbLine
 10
-1579.912775413744
 20
983.933826830174
 11
-1580.404052955118
 21
984.403309517206
  0
LINE
  5
49
100
AcDbEntity
  8
____
  6
CONTINUOUS
 62
           3
100
AcDbLine
 10
-1570.087224586253
 20
1060.928987503209
 11
-1569.595947044878
 21
1060.459504816177
  0
LINE
  5
48
100
AcDbEntity
  8
____
  6
CONTINUOUS
 62
           3
100
AcDbLine
 10
-1580.404052955116
 20
1060.459504816177
 11
-1579.912775413742
 21
1060.928987503209
  0
LINE
  5
47
100
AcDbEntity
  8
____
  6
CONTINUOUS
 62
           3
100
AcDbLine
 10
-1569.497691536606
 20
1021.961924479661
 11
-1569.497691536607
 21
986.281240265329
  0
LINE
  5
46
100
AcDbEntity
  8
____
  6
CONTINUOUS
 62
           3
100
AcDbLine
 10
-1569.497691536607
 20
986.281240265329
 11
-1580.502308463383
 21
986.281240265329
  0
LINE
  5
45
100
AcDbEntity
  8
____
  6
CONTINUOUS
 62
           3
100
AcDbLine
 10
-1580.502308463383
 20
986.281240265329
 11
-1580.502308463383
 21
1021.961924479661
  0
LINE
  5
44
100
AcDbEntity
  8
____
  6
CONTINUOUS
 62
           3
100
AcDbLine
 10
-1580.502308463383
 20
1021.961924479661
 11
-1569.497691536606
 21
1021.961924479661
  0
LINE
  5
43
100
AcDbEntity
  8
____
  6
CONTINUOUS
 62
           3
100
AcDbLine
 10
-1580.404052955116
 20
1060.459504816177
 11
-1569.595947044878
 21
1060.459504816177
  0
LINE
  5
42
100
AcDbEntity
  8
____
  6
CONTINUOUS
 62
           3
100
AcDbLine
 10
-1569.841585815567
 20
1021.961924479661
 11
-1569.841585815567
 21
1022.900889853722
  0
LINE
  5
41
100
AcDbEntity
  8
____
  6
CONTINUOUS
 62
           3
100
AcDbLine
 10
-1569.841585815567
 20
1022.900889853722
 11
-1580.15841418443
 21
1022.900889853722
  0
LINE
  5
40
100
AcDbEntity
  8
____
  6
CONTINUOUS
 62
           3
100
AcDbLine
 10
-1580.15841418443
 20
1022.900889853722
 11
-1580.15841418443
 21
1021.961924479661
  0
LINE
  5
3F
100
AcDbEntity
  8
____
  6
CONTINUOUS
 62
           3
100
AcDbLine
 10
-1569.59594704488
 20
986.281240265329
 11
-1569.59594704488
 21
984.403309517206
  0
LINE
  5
3E
100
AcDbEntity
  8
____
  6
CONTINUOUS
 62
           3
100
AcDbLine
 10
-1570.087224586255
 20
983.933826830174
 11
-1579.912775413744
 21
983.933826830174
  0
LINE
  5
3D
100
AcDbEntity
  8
____
  6
CONTINUOUS
 62
           3
100
AcDbLine
 10
-1580.404052955118
 20
984.403309517206
 11
-1580.404052955118
 21
986.281240265329
  0
LINE
  5
3C
100
AcDbEntity
  8
____
  6
CONTINUOUS
 62
           3
100
AcDbLine
 10
-1580.502308463383
 20
1022.900889853722
 11
-1580.502308463382
 21
1058.581574068056
  0
LINE
  5
3B
100
AcDbEntity
  8
____
  6
CONTINUOUS
 62
           3
100
AcDbLine
 10
-1580.502308463382
 20
1058.581574068056
 11
-1569.497691536605
 21
1058.581574068056
  0
LINE
  5
3A
100
AcDbEntity
  8
____
  6
CONTINUOUS
 62
           3
100
AcDbLine
 10
-1569.497691536605
 20
1058.581574068056
 11
-1569.497691536606
 21
1022.900889853722
  0
LINE
  5
39
100
AcDbEntity
  8
____
  6
CONTINUOUS
 62
           3
100
AcDbLine
 10
-1569.497691536606
 20
1022.900889853722
 11
-1580.502308463383
 21
1022.900889853722
  0
LINE
  5
38
100
AcDbEntity
  8
____
  6
CONTINUOUS
 62
           3
100
AcDbLine
 10
-1580.404052955116
 20
1058.581574068056
 11
-1580.404052955116
 21
1060.459504816177
  0
LINE
  5
37
100
AcDbEntity
  8
____
  6
CONTINUOUS
 62
           3
100
AcDbLine
 10
-1579.912775413742
 20
1060.928987503209
 11
-1570.087224586253
 21
1060.928987503209
  0
LINE
  5
36
100
AcDbEntity
  8
____
  6
CONTINUOUS
 62
           3
100
AcDbLine
 10
-1569.595947044878
 20
1060.459504816177
 11
-1569.595947044878
 21
1058.581574068056
  0
LINE
  5
35
100
AcDbEntity
  8
___S__
  6
DOT_CENTER
 62
           3
100
AcDbLine
 10
-1574.999999999998
 20
1067.06326659646
 11
-1574.999999999999
 21
982.067556365335
  0
LINE
  5
34
100
AcDbEntity
  8
1
  6
CONTINUOUS
 62
           7
100
AcDbLine
 10
-1569.497691536607
 20
986.513526798368
 11
-424.999999999998
 21
986.513526798368
  0
LINE
  5
33
100
AcDbEntity
  8
1
  6
CONTINUOUS
 62
           4
100
AcDbLine
 10
4519.999999999999
 20
1800.831132334581
 11
4519.999999999999
 21
520.0
  0
LINE
  5
32
100
AcDbEntity
  8
1
  6
CONTINUOUS
 62
           7
100
AcDbLine
 10
4499.999999999999
 20
1784.157226830837
 11
4499.999999999999
 21
2000.0
  0
LINE
  5
31
100
AcDbEntity
  8
1
  6
CONTINUOUS
 62
           4
100
AcDbLine
 10
4479.999999999999
 20
1741.488764155295
 11
4479.999999999999
 21
1980.0
  0
LINE
  5
30
100
AcDbEntity
  8
1
  6
CONTINUOUS
 62
           7
100
AcDbLine
 10
2000.000000000001
 20
1763.744569986044
 11
-1999.999999999999
 21
1763.744569986044
  0
LINE
  5
2F
100
AcDbEntity
  8
1
  6
CONTINUOUS
 62
           7
100
AcDbLine
 10
-999.999999999999
 20
2000.0
 11
-999.999999999999
 21
1763.744569986044
  0
LINE
  5
2E
100
AcDbEntity
  8
1
  6
CONTINUOUS
 62
           7
100
AcDbLine
 10
1000.0
 20
1763.744569986044
 11
1000.0
 21
2000.0
  0
POINT
  5
2D
100
AcDbEntity
  8
0
 62
           3
100
AcDbPoint
 10
4333.399996721733
 20
1365.000000000116
  0
ENDSEC
  0
SECTION
  2
OBJECTS
  0
DICTIONARY
  5
19
100
AcDbDictionary
  3
ACAD_GROUP
350
1A
  3
ACAD_MLINESTYLE
350
1B
  0
DICTIONARY
  5
1A
102
{ACAD_REACTORS
330
19
102
}
100
AcDbDictionary
  0
DICTIONARY
  5
1B
102
{ACAD_REACTORS
330
19
102
}
100
AcDbDictionary
  3
STANDARD
350
1C
  0
MLINESTYLE
  5
1C
102
{ACAD_REACTORS
330
1B
102
}
100
AcDbMlineStyle
  2
STANDARD
 70
           0
  3

 62
           0
 51
90.0
 52
90.0
 71
           2
 49
0.5
 62
         256
  6
BYLAYER
 49
-0.5
 62
         256
  6
BYLAYER
  0
ENDSEC
  0
EOF
