  0
SECTION
  2
HEADER
  9
$ACADVER
  1
AC1014
  9
$ACADMAINTVER
 70
           0
  9
$DWGCODEPAGE
  3
DOS932
  9
$INSBASE
 10
0.0
 20
0.0
 30
0.0
  9
$EXTMIN
 10
1.000000000000E+20
 20
1.000000000000E+20
 30
1.000000000000E+20
  9
$EXTMAX
 10
-1.000000000000E+20
 20
-1.000000000000E+20
 30
-1.000000000000E+20
  9
$LIMMIN
 10
0.0
 20
0.0
  9
$LIMMAX
 10
0.0
 20
0.0
  9
$ORTHOMODE
 70
           0
  9
$REGENMODE
 70
           1
  9
$FILLMODE
 70
           1
  9
$QTEXTMODE
 70
           0
  9
$MIRRTEXT
 70
           1
  9
$DRAGMODE
 70
           2
  9
$LTSCALE
 40
1.0
  9
$OSMODE
 70
           0
  9
$ATTMODE
 70
           1
  9
$TEXTSIZE
 40
0.2
  9
$TRACEWID
 40
0.05
  9
$TEXTSTYLE
  7
STANDARD
  9
$CLAYER
  8
0
  9
$CELTYPE
  6
CONTINUOUS
  9
$CECOLOR
 62
         256
  9
$CELTSCALE
 40
1.0
  9
$DELOBJ
 70
           1
  9
$DISPSILH
 70
           0
  9
$DIMSCALE
 40
1.0
  9
$DIMASZ
 40
0.18
  9
$DIMEXO
 40
0.0625
  9
$DIMDLI
 40
0.38
  9
$DIMRND
 40
0.0
  9
$DIMDLE
 40
0.0
  9
$DIMEXE
 40
0.18
  9
$DIMTP
 40
0.0
  9
$DIMTM
 40
0.0
  9
$DIMTXT
 40
0.18
  9
$DIMCEN
 40
0.09
  9
$DIMTSZ
 40
0.0
  9
$DIMTOL
 70
           0
  9
$DIMLIM
 70
           0
  9
$DIMTIH
 70
           1
  9
$DIMTOH
 70
           1
  9
$DIMSE1
 70
           0
  9
$DIMSE2
 70
           0
  9
$DIMTAD
 70
           0
  9
$DIMZIN
 70
           0
  9
$DIMBLK
  1

  9
$DIMASO
 70
           1
  9
$DIMSHO
 70
           1
  9
$DIMPOST
  1

  9
$DIMAPOST
  1

  9
$DIMALT
 70
           0
  9
$DIMALTD
 70
           2
  9
$DIMALTF
 40
25.4
  9
$DIMLFAC
 40
1.0
  9
$DIMTOFL
 70
           0
  9
$DIMTVP
 40
0.0
  9
$DIMTIX
 70
           0
  9
$DIMSOXD
 70
           0
  9
$DIMSAH
 70
           0
  9
$DIMBLK1
  1

  9
$DIMBLK2
  1

  9
$DIMSTYLE
  2
STANDARD
  9
$DIMCLRD
 70
           0
  9
$DIMCLRE
 70
           0
  9
$DIMCLRT
 70
           0
  9
$DIMTFAC
 40
1.0
  9
$DIMGAP
 40
0.09
  9
$DIMJUST
 70
           0
  9
$DIMSD1
 70
           0
  9
$DIMSD2
 70
           0
  9
$DIMTOLJ
 70
           1
  9
$DIMTZIN
 70
           0
  9
$DIMALTZ
 70
           0
  9
$DIMALTTZ
 70
           0
  9
$DIMFIT
 70
           3
  9
$DIMUPT
 70
           0
  9
$DIMUNIT
 70
           2
  9
$DIMDEC
 70
           4
  9
$DIMTDEC
 70
           4
  9
$DIMALTU
 70
           2
  9
$DIMALTTD
 70
           2
  9
$DIMTXSTY
  7
STANDARD
  9
$DIMAUNIT
 70
           0
  9
$LUNITS
 70
           2
  9
$LUPREC
 70
           4
  9
$SKETCHINC
 40
0.1
  9
$FILLETRAD
 40
0.0
  9
$AUNITS
 70
           0
  9
$AUPREC
 70
           0
  9
$MENU
  1
acad
  9
$ELEVATION
 40
0.0
  9
$PELEVATION
 40
0.0
  9
$THICKNESS
 40
0.0
  9
$LIMCHECK
 70
           0
  9
$BLIPMODE
 70
           1
  9
$CHAMFERA
 40
0.0
  9
$CHAMFERB
 40
0.0
  9
$CHAMFERC
 40
0.0
  9
$CHAMFERD
 40
0.0
  9
$SKPOLY
 70
           0
  9
$TDCREATE
 40
0.000000000
  9
$TDUPDATE
 40
0.000000000
  9
$TDINDWG
 40
0.0000000000
  9
$TDUSRTIMER
 40
0.0000000000
  9
$USRTIMER
 70
           1
  9
$ANGBASE
 50
0.0
  9
$ANGDIR
 70
           0
  9
$PDMODE
 70
           0
  9
$PDSIZE
 40
0.0
  9
$PLINEWID
 40
0.0
  9
$COORDS
 70
           0
  9
$SPLFRAME
 70
           0
  9
$SPLINETYPE
 70
           6
  9
$SPLINESEGS
 70
           8
  9
$ATTDIA
 70
           0
  9
$ATTREQ
 70
           1
  9
$HANDLING
 70
           1
  9
$HANDSEED
  5
3BD
  9
$SURFTAB1
 70
           6
  9
$SURFTAB2
 70
           6
  9
$SURFTYPE
 70
           6
  9
$SURFU
 70
           6
  9
$SURFV
 70
           6
  9
$UCSNAME
  2

  9
$UCSORG
 10
0.0
 20
0.0
 30
0.0
  9
$UCSXDIR
 10
1.0
 20
0.0
 30
0.0
  9
$UCSYDIR
 10
0.0
 20
1.0
 30
0.0
  9
$PUCSNAME
  2

  9
$PUCSORG
 10
0.0
 20
0.0
 30
0.0
  9
$PUCSXDIR
 10
1.0
 20
0.0
 30
0.0
  9
$PUCSYDIR
 10
0.0
 20
1.0
 30
0.0
  9
$USERI1
 70
           0
  9
$USERI2
 70
           0
  9
$USERI3
 70
           0
  9
$USERI4
 70
           0
  9
$USERI5
 70
           0
  9
$USERR1
 40
0.0
  9
$USERR2
 40
0.0
  9
$USERR3
 40
0.0
  9
$USERR4
 40
0.0
  9
$USERR5
 40
0.0
  9
$WORLDVIEW
 70
           1
  9
$SHADEDGE
 70
           3
  9
$SHADEDIF
 70
          70
  9
$TILEMODE
 70
           1
  9
$MAXACTVP
 70
          16
  9
$PINSBASE
 10
0.0
 20
0.0
 30
0.0
  9
$PLIMCHECK
 70
           0
  9
$PEXTMIN
 10
1.000000000000E+20
 20
1.000000000000E+20
 30
1.000000000000E+20
  9
$PEXTMAX
 10
-1.000000000000E+20
 20
-1.000000000000E+20
 30
-1.000000000000E+20
  9
$PLIMMIN
 10
0.0
 20
0.0
  9
$PLIMMAX
 10
12.0
 20
9.0
  9
$UNITMODE
 70
           0
  9
$VISRETAIN
 70
           0
  9
$PLINEGEN
 70
           1
  9
$PSLTSCALE
 70
           0
  9
$TREEDEPTH
 70
        3020
  9
$PICKSTYLE
 70
           1
  9
$CMLSTYLE
  2
STANDARD
  9
$CMLJUST
 70
           0
  9
$CMLSCALE
 40
1.0
  9
$PROXYGRAPHICS
 70
           0
  9
$MEASUREMENT
 70
           0
  0
ENDSEC
  0
SECTION
  2
CLASSES
  0
CLASS
  1
LWPOLYLINE
  2
AcDbPolyline
  3
"AutoCAD"
 90
        0
280
           0
281
           1
  0
CLASS
  1
IMAGE
  2
AcDbRasterImage
  3
ISM
 90
      127
280
           0
281
           1
  0
CLASS
  1
OLE2FRAME
  2
AcDbOle2Frame
  3
""
 90
        0
280
           0
281
           1
  0
CLASS
  1
HATCH
  2
AcDbHatch
  3
"ACAD_SEDONA"
 90
        0
280
           0
281
           1
  0
CLASS
  1
DICTIONARYVAR
  2
AcDbDictionaryVar
  3
"AutoCAD"
 90
        0
280
           0
281
           0
  0
CLASS
  1
RASTERVARIABLES
  2
AcDbRasterVariables
  3
ISM
 90
        0
280
           0
281
           0
  0
CLASS
  1
IMAGEDEF
  2
AcDbRasterImageDef
  3
ISM
 90
        0
280
           0
281
           0
  0
CLASS
  1
IMAGEDEF_REACTOR
  2
AcDbRasterImageDefReactor
  3
ISM
 90
        1
280
           0
281
           0
  0
CLASS
  1
IDBUFFER
  2
AcDbIdBuffer
  3
"Acad"
 90
        0
280
           0
281
           0
  0
CLASS
  1
SPATIAL_FILTER
  2
AcDbSpatialFilter
  3
"Acad"
 90
        0
280
           0
281
           0
  0
CLASS
  1
XRECORD
  2
AcDbXrecord
  3
"<Built In>"
 90
        0
280
           0
281
           0
  0
CLASS
  1
SORTENTSTABLE
  2
AcDbSortentsTable
  3
"AutoCAD"
 90
        0
280
           0
281
           0
  0
CLASS
  1
LAYER_INDEX
  2
AcDbLayerIndex
  3
"Acad"
 90
        0
280
           0
281
           0
  0
CLASS
  1
SPATIAL_INDEX
  2
AcDbSpatialIndex
  3
"Acad"
 90
        0
280
           0
281
           0
  0
CLASS
  1
OBJECT_PTR
  2
CAseDLPNTableRecord
  3
"ASE-LPNTableRecord"
 90
        1
280
           0
281
           0
  0
CLASS
  1
LAYOUT
  2
AcDbLayout
  3
"AutoCAD 2000"
 90
        1
280
           0
281
           0
  0
CLASS
  1
PLOTSETTINGS
  2
AcDbPlotSettings
  3
"AutoCAD 2000"
 90
        1
280
           0
281
           0
  0
CLASS
  1
ACDBDICTIONARYWDFLT
  2
AcDbDictionaryWithDefault
  3
"AutoCAD 2000"
 90
        1
280
           0
281
           0
  0
CLASS
  1
ACDBPLACEHOLDER
  2
AcDbPlaceHolder
  3
"AutoCAD 2000"
 90
        1
280
           0
281
           0
  0
CLASS
  1
VBA_PROJECT
  2
AcDbVbaProject
  3
"acadvba"
 90
        1
280
           0
281
           0
  0
CLASS
  1
WIPEOUT
  2
AcDbWipeout
  3
WipeOut|AutoCAD Express Tool|expresstools@autodesk.com
 90
      127
280
           0
281
           1
  0
CLASS
  1
WIPEOUTVARIABLES
  2
AcDbWipeoutVariables
  3
WipeOut|AutoCAD Express Tool|expresstools@autodesk.com
 90
        0
280
           0
281
           0
  0
CLASS
  1
RTEXT
  2
RText
  3
RText|AutoCAD Express Tool|expresstools@autodesk.com
 90
        0
280
           0
281
           1
  0
CLASS
  1
ARCALIGNEDTEXT
  2
AcDbArcAlignedText
  3
ATEXT|AutoCAD Express Tool|expresstools@autodesk.com
 90
        0
280
           0
281
           1
  0
ENDSEC
  0
SECTION
  2
TABLES
  0
TABLE
  2
VPORT
  5
7
100
AcDbSymbolTable
 70
           1
  0
VPORT
  5
15
100
AcDbSymbolTableRecord
100
AcDbViewportTableRecord
  2
*ACTIVE
 70
           0
 10
0.0
 20
0.0
 11
1.0
 21
1.0
 12
6.591288
 22
4.579184
 13
0.0
 23
0.0
 14
1.0
 24
1.0
 15
0.0
 25
0.0
 16
0.0
 26
0.0
 36
1.0
 17
0.0
 27
0.0
 37
0.0
 40
9.158369
 41
0.688564
 42
50.0
 43
0.0
 44
0.0
 50
0.0
 51
0.0
 71
           0
 72
         100
 73
           1
 74
           1
 75
           0
 76
           0
 77
           0
 78
           0
  0
ENDTAB
  0
TABLE
  2
LTYPE
  5
4
100
AcDbSymbolTable
 70
          10
  0
LTYPE
  5
11
100
AcDbSymbolTableRecord
100
AcDbLinetypeTableRecord
  2
BYBLOCK
 70
          64
  3

 72
          65
 73
           0
 40
0.0
  0
LTYPE
  5
12
100
AcDbSymbolTableRecord
100
AcDbLinetypeTableRecord
  2
BYLAYER
 70
          64
  3

 72
          65
 73
           0
 40
0.0
  0
LTYPE
  5
13
100
AcDbSymbolTableRecord
100
AcDbLinetypeTableRecord
  2
CONTINUOUS
 70
          64
  3
Solid line
 72
          65
 73
           0
 40
0.0
  0
LTYPE
  5
1D
100
AcDbSymbolTableRecord
100
AcDbLinetypeTableRecord
  2
DASHED
 70
          64
  3
Dashed
 72
          65
 73
           2
 40
15.0
 49
12.0
 74
           0
 49
-3.0
 74
           0
  0
LTYPE
  5
1E
100
AcDbSymbolTableRecord
100
AcDbLinetypeTableRecord
  2
DOTTED
 70
          64
  3
Dotted
 72
          65
 73
           2
 40
3.5
 49
0.5
 74
           0
 49
-3.0
 74
           0
  0
LTYPE
  5
1F
100
AcDbSymbolTableRecord
100
AcDbLinetypeTableRecord
  2
DOT_CENTER
 70
          64
  3
Dot_Center
 72
          65
 73
           4
 40
2.0
 49
1.25
 74
           0
 49
-0.25
 74
           0
 49
0.25
 74
           0
 49
-0.25
 74
           0
  0
LTYPE
  5
20
100
AcDbSymbolTableRecord
100
AcDbLinetypeTableRecord
  2
LONG_DASHED
 70
          64
  3
Long_Dashed
 72
          65
 73
           2
 40
2.0
 49
1.5
 74
           0
 49
-0.5
 74
           0
  0
LTYPE
  5
21
100
AcDbSymbolTableRecord
100
AcDbLinetypeTableRecord
  2
DASH_CENTER
 70
          64
  3
Dash_Center
 72
          65
 73
           4
 40
36.0
 49
24.0
 74
           0
 49
-3.0
 74
           0
 49
6.0
 74
           0
 49
-3.0
 74
           0
  0
LTYPE
  5
22
100
AcDbSymbolTableRecord
100
AcDbLinetypeTableRecord
  2
PHANTOM
 70
          64
  3
Phantom
 72
          65
 73
           6
 40
2.5
 49
1.25
 74
           0
 49
-0.25
 74
           0
 49
0.25
 74
           0
 49
-0.25
 74
           0
 49
0.25
 74
           0
 49
-0.25
 74
           0
  0
LTYPE
  5
23
100
AcDbSymbolTableRecord
100
AcDbLinetypeTableRecord
  2
CENTER_DASH_DASH
 70
          64
  3
Center_Dash_Dash
 72
          65
 73
           6
 40
22.0
 49
12.0
 74
           0
 49
-3.0
 74
           0
 49
0.5
 74
           0
 49
-3.0
 74
           0
 49
0.5
 74
           0
 49
-3.0
 74
           0
  0
ENDTAB
  0
TABLE
  2
LAYER
  5
2
100
AcDbSymbolTable
 70
           9
  0
LAYER
  5
14
100
AcDbSymbolTableRecord
100
AcDbLayerTableRecord
  2
0
 70
           0
 62
           7
  6
CONTINUOUS
  0
LAYER
  5
24
100
AcDbSymbolTableRecord
100
AcDbLayerTableRecord
  2
___S__
 70
           0
 62
           7
  6
CONTINUOUS
  0
LAYER
  5
25
100
AcDbSymbolTableRecord
100
AcDbLayerTableRecord
  2
976
 70
           0
 62
           7
  6
CONTINUOUS
  0
LAYER
  5
26
100
AcDbSymbolTableRecord
100
AcDbLayerTableRecord
  2
FORMAT
 70
           0
 62
           7
  6
CONTINUOUS
  0
LAYER
  5
27
100
AcDbSymbolTableRecord
100
AcDbLayerTableRecord
  2
1
 70
           0
 62
           7
  6
CONTINUOUS
  0
LAYER
  5
28
100
AcDbSymbolTableRecord
100
AcDbLayerTableRecord
  2
2
 70
           0
 62
           7
  6
CONTINUOUS
  0
LAYER
  5
29
100
AcDbSymbolTableRecord
100
AcDbLayerTableRecord
  2
6
 70
           0
 62
           7
  6
CONTINUOUS
  0
LAYER
  5
2A
100
AcDbSymbolTableRecord
100
AcDbLayerTableRecord
  2
7
 70
           0
 62
           7
  6
CONTINUOUS
  0
LAYER
  5
2B
100
AcDbSymbolTableRecord
100
AcDbLayerTableRecord
  2
____
 70
           0
 62
           7
  6
CONTINUOUS
  0
ENDTAB
  0
TABLE
  2
STYLE
  5
3
100
AcDbSymbolTable
 70
           1
  0
STYLE
  5
17
100
AcDbSymbolTableRecord
100
AcDbTextStyleTableRecord
  2
STANDARD
 70
           0
 40
0.0
 41
1.0
 50
0.0
 71
           0
 42
0.0
  3
txt
  4

  0
ENDTAB
  0
TABLE
  2
VIEW
  5
5
100
AcDbSymbolTable
 70
           0
  0
ENDTAB
  0
TABLE
  2
UCS
  5
6
100
AcDbSymbolTable
 70
           0
  0
ENDTAB
  0
TABLE
  2
APPID
  5
8
100
AcDbSymbolTable
 70
           1
  0
APPID
  5
16
100
AcDbSymbolTableRecord
100
AcDbRegAppTableRecord
  2
ACAD
 70
           0
  0
ENDTAB
  0
TABLE
  2
DIMSTYLE
  5
9
100
AcDbSymbolTable
 70
           1
  0
DIMSTYLE
105
18
100
AcDbSymbolTableRecord
100
AcDbDimStyleTableRecord
  2
STANDARD
 70
           0
  3

  4

  5

  6

  7

 40
1.0
 41
0.18
 42
0.0625
 43
0.38
 44
0.18
 45
0.0
 46
0.0
 47
0.0
 48
0.0
 71
           0
 72
           0
 73
           1
 74
           1
 75
           0
 76
           0
 77
           0
 78
           0
140
0.18
141
0.09
142
0.0
143
25.4
144
1.0
145
0.0
146
1.0
147
0.09
170
           0
171
           2
172
           0
173
           0
174
           0
175
           0
176
           0
177
           0
178
           0
270
           2
271
           4
272
           4
273
           2
274
           2
275
           0
280
           0
281
           0
282
           0
283
           1
284
           0
285
           0
286
           0
287
           0
288
           0
340
17
  0
ENDTAB
  0
TABLE
  2
BLOCK_RECORD
  5
1
100
AcDbSymbolTable
 70
           0
  0
BLOCK_RECORD
  5
A
100
AcDbSymbolTableRecord
100
AcDbBlockTableRecord
  2
*MODEL_SPACE
  0
BLOCK_RECORD
  5
B
100
AcDbSymbolTableRecord
100
AcDbBlockTableRecord
  2
*PAPER_SPACE
  0
ENDTAB
  0
ENDSEC
  0
SECTION
  2
BLOCKS
  0
BLOCK
  5
D
100
AcDbEntity
  8
0
100
AcDbBlockBegin
  2
*MODEL_SPACE
 70
           0
 10
0.0
 20
0.0
 30
0.0
  3
*MODEL_SPACE
  1

  0
ENDBLK
  5
E
100
AcDbEntity
  8
0
100
AcDbBlockEnd
  0
BLOCK
  5
F
100
AcDbEntity
 67
           1
  8
0
100
AcDbBlockBegin
  2
*PAPER_SPACE
 70
           0
 10
0.0
 20
0.0
 30
0.0
  3
*PAPER_SPACE
  1

  0
ENDBLK
  5
10
100
AcDbEntity
 67
           1
  8
0
100
AcDbBlockEnd
  0
ENDSEC
  0
SECTION
  2
ENTITIES
  0
HATCH
  5
3BB
100
AcDbEntity
  8
0
  6
CONTINUOUS
 62
           2
100
AcDbHatch
 10
0.0
 20
0.0
 30
0.0
210
0.0
220
0.0
230
1.0
  2
USER
 70
           0
 71
           1
 91
        1
 92
        1
 93
        8
 72
           1
 10
4842.4999999999991
 20
1107.5
 11
4842.4999999999991
 21
1092.5
 72
           1
 10
4842.4999999999991
 20
1092.5
 11
4745.0
 21
1092.5
 72
           2
 10
4745.0
 20
1112.5
 40
20.000000000000909
 50
180.0
 51
-90.0
 73
           1
 72
           1
 10
4724.9999999999991
 20
1180.0
 11
4724.9999999999991
 21
1112.5
 72
           1
 10
4724.9999999999991
 20
1180.0
 11
4739.9999999999991
 21
1180.0
 72
           1
 10
4739.9999999999991
 20
1180.0
 11
4739.9999999999991
 21
1112.5
 72
           2
 10
4745.0
 20
1112.5
 40
5.0000000000009095
 50
180.0
 51
-90.0
 73
           1
 72
           1
 10
4842.4999999999991
 20
1107.5
 11
4745.0
 21
1107.5
 97
        7
330
3A1
330
3A3
330
D8
330
3A2
330
D7
330
3A4
330
D9
 75
           1
 76
           0
 52
45.0
 41
10.0
 77
           0
 78
           1
 53
45.0
 43
0.0
 44
0.0
 45
-7.0710678118654746
 46
7.0710678118654755
 79
           0
 98
        1
 10
0.0
 20
0.0
  0
ARC
  5
3BA
100
AcDbEntity
  8
1
  6
CONTINUOUS
 62
           4
100
AcDbCircle
 10
6417.999999999999
 20
2730.5
 40
1.0
100
AcDbArc
 50
180.0
 51
-90.0
  0
ARC
  5
3B9
100
AcDbEntity
  8
1
  6
CONTINUOUS
 62
           4
100
AcDbCircle
 10
6406.999999999999
 20
2730.5
 40
1.0
100
AcDbArc
 50
-90.0
 51
0.0
  0
ARC
  5
3B8
100
AcDbEntity
  8
1
  6
CONTINUOUS
 62
           4
100
AcDbCircle
 10
6406.999999999999
 20
2169.5
 40
1.0
100
AcDbArc
 50
0.0
 51
90.0
  0
ARC
  5
3B7
100
AcDbEntity
  8
1
  6
CONTINUOUS
 62
           4
100
AcDbCircle
 10
6417.999999999999
 20
2169.5
 40
1.0
100
AcDbArc
 50
90.0
 51
180.0
  0
ARC
  5
3B6
100
AcDbEntity
  8
1
  6
CONTINUOUS
 62
           7
100
AcDbCircle
 10
5877.499999999999
 20
2834.199999999997
 40
10.0
100
AcDbArc
 50
-90.0
 51
0.0
  0
ARC
  5
3B5
100
AcDbEntity
  8
1
  6
CONTINUOUS
 62
           7
100
AcDbCircle
 10
5767.499999999999
 20
2834.199999999997
 40
10.0
100
AcDbArc
 50
180.0
 51
-90.0
  0
ARC
  5
3B4
100
AcDbEntity
  8
1
  6
CONTINUOUS
 62
           7
100
AcDbCircle
 10
5877.499999999999
 20
2934.199999999997
 40
10.0
100
AcDbArc
 50
0.0
 51
90.0
  0
ARC
  5
3B3
100
AcDbEntity
  8
1
  6
CONTINUOUS
 62
           7
100
AcDbCircle
 10
5767.499999999999
 20
2934.199999999997
 40
10.0
100
AcDbArc
 50
90.0
 51
180.0
  0
ARC
  5
3B2
100
AcDbEntity
  8
1
  6
CONTINUOUS
 62
           7
100
AcDbCircle
 10
161.076192999999
 20
2935.0
 40
10.0
100
AcDbArc
 50
90.0
 51
180.0
  0
ARC
  5
3B1
100
AcDbEntity
  8
1
  6
CONTINUOUS
 62
           7
100
AcDbCircle
 10
161.076192999999
 20
2835.0
 40
10.0
100
AcDbArc
 50
180.0
 51
-90.0
  0
ARC
  5
3B0
100
AcDbEntity
  8
1
  6
CONTINUOUS
 62
           7
100
AcDbCircle
 10
246.0
 20
2935.0
 40
10.0
100
AcDbArc
 50
0.0
 51
90.0
  0
ARC
  5
3AF
100
AcDbEntity
  8
1
  6
CONTINUOUS
 62
           7
100
AcDbCircle
 10
246.0
 20
2835.0
 40
10.0
100
AcDbArc
 50
-90.0
 51
0.0
  0
ARC
  5
3AE
100
AcDbEntity
  8
1
  6
CONTINUOUS
 62
           4
100
AcDbCircle
 10
181.31940966506
 20
5885.0
 40
10.0
100
AcDbArc
 50
90.0
 51
180.0
  0
ARC
  5
3AD
100
AcDbEntity
  8
1
  6
CONTINUOUS
 62
           4
100
AcDbCircle
 10
181.31940966506
 20
5785.0
 40
10.0
100
AcDbArc
 50
180.0
 51
-90.0
  0
ARC
  5
3AC
100
AcDbEntity
  8
1
  6
CONTINUOUS
 62
           7
100
AcDbCircle
 10
196.0
 20
5780.0
 40
10.0
100
AcDbArc
 50
180.0
 51
-90.0
  0
ARC
  5
3AB
100
AcDbEntity
  8
1
  6
CONTINUOUS
 62
           7
100
AcDbCircle
 10
196.0
 20
5890.0
 40
10.0
100
AcDbArc
 50
90.0
 51
180.0
  0
ARC
  5
3AA
100
AcDbEntity
  8
1
  6
CONTINUOUS
 62
           7
100
AcDbCircle
 10
246.0
 20
5780.0
 40
10.0
100
AcDbArc
 50
-90.0
 51
0.0
  0
ARC
  5
3A9
100
AcDbEntity
  8
1
  6
CONTINUOUS
 62
           7
100
AcDbCircle
 10
246.0
 20
5890.0
 40
10.0
100
AcDbArc
 50
0.0
 51
90.0
  0
ARC
  5
3A8
100
AcDbEntity
  8
1
  6
CONTINUOUS
 62
           3
100
AcDbCircle
 10
5612.399996810931
 20
1641.0
 40
288.0
100
AcDbArc
 50
90.0
 51
180.0
  0
ARC
  5
3A7
100
AcDbEntity
  8
1
  6
CONTINUOUS
 62
           3
100
AcDbCircle
 10
5612.399998122324
 20
1641.000000000001
 40
280.0
100
AcDbArc
 50
90.0
 51
180.0
  0
ARC
  5
3A6
100
AcDbEntity
  8
1
  6
CONTINUOUS
 62
           3
100
AcDbCircle
 10
5760.663567691041
 20
1932.19374658004
 40
0.5
100
AcDbArc
 50
90.0
 51
180.0
  0
ARC
  5
3A5
100
AcDbEntity
  8
1
  6
CONTINUOUS
 62
           3
100
AcDbCircle
 10
5760.663567691041
 20
1917.80625341996
 40
0.5
100
AcDbArc
 50
180.0
 51
-90.0
  0
ARC
  5
3A4
100
AcDbEntity
  8
1
  6
CONTINUOUS
 62
           7
100
AcDbCircle
 10
4745.0
 20
1112.5
 40
5.000000000001
100
AcDbArc
 50
180.0
 51
-90.0
  0
ARC
  5
3A3
100
AcDbEntity
  8
1
  6
CONTINUOUS
 62
           7
100
AcDbCircle
 10
4745.0
 20
1112.5
 40
20.000000000001
100
AcDbArc
 50
180.0
 51
-90.0
  0
LWPOLYLINE
  5
3A2
100
AcDbEntity
  8
1
  6
CONTINUOUS
 62
           7
 60
           1
100
AcDbPolyline
 90
        2
 70
           0
 10
4724.999999999999
 20
1180.0
 10
4739.999999999999
 20
1180.0
  0
LWPOLYLINE
  5
3A1
100
AcDbEntity
  8
1
  6
CONTINUOUS
 62
           7
 60
           1
100
AcDbPolyline
 90
        3
 70
           0
 10
4842.499999999999
 20
1107.5
 10
4842.499999999999
 20
1092.5
 10
4745.0
 20
1092.5
  0
SPLINE
  5
3A0
100
AcDbEntity
  8
0
  6
CONTINUOUS
 62
           3
100
AcDbSpline
210
0.0
220
0.0
230
1.0
 70
           0
 71
           3
 72
           8
 73
           5
 74
           7
 42
0.00000000001
 43
0.00000000001
 44
0.00000000001
 40
0.0
 40
0.0
 40
0.0
 40
0.5558562714160741
 40
1.5343210643721881
 40
2.9385072682926769
 40
2.9385072682926769
 40
2.9385072682926769
 10
5278.3999967216732
 20
1359.9999994040479
 30
0.0
 10
5278.4684298091424
 20
1359.999553710677
 30
0.0
 10
5279.4432526000237
 20
1359.993204851213
 30
0.0
 10
5280.3985309047421
 20
1359.765309021863
 30
0.0
 10
5281.2867481555004
 20
1359.553411603069
 30
0.0
 11
5278.3999967216732
 21
1359.9999994040479
 31
0.0
 11
5278.5396116244046
 21
1359.9990901152978
 31
0.0
 11
5278.8215901576586
 21
1359.9972536357895
 31
0.0
 11
5279.3859111712854
 21
1359.9708199944764
 31
0.0
 11
5279.8355493274357
 21
1359.8996166396901
 31
0.0
 11
5280.479839823106
 21
1359.7459115716215
 31
0.0
 11
5281.2867481555004
 21
1359.553411603069
 31
0.0
  0
SPLINE
  5
39F
100
AcDbEntity
  8
0
  6
CONTINUOUS
 62
           3
100
AcDbSpline
210
0.0
220
0.0
230
1.0
 70
           0
 71
           3
 72
           8
 73
           5
 74
           7
 42
0.00000000001
 43
0.00000000001
 44
0.00000000001
 40
0.0
 40
0.0
 40
0.0
 40
0.5558558490687654
 40
1.5343195422046927
 40
2.9385037456636622
 40
2.9385037456636622
 40
2.9385037456636622
 10
5278.3999967216732
 20
1355.000004172322
 30
0.0
 10
5278.3315636362904
 20
1355.0004498783021
 30
0.0
 10
5277.3567416872393
 20
1355.0067989106681
 30
0.0
 10
5276.401462916263
 20
1355.234686929231
 30
0.0
 10
5275.5132452878424
 20
1355.446577072242
 30
0.0
 11
5278.3999967216732
 21
1355.000004172322
 31
0.0
 11
5278.2603818762445
 21
1355.0009134863221
 31
0.0
 11
5277.9784035107259
 21
1355.0027500163631
 31
0.0
 11
5277.4140828960144
 21
1355.0291829422185
 31
0.0
 11
5276.9644446988514
 21
1355.1003839311754
 31
0.0
 11
5276.3201539548045
 21
1355.2540837154697
 31
0.0
 11
5275.5132452878424
 21
1355.446577072242
 31
0.0
  0
SPLINE
  5
39E
100
AcDbEntity
  8
0
  6
CONTINUOUS
 62
           3
100
AcDbSpline
210
0.0
220
0.0
230
1.0
 70
           0
 71
           3
 72
           8
 73
           5
 74
           7
 42
0.00000000001
 43
0.00000000001
 44
0.00000000001
 40
0.0
 40
0.0
 40
0.0
 40
0.2779452695518754
 40
0.7862805426561302
 40
1.542957355619154
 40
1.542957355619154
 40
1.542957355619154
 10
5282.7301237560023
 20
1355.0000041724199
 30
0.0
 10
5282.6959072124737
 20
1355.0004498771891
 30
0.0
 10
5282.2084969152711
 20
1355.0067988847441
 30
0.0
 10
5281.7308572149814
 20
1355.234686928467
 30
0.0
 10
5281.2867481553621
 20
1355.446577072224
 30
0.0
 11
5282.7301237560023
 21
1355.0000041724199
 31
0.0
 11
5282.6613872230628
 21
1355.0008995346434
 31
0.0
 11
5282.5236107113033
 21
1355.0026942117752
 31
0.0
 11
5282.2392914141319
 21
1355.0286664762175
 31
0.0
 11
5282.016561114684
 21
1355.0983739236067
 31
0.0
 11
5281.6912559250013
 21
1355.253581213191
 31
0.0
 11
5281.2867481553621
 21
1355.446577072224
 31
0.0
  0
SPLINE
  5
39D
100
AcDbEntity
  8
0
  6
CONTINUOUS
 62
           3
100
AcDbSpline
210
0.0
220
0.0
230
1.0
 70
           0
 71
           3
 72
           8
 73
           5
 74
           7
 42
0.00000000001
 43
0.00000000001
 44
0.00000000001
 40
0.0
 40
0.0
 40
0.0
 40
0.6787700534931441
 40
1.1891668948823915
 40
1.5431123743460919
 40
1.5431123743460919
 40
1.5431123743460919
 10
5275.5132452878424
 20
1355.446577072242
 30
0.0
 10
5275.1438214744012
 20
1355.2624483716061
 30
0.0
 10
5274.6676820506218
 20
1355.0251303367841
 30
0.0
 10
5274.1793238525834
 20
1355.0046045512611
 30
0.0
 10
5274.0698696873442
 20
1355.0000041724199
 30
0.0
 11
5275.5132452878424
 21
1355.446577072242
 31
0.0
 11
5275.1682329736359
 21
1355.2746155830068
 31
0.0
 11
5274.8720436578978
 21
1355.126988516573
 31
0.0
 11
5274.6466781919462
 21
1355.0475647466085
 31
0.0
 11
5274.3793050086424
 21
1355.0130097962931
 31
0.0
 11
5274.2019556002888
 21
1355.0055557678088
 31
0.0
 11
5274.0698696873442
 21
1355.0000041724199
 31
0.0
  0
SPLINE
  5
39C
100
AcDbEntity
  8
0
  6
CONTINUOUS
 62
           3
100
AcDbSpline
210
0.0
220
0.0
230
1.0
 70
           0
 71
           3
 72
           8
 73
           5
 74
           7
 42
0.00000000001
 43
0.00000000001
 44
0.00000000001
 40
0.0
 40
0.0
 40
0.0
 40
0.3539460334951224
 40
0.8643414136598189
 40
1.5431068114008584
 40
1.5431068114008584
 40
1.5431068114008584
 10
5274.0698696873442
 20
1359.9999994040479
 30
0.0
 10
5274.1793238424216
 20
1359.9953935078299
 30
0.0
 10
5274.6676816710424
 20
1359.97484311874
 30
0.0
 10
5275.1438213484444
 20
1359.7375336343539
 30
0.0
 10
5275.5132452879698
 20
1359.553411603021
 30
0.0
 11
5274.0698696873442
 21
1359.9999994040479
 31
0.0
 11
5274.2019556855794
 21
1359.9944411463539
 31
0.0
 11
5274.379305370132
 21
1359.9869781657089
 31
0.0
 11
5274.6466781413856
 21
1359.9524131949254
 31
0.0
 11
5274.8720438533255
 21
1359.8729883765131
 31
0.0
 11
5275.168232959546
 21
1359.7253668120604
 31
0.0
 11
5275.5132452879698
 21
1359.553411603021
 31
0.0
  0
SPLINE
  5
39B
100
AcDbEntity
  8
0
  6
CONTINUOUS
 62
           3
100
AcDbSpline
210
0.0
220
0.0
230
1.0
 70
           0
 71
           3
 72
           8
 73
           5
 74
           7
 42
0.00000000001
 43
0.00000000001
 44
0.00000000001
 40
0.0
 40
0.0
 40
0.0
 40
0.6415450374762295
 40
1.1579303686098825
 40
1.5357381749057863
 40
1.5357381749057863
 40
1.5357381749057863
 10
5274.0698696873442
 20
1355.0000041724199
 30
0.0
 10
5273.6795237086117
 20
1355.0576336938759
 30
0.0
 10
5273.1908846293591
 20
1355.1297749168839
 30
0.0
 10
5272.7210119621122
 20
1355.3935224482559
 30
0.0
 10
5272.6264938539716
 20
1355.446577072224
 30
0.0
 11
5274.0698696873442
 21
1355.0000041724199
 31
0.0
 11
5273.7094282457037
 21
1355.0532186767991
 31
0.0
 11
5273.4087958782438
 21
1355.0976031470252
 31
0.0
 11
5273.1775260473178
 21
1355.1598096979617
 31
0.0
 11
5272.9195390523128
 21
1355.2820858110545
 31
0.0
 11
5272.7470142076272
 21
1355.3789269449476
 31
0.0
 11
5272.6264938539716
 21
1355.446577072224
 31
0.0
  0
SPLINE
  5
39A
100
AcDbEntity
  8
0
  6
CONTINUOUS
 62
           3
100
AcDbSpline
210
0.0
220
0.0
230
1.0
 70
           0
 71
           3
 72
           8
 73
           5
 74
           7
 42
0.00000000001
 43
0.00000000001
 44
0.00000000001
 40
0.0
 40
0.0
 40
0.0
 40
0.3778155284979269
 40
0.8942062233974729
 40
1.5357514174667206
 40
1.5357514174667206
 40
1.5357514174667206
 10
5272.6264938539716
 20
1359.553411603021
 30
0.0
 10
5272.7210118970324
 20
1359.6064716909059
 30
0.0
 10
5273.1908817949006
 20
1359.870245011374
 30
0.0
 10
5273.6795227343027
 20
1359.9423771861991
 30
0.0
 10
5274.0698696873442
 20
1359.9999994040479
 30
0.0
 11
5272.6264938539716
 21
1359.553411603021
 31
0.0
 11
5272.7470141544045
 21
1359.6210687140281
 31
0.0
 11
5272.9195389695842
 21
1359.7179198712793
 31
0.0
 11
5273.1775244143264
 21
1359.8402057052363
 31
0.0
 11
5273.4087950979238
 21
1359.9024129269187
 31
0.0
 11
5273.709427563469
 21
1359.9467916758413
 31
0.0
 11
5274.0698696873442
 21
1359.9999994040479
 31
0.0
  0
SPLINE
  5
399
100
AcDbEntity
  8
0
  6
CONTINUOUS
 62
           3
100
AcDbSpline
210
0.0
220
0.0
230
1.0
 70
           0
 71
           3
 72
           8
 73
           5
 74
           7
 42
0.00000000001
 43
0.00000000001
 44
0.00000000001
 40
0.0
 40
0.0
 40
0.0
 40
0.2779464854665173
 40
0.7862840844028372
 40
1.5429642659230511
 40
1.5429642659230511
 40
1.5429642659230511
 10
5282.7301237559623
 20
1359.999999403921
 30
0.0
 10
5282.7643403053626
 20
1359.9995537086761
 30
0.0
 10
5283.2517530244513
 20
1359.9932048044429
 30
0.0
 10
5283.7293915039991
 20
1359.7653090204799
 30
0.0
 10
5284.1734995893639
 20
1359.553411603021
 30
0.0
 11
5282.7301237559623
 21
1359.999999403921
 31
0.0
 11
5282.7988605017445
 21
1359.9991040580444
 31
0.0
 11
5282.936637640295
 21
1359.9973094109048
 31
0.0
 11
5283.2209580094705
 21
1359.9713364170611
 31
0.0
 11
5283.4436883486851
 21
1359.9016266484539
 31
0.0
 11
5283.7689927365109
 21
1359.7464140731086
 31
0.0
 11
5284.1734995893639
 21
1359.553411603021
 31
0.0
  0
SPLINE
  5
398
100
AcDbEntity
  8
0
  6
CONTINUOUS
 62
           3
100
AcDbSpline
210
0.0
220
0.0
230
1.0
 70
           0
 71
           3
 72
           8
 73
           5
 74
           7
 42
0.00000000001
 43
0.00000000001
 44
0.00000000001
 40
0.0
 40
0.0
 40
0.0
 40
1.2475591451551136
 40
2.2257037084923486
 40
2.9354142011740483
 40
2.9354142011740483
 40
2.9354142011740483
 10
5278.3999967216732
 20
1364.9999946356729
 30
0.0
 10
5277.6443416651709
 20
1364.9458933000931
 30
0.0
 10
5276.666903851652
 20
1364.8759133658571
 30
0.0
 10
5275.7266018489536
 20
1364.6130630433661
 30
0.0
 10
5275.5132452878424
 20
1364.5534217358579
 30
0.0
 11
5278.3999967216732
 21
1364.9999946356729
 31
0.0
 11
5277.6962862228356
 21
1364.9496122852588
 31
0.0
 11
5277.0964648393274
 21
1364.9066679051762
 31
0.0
 11
5276.6380633113722
 21
1364.8455202926339
 31
0.0
 11
5276.1219807028574
 21
1364.7235865336452
 31
0.0
 11
5275.7721074221517
 21
1364.6257835890588
 31
0.0
 11
5275.5132452878424
 21
1364.5534217358579
 31
0.0
  0
SPLINE
  5
397
100
AcDbEntity
  8
0
  6
CONTINUOUS
 62
           3
100
AcDbSpline
210
0.0
220
0.0
230
1.0
 70
           0
 71
           3
 72
           8
 73
           5
 74
           7
 42
0.00000000001
 43
0.00000000001
 44
0.00000000001
 40
0.0
 40
0.0
 40
0.0
 40
1.2321288292600128
 40
2.2113508927680146
 40
2.9387184667234139
 40
2.9387184667234139
 40
2.9387184667234139
 10
5281.2867481555004
 20
1364.5534217358579
 30
0.0
 10
5280.5674885010521
 20
1364.733619018429
 30
0.0
 10
5279.6156260260914
 20
1364.9720906611981
 30
0.0
 10
5278.6387194651543
 20
1364.994514911454
 30
0.0
 10
5278.3999967216732
 20
1364.9999946356729
 30
0.0
 11
5281.2867481555004
 21
1364.5534217358579
 31
0.0
 11
5280.6147128338653
 21
1364.7217878300803
 31
0.0
 11
5280.0371261778564
 21
1364.8664915476045
 31
0.0
 11
5279.5808665470031
 21
1364.9489075788533
 31
0.0
 11
5279.0550879579723
 21
1364.9849574454129
 31
0.0
 11
5278.6831309024892
 21
1364.9934954759983
 31
0.0
 11
5278.3999967216732
 21
1364.9999946356729
 31
0.0
  0
SPLINE
  5
396
100
AcDbEntity
  8
0
  6
CONTINUOUS
 62
           3
100
AcDbSpline
210
0.0
220
0.0
230
1.0
 70
           0
 71
           3
 72
           8
 73
           5
 74
           7
 42
0.00000000001
 43
0.00000000001
 44
0.00000000001
 40
0.0
 40
0.0
 40
0.0
 40
0.7273681394915366
 40
1.7065914567891649
 40
2.938722324035254
 40
2.938722324035254
 40
2.938722324035254
 10
5278.3999967216732
 20
1359.9999994040479
 30
0.0
 10
5278.638719501032
 20
1360.005478943116
 30
0.0
 10
5279.6156271469808
 20
1360.027902457241
 30
0.0
 10
5280.5674888562426
 20
1360.2663830805111
 30
0.0
 10
5281.2867481553621
 20
1360.4465872051219
 30
0.0
 11
5278.3999967216732
 21
1359.9999994040479
 31
0.0
 11
5278.6831310149728
 21
1360.0064983457332
 31
0.0
 11
5279.055088336152
 21
1360.0150360926523
 31
0.0
 11
5279.5808673755118
 21
1360.0510866331738
 31
0.0
 11
5280.03712687193
 21
1360.1335055255608
 31
0.0
 11
5280.6147131849439
 21
1360.2782147229261
 31
0.0
 11
5281.2867481553621
 21
1360.4465872051219
 31
0.0
  0
SPLINE
  5
395
100
AcDbEntity
  8
0
  6
CONTINUOUS
 62
           3
100
AcDbSpline
210
0.0
220
0.0
230
1.0
 70
           0
 71
           3
 72
           8
 73
           5
 74
           7
 42
0.00000000001
 43
0.00000000001
 44
0.00000000001
 40
0.0
 40
0.0
 40
0.0
 40
0.7097126556374556
 40
1.6878594213865614
 40
2.9354211178787875
 40
2.9354211178787875
 40
2.9354211178787875
 10
5275.5132452878424
 20
1360.4465872050239
 30
0.0
 10
5275.7266017037618
 20
1360.386940369928
 30
0.0
 10
5276.6668989125828
 20
1360.12406684762
 30
0.0
 10
5277.6443400642529
 20
1360.0540946716169
 30
0.0
 10
5278.3999967216732
 20
1359.9999994040479
 30
0.0
 11
5275.5132452878424
 21
1360.4465872050239
 31
0.0
 11
5275.7721068549235
 21
1360.3742187546156
 31
0.0
 11
5276.1219787243263
 21
1360.2764070735823
 31
0.0
 11
5276.6380594916318
 21
1360.1544641207811
 31
0.0
 11
5277.0964614170334
 21
1360.0933157143018
 31
0.0
 11
5277.6962845668031
 21
1360.0503761153959
 31
0.0
 11
5278.3999967216732
 21
1359.9999994040479
 31
0.0
  0
SPLINE
  5
394
100
AcDbEntity
  8
0
  6
CONTINUOUS
 62
           3
100
AcDbSpline
210
0.0
220
0.0
230
1.0
 70
           0
 71
           3
 72
           8
 73
           5
 74
           7
 42
0.00000000001
 43
0.00000000001
 44
0.00000000001
 40
0.0
 40
0.0
 40
0.0
 40
0.2779452695518532
 40
0.7862805426552565
 40
1.5429573555004135
 40
1.5429573555004135
 40
1.5429573555004135
 10
5282.7301237560023
 20
1364.9999946356729
 30
0.0
 10
5282.6959072124737
 20
1364.999548930904
 30
0.0
 10
5282.2084969152711
 20
1364.993199923352
 30
0.0
 10
5281.7308572149814
 20
1364.7653118796329
 30
0.0
 10
5281.2867481555004
 20
1364.5534217358579
 30
0.0
 11
5282.7301237560023
 21
1364.9999946356729
 31
0.0
 11
5282.6613872230628
 21
1364.9990992734499
 31
0.0
 11
5282.5236107113033
 21
1364.9973045963191
 31
0.0
 11
5282.2392914141274
 21
1364.9713323318763
 31
0.0
 11
5282.0165611146658
 21
1364.9016248844825
 31
0.0
 11
5281.6912559250322
 21
1364.7464175949017
 31
0.0
 11
5281.2867481555004
 21
1364.5534217358579
 31
0.0
  0
SPLINE
  5
393
100
AcDbEntity
  8
0
  6
CONTINUOUS
 62
           3
100
AcDbSpline
210
0.0
220
0.0
230
1.0
 70
           0
 71
           3
 72
           8
 73
           5
 74
           7
 42
0.00000000001
 43
0.00000000001
 44
0.00000000001
 40
0.0
 40
0.0
 40
0.0
 40
0.2779464854698519
 40
0.7862840844060961
 40
1.5429642659465292
 40
1.5429642659465292
 40
1.5429642659465292
 10
5282.7301237559623
 20
1359.999999403921
 30
0.0
 10
5282.7643403053626
 20
1360.000445099424
 30
0.0
 10
5283.2517530244513
 20
1360.0067940036531
 30
0.0
 10
5283.7293915039991
 20
1360.2346897876159
 30
0.0
 10
5284.1734995893639
 20
1360.4465872051219
 30
0.0
 11
5282.7301237559623
 21
1359.999999403921
 31
0.0
 11
5282.7988605017463
 21
1360.0008947499907
 31
0.0
 11
5282.9366376402959
 21
1360.0026893971938
 31
0.0
 11
5283.2209580094695
 21
1360.0286623910351
 31
0.0
 11
5283.4436883486815
 21
1360.0983721596403
 31
0.0
 11
5283.7689927365109
 21
1360.2535847349986
 31
0.0
 11
5284.1734995893639
 21
1360.4465872051219
 31
0.0
  0
SPLINE
  5
392
100
AcDbEntity
  8
0
  6
CONTINUOUS
 62
           3
100
AcDbSpline
210
0.0
220
0.0
230
1.0
 70
           0
 71
           3
 72
           8
 73
           5
 74
           7
 42
0.00000000001
 43
0.00000000001
 44
0.00000000001
 40
0.0
 40
0.0
 40
0.0
 40
0.27794627523702
 40
0.7862820883289698
 40
1.5429577306136333
 40
1.5429577306136333
 40
1.5429577306136333
 10
5274.0698696873442
 20
1364.9999946356729
 30
0.0
 10
5274.0356531390316
 20
1364.9995489277901
 30
0.0
 10
5273.5482408408434
 20
1364.993199850662
 30
0.0
 10
5273.0706021281803
 20
1364.7653118774831
 30
0.0
 10
5272.6264938539716
 20
1364.5534217359159
 30
0.0
 11
5274.0698696873442
 21
1364.9999946356729
 31
0.0
 11
5274.0011329028039
 21
1364.9990992640385
 31
0.0
 11
5273.863355645808
 21
1364.9973045649017
 31
0.0
 11
5273.5790356162606
 21
1364.97133224086
 31
0.0
 11
5273.3563051375468
 21
1364.9016246972137
 31
0.0
 11
5273.0310008119695
 21
1364.7464175470241
 31
0.0
 11
5272.6264938539716
 21
1364.5534217359159
 31
0.0
  0
SPLINE
  5
391
100
AcDbEntity
  8
0
  6
CONTINUOUS
 62
           3
100
AcDbSpline
210
0.0
220
0.0
230
1.0
 70
           0
 71
           3
 72
           8
 73
           5
 74
           7
 42
0.00000000001
 43
0.00000000001
 44
0.00000000001
 40
0.0
 40
0.0
 40
0.0
 40
0.2779454797466382
 40
0.7862825386909735
 40
1.5429638907222507
 40
1.5429638907222507
 40
1.5429638907222507
 10
5274.0698696873442
 20
1359.9999994040479
 30
0.0
 10
5274.1040862319214
 20
1360.0004450963061
 30
0.0
 10
5274.59149695003
 20
1360.0067939309631
 30
0.0
 10
5275.0691364171944
 20
1360.23468978547
 30
0.0
 10
5275.5132452878424
 20
1360.4465872050239
 30
0.0
 11
5274.0698696873442
 21
1359.9999994040479
 31
0.0
 11
5274.1386061814947
 21
1360.0008947406086
 31
0.0
 11
5274.2763825747907
 21
1360.0026893657737
 31
0.0
 11
5274.5607022116064
 21
1360.0286623000184
 31
0.0
 11
5274.7834323715761
 21
1360.0983719723738
 31
0.0
 11
5275.1087376234518
 21
1360.2535846870846
 31
0.0
 11
5275.5132452878424
 21
1360.4465872050239
 31
0.0
  0
SPLINE
  5
390
100
AcDbEntity
  8
0
  6
CONTINUOUS
 62
           3
100
AcDbSpline
210
0.0
220
0.0
230
1.0
 70
           0
 71
           3
 72
           8
 73
           5
 74
           7
 42
0.00000000001
 43
0.00000000001
 44
0.00000000001
 40
0.0
 40
0.0
 40
0.0
 40
1.2475604207861621
 40
2.2257060852956547
 40
2.9354176594307497
 40
2.9354176594307497
 40
2.9354176594307497
 10
5278.3999967216732
 20
1377.5999993086659
 30
0.0
 10
5277.644340864721
 20
1377.5459010071061
 30
0.0
 10
5276.6669013821593
 20
1377.4759249520071
 30
0.0
 10
5275.7266017763613
 20
1377.2130630295719
 30
0.0
 10
5275.5132452878424
 20
1377.1534189582669
 30
0.0
 11
5278.3999967216732
 21
1377.5999993086659
 31
0.0
 11
5277.6962853948307
 21
1377.5496197777989
 31
0.0
 11
5277.0964631282068
 21
1377.5066777883167
 31
0.0
 11
5276.6380614015343
 21
1377.4455297788074
 31
0.0
 11
5276.1219797136127
 21
1377.3235914228983
 31
0.0
 11
5275.772107138544
 21
1377.2257841100773
 31
0.0
 11
5275.5132452878424
 21
1377.1534189582669
 31
0.0
  0
SPLINE
  5
38F
100
AcDbEntity
  8
0
  6
CONTINUOUS
 62
           3
100
AcDbSpline
210
0.0
220
0.0
230
1.0
 70
           0
 71
           3
 72
           8
 73
           5
 74
           7
 42
0.00000000001
 43
0.00000000001
 44
0.00000000001
 40
0.0
 40
0.0
 40
0.0
 40
1.2321298483005916
 40
2.2113525386976818
 40
2.9387203954176639
 40
2.9387203954176639
 40
2.9387203954176639
 10
5281.2867481555004
 20
1377.1534189582669
 30
0.0
 10
5280.5674886786437
 20
1377.333619661815
 30
0.0
 10
5279.615626586532
 20
1377.5720957948331
 30
0.0
 10
5278.6387194830904
 20
1377.5945196770231
 30
0.0
 10
5278.3999967216732
 20
1377.5999993086659
 30
0.0
 11
5281.2867481555004
 21
1377.1534189582669
 31
0.0
 11
5280.6147130094159
 21
1377.3217882464442
 31
0.0
 11
5280.0371265248787
 21
1377.4664947038796
 31
0.0
 11
5279.5808669612506
 21
1377.5489121656951
 31
0.0
 11
5279.055088147059
 21
1377.5849623692347
 31
0.0
 11
5278.6831309587287
 21
1377.5935002579868
 31
0.0
 11
5278.3999967216732
 21
1377.5999993086659
 31
0.0
  0
SPLINE
  5
38E
100
AcDbEntity
  8
0
  6
CONTINUOUS
 62
           3
100
AcDbSpline
210
0.0
220
0.0
230
1.0
 70
           0
 71
           3
 72
           8
 73
           5
 74
           7
 42
0.00000000001
 43
0.00000000001
 44
0.00000000001
 40
0.0
 40
0.0
 40
0.0
 40
0.7273675739554958
 40
1.7065896374631138
 40
2.9387184666017365
 40
2.9387184666017365
 40
2.9387184666017365
 10
5278.3999967216732
 20
1372.6000040770409
 30
0.0
 10
5278.6387194651543
 20
1372.605483801264
 30
0.0
 10
5279.6156260260914
 20
1372.6279080515201
 30
0.0
 10
5280.5674885010521
 20
1372.866379694286
 30
0.0
 10
5281.2867481553621
 20
1373.046576976911
 30
0.0
 11
5278.3999967216732
 21
1372.6000040770409
 31
0.0
 11
5278.6831309024883
 21
1372.6065032367185
 31
0.0
 11
5279.0550879579732
 21
1372.6150412673053
 31
0.0
 11
5279.5808665470086
 21
1372.6510911338657
 31
0.0
 11
5280.0371261778791
 21
1372.7335071651178
 31
0.0
 11
5280.6147128338362
 21
1372.8782108826504
 31
0.0
 11
5281.2867481553621
 21
1373.046576976911
 31
0.0
  0
SPLINE
  5
38D
100
AcDbEntity
  8
0
  6
CONTINUOUS
 62
           3
100
AcDbSpline
210
0.0
220
0.0
230
1.0
 70
           0
 71
           3
 72
           8
 73
           5
 74
           7
 42
0.00000000001
 43
0.00000000001
 44
0.00000000001
 40
0.0
 40
0.0
 40
0.0
 40
0.7097104926824955
 40
1.6878550560197625
 40
2.9354142011749245
 40
2.9354142011749245
 40
2.9354142011749245
 10
5275.5132452878424
 20
1373.04657697686
 30
0.0
 10
5275.7266018489536
 20
1372.9869356693489
 30
0.0
 10
5276.666903851652
 20
1372.7240853468579
 30
0.0
 10
5277.6443416651709
 20
1372.654105412621
 30
0.0
 10
5278.3999967216732
 20
1372.6000040770409
 30
0.0
 11
5275.5132452878424
 21
1373.04657697686
 31
0.0
 11
5275.7721074221517
 21
1372.9742151236569
 31
0.0
 11
5276.1219807028574
 21
1372.8764121790696
 31
0.0
 11
5276.6380633113722
 21
1372.7544784200809
 31
0.0
 11
5277.0964648393274
 21
1372.6933308075384
 31
0.0
 11
5277.6962862228356
 21
1372.6503864274553
 31
0.0
 11
5278.3999967216732
 21
1372.6000040770409
 31
0.0
  0
SPLINE
  5
38C
100
AcDbEntity
  8
0
  6
CONTINUOUS
 62
           3
100
AcDbSpline
210
0.0
220
0.0
230
1.0
 70
           0
 71
           3
 72
           8
 73
           5
 74
           7
 42
0.00000000001
 43
0.00000000001
 44
0.00000000001
 40
0.0
 40
0.0
 40
0.0
 40
0.2779453746508607
 40
0.7862815406653667
 40
1.5429606230903485
 40
1.5429606230903485
 40
1.5429606230903485
 10
5282.7301237560023
 20
1377.5999993086659
 30
0.0
 10
5282.6959072119498
 20
1377.5995536101509
 30
0.0
 10
5282.2084967042902
 20
1377.593204689045
 30
0.0
 10
5281.7308571205722
 20
1377.365312739938
 30
0.0
 10
5281.2867481555004
 20
1377.1534189582669
 30
0.0
 11
5282.7301237560023
 21
1377.5999993086659
 31
0.0
 11
5282.6613872424568
 21
1377.599103959273
 31
0.0
 11
5282.5236107899254
 21
1377.5973093081241
 31
0.0
 11
5282.2392913229314
 21
1377.5713367087801
 31
0.0
 11
5282.0165610932181
 21
1377.5016281489063
 31
0.0
 11
5281.6912558724662
 21
1377.3464181467623
 31
0.0
 11
5281.2867481555004
 21
1377.1534189582669
 31
0.0
  0
SPLINE
  5
38B
100
AcDbEntity
  8
0
  6
CONTINUOUS
 62
           3
100
AcDbSpline
210
0.0
220
0.0
230
1.0
 70
           0
 71
           3
 72
           8
 73
           5
 74
           7
 42
0.00000000001
 43
0.00000000001
 44
0.00000000001
 40
0.0
 40
0.0
 40
0.0
 40
0.277946275241148
 40
0.7862820883289379
 40
1.5429577306520583
 40
1.5429577306520583
 40
1.5429577306520583
 10
5282.7301237560023
 20
1372.6000040770409
 30
0.0
 10
5282.7643403043221
 20
1372.6004497849281
 30
0.0
 10
5283.251752602504
 20
1372.606798862053
 30
0.0
 10
5283.7293913151634
 20
1372.8346868352351
 30
0.0
 10
5284.1734995893639
 20
1373.046576976911
 30
0.0
 11
5282.7301237560023
 21
1372.6000040770409
 31
0.0
 11
5282.798860540548
 21
1372.6008994486781
 31
0.0
 11
5282.9366377975466
 21
1372.6026941478153
 31
0.0
 11
5283.2209578270867
 21
1372.6286664718552
 31
0.0
 11
5283.4436883057915
 21
1372.6983740154992
 31
0.0
 11
5283.7689926313706
 21
1372.8535811657198
 31
0.0
 11
5284.1734995893639
 21
1373.046576976911
 31
0.0
  0
SPLINE
  5
38A
100
AcDbEntity
  8
0
  6
CONTINUOUS
 62
           3
100
AcDbSpline
210
0.0
220
0.0
230
1.0
 70
           0
 71
           3
 72
           8
 73
           5
 74
           7
 42
0.00000000001
 43
0.00000000001
 44
0.00000000001
 40
0.0
 40
0.0
 40
0.0
 40
0.2779463803323661
 40
0.786283086339877
 40
1.5429609982600445
 40
1.5429609982600445
 40
1.5429609982600445
 10
5274.0698696873442
 20
1377.5999993086659
 30
0.0
 10
5274.0356531385041
 20
1377.599553607037
 30
0.0
 10
5273.5482406298734
 20
1377.593204616358
 30
0.0
 10
5273.0706020337602
 20
1377.3653127377879
 30
0.0
 10
5272.6264938539716
 20
1377.1534189582051
 30
0.0
 11
5274.0698696873442
 21
1377.5999993086659
 31
0.0
 11
5274.001132922197
 21
1377.599103949862
 31
0.0
 11
5273.8633557244357
 21
1377.5973092767078
 31
0.0
 11
5273.5790355250729
 21
1377.5713366177661
 31
0.0
 11
5273.3563051161091
 21
1377.5016279616407
 31
0.0
 11
5273.0310007593998
 21
1377.3464180988553
 31
0.0
 11
5272.6264938539716
 21
1377.1534189582051
 31
0.0
  0
SPLINE
  5
389
100
AcDbEntity
  8
0
  6
CONTINUOUS
 62
           3
100
AcDbSpline
210
0.0
220
0.0
230
1.0
 70
           0
 71
           3
 72
           8
 73
           5
 74
           7
 42
0.00000000001
 43
0.00000000001
 44
0.00000000001
 40
0.0
 40
0.0
 40
0.0
 40
0.277945269555519
 40
0.7862805426580706
 40
1.5429573554978919
 40
1.5429573554978919
 40
1.5429573554978919
 10
5274.0698696873442
 20
1372.6000040770409
 30
0.0
 10
5274.1040862308728
 20
1372.6004497818101
 30
0.0
 10
5274.5914965280826
 20
1372.6067987893659
 30
0.0
 10
5275.0691362283624
 20
1372.834686833085
 30
0.0
 10
5275.5132452878424
 20
1373.04657697686
 30
0.0
 11
5274.0698696873442
 21
1372.6000040770409
 31
0.0
 11
5274.1386062202846
 21
1372.6008994392644
 31
0.0
 11
5274.2763827320478
 21
1372.6026941163964
 31
0.0
 11
5274.5607020292246
 21
1372.628666380841
 31
0.0
 11
5274.7834323286843
 21
1372.6983738282356
 31
0.0
 11
5275.1087375183124
 21
1372.8535811178162
 31
0.0
 11
5275.5132452878424
 21
1373.04657697686
 31
0.0
  0
SPLINE
  5
388
100
AcDbEntity
  8
0
  6
CONTINUOUS
 62
           3
100
AcDbSpline
210
0.0
220
0.0
230
1.0
 70
           0
 71
           3
 72
           8
 73
           5
 74
           7
 42
0.00000000001
 43
0.00000000001
 44
0.00000000001
 40
0.0
 40
0.0
 40
0.0
 40
1.2475616964922178
 40
2.2257084622413159
 40
2.9354211178796286
 40
2.9354211178796286
 40
2.9354211178796286
 10
5278.3999967216732
 20
1372.6000040770409
 30
0.0
 10
5277.6443400642529
 20
1372.5459088094719
 30
0.0
 10
5276.6668989125828
 20
1372.475936633469
 30
0.0
 10
5275.7266017037618
 20
1372.2130631111611
 30
0.0
 10
5275.5132452878424
 20
1372.153416276062
 30
0.0
 11
5278.3999967216732
 21
1372.6000040770409
 31
0.0
 11
5277.696284566804
 21
1372.5496273656929
 31
0.0
 11
5277.0964614170334
 21
1372.5066877667873
 31
0.0
 11
5276.6380594916318
 21
1372.4455393603082
 31
0.0
 11
5276.1219787243281
 21
1372.3235964075068
 31
0.0
 11
5275.7721068549235
 21
1372.2257847264727
 31
0.0
 11
5275.5132452878424
 21
1372.153416276062
 31
0.0
  0
SPLINE
  5
387
100
AcDbEntity
  8
0
  6
CONTINUOUS
 62
           3
100
AcDbSpline
210
0.0
220
0.0
230
1.0
 70
           0
 71
           3
 72
           8
 73
           5
 74
           7
 42
0.00000000001
 43
0.00000000001
 44
0.00000000001
 40
0.0
 40
0.0
 40
0.0
 40
1.2321308673573936
 40
2.21135418465495
 40
2.9387223241465046
 40
2.9387223241465046
 40
2.9387223241465046
 10
5281.2867481555004
 20
1372.153416276062
 30
0.0
 10
5280.5674888562426
 20
1372.3336204005791
 30
0.0
 10
5279.6156271469808
 20
1372.572101023849
 30
0.0
 10
5278.638719501032
 20
1372.5945245379701
 30
0.0
 10
5278.3999967216732
 20
1372.6000040770409
 30
0.0
 11
5281.2867481555004
 21
1372.153416276062
 31
0.0
 11
5280.6147131849739
 21
1372.3217887581886
 31
0.0
 11
5280.0371268719091
 21
1372.4664979555346
 31
0.0
 11
5279.5808673755055
 21
1372.5489168479166
 31
0.0
 11
5279.055088336152
 21
1372.5849673884354
 31
0.0
 11
5278.6831310149719
 21
1372.593505135354
 31
0.0
 11
5278.3999967216732
 21
1372.6000040770409
 31
0.0
  0
SPLINE
  5
386
100
AcDbEntity
  8
0
  6
CONTINUOUS
 62
           3
100
AcDbSpline
210
0.0
220
0.0
230
1.0
 70
           0
 71
           3
 72
           8
 73
           5
 74
           7
 42
0.00000000001
 43
0.00000000001
 44
0.00000000001
 40
0.0
 40
0.0
 40
0.0
 40
0.7273681394915992
 40
1.7065914567891169
 40
2.9387223240302882
 40
2.9387223240302882
 40
2.9387223240302882
 10
5278.3999967216732
 20
1367.5999939442561
 30
0.0
 10
5278.638719501032
 20
1367.6054734833269
 30
0.0
 10
5279.6156271469808
 20
1367.6278969974519
 30
0.0
 10
5280.5674888562426
 20
1367.8663776207211
 30
0.0
 10
5281.2867481553621
 20
1368.0465817453121
 30
0.0
 11
5278.3999967216732
 21
1367.5999939442561
 31
0.0
 11
5278.6831310149719
 21
1367.6064928859435
 31
0.0
 11
5279.055088336152
 21
1367.6150306328632
 31
0.0
 11
5279.5808673755109
 21
1367.6510811733847
 31
0.0
 11
5280.0371268719318
 21
1367.7335000657715
 31
0.0
 11
5280.6147131849448
 21
1367.8782092631318
 31
0.0
 11
5281.2867481553621
 21
1368.0465817453121
 31
0.0
  0
SPLINE
  5
385
100
AcDbEntity
  8
0
  6
CONTINUOUS
 62
           3
100
AcDbSpline
210
0.0
220
0.0
230
1.0
 70
           0
 71
           3
 72
           8
 73
           5
 74
           7
 42
0.00000000001
 43
0.00000000001
 44
0.00000000001
 40
0.0
 40
0.0
 40
0.0
 40
0.709710718913952
 40
1.6878556121190167
 40
2.9354150974117847
 40
2.9354150974117847
 40
2.9354150974117847
 10
5275.5132452878424
 20
1368.046581745235
 30
0.0
 10
5275.7266018694936
 20
1367.986940602696
 30
0.0
 10
5276.6669045504614
 20
1367.7240908429519
 30
0.0
 10
5277.6443418916824
 20
1367.654102099867
 30
0.0
 10
5278.3999967216732
 20
1367.5999939442561
 30
0.0
 11
5275.5132452878424
 21
1368.046581745235
 31
0.0
 11
5275.7721075077989
 21
1367.9742200752128
 31
0.0
 11
5276.121981004364
 21
1367.8764173502241
 31
0.0
 11
5276.6380638628534
 21
1367.754482866841
 31
0.0
 11
5277.0964653461269
 21
1367.6933324312367
 31
0.0
 11
5277.6962864627912
 21
1367.6503826438068
 31
0.0
 11
5278.3999967216732
 21
1367.5999939442561
 31
0.0
  0
SPLINE
  5
384
100
AcDbEntity
  8
0
  6
CONTINUOUS
 62
           3
100
AcDbSpline
210
0.0
220
0.0
230
1.0
 70
           0
 71
           3
 72
           8
 73
           5
 74
           7
 42
0.00000000001
 43
0.00000000001
 44
0.00000000001
 40
0.0
 40
0.0
 40
0.0
 40
0.2779454797516238
 40
0.7862825386949969
 40
1.5429638907280854
 40
1.5429638907280854
 40
1.5429638907280854
 10
5282.7301237560023
 20
1372.6000040770409
 30
0.0
 10
5282.6959072114223
 20
1372.5995583847839
 30
0.0
 10
5282.2084964933092
 20
1372.5932095501271
 30
0.0
 10
5281.7308570261521
 20
1372.36531369562
 30
0.0
 10
5281.2867481555004
 20
1372.153416276062
 30
0.0
 11
5282.7301237560023
 21
1372.6000040770409
 31
0.0
 11
5282.6613872618491
 21
1372.5991087404814
 31
0.0
 11
5282.5236108685494
 21
1372.5973141153163
 31
0.0
 11
5282.2392912317328
 21
1372.5713411810716
 31
0.0
 11
5282.0165610717668
 21
1372.5016315087164
 31
0.0
 11
5281.6912558198928
 21
1372.3464187940044
 31
0.0
 11
5281.2867481555004
 21
1372.153416276062
 31
0.0
  0
SPLINE
  5
383
100
AcDbEntity
  8
0
  6
CONTINUOUS
 62
           3
100
AcDbSpline
210
0.0
220
0.0
230
1.0
 70
           0
 71
           3
 72
           8
 73
           5
 74
           7
 42
0.00000000001
 43
0.00000000001
 44
0.00000000001
 40
0.0
 40
0.0
 40
0.0
 40
0.2779464854282205
 40
0.7862840843636325
 40
1.5429642658959879
 40
1.5429642658959879
 40
1.5429642658959879
 10
5282.7301237560023
 20
1367.5999939442561
 30
0.0
 10
5282.7643403053626
 20
1367.6004396396349
 30
0.0
 10
5283.2517530244513
 20
1367.606788543864
 30
0.0
 10
5283.7293915039991
 20
1367.834684327823
 30
0.0
 10
5284.1734995893639
 20
1368.0465817453121
 30
0.0
 11
5282.7301237560023
 21
1367.5999939442561
 31
0.0
 11
5282.7988605017517
 21
1367.6008892902328
 31
0.0
 11
5282.9366376402795
 21
1367.6026839374044
 31
0.0
 11
5283.2209580094659
 21
1367.6286569312456
 31
0.0
 11
5283.4436883486824
 21
1367.6983666998503
 31
0.0
 11
5283.7689927365118
 21
1367.8535792752023
 31
0.0
 11
5284.1734995893639
 21
1368.0465817453121
 31
0.0
  0
SPLINE
  5
382
100
AcDbEntity
  8
0
  6
CONTINUOUS
 62
           3
100
AcDbSpline
210
0.0
220
0.0
230
1.0
 70
           0
 71
           3
 72
           8
 73
           5
 74
           7
 42
0.00000000001
 43
0.00000000001
 44
0.00000000001
 40
0.0
 40
0.0
 40
0.0
 40
0.2779464854372229
 40
0.7862840843763257
 40
1.542964265856738
 40
1.542964265856738
 40
1.542964265856738
 10
5274.0698696873442
 20
1372.6000040770409
 30
0.0
 10
5274.0356531379803
 20
1372.5995583816691
 30
0.0
 10
5273.5482404188806
 20
1372.59320947744
 30
0.0
 10
5273.0706019393401
 20
1372.365313693474
 30
0.0
 10
5272.6264938539716
 20
1372.1534162761091
 30
0.0
 11
5274.0698696873442
 21
1372.6000040770409
 31
0.0
 11
5274.0011329415893
 21
1372.5991087310697
 31
0.0
 11
5273.863355803056
 21
1372.5973140838996
 31
0.0
 11
5273.5790354338651
 21
1372.5713410900566
 31
0.0
 11
5273.3563050946432
 21
1372.5016313214467
 31
0.0
 11
5273.0310007068238
 21
1372.3464187461257
 31
0.0
 11
5272.6264938539716
 21
1372.1534162761091
 31
0.0
  0
SPLINE
  5
381
100
AcDbEntity
  8
0
  6
CONTINUOUS
 62
           3
100
AcDbSpline
210
0.0
220
0.0
230
1.0
 70
           0
 71
           3
 72
           8
 73
           5
 74
           7
 42
0.00000000001
 43
0.00000000001
 44
0.00000000001
 40
0.0
 40
0.0
 40
0.0
 40
0.2779454797466486
 40
0.7862825386901768
 40
1.5429638907223839
 40
1.5429638907223839
 40
1.5429638907223839
 10
5274.0698696873442
 20
1367.5999939442561
 30
0.0
 10
5274.1040862319214
 20
1367.6004396365131
 30
0.0
 10
5274.59149695003
 20
1367.606788471174
 30
0.0
 10
5275.0691364171944
 20
1367.834684325677
 30
0.0
 10
5275.5132452878424
 20
1368.046581745235
 30
0.0
 11
5274.0698696873442
 21
1367.5999939442561
 31
0.0
 11
5274.1386061814937
 21
1367.6008892808159
 31
0.0
 11
5274.2763825747907
 21
1367.6026839059823
 31
0.0
 11
5274.5607022116064
 21
1367.6286568402284
 31
0.0
 11
5274.7834323715761
 21
1367.6983665125831
 31
0.0
 11
5275.1087376234518
 21
1367.853579227293
 31
0.0
 11
5275.5132452878424
 21
1368.046581745235
 31
0.0
  0
SPLINE
  5
380
100
AcDbEntity
  8
0
  6
CONTINUOUS
 62
           3
100
AcDbSpline
210
0.0
220
0.0
230
1.0
 70
           0
 71
           3
 72
           8
 73
           5
 74
           7
 42
0.00000000001
 43
0.00000000001
 44
0.00000000001
 40
0.0
 40
0.0
 40
0.0
 40
0.4813884775056223
 40
1.3325655942399384
 40
2.5594910572531893
 40
2.5594910572531893
 40
2.5594910572531893
 10
5275.8999967775526
 20
1384.1999992729
 30
0.0
 10
5275.959261584394
 20
1384.200444971553
 30
0.0
 10
5276.8034817008302
 20
1384.206793895828
 30
0.0
 10
5277.6307775679597
 20
1384.4346858417271
 30
0.0
 10
5278.3999967216732
 20
1384.6465796232951
 30
0.0
 11
5275.8999967775526
 21
1384.1999992729
 31
0.0
 11
5276.0206888783669
 21
1384.2009069331086
 31
0.0
 11
5276.2642355671287
 21
1384.202738516429
 31
0.0
 11
5276.7533839007074
 21
1384.2291158106427
 31
0.0
 11
5277.1423366340423
 21
1384.3001369344863
 31
0.0
 11
5277.7009721229078
 21
1384.4540220603087
 31
0.0
 11
5278.3999967216732
 21
1384.6465796232951
 31
0.0
  0
SPLINE
  5
37F
100
AcDbEntity
  8
0
  6
CONTINUOUS
 62
           3
100
AcDbSpline
210
0.0
220
0.0
230
1.0
 70
           0
 71
           3
 72
           8
 73
           5
 74
           7
 42
0.00000000001
 43
0.00000000001
 44
0.00000000001
 40
0.0
 40
0.0
 40
0.0
 40
0.4813883392837732
 40
1.3325653926426628
 40
2.5594910488302065
 40
2.5594910488302065
 40
2.5594910488302065
 10
5280.8999966657611
 20
1384.1999992729
 30
0.0
 10
5280.959261471944
 20
1384.2004449713099
 30
0.0
 10
5281.8034813132908
 20
1384.2067938900659
 30
0.0
 10
5282.630777332779
 20
1384.4346858415561
 30
0.0
 10
5283.3999966098636
 20
1384.6465796233019
 30
0.0
 11
5280.8999966657611
 21
1384.1999992729
 31
0.0
 11
5281.0206887308796
 21
1384.2009069323499
 31
0.0
 11
5281.2642353138735
 21
1384.2027385138806
 31
0.0
 11
5281.753383550742
 21
1384.2291158030619
 31
0.0
 11
5282.1423362625137
 21
1384.3001369182341
 31
0.0
 11
5282.7009718844838
 21
1384.4540220561621
 31
0.0
 11
5283.3999966098636
 21
1384.6465796233019
 31
0.0
  0
SPLINE
  5
37E
100
AcDbEntity
  8
0
  6
CONTINUOUS
 62
           3
100
AcDbSpline
210
0.0
220
0.0
230
1.0
 70
           0
 71
           3
 72
           8
 73
           5
 74
           7
 42
0.00000000001
 43
0.00000000001
 44
0.00000000001
 40
0.0
 40
0.0
 40
0.0
 40
0.0169507227490158
 40
0.1476151553705449
 40
0.4465803504019732
 40
0.4465803504019732
 40
0.4465803504019732
 10
5273.3999968334319
 20
1384.1999992729
 30
0.0
 10
5273.3999968334319
 20
1384.205607698183
 30
0.0
 10
5273.3999968334319
 20
1384.2282922931149
 30
0.0
 10
5273.3999968334319
 20
1384.4669365634261
 30
0.0
 10
5273.399996833472
 20
1384.6465796233019
 30
0.0
 11
5273.3999968334319
 21
1384.1999992729
 31
0.0
 11
5273.3999968334319
 21
1384.2048568127318
 31
0.0
 11
5273.3999968334319
 21
1384.2082125816612
 31
0.0
 11
5273.3999968334319
 21
1384.2414172487579
 31
0.0
 11
5273.3999968334319
 21
1384.3008718271403
 31
0.0
 11
5273.3999968334419
 21
1384.4703311443236
 31
0.0
 11
5273.399996833472
 21
1384.6465796233019
 31
0.0
  0
SPLINE
  5
37D
100
AcDbEntity
  8
0
  6
CONTINUOUS
 62
           3
100
AcDbSpline
210
0.0
220
0.0
230
1.0
 70
           0
 71
           3
 72
           8
 73
           5
 74
           7
 42
0.00000000001
 43
0.00000000001
 44
0.00000000001
 40
0.0
 40
0.0
 40
0.0
 40
0.2989651950314283
 40
0.4296296276529574
 40
0.4465803504019732
 40
0.4465803504019732
 40
0.4465803504019732
 10
5283.3999966098636
 20
1384.6465796233019
 30
0.0
 10
5283.3999966099109
 20
1384.4669365634261
 30
0.0
 10
5283.3999966099109
 20
1384.2282922931149
 30
0.0
 10
5283.3999966099109
 20
1384.205607698183
 30
0.0
 10
5283.3999966099109
 20
1384.1999992729
 30
0.0
 11
5283.3999966098636
 21
1384.6465796233019
 31
0.0
 11
5283.3999966098982
 21
1384.4703311443234
 31
0.0
 11
5283.3999966099109
 21
1384.3008718271403
 31
0.0
 11
5283.3999966099109
 21
1384.2414172487579
 31
0.0
 11
5283.3999966099109
 21
1384.2082125816614
 31
0.0
 11
5283.3999966099109
 21
1384.2048568127318
 31
0.0
 11
5283.3999966099109
 21
1384.1999992729
 31
0.0
  0
CIRCLE
  5
37C
100
AcDbEntity
  8
1
  6
CONTINUOUS
 62
           7
100
AcDbCircle
 10
0.0
 20
5835.0
 40
400.0
  0
CIRCLE
  5
37B
100
AcDbEntity
  8
1
  6
CONTINUOUS
 62
           4
100
AcDbCircle
 10
0.0
 20
5835.0
 40
117.5
  0
CIRCLE
  5
37A
100
AcDbEntity
  8
1
  6
CONTINUOUS
 62
           4
100
AcDbCircle
 10
0.0
 20
5835.0
 40
145.0
  0
CIRCLE
  5
379
100
AcDbEntity
  8
1
  6
CONTINUOUS
 62
           7
100
AcDbCircle
 10
0.0
 20
5835.0
 40
175.0
  0
CIRCLE
  5
378
100
AcDbEntity
  8
1
  6
CONTINUOUS
 62
           7
100
AcDbCircle
 10
5662.499999999999
 20
600.0
 40
15.0
  0
CIRCLE
  5
377
100
AcDbEntity
  8
1
  6
CONTINUOUS
 62
           2
100
AcDbCircle
 10
5662.499999999999
 20
600.0
 40
8.350000000001
  0
CIRCLE
  5
376
100
AcDbEntity
  8
1
  6
CONTINUOUS
 62
           7
100
AcDbCircle
 10
5662.499999999999
 20
600.0
 40
7.5
  0
CIRCLE
  5
375
100
AcDbEntity
  8
1
  6
CONTINUOUS
 62
           3
100
AcDbCircle
 10
-1241.527744678122
 20
1295.20084832705
 40
40.0
  0
ARC
  5
374
100
AcDbEntity
  8
7
  6
CONTINUOUS
 62
           7
100
AcDbCircle
 10
5684.334848
 20
3177.0
 40
3.0
100
AcDbArc
 50
-90.0
 51
-55.000000000011
  0
ARC
  5
373
100
AcDbEntity
  8
7
  6
CONTINUOUS
 62
           7
100
AcDbCircle
 10
5683.2
 20
3170.799999999999
 40
3.200000000001
100
AcDbArc
 50
90.0
 51
180.0
  0
ARC
  5
372
100
AcDbEntity
  8
7
  6
CONTINUOUS
 62
           7
100
AcDbCircle
 10
5702.839735999999
 20
3197.041133999999
 40
1.999999999999
100
AcDbArc
 50
-54.999999999941
 51
-5.310029000059
  0
ARC
  5
371
100
AcDbEntity
  8
7
  6
CONTINUOUS
 62
           7
100
AcDbCircle
 10
5708.039736
 20
3196.799999999999
 40
3.200000000001
100
AcDbArc
 50
90.0
 51
174.689970999988
  0
ARC
  5
370
100
AcDbEntity
  8
7
  6
CONTINUOUS
 62
           7
100
AcDbCircle
 10
5960.665152999999
 20
3177.0
 40
3.000000000001
100
AcDbArc
 50
-124.999999999974
 51
-90.0
  0
ARC
  5
36F
100
AcDbEntity
  8
7
  6
CONTINUOUS
 62
           7
100
AcDbCircle
 10
5961.8
 20
3170.799999999999
 40
3.199999999999
100
AcDbArc
 50
0.0
 51
90.0
  0
ARC
  5
36E
100
AcDbEntity
  8
7
  6
CONTINUOUS
 62
           7
100
AcDbCircle
 10
5942.160263000001
 20
3197.041133999999
 40
2.000000000002
100
AcDbArc
 50
-174.689970999941
 51
-125.000000000059
  0
ARC
  5
36D
100
AcDbEntity
  8
7
  6
CONTINUOUS
 62
           7
100
AcDbCircle
 10
5936.960263
 20
3196.799999999999
 40
3.2
100
AcDbArc
 50
5.31002900001
 51
90.0
  0
ARC
  5
36C
100
AcDbEntity
  8
7
  6
CONTINUOUS
 62
           7
100
AcDbCircle
 10
5967.249999999999
 20
3137.625000001462
 40
2.310438270445
100
AcDbArc
 50
-166.865977658294
 51
-115.939287658323
  0
ARC
  5
36B
100
AcDbEntity
  8
7
  6
CONTINUOUS
 62
           7
100
AcDbCircle
 10
5964.3
 20
3133.0
 40
3.199999999999
100
AcDbArc
 50
0.0
 51
50.926690000005
  0
ARC
  5
36A
100
AcDbEntity
  8
7
  6
CONTINUOUS
 62
           7
100
AcDbCircle
 10
5680.95
 20
3132.474999998541
 40
3.489717037458
100
AcDbArc
 50
120.420768185186
 51
171.347458185206
  0
ARC
  5
369
100
AcDbEntity
  8
7
  6
CONTINUOUS
 62
           7
100
AcDbCircle
 10
5677.999999999999
 20
3137.1
 40
2.0
100
AcDbArc
 50
-50.926689999965
 51
0.0
  0
ARC
  5
368
100
AcDbEntity
  8
7
  6
CONTINUOUS
 62
           7
100
AcDbCircle
 10
144.5
 20
3137.1
 40
2.0
100
AcDbArc
 50
180.0
 51
-129.073310000015
  0
ARC
  5
367
100
AcDbEntity
  8
7
  6
CONTINUOUS
 62
           7
100
AcDbCircle
 10
141.549999999999
 20
3132.474999998541
 40
3.48971703746
100
AcDbArc
 50
8.652541814793
 51
59.579231814815
  0
ARC
  5
366
100
AcDbEntity
  8
7
  6
CONTINUOUS
 62
           7
100
AcDbCircle
 10
-141.800000000001
 20
3133.0
 40
3.200000000002
100
AcDbArc
 50
129.073309999987
 51
180.0
  0
ARC
  5
365
100
AcDbEntity
  8
7
  6
CONTINUOUS
 62
           7
100
AcDbCircle
 10
-144.750000000001
 20
3137.625000001463
 40
2.310438270446
100
AcDbArc
 50
-64.060712341686
 51
-13.134022341728
  0
ARC
  5
364
100
AcDbEntity
  8
7
  6
CONTINUOUS
 62
           7
100
AcDbCircle
 10
-114.460263
 20
3196.799999999998
 40
3.200000000002
100
AcDbArc
 50
90.0
 51
174.689970999958
  0
ARC
  5
363
100
AcDbEntity
  8
7
  6
CONTINUOUS
 62
           7
100
AcDbCircle
 10
-119.660263000001
 20
3197.041134000001
 40
2.0
100
AcDbArc
 50
-54.999999999994
 51
-5.310029000061
  0
ARC
  5
362
100
AcDbEntity
  8
7
  6
CONTINUOUS
 62
           7
100
AcDbCircle
 10
-139.300000000001
 20
3170.799999999998
 40
3.200000000002
100
AcDbArc
 50
90.0
 51
180.0
  0
ARC
  5
361
100
AcDbEntity
  8
7
  6
CONTINUOUS
 62
           7
100
AcDbCircle
 10
-138.165153
 20
3177.0
 40
3.0
100
AcDbArc
 50
-90.0
 51
-55.00000000002
  0
ARC
  5
360
100
AcDbEntity
  8
7
  6
CONTINUOUS
 62
           7
100
AcDbCircle
 10
114.460264
 20
3196.799999999998
 40
3.2
100
AcDbArc
 50
5.310029000044
 51
90.0
  0
ARC
  5
35F
100
AcDbEntity
  8
7
  6
CONTINUOUS
 62
           7
100
AcDbCircle
 10
119.660264
 20
3197.041134000001
 40
2.000000000001
100
AcDbArc
 50
-174.689970999938
 51
-125.000000000006
  0
ARC
  5
35E
100
AcDbEntity
  8
7
  6
CONTINUOUS
 62
           7
100
AcDbCircle
 10
139.299999999999
 20
3170.799999999998
 40
3.2
100
AcDbArc
 50
0.0
 51
90.0
  0
ARC
  5
35D
100
AcDbEntity
  8
7
  6
CONTINUOUS
 62
           7
100
AcDbCircle
 10
138.165151999999
 20
3177.0
 40
3.000000000002
100
AcDbArc
 50
-124.999999999977
 51
-90.0
  0
ARC
  5
35C
100
AcDbEntity
  8
0
  6
CONTINUOUS
 62
           7
100
AcDbCircle
 10
-68.000000000001
 20
5804.999999999998
 40
670.0
100
AcDbArc
 50
-90.0
 51
-65.560184603745
  0
ARC
  5
35B
100
AcDbEntity
  8
0
  6
CONTINUOUS
 62
           7
100
AcDbCircle
 10
44.999999999999
 20
5852.0
 40
469.999999999995
100
AcDbArc
 50
73.766596122265
 51
91.7405042324
  0
ARC
  5
35A
100
AcDbEntity
  8
0
  6
CONTINUOUS
 62
           7
100
AcDbCircle
 10
40.018279316733
 20
5765.0
 40
550.0
100
AcDbArc
 50
19.235892312416
 51
32.0167313156
  0
ARC
  5
359
100
AcDbEntity
  8
0
  6
CONTINUOUS
 62
           7
100
AcDbCircle
 10
-73.065287554536
 20
5885.456436540922
 40
750.473530701588
100
AcDbArc
 50
-175.763021490042
 51
-89.613281760693
  0
ARC
  5
358
100
AcDbEntity
  8
1
  6
CONTINUOUS
 62
           7
100
AcDbCircle
 10
-821.804904288239
 20
5835.0
 40
5.0
100
AcDbArc
 50
-86.36353044751
 51
93.208888116186
  0
ARC
  5
357
100
AcDbEntity
  8
0
  6
CONTINUOUS
 62
           7
100
AcDbCircle
 10
-153.000000000002
 20
5875.0
 40
670.0
100
AcDbArc
 50
180.0
 51
-177.004902602006
  0
ARC
  5
356
100
AcDbEntity
  8
1
  6
CONTINUOUS
 62
           7
100
AcDbCircle
 10
560.937688295461
 20
5941.4737072463
 40
4.999999999997
100
AcDbArc
 50
108.975456054178
 51
-71.545416462339
  0
ARC
  5
355
100
AcDbEntity
  8
0
  6
CONTINUOUS
 62
           7
100
AcDbCircle
 10
40.009260634159
 20
5765.056493636275
 40
549.990931231541
100
AcDbArc
 50
0.047858441198
 51
18.188262890001
  0
ARC
  5
354
100
AcDbEntity
  8
0
  6
CONTINUOUS
 62
           7
100
AcDbCircle
 10
-45.556018666515
 20
5777.719433636255
 40
635.943732327677
100
AcDbArc
 50
-66.384222171459
 51
-2.000810249325
  0
ARC
  5
353
100
AcDbEntity
  8
1
  6
CONTINUOUS
 62
           7
100
AcDbCircle
 10
590.022726517383
 20
5760.516111890456
 40
4.999833824393
100
AcDbArc
 50
90.260436258245
 51
-90.260436258245
  0
ARC
  5
352
100
AcDbEntity
  8
1
  6
CONTINUOUS
 62
           7
100
AcDbCircle
 10
181.182082628214
 20
6301.83823800455
 40
5.0
100
AcDbArc
 50
163.461829900472
 51
-17.147702543133
  0
ARC
  5
351
100
AcDbEntity
  8
0
  6
CONTINUOUS
 62
           7
100
AcDbCircle
 10
21.782943312384
 20
5752.136382018492
 40
572.282825445527
100
AcDbArc
 50
32.140798007649
 51
73.328702057894
  0
ARC
  5
350
100
AcDbEntity
  8
0
  6
CONTINUOUS
 62
           3
100
AcDbCircle
 10
5278.399996721673
 20
1355.000000000222
 40
4.0
100
AcDbArc
 50
180.0
 51
0.0
  0
ARC
  5
34F
100
AcDbEntity
  8
0
  6
CONTINUOUS
 62
           3
100
AcDbCircle
 10
5278.399996721673
 20
1315.000000000058
 40
45.999999999971
100
AcDbArc
 50
180.0
 51
0.0
  0
ARC
  5
34E
100
AcDbEntity
  8
0
  6
CONTINUOUS
 62
           3
100
AcDbCircle
 10
5278.399996721673
 20
1315.000000000058
 40
53.999999999964
100
AcDbArc
 50
180.0
 51
0.0
  0
ARC
  5
34D
100
AcDbEntity
  8
0
  6
CONTINUOUS
 62
           3
100
AcDbCircle
 10
5271.926494029871
 20
1389.999999999996
 40
0.9
100
AcDbArc
 50
-117.266044450493
 51
-90.0
  0
ARC
  5
34C
100
AcDbEntity
  8
0
  6
CONTINUOUS
 62
           3
100
AcDbCircle
 10
5284.873499413461
 20
1389.999999999996
 40
0.900000000001
100
AcDbArc
 50
-90.0
 51
-62.733955549507
  0
ARC
  5
34B
100
AcDbEntity
  8
0
  6
CONTINUOUS
 62
           3
100
AcDbCircle
 10
5220.399996721812
 20
1530.99999999988
 40
0.999999999996
100
AcDbArc
 50
-90.0
 51
90.0
  0
ARC
  5
34A
100
AcDbEntity
  8
0
  6
CONTINUOUS
 62
           3
100
AcDbCircle
 10
5336.39999672152
 20
1530.99999999988
 40
1.0
100
AcDbArc
 50
90.0
 51
-90.0
  0
ARC
  5
349
100
AcDbEntity
  8
0
  6
CONTINUOUS
 62
           3
100
AcDbCircle
 10
5336.39999672152
 20
1508.999999999996
 40
1.0
100
AcDbArc
 50
90.0
 51
-90.0
  0
ARC
  5
348
100
AcDbEntity
  8
0
  6
CONTINUOUS
 62
           3
100
AcDbCircle
 10
5336.39999672152
 20
1431.000000000062
 40
0.999999999996
100
AcDbArc
 50
90.0
 51
-90.0
  0
ARC
  5
347
100
AcDbEntity
  8
0
  6
CONTINUOUS
 62
           3
100
AcDbCircle
 10
5336.39999672152
 20
1409.000000000178
 40
1.0
100
AcDbArc
 50
90.0
 51
-90.0
  0
ARC
  5
346
100
AcDbEntity
  8
0
  6
CONTINUOUS
 62
           3
100
AcDbCircle
 10
5220.399996721812
 20
1409.000000000178
 40
0.999999999996
100
AcDbArc
 50
-90.0
 51
90.0
  0
ARC
  5
345
100
AcDbEntity
  8
0
  6
CONTINUOUS
 62
           3
100
AcDbCircle
 10
5220.399996721812
 20
1431.000000000062
 40
1.0
100
AcDbArc
 50
-90.0
 51
90.0
  0
ARC
  5
344
100
AcDbEntity
  8
0
  6
CONTINUOUS
 62
           3
100
AcDbCircle
 10
5220.399996721812
 20
1508.999999999996
 40
0.999999999996
100
AcDbArc
 50
-90.0
 51
90.0
  0
ARC
  5
343
100
AcDbEntity
  8
0
  6
CONTINUOUS
 62
           3
100
AcDbCircle
 10
5215.899996721822
 20
1368.000000000113
 40
2.49999999999
100
AcDbArc
 50
0.0
 51
180.0
  0
ARC
  5
342
100
AcDbEntity
  8
0
  6
CONTINUOUS
 62
           3
100
AcDbCircle
 10
5215.899996721822
 20
1631.999999999898
 40
2.5
100
AcDbArc
 50
180.0
 51
0.0
  0
ARC
  5
341
100
AcDbEntity
  8
0
  6
CONTINUOUS
 62
           3
100
AcDbCircle
 10
5340.899996721513
 20
1631.999999999898
 40
2.499999999993
100
AcDbArc
 50
180.0
 51
0.0
  0
ARC
  5
340
100
AcDbEntity
  8
0
  6
CONTINUOUS
 62
           3
100
AcDbCircle
 10
5340.899996721513
 20
1368.000000000113
 40
2.5
100
AcDbArc
 50
0.0
 51
180.0
  0
ARC
  5
33F
100
AcDbEntity
  8
1
  6
CONTINUOUS
 62
           3
100
AcDbCircle
 10
5782.663567691041
 20
1925.0
 40
5.871834995066
100
AcDbArc
 50
-90.0
 51
0.0
  0
ARC
  5
33E
100
AcDbEntity
  8
1
  6
CONTINUOUS
 62
           3
100
AcDbCircle
 10
5782.663567691041
 20
1925.0
 40
5.871834995069
100
AcDbArc
 50
38.599713917924
 51
90.0
  0
ARC
  5
33D
100
AcDbEntity
  8
1
  6
CONTINUOUS
 62
           3
100
AcDbCircle
 10
5782.663567691041
 20
1925.0
 40
5.871834995061
100
AcDbArc
 50
0.0
 51
38.599713917924
  0
ARC
  5
33C
100
AcDbEntity
  8
1
  6
CONTINUOUS
 62
           3
100
AcDbCircle
 10
5782.663567691041
 20
1925.0
 40
9.5
100
AcDbArc
 50
0.0
 51
125.916957371441
  0
ARC
  5
33B
100
AcDbEntity
  8
1
  6
CONTINUOUS
 62
           3
100
AcDbCircle
 10
5782.663567691041
 20
1925.0
 40
9.499999999999
100
AcDbArc
 50
-124.797812779177
 51
0.0
  0
ARC
  5
33A
100
AcDbEntity
  8
1
  6
CONTINUOUS
 62
           3
100
AcDbCircle
 10
-1238.490241678123
 20
1267.114622327059
 40
0.500000000002
100
AcDbArc
 50
-83.827497998178
 51
-5.00679300022
  0
ARC
  5
339
100
AcDbEntity
  8
1
  6
CONTINUOUS
 62
           3
100
AcDbCircle
 10
-1244.565247678122
 20
1267.114622327059
 40
0.499999999996
100
AcDbArc
 50
-174.9932069997
 51
-96.172501999309
  0
ARC
  5
338
100
AcDbEntity
  8
1
  6
CONTINUOUS
 62
           3
100
AcDbCircle
 10
-1238.490241678123
 20
1323.287074327051
 40
0.500000000005
100
AcDbArc
 50
5.006793001258
 51
83.827497998167
  0
ARC
  5
337
100
AcDbEntity
  8
1
  6
CONTINUOUS
 62
           3
100
AcDbCircle
 10
-1244.565247678122
 20
1323.287074327051
 40
0.499999999999
100
AcDbArc
 50
96.17250199932
 51
174.993206998662
  0
ARC
  5
336
100
AcDbEntity
  8
1
  6
CONTINUOUS
 62
           3
100
AcDbCircle
 10
-1245.566047678116
 20
1295.20084832705
 40
9.999999999999
100
AcDbArc
 50
-5.006792999977
 51
5.006793000024
  0
ARC
  5
335
100
AcDbEntity
  8
1
  6
CONTINUOUS
 62
           3
100
AcDbCircle
 10
-1237.489442678122
 20
1295.20084832705
 40
10.0
100
AcDbArc
 50
174.993206999976
 51
-174.993207000022
  0
ARC
  5
334
100
AcDbEntity
  8
1
  6
CONTINUOUS
 62
           3
100
AcDbCircle
 10
-1241.527744678122
 20
1295.20084832705
 40
10.74999999999
100
AcDbArc
 50
118.773506999971
 51
-118.773506999951
  0
ARC
  5
333
100
AcDbEntity
  8
1
  6
CONTINUOUS
 62
           3
100
AcDbCircle
 10
-1241.527744678122
 20
1295.20084832705
 40
10.75
100
AcDbArc
 50
-61.226493000021
 51
0.0
  0
ARC
  5
332
100
AcDbEntity
  8
1
  6
CONTINUOUS
 62
           3
100
AcDbCircle
 10
-1241.527744678122
 20
1295.20084832705
 40
10.75
100
AcDbArc
 50
0.0
 51
61.226493000001
  0
ARC
  5
331
100
AcDbEntity
  8
1
  6
CONTINUOUS
 62
           3
100
AcDbCircle
 10
-1241.527744678122
 20
1295.20084832705
 40
28.749999999988
100
AcDbArc
 50
-96.172501999994
 51
-83.827497999994
  0
ARC
  5
330
100
AcDbEntity
  8
1
  6
CONTINUOUS
 62
           3
100
AcDbCircle
 10
-1241.527744678122
 20
1295.20084832705
 40
28.75000000001
100
AcDbArc
 50
83.827497999999
 51
96.172501999989
  0
LINE
  5
32F
100
AcDbEntity
  8
6
  6
CONTINUOUS
 62
           7
100
AcDbLine
 10
5688.999999999999
 20
2768.199999999997
 11
5688.999999999999
 21
2794.200000000001
  0
LINE
  5
32E
100
AcDbEntity
  8
1
  6
CONTINUOUS
 62
           7
100
AcDbLine
 10
5955.999999999999
 20
2768.199999999997
 11
5955.999999999999
 21
2794.200000000001
  0
LINE
  5
32D
100
AcDbEntity
  8
7
  6
CONTINUOUS
 62
           7
100
AcDbLine
 10
5703.986888999999
 20
3195.402829999999
 11
5686.055577
 21
3174.542544
  0
LINE
  5
32C
100
AcDbEntity
  8
7
  6
CONTINUOUS
 62
           7
100
AcDbLine
 10
5680.000000000001
 20
3170.799999999999
 11
5679.999999999999
 21
3137.1
  0
LINE
  5
32B
100
AcDbEntity
  8
7
  6
CONTINUOUS
 62
           7
100
AcDbLine
 10
5704.853468999999
 20
3197.096143999999
 11
5704.831153
 21
3196.856043999998
  0
LINE
  5
32A
100
AcDbEntity
  8
7
  6
CONTINUOUS
 62
           7
100
AcDbLine
 10
5941.013110999999
 20
3195.402829999999
 11
5958.944424
 21
3174.542544
  0
LINE
  5
329
100
AcDbEntity
  8
7
  6
CONTINUOUS
 62
           7
100
AcDbLine
 10
5964.999999999999
 20
3170.799999999999
 11
5964.999999999999
 21
3137.1
  0
LINE
  5
328
100
AcDbEntity
  8
7
  6
CONTINUOUS
 62
           7
100
AcDbLine
 10
5940.146530999999
 20
3197.096143999999
 11
5940.168846
 21
3196.856043999998
  0
LINE
  5
327
100
AcDbEntity
  8
7
  6
CONTINUOUS
 62
           7
100
AcDbLine
 10
5967.499999999999
 20
3133.0
 11
5967.499999999999
 21
3095.0
  0
LINE
  5
326
100
AcDbEntity
  8
7
  6
CONTINUOUS
 62
           7
100
AcDbLine
 10
5966.239371999999
 20
3135.547319999998
 11
5966.317006
 21
3135.484288000001
  0
LINE
  5
325
100
AcDbEntity
  8
2
  6
CONTINUOUS
 62
           7
100
AcDbLine
 10
5671.423807
 20
3081.0
 11
5671.423807
 21
2826.200000000001
  0
LINE
  5
324
100
AcDbEntity
  8
2
  6
CONTINUOUS
 62
           7
100
AcDbLine
 10
5688.942013999999
 20
2794.200000000001
 11
5671.423807
 21
2826.200000000001
  0
LINE
  5
323
100
AcDbEntity
  8
2
  6
CONTINUOUS
 62
           7
100
AcDbLine
 10
5679.088021999999
 20
3095.0
 11
5671.423807
 21
3081.0
  0
LINE
  5
322
100
AcDbEntity
  8
2
  6
CONTINUOUS
 62
           7
100
AcDbLine
 10
5973.576193
 20
2826.199999999997
 11
5972.547587
 21
2826.199999999997
  0
LINE
  5
321
100
AcDbEntity
  8
2
  6
CONTINUOUS
 62
           7
100
AcDbLine
 10
5973.576193
 20
3081.0
 11
5965.911977999999
 21
3095.0
  0
LINE
  5
320
100
AcDbEntity
  8
2
  6
CONTINUOUS
 62
           7
100
AcDbLine
 10
5973.576193
 20
2826.199999999997
 11
5956.057985999999
 21
2794.200000000001
  0
LINE
  5
31F
100
AcDbEntity
  8
2
  6
CONTINUOUS
 62
           7
100
AcDbLine
 10
5973.576193
 20
2826.199999999997
 11
5973.576193
 21
3081.0
  0
LINE
  5
31E
100
AcDbEntity
  8
7
  6
CONTINUOUS
 62
           7
100
AcDbLine
 10
5679.182994
 20
3135.484288000001
 11
5679.260627999999
 21
3135.547319999998
  0
LINE
  5
31D
100
AcDbEntity
  8
7
  6
CONTINUOUS
 62
           7
100
AcDbLine
 10
5677.499999999999
 20
3095.0
 11
5677.499999999999
 21
3133.0
  0
LINE
  5
31C
100
AcDbEntity
  8
2
  6
CONTINUOUS
 62
           4
100
AcDbLine
 10
5688.999999999999
 20
2784.200000000001
 11
5955.999999999999
 21
2784.200000000001
  0
LINE
  5
31B
100
AcDbEntity
  8
1
  6
CONTINUOUS
 62
           4
100
AcDbLine
 10
6236.799999999998
 20
2081.0
 11
6236.799999999998
 21
2075.0
  0
LINE
  5
31A
100
AcDbEntity
  8
1
  6
CONTINUOUS
 62
           4
100
AcDbLine
 10
5408.199999999999
 20
2075.0
 11
5408.199999999999
 21
2081.0
  0
LINE
  5
319
100
AcDbEntity
  8
1
  6
CONTINUOUS
 62
           7
100
AcDbLine
 10
6236.799999999998
 20
2075.0
 11
5408.199999999999
 21
2075.0
  0
LINE
  5
318
100
AcDbEntity
  8
1
  6
CONTINUOUS
 62
           4
100
AcDbLine
 10
5408.199999999999
 20
2081.0
 11
6236.799999999998
 21
2081.0
  0
LINE
  5
317
100
AcDbEntity
  8
0
  6
CONTINUOUS
 62
           7
100
AcDbLine
 10
6197.499999999999
 20
2081.0
 11
6197.499999999999
 21
2137.799999999999
  0
LINE
  5
316
100
AcDbEntity
  8
0
  6
CONTINUOUS
 62
           7
100
AcDbLine
 10
5447.5
 20
2137.799999999999
 11
5447.499999999998
 21
2081.0
  0
LINE
  5
315
100
AcDbEntity
  8
1
  6
CONTINUOUS
 62
           4
100
AcDbLine
 10
5562.499999999999
 20
2763.199999999997
 11
5562.499999999999
 21
2762.199999999997
  0
LINE
  5
314
100
AcDbEntity
  8
1
  6
CONTINUOUS
 62
           4
100
AcDbLine
 10
6082.499999999999
 20
2763.199999999997
 11
6082.499999999999
 21
2762.199999999997
  0
LINE
  5
313
100
AcDbEntity
  8
1
  6
CONTINUOUS
 62
           4
100
AcDbLine
 10
6077.499999999999
 20
2768.199999999997
 11
6082.499999999999
 21
2763.199999999997
  0
LINE
  5
312
100
AcDbEntity
  8
1
  6
CONTINUOUS
 62
           4
100
AcDbLine
 10
6077.499999999999
 20
2768.199999999997
 11
5567.499999999999
 21
2768.199999999997
  0
LINE
  5
311
100
AcDbEntity
  8
1
  6
CONTINUOUS
 62
           4
100
AcDbLine
 10
5562.499999999999
 20
2763.199999999997
 11
5567.499999999999
 21
2768.199999999997
  0
LINE
  5
310
100
AcDbEntity
  8
976
  6
CONTINUOUS
 62
           7
100
AcDbLine
 10
6368.940677966101
 20
2762.199999999997
 11
5930.500159772887
 21
2762.199999999997
  0
LINE
  5
30F
100
AcDbEntity
  8
976
  6
CONTINUOUS
 62
           7
100
AcDbLine
 10
6372.5
 20
2175.799999999999
 11
5077.288529667961
 21
2175.799999999999
  0
LINE
  5
30E
100
AcDbEntity
  8
976
  6
CONTINUOUS
 62
           7
100
AcDbLine
 10
6372.5
 20
2175.799999999999
 11
6372.499999999999
 21
2142.799999999999
  0
LINE
  5
30D
100
AcDbEntity
  8
976
  6
CONTINUOUS
 62
           7
100
AcDbLine
 10
5077.288529667961
 20
2137.799999999999
 11
5747.722691958726
 21
2137.799999999999
  0
LINE
  5
30C
100
AcDbEntity
  8
976
  6
CONTINUOUS
 62
           7
100
AcDbLine
 10
5077.288529667961
 20
2724.199999999997
 11
5077.288529667961
 21
2762.199999999997
  0
LINE
  5
30B
100
AcDbEntity
  8
976
  6
CONTINUOUS
 62
           7
100
AcDbLine
 10
5077.288529667961
 20
2137.799999999999
 11
5077.288529667961
 21
2175.799999999999
  0
LINE
  5
30A
100
AcDbEntity
  8
1
  6
CONTINUOUS
 62
           7
100
AcDbLine
 10
6372.500000000001
 20
2757.199999999997
 11
6368.940677966101
 21
2762.199999999997
  0
LINE
  5
309
100
AcDbEntity
  8
1
  6
CONTINUOUS
 62
           7
100
AcDbLine
 10
6372.499999999999
 20
2142.799999999999
 11
6368.940677966101
 21
2137.799999999999
  0
LINE
  5
308
100
AcDbEntity
  8
1
  6
CONTINUOUS
 62
           7
100
AcDbLine
 10
6452.5
 20
2725.0
 11
6417.999999999999
 21
2725.0
  0
LINE
  5
307
100
AcDbEntity
  8
1
  6
CONTINUOUS
 62
           7
100
AcDbLine
 10
6406.999999999999
 20
2725.0
 11
6372.5
 21
2725.0
  0
LINE
  5
306
100
AcDbEntity
  8
1
  6
CONTINUOUS
 62
           7
100
AcDbLine
 10
6372.5
 20
2175.0
 11
6406.999999999999
 21
2175.0
  0
LINE
  5
305
100
AcDbEntity
  8
1
  6
CONTINUOUS
 62
           7
100
AcDbLine
 10
5122.499999999999
 20
2724.199999999997
 11
5122.499999999999
 21
2175.799999999999
  0
LINE
  5
304
100
AcDbEntity
  8
1
  6
CONTINUOUS
 62
           7
100
AcDbLine
 10
6412.5
 20
2725.0
 11
6452.5
 21
2725.0
  0
LINE
  5
303
100
AcDbEntity
  8
1
  6
CONTINUOUS
 62
           7
100
AcDbLine
 10
6372.499999999999
 20
2170.5
 11
6372.499999999999
 21
2729.5
  0
LINE
  5
302
100
AcDbEntity
  8
1
  6
CONTINUOUS
 62
           7
100
AcDbLine
 10
6372.5
 20
2725.0
 11
6412.5
 21
2725.0
  0
LINE
  5
301
100
AcDbEntity
  8
1
  6
CONTINUOUS
 62
           7
100
AcDbLine
 10
6412.5
 20
2175.0
 11
6372.5
 21
2175.0
  0
LINE
  5
300
100
AcDbEntity
  8
1
  6
CONTINUOUS
 62
           4
100
AcDbLine
 10
6408.199999999998
 20
2725.0
 11
6408.199999999998
 21
2175.0
  0
LINE
  5
2FF
100
AcDbEntity
  8
1
  6
CONTINUOUS
 62
           4
100
AcDbLine
 10
6416.799999999998
 20
2175.0
 11
6416.799999999998
 21
2725.0
  0
LINE
  5
2FE
100
AcDbEntity
  8
1
  6
CONTINUOUS
 62
           7
100
AcDbLine
 10
6412.499999999999
 20
2765.0
 11
6412.499999999999
 21
2135.0
  0
LINE
  5
2FD
100
AcDbEntity
  8
1
  6
CONTINUOUS
 62
           4
100
AcDbLine
 10
6416.999999999999
 20
2730.5
 11
6416.999999999999
 21
2765.0
  0
LINE
  5
2FC
100
AcDbEntity
  8
1
  6
CONTINUOUS
 62
           4
100
AcDbLine
 10
6416.999999999999
 20
2765.0
 11
6412.499999999999
 21
2765.0
  0
LINE
  5
2FB
100
AcDbEntity
  8
1
  6
CONTINUOUS
 62
           4
100
AcDbLine
 10
6412.499999999999
 20
2765.0
 11
6407.999999999999
 21
2765.0
  0
LINE
  5
2FA
100
AcDbEntity
  8
1
  6
CONTINUOUS
 62
           4
100
AcDbLine
 10
6407.999999999999
 20
2765.0
 11
6407.999999999999
 21
2730.5
  0
LINE
  5
2F9
100
AcDbEntity
  8
1
  6
CONTINUOUS
 62
           4
100
AcDbLine
 10
6372.499999999999
 20
2729.5
 11
6406.999999999999
 21
2729.5
  0
LINE
  5
2F8
100
AcDbEntity
  8
1
  6
CONTINUOUS
 62
           4
100
AcDbLine
 10
6412.499999999999
 20
2135.0
 11
6416.999999999999
 21
2135.0
  0
LINE
  5
2F7
100
AcDbEntity
  8
1
  6
CONTINUOUS
 62
           4
100
AcDbLine
 10
6416.999999999999
 20
2135.0
 11
6416.999999999999
 21
2169.5
  0
LINE
  5
2F6
100
AcDbEntity
  8
1
  6
CONTINUOUS
 62
           4
100
AcDbLine
 10
6452.499999999999
 20
2170.5
 11
6417.999999999999
 21
2170.5
  0
LINE
  5
2F5
100
AcDbEntity
  8
1
  6
CONTINUOUS
 62
           4
100
AcDbLine
 10
6407.999999999999
 20
2169.5
 11
6407.999999999999
 21
2135.0
  0
LINE
  5
2F4
100
AcDbEntity
  8
1
  6
CONTINUOUS
 62
           4
100
AcDbLine
 10
6407.999999999999
 20
2135.0
 11
6412.499999999999
 21
2135.0
  0
LINE
  5
2F3
100
AcDbEntity
  8
1
  6
CONTINUOUS
 62
           7
100
AcDbLine
 10
6417.999999999999
 20
2175.0
 11
6452.5
 21
2175.0
  0
LINE
  5
2F2
100
AcDbEntity
  8
1
  6
CONTINUOUS
 62
           4
100
AcDbLine
 10
6406.999999999999
 20
2170.5
 11
6372.499999999999
 21
2170.5
  0
LINE
  5
2F1
100
AcDbEntity
  8
1
  6
CONTINUOUS
 62
           7
100
AcDbLine
 10
5877.499999999999
 20
2824.199999999997
 11
5767.499999999999
 21
2824.199999999997
  0
LINE
  5
2F0
100
AcDbEntity
  8
1
  6
CONTINUOUS
 62
           7
100
AcDbLine
 10
5767.499999999999
 20
2944.199999999997
 11
5877.499999999999
 21
2944.199999999997
  0
LINE
  5
2EF
100
AcDbEntity
  8
1
  6
CONTINUOUS
 62
           7
100
AcDbLine
 10
5887.499999999999
 20
2934.199999999997
 11
5887.499999999999
 21
2834.199999999997
  0
LINE
  5
2EE
100
AcDbEntity
  8
1
  6
CONTINUOUS
 62
           7
100
AcDbLine
 10
5757.499999999999
 20
2834.199999999997
 11
5757.499999999999
 21
2934.199999999997
  0
LINE
  5
2ED
100
AcDbEntity
  8
976
  6
CONTINUOUS
 62
           7
100
AcDbLine
 10
6372.499999999999
 20
2724.199999999997
 11
6372.500000000001
 21
2757.199999999997
  0
LINE
  5
2EC
100
AcDbEntity
  8
976
  6
CONTINUOUS
 62
           7
100
AcDbLine
 10
6284.499999999999
 20
2724.199999999997
 11
6284.500000000001
 21
2762.199999999997
  0
LINE
  5
2EB
100
AcDbEntity
  8
976
  6
CONTINUOUS
 62
           7
100
AcDbLine
 10
5930.500159772887
 20
2724.199999999997
 11
5930.500159772887
 21
2762.199999999997
  0
LINE
  5
2EA
100
AcDbEntity
  8
976
  6
CONTINUOUS
 62
           7
100
AcDbLine
 10
5747.722691958724
 20
2724.199999999997
 11
5747.722691958726
 21
2762.199999999997
  0
LINE
  5
2E9
100
AcDbEntity
  8
976
  6
CONTINUOUS
 62
           7
100
AcDbLine
 10
5747.722691958726
 20
2762.199999999997
 11
5077.288529667961
 21
2762.199999999997
  0
LINE
  5
2E8
100
AcDbEntity
  8
976
  6
CONTINUOUS
 62
           7
100
AcDbLine
 10
6284.500000000001
 20
2137.799999999999
 11
6284.499999999999
 21
2175.799999999999
  0
LINE
  5
2E7
100
AcDbEntity
  8
976
  6
CONTINUOUS
 62
           7
100
AcDbLine
 10
5930.500159772887
 20
2137.799999999999
 11
5930.500159772887
 21
2175.799999999999
  0
LINE
  5
2E6
100
AcDbEntity
  8
976
  6
CONTINUOUS
 62
           7
100
AcDbLine
 10
5747.722691958726
 20
2137.799999999999
 11
5747.722691958724
 21
2175.799999999999
  0
LINE
  5
2E5
100
AcDbEntity
  8
976
  6
CONTINUOUS
 62
           7
100
AcDbLine
 10
5930.500159772887
 20
2137.799999999999
 11
6368.940677966101
 21
2137.799999999999
  0
LINE
  5
2E4
100
AcDbEntity
  8
1
  6
CONTINUOUS
 62
           2
100
AcDbLine
 10
5546.986543999089
 20
2630.0
 11
5546.986543999089
 21
2270.0
  0
LINE
  5
2E3
100
AcDbEntity
  8
1
  6
CONTINUOUS
 62
           2
100
AcDbLine
 10
5546.986543999089
 20
2270.0
 11
5958.013456000907
 21
2270.0
  0
LINE
  5
2E2
100
AcDbEntity
  8
1
  6
CONTINUOUS
 62
           2
100
AcDbLine
 10
5958.013456000907
 20
2270.0
 11
5958.013456000907
 21
2630.0
  0
LINE
  5
2E1
100
AcDbEntity
  8
1
  6
CONTINUOUS
 62
           2
100
AcDbLine
 10
5958.013456000907
 20
2630.0
 11
5546.986543999089
 21
2630.0
  0
LINE
  5
2E0
100
AcDbEntity
  8
1
  6
DOT_CENTER
 62
           2
100
AcDbLine
 10
5822.499999999999
 20
2036.87133595567
 11
5822.499999999999
 21
3263.115495431739
  0
LINE
  5
2DF
100
AcDbEntity
  8
7
  6
CONTINUOUS
 62
           4
100
AcDbLine
 10
5961.8
 20
3174.0
 11
5683.2
 21
3174.0
  0
LINE
  5
2DE
100
AcDbEntity
  8
7
  6
CONTINUOUS
 62
           4
100
AcDbLine
 10
5680.305224999999
 20
3135.5
 11
5964.228719
 21
3135.5
  0
LINE
  5
2DD
100
AcDbEntity
  8
7
  6
CONTINUOUS
 62
           4
100
AcDbLine
 10
5967.499999999999
 20
3095.0
 11
5677.499999999999
 21
3095.0
  0
LINE
  5
2DC
100
AcDbEntity
  8
1
  6
DOT_CENTER
 62
           2
100
AcDbLine
 10
5056.271485574417
 20
2450.0
 11
6507.26458776199
 21
2450.0
  0
LINE
  5
2DB
100
AcDbEntity
  8
1
  6
CONTINUOUS
 62
           4
100
AcDbLine
 10
6417.999999999999
 20
2729.5
 11
6452.499999999999
 21
2729.5
  0
LINE
  5
2DA
100
AcDbEntity
  8
1
  6
CONTINUOUS
 62
           7
100
AcDbLine
 10
6452.5
 20
2175.0
 11
6412.5
 21
2175.0
  0
LINE
  5
2D9
100
AcDbEntity
  8
976
  6
CONTINUOUS
 62
           7
100
AcDbLine
 10
6372.499999999999
 20
2724.199999999997
 11
5077.288529667961
 21
2724.199999999997
  0
LINE
  5
2D8
100
AcDbEntity
  8
7
  6
CONTINUOUS
 62
           7
100
AcDbLine
 10
5708.039736
 20
3200.0
 11
5936.960263
 21
3200.0
  0
LINE
  5
2D7
100
AcDbEntity
  8
1
  6
CONTINUOUS
 62
           7
100
AcDbLine
 10
6452.499999999999
 20
2729.5
 11
6452.499999999999
 21
2170.5
  0
LINE
  5
2D6
100
AcDbEntity
  8
1
  6
CONTINUOUS
 62
           7
100
AcDbLine
 10
-855.999999999999
 20
2160.200000000001
 11
-855.999999999999
 21
2765.800000000001
  0
LINE
  5
2D5
100
AcDbEntity
  8
1
  6
CONTINUOUS
 62
           7
100
AcDbLine
 10
161.076192999999
 20
2945.0
 11
246.0
 21
2945.0
  0
LINE
  5
2D4
100
AcDbEntity
  8
1
  6
CONTINUOUS
 62
           7
100
AcDbLine
 10
246.0
 20
2825.0
 11
161.076192999999
 21
2825.0
  0
LINE
  5
2D3
100
AcDbEntity
  8
1
  6
CONTINUOUS
 62
           7
100
AcDbLine
 10
151.076192999999
 20
2835.0
 11
151.076192999999
 21
2935.0
  0
LINE
  5
2D2
100
AcDbEntity
  8
1
  6
CONTINUOUS
 62
           7
100
AcDbLine
 10
256.0
 20
2935.0
 11
256.0
 21
2835.0
  0
LINE
  5
2D1
100
AcDbEntity
  8
1
  6
CONTINUOUS
 62
           7
100
AcDbLine
 10
590.0
 20
2175.0
 11
590.0
 21
2725.0
  0
LINE
  5
2D0
100
AcDbEntity
  8
976
  6
CONTINUOUS
 62
           7
100
AcDbLine
 10
597.411867714181
 20
2175.0
 11
597.411867714181
 21
2160.200000000001
  0
LINE
  5
2CF
100
AcDbEntity
  8
976
  6
CONTINUOUS
 62
           7
100
AcDbLine
 10
597.411867714181
 20
2763.0
 11
597.411867714181
 21
2725.0
  0
LINE
  5
2CE
100
AcDbEntity
  8
1
  6
CONTINUOUS
 62
           4
100
AcDbLine
 10
255.0
 20
2769.0
 11
260.0
 21
2764.0
  0
LINE
  5
2CD
100
AcDbEntity
  8
1
  6
CONTINUOUS
 62
           4
100
AcDbLine
 10
255.0
 20
2769.0
 11
-255.0
 21
2769.0
  0
LINE
  5
2CC
100
AcDbEntity
  8
1
  6
CONTINUOUS
 62
           4
100
AcDbLine
 10
-260.0
 20
2764.0
 11
-255.0
 21
2769.0
  0
LINE
  5
2CB
100
AcDbEntity
  8
1
  6
CONTINUOUS
 62
           4
100
AcDbLine
 10
-260.000000000001
 20
2763.0
 11
-260.0
 21
2764.0
  0
LINE
  5
2CA
100
AcDbEntity
  8
1
  6
CONTINUOUS
 62
           4
100
AcDbLine
 10
260.0
 20
2763.0
 11
260.0
 21
2764.0
  0
LINE
  5
2C9
100
AcDbEntity
  8
2
  6
CONTINUOUS
 62
           4
100
AcDbLine
 10
-133.500000000001
 20
2785.000000000002
 11
133.5
 21
2785.000000000002
  0
LINE
  5
2C8
100
AcDbEntity
  8
7
  6
CONTINUOUS
 62
           7
100
AcDbLine
 10
145.0
 20
3133.0
 11
145.0
 21
3095.0
  0
LINE
  5
2C7
100
AcDbEntity
  8
7
  6
CONTINUOUS
 62
           7
100
AcDbLine
 10
143.239372
 20
3135.547320000001
 11
143.317005999999
 21
3135.484288000001
  0
LINE
  5
2C6
100
AcDbEntity
  8
2
  6
CONTINUOUS
 62
           7
100
AcDbLine
 10
-151.076193
 20
3081.0
 11
-151.076193
 21
2827.0
  0
LINE
  5
2C5
100
AcDbEntity
  8
2
  6
CONTINUOUS
 62
           7
100
AcDbLine
 10
-133.557986
 20
2795.000000000002
 11
-151.076193
 21
2827.0
  0
LINE
  5
2C4
100
AcDbEntity
  8
2
  6
CONTINUOUS
 62
           7
100
AcDbLine
 10
-143.411978
 20
3095.0
 11
-151.076193
 21
3081.0
  0
LINE
  5
2C3
100
AcDbEntity
  8
2
  6
CONTINUOUS
 62
           7
100
AcDbLine
 10
-150.047587000001
 20
2827.0
 11
-151.076193
 21
2827.0
  0
LINE
  5
2C2
100
AcDbEntity
  8
2
  6
CONTINUOUS
 62
           7
100
AcDbLine
 10
151.076192999999
 20
3081.0
 11
143.411978
 21
3095.0
  0
LINE
  5
2C1
100
AcDbEntity
  8
2
  6
CONTINUOUS
 62
           7
100
AcDbLine
 10
151.076192999999
 20
2827.000000000002
 11
133.557985999999
 21
2795.000000000002
  0
LINE
  5
2C0
100
AcDbEntity
  8
2
  6
CONTINUOUS
 62
           7
100
AcDbLine
 10
151.076192999999
 20
2827.000000000002
 11
151.076192999999
 21
3081.0
  0
LINE
  5
2BF
100
AcDbEntity
  8
7
  6
CONTINUOUS
 62
           7
100
AcDbLine
 10
-143.817006000001
 20
3135.484288000001
 11
-143.739372
 21
3135.547320000001
  0
LINE
  5
2BE
100
AcDbEntity
  8
7
  6
CONTINUOUS
 62
           7
100
AcDbLine
 10
-145.000000000001
 20
3095.0
 11
-145.000000000001
 21
3133.0
  0
LINE
  5
2BD
100
AcDbEntity
  8
7
  6
CONTINUOUS
 62
           7
100
AcDbLine
 10
-117.668846000001
 20
3196.856044
 11
-117.646531000001
 21
3197.096143999999
  0
LINE
  5
2BC
100
AcDbEntity
  8
7
  6
CONTINUOUS
 62
           7
100
AcDbLine
 10
-142.500000000001
 20
3137.1
 11
-142.500000000001
 21
3170.799999999998
  0
LINE
  5
2BB
100
AcDbEntity
  8
7
  6
CONTINUOUS
 62
           7
100
AcDbLine
 10
-136.444424000001
 20
3174.542544
 11
-118.513111000001
 21
3195.402829999999
  0
LINE
  5
2BA
100
AcDbEntity
  8
7
  6
CONTINUOUS
 62
           7
100
AcDbLine
 10
117.668847
 20
3196.856044
 11
117.646531
 21
3197.096143999999
  0
LINE
  5
2B9
100
AcDbEntity
  8
7
  6
CONTINUOUS
 62
           7
100
AcDbLine
 10
142.5
 20
3137.1
 11
142.499999999999
 21
3170.799999999998
  0
LINE
  5
2B8
100
AcDbEntity
  8
7
  6
CONTINUOUS
 62
           7
100
AcDbLine
 10
-114.460263
 20
3200.0
 11
114.460264
 21
3200.0
  0
LINE
  5
2B7
100
AcDbEntity
  8
7
  6
CONTINUOUS
 62
           7
100
AcDbLine
 10
136.444422999999
 20
3174.542544
 11
118.513111
 21
3195.402829999999
  0
LINE
  5
2B6
100
AcDbEntity
  8
1
  6
CONTINUOUS
 62
           7
100
AcDbLine
 10
-133.500000000001
 20
2795.000000000002
 11
-133.500000000001
 21
2769.0
  0
LINE
  5
2B5
100
AcDbEntity
  8
6
  6
CONTINUOUS
 62
           7
100
AcDbLine
 10
133.5
 20
2795.000000000002
 11
133.5
 21
2769.0
  0
LINE
  5
2B4
100
AcDbEntity
  8
976
  6
CONTINUOUS
 62
           7
100
AcDbLine
 10
600.000000000001
 20
2725.0
 11
-825.0
 21
2725.0
  0
LINE
  5
2B3
100
AcDbEntity
  8
976
  6
CONTINUOUS
 62
           7
100
AcDbLine
 10
600.000000000001
 20
2175.0
 11
-825.0
 21
2175.0
  0
LINE
  5
2B2
100
AcDbEntity
  8
1
  6
CONTINUOUS
 62
           7
100
AcDbLine
 10
-855.999999999999
 20
2725.800000000001
 11
-835.0
 21
2725.800000000001
  0
LINE
  5
2B1
100
AcDbEntity
  8
1
  6
CONTINUOUS
 62
           7
100
AcDbLine
 10
-855.999999999999
 20
2765.800000000001
 11
-835.0
 21
2765.800000000001
  0
LINE
  5
2B0
100
AcDbEntity
  8
1
  6
CONTINUOUS
 62
           4
100
AcDbLine
 10
-855.999999999999
 20
2730.300000000001
 11
-835.0
 21
2730.300000000001
  0
LINE
  5
2AF
100
AcDbEntity
  8
976
  6
CONTINUOUS
 62
           7
100
AcDbLine
 10
566.000000000001
 20
2175.0
 11
566.000000000001
 21
2160.200000000001
  0
LINE
  5
2AE
100
AcDbEntity
  8
976
  6
CONTINUOUS
 62
           7
100
AcDbLine
 10
566.000000000001
 20
2763.0
 11
566.000000000001
 21
2725.0
  0
LINE
  5
2AD
100
AcDbEntity
  8
976
  6
CONTINUOUS
 62
           7
100
AcDbLine
 10
-63.022294576589
 20
2763.0
 11
-63.022294576589
 21
2725.0
  0
LINE
  5
2AC
100
AcDbEntity
  8
976
  6
CONTINUOUS
 62
           7
100
AcDbLine
 10
-63.022294576589
 20
2175.0
 11
-63.022294576589
 21
2160.200000000001
  0
LINE
  5
2AB
100
AcDbEntity
  8
976
  6
CONTINUOUS
 62
           7
100
AcDbLine
 10
597.411867714181
 20
2763.0
 11
-816.116882454314
 21
2763.0
  0
LINE
  5
2AA
100
AcDbEntity
  8
1
  6
CONTINUOUS
 62
           2
100
AcDbLine
 10
551.093583477743
 20
2251.0
 11
590.0
 21
2251.0
  0
LINE
  5
2A9
100
AcDbEntity
  8
1
  6
CONTINUOUS
 62
           2
100
AcDbLine
 10
551.093583477743
 20
2630.0
 11
551.093583477743
 21
2251.0
  0
LINE
  5
2A8
100
AcDbEntity
  8
1
  6
CONTINUOUS
 62
           2
100
AcDbLine
 10
590.0
 20
2630.0
 11
551.093583477743
 21
2630.0
  0
LINE
  5
2A7
100
AcDbEntity
  8
1
  6
CONTINUOUS
 62
           7
100
AcDbLine
 10
-835.0
 20
2174.199999999999
 11
-855.999999999999
 21
2174.199999999999
  0
LINE
  5
2A6
100
AcDbEntity
  8
1
  6
CONTINUOUS
 62
           4
100
AcDbLine
 10
-835.0
 20
2169.700000000001
 11
-855.999999999999
 21
2169.700000000001
  0
LINE
  5
2A5
100
AcDbEntity
  8
1
  6
CONTINUOUS
 62
           7
100
AcDbLine
 10
-815.0
 20
2175.0
 11
-815.0
 21
2725.0
  0
LINE
  5
2A4
100
AcDbEntity
  8
976
  6
CONTINUOUS
 62
           7
100
AcDbLine
 10
-816.116882454314
 20
2763.0
 11
-816.116882454314
 21
2725.0
  0
LINE
  5
2A3
100
AcDbEntity
  8
976
  6
CONTINUOUS
 62
           7
100
AcDbLine
 10
-816.116882454314
 20
2175.0
 11
-816.116882454314
 21
2160.200000000001
  0
LINE
  5
2A2
100
AcDbEntity
  8
1
  6
CONTINUOUS
 62
           2
100
AcDbLine
 10
-717.593032057172
 20
2251.0
 11
-400.160800656588
 21
2251.0
  0
LINE
  5
2A1
100
AcDbEntity
  8
1
  6
CONTINUOUS
 62
           2
100
AcDbLine
 10
-400.160800656588
 20
2251.0
 11
-400.160800656588
 21
2630.0
  0
LINE
  5
2A0
100
AcDbEntity
  8
1
  6
CONTINUOUS
 62
           2
100
AcDbLine
 10
-400.160800656588
 20
2630.0
 11
-717.593032057172
 21
2630.0
  0
LINE
  5
29F
100
AcDbEntity
  8
1
  6
CONTINUOUS
 62
           2
100
AcDbLine
 10
-717.593032057172
 20
2630.0
 11
-717.593032057172
 21
2251.0
  0
LINE
  5
29E
100
AcDbEntity
  8
1
  6
DOT_CENTER
 62
           2
100
AcDbLine
 10
-913.409104289506
 20
2450.0
 11
646.013204171227
 21
2450.0
  0
LINE
  5
29D
100
AcDbEntity
  8
7
  6
CONTINUOUS
 62
           4
100
AcDbLine
 10
145.0
 20
3095.0
 11
-145.000000000001
 21
3095.0
  0
LINE
  5
29C
100
AcDbEntity
  8
7
  6
CONTINUOUS
 62
           4
100
AcDbLine
 10
139.299999999999
 20
3174.0
 11
-139.300000000001
 21
3174.0
  0
LINE
  5
29B
100
AcDbEntity
  8
7
  6
CONTINUOUS
 62
           4
100
AcDbLine
 10
-141.728719000001
 20
3135.5
 11
142.194775
 21
3135.5
  0
LINE
  5
29A
100
AcDbEntity
  8
1
  6
CONTINUOUS
 62
           7
100
AcDbLine
 10
-855.000000000002
 20
6425.0
 11
40.999999999999
 21
6425.0
  0
LINE
  5
299
100
AcDbEntity
  8
1
  6
CONTINUOUS
 62
           7
100
AcDbLine
 10
-850.000000000001
 20
6385.0
 11
-855.000000000002
 21
6390.0
  0
LINE
  5
298
100
AcDbEntity
  8
1
  6
CONTINUOUS
 62
           7
100
AcDbLine
 10
35.999999999999
 20
6385.0
 11
40.999999999999
 21
6390.0
  0
LINE
  5
297
100
AcDbEntity
  8
1
  6
CONTINUOUS
 62
           7
100
AcDbLine
 10
35.999999999999
 20
6385.0
 11
-850.000000000001
 21
6385.0
  0
LINE
  5
296
100
AcDbEntity
  8
1
  6
CONTINUOUS
 62
           7
100
AcDbLine
 10
-855.000000000002
 20
6390.0
 11
-855.000000000002
 21
6425.0
  0
LINE
  5
295
100
AcDbEntity
  8
1
  6
CONTINUOUS
 62
           7
100
AcDbLine
 10
40.999999999999
 20
6425.0
 11
40.999999999999
 21
6390.0
  0
LINE
  5
294
100
AcDbEntity
  8
1
  6
CONTINUOUS
 62
           4
100
AcDbLine
 10
40.999999999999
 20
6420.5
 11
-855.000000000001
 21
6420.5
  0
LINE
  5
293
100
AcDbEntity
  8
1
  6
CONTINUOUS
 62
           4
100
AcDbLine
 10
-855.000000000001
 20
6429.499999999998
 11
40.999999999999
 21
6429.5
  0
LINE
  5
292
100
AcDbEntity
  8
1
  6
CONTINUOUS
 62
           7
100
AcDbLine
 10
40.999999999999
 20
6460.0
 11
40.999999999999
 21
6425.0
  0
LINE
  5
291
100
AcDbEntity
  8
1
  6
CONTINUOUS
 62
           7
100
AcDbLine
 10
-855.000000000002
 20
6425.0
 11
-855.000000000002
 21
6460.0
  0
LINE
  5
290
100
AcDbEntity
  8
1
  6
CONTINUOUS
 62
           7
100
AcDbLine
 10
-850.000000000001
 20
6464.999999999998
 11
35.999999999999
 21
6465.0
  0
LINE
  5
28F
100
AcDbEntity
  8
1
  6
CONTINUOUS
 62
           7
100
AcDbLine
 10
40.999999999999
 20
6460.0
 11
35.999999999999
 21
6465.0
  0
LINE
  5
28E
100
AcDbEntity
  8
1
  6
CONTINUOUS
 62
           7
100
AcDbLine
 10
-855.000000000002
 20
6460.0
 11
-850.000000000001
 21
6464.999999999998
  0
LINE
  5
28D
100
AcDbEntity
  8
1
  6
CONTINUOUS
 62
           7
100
AcDbLine
 10
587.430147030913
 20
5760.222691958725
 11
-63.022294576588
 21
5099.788529667956
  0
LINE
  5
28C
100
AcDbEntity
  8
1
  6
CONTINUOUS
 62
           7
100
AcDbLine
 10
-814.116882454316
 20
5835.883117545687
 11
-63.022294576588
 21
5099.788529667956
  0
LINE
  5
28B
100
AcDbEntity
  8
1
  6
CONTINUOUS
 62
           7
100
AcDbLine
 10
556.018279316733
 20
5943.000159772888
 11
181.999999999999
 21
6297.0
  0
LINE
  5
28A
100
AcDbEntity
  8
1
  6
CONTINUOUS
 62
           7
100
AcDbLine
 10
-814.116882454316
 20
5835.883117545687
 11
-220.000000000001
 21
6385.0
  0
LINE
  5
289
100
AcDbEntity
  8
0
  6
CONTINUOUS
 62
           7
100
AcDbLine
 10
-0.000000000001
 20
6375.0
 11
-0.000000000001
 21
6385.0
  0
LINE
  5
288
100
AcDbEntity
  8
1
  6
CONTINUOUS
 62
           7
100
AcDbLine
 10
-0.000000000001
 20
6375.0
 11
-0.000000000001
 21
6385.0
  0
LINE
  5
287
100
AcDbEntity
  8
0
  6
CONTINUOUS
 62
           7
100
AcDbLine
 10
-814.000000000002
 20
6385.0
 11
-814.000000000002
 21
6375.000000000001
  0
LINE
  5
286
100
AcDbEntity
  8
0
  6
CONTINUOUS
 62
           7
100
AcDbLine
 10
-823.000000000002
 20
6365.0
 11
-823.000000000002
 21
5875.0
  0
LINE
  5
285
100
AcDbEntity
  8
0
  6
CONTINUOUS
 62
           7
100
AcDbLine
 10
-814.000000000002
 20
6375.000000000001
 11
-823.000000000002
 21
6365.0
  0
LINE
  5
284
100
AcDbEntity
  8
0
  6
CONTINUOUS
 62
           7
100
AcDbLine
 10
30.724756890082
 20
6321.783160015504
 11
-0.000000000001
 21
6375.0
  0
LINE
  5
283
100
AcDbEntity
  8
1
  6
CONTINUOUS
 62
           7
100
AcDbLine
 10
-225.999999999999
 20
6061.0
 11
-225.999999999999
 21
5575.0
  0
LINE
  5
282
100
AcDbEntity
  8
1
  6
CONTINUOUS
 62
           7
100
AcDbLine
 10
226.000000000001
 20
6061.0
 11
-259.999999999999
 21
6061.0
  0
LINE
  5
281
100
AcDbEntity
  8
1
  6
CONTINUOUS
 62
           7
100
AcDbLine
 10
226.000000000001
 20
5609.0
 11
226.000000000001
 21
5770.0
  0
LINE
  5
280
100
AcDbEntity
  8
1
  6
CONTINUOUS
 62
           7
100
AcDbLine
 10
-225.999999999999
 20
5609.0
 11
260.000000000002
 21
5609.0
  0
LINE
  5
27F
100
AcDbEntity
  8
1
  6
CONTINUOUS
 62
           7
100
AcDbLine
 10
226.000000000001
 20
5900.0
 11
226.000000000001
 21
6095.0
  0
LINE
  5
27E
100
AcDbEntity
  8
1
  6
CONTINUOUS
 62
           4
100
AcDbLine
 10
171.319409665061
 20
5799.297620919395
 11
171.31940966506
 21
5785.0
  0
LINE
  5
27D
100
AcDbEntity
  8
1
  6
CONTINUOUS
 62
           4
100
AcDbLine
 10
171.31940966506
 20
5885.0
 11
171.31940966506
 21
5870.702379080605
  0
LINE
  5
27C
100
AcDbEntity
  8
1
  6
CONTINUOUS
 62
           4
100
AcDbLine
 10
187.339745962156
 20
5775.0
 11
181.31940966506
 21
5775.0
  0
LINE
  5
27B
100
AcDbEntity
  8
1
  6
CONTINUOUS
 62
           4
100
AcDbLine
 10
187.339745962157
 20
5895.0
 11
181.31940966506
 21
5895.0
  0
LINE
  5
27A
100
AcDbEntity
  8
1
  6
CONTINUOUS
 62
           7
100
AcDbLine
 10
246.0
 20
5770.0
 11
196.0
 21
5770.0
  0
LINE
  5
279
100
AcDbEntity
  8
1
  6
CONTINUOUS
 62
           7
100
AcDbLine
 10
196.0
 20
5900.0
 11
246.0
 21
5900.0
  0
LINE
  5
278
100
AcDbEntity
  8
1
  6
CONTINUOUS
 62
           7
100
AcDbLine
 10
186.0
 20
5780.0
 11
186.0
 21
5890.0
  0
LINE
  5
277
100
AcDbEntity
  8
1
  6
CONTINUOUS
 62
           7
100
AcDbLine
 10
256.0
 20
5890.0
 11
256.0
 21
5780.0
  0
LINE
  5
276
100
AcDbEntity
  8
1
  6
DOT_CENTER
 62
           2
100
AcDbLine
 10
-407.500000000001
 20
6518.027293831616
 11
-407.500000000001
 21
6235.665095944234
  0
LINE
  5
275
100
AcDbEntity
  8
1
  6
CONTINUOUS
 62
           3
100
AcDbLine
 10
5760.0
 20
1921.000000000001
 11
5612.399998122324
 21
1921.000000000001
  0
LINE
  5
274
100
AcDbEntity
  8
1
  6
CONTINUOUS
 62
           3
100
AcDbLine
 10
5760.0
 20
1929.0
 11
5612.399996810931
 21
1929.0
  0
LINE
  5
273
100
AcDbEntity
  8
0
  6
CONTINUOUS
 62
           3
100
AcDbLine
 10
5232.399996632412
 20
1314.999997615956
 11
5232.399996632412
 21
1364.999994635815
  0
LINE
  5
272
100
AcDbEntity
  8
0
  6
CONTINUOUS
 62
           3
100
AcDbLine
 10
5272.626493853972
 20
1355.446577072224
 11
5273.399996833472
 21
1355.000004172322
  0
LINE
  5
271
100
AcDbEntity
  8
0
  6
CONTINUOUS
 62
           3
100
AcDbLine
 10
5283.399996609864
 20
1355.000004172322
 11
5284.173499589364
 21
1355.446577072224
  0
LINE
  5
270
100
AcDbEntity
  8
0
  6
CONTINUOUS
 62
           3
100
AcDbLine
 10
5273.399996833472
 20
1359.999999403921
 11
5272.626493853972
 21
1359.553411603021
  0
LINE
  5
26F
100
AcDbEntity
  8
0
  6
CONTINUOUS
 62
           3
100
AcDbLine
 10
5284.173499589364
 20
1359.553411603021
 11
5283.399996609864
 21
1359.999999403921
  0
LINE
  5
26E
100
AcDbEntity
  8
0
  6
CONTINUOUS
 62
           3
100
AcDbLine
 10
5273.399996833472
 20
1364.999994635815
 11
5272.626493853972
 21
1364.553421735916
  0
LINE
  5
26D
100
AcDbEntity
  8
0
  6
CONTINUOUS
 62
           3
100
AcDbLine
 10
5284.173499589364
 20
1364.553421735916
 11
5283.399996609864
 21
1364.999994635815
  0
LINE
  5
26C
100
AcDbEntity
  8
0
  6
CONTINUOUS
 62
           3
100
AcDbLine
 10
5283.399996609864
 20
1359.999999403921
 11
5284.173499589364
 21
1360.446587205122
  0
LINE
  5
26B
100
AcDbEntity
  8
0
  6
CONTINUOUS
 62
           3
100
AcDbLine
 10
5272.626493853972
 20
1360.446587205122
 11
5273.399996833472
 21
1359.999999403921
  0
LINE
  5
26A
100
AcDbEntity
  8
0
  6
CONTINUOUS
 62
           3
100
AcDbLine
 10
5273.399996833472
 20
1377.599999308604
 11
5272.626493853972
 21
1377.153418958205
  0
LINE
  5
269
100
AcDbEntity
  8
0
  6
CONTINUOUS
 62
           3
100
AcDbLine
 10
5284.173499589364
 20
1377.153418958205
 11
5283.399996609864
 21
1377.599999308604
  0
LINE
  5
268
100
AcDbEntity
  8
0
  6
CONTINUOUS
 62
           3
100
AcDbLine
 10
5283.399996609864
 20
1372.600004077009
 11
5284.173499589364
 21
1373.046576976911
  0
LINE
  5
267
100
AcDbEntity
  8
0
  6
CONTINUOUS
 62
           3
100
AcDbLine
 10
5272.626493853972
 20
1373.046576976911
 11
5273.399996833472
 21
1372.600004077009
  0
LINE
  5
266
100
AcDbEntity
  8
0
  6
CONTINUOUS
 62
           3
100
AcDbLine
 10
5273.399996833472
 20
1372.600004077009
 11
5272.626493853972
 21
1372.153416276109
  0
LINE
  5
265
100
AcDbEntity
  8
0
  6
CONTINUOUS
 62
           3
100
AcDbLine
 10
5284.173499589364
 20
1372.153416276109
 11
5283.399996609864
 21
1372.600004077009
  0
LINE
  5
264
100
AcDbEntity
  8
0
  6
CONTINUOUS
 62
           3
100
AcDbLine
 10
5283.399996609864
 20
1367.599993944114
 11
5284.173499589364
 21
1368.046581745312
  0
LINE
  5
263
100
AcDbEntity
  8
0
  6
CONTINUOUS
 62
           3
100
AcDbLine
 10
5272.626493853972
 20
1368.046581745312
 11
5273.399996833472
 21
1367.599993944114
  0
LINE
  5
262
100
AcDbEntity
  8
0
  6
CONTINUOUS
 62
           3
100
AcDbLine
 10
5324.399996810931
 20
1641.0
 11
5324.399996810931
 21
1635.000005364196
  0
LINE
  5
261
100
AcDbEntity
  8
0
  6
CONTINUOUS
 62
           3
100
AcDbLine
 10
5324.399996810931
 20
1633.399993180996
 11
5324.399996810931
 21
1550.000000744964
  0
LINE
  5
260
100
AcDbEntity
  8
0
  6
CONTINUOUS
 62
           3
100
AcDbLine
 10
5324.399996810931
 20
1548.799999058065
 11
5324.399996810931
 21
1391.199998557593
  0
LINE
  5
25F
100
AcDbEntity
  8
0
  6
CONTINUOUS
 62
           3
100
AcDbLine
 10
5324.399996810931
 20
1390.000000596097
 11
5324.399996810931
 21
1366.600006818713
  0
LINE
  5
25E
100
AcDbEntity
  8
0
  6
CONTINUOUS
 62
           3
100
AcDbLine
 10
5324.399996810931
 20
1364.999994635815
 11
5324.399996810931
 21
1314.999997615956
  0
LINE
  5
25D
100
AcDbEntity
  8
0
  6
CONTINUOUS
 62
           3
100
AcDbLine
 10
5332.399998122324
 20
1314.999997615956
 11
5332.399998122324
 21
1364.999994635815
  0
LINE
  5
25C
100
AcDbEntity
  8
0
  6
CONTINUOUS
 62
           3
100
AcDbLine
 10
5332.399998122324
 20
1366.600006818713
 11
5332.399998122324
 21
1390.000000596097
  0
LINE
  5
25B
100
AcDbEntity
  8
0
  6
CONTINUOUS
 62
           3
100
AcDbLine
 10
5332.399998122324
 20
1391.199998557593
 11
5332.399998122324
 21
1548.799999058065
  0
LINE
  5
25A
100
AcDbEntity
  8
0
  6
CONTINUOUS
 62
           3
100
AcDbLine
 10
5332.399998122324
 20
1550.000000744964
 11
5332.399998122324
 21
1633.399993180996
  0
LINE
  5
259
100
AcDbEntity
  8
0
  6
CONTINUOUS
 62
           3
100
AcDbLine
 10
5332.399998122324
 20
1635.000005364196
 11
5332.399998122324
 21
1641.000000000001
  0
LINE
  5
258
100
AcDbEntity
  8
0
  6
CONTINUOUS
 62
           3
100
AcDbLine
 10
5224.399995321011
 20
1665.000006556369
 11
5224.399995321011
 21
1635.000005364196
  0
LINE
  5
257
100
AcDbEntity
  8
0
  6
CONTINUOUS
 62
           3
100
AcDbLine
 10
5224.399995321011
 20
1633.399993180996
 11
5224.399995321011
 21
1550.000000744964
  0
LINE
  5
256
100
AcDbEntity
  8
0
  6
CONTINUOUS
 62
           3
100
AcDbLine
 10
5224.399995321011
 20
1548.799999058065
 11
5224.399995321011
 21
1391.199998557593
  0
LINE
  5
255
100
AcDbEntity
  8
0
  6
CONTINUOUS
 62
           3
100
AcDbLine
 10
5224.399995321011
 20
1390.000000596097
 11
5224.399995321011
 21
1366.600006818713
  0
LINE
  5
254
100
AcDbEntity
  8
0
  6
CONTINUOUS
 62
           3
100
AcDbLine
 10
5224.399995321011
 20
1364.999994635815
 11
5224.399995321011
 21
1314.999997615956
  0
LINE
  5
253
100
AcDbEntity
  8
0
  6
CONTINUOUS
 62
           3
100
AcDbLine
 10
5232.399996632412
 20
1366.600006818713
 11
5232.399996632412
 21
1390.000000596097
  0
LINE
  5
252
100
AcDbEntity
  8
0
  6
CONTINUOUS
 62
           3
100
AcDbLine
 10
5232.399996632412
 20
1391.199998557593
 11
5232.399996632412
 21
1548.799999058065
  0
LINE
  5
251
100
AcDbEntity
  8
0
  6
CONTINUOUS
 62
           3
100
AcDbLine
 10
5232.399996632412
 20
1550.000000744964
 11
5232.399996632412
 21
1633.399993180996
  0
LINE
  5
250
100
AcDbEntity
  8
0
  6
CONTINUOUS
 62
           3
100
AcDbLine
 10
5232.399996632412
 20
1635.000005364196
 11
5232.399996632412
 21
1665.000006556369
  0
LINE
  5
24F
100
AcDbEntity
  8
0
  6
CONTINUOUS
 62
           3
100
AcDbLine
 10
5281.399996747761
 20
1366.600006818713
 11
5281.399996747761
 21
1367.599993944114
  0
LINE
  5
24E
100
AcDbEntity
  8
0
  6
CONTINUOUS
 62
           3
100
AcDbLine
 10
5281.399996747761
 20
1377.599999308604
 11
5281.399996747761
 21
1384.1999992729
  0
LINE
  5
24D
100
AcDbEntity
  8
0
  6
CONTINUOUS
 62
           3
100
AcDbLine
 10
5281.399996747761
 20
1390.000000596097
 11
5281.399996747761
 21
1392.957426607594
  0
LINE
  5
24C
100
AcDbEntity
  8
0
  6
CONTINUOUS
 62
           3
100
AcDbLine
 10
5281.399996747761
 20
1394.792847335491
 11
5281.399996747761
 21
1633.399993180996
  0
LINE
  5
24B
100
AcDbEntity
  8
0
  6
CONTINUOUS
 62
           3
100
AcDbLine
 10
5281.399996747761
 20
1635.000005364196
 11
5281.399996747761
 21
1637.422651052293
  0
LINE
  5
24A
100
AcDbEntity
  8
0
  6
CONTINUOUS
 62
           3
100
AcDbLine
 10
5275.399996695574
 20
1637.422651052293
 11
5275.399996695574
 21
1635.000005364196
  0
LINE
  5
249
100
AcDbEntity
  8
0
  6
CONTINUOUS
 62
           3
100
AcDbLine
 10
5275.399996695574
 20
1633.399993180996
 11
5275.399996695574
 21
1394.792847335491
  0
LINE
  5
248
100
AcDbEntity
  8
0
  6
CONTINUOUS
 62
           3
100
AcDbLine
 10
5275.399996695574
 20
1392.957426607594
 11
5275.399996695574
 21
1390.000000596097
  0
LINE
  5
247
100
AcDbEntity
  8
0
  6
CONTINUOUS
 62
           3
100
AcDbLine
 10
5275.399996695574
 20
1384.1999992729
 11
5275.399996695574
 21
1377.599999308604
  0
LINE
  5
246
100
AcDbEntity
  8
0
  6
CONTINUOUS
 62
           3
100
AcDbLine
 10
5275.399996695574
 20
1367.599993944114
 11
5275.399996695574
 21
1366.600006818713
  0
LINE
  5
245
100
AcDbEntity
  8
0
  6
CONTINUOUS
 62
           3
100
AcDbLine
 10
5281.399996747761
 20
1637.422651052293
 11
5280.399996816559
 21
1638.422653078993
  0
LINE
  5
244
100
AcDbEntity
  8
0
  6
CONTINUOUS
 62
           3
100
AcDbLine
 10
5276.399996626773
 20
1638.422653078993
 11
5275.399996695574
 21
1637.422651052293
  0
LINE
  5
243
100
AcDbEntity
  8
0
  6
CONTINUOUS
 62
           3
100
AcDbLine
 10
5274.899996613574
 20
1394.799999892894
 11
5270.399996341774
 21
1394.799999892894
  0
LINE
  5
242
100
AcDbEntity
  8
0
  6
CONTINUOUS
 62
           3
100
AcDbLine
 10
5286.399997101562
 20
1394.799999892894
 11
5281.899996829761
 21
1394.799999892894
  0
LINE
  5
241
100
AcDbEntity
  8
0
  6
CONTINUOUS
 62
           3
100
AcDbLine
 10
5271.926494029871
 20
1389.099999999995
 11
5284.873499413461
 21
1389.099999999995
  0
LINE
  5
240
100
AcDbEntity
  8
0
  6
CONTINUOUS
 62
           3
100
AcDbLine
 10
5221.399996692009
 20
1393.799997866194
 11
5224.399995321011
 21
1393.799997866194
  0
LINE
  5
23F
100
AcDbEntity
  8
0
  6
CONTINUOUS
 62
           3
100
AcDbLine
 10
5232.399996632412
 20
1393.799997866194
 11
5270.399996341774
 21
1393.799997866194
  0
LINE
  5
23E
100
AcDbEntity
  8
0
  6
CONTINUOUS
 62
           3
100
AcDbLine
 10
5286.399997101562
 20
1393.799997866194
 11
5324.399996810931
 21
1393.799997866194
  0
LINE
  5
23D
100
AcDbEntity
  8
0
  6
CONTINUOUS
 62
           3
100
AcDbLine
 10
5332.399998122324
 20
1393.799997866194
 11
5335.399996751323
 21
1393.799997866194
  0
LINE
  5
23C
100
AcDbEntity
  8
0
  6
CONTINUOUS
 62
           3
100
AcDbLine
 10
5221.399996692009
 20
1543.800000101368
 11
5221.399996692009
 21
1393.799997866194
  0
LINE
  5
23B
100
AcDbEntity
  8
0
  6
CONTINUOUS
 62
           3
100
AcDbLine
 10
5335.399996751323
 20
1543.800000101368
 11
5332.399998122324
 21
1543.800000101368
  0
LINE
  5
23A
100
AcDbEntity
  8
0
  6
CONTINUOUS
 62
           3
100
AcDbLine
 10
5324.399996810931
 20
1543.800000101368
 11
5281.399996747761
 21
1543.800000101368
  0
LINE
  5
239
100
AcDbEntity
  8
0
  6
CONTINUOUS
 62
           3
100
AcDbLine
 10
5275.399996695574
 20
1543.800000101368
 11
5232.399996632412
 21
1543.800000101368
  0
LINE
  5
238
100
AcDbEntity
  8
0
  6
CONTINUOUS
 62
           3
100
AcDbLine
 10
5224.399995321011
 20
1543.800000101368
 11
5221.399996692009
 21
1543.800000101368
  0
LINE
  5
237
100
AcDbEntity
  8
0
  6
CONTINUOUS
 62
           3
100
AcDbLine
 10
5335.399996751323
 20
1393.799997866194
 11
5335.399996751323
 21
1543.800000101368
  0
LINE
  5
236
100
AcDbEntity
  8
0
  6
CONTINUOUS
 62
           3
100
AcDbLine
 10
5281.286748155362
 20
1355.446577072224
 11
5281.2867481555
 21
1359.553411603069
  0
LINE
  5
235
100
AcDbEntity
  8
0
  6
CONTINUOUS
 62
           3
100
AcDbLine
 10
5281.286748155362
 20
1355.446577072224
 11
5278.399996721673
 21
1355.000004172322
  0
LINE
  5
234
100
AcDbEntity
  8
0
  6
CONTINUOUS
 62
           3
100
AcDbLine
 10
5275.513245287842
 20
1355.446577072242
 11
5275.51324528797
 21
1359.553411603021
  0
LINE
  5
233
100
AcDbEntity
  8
0
  6
CONTINUOUS
 62
           3
100
AcDbLine
 10
5275.51324528797
 20
1359.553411603021
 11
5278.399996721673
 21
1359.999999404048
  0
LINE
  5
232
100
AcDbEntity
  8
0
  6
CONTINUOUS
 62
           3
100
AcDbLine
 10
5278.399996721673
 20
1355.000004172322
 11
5282.730123756002
 21
1355.00000417242
  0
LINE
  5
231
100
AcDbEntity
  8
0
  6
CONTINUOUS
 62
           3
100
AcDbLine
 10
5274.069869687344
 20
1355.00000417242
 11
5278.399996721673
 21
1355.000004172322
  0
LINE
  5
230
100
AcDbEntity
  8
0
  6
CONTINUOUS
 62
           3
100
AcDbLine
 10
5274.069869687344
 20
1359.999999404048
 11
5278.399996721673
 21
1359.999999404048
  0
LINE
  5
22F
100
AcDbEntity
  8
0
  6
CONTINUOUS
 62
           3
100
AcDbLine
 10
5281.2867481555
 20
1359.553411603069
 11
5282.730123755962
 21
1359.999999403921
  0
LINE
  5
22E
100
AcDbEntity
  8
0
  6
CONTINUOUS
 62
           3
100
AcDbLine
 10
5278.399996721673
 20
1359.999999404048
 11
5282.730123755962
 21
1359.999999403921
  0
LINE
  5
22D
100
AcDbEntity
  8
0
  6
CONTINUOUS
 62
           3
100
AcDbLine
 10
5272.626493853972
 20
1355.446577072224
 11
5272.626493853972
 21
1359.553411603021
  0
LINE
  5
22C
100
AcDbEntity
  8
0
  6
CONTINUOUS
 62
           3
100
AcDbLine
 10
5284.173499589364
 20
1355.446577072224
 11
5284.173499589364
 21
1359.553411603021
  0
LINE
  5
22B
100
AcDbEntity
  8
0
  6
CONTINUOUS
 62
           3
100
AcDbLine
 10
5284.173499589364
 20
1355.446577072224
 11
5282.730123756002
 21
1355.00000417242
  0
LINE
  5
22A
100
AcDbEntity
  8
0
  6
CONTINUOUS
 62
           3
100
AcDbLine
 10
5273.399996833472
 20
1355.000004172322
 11
5274.069869687344
 21
1355.00000417242
  0
LINE
  5
229
100
AcDbEntity
  8
0
  6
CONTINUOUS
 62
           3
100
AcDbLine
 10
5283.399996609864
 20
1355.000004172322
 11
5282.730123756002
 21
1355.00000417242
  0
LINE
  5
228
100
AcDbEntity
  8
0
  6
CONTINUOUS
 62
           3
100
AcDbLine
 10
5273.399996833472
 20
1359.999999403921
 11
5274.069869687344
 21
1359.999999404048
  0
LINE
  5
227
100
AcDbEntity
  8
0
  6
CONTINUOUS
 62
           3
100
AcDbLine
 10
5281.2867481555
 20
1364.553421735858
 11
5281.286748155362
 21
1360.446587205122
  0
LINE
  5
226
100
AcDbEntity
  8
0
  6
CONTINUOUS
 62
           3
100
AcDbLine
 10
5275.513245287842
 20
1364.553421735858
 11
5275.513245287842
 21
1360.446587205024
  0
LINE
  5
225
100
AcDbEntity
  8
0
  6
CONTINUOUS
 62
           3
100
AcDbLine
 10
5284.173499589364
 20
1364.553421735916
 11
5282.730123756002
 21
1364.999994635673
  0
LINE
  5
224
100
AcDbEntity
  8
0
  6
CONTINUOUS
 62
           3
100
AcDbLine
 10
5284.173499589364
 20
1364.553421735916
 11
5284.173499589364
 21
1360.446587205122
  0
LINE
  5
223
100
AcDbEntity
  8
0
  6
CONTINUOUS
 62
           3
100
AcDbLine
 10
5281.286748155362
 20
1360.446587205122
 11
5282.730123755962
 21
1359.999999403921
  0
LINE
  5
222
100
AcDbEntity
  8
0
  6
CONTINUOUS
 62
           3
100
AcDbLine
 10
5275.513245287842
 20
1364.553421735858
 11
5274.069869687344
 21
1364.999994635673
  0
LINE
  5
221
100
AcDbEntity
  8
0
  6
CONTINUOUS
 62
           3
100
AcDbLine
 10
5272.626493853972
 20
1360.446587205122
 11
5274.069869687344
 21
1359.999999404048
  0
LINE
  5
220
100
AcDbEntity
  8
0
  6
CONTINUOUS
 62
           3
100
AcDbLine
 10
5272.626493853972
 20
1364.553421735916
 11
5272.626493853972
 21
1360.446587205122
  0
LINE
  5
21F
100
AcDbEntity
  8
0
  6
CONTINUOUS
 62
           3
100
AcDbLine
 10
5281.2867481555
 20
1377.153418958267
 11
5281.286748155362
 21
1373.046576976911
  0
LINE
  5
21E
100
AcDbEntity
  8
0
  6
CONTINUOUS
 62
           3
100
AcDbLine
 10
5275.513245287842
 20
1377.153418958267
 11
5275.513245287842
 21
1373.04657697686
  0
LINE
  5
21D
100
AcDbEntity
  8
0
  6
CONTINUOUS
 62
           3
100
AcDbLine
 10
5284.173499589364
 20
1377.153418958205
 11
5282.730123756002
 21
1377.599999308666
  0
LINE
  5
21C
100
AcDbEntity
  8
0
  6
CONTINUOUS
 62
           3
100
AcDbLine
 10
5284.173499589364
 20
1377.153418958205
 11
5284.173499589364
 21
1373.046576976911
  0
LINE
  5
21B
100
AcDbEntity
  8
0
  6
CONTINUOUS
 62
           3
100
AcDbLine
 10
5281.286748155362
 20
1373.046576976911
 11
5282.730123756002
 21
1372.600004077041
  0
LINE
  5
21A
100
AcDbEntity
  8
0
  6
CONTINUOUS
 62
           3
100
AcDbLine
 10
5282.730123756002
 20
1377.599999308666
 11
5278.399996721673
 21
1377.599999308666
  0
LINE
  5
219
100
AcDbEntity
  8
0
  6
CONTINUOUS
 62
           3
100
AcDbLine
 10
5275.513245287842
 20
1377.153418958267
 11
5274.069869687344
 21
1377.599999308666
  0
LINE
  5
218
100
AcDbEntity
  8
0
  6
CONTINUOUS
 62
           3
100
AcDbLine
 10
5272.626493853972
 20
1373.046576976911
 11
5274.069869687344
 21
1372.600004077041
  0
LINE
  5
217
100
AcDbEntity
  8
0
  6
CONTINUOUS
 62
           3
100
AcDbLine
 10
5272.626493853972
 20
1377.153418958205
 11
5272.626493853972
 21
1373.046576976911
  0
LINE
  5
216
100
AcDbEntity
  8
0
  6
CONTINUOUS
 62
           3
100
AcDbLine
 10
5278.399996721673
 20
1377.599999308666
 11
5274.069869687344
 21
1377.599999308666
  0
LINE
  5
215
100
AcDbEntity
  8
0
  6
CONTINUOUS
 62
           3
100
AcDbLine
 10
5282.730123756002
 20
1372.600004077041
 11
5278.399996721673
 21
1372.600004077041
  0
LINE
  5
214
100
AcDbEntity
  8
0
  6
CONTINUOUS
 62
           3
100
AcDbLine
 10
5278.399996721673
 20
1372.600004077041
 11
5274.069869687344
 21
1372.600004077041
  0
LINE
  5
213
100
AcDbEntity
  8
0
  6
CONTINUOUS
 62
           3
100
AcDbLine
 10
5274.069869687344
 20
1377.599999308666
 11
5273.399996833472
 21
1377.599999308604
  0
LINE
  5
212
100
AcDbEntity
  8
0
  6
CONTINUOUS
 62
           3
100
AcDbLine
 10
5283.399996609864
 20
1377.599999308604
 11
5282.730123756002
 21
1377.599999308666
  0
LINE
  5
211
100
AcDbEntity
  8
0
  6
CONTINUOUS
 62
           3
100
AcDbLine
 10
5283.399996609864
 20
1372.600004077009
 11
5282.730123756002
 21
1372.600004077041
  0
LINE
  5
210
100
AcDbEntity
  8
0
  6
CONTINUOUS
 62
           3
100
AcDbLine
 10
5281.2867481555
 20
1372.153416276062
 11
5281.286748155362
 21
1368.046581745312
  0
LINE
  5
20F
100
AcDbEntity
  8
0
  6
CONTINUOUS
 62
           3
100
AcDbLine
 10
5275.513245287842
 20
1372.153416276062
 11
5275.513245287842
 21
1368.046581745235
  0
LINE
  5
20E
100
AcDbEntity
  8
0
  6
CONTINUOUS
 62
           3
100
AcDbLine
 10
5284.173499589364
 20
1372.153416276109
 11
5282.730123756002
 21
1372.600004077041
  0
LINE
  5
20D
100
AcDbEntity
  8
0
  6
CONTINUOUS
 62
           3
100
AcDbLine
 10
5284.173499589364
 20
1372.153416276109
 11
5284.173499589364
 21
1368.046581745312
  0
LINE
  5
20C
100
AcDbEntity
  8
0
  6
CONTINUOUS
 62
           3
100
AcDbLine
 10
5281.286748155362
 20
1368.046581745312
 11
5282.730123756002
 21
1367.599993944256
  0
LINE
  5
20B
100
AcDbEntity
  8
0
  6
CONTINUOUS
 62
           3
100
AcDbLine
 10
5275.513245287842
 20
1372.153416276062
 11
5274.069869687344
 21
1372.600004077041
  0
LINE
  5
20A
100
AcDbEntity
  8
0
  6
CONTINUOUS
 62
           3
100
AcDbLine
 10
5272.626493853972
 20
1368.046581745312
 11
5274.069869687344
 21
1367.599993944256
  0
LINE
  5
209
100
AcDbEntity
  8
0
  6
CONTINUOUS
 62
           3
100
AcDbLine
 10
5272.626493853972
 20
1372.153416276109
 11
5272.626493853972
 21
1368.046581745312
  0
LINE
  5
208
100
AcDbEntity
  8
0
  6
CONTINUOUS
 62
           3
100
AcDbLine
 10
5278.399996721673
 20
1367.599993944256
 11
5274.069869687344
 21
1367.599993944256
  0
LINE
  5
207
100
AcDbEntity
  8
0
  6
CONTINUOUS
 62
           3
100
AcDbLine
 10
5282.730123756002
 20
1367.599993944256
 11
5278.399996721673
 21
1367.599993944256
  0
LINE
  5
206
100
AcDbEntity
  8
0
  6
CONTINUOUS
 62
           3
100
AcDbLine
 10
5274.069869687344
 20
1372.600004077041
 11
5273.399996833472
 21
1372.600004077009
  0
LINE
  5
205
100
AcDbEntity
  8
0
  6
CONTINUOUS
 62
           3
100
AcDbLine
 10
5283.399996609864
 20
1367.599993944114
 11
5282.730123756002
 21
1367.599993944256
  0
LINE
  5
204
100
AcDbEntity
  8
0
  6
CONTINUOUS
 62
           3
100
AcDbLine
 10
5274.069869687344
 20
1367.599993944256
 11
5273.399996833472
 21
1367.599993944114
  0
LINE
  5
203
100
AcDbEntity
  8
0
  6
CONTINUOUS
 62
           3
100
AcDbLine
 10
5228.39999597671
 20
1665.000006556369
 11
5232.399996632412
 21
1665.000006556369
  0
LINE
  5
202
100
AcDbEntity
  8
0
  6
CONTINUOUS
 62
           3
100
AcDbLine
 10
5224.399995321011
 20
1665.000006556369
 11
5228.39999597671
 21
1665.000006556369
  0
LINE
  5
201
100
AcDbEntity
  8
0
  6
CONTINUOUS
 62
           3
100
AcDbLine
 10
5275.399996695574
 20
1637.422651052293
 11
5281.399996747761
 21
1637.422651052293
  0
LINE
  5
200
100
AcDbEntity
  8
0
  6
CONTINUOUS
 62
           3
100
AcDbLine
 10
5280.399996816559
 20
1638.422653078993
 11
5276.399996626773
 21
1638.422653078993
  0
LINE
  5
1FF
100
AcDbEntity
  8
0
  6
CONTINUOUS
 62
           3
100
AcDbLine
 10
5286.399997101562
 20
1389.200001954996
 11
5281.899996829761
 21
1389.200001954996
  0
LINE
  5
1FE
100
AcDbEntity
  8
0
  6
CONTINUOUS
 62
           3
100
AcDbLine
 10
5274.899996613574
 20
1394.792847335491
 11
5281.899996829761
 21
1394.792847335491
  0
LINE
  5
1FD
100
AcDbEntity
  8
0
  6
CONTINUOUS
 62
           3
100
AcDbLine
 10
5274.899996613574
 20
1389.200001954996
 11
5270.399996341774
 21
1389.200001954996
  0
LINE
  5
1FC
100
AcDbEntity
  8
0
  6
CONTINUOUS
 62
           3
100
AcDbLine
 10
5281.899996829761
 20
1394.799999892894
 11
5281.899996829761
 21
1389.200001954996
  0
LINE
  5
1FB
100
AcDbEntity
  8
0
  6
CONTINUOUS
 62
           3
100
AcDbLine
 10
5274.899996613574
 20
1389.200001954996
 11
5274.899996613574
 21
1394.799999892894
  0
LINE
  5
1FA
100
AcDbEntity
  8
0
  6
CONTINUOUS
 62
           3
100
AcDbLine
 10
5270.399996341774
 20
1394.799999892894
 11
5270.399996341774
 21
1389.200001954996
  0
LINE
  5
1F9
100
AcDbEntity
  8
0
  6
CONTINUOUS
 62
           3
100
AcDbLine
 10
5286.399997101562
 20
1394.799999892894
 11
5286.399997101562
 21
1389.200001954996
  0
LINE
  5
1F8
100
AcDbEntity
  8
0
  6
CONTINUOUS
 62
           3
100
AcDbLine
 10
5281.899996829761
 20
1392.246469855294
 11
5281.399996747761
 21
1392.246469855294
  0
LINE
  5
1F7
100
AcDbEntity
  8
0
  6
CONTINUOUS
 62
           3
100
AcDbLine
 10
5275.399996695574
 20
1392.246469855294
 11
5274.899996613574
 21
1392.246469855294
  0
LINE
  5
1F6
100
AcDbEntity
  8
0
  6
CONTINUOUS
 62
           3
100
AcDbLine
 10
5281.899996829761
 20
1393.990144133492
 11
5274.899996613574
 21
1393.990144133492
  0
LINE
  5
1F5
100
AcDbEntity
  8
0
  6
CONTINUOUS
 62
           3
100
AcDbLine
 10
5274.899996613574
 20
1390.000000596097
 11
5281.899996829761
 21
1390.000000596097
  0
LINE
  5
1F4
100
AcDbEntity
  8
0
  6
CONTINUOUS
 62
           3
100
AcDbLine
 10
5274.899996613574
 20
1389.200001954996
 11
5281.899996829761
 21
1389.200001954996
  0
LINE
  5
1F3
100
AcDbEntity
  8
0
  6
CONTINUOUS
 62
           3
100
AcDbLine
 10
5278.399996721673
 20
1384.646579623295
 11
5280.899996665761
 21
1384.1999992729
  0
LINE
  5
1F2
100
AcDbEntity
  8
0
  6
CONTINUOUS
 62
           3
100
AcDbLine
 10
5275.899996777553
 20
1384.1999992729
 11
5280.899996665761
 21
1384.1999992729
  0
LINE
  5
1F1
100
AcDbEntity
  8
0
  6
CONTINUOUS
 62
           3
100
AcDbLine
 10
5278.399996721673
 20
1384.646579623295
 11
5278.399996721673
 21
1389.100000262195
  0
LINE
  5
1F0
100
AcDbEntity
  8
0
  6
CONTINUOUS
 62
           3
100
AcDbLine
 10
5273.399996833472
 20
1384.646579623302
 11
5275.899996777553
 21
1384.1999992729
  0
LINE
  5
1EF
100
AcDbEntity
  8
0
  6
CONTINUOUS
 62
           3
100
AcDbLine
 10
5273.399996833472
 20
1384.646579623302
 11
5273.399996833472
 21
1389.100000262195
  0
LINE
  5
1EE
100
AcDbEntity
  8
0
  6
CONTINUOUS
 62
           3
100
AcDbLine
 10
5283.399996609864
 20
1384.646579623302
 11
5283.399996609864
 21
1389.100000262195
  0
LINE
  5
1ED
100
AcDbEntity
  8
0
  6
CONTINUOUS
 62
           3
100
AcDbLine
 10
5273.399996833432
 20
1384.1999992729
 11
5275.899996777553
 21
1384.1999992729
  0
LINE
  5
1EC
100
AcDbEntity
  8
0
  6
CONTINUOUS
 62
           3
100
AcDbLine
 10
5280.899996665761
 20
1384.1999992729
 11
5283.399996609911
 21
1384.1999992729
  0
LINE
  5
1EB
100
AcDbEntity
  8
0
  6
CONTINUOUS
 62
           3
100
AcDbLine
 10
5286.399997101562
 20
1388.276241719796
 11
5283.399996609864
 21
1388.276241719796
  0
LINE
  5
1EA
100
AcDbEntity
  8
0
  6
CONTINUOUS
 62
           3
100
AcDbLine
 10
5273.399996833472
 20
1388.276241719796
 11
5270.399996341774
 21
1388.276241719796
  0
LINE
  5
1E9
100
AcDbEntity
  8
0
  6
CONTINUOUS
 62
           3
100
AcDbLine
 10
5270.399996341774
 20
1389.200001954996
 11
5270.399996341774
 21
1388.276241719796
  0
LINE
  5
1E8
100
AcDbEntity
  8
0
  6
CONTINUOUS
 62
           3
100
AcDbLine
 10
5286.399997101562
 20
1389.200001954996
 11
5286.399997101562
 21
1388.276241719796
  0
LINE
  5
1E7
100
AcDbEntity
  8
0
  6
CONTINUOUS
 62
           3
100
AcDbLine
 10
5248.399997392189
 20
1550.000000744964
 11
5258.399997168584
 21
1550.000000744964
  0
LINE
  5
1E6
100
AcDbEntity
  8
0
  6
CONTINUOUS
 62
           3
100
AcDbLine
 10
5258.399997168584
 20
1548.799999058065
 11
5258.399997168584
 21
1550.000000744964
  0
LINE
  5
1E5
100
AcDbEntity
  8
0
  6
CONTINUOUS
 62
           3
100
AcDbLine
 10
5248.399997392189
 20
1548.799999058065
 11
5258.399997168584
 21
1548.799999058065
  0
LINE
  5
1E4
100
AcDbEntity
  8
0
  6
CONTINUOUS
 62
           3
100
AcDbLine
 10
5248.399997392189
 20
1548.799999058065
 11
5248.399997392189
 21
1550.000000744964
  0
LINE
  5
1E3
100
AcDbEntity
  8
0
  6
CONTINUOUS
 62
           3
100
AcDbLine
 10
5298.399996274751
 20
1548.799999058065
 11
5298.399996274751
 21
1550.000000744964
  0
LINE
  5
1E2
100
AcDbEntity
  8
0
  6
CONTINUOUS
 62
           3
100
AcDbLine
 10
5283.649996650864
 20
1548.799999058065
 11
5298.399996274751
 21
1548.799999058065
  0
LINE
  5
1E1
100
AcDbEntity
  8
0
  6
CONTINUOUS
 62
           3
100
AcDbLine
 10
5283.649996650864
 20
1550.000000744964
 11
5298.399996274751
 21
1550.000000744964
  0
LINE
  5
1E0
100
AcDbEntity
  8
0
  6
CONTINUOUS
 62
           3
100
AcDbLine
 10
5258.399997168584
 20
1548.799999058065
 11
5273.149996792472
 21
1548.799999058065
  0
LINE
  5
1DF
100
AcDbEntity
  8
0
  6
CONTINUOUS
 62
           3
100
AcDbLine
 10
5258.399997168584
 20
1550.000000744964
 11
5273.149996792472
 21
1550.000000744964
  0
LINE
  5
1DE
100
AcDbEntity
  8
0
  6
CONTINUOUS
 62
           3
100
AcDbLine
 10
5258.399997168584
 20
1391.199998557593
 11
5258.399997168584
 21
1390.000000596097
  0
LINE
  5
1DD
100
AcDbEntity
  8
0
  6
CONTINUOUS
 62
           3
100
AcDbLine
 10
5258.399997168584
 20
1390.000000596097
 11
5270.399996341774
 21
1390.000000596097
  0
LINE
  5
1DC
100
AcDbEntity
  8
0
  6
CONTINUOUS
 62
           3
100
AcDbLine
 10
5258.399997168584
 20
1391.199998557593
 11
5270.399996341774
 21
1391.199998557593
  0
LINE
  5
1DB
100
AcDbEntity
  8
0
  6
CONTINUOUS
 62
           3
100
AcDbLine
 10
5281.649996788761
 20
1390.000000596097
 11
5281.649996788761
 21
1391.199998557593
  0
LINE
  5
1DA
100
AcDbEntity
  8
0
  6
CONTINUOUS
 62
           3
100
AcDbLine
 10
5281.649996788761
 20
1391.199998557593
 11
5281.899996829761
 21
1391.199998557593
  0
LINE
  5
1D9
100
AcDbEntity
  8
0
  6
CONTINUOUS
 62
           3
100
AcDbLine
 10
5308.399996051143
 20
1548.799999058065
 11
5308.399996051143
 21
1550.000000744964
  0
LINE
  5
1D8
100
AcDbEntity
  8
0
  6
CONTINUOUS
 62
           3
100
AcDbLine
 10
5308.399996051143
 20
1548.799999058065
 11
5298.399996274751
 21
1548.799999058065
  0
LINE
  5
1D7
100
AcDbEntity
  8
0
  6
CONTINUOUS
 62
           3
100
AcDbLine
 10
5308.399996051143
 20
1550.000000744964
 11
5298.399996274751
 21
1550.000000744964
  0
LINE
  5
1D6
100
AcDbEntity
  8
0
  6
CONTINUOUS
 62
           3
100
AcDbLine
 10
5281.649996788761
 20
1548.799999058065
 11
5281.649996788761
 21
1550.000000744964
  0
LINE
  5
1D5
100
AcDbEntity
  8
0
  6
CONTINUOUS
 62
           3
100
AcDbLine
 10
5283.649996650864
 20
1548.799999058065
 11
5281.649996788761
 21
1548.799999058065
  0
LINE
  5
1D4
100
AcDbEntity
  8
0
  6
CONTINUOUS
 62
           3
100
AcDbLine
 10
5281.649996788761
 20
1550.000000744964
 11
5283.649996650864
 21
1550.000000744964
  0
LINE
  5
1D3
100
AcDbEntity
  8
0
  6
CONTINUOUS
 62
           3
100
AcDbLine
 10
5248.399997392189
 20
1391.199998557593
 11
5248.399997392189
 21
1390.000000596097
  0
LINE
  5
1D2
100
AcDbEntity
  8
0
  6
CONTINUOUS
 62
           3
100
AcDbLine
 10
5248.399997392189
 20
1390.000000596097
 11
5258.399997168584
 21
1390.000000596097
  0
LINE
  5
1D1
100
AcDbEntity
  8
0
  6
CONTINUOUS
 62
           3
100
AcDbLine
 10
5248.399997392189
 20
1391.199998557593
 11
5258.399997168584
 21
1391.199998557593
  0
LINE
  5
1D0
100
AcDbEntity
  8
0
  6
CONTINUOUS
 62
           3
100
AcDbLine
 10
5298.399996274751
 20
1391.199998557593
 11
5298.399996274751
 21
1390.000000596097
  0
LINE
  5
1CF
100
AcDbEntity
  8
0
  6
CONTINUOUS
 62
           3
100
AcDbLine
 10
5286.399997101562
 20
1390.000000596097
 11
5298.399996274751
 21
1390.000000596097
  0
LINE
  5
1CE
100
AcDbEntity
  8
0
  6
CONTINUOUS
 62
           3
100
AcDbLine
 10
5286.399997101562
 20
1391.199998557593
 11
5298.399996274751
 21
1391.199998557593
  0
LINE
  5
1CD
100
AcDbEntity
  8
0
  6
CONTINUOUS
 62
           3
100
AcDbLine
 10
5275.149996654574
 20
1550.000000744964
 11
5275.149996654574
 21
1548.799999058065
  0
LINE
  5
1CC
100
AcDbEntity
  8
0
  6
CONTINUOUS
 62
           3
100
AcDbLine
 10
5275.149996654574
 20
1548.799999058065
 11
5273.149996792472
 21
1548.799999058065
  0
LINE
  5
1CB
100
AcDbEntity
  8
0
  6
CONTINUOUS
 62
           3
100
AcDbLine
 10
5273.149996792472
 20
1550.000000744964
 11
5275.149996654574
 21
1550.000000744964
  0
LINE
  5
1CA
100
AcDbEntity
  8
0
  6
CONTINUOUS
 62
           3
100
AcDbLine
 10
5308.399996051143
 20
1391.199998557593
 11
5308.399996051143
 21
1390.000000596097
  0
LINE
  5
1C9
100
AcDbEntity
  8
0
  6
CONTINUOUS
 62
           3
100
AcDbLine
 10
5308.399996051143
 20
1390.000000596097
 11
5298.399996274751
 21
1390.000000596097
  0
LINE
  5
1C8
100
AcDbEntity
  8
0
  6
CONTINUOUS
 62
           3
100
AcDbLine
 10
5308.399996051143
 20
1391.199998557593
 11
5298.399996274751
 21
1391.199998557593
  0
LINE
  5
1C7
100
AcDbEntity
  8
0
  6
CONTINUOUS
 62
           3
100
AcDbLine
 10
5275.149996654574
 20
1391.199998557593
 11
5275.149996654574
 21
1390.000000596097
  0
LINE
  5
1C6
100
AcDbEntity
  8
0
  6
CONTINUOUS
 62
           3
100
AcDbLine
 10
5274.899996613574
 20
1391.199998557593
 11
5275.149996654574
 21
1391.199998557593
  0
LINE
  5
1C5
100
AcDbEntity
  8
0
  6
CONTINUOUS
 62
           3
100
AcDbLine
 10
5225.399997347711
 20
1390.000000596097
 11
5225.399997347711
 21
1391.199998557593
  0
LINE
  5
1C4
100
AcDbEntity
  8
0
  6
CONTINUOUS
 62
           3
100
AcDbLine
 10
5223.399997019711
 20
1390.000000596097
 11
5225.399997347711
 21
1390.000000596097
  0
LINE
  5
1C3
100
AcDbEntity
  8
0
  6
CONTINUOUS
 62
           3
100
AcDbLine
 10
5225.399997347711
 20
1391.199998557593
 11
5223.399997019711
 21
1391.199998557593
  0
LINE
  5
1C2
100
AcDbEntity
  8
0
  6
CONTINUOUS
 62
           3
100
AcDbLine
 10
5231.399998331101
 20
1391.199998557593
 11
5231.399998331101
 21
1390.000000596097
  0
LINE
  5
1C1
100
AcDbEntity
  8
0
  6
CONTINUOUS
 62
           3
100
AcDbLine
 10
5231.399998331101
 20
1390.000000596097
 11
5233.399994933701
 21
1390.000000596097
  0
LINE
  5
1C0
100
AcDbEntity
  8
0
  6
CONTINUOUS
 62
           3
100
AcDbLine
 10
5233.399994933701
 20
1391.199998557593
 11
5231.399998331101
 21
1391.199998557593
  0
LINE
  5
1BF
100
AcDbEntity
  8
0
  6
CONTINUOUS
 62
           3
100
AcDbLine
 10
5331.399996095919
 20
1550.000000744964
 11
5331.399996095919
 21
1548.799999058065
  0
LINE
  5
1BE
100
AcDbEntity
  8
0
  6
CONTINUOUS
 62
           3
100
AcDbLine
 10
5331.399996095919
 20
1548.799999058065
 11
5333.399996423621
 21
1548.799999058065
  0
LINE
  5
1BD
100
AcDbEntity
  8
0
  6
CONTINUOUS
 62
           3
100
AcDbLine
 10
5333.399996423621
 20
1550.000000744964
 11
5331.399996095919
 21
1550.000000744964
  0
LINE
  5
1BC
100
AcDbEntity
  8
0
  6
CONTINUOUS
 62
           3
100
AcDbLine
 10
5325.399995112231
 20
1548.799999058065
 11
5325.399995112231
 21
1550.000000744964
  0
LINE
  5
1BB
100
AcDbEntity
  8
0
  6
CONTINUOUS
 62
           3
100
AcDbLine
 10
5323.399998509631
 20
1548.799999058065
 11
5325.399995112231
 21
1548.799999058065
  0
LINE
  5
1BA
100
AcDbEntity
  8
0
  6
CONTINUOUS
 62
           3
100
AcDbLine
 10
5325.399995112231
 20
1550.000000744964
 11
5323.399998509631
 21
1550.000000744964
  0
LINE
  5
1B9
100
AcDbEntity
  8
0
  6
CONTINUOUS
 62
           3
100
AcDbLine
 10
5331.399996095919
 20
1390.000000596097
 11
5331.399996095919
 21
1391.199998557593
  0
LINE
  5
1B8
100
AcDbEntity
  8
0
  6
CONTINUOUS
 62
           3
100
AcDbLine
 10
5333.399996423621
 20
1390.000000596097
 11
5331.399996095919
 21
1390.000000596097
  0
LINE
  5
1B7
100
AcDbEntity
  8
0
  6
CONTINUOUS
 62
           3
100
AcDbLine
 10
5331.399996095919
 20
1391.199998557593
 11
5333.399996423621
 21
1391.199998557593
  0
LINE
  5
1B6
100
AcDbEntity
  8
0
  6
CONTINUOUS
 62
           3
100
AcDbLine
 10
5325.399995112231
 20
1391.199998557593
 11
5325.399995112231
 21
1390.000000596097
  0
LINE
  5
1B5
100
AcDbEntity
  8
0
  6
CONTINUOUS
 62
           3
100
AcDbLine
 10
5325.399995112231
 20
1390.000000596097
 11
5323.399998509631
 21
1390.000000596097
  0
LINE
  5
1B4
100
AcDbEntity
  8
0
  6
CONTINUOUS
 62
           3
100
AcDbLine
 10
5323.399998509631
 20
1391.199998557593
 11
5325.399995112231
 21
1391.199998557593
  0
LINE
  5
1B3
100
AcDbEntity
  8
0
  6
CONTINUOUS
 62
           3
100
AcDbLine
 10
5225.399997347711
 20
1550.000000744964
 11
5225.399997347711
 21
1548.799999058065
  0
LINE
  5
1B2
100
AcDbEntity
  8
0
  6
CONTINUOUS
 62
           3
100
AcDbLine
 10
5225.399997347711
 20
1548.799999058065
 11
5223.399997019711
 21
1548.799999058065
  0
LINE
  5
1B1
100
AcDbEntity
  8
0
  6
CONTINUOUS
 62
           3
100
AcDbLine
 10
5223.399997019711
 20
1550.000000744964
 11
5225.399997347711
 21
1550.000000744964
  0
LINE
  5
1B0
100
AcDbEntity
  8
0
  6
CONTINUOUS
 62
           3
100
AcDbLine
 10
5231.399998331101
 20
1548.799999058065
 11
5231.399998331101
 21
1550.000000744964
  0
LINE
  5
1AF
100
AcDbEntity
  8
0
  6
CONTINUOUS
 62
           3
100
AcDbLine
 10
5233.399994933701
 20
1548.799999058065
 11
5231.399998331101
 21
1548.799999058065
  0
LINE
  5
1AE
100
AcDbEntity
  8
0
  6
CONTINUOUS
 62
           3
100
AcDbLine
 10
5231.399998331101
 20
1550.000000744964
 11
5233.399994933701
 21
1550.000000744964
  0
LINE
  5
1AD
100
AcDbEntity
  8
0
  6
CONTINUOUS
 62
           3
100
AcDbLine
 10
5233.399994933701
 20
1390.000000596097
 11
5248.399997392189
 21
1390.000000596097
  0
LINE
  5
1AC
100
AcDbEntity
  8
0
  6
CONTINUOUS
 62
           3
100
AcDbLine
 10
5233.399994933701
 20
1391.199998557593
 11
5248.399997392189
 21
1391.199998557593
  0
LINE
  5
1AB
100
AcDbEntity
  8
0
  6
CONTINUOUS
 62
           3
100
AcDbLine
 10
5338.39999538062
 20
1391.199998557593
 11
5338.39999538062
 21
1390.000000596097
  0
LINE
  5
1AA
100
AcDbEntity
  8
0
  6
CONTINUOUS
 62
           3
100
AcDbLine
 10
5338.39999538062
 20
1390.000000596097
 11
5333.399996423621
 21
1390.000000596097
  0
LINE
  5
1A9
100
AcDbEntity
  8
0
  6
CONTINUOUS
 62
           3
100
AcDbLine
 10
5333.399996423621
 20
1391.199998557593
 11
5338.39999538062
 21
1391.199998557593
  0
LINE
  5
1A8
100
AcDbEntity
  8
0
  6
CONTINUOUS
 62
           3
100
AcDbLine
 10
5233.399994933701
 20
1548.799999058065
 11
5248.399997392189
 21
1548.799999058065
  0
LINE
  5
1A7
100
AcDbEntity
  8
0
  6
CONTINUOUS
 62
           3
100
AcDbLine
 10
5233.399994933701
 20
1550.000000744964
 11
5248.399997392189
 21
1550.000000744964
  0
LINE
  5
1A6
100
AcDbEntity
  8
0
  6
CONTINUOUS
 62
           3
100
AcDbLine
 10
5323.399998509631
 20
1390.000000596097
 11
5308.399996051143
 21
1390.000000596097
  0
LINE
  5
1A5
100
AcDbEntity
  8
0
  6
CONTINUOUS
 62
           3
100
AcDbLine
 10
5323.399998509631
 20
1391.199998557593
 11
5308.399996051143
 21
1391.199998557593
  0
LINE
  5
1A4
100
AcDbEntity
  8
0
  6
CONTINUOUS
 62
           3
100
AcDbLine
 10
5338.39999538062
 20
1548.799999058065
 11
5338.39999538062
 21
1550.000000744964
  0
LINE
  5
1A3
100
AcDbEntity
  8
0
  6
CONTINUOUS
 62
           3
100
AcDbLine
 10
5333.399996423621
 20
1548.799999058065
 11
5338.39999538062
 21
1548.799999058065
  0
LINE
  5
1A2
100
AcDbEntity
  8
0
  6
CONTINUOUS
 62
           3
100
AcDbLine
 10
5338.39999538062
 20
1550.000000744964
 11
5333.399996423621
 21
1550.000000744964
  0
LINE
  5
1A1
100
AcDbEntity
  8
0
  6
CONTINUOUS
 62
           3
100
AcDbLine
 10
5323.399998509631
 20
1548.799999058065
 11
5308.399996051143
 21
1548.799999058065
  0
LINE
  5
1A0
100
AcDbEntity
  8
0
  6
CONTINUOUS
 62
           3
100
AcDbLine
 10
5323.399998509631
 20
1550.000000744964
 11
5308.399996051143
 21
1550.000000744964
  0
LINE
  5
19F
100
AcDbEntity
  8
0
  6
CONTINUOUS
 62
           3
100
AcDbLine
 10
5218.399998062712
 20
1548.799999058065
 11
5218.399998062712
 21
1550.000000744964
  0
LINE
  5
19E
100
AcDbEntity
  8
0
  6
CONTINUOUS
 62
           3
100
AcDbLine
 10
5223.399997019711
 20
1548.799999058065
 11
5218.399998062712
 21
1548.799999058065
  0
LINE
  5
19D
100
AcDbEntity
  8
0
  6
CONTINUOUS
 62
           3
100
AcDbLine
 10
5218.399998062712
 20
1550.000000744964
 11
5223.399997019711
 21
1550.000000744964
  0
LINE
  5
19C
100
AcDbEntity
  8
0
  6
CONTINUOUS
 62
           3
100
AcDbLine
 10
5218.399998062712
 20
1391.199998557593
 11
5218.399998062712
 21
1390.000000596097
  0
LINE
  5
19B
100
AcDbEntity
  8
0
  6
CONTINUOUS
 62
           3
100
AcDbLine
 10
5218.399998062712
 20
1390.000000596097
 11
5223.399997019711
 21
1390.000000596097
  0
LINE
  5
19A
100
AcDbEntity
  8
0
  6
CONTINUOUS
 62
           3
100
AcDbLine
 10
5223.399997019711
 20
1391.199998557593
 11
5218.399998062712
 21
1391.199998557593
  0
LINE
  5
199
100
AcDbEntity
  8
0
  6
CONTINUOUS
 62
           3
100
AcDbLine
 10
5281.649996788761
 20
1391.199998557593
 11
5281.399996747761
 21
1391.199998557593
  0
LINE
  5
198
100
AcDbEntity
  8
0
  6
CONTINUOUS
 62
           3
100
AcDbLine
 10
5275.399996695574
 20
1391.199998557593
 11
5275.149996654574
 21
1391.199998557593
  0
LINE
  5
197
100
AcDbEntity
  8
0
  6
CONTINUOUS
 62
           3
100
AcDbLine
 10
5275.149996654574
 20
1548.799999058065
 11
5275.399996695574
 21
1548.799999058065
  0
LINE
  5
196
100
AcDbEntity
  8
0
  6
CONTINUOUS
 62
           3
100
AcDbLine
 10
5281.399996747761
 20
1548.799999058065
 11
5281.649996788761
 21
1548.799999058065
  0
LINE
  5
195
100
AcDbEntity
  8
0
  6
CONTINUOUS
 62
           3
100
AcDbLine
 10
5275.149996654574
 20
1550.000000744964
 11
5275.399996695574
 21
1550.000000744964
  0
LINE
  5
194
100
AcDbEntity
  8
0
  6
CONTINUOUS
 62
           3
100
AcDbLine
 10
5281.399996747761
 20
1550.000000744964
 11
5281.649996788761
 21
1550.000000744964
  0
LINE
  5
193
100
AcDbEntity
  8
0
  6
CONTINUOUS
 62
           3
100
AcDbLine
 10
5338.39999538062
 20
1391.199998557593
 11
5338.39999538062
 21
1391.699999570792
  0
LINE
  5
192
100
AcDbEntity
  8
0
  6
CONTINUOUS
 62
           3
100
AcDbLine
 10
5218.399998062712
 20
1391.199998557593
 11
5218.399998062712
 21
1391.699999570792
  0
LINE
  5
191
100
AcDbEntity
  8
0
  6
CONTINUOUS
 62
           3
100
AcDbLine
 10
5218.399998062712
 20
1548.799999058065
 11
5218.399998062712
 21
1548.300001770265
  0
LINE
  5
190
100
AcDbEntity
  8
0
  6
CONTINUOUS
 62
           3
100
AcDbLine
 10
5338.39999538062
 20
1548.799999058065
 11
5338.39999538062
 21
1548.300001770265
  0
LINE
  5
18F
100
AcDbEntity
  8
0
  6
CONTINUOUS
 62
           3
100
AcDbLine
 10
5338.39999538062
 20
1529.999999329481
 11
5336.699996405623
 21
1529.999999329481
  0
LINE
  5
18E
100
AcDbEntity
  8
0
  6
CONTINUOUS
 62
           3
100
AcDbLine
 10
5338.39999538062
 20
1509.999999776395
 11
5338.39999538062
 21
1529.999999329481
  0
LINE
  5
18D
100
AcDbEntity
  8
0
  6
CONTINUOUS
 62
           3
100
AcDbLine
 10
5336.699996405623
 20
1509.999999776395
 11
5338.324804121021
 21
1509.999999776395
  0
LINE
  5
18C
100
AcDbEntity
  8
0
  6
CONTINUOUS
 62
           3
100
AcDbLine
 10
5220.399998390712
 20
1532.000001519879
 11
5218.399998062712
 21
1532.000001519879
  0
LINE
  5
18B
100
AcDbEntity
  8
0
  6
CONTINUOUS
 62
           3
100
AcDbLine
 10
5218.399998062712
 20
1548.300001770265
 11
5218.399998062712
 21
1532.000001519879
  0
LINE
  5
18A
100
AcDbEntity
  8
0
  6
CONTINUOUS
 62
           3
100
AcDbLine
 10
5338.39999538062
 20
1548.300001770265
 11
5338.39999538062
 21
1532.000001519879
  0
LINE
  5
189
100
AcDbEntity
  8
0
  6
CONTINUOUS
 62
           3
100
AcDbLine
 10
5336.39999505262
 20
1532.000001519879
 11
5338.39999538062
 21
1532.000001519879
  0
LINE
  5
188
100
AcDbEntity
  8
0
  6
CONTINUOUS
 62
           3
100
AcDbLine
 10
5336.699996405623
 20
1529.999999329481
 11
5336.39999505262
 21
1529.999999329481
  0
LINE
  5
187
100
AcDbEntity
  8
0
  6
CONTINUOUS
 62
           3
100
AcDbLine
 10
5336.39999505262
 20
1509.999999776395
 11
5336.699996405623
 21
1509.999999776395
  0
LINE
  5
186
100
AcDbEntity
  8
0
  6
CONTINUOUS
 62
           3
100
AcDbLine
 10
5338.39999538062
 20
1508.0000003799
 11
5336.39999505262
 21
1508.0000003799
  0
LINE
  5
185
100
AcDbEntity
  8
0
  6
CONTINUOUS
 62
           3
100
AcDbLine
 10
5338.39999538062
 20
1508.0000003799
 11
5338.39999538062
 21
1431.999996304559
  0
LINE
  5
184
100
AcDbEntity
  8
0
  6
CONTINUOUS
 62
           3
100
AcDbLine
 10
5338.39999538062
 20
1431.999996304559
 11
5336.39999505262
 21
1431.999996304559
  0
LINE
  5
183
100
AcDbEntity
  8
0
  6
CONTINUOUS
 62
           3
100
AcDbLine
 10
5336.39999505262
 20
1429.999999701962
 11
5336.699996405623
 21
1429.999999701962
  0
LINE
  5
182
100
AcDbEntity
  8
0
  6
CONTINUOUS
 62
           3
100
AcDbLine
 10
5336.699996405623
 20
1409.99999642378
 11
5336.39999505262
 21
1409.99999642378
  0
LINE
  5
181
100
AcDbEntity
  8
0
  6
CONTINUOUS
 62
           3
100
AcDbLine
 10
5336.39999505262
 20
1407.999999821183
 11
5338.39999538062
 21
1407.999999821183
  0
LINE
  5
180
100
AcDbEntity
  8
0
  6
CONTINUOUS
 62
           3
100
AcDbLine
 10
5338.39999538062
 20
1391.699999570792
 11
5338.39999538062
 21
1407.999999821183
  0
LINE
  5
17F
100
AcDbEntity
  8
0
  6
CONTINUOUS
 62
           3
100
AcDbLine
 10
5218.399998062712
 20
1391.699999570792
 11
5218.399998062712
 21
1407.999999821183
  0
LINE
  5
17E
100
AcDbEntity
  8
0
  6
CONTINUOUS
 62
           3
100
AcDbLine
 10
5220.399998390712
 20
1407.999999821183
 11
5218.399998062712
 21
1407.999999821183
  0
LINE
  5
17D
100
AcDbEntity
  8
0
  6
CONTINUOUS
 62
           3
100
AcDbLine
 10
5220.099997037713
 20
1409.99999642378
 11
5220.399998390712
 21
1409.99999642378
  0
LINE
  5
17C
100
AcDbEntity
  8
0
  6
CONTINUOUS
 62
           3
100
AcDbLine
 10
5220.399998390712
 20
1429.999999701962
 11
5220.099997037713
 21
1429.999999701962
  0
LINE
  5
17B
100
AcDbEntity
  8
0
  6
CONTINUOUS
 62
           3
100
AcDbLine
 10
5218.399998062712
 20
1431.999996304559
 11
5220.399998390712
 21
1431.999996304559
  0
LINE
  5
17A
100
AcDbEntity
  8
0
  6
CONTINUOUS
 62
           3
100
AcDbLine
 10
5218.399998062712
 20
1508.0000003799
 11
5218.399998062712
 21
1431.999996304559
  0
LINE
  5
179
100
AcDbEntity
  8
0
  6
CONTINUOUS
 62
           3
100
AcDbLine
 10
5218.399998062712
 20
1508.0000003799
 11
5220.399998390712
 21
1508.0000003799
  0
LINE
  5
178
100
AcDbEntity
  8
0
  6
CONTINUOUS
 62
           3
100
AcDbLine
 10
5220.399998390712
 20
1509.999999776395
 11
5220.099997037713
 21
1509.999999776395
  0
LINE
  5
177
100
AcDbEntity
  8
0
  6
CONTINUOUS
 62
           3
100
AcDbLine
 10
5220.099997037713
 20
1529.999999329481
 11
5220.399998390712
 21
1529.999999329481
  0
LINE
  5
176
100
AcDbEntity
  8
0
  6
CONTINUOUS
 62
           3
100
AcDbLine
 10
5218.399998062712
 20
1429.999999701962
 11
5218.399998062712
 21
1409.99999642378
  0
LINE
  5
175
100
AcDbEntity
  8
0
  6
CONTINUOUS
 62
           3
100
AcDbLine
 10
5220.099997037713
 20
1429.999999701962
 11
5218.399998062712
 21
1429.999999701962
  0
LINE
  5
174
100
AcDbEntity
  8
0
  6
CONTINUOUS
 62
           3
100
AcDbLine
 10
5218.475189322322
 20
1409.99999642378
 11
5220.099997037713
 21
1409.99999642378
  0
LINE
  5
173
100
AcDbEntity
  8
0
  6
CONTINUOUS
 62
           3
100
AcDbLine
 10
5220.099997037713
 20
1509.999999776395
 11
5218.475189322322
 21
1509.999999776395
  0
LINE
  5
172
100
AcDbEntity
  8
0
  6
CONTINUOUS
 62
           3
100
AcDbLine
 10
5218.399998062712
 20
1509.999999776395
 11
5218.399998062712
 21
1529.999999329481
  0
LINE
  5
171
100
AcDbEntity
  8
0
  6
CONTINUOUS
 62
           3
100
AcDbLine
 10
5218.399998062712
 20
1529.999999329481
 11
5220.099997037713
 21
1529.999999329481
  0
LINE
  5
170
100
AcDbEntity
  8
0
  6
CONTINUOUS
 62
           3
100
AcDbLine
 10
5338.39999538062
 20
1429.999999701962
 11
5338.39999538062
 21
1409.99999642378
  0
LINE
  5
16F
100
AcDbEntity
  8
0
  6
CONTINUOUS
 62
           3
100
AcDbLine
 10
5336.699996405623
 20
1429.999999701962
 11
5338.39999538062
 21
1429.999999701962
  0
LINE
  5
16E
100
AcDbEntity
  8
0
  6
CONTINUOUS
 62
           3
100
AcDbLine
 10
5338.324804121021
 20
1409.99999642378
 11
5336.699996405623
 21
1409.99999642378
  0
LINE
  5
16D
100
AcDbEntity
  8
0
  6
CONTINUOUS
 62
           3
100
AcDbLine
 10
5225.399997347711
 20
1364.999994635815
 11
5225.399997347711
 21
1366.600006818713
  0
LINE
  5
16C
100
AcDbEntity
  8
0
  6
CONTINUOUS
 62
           3
100
AcDbLine
 10
5223.399997019711
 20
1364.999994635815
 11
5225.399997347711
 21
1364.999994635815
  0
LINE
  5
16B
100
AcDbEntity
  8
0
  6
CONTINUOUS
 62
           3
100
AcDbLine
 10
5225.399997347711
 20
1366.600006818713
 11
5223.399997019711
 21
1366.600006818713
  0
LINE
  5
16A
100
AcDbEntity
  8
0
  6
CONTINUOUS
 62
           3
100
AcDbLine
 10
5223.399997019711
 20
1635.000005364196
 11
5225.399997347711
 21
1635.000005364196
  0
LINE
  5
169
100
AcDbEntity
  8
0
  6
CONTINUOUS
 62
           3
100
AcDbLine
 10
5225.399997347711
 20
1635.000005364196
 11
5225.399997347711
 21
1633.399993180996
  0
LINE
  5
168
100
AcDbEntity
  8
0
  6
CONTINUOUS
 62
           3
100
AcDbLine
 10
5225.399997347711
 20
1633.399993180996
 11
5223.399997019711
 21
1633.399993180996
  0
LINE
  5
167
100
AcDbEntity
  8
0
  6
CONTINUOUS
 62
           3
100
AcDbLine
 10
5231.399998331101
 20
1633.399993180996
 11
5231.399998331101
 21
1635.000005364196
  0
LINE
  5
166
100
AcDbEntity
  8
0
  6
CONTINUOUS
 62
           3
100
AcDbLine
 10
5231.399998331101
 20
1635.000005364196
 11
5233.399994933701
 21
1635.000005364196
  0
LINE
  5
165
100
AcDbEntity
  8
0
  6
CONTINUOUS
 62
           3
100
AcDbLine
 10
5233.399994933701
 20
1633.399993180996
 11
5231.399998331101
 21
1633.399993180996
  0
LINE
  5
164
100
AcDbEntity
  8
0
  6
CONTINUOUS
 62
           3
100
AcDbLine
 10
5231.399998331101
 20
1364.999994635815
 11
5233.399994933701
 21
1364.999994635815
  0
LINE
  5
163
100
AcDbEntity
  8
0
  6
CONTINUOUS
 62
           3
100
AcDbLine
 10
5231.399998331101
 20
1366.600006818713
 11
5231.399998331101
 21
1364.999994635815
  0
LINE
  5
162
100
AcDbEntity
  8
0
  6
CONTINUOUS
 62
           3
100
AcDbLine
 10
5233.399994933701
 20
1366.600006818713
 11
5231.399998331101
 21
1366.600006818713
  0
LINE
  5
161
100
AcDbEntity
  8
0
  6
CONTINUOUS
 62
           3
100
AcDbLine
 10
5233.399994933701
 20
1364.999994635815
 11
5323.399998509631
 21
1364.999994635815
  0
LINE
  5
160
100
AcDbEntity
  8
0
  6
CONTINUOUS
 62
           3
100
AcDbLine
 10
5233.399994933701
 20
1366.600006818713
 11
5323.399998509631
 21
1366.600006818713
  0
LINE
  5
15F
100
AcDbEntity
  8
0
  6
CONTINUOUS
 62
           3
100
AcDbLine
 10
5233.399994933701
 20
1635.000005364196
 11
5323.399998509631
 21
1635.000005364196
  0
LINE
  5
15E
100
AcDbEntity
  8
0
  6
CONTINUOUS
 62
           3
100
AcDbLine
 10
5233.399994933701
 20
1633.399993180996
 11
5323.399998509631
 21
1633.399993180996
  0
LINE
  5
15D
100
AcDbEntity
  8
0
  6
CONTINUOUS
 62
           3
100
AcDbLine
 10
5218.399998062712
 20
1366.600006818713
 11
5218.399998062712
 21
1364.999994635815
  0
LINE
  5
15C
100
AcDbEntity
  8
0
  6
CONTINUOUS
 62
           3
100
AcDbLine
 10
5218.399998062712
 20
1364.999994635815
 11
5223.399997019711
 21
1364.999994635815
  0
LINE
  5
15B
100
AcDbEntity
  8
0
  6
CONTINUOUS
 62
           3
100
AcDbLine
 10
5223.399997019711
 20
1366.600006818713
 11
5218.399998062712
 21
1366.600006818713
  0
LINE
  5
15A
100
AcDbEntity
  8
0
  6
CONTINUOUS
 62
           3
100
AcDbLine
 10
5218.399998062712
 20
1633.399993180996
 11
5218.399998062712
 21
1635.000005364196
  0
LINE
  5
159
100
AcDbEntity
  8
0
  6
CONTINUOUS
 62
           3
100
AcDbLine
 10
5218.399998062712
 20
1635.000005364196
 11
5223.399997019711
 21
1635.000005364196
  0
LINE
  5
158
100
AcDbEntity
  8
0
  6
CONTINUOUS
 62
           3
100
AcDbLine
 10
5223.399997019711
 20
1633.399993180996
 11
5218.399998062712
 21
1633.399993180996
  0
LINE
  5
157
100
AcDbEntity
  8
0
  6
CONTINUOUS
 62
           3
100
AcDbLine
 10
5331.399996095919
 20
1635.000005364196
 11
5331.399996095919
 21
1633.399993180996
  0
LINE
  5
156
100
AcDbEntity
  8
0
  6
CONTINUOUS
 62
           3
100
AcDbLine
 10
5333.399996423621
 20
1635.000005364196
 11
5331.399996095919
 21
1635.000005364196
  0
LINE
  5
155
100
AcDbEntity
  8
0
  6
CONTINUOUS
 62
           3
100
AcDbLine
 10
5331.399996095919
 20
1633.399993180996
 11
5333.399996423621
 21
1633.399993180996
  0
LINE
  5
154
100
AcDbEntity
  8
0
  6
CONTINUOUS
 62
           3
100
AcDbLine
 10
5331.399996095919
 20
1364.999994635815
 11
5331.399996095919
 21
1366.600006818713
  0
LINE
  5
153
100
AcDbEntity
  8
0
  6
CONTINUOUS
 62
           3
100
AcDbLine
 10
5333.399996423621
 20
1364.999994635815
 11
5331.399996095919
 21
1364.999994635815
  0
LINE
  5
152
100
AcDbEntity
  8
0
  6
CONTINUOUS
 62
           3
100
AcDbLine
 10
5331.399996095919
 20
1366.600006818713
 11
5333.399996423621
 21
1366.600006818713
  0
LINE
  5
151
100
AcDbEntity
  8
0
  6
CONTINUOUS
 62
           3
100
AcDbLine
 10
5325.399995112231
 20
1633.399993180996
 11
5325.399995112231
 21
1635.000005364196
  0
LINE
  5
150
100
AcDbEntity
  8
0
  6
CONTINUOUS
 62
           3
100
AcDbLine
 10
5325.399995112231
 20
1635.000005364196
 11
5323.399998509631
 21
1635.000005364196
  0
LINE
  5
14F
100
AcDbEntity
  8
0
  6
CONTINUOUS
 62
           3
100
AcDbLine
 10
5323.399998509631
 20
1633.399993180996
 11
5325.399995112231
 21
1633.399993180996
  0
LINE
  5
14E
100
AcDbEntity
  8
0
  6
CONTINUOUS
 62
           3
100
AcDbLine
 10
5325.399995112231
 20
1366.600006818713
 11
5325.399995112231
 21
1364.999994635815
  0
LINE
  5
14D
100
AcDbEntity
  8
0
  6
CONTINUOUS
 62
           3
100
AcDbLine
 10
5325.399995112231
 20
1364.999994635815
 11
5323.399998509631
 21
1364.999994635815
  0
LINE
  5
14C
100
AcDbEntity
  8
0
  6
CONTINUOUS
 62
           3
100
AcDbLine
 10
5323.399998509631
 20
1366.600006818713
 11
5325.399995112231
 21
1366.600006818713
  0
LINE
  5
14B
100
AcDbEntity
  8
0
  6
CONTINUOUS
 62
           3
100
AcDbLine
 10
5338.39999538062
 20
1366.600006818713
 11
5338.39999538062
 21
1364.999994635815
  0
LINE
  5
14A
100
AcDbEntity
  8
0
  6
CONTINUOUS
 62
           3
100
AcDbLine
 10
5338.39999538062
 20
1364.999994635815
 11
5333.399996423621
 21
1364.999994635815
  0
LINE
  5
149
100
AcDbEntity
  8
0
  6
CONTINUOUS
 62
           3
100
AcDbLine
 10
5333.399996423621
 20
1366.600006818713
 11
5338.39999538062
 21
1366.600006818713
  0
LINE
  5
148
100
AcDbEntity
  8
0
  6
CONTINUOUS
 62
           3
100
AcDbLine
 10
5338.39999538062
 20
1633.399993180996
 11
5338.39999538062
 21
1635.000005364196
  0
LINE
  5
147
100
AcDbEntity
  8
0
  6
CONTINUOUS
 62
           3
100
AcDbLine
 10
5338.39999538062
 20
1635.000005364196
 11
5333.399996423621
 21
1635.000005364196
  0
LINE
  5
146
100
AcDbEntity
  8
0
  6
CONTINUOUS
 62
           3
100
AcDbLine
 10
5333.399996423621
 20
1633.399993180996
 11
5338.39999538062
 21
1633.399993180996
  0
LINE
  5
145
100
AcDbEntity
  8
0
  6
CONTINUOUS
 62
           3
100
AcDbLine
 10
5338.39999538062
 20
1633.399993180996
 11
5338.39999538062
 21
1632.699996232994
  0
LINE
  5
144
100
AcDbEntity
  8
0
  6
CONTINUOUS
 62
           3
100
AcDbLine
 10
5218.399998062712
 20
1633.399993180996
 11
5218.399998062712
 21
1632.699996232994
  0
LINE
  5
143
100
AcDbEntity
  8
0
  6
CONTINUOUS
 62
           3
100
AcDbLine
 10
5338.39999538062
 20
1366.600006818713
 11
5338.39999538062
 21
1367.300003767014
  0
LINE
  5
142
100
AcDbEntity
  8
0
  6
CONTINUOUS
 62
           3
100
AcDbLine
 10
5218.399998062712
 20
1366.600006818713
 11
5218.399998062712
 21
1367.300003767014
  0
LINE
  5
141
100
AcDbEntity
  8
0
  6
CONTINUOUS
 62
           3
100
AcDbLine
 10
5197.999999189233
 20
1364.999994635815
 11
5195.899993443331
 21
1364.999994635815
  0
LINE
  5
140
100
AcDbEntity
  8
0
  6
CONTINUOUS
 62
           3
100
AcDbLine
 10
5195.899993443331
 20
1635.000005364196
 11
5195.899993443331
 21
1364.999994635815
  0
LINE
  5
13F
100
AcDbEntity
  8
0
  6
CONTINUOUS
 62
           3
100
AcDbLine
 10
5197.999999189233
 20
1635.000005364196
 11
5195.899993443331
 21
1635.000005364196
  0
LINE
  5
13E
100
AcDbEntity
  8
0
  6
CONTINUOUS
 62
           3
100
AcDbLine
 10
5339.899998420224
 20
1490.000000223612
 11
5338.39999538062
 21
1490.000000223612
  0
LINE
  5
13D
100
AcDbEntity
  8
0
  6
CONTINUOUS
 62
           3
100
AcDbLine
 10
5336.899996066124
 20
1431.999996304559
 11
5336.899996066124
 21
1429.999999701962
  0
LINE
  5
13C
100
AcDbEntity
  8
0
  6
CONTINUOUS
 62
           3
100
AcDbLine
 10
5338.324804121021
 20
1409.99999642378
 11
5339.899998420224
 21
1409.99999642378
  0
LINE
  5
13B
100
AcDbEntity
  8
0
  6
CONTINUOUS
 62
           3
100
AcDbLine
 10
5339.899998420224
 20
1409.99999642378
 11
5339.899998420224
 21
1490.000000223612
  0
LINE
  5
13A
100
AcDbEntity
  8
0
  6
CONTINUOUS
 62
           3
100
AcDbLine
 10
5336.899996066124
 20
1590.000003576231
 11
5339.899998420224
 21
1590.000003576231
  0
LINE
  5
139
100
AcDbEntity
  8
0
  6
CONTINUOUS
 62
           3
100
AcDbLine
 10
5336.899996066124
 20
1529.999999329481
 11
5336.899996066124
 21
1532.000001519879
  0
LINE
  5
138
100
AcDbEntity
  8
0
  6
CONTINUOUS
 62
           3
100
AcDbLine
 10
5336.899996066124
 20
1550.000000744964
 11
5336.899996066124
 21
1590.000003576231
  0
LINE
  5
137
100
AcDbEntity
  8
0
  6
CONTINUOUS
 62
           3
100
AcDbLine
 10
5339.899998420224
 20
1509.999999776395
 11
5338.324804121021
 21
1509.999999776395
  0
LINE
  5
136
100
AcDbEntity
  8
0
  6
CONTINUOUS
 62
           3
100
AcDbLine
 10
5339.899998420224
 20
1590.000003576231
 11
5339.899998420224
 21
1509.999999776395
  0
LINE
  5
135
100
AcDbEntity
  8
0
  6
CONTINUOUS
 62
           3
100
AcDbLine
 10
5218.475189322322
 20
1409.99999642378
 11
5216.899995023123
 21
1409.99999642378
  0
LINE
  5
134
100
AcDbEntity
  8
0
  6
CONTINUOUS
 62
           3
100
AcDbLine
 10
5219.899997377514
 20
1431.999996304559
 11
5219.899997377514
 21
1429.999999701962
  0
LINE
  5
133
100
AcDbEntity
  8
0
  6
CONTINUOUS
 62
           3
100
AcDbLine
 10
5216.899995023123
 20
1490.000000223612
 11
5218.399998062712
 21
1490.000000223612
  0
LINE
  5
132
100
AcDbEntity
  8
0
  6
CONTINUOUS
 62
           3
100
AcDbLine
 10
5216.899995023123
 20
1409.99999642378
 11
5216.899995023123
 21
1490.000000223612
  0
LINE
  5
131
100
AcDbEntity
  8
0
  6
CONTINUOUS
 62
           3
100
AcDbLine
 10
5218.399998062712
 20
1368.000000715314
 11
5218.399998062712
 21
1367.300003767014
  0
LINE
  5
130
100
AcDbEntity
  8
0
  6
CONTINUOUS
 62
           3
100
AcDbLine
 10
5213.399999106019
 20
1364.999994635815
 11
5213.399999106019
 21
1368.000000715314
  0
LINE
  5
12F
100
AcDbEntity
  8
0
  6
CONTINUOUS
 62
           3
100
AcDbLine
 10
5213.399999106019
 20
1635.000005364196
 11
5197.999999189233
 21
1635.000005364196
  0
LINE
  5
12E
100
AcDbEntity
  8
0
  6
CONTINUOUS
 62
           3
100
AcDbLine
 10
5213.399999106019
 20
1635.000005364196
 11
5213.399999106019
 21
1631.999999284697
  0
LINE
  5
12D
100
AcDbEntity
  8
0
  6
CONTINUOUS
 62
           3
100
AcDbLine
 10
5218.399998062712
 20
1631.999999284697
 11
5218.399998062712
 21
1632.699996232994
  0
LINE
  5
12C
100
AcDbEntity
  8
0
  6
CONTINUOUS
 62
           3
100
AcDbLine
 10
5338.39999538062
 20
1631.999999284697
 11
5338.39999538062
 21
1632.699996232994
  0
LINE
  5
12B
100
AcDbEntity
  8
0
  6
CONTINUOUS
 62
           3
100
AcDbLine
 10
5343.399994337313
 20
1635.000005364196
 11
5343.399994337313
 21
1631.999999284697
  0
LINE
  5
12A
100
AcDbEntity
  8
0
  6
CONTINUOUS
 62
           3
100
AcDbLine
 10
5343.399994337313
 20
1364.999994635815
 11
5343.399994337313
 21
1368.000000715314
  0
LINE
  5
129
100
AcDbEntity
  8
0
  6
CONTINUOUS
 62
           3
100
AcDbLine
 10
5338.39999538062
 20
1368.000000715314
 11
5338.39999538062
 21
1367.300003767014
  0
LINE
  5
128
100
AcDbEntity
  8
0
  6
CONTINUOUS
 62
           3
100
AcDbLine
 10
5216.899995023123
 20
1509.999999776395
 11
5218.475189322322
 21
1509.999999776395
  0
LINE
  5
127
100
AcDbEntity
  8
0
  6
CONTINUOUS
 62
           3
100
AcDbLine
 10
5219.899997377514
 20
1529.999999329481
 11
5219.899997377514
 21
1532.000001519879
  0
LINE
  5
126
100
AcDbEntity
  8
0
  6
CONTINUOUS
 62
           3
100
AcDbLine
 10
5219.899997377514
 20
1550.000000744964
 11
5219.899997377514
 21
1590.000003576231
  0
LINE
  5
125
100
AcDbEntity
  8
0
  6
CONTINUOUS
 62
           3
100
AcDbLine
 10
5219.899997377514
 20
1590.000003576231
 11
5216.899995023123
 21
1590.000003576231
  0
LINE
  5
124
100
AcDbEntity
  8
0
  6
CONTINUOUS
 62
           3
100
AcDbLine
 10
5216.899995023123
 20
1590.000003576231
 11
5216.899995023123
 21
1509.999999776395
  0
LINE
  5
123
100
AcDbEntity
  8
0
  6
CONTINUOUS
 62
           3
100
AcDbLine
 10
5213.399999106019
 20
1364.999994635815
 11
5197.999999189233
 21
1364.999994635815
  0
LINE
  5
122
100
AcDbEntity
  8
FORMAT
  6
DOT_CENTER
 62
           3
100
AcDbLine
 10
5203.499996721632
 20
1625.0
 11
5189.899996721742
 21
1625.0
  0
LINE
  5
121
100
AcDbEntity
  8
FORMAT
  6
DOT_CENTER
 62
           3
100
AcDbLine
 10
5203.499996721632
 20
1375.000000000007
 11
5189.899996721742
 21
1375.000000000007
  0
LINE
  5
120
100
AcDbEntity
  8
FORMAT
  6
CONTINUOUS
 62
           3
100
AcDbLine
 10
5292.399996721753
 20
1392.596845102893
 11
5281.899996721762
 21
1392.596845102893
  0
LINE
  5
11F
100
AcDbEntity
  8
FORMAT
  6
CONTINUOUS
 62
           3
100
AcDbLine
 10
5281.899996721762
 20
1392.596845102893
 11
5274.899996721571
 21
1392.596845102893
  0
LINE
  5
11E
100
AcDbEntity
  8
FORMAT
  6
DOT_CENTER
 62
           3
100
AcDbLine
 10
5278.399996721673
 20
1249.759397252256
 11
5278.399996721673
 21
1725.394390768569
  0
LINE
  5
11D
100
AcDbEntity
  8
FORMAT
  6
CONTINUOUS
 62
           3
100
AcDbLine
 10
5274.899996721571
 20
1392.596845102893
 11
5264.399996721582
 21
1392.596845102893
  0
LINE
  5
11C
100
AcDbEntity
  8
0
  6
CONTINUOUS
 62
           3
100
AcDbLine
 10
5278.399996721673
 20
1393.131740391393
 11
5279.455269949172
 21
1393.116392195192
  0
LINE
  5
11B
100
AcDbEntity
  8
0
  6
CONTINUOUS
 62
           3
100
AcDbLine
 10
5279.455269949172
 20
1393.116392195192
 11
5280.39618794006
 21
1393.072016537193
  0
LINE
  5
11A
100
AcDbEntity
  8
0
  6
CONTINUOUS
 62
           3
100
AcDbLine
 10
5280.39618794006
 20
1393.072016537193
 11
5281.120787869761
 21
1393.003411590991
  0
LINE
  5
119
100
AcDbEntity
  8
0
  6
CONTINUOUS
 62
           3
100
AcDbLine
 10
5281.120787869761
 20
1393.003411590991
 11
5281.550547602961
 21
1392.918020486792
  0
LINE
  5
118
100
AcDbEntity
  8
0
  6
CONTINUOUS
 62
           3
100
AcDbLine
 10
5281.550547602961
 20
1392.918020486792
 11
5281.638896354962
 21
1392.825089394992
  0
LINE
  5
117
100
AcDbEntity
  8
0
  6
CONTINUOUS
 62
           3
100
AcDbLine
 10
5281.638896354962
 20
1392.825089394992
 11
5281.399996747761
 21
1392.739541828793
  0
LINE
  5
116
100
AcDbEntity
  8
0
  6
CONTINUOUS
 62
           3
100
AcDbLine
 10
5275.399996695574
 20
1392.739541828793
 11
5275.16109708837
 21
1392.825089394992
  0
LINE
  5
115
100
AcDbEntity
  8
0
  6
CONTINUOUS
 62
           3
100
AcDbLine
 10
5275.16109708837
 20
1392.825089394992
 11
5275.249445840374
 21
1392.918020486792
  0
LINE
  5
114
100
AcDbEntity
  8
0
  6
CONTINUOUS
 62
           3
100
AcDbLine
 10
5275.249445840374
 20
1392.918020486792
 11
5275.679205573571
 21
1393.003411590991
  0
LINE
  5
113
100
AcDbEntity
  8
0
  6
CONTINUOUS
 62
           3
100
AcDbLine
 10
5275.679205573571
 20
1393.003411590991
 11
5276.403805503273
 21
1393.072016537193
  0
LINE
  5
112
100
AcDbEntity
  8
0
  6
CONTINUOUS
 62
           3
100
AcDbLine
 10
5276.403805503273
 20
1393.072016537193
 11
5277.344723494171
 21
1393.116392195192
  0
LINE
  5
111
100
AcDbEntity
  8
0
  6
CONTINUOUS
 62
           3
100
AcDbLine
 10
5277.344723494171
 20
1393.116392195192
 11
5278.399996721673
 21
1393.131740391393
  0
LINE
  5
110
100
AcDbEntity
  8
1
  6
CONTINUOUS
 62
           3
100
AcDbLine
 10
5782.663567691041
 20
1919.128165004934
 11
5777.754330418633
 21
1919.128165004934
  0
LINE
  5
10F
100
AcDbEntity
  8
1
  6
DOT_CENTER
 62
           3
100
AcDbLine
 10
5782.663567691041
 20
1938.643555804874
 11
5782.663567691041
 21
1907.508008255125
  0
LINE
  5
10E
100
AcDbEntity
  8
1
  6
CONTINUOUS
 62
           3
100
AcDbLine
 10
5777.754330418633
 20
1930.871834995069
 11
5782.663567691041
 21
1930.871834995069
  0
LINE
  5
10D
100
AcDbEntity
  8
1
  6
CONTINUOUS
 62
           3
100
AcDbLine
 10
5777.754330418633
 20
1932.69374658004
 11
5771.889214871942
 21
1932.69374658004
  0
LINE
  5
10C
100
AcDbEntity
  8
1
  6
CONTINUOUS
 62
           3
100
AcDbLine
 10
5777.754330418633
 20
1917.30625341996
 11
5771.889214871942
 21
1917.30625341996
  0
LINE
  5
10B
100
AcDbEntity
  8
1
  6
CONTINUOUS
 62
           3
100
AcDbLine
 10
5777.754330418633
 20
1917.30625341996
 11
5777.754330418633
 21
1932.69374658004
  0
LINE
  5
10A
100
AcDbEntity
  8
1
  6
CONTINUOUS
 62
           3
100
AcDbLine
 10
5771.889214871942
 20
1917.30625341996
 11
5771.889214871942
 21
1932.69374658004
  0
LINE
  5
109
100
AcDbEntity
  8
1
  6
CONTINUOUS
 62
           3
100
AcDbLine
 10
5771.889214871942
 20
1932.69374658004
 11
5771.889214871942
 21
1933.25
  0
LINE
  5
108
100
AcDbEntity
  8
1
  6
CONTINUOUS
 62
           3
100
AcDbLine
 10
5762.214603906643
 20
1925.0
 11
5762.214603906643
 21
1933.25
  0
LINE
  5
107
100
AcDbEntity
  8
1
  6
CONTINUOUS
 62
           3
100
AcDbLine
 10
5762.214603906643
 20
1933.25
 11
5771.889214871942
 21
1933.25
  0
LINE
  5
106
100
AcDbEntity
  8
1
  6
CONTINUOUS
 62
           3
100
AcDbLine
 10
5761.368798384461
 20
1931.0
 11
5762.214603906643
 21
1931.0
  0
LINE
  5
105
100
AcDbEntity
  8
1
  6
CONTINUOUS
 62
           3
100
AcDbLine
 10
5761.368798384461
 20
1925.0
 11
5761.368798384461
 21
1932.69374658004
  0
LINE
  5
104
100
AcDbEntity
  8
1
  6
CONTINUOUS
 62
           3
100
AcDbLine
 10
5760.663567691041
 20
1932.69374658004
 11
5761.368798384461
 21
1932.69374658004
  0
LINE
  5
103
100
AcDbEntity
  8
1
  6
CONTINUOUS
 62
           3
100
AcDbLine
 10
5760.163567691041
 20
1932.19374658004
 11
5760.163567691041
 21
1925.0
  0
LINE
  5
102
100
AcDbEntity
  8
1
  6
CONTINUOUS
 62
           3
100
AcDbLine
 10
5760.163567691041
 20
1925.0
 11
5760.163567691041
 21
1917.80625341996
  0
LINE
  5
101
100
AcDbEntity
  8
1
  6
CONTINUOUS
 62
           3
100
AcDbLine
 10
5761.368798384461
 20
1917.30625341996
 11
5760.663567691041
 21
1917.30625341996
  0
LINE
  5
100
100
AcDbEntity
  8
1
  6
CONTINUOUS
 62
           3
100
AcDbLine
 10
5761.368798384461
 20
1917.30625341996
 11
5761.368798384461
 21
1925.0
  0
LINE
  5
FF
100
AcDbEntity
  8
1
  6
CONTINUOUS
 62
           3
100
AcDbLine
 10
5762.214603906643
 20
1919.0
 11
5761.368798384461
 21
1919.0
  0
LINE
  5
FE
100
AcDbEntity
  8
1
  6
CONTINUOUS
 62
           3
100
AcDbLine
 10
5762.214603906643
 20
1916.75
 11
5762.214603906643
 21
1925.0
  0
LINE
  5
FD
100
AcDbEntity
  8
1
  6
CONTINUOUS
 62
           3
100
AcDbLine
 10
5771.889214871942
 20
1916.75
 11
5762.214603906643
 21
1916.75
  0
LINE
  5
FC
100
AcDbEntity
  8
1
  6
CONTINUOUS
 62
           3
100
AcDbLine
 10
5771.889214871942
 20
1916.75
 11
5771.889214871942
 21
1917.30625341996
  0
LINE
  5
FB
100
AcDbEntity
  8
1
  6
DOT_CENTER
 62
           3
100
AcDbLine
 10
5758.718519558621
 20
1925.0
 11
5800.16769526244
 21
1925.0
  0
LINE
  5
FA
100
AcDbEntity
  8
1
  6
CONTINUOUS
 62
           3
100
AcDbLine
 10
5776.989527668229
 20
1917.30625341996
 11
5782.663567691041
 21
1914.030344885398
  0
LINE
  5
F9
100
AcDbEntity
  8
1
  6
CONTINUOUS
 62
           3
100
AcDbLine
 10
5782.663567691041
 20
1914.030344885398
 11
5792.163567691041
 21
1919.515172442699
  0
LINE
  5
F8
100
AcDbEntity
  8
1
  6
CONTINUOUS
 62
           3
100
AcDbLine
 10
5792.163567691041
 20
1919.515172442699
 11
5792.163567691041
 21
1930.484827557302
  0
LINE
  5
F7
100
AcDbEntity
  8
1
  6
CONTINUOUS
 62
           3
100
AcDbLine
 10
5792.163567691041
 20
1930.484827557302
 11
5782.663567691041
 21
1935.969655114603
  0
LINE
  5
F6
100
AcDbEntity
  8
1
  6
CONTINUOUS
 62
           3
100
AcDbLine
 10
5782.663567691041
 20
1935.969655114603
 11
5776.989527668222
 21
1932.69374658004
  0
LINE
  5
F5
100
AcDbEntity
  8
1
  6
CONTINUOUS
 62
           4
100
AcDbLine
 10
5342.499999999999
 20
520.0
 11
4882.499999999999
 21
520.0
  0
LINE
  5
F4
100
AcDbEntity
  8
1
  6
CONTINUOUS
 62
           7
100
AcDbLine
 10
4912.499999999999
 20
1752.999999999999
 11
4912.499999999999
 21
1639.999999999999
  0
LINE
  5
F3
100
AcDbEntity
  8
1
  6
CONTINUOUS
 62
           7
100
AcDbLine
 10
5092.499999999999
 20
1752.999999999999
 11
4912.499999999999
 21
1752.999999999999
  0
LINE
  5
F2
100
AcDbEntity
  8
1
  6
CONTINUOUS
 62
           7
100
AcDbLine
 10
5092.499999999999
 20
1639.999999999999
 11
5092.499999999999
 21
1752.999999999999
  0
LINE
  5
F1
100
AcDbEntity
  8
1
  6
CONTINUOUS
 62
           7
100
AcDbLine
 10
4912.499999999999
 20
1639.999999999999
 11
5092.499999999999
 21
1639.999999999999
  0
LINE
  5
F0
100
AcDbEntity
  8
1
  6
CONTINUOUS
 62
           7
100
AcDbLine
 10
-2319.497691536609
 20
986.513526798368
 11
-1175.0
 21
986.513526798368
  0
LINE
  5
EF
100
AcDbEntity
  8
1
  6
DOT_CENTER
 62
           2
100
AcDbLine
 10
0.0
 20
3258.100191243952
 11
0.0
 21
-132.320951402984
  0
LINE
  5
EE
100
AcDbEntity
  8
1
  6
CONTINUOUS
 62
           4
100
AcDbLine
 10
520.0
 20
5483.37593644696
 11
520.0
 21
5395.0
  0
LINE
  5
ED
100
AcDbEntity
  8
1
  6
CONTINUOUS
 62
           4
100
AcDbLine
 10
431.697247696054
 20
5355.0
 11
980.0
 21
5355.0
  0
LINE
  5
EC
100
AcDbEntity
  8
1
  6
CONTINUOUS
 62
           7
100
AcDbLine
 10
449.065321133574
 20
5375.0
 11
2550.0
 21
5375.0
  0
LINE
  5
EB
100
AcDbEntity
  8
1
  6
CONTINUOUS
 62
           7
100
AcDbLine
 10
500.0
 20
6079.6563972429
 11
500.0
 21
6375.0
  0
LINE
  5
EA
100
AcDbEntity
  8
1
  6
CONTINUOUS
 62
           4
100
AcDbLine
 10
-824.000000000002
 20
6355.0
 11
-980.0
 21
6355.0
  0
LINE
  5
E9
100
AcDbEntity
  8
1
  6
CONTINUOUS
 62
           7
100
AcDbLine
 10
-814.000000000002
 20
6375.000000000001
 11
-2550.0
 21
6375.0
  0
LINE
  5
E8
100
AcDbEntity
  8
1
  6
DOT_CENTER
 62
           2
100
AcDbLine
 10
671.568555727025
 20
5834.999999999999
 11
-894.501607203426
 21
5834.999999999999
  0
LINE
  5
E7
100
AcDbEntity
  8
1
  6
CONTINUOUS
 62
           7
100
AcDbLine
 10
500.0
 20
5375.0
 11
500.0
 21
5448.291605479248
  0
LINE
  5
E6
100
AcDbEntity
  8
1
  6
CONTINUOUS
 62
           7
100
AcDbLine
 10
5362.499999999999
 20
2000.0
 11
5362.499999999999
 21
2075.0
  0
LINE
  5
E5
100
AcDbEntity
  8
1
  6
CONTINUOUS
 62
           4
100
AcDbLine
 10
5342.499999999999
 20
1980.0
 11
4882.5
 21
1980.0
  0
LINE
  5
E4
100
AcDbEntity
  8
1
  6
CONTINUOUS
 62
           7
100
AcDbLine
 10
5362.499999999999
 20
500.0
 11
5362.499999999999
 21
1767.293273528174
  0
LINE
  5
E3
100
AcDbEntity
  8
1
  6
CONTINUOUS
 62
           4
100
AcDbLine
 10
5342.499999999999
 20
520.0
 11
5342.499999999999
 21
1711.73500191783
  0
LINE
  5
E2
100
AcDbEntity
  8
1
  6
CONTINUOUS
 62
           7
100
AcDbLine
 10
5092.499999999999
 20
1589.999999999999
 11
5092.499999999999
 21
1350.0
  0
LINE
  5
E1
100
AcDbEntity
  8
1
  6
CONTINUOUS
 62
           7
100
AcDbLine
 10
4912.499999999999
 20
1350.0
 11
4912.499999999999
 21
1589.999999999999
  0
LINE
  5
E0
100
AcDbEntity
  8
1
  6
CONTINUOUS
 62
           7
100
AcDbLine
 10
4912.499999999999
 20
1589.999999999999
 11
5092.499999999999
 21
1589.999999999999
  0
LINE
  5
DF
100
AcDbEntity
  8
1
  6
CONTINUOUS
 62
           7
100
AcDbLine
 10
5092.499999999999
 20
1350.0
 11
4912.499999999999
 21
1350.0
  0
LINE
  5
DE
100
AcDbEntity
  8
1
  6
CONTINUOUS
 62
           7
100
AcDbLine
 10
4602.499999999999
 20
1953.0
 11
4412.499999999999
 21
1953.0
  0
LINE
  5
DD
100
AcDbEntity
  8
1
  6
CONTINUOUS
 62
           7
100
AcDbLine
 10
4412.499999999999
 20
1953.0
 11
4412.499999999999
 21
1865.0
  0
LINE
  5
DC
100
AcDbEntity
  8
1
  6
CONTINUOUS
 62
           7
100
AcDbLine
 10
4412.499999999999
 20
1865.0
 11
4602.499999999999
 21
1865.0
  0
LINE
  5
DB
100
AcDbEntity
  8
1
  6
CONTINUOUS
 62
           7
100
AcDbLine
 10
4602.499999999999
 20
1865.0
 11
4602.499999999999
 21
1953.0
  0
LINE
  5
DA
100
AcDbEntity
  8
1
  6
CONTINUOUS
 62
           7
100
AcDbLine
 10
4842.499999999999
 20
1092.5
 11
4745.0
 21
1092.5
  0
LINE
  5
D9
100
AcDbEntity
  8
1
  6
CONTINUOUS
 62
           7
100
AcDbLine
 10
4842.499999999999
 20
1107.5
 11
4745.0
 21
1107.5
  0
LINE
  5
D8
100
AcDbEntity
  8
1
  6
CONTINUOUS
 62
           7
100
AcDbLine
 10
4724.999999999999
 20
1180.0
 11
4724.999999999999
 21
1112.5
  0
LINE
  5
D7
100
AcDbEntity
  8
1
  6
CONTINUOUS
 62
           7
100
AcDbLine
 10
4739.999999999999
 20
1180.0
 11
4739.999999999999
 21
1112.5
  0
LINE
  5
D6
100
AcDbEntity
  8
1
  6
CONTINUOUS
 62
           7
100
AcDbLine
 10
4462.499999999999
 20
1630.0
 11
4462.499999999999
 21
1180.0
  0
LINE
  5
D5
100
AcDbEntity
  8
1
  6
CONTINUOUS
 62
           7
100
AcDbLine
 10
4762.499999999999
 20
1630.0
 11
4462.499999999999
 21
1630.0
  0
LINE
  5
D4
100
AcDbEntity
  8
1
  6
CONTINUOUS
 62
           7
100
AcDbLine
 10
4762.499999999999
 20
1180.0
 11
4762.499999999999
 21
1630.0
  0
LINE
  5
D3
100
AcDbEntity
  8
1
  6
CONTINUOUS
 62
           7
100
AcDbLine
 10
4462.499999999999
 20
1180.0
 11
4762.499999999999
 21
1180.0
  0
LINE
  5
D2
100
AcDbEntity
  8
1
  6
CONTINUOUS
 62
           7
100
AcDbLine
 10
4412.500000000001
 20
2130.0
 11
4412.500000000001
 21
2150.0
  0
LINE
  5
D1
100
AcDbEntity
  8
1
  6
CONTINUOUS
 62
           7
100
AcDbLine
 10
4362.5
 20
2150.0
 11
4412.500000000001
 21
2150.0
  0
LINE
  5
D0
100
AcDbEntity
  8
1
  6
CONTINUOUS
 62
           7
100
AcDbLine
 10
4362.5
 20
0.0
 11
4362.5
 21
2150.0
  0
LINE
  5
CF
100
AcDbEntity
  8
1
  6
CONTINUOUS
 62
           4
100
AcDbLine
 10
4382.500000000001
 20
20.0
 11
4842.499999999999
 21
20.0
  0
LINE
  5
CE
100
AcDbEntity
  8
1
  6
CONTINUOUS
 62
           4
100
AcDbLine
 10
4842.499999999999
 20
20.0
 11
4842.499999999999
 21
1980.0
  0
LINE
  5
CD
100
AcDbEntity
  8
1
  6
CONTINUOUS
 62
           4
100
AcDbLine
 10
4842.499999999999
 20
1980.0
 11
4382.5
 21
1980.0
  0
LINE
  5
CC
100
AcDbEntity
  8
1
  6
CONTINUOUS
 62
           4
100
AcDbLine
 10
4382.5
 20
1980.0
 11
4382.500000000001
 21
20.0
  0
LINE
  5
CB
100
AcDbEntity
  8
1
  6
CONTINUOUS
 62
           7
100
AcDbLine
 10
4862.499999999999
 20
0.0
 11
4862.499999999999
 21
2000.0
  0
LINE
  5
CA
100
AcDbEntity
  8
1
  6
CONTINUOUS
 62
           4
100
AcDbLine
 10
4882.499999999999
 20
479.385061529882
 11
4882.499999999999
 21
20.0
  0
LINE
  5
C9
100
AcDbEntity
  8
1
  6
CONTINUOUS
 62
           4
100
AcDbLine
 10
4882.5
 20
1980.0
 11
4882.499999999999
 21
520.0
  0
LINE
  5
C8
100
AcDbEntity
  8
1
  6
CONTINUOUS
 62
           7
100
AcDbLine
 10
-1015.0
 20
540.0
 11
-2485.0
 21
540.0
  0
LINE
  5
C7
100
AcDbEntity
  8
1
  6
CONTINUOUS
 62
           7
100
AcDbLine
 10
-1015.0
 20
500.0
 11
-985.0
 21
500.0
  0
LINE
  5
C6
100
AcDbEntity
  8
1
  6
CONTINUOUS
 62
           7
100
AcDbLine
 10
-1000.0
 20
500.0
 11
-1000.0
 21
2000.0
  0
LINE
  5
C5
100
AcDbEntity
  8
1
  6
CONTINUOUS
 62
           7
100
AcDbLine
 10
985.0
 20
540.0
 11
-985.0
 21
540.0
  0
LINE
  5
C4
100
AcDbEntity
  8
1
  6
CONTINUOUS
 62
           7
100
AcDbLine
 10
985.0
 20
500.0
 11
1015.0
 21
500.0
  0
LINE
  5
C3
100
AcDbEntity
  8
1
  6
CONTINUOUS
 62
           7
100
AcDbLine
 10
1000.0
 20
2000.0
 11
1000.0
 21
500.0
  0
LINE
  5
C2
100
AcDbEntity
  8
1
  6
CONTINUOUS
 62
           4
100
AcDbLine
 10
1020.0
 20
6355.0
 11
1020.0
 21
5395.0
  0
LINE
  5
C1
100
AcDbEntity
  8
1
  6
CONTINUOUS
 62
           4
100
AcDbLine
 10
980.0
 20
6355.0
 11
520.0
 21
6355.0
  0
LINE
  5
C0
100
AcDbEntity
  8
1
  6
CONTINUOUS
 62
           4
100
AcDbLine
 10
-980.0
 20
6355.0
 11
-980.0
 21
5395.0
  0
LINE
  5
BF
100
AcDbEntity
  8
1
  6
CONTINUOUS
 62
           4
100
AcDbLine
 10
-1020.0
 20
6355.0
 11
-2480.0
 21
6355.0
  0
LINE
  5
BE
100
AcDbEntity
  8
1
  6
CONTINUOUS
 62
           7
100
AcDbLine
 10
1000.0
 20
475.000000000001
 11
1000.0
 21
400.0
  0
LINE
  5
BD
100
AcDbEntity
  8
1
  6
CONTINUOUS
 62
           7
100
AcDbLine
 10
-1000.0
 20
475.000000000001
 11
-1000.0
 21
400.0
  0
LINE
  5
BC
100
AcDbEntity
  8
1
  6
CONTINUOUS
 62
           7
100
AcDbLine
 10
-985.0
 20
540.0
 11
-985.0
 21
475.000000000001
  0
LINE
  5
BB
100
AcDbEntity
  8
1
  6
CONTINUOUS
 62
           7
100
AcDbLine
 10
-1015.0
 20
475.000000000001
 11
-1015.0
 21
540.0
  0
LINE
  5
BA
100
AcDbEntity
  8
1
  6
CONTINUOUS
 62
           7
100
AcDbLine
 10
1015.0
 20
540.0
 11
1015.0
 21
475.000000000001
  0
LINE
  5
B9
100
AcDbEntity
  8
1
  6
CONTINUOUS
 62
           7
100
AcDbLine
 10
985.0
 20
475.000000000001
 11
985.0
 21
540.0
  0
LINE
  5
B8
100
AcDbEntity
  8
1
  6
CONTINUOUS
 62
           4
100
AcDbLine
 10
1020.0
 20
5355.0
 11
1020.0
 21
4425.0
  0
LINE
  5
B7
100
AcDbEntity
  8
1
  6
CONTINUOUS
 62
           4
100
AcDbLine
 10
980.0
 20
5395.0
 11
980.0
 21
6355.0
  0
LINE
  5
B6
100
AcDbEntity
  8
1
  6
CONTINUOUS
 62
           4
100
AcDbLine
 10
980.0
 20
5395.0
 11
520.0
 21
5395.0
  0
LINE
  5
B5
100
AcDbEntity
  8
1
  6
CONTINUOUS
 62
           4
100
AcDbLine
 10
-980.0
 20
5395.0
 11
-641.099621146523
 21
5395.0
  0
LINE
  5
B4
100
AcDbEntity
  8
1
  6
CONTINUOUS
 62
           4
100
AcDbLine
 10
-980.0
 20
5355.0
 11
-603.938614456555
 21
5355.0
  0
LINE
  5
B3
100
AcDbEntity
  8
1
  6
CONTINUOUS
 62
           4
100
AcDbLine
 10
-980.0
 20
5355.0
 11
-980.0
 21
4425.0
  0
LINE
  5
B2
100
AcDbEntity
  8
1
  6
CONTINUOUS
 62
           4
100
AcDbLine
 10
-1020.0
 20
5395.0
 11
-1020.0
 21
6355.0
  0
LINE
  5
B1
100
AcDbEntity
  8
1
  6
CONTINUOUS
 62
           7
100
AcDbLine
 10
-1000.0
 20
6375.0
 11
-1000.0
 21
4425.0
  0
LINE
  5
B0
100
AcDbEntity
  8
1
  6
CONTINUOUS
 62
           4
100
AcDbLine
 10
-1020.0
 20
4425.0
 11
-1020.0
 21
5355.0
  0
LINE
  5
AF
100
AcDbEntity
  8
1
  6
CONTINUOUS
 62
           7
100
AcDbLine
 10
1000.0
 20
6375.0
 11
1000.0
 21
4425.0
  0
LINE
  5
AE
100
AcDbEntity
  8
1
  6
CONTINUOUS
 62
           4
100
AcDbLine
 10
980.0
 20
4425.0
 11
980.0
 21
5355.0
  0
LINE
  5
AD
100
AcDbEntity
  8
1
  6
CONTINUOUS
 62
           4
100
AcDbLine
 10
-2540.0
 20
6375.0
 11
-2540.0
 21
4425.0
  0
LINE
  5
AC
100
AcDbEntity
  8
1
  6
CONTINUOUS
 62
           4
100
AcDbLine
 10
2540.0
 20
6375.0
 11
2540.0
 21
4425.0
  0
LINE
  5
AB
100
AcDbEntity
  8
1
  6
CONTINUOUS
 62
           4
100
AcDbLine
 10
4362.5
 20
2040.0
 11
6362.499999999999
 21
2040.0
  0
LINE
  5
AA
100
AcDbEntity
  8
1
  6
CONTINUOUS
 62
           4
100
AcDbLine
 10
2480.0
 20
5355.0
 11
1020.0
 21
5355.0
  0
LINE
  5
A9
100
AcDbEntity
  8
1
  6
CONTINUOUS
 62
           7
100
AcDbLine
 10
6862.499999999999
 20
0.0
 11
3862.5
 21
0.0
  0
LINE
  5
A8
100
AcDbEntity
  8
1
  6
CONTINUOUS
 62
           4
100
AcDbLine
 10
-2480.0
 20
5355.0
 11
-1020.0
 21
5355.0
  0
LINE
  5
A7
100
AcDbEntity
  8
1
  6
CONTINUOUS
 62
           4
100
AcDbLine
 10
-2503.0
 20
6375.0
 11
-2503.0
 21
4425.0
  0
LINE
  5
A6
100
AcDbEntity
  8
1
  6
CONTINUOUS
 62
           4
100
AcDbLine
 10
2480.0
 20
5395.0
 11
1020.0
 21
5395.0
  0
LINE
  5
A5
100
AcDbEntity
  8
1
  6
CONTINUOUS
 62
           4
100
AcDbLine
 10
2480.0
 20
6355.0
 11
1020.0
 21
6355.0
  0
LINE
  5
A4
100
AcDbEntity
  8
1
  6
CONTINUOUS
 62
           4
100
AcDbLine
 10
2503.0
 20
6375.0
 11
2503.0
 21
4425.0
  0
LINE
  5
A3
100
AcDbEntity
  8
1
  6
CONTINUOUS
 62
           4
100
AcDbLine
 10
2480.0
 20
5355.0
 11
2480.0
 21
4425.0
  0
LINE
  5
A2
100
AcDbEntity
  8
1
  6
CONTINUOUS
 62
           4
100
AcDbLine
 10
2480.0
 20
6355.0
 11
2480.0
 21
5395.0
  0
LINE
  5
A1
100
AcDbEntity
  8
1
  6
CONTINUOUS
 62
           7
100
AcDbLine
 10
2550.0
 20
4375.0
 11
2550.0
 21
6375.0
  0
LINE
  5
A0
100
AcDbEntity
  8
1
  6
DOT_CENTER
 62
           2
100
AcDbLine
 10
5662.499999999999
 20
675.0
 11
5662.499999999999
 21
525.0
  0
LINE
  5
9F
100
AcDbEntity
  8
1
  6
DOT_CENTER
 62
           2
100
AcDbLine
 10
5587.5
 20
600.0
 11
5737.499999999999
 21
600.0
  0
LINE
  5
9E
100
AcDbEntity
  8
1
  6
CONTINUOUS
 62
           7
100
AcDbLine
 10
-2500.0
 20
500.0
 11
-2485.0
 21
500.0
  0
LINE
  5
9D
100
AcDbEntity
  8
1
  6
CONTINUOUS
 62
           7
100
AcDbLine
 10
2485.0
 20
500.0
 11
2500.0
 21
500.0
  0
LINE
  5
9C
100
AcDbEntity
  8
1
  6
CONTINUOUS
 62
           7
100
AcDbLine
 10
-2500.0
 20
800.0
 11
2500.0
 21
800.0
  0
LINE
  5
9B
100
AcDbEntity
  8
1
  6
CONTINUOUS
 62
           7
100
AcDbLine
 10
-2500.0
 20
513.85332266763
 11
-2500.0
 21
572.607085651512
  0
LINE
  5
9A
100
AcDbEntity
  8
1
  6
CONTINUOUS
 62
           7
100
AcDbLine
 10
2485.0
 20
540.0
 11
2485.0
 21
475.000000000001
  0
LINE
  5
99
100
AcDbEntity
  8
1
  6
CONTINUOUS
 62
           7
100
AcDbLine
 10
-2500.0
 20
400.0
 11
2500.0
 21
400.0
  0
LINE
  5
98
100
AcDbEntity
  8
1
  6
CONTINUOUS
 62
           7
100
AcDbLine
 10
2500.0
 20
50.0
 11
-2500.0
 21
50.0
  0
LINE
  5
97
100
AcDbEntity
  8
1
  6
CONTINUOUS
 62
           7
100
AcDbLine
 10
2500.0
 20
1900.0
 11
-2500.0
 21
1900.0
  0
LINE
  5
96
100
AcDbEntity
  8
1
  6
CONTINUOUS
 62
           7
100
AcDbLine
 10
2500.0
 20
0.0
 11
2500.0
 21
2000.0
  0
LINE
  5
95
100
AcDbEntity
  8
1
  6
CONTINUOUS
 62
           7
100
AcDbLine
 10
-2500.0
 20
0.0
 11
-2500.0
 21
2000.0
  0
LINE
  5
94
100
AcDbEntity
  8
1
  6
CONTINUOUS
 62
           7
100
AcDbLine
 10
5362.499999999999
 20
2075.0
 11
6362.499999999999
 21
2075.0
  0
LINE
  5
93
100
AcDbEntity
  8
1
  6
CONTINUOUS
 62
           7
100
AcDbLine
 10
4362.5
 20
2050.0
 11
6362.499999999999
 21
2050.0
  0
LINE
  5
92
100
AcDbEntity
  8
1
  6
CONTINUOUS
 62
           4
100
AcDbLine
 10
4362.5
 20
2003.0
 11
6362.499999999999
 21
2003.0
  0
LINE
  5
91
100
AcDbEntity
  8
1
  6
CONTINUOUS
 62
           7
100
AcDbLine
 10
6362.499999999999
 20
2000.0
 11
4362.5
 21
2000.0
  0
LINE
  5
90
100
AcDbEntity
  8
1
  6
CONTINUOUS
 62
           7
100
AcDbLine
 10
6362.499999999999
 20
0.0
 11
6362.499999999999
 21
2075.0
  0
LINE
  5
8F
100
AcDbEntity
  8
1
  6
CONTINUOUS
 62
           7
100
AcDbLine
 10
2550.0
 20
2000.0
 11
-2550.0
 21
2000.0
  0
LINE
  5
8E
100
AcDbEntity
  8
1
  6
CONTINUOUS
 62
           7
100
AcDbLine
 10
-2550.0
 20
2150.0
 11
-2550.0
 21
0.0
  0
LINE
  5
8D
100
AcDbEntity
  8
1
  6
CONTINUOUS
 62
           7
100
AcDbLine
 10
2550.0
 20
2150.0
 11
-2550.0
 21
2150.0
  0
LINE
  5
8C
100
AcDbEntity
  8
1
  6
CONTINUOUS
 62
           7
100
AcDbLine
 10
2550.0
 20
0.0
 11
2550.0
 21
2150.0
  0
LINE
  5
8B
100
AcDbEntity
  8
1
  6
CONTINUOUS
 62
           7
100
AcDbLine
 10
2550.0
 20
1630.0
 11
2670.0
 21
1630.0
  0
LINE
  5
8A
100
AcDbEntity
  8
1
  6
CONTINUOUS
 62
           7
100
AcDbLine
 10
2550.0
 20
1180.0
 11
2670.0
 21
1180.0
  0
LINE
  5
89
100
AcDbEntity
  8
1
  6
CONTINUOUS
 62
           7
100
AcDbLine
 10
2550.0
 20
6375.0
 11
0.0
 21
6375.000000000001
  0
LINE
  5
88
100
AcDbEntity
  8
1
  6
CONTINUOUS
 62
           7
100
AcDbLine
 10
2550.0
 20
4475.0
 11
2670.0
 21
4475.0
  0
LINE
  5
87
100
AcDbEntity
  8
1
  6
CONTINUOUS
 62
           7
100
AcDbLine
 10
2550.0
 20
4775.0
 11
2670.0
 21
4775.0
  0
LINE
  5
86
100
AcDbEntity
  8
1
  6
CONTINUOUS
 62
           4
100
AcDbLine
 10
-2480.0
 20
5395.0
 11
-2480.0
 21
6355.0
  0
LINE
  5
85
100
AcDbEntity
  8
1
  6
CONTINUOUS
 62
           4
100
AcDbLine
 10
-2480.0
 20
5395.0
 11
-1020.0
 21
5395.0
  0
LINE
  5
84
100
AcDbEntity
  8
1
  6
CONTINUOUS
 62
           7
100
AcDbLine
 10
2500.0
 20
4425.0
 11
2500.0
 21
6375.0
  0
LINE
  5
83
100
AcDbEntity
  8
1
  6
CONTINUOUS
 62
           7
100
AcDbLine
 10
-2500.0
 20
4425.0
 11
-2500.0
 21
6375.0
  0
LINE
  5
82
100
AcDbEntity
  8
1
  6
CONTINUOUS
 62
           4
100
AcDbLine
 10
-2480.0
 20
5355.0
 11
-2480.0
 21
4425.0
  0
LINE
  5
81
100
AcDbEntity
  8
1
  6
CONTINUOUS
 62
           7
100
AcDbLine
 10
-2550.0
 20
4425.0
 11
2550.0
 21
4425.0
  0
LINE
  5
80
100
AcDbEntity
  8
1
  6
CONTINUOUS
 62
           7
100
AcDbLine
 10
-2550.0
 20
5375.0
 11
-623.196859705832
 21
5375.0
  0
LINE
  5
7F
100
AcDbEntity
  8
1
  6
CONTINUOUS
 62
           7
100
AcDbLine
 10
-2550.0
 20
6375.0
 11
-2550.0
 21
4375.0
  0
LINE
  5
7E
100
AcDbEntity
  8
1
  6
CONTINUOUS
 62
           7
100
AcDbLine
 10
-2550.0
 20
4375.0
 11
2550.0
 21
4375.0
  0
LINE
  5
7D
100
AcDbEntity
  8
1
  6
CONTINUOUS
 62
           7
100
AcDbLine
 10
4862.499999999999
 20
500.0
 11
6362.499999999999
 21
500.0
  0
LINE
  5
7C
100
AcDbEntity
  8
1
  6
CONTINUOUS
 62
           4
100
AcDbLine
 10
6341.933325304561
 20
479.385061529882
 11
4882.499999999999
 21
479.385061529882
  0
LINE
  5
7B
100
AcDbEntity
  8
1
  6
CONTINUOUS
 62
           4
100
AcDbLine
 10
4882.499999999999
 20
20.0
 11
6341.933325304561
 21
20.0
  0
LINE
  5
7A
100
AcDbEntity
  8
1
  6
CONTINUOUS
 62
           4
100
AcDbLine
 10
6341.933325304561
 20
20.0
 11
6341.933325304561
 21
479.385061529882
  0
LINE
  5
79
100
AcDbEntity
  8
1
  6
CONTINUOUS
 62
           4
100
AcDbLine
 10
5382.499999999999
 20
520.0
 11
6342.499999999999
 21
520.0
  0
LINE
  5
78
100
AcDbEntity
  8
1
  6
CONTINUOUS
 62
           4
100
AcDbLine
 10
6342.499999999999
 20
520.0
 11
6342.499999999999
 21
1980.0
  0
LINE
  5
77
100
AcDbEntity
  8
1
  6
CONTINUOUS
 62
           4
100
AcDbLine
 10
6342.499999999999
 20
1980.0
 11
5382.499999999999
 21
1980.0
  0
LINE
  5
76
100
AcDbEntity
  8
1
  6
CONTINUOUS
 62
           4
100
AcDbLine
 10
5382.499999999999
 20
1980.0
 11
5382.499999999999
 21
1814.464669216338
  0
LINE
  5
75
100
AcDbEntity
  8
1
  6
CONTINUOUS
 62
           7
100
AcDbLine
 10
2670.0
 20
1180.0
 11
2670.0
 21
1630.0
  0
LINE
  5
74
100
AcDbEntity
  8
1
  6
CONTINUOUS
 62
           7
100
AcDbLine
 10
2670.0
 20
4775.0
 11
2670.0
 21
4475.0
  0
LINE
  5
73
100
AcDbEntity
  8
1
  6
CONTINUOUS
 62
           7
100
AcDbLine
 10
-2500.0
 20
475.000000000001
 11
2500.0
 21
475.000000000001
  0
LINE
  5
72
100
AcDbEntity
  8
1
  6
CONTINUOUS
 62
           7
100
AcDbLine
 10
-2485.0
 20
475.000000000001
 11
-2485.0
 21
540.0
  0
LINE
  5
71
100
AcDbEntity
  8
1
  6
CONTINUOUS
 62
           7
100
AcDbLine
 10
2485.0
 20
540.0
 11
1015.0
 21
540.0
  0
LINE
  5
70
100
AcDbEntity
  8
1
  6
CONTINUOUS
 62
           4
100
AcDbLine
 10
520.0
 20
6355.0
 11
520.0
 21
6036.199291028683
  0
LINE
  5
6F
100
AcDbEntity
  8
1
  6
CONTINUOUS
 62
           7
100
AcDbLine
 10
3050.0
 20
0.0
 11
-3050.0
 21
0.0
  0
LINE
  5
6E
100
AcDbEntity
  8
1
  6
DOT_CENTER
 62
           2
100
AcDbLine
 10
0.0
 20
6575.000000000001
 11
0.0
 21
4268.080224057149
  0
LINE
  5
6D
100
AcDbEntity
  8
1
  6
CONTINUOUS
 62
           7
100
AcDbLine
 10
2500.0
 20
1763.744569986044
 11
-2500.0
 21
1763.744569986044
  0
LINE
  5
6C
100
AcDbEntity
  8
___S__
  6
DOT_CENTER
 62
           3
100
AcDbLine
 10
-2325.0
 20
1067.06326659646
 11
-2325.000000000001
 21
982.067556365335
  0
LINE
  5
6B
100
AcDbEntity
  8
____
  6
CONTINUOUS
 62
           3
100
AcDbLine
 10
-2319.59594704488
 20
1060.459504816178
 11
-2319.59594704488
 21
1058.581574068056
  0
LINE
  5
6A
100
AcDbEntity
  8
____
  6
CONTINUOUS
 62
           3
100
AcDbLine
 10
-2329.912775413744
 20
1060.928987503209
 11
-2320.087224586255
 21
1060.928987503209
  0
LINE
  5
69
100
AcDbEntity
  8
____
  6
CONTINUOUS
 62
           3
100
AcDbLine
 10
-2330.404052955118
 20
1058.581574068056
 11
-2330.404052955118
 21
1060.459504816178
  0
LINE
  5
68
100
AcDbEntity
  8
____
  6
CONTINUOUS
 62
           3
100
AcDbLine
 10
-2319.497691536608
 20
1022.900889853722
 11
-2330.502308463385
 21
1022.900889853723
  0
LINE
  5
67
100
AcDbEntity
  8
____
  6
CONTINUOUS
 62
           3
100
AcDbLine
 10
-2319.497691536607
 20
1058.581574068056
 11
-2319.497691536608
 21
1022.900889853722
  0
LINE
  5
66
100
AcDbEntity
  8
____
  6
CONTINUOUS
 62
           3
100
AcDbLine
 10
-2330.502308463384
 20
1058.581574068056
 11
-2319.497691536607
 21
1058.581574068056
  0
LINE
  5
65
100
AcDbEntity
  8
____
  6
CONTINUOUS
 62
           3
100
AcDbLine
 10
-2330.502308463385
 20
1022.900889853723
 11
-2330.502308463384
 21
1058.581574068056
  0
LINE
  5
64
100
AcDbEntity
  8
____
  6
CONTINUOUS
 62
           3
100
AcDbLine
 10
-2330.40405295512
 20
984.403309517206
 11
-2330.40405295512
 21
986.281240265329
  0
LINE
  5
63
100
AcDbEntity
  8
____
  6
CONTINUOUS
 62
           3
100
AcDbLine
 10
-2320.087224586257
 20
983.933826830174
 11
-2329.912775413746
 21
983.933826830174
  0
LINE
  5
62
100
AcDbEntity
  8
____
  6
CONTINUOUS
 62
           3
100
AcDbLine
 10
-2319.595947044882
 20
986.281240265329
 11
-2319.595947044882
 21
984.403309517206
  0
LINE
  5
61
100
AcDbEntity
  8
____
  6
CONTINUOUS
 62
           3
100
AcDbLine
 10
-2330.158414184432
 20
1022.900889853723
 11
-2330.158414184432
 21
1021.961924479661
  0
LINE
  5
60
100
AcDbEntity
  8
____
  6
CONTINUOUS
 62
           3
100
AcDbLine
 10
-2319.841585815569
 20
1022.900889853722
 11
-2330.158414184432
 21
1022.900889853723
  0
LINE
  5
5F
100
AcDbEntity
  8
____
  6
CONTINUOUS
 62
           3
100
AcDbLine
 10
-2319.841585815569
 20
1021.961924479661
 11
-2319.841585815569
 21
1022.900889853722
  0
LINE
  5
5E
100
AcDbEntity
  8
____
  6
CONTINUOUS
 62
           3
100
AcDbLine
 10
-2330.404052955118
 20
1060.459504816178
 11
-2319.59594704488
 21
1060.459504816178
  0
LINE
  5
5D
100
AcDbEntity
  8
____
  6
CONTINUOUS
 62
           3
100
AcDbLine
 10
-2330.502308463385
 20
1021.961924479661
 11
-2319.497691536608
 21
1021.961924479661
  0
LINE
  5
5C
100
AcDbEntity
  8
____
  6
CONTINUOUS
 62
           3
100
AcDbLine
 10
-2330.502308463385
 20
986.281240265329
 11
-2330.502308463385
 21
1021.961924479661
  0
LINE
  5
5B
100
AcDbEntity
  8
____
  6
CONTINUOUS
 62
           3
100
AcDbLine
 10
-2319.497691536609
 20
986.281240265329
 11
-2330.502308463385
 21
986.281240265329
  0
LINE
  5
5A
100
AcDbEntity
  8
____
  6
CONTINUOUS
 62
           3
100
AcDbLine
 10
-2319.497691536608
 20
1021.961924479661
 11
-2319.497691536609
 21
986.281240265329
  0
LINE
  5
59
100
AcDbEntity
  8
____
  6
CONTINUOUS
 62
           3
100
AcDbLine
 10
-2330.404052955118
 20
1060.459504816178
 11
-2329.912775413744
 21
1060.928987503209
  0
LINE
  5
58
100
AcDbEntity
  8
____
  6
CONTINUOUS
 62
           3
100
AcDbLine
 10
-2320.087224586255
 20
1060.928987503209
 11
-2319.59594704488
 21
1060.459504816178
  0
LINE
  5
57
100
AcDbEntity
  8
____
  6
CONTINUOUS
 62
           3
100
AcDbLine
 10
-2329.912775413746
 20
983.933826830174
 11
-2330.40405295512
 21
984.403309517206
  0
LINE
  5
56
100
AcDbEntity
  8
____
  6
CONTINUOUS
 62
           3
100
AcDbLine
 10
-2319.595947044882
 20
984.403309517206
 11
-2320.087224586257
 21
983.933826830174
  0
LINE
  5
55
100
AcDbEntity
  8
____
  6
CONTINUOUS
 62
           3
100
AcDbLine
 10
-2330.40405295512
 20
984.403309517206
 11
-2319.595947044882
 21
984.403309517206
  0
LINE
  5
54
100
AcDbEntity
  8
____
  6
CONTINUOUS
 62
           3
100
AcDbLine
 10
-2330.404052955096
 20
1538.392880207259
 11
-2319.595947044858
 21
1538.392880207259
  0
LINE
  5
53
100
AcDbEntity
  8
____
  6
CONTINUOUS
 62
           3
100
AcDbLine
 10
-2319.595947044858
 20
1538.392880207259
 11
-2320.087224586232
 21
1537.92339752023
  0
LINE
  5
52
100
AcDbEntity
  8
____
  6
CONTINUOUS
 62
           3
100
AcDbLine
 10
-2329.912775413721
 20
1537.92339752023
 11
-2330.404052955096
 21
1538.392880207259
  0
LINE
  5
51
100
AcDbEntity
  8
____
  6
CONTINUOUS
 62
           3
100
AcDbLine
 10
-2320.087224586232
 20
1614.918558193263
 11
-2319.595947044857
 21
1614.449075506231
  0
LINE
  5
50
100
AcDbEntity
  8
____
  6
CONTINUOUS
 62
           3
100
AcDbLine
 10
-2330.404052955095
 20
1614.449075506231
 11
-2329.91277541372
 21
1614.918558193263
  0
LINE
  5
4F
100
AcDbEntity
  8
____
  6
CONTINUOUS
 62
           3
100
AcDbLine
 10
-2319.497691536592
 20
1575.951495169715
 11
-2319.497691536592
 21
1540.270810955382
  0
LINE
  5
4E
100
AcDbEntity
  8
____
  6
CONTINUOUS
 62
           3
100
AcDbLine
 10
-2319.497691536592
 20
1540.270810955382
 11
-2330.502308463369
 21
1540.270810955382
  0
LINE
  5
4D
100
AcDbEntity
  8
____
  6
CONTINUOUS
 62
           3
100
AcDbLine
 10
-2330.502308463369
 20
1540.270810955382
 11
-2330.502308463369
 21
1575.951495169715
  0
LINE
  5
4C
100
AcDbEntity
  8
____
  6
CONTINUOUS
 62
           3
100
AcDbLine
 10
-2330.502308463369
 20
1575.951495169715
 11
-2319.497691536592
 21
1575.951495169715
  0
LINE
  5
4B
100
AcDbEntity
  8
____
  6
CONTINUOUS
 62
           3
100
AcDbLine
 10
-2330.404052955095
 20
1614.449075506231
 11
-2319.595947044857
 21
1614.449075506231
  0
LINE
  5
4A
100
AcDbEntity
  8
____
  6
CONTINUOUS
 62
           3
100
AcDbLine
 10
-2319.841585815545
 20
1575.951495169715
 11
-2319.841585815545
 21
1576.890460543777
  0
LINE
  5
49
100
AcDbEntity
  8
____
  6
CONTINUOUS
 62
           3
100
AcDbLine
 10
-2319.841585815545
 20
1576.890460543777
 11
-2330.158414184408
 21
1576.890460543777
  0
LINE
  5
48
100
AcDbEntity
  8
____
  6
CONTINUOUS
 62
           3
100
AcDbLine
 10
-2330.158414184408
 20
1576.890460543777
 11
-2330.158414184408
 21
1575.951495169715
  0
LINE
  5
47
100
AcDbEntity
  8
____
  6
CONTINUOUS
 62
           3
100
AcDbLine
 10
-2319.595947044858
 20
1540.270810955382
 11
-2319.595947044858
 21
1538.392880207259
  0
LINE
  5
46
100
AcDbEntity
  8
____
  6
CONTINUOUS
 62
           3
100
AcDbLine
 10
-2320.087224586232
 20
1537.92339752023
 11
-2329.912775413721
 21
1537.92339752023
  0
LINE
  5
45
100
AcDbEntity
  8
____
  6
CONTINUOUS
 62
           3
100
AcDbLine
 10
-2330.404052955096
 20
1538.392880207259
 11
-2330.404052955096
 21
1540.270810955382
  0
LINE
  5
44
100
AcDbEntity
  8
____
  6
CONTINUOUS
 62
           3
100
AcDbLine
 10
-2330.502308463369
 20
1576.890460543777
 11
-2330.502308463368
 21
1612.571144758109
  0
LINE
  5
43
100
AcDbEntity
  8
____
  6
CONTINUOUS
 62
           3
100
AcDbLine
 10
-2330.502308463368
 20
1612.571144758109
 11
-2319.497691536591
 21
1612.571144758108
  0
LINE
  5
42
100
AcDbEntity
  8
____
  6
CONTINUOUS
 62
           3
100
AcDbLine
 10
-2319.497691536591
 20
1612.571144758108
 11
-2319.497691536592
 21
1576.890460543777
  0
LINE
  5
41
100
AcDbEntity
  8
____
  6
CONTINUOUS
 62
           3
100
AcDbLine
 10
-2319.497691536592
 20
1576.890460543777
 11
-2330.502308463369
 21
1576.890460543777
  0
LINE
  5
40
100
AcDbEntity
  8
____
  6
CONTINUOUS
 62
           3
100
AcDbLine
 10
-2330.404052955095
 20
1612.571144758109
 11
-2330.404052955095
 21
1614.449075506231
  0
LINE
  5
3F
100
AcDbEntity
  8
____
  6
CONTINUOUS
 62
           3
100
AcDbLine
 10
-2329.91277541372
 20
1614.918558193263
 11
-2320.087224586232
 21
1614.918558193263
  0
LINE
  5
3E
100
AcDbEntity
  8
____
  6
CONTINUOUS
 62
           3
100
AcDbLine
 10
-2319.595947044857
 20
1614.449075506231
 11
-2319.595947044857
 21
1612.571144758108
  0
LINE
  5
3D
100
AcDbEntity
  8
___S__
  6
DOT_CENTER
 62
           3
100
AcDbLine
 10
-2324.999999999976
 20
1621.052837286497
 11
-2324.999999999977
 21
1536.057127055389
  0
LINE
  5
3C
100
AcDbEntity
  8
1
  6
CONTINUOUS
 62
           7
100
AcDbLine
 10
-2325.0
 20
941.513526798367
 11
-1175.0
 21
941.513526798367
  0
LINE
  5
3B
100
AcDbEntity
  8
1
  6
CONTINUOUS
 62
           7
100
AcDbLine
 10
-1175.0
 20
941.513526798367
 11
-1175.0
 21
1646.282992387802
  0
LINE
  5
3A
100
AcDbEntity
  8
1
  6
CONTINUOUS
 62
           7
100
AcDbLine
 10
-2325.0
 20
941.513526798367
 11
-2325.0
 21
1646.282992387802
  0
LINE
  5
39
100
AcDbEntity
  8
1
  6
CONTINUOUS
 62
           7
100
AcDbLine
 10
-1175.0
 20
1646.282992387802
 11
-2325.0
 21
1646.282992387802
  0
LINE
  5
38
100
AcDbEntity
  8
1
  6
CONTINUOUS
 62
           3
100
AcDbLine
 10
-1235.604203678126
 20
1294.32810932706
 11
-1237.992149678107
 21
1267.070985327059
  0
LINE
  5
37
100
AcDbEntity
  8
1
  6
CONTINUOUS
 62
           3
100
AcDbLine
 10
-1237.992149678107
 20
1323.33071132706
 11
-1235.604203678126
 21
1296.073587327061
  0
LINE
  5
36
100
AcDbEntity
  8
1
  6
CONTINUOUS
 62
           3
100
AcDbLine
 10
-1247.451285678126
 20
1294.32810932706
 11
-1245.063339678116
 21
1267.070985327059
  0
LINE
  5
35
100
AcDbEntity
  8
1
  6
CONTINUOUS
 62
           3
100
AcDbLine
 10
-1245.063339678116
 20
1323.33071132706
 11
-1247.451285678126
 21
1296.073587327061
  0
LINE
  5
34
100
AcDbEntity
  8
1
  6
DOT_CENTER
 62
           3
100
AcDbLine
 10
-1196.527744678122
 20
1295.20084832705
 11
-1286.525199678127
 21
1295.20084832705
  0
LINE
  5
33
100
AcDbEntity
  8
1
  6
DOT_CENTER
 62
           3
100
AcDbLine
 10
-1241.527744678122
 20
1340.20084832705
 11
-1241.527744678122
 21
1250.20227732705
  0
LINE
  5
32
100
AcDbEntity
  8
1
  6
CONTINUOUS
 62
           4
100
AcDbLine
 10
5342.499999999999
 20
1741.488764155297
 11
5342.499999999999
 21
1980.0
  0
LINE
  5
31
100
AcDbEntity
  8
1
  6
CONTINUOUS
 62
           7
100
AcDbLine
 10
5362.499999999999
 20
1784.157226830839
 11
5362.499999999999
 21
2000.0
  0
LINE
  5
30
100
AcDbEntity
  8
1
  6
CONTINUOUS
 62
           4
100
AcDbLine
 10
5382.499999999999
 20
1800.831132334584
 11
5382.499999999999
 21
520.0
  0
POINT
  5
2F
100
AcDbEntity
  8
0
 62
           3
100
AcDbPoint
 10
5195.899996721731
 20
1365.000000000117
  0
ENDSEC
  0
SECTION
  2
OBJECTS
  0
DICTIONARY
  5
19
100
AcDbDictionary
  3
ACAD_GROUP
350
1A
  3
ACAD_MLINESTYLE
350
1B
  0
DICTIONARY
  5
1A
102
{ACAD_REACTORS
330
19
102
}
100
AcDbDictionary
  0
DICTIONARY
  5
1B
102
{ACAD_REACTORS
330
19
102
}
100
AcDbDictionary
  3
STANDARD
350
1C
  0
MLINESTYLE
  5
1C
102
{ACAD_REACTORS
330
1B
102
}
100
AcDbMlineStyle
  2
STANDARD
 70
           0
  3

 62
           0
 51
90.0
 52
90.0
 71
           2
 49
0.5
 62
         256
  6
BYLAYER
 49
-0.5
 62
         256
  6
BYLAYER
  0
ENDSEC
  0
EOF
