  0
SECTION
  2
HEADER
  9
$ACADVER
  1
AC1014
  9
$ACADMAINTVER
 70
           0
  9
$DWGCODEPAGE
  3
DOS932
  9
$INSBASE
 10
0.0
 20
0.0
 30
0.0
  9
$EXTMIN
 10
1.000000000000E+20
 20
1.000000000000E+20
 30
1.000000000000E+20
  9
$EXTMAX
 10
-1.000000000000E+20
 20
-1.000000000000E+20
 30
-1.000000000000E+20
  9
$LIMMIN
 10
0.0
 20
0.0
  9
$LIMMAX
 10
0.0
 20
0.0
  9
$ORTHOMODE
 70
           0
  9
$REGENMODE
 70
           1
  9
$FILLMODE
 70
           1
  9
$QTEXTMODE
 70
           0
  9
$MIRRTEXT
 70
           1
  9
$DRAGMODE
 70
           2
  9
$LTSCALE
 40
1.0
  9
$OSMODE
 70
           0
  9
$ATTMODE
 70
           1
  9
$TEXTSIZE
 40
0.2
  9
$TRACEWID
 40
0.05
  9
$TEXTSTYLE
  7
STANDARD
  9
$CLAYER
  8
0
  9
$CELTYPE
  6
CONTINUOUS
  9
$CECOLOR
 62
         256
  9
$CELTSCALE
 40
1.0
  9
$DELOBJ
 70
           1
  9
$DISPSILH
 70
           0
  9
$DIMSCALE
 40
1.0
  9
$DIMASZ
 40
0.18
  9
$DIMEXO
 40
0.0625
  9
$DIMDLI
 40
0.38
  9
$DIMRND
 40
0.0
  9
$DIMDLE
 40
0.0
  9
$DIMEXE
 40
0.18
  9
$DIMTP
 40
0.0
  9
$DIMTM
 40
0.0
  9
$DIMTXT
 40
0.18
  9
$DIMCEN
 40
0.09
  9
$DIMTSZ
 40
0.0
  9
$DIMTOL
 70
           0
  9
$DIMLIM
 70
           0
  9
$DIMTIH
 70
           1
  9
$DIMTOH
 70
           1
  9
$DIMSE1
 70
           0
  9
$DIMSE2
 70
           0
  9
$DIMTAD
 70
           0
  9
$DIMZIN
 70
           0
  9
$DIMBLK
  1

  9
$DIMASO
 70
           1
  9
$DIMSHO
 70
           1
  9
$DIMPOST
  1

  9
$DIMAPOST
  1

  9
$DIMALT
 70
           0
  9
$DIMALTD
 70
           2
  9
$DIMALTF
 40
25.4
  9
$DIMLFAC
 40
1.0
  9
$DIMTOFL
 70
           0
  9
$DIMTVP
 40
0.0
  9
$DIMTIX
 70
           0
  9
$DIMSOXD
 70
           0
  9
$DIMSAH
 70
           0
  9
$DIMBLK1
  1

  9
$DIMBLK2
  1

  9
$DIMSTYLE
  2
STANDARD
  9
$DIMCLRD
 70
           0
  9
$DIMCLRE
 70
           0
  9
$DIMCLRT
 70
           0
  9
$DIMTFAC
 40
1.0
  9
$DIMGAP
 40
0.09
  9
$DIMJUST
 70
           0
  9
$DIMSD1
 70
           0
  9
$DIMSD2
 70
           0
  9
$DIMTOLJ
 70
           1
  9
$DIMTZIN
 70
           0
  9
$DIMALTZ
 70
           0
  9
$DIMALTTZ
 70
           0
  9
$DIMFIT
 70
           3
  9
$DIMUPT
 70
           0
  9
$DIMUNIT
 70
           2
  9
$DIMDEC
 70
           4
  9
$DIMTDEC
 70
           4
  9
$DIMALTU
 70
           2
  9
$DIMALTTD
 70
           2
  9
$DIMTXSTY
  7
STANDARD
  9
$DIMAUNIT
 70
           0
  9
$LUNITS
 70
           2
  9
$LUPREC
 70
           4
  9
$SKETCHINC
 40
0.1
  9
$FILLETRAD
 40
0.0
  9
$AUNITS
 70
           0
  9
$AUPREC
 70
           0
  9
$MENU
  1
acad
  9
$ELEVATION
 40
0.0
  9
$PELEVATION
 40
0.0
  9
$THICKNESS
 40
0.0
  9
$LIMCHECK
 70
           0
  9
$BLIPMODE
 70
           1
  9
$CHAMFERA
 40
0.0
  9
$CHAMFERB
 40
0.0
  9
$CHAMFERC
 40
0.0
  9
$CHAMFERD
 40
0.0
  9
$SKPOLY
 70
           0
  9
$TDCREATE
 40
0.000000000
  9
$TDUPDATE
 40
0.000000000
  9
$TDINDWG
 40
0.0000000000
  9
$TDUSRTIMER
 40
0.0000000000
  9
$USRTIMER
 70
           1
  9
$ANGBASE
 50
0.0
  9
$ANGDIR
 70
           0
  9
$PDMODE
 70
           0
  9
$PDSIZE
 40
0.0
  9
$PLINEWID
 40
0.0
  9
$COORDS
 70
           0
  9
$SPLFRAME
 70
           0
  9
$SPLINETYPE
 70
           6
  9
$SPLINESEGS
 70
           8
  9
$ATTDIA
 70
           0
  9
$ATTREQ
 70
           1
  9
$HANDLING
 70
           1
  9
$HANDSEED
  5
476
  9
$SURFTAB1
 70
           6
  9
$SURFTAB2
 70
           6
  9
$SURFTYPE
 70
           6
  9
$SURFU
 70
           6
  9
$SURFV
 70
           6
  9
$UCSNAME
  2

  9
$UCSORG
 10
0.0
 20
0.0
 30
0.0
  9
$UCSXDIR
 10
1.0
 20
0.0
 30
0.0
  9
$UCSYDIR
 10
0.0
 20
1.0
 30
0.0
  9
$PUCSNAME
  2

  9
$PUCSORG
 10
0.0
 20
0.0
 30
0.0
  9
$PUCSXDIR
 10
1.0
 20
0.0
 30
0.0
  9
$PUCSYDIR
 10
0.0
 20
1.0
 30
0.0
  9
$USERI1
 70
           0
  9
$USERI2
 70
           0
  9
$USERI3
 70
           0
  9
$USERI4
 70
           0
  9
$USERI5
 70
           0
  9
$USERR1
 40
0.0
  9
$USERR2
 40
0.0
  9
$USERR3
 40
0.0
  9
$USERR4
 40
0.0
  9
$USERR5
 40
0.0
  9
$WORLDVIEW
 70
           1
  9
$SHADEDGE
 70
           3
  9
$SHADEDIF
 70
          70
  9
$TILEMODE
 70
           1
  9
$MAXACTVP
 70
          16
  9
$PINSBASE
 10
0.0
 20
0.0
 30
0.0
  9
$PLIMCHECK
 70
           0
  9
$PEXTMIN
 10
1.000000000000E+20
 20
1.000000000000E+20
 30
1.000000000000E+20
  9
$PEXTMAX
 10
-1.000000000000E+20
 20
-1.000000000000E+20
 30
-1.000000000000E+20
  9
$PLIMMIN
 10
0.0
 20
0.0
  9
$PLIMMAX
 10
12.0
 20
9.0
  9
$UNITMODE
 70
           0
  9
$VISRETAIN
 70
           0
  9
$PLINEGEN
 70
           1
  9
$PSLTSCALE
 70
           0
  9
$TREEDEPTH
 70
        3020
  9
$PICKSTYLE
 70
           1
  9
$CMLSTYLE
  2
STANDARD
  9
$CMLJUST
 70
           0
  9
$CMLSCALE
 40
1.0
  9
$PROXYGRAPHICS
 70
           0
  9
$MEASUREMENT
 70
           0
  0
ENDSEC
  0
SECTION
  2
CLASSES
  0
CLASS
  1
LWPOLYLINE
  2
AcDbPolyline
  3
"AutoCAD"
 90
        0
280
           0
281
           1
  0
CLASS
  1
IMAGE
  2
AcDbRasterImage
  3
ISM
 90
      127
280
           0
281
           1
  0
CLASS
  1
OLE2FRAME
  2
AcDbOle2Frame
  3
""
 90
        0
280
           0
281
           1
  0
CLASS
  1
HATCH
  2
AcDbHatch
  3
"ACAD_SEDONA"
 90
        0
280
           0
281
           1
  0
CLASS
  1
DICTIONARYVAR
  2
AcDbDictionaryVar
  3
"AutoCAD"
 90
        0
280
           0
281
           0
  0
CLASS
  1
RASTERVARIABLES
  2
AcDbRasterVariables
  3
ISM
 90
        0
280
           0
281
           0
  0
CLASS
  1
IMAGEDEF
  2
AcDbRasterImageDef
  3
ISM
 90
        0
280
           0
281
           0
  0
CLASS
  1
IMAGEDEF_REACTOR
  2
AcDbRasterImageDefReactor
  3
ISM
 90
        1
280
           0
281
           0
  0
CLASS
  1
IDBUFFER
  2
AcDbIdBuffer
  3
"Acad"
 90
        0
280
           0
281
           0
  0
CLASS
  1
SPATIAL_FILTER
  2
AcDbSpatialFilter
  3
"Acad"
 90
        0
280
           0
281
           0
  0
CLASS
  1
XRECORD
  2
AcDbXrecord
  3
"<Built In>"
 90
        0
280
           0
281
           0
  0
CLASS
  1
SORTENTSTABLE
  2
AcDbSortentsTable
  3
"AutoCAD"
 90
        0
280
           0
281
           0
  0
CLASS
  1
LAYER_INDEX
  2
AcDbLayerIndex
  3
"Acad"
 90
        0
280
           0
281
           0
  0
CLASS
  1
SPATIAL_INDEX
  2
AcDbSpatialIndex
  3
"Acad"
 90
        0
280
           0
281
           0
  0
CLASS
  1
OBJECT_PTR
  2
CAseDLPNTableRecord
  3
"ASE-LPNTableRecord"
 90
        1
280
           0
281
           0
  0
CLASS
  1
LAYOUT
  2
AcDbLayout
  3
"AutoCAD 2000"
 90
        1
280
           0
281
           0
  0
CLASS
  1
PLOTSETTINGS
  2
AcDbPlotSettings
  3
"AutoCAD 2000"
 90
        1
280
           0
281
           0
  0
CLASS
  1
ACDBDICTIONARYWDFLT
  2
AcDbDictionaryWithDefault
  3
"AutoCAD 2000"
 90
        1
280
           0
281
           0
  0
CLASS
  1
ACDBPLACEHOLDER
  2
AcDbPlaceHolder
  3
"AutoCAD 2000"
 90
        1
280
           0
281
           0
  0
CLASS
  1
VBA_PROJECT
  2
AcDbVbaProject
  3
"acadvba"
 90
        1
280
           0
281
           0
  0
CLASS
  1
WIPEOUT
  2
AcDbWipeout
  3
WipeOut|AutoCAD Express Tool|expresstools@autodesk.com
 90
      127
280
           0
281
           1
  0
CLASS
  1
WIPEOUTVARIABLES
  2
AcDbWipeoutVariables
  3
WipeOut|AutoCAD Express Tool|expresstools@autodesk.com
 90
        0
280
           0
281
           0
  0
CLASS
  1
RTEXT
  2
RText
  3
RText|AutoCAD Express Tool|expresstools@autodesk.com
 90
        0
280
           0
281
           1
  0
CLASS
  1
ARCALIGNEDTEXT
  2
AcDbArcAlignedText
  3
ATEXT|AutoCAD Express Tool|expresstools@autodesk.com
 90
        0
280
           0
281
           1
  0
ENDSEC
  0
SECTION
  2
TABLES
  0
TABLE
  2
VPORT
  5
7
100
AcDbSymbolTable
 70
           1
  0
VPORT
  5
15
100
AcDbSymbolTableRecord
100
AcDbViewportTableRecord
  2
*ACTIVE
 70
           0
 10
0.0
 20
0.0
 11
1.0
 21
1.0
 12
6.591288
 22
4.579184
 13
0.0
 23
0.0
 14
1.0
 24
1.0
 15
0.0
 25
0.0
 16
0.0
 26
0.0
 36
1.0
 17
0.0
 27
0.0
 37
0.0
 40
9.158369
 41
0.688564
 42
50.0
 43
0.0
 44
0.0
 50
0.0
 51
0.0
 71
           0
 72
         100
 73
           1
 74
           1
 75
           0
 76
           0
 77
           0
 78
           0
  0
ENDTAB
  0
TABLE
  2
LTYPE
  5
4
100
AcDbSymbolTable
 70
          10
  0
LTYPE
  5
11
100
AcDbSymbolTableRecord
100
AcDbLinetypeTableRecord
  2
BYBLOCK
 70
          64
  3

 72
          65
 73
           0
 40
0.0
  0
LTYPE
  5
12
100
AcDbSymbolTableRecord
100
AcDbLinetypeTableRecord
  2
BYLAYER
 70
          64
  3

 72
          65
 73
           0
 40
0.0
  0
LTYPE
  5
13
100
AcDbSymbolTableRecord
100
AcDbLinetypeTableRecord
  2
CONTINUOUS
 70
          64
  3
Solid line
 72
          65
 73
           0
 40
0.0
  0
LTYPE
  5
1D
100
AcDbSymbolTableRecord
100
AcDbLinetypeTableRecord
  2
DASHED
 70
          64
  3
Dashed
 72
          65
 73
           2
 40
15.0
 49
12.0
 74
           0
 49
-3.0
 74
           0
  0
LTYPE
  5
1E
100
AcDbSymbolTableRecord
100
AcDbLinetypeTableRecord
  2
DOTTED
 70
          64
  3
Dotted
 72
          65
 73
           2
 40
3.5
 49
0.5
 74
           0
 49
-3.0
 74
           0
  0
LTYPE
  5
1F
100
AcDbSymbolTableRecord
100
AcDbLinetypeTableRecord
  2
DOT_CENTER
 70
          64
  3
Dot_Center
 72
          65
 73
           4
 40
2.0
 49
1.25
 74
           0
 49
-0.25
 74
           0
 49
0.25
 74
           0
 49
-0.25
 74
           0
  0
LTYPE
  5
20
100
AcDbSymbolTableRecord
100
AcDbLinetypeTableRecord
  2
LONG_DASHED
 70
          64
  3
Long_Dashed
 72
          65
 73
           2
 40
2.0
 49
1.5
 74
           0
 49
-0.5
 74
           0
  0
LTYPE
  5
21
100
AcDbSymbolTableRecord
100
AcDbLinetypeTableRecord
  2
DASH_CENTER
 70
          64
  3
Dash_Center
 72
          65
 73
           4
 40
36.0
 49
24.0
 74
           0
 49
-3.0
 74
           0
 49
6.0
 74
           0
 49
-3.0
 74
           0
  0
LTYPE
  5
22
100
AcDbSymbolTableRecord
100
AcDbLinetypeTableRecord
  2
PHANTOM
 70
          64
  3
Phantom
 72
          65
 73
           6
 40
2.5
 49
1.25
 74
           0
 49
-0.25
 74
           0
 49
0.25
 74
           0
 49
-0.25
 74
           0
 49
0.25
 74
           0
 49
-0.25
 74
           0
  0
LTYPE
  5
23
100
AcDbSymbolTableRecord
100
AcDbLinetypeTableRecord
  2
CENTER_DASH_DASH
 70
          64
  3
Center_Dash_Dash
 72
          65
 73
           6
 40
22.0
 49
12.0
 74
           0
 49
-3.0
 74
           0
 49
0.5
 74
           0
 49
-3.0
 74
           0
 49
0.5
 74
           0
 49
-3.0
 74
           0
  0
ENDTAB
  0
TABLE
  2
LAYER
  5
2
100
AcDbSymbolTable
 70
           7
  0
LAYER
  5
14
100
AcDbSymbolTableRecord
100
AcDbLayerTableRecord
  2
0
 70
           0
 62
           7
  6
CONTINUOUS
  0
LAYER
  5
24
100
AcDbSymbolTableRecord
100
AcDbLayerTableRecord
  2
___S__
 70
           0
 62
           7
  6
CONTINUOUS
  0
LAYER
  5
25
100
AcDbSymbolTableRecord
100
AcDbLayerTableRecord
  2
FORMAT
 70
           0
 62
           7
  6
CONTINUOUS
  0
LAYER
  5
26
100
AcDbSymbolTableRecord
100
AcDbLayerTableRecord
  2
1
 70
           0
 62
           7
  6
CONTINUOUS
  0
LAYER
  5
27
100
AcDbSymbolTableRecord
100
AcDbLayerTableRecord
  2
2
 70
           0
 62
           7
  6
CONTINUOUS
  0
LAYER
  5
28
100
AcDbSymbolTableRecord
100
AcDbLayerTableRecord
  2
7
 70
           0
 62
           7
  6
CONTINUOUS
  0
LAYER
  5
29
100
AcDbSymbolTableRecord
100
AcDbLayerTableRecord
  2
____
 70
           0
 62
           7
  6
CONTINUOUS
  0
ENDTAB
  0
TABLE
  2
STYLE
  5
3
100
AcDbSymbolTable
 70
           1
  0
STYLE
  5
17
100
AcDbSymbolTableRecord
100
AcDbTextStyleTableRecord
  2
STANDARD
 70
           0
 40
0.0
 41
1.0
 50
0.0
 71
           0
 42
0.0
  3
txt
  4

  0
ENDTAB
  0
TABLE
  2
VIEW
  5
5
100
AcDbSymbolTable
 70
           0
  0
ENDTAB
  0
TABLE
  2
UCS
  5
6
100
AcDbSymbolTable
 70
           0
  0
ENDTAB
  0
TABLE
  2
APPID
  5
8
100
AcDbSymbolTable
 70
           1
  0
APPID
  5
16
100
AcDbSymbolTableRecord
100
AcDbRegAppTableRecord
  2
ACAD
 70
           0
  0
ENDTAB
  0
TABLE
  2
DIMSTYLE
  5
9
100
AcDbSymbolTable
 70
           1
  0
DIMSTYLE
105
18
100
AcDbSymbolTableRecord
100
AcDbDimStyleTableRecord
  2
STANDARD
 70
           0
  3

  4

  5

  6

  7

 40
1.0
 41
0.18
 42
0.0625
 43
0.38
 44
0.18
 45
0.0
 46
0.0
 47
0.0
 48
0.0
 71
           0
 72
           0
 73
           1
 74
           1
 75
           0
 76
           0
 77
           0
 78
           0
140
0.18
141
0.09
142
0.0
143
25.4
144
1.0
145
0.0
146
1.0
147
0.09
170
           0
171
           2
172
           0
173
           0
174
           0
175
           0
176
           0
177
           0
178
           0
270
           2
271
           4
272
           4
273
           2
274
           2
275
           0
280
           0
281
           0
282
           0
283
           1
284
           0
285
           0
286
           0
287
           0
288
           0
340
17
  0
ENDTAB
  0
TABLE
  2
BLOCK_RECORD
  5
1
100
AcDbSymbolTable
 70
           0
  0
BLOCK_RECORD
  5
A
100
AcDbSymbolTableRecord
100
AcDbBlockTableRecord
  2
*MODEL_SPACE
  0
BLOCK_RECORD
  5
B
100
AcDbSymbolTableRecord
100
AcDbBlockTableRecord
  2
*PAPER_SPACE
  0
ENDTAB
  0
ENDSEC
  0
SECTION
  2
BLOCKS
  0
BLOCK
  5
D
100
AcDbEntity
  8
0
100
AcDbBlockBegin
  2
*MODEL_SPACE
 70
           0
 10
0.0
 20
0.0
 30
0.0
  3
*MODEL_SPACE
  1

  0
ENDBLK
  5
E
100
AcDbEntity
  8
0
100
AcDbBlockEnd
  0
BLOCK
  5
F
100
AcDbEntity
 67
           1
  8
0
100
AcDbBlockBegin
  2
*PAPER_SPACE
 70
           0
 10
0.0
 20
0.0
 30
0.0
  3
*PAPER_SPACE
  1

  0
ENDBLK
  5
10
100
AcDbEntity
 67
           1
  8
0
100
AcDbBlockEnd
  0
ENDSEC
  0
SECTION
  2
ENTITIES
  0
HATCH
  5
474
100
AcDbEntity
  8
0
  6
CONTINUOUS
 62
           3
100
AcDbHatch
 10
0.0
 20
0.0
 30
0.0
210
0.0
220
0.0
230
1.0
  2
USER
 70
           0
 71
           1
 91
        1
 92
        1
 93
        8
 72
           1
 10
3202.3141856546449
 20
1337.4999999999891
 11
3125.0
 21
1337.4999999999891
 72
           2
 10
3125.0
 20
1367.4999999999891
 40
30.0
 50
180.0
 51
-90.0
 73
           1
 72
           1
 10
3095.0
 20
1367.4999999999891
 11
3095.0
 21
1430.0
 72
           1
 10
3095.0
 20
1430.0
 11
3075.0
 21
1430.0
 72
           1
 10
3075.0
 20
1430.0
 11
3075.0
 21
1367.4999999999891
 72
           2
 10
3125.0
 20
1367.5
 40
50.0
 50
-179.999999999987
 51
-90.0
 73
           1
 72
           1
 10
3125.0
 20
1317.5
 11
3202.3141856546449
 21
1317.4999999999891
 72
           1
 10
3202.3141856546449
 20
1317.4999999999891
 11
3202.3141856546449
 21
1337.4999999999891
 97
        8
330
126
330
456
330
127
330
122
330
123
330
457
330
124
330
125
 75
           1
 76
           0
 52
45.0
 41
10.0
 77
           0
 78
           1
 53
45.0
 43
0.0
 44
0.0
 45
-7.0710678118654746
 46
7.0710678118654755
 79
           0
 98
        1
 10
0.0
 20
0.0
  0
ARC
  5
473
100
AcDbEntity
  8
1
  6
CONTINUOUS
 62
           4
100
AcDbCircle
 10
109.265668111719
 20
5357.75
 40
10.0
100
AcDbArc
 50
90.0
 51
120.430594205724
  0
ARC
  5
472
100
AcDbEntity
  8
1
  6
CONTINUOUS
 62
           4
100
AcDbCircle
 10
109.265668111719
 20
5300.25
 40
10.000000000001
100
AcDbArc
 50
-120.430594205715
 51
-90.0
  0
ARC
  5
471
100
AcDbEntity
  8
1
  6
CONTINUOUS
 62
           7
100
AcDbCircle
 10
123.946258446656
 20
5295.25
 40
10.0
100
AcDbArc
 50
180.0
 51
-90.0
  0
ARC
  5
470
100
AcDbEntity
  8
1
  6
CONTINUOUS
 62
           7
100
AcDbCircle
 10
123.946258446656
 20
5362.75
 40
10.0
100
AcDbArc
 50
90.0
 51
180.0
  0
ARC
  5
46F
100
AcDbEntity
  8
1
  6
CONTINUOUS
 62
           7
100
AcDbCircle
 10
156.499999999996
 20
5295.25
 40
10.0
100
AcDbArc
 50
-90.0
 51
0.0
  0
ARC
  5
46E
100
AcDbEntity
  8
1
  6
CONTINUOUS
 62
           7
100
AcDbCircle
 10
156.499999999996
 20
5362.75
 40
10.0
100
AcDbArc
 50
0.0
 51
90.0
  0
ARC
  5
46D
100
AcDbEntity
  8
1
  6
CONTINUOUS
 62
           7
100
AcDbCircle
 10
156.499999999998
 20
2771.300000000002
 40
10.0
100
AcDbArc
 50
0.0
 51
90.0
  0
ARC
  5
46C
100
AcDbEntity
  8
1
  6
CONTINUOUS
 62
           7
100
AcDbCircle
 10
156.499999999998
 20
2711.300000000003
 40
10.0
100
AcDbArc
 50
-90.0
 51
0.0
  0
ARC
  5
46B
100
AcDbEntity
  8
1
  6
CONTINUOUS
 62
           7
100
AcDbCircle
 10
118.613664
 20
2771.300000000002
 40
10.0
100
AcDbArc
 50
90.0
 51
180.0
  0
ARC
  5
46A
100
AcDbEntity
  8
1
  6
CONTINUOUS
 62
           7
100
AcDbCircle
 10
118.613664
 20
2711.300000000003
 40
10.0
100
AcDbArc
 50
180.0
 51
-90.0
  0
ARC
  5
469
100
AcDbEntity
  8
1
  6
CONTINUOUS
 62
           4
100
AcDbCircle
 10
5055.499999999996
 20
2556.000000000001
 40
1.0
100
AcDbArc
 50
180.0
 51
-90.0
  0
ARC
  5
468
100
AcDbEntity
  8
1
  6
CONTINUOUS
 62
           4
100
AcDbCircle
 10
5044.499999999996
 20
2556.000000000001
 40
1.0
100
AcDbArc
 50
-90.0
 51
0.0
  0
ARC
  5
467
100
AcDbEntity
  8
1
  6
CONTINUOUS
 62
           4
100
AcDbCircle
 10
5055.499999999996
 20
2160.000000000002
 40
1.0
100
AcDbArc
 50
90.0
 51
180.0
  0
ARC
  5
466
100
AcDbEntity
  8
1
  6
CONTINUOUS
 62
           4
100
AcDbCircle
 10
5044.499999999996
 20
2160.000000000002
 40
1.0
100
AcDbArc
 50
0.0
 51
90.0
  0
ARC
  5
465
100
AcDbEntity
  8
1
  6
CONTINUOUS
 62
           7
100
AcDbCircle
 10
4643.749999999996
 20
2710.0
 40
10.0
100
AcDbArc
 50
-90.0
 51
0.0
  0
ARC
  5
464
100
AcDbEntity
  8
1
  6
CONTINUOUS
 62
           7
100
AcDbCircle
 10
4576.249999999996
 20
2710.0
 40
10.0
100
AcDbArc
 50
180.0
 51
-90.0
  0
ARC
  5
463
100
AcDbEntity
  8
1
  6
CONTINUOUS
 62
           7
100
AcDbCircle
 10
4643.749999999996
 20
2770.0
 40
10.0
100
AcDbArc
 50
0.0
 51
90.0
  0
ARC
  5
462
100
AcDbEntity
  8
1
  6
CONTINUOUS
 62
           7
100
AcDbCircle
 10
4576.249999999996
 20
2770.0
 40
10.0
100
AcDbArc
 50
90.0
 51
180.0
  0
ARC
  5
461
100
AcDbEntity
  8
1
  6
CONTINUOUS
 62
           3
100
AcDbCircle
 10
4398.163567691036
 20
1917.80625341996
 40
0.5
100
AcDbArc
 50
180.0
 51
-90.0
  0
ARC
  5
460
100
AcDbEntity
  8
1
  6
CONTINUOUS
 62
           3
100
AcDbCircle
 10
4398.163567691036
 20
1932.19374658004
 40
0.5
100
AcDbArc
 50
90.0
 51
180.0
  0
ARC
  5
45F
100
AcDbEntity
  8
1
  6
CONTINUOUS
 62
           3
100
AcDbCircle
 10
4249.899998122322
 20
1641.000000000001
 40
280.0
100
AcDbArc
 50
90.0
 51
180.0
  0
ARC
  5
45E
100
AcDbEntity
  8
1
  6
CONTINUOUS
 62
           3
100
AcDbCircle
 10
4249.899996810927
 20
1641.0
 40
288.0
100
AcDbArc
 50
90.0
 51
180.0
  0
ARC
  5
45D
100
AcDbEntity
  8
1
  6
CONTINUOUS
 62
           7
100
AcDbCircle
 10
-413.0
 20
2188.0
 40
8.0
100
AcDbArc
 50
0.0
 51
90.0
  0
ARC
  5
45C
100
AcDbEntity
  8
1
  6
CONTINUOUS
 62
           7
100
AcDbCircle
 10
-487.0
 20
2188.0
 40
8.0
100
AcDbArc
 50
90.0
 51
180.0
  0
ARC
  5
45B
100
AcDbEntity
  8
1
  6
CONTINUOUS
 62
           7
100
AcDbCircle
 10
-450.0
 20
2156.0
 40
15.0
100
AcDbArc
 50
147.769047364498
 51
180.0
  0
ARC
  5
45A
100
AcDbEntity
  8
1
  6
CONTINUOUS
 62
           7
100
AcDbCircle
 10
3213.0
 20
2188.0
 40
8.0
100
AcDbArc
 50
90.0
 51
180.0
  0
ARC
  5
459
100
AcDbEntity
  8
1
  6
CONTINUOUS
 62
           7
100
AcDbCircle
 10
3287.0
 20
2188.0
 40
8.0
100
AcDbArc
 50
0.0
 51
90.0
  0
ARC
  5
458
100
AcDbEntity
  8
1
  6
CONTINUOUS
 62
           7
100
AcDbCircle
 10
3250.0
 20
2156.0
 40
15.0
100
AcDbArc
 50
0.0
 51
180.0
  0
ARC
  5
457
100
AcDbEntity
  8
1
  6
CONTINUOUS
 62
           4
100
AcDbCircle
 10
3125.0
 20
1367.5
 40
50.0
100
AcDbArc
 50
-179.999999999987
 51
-90.0
  0
ARC
  5
456
100
AcDbEntity
  8
1
  6
CONTINUOUS
 62
           4
100
AcDbCircle
 10
3125.0
 20
1367.499999999989
 40
30.0
100
AcDbArc
 50
180.0
 51
-90.0
  0
ARC
  5
455
100
AcDbEntity
  8
1
  6
CONTINUOUS
 62
           2
100
AcDbCircle
 10
908.000000000001
 20
1364.499999999978
 40
8.0
100
AcDbArc
 50
0.0
 51
90.0
  0
ARC
  5
454
100
AcDbEntity
  8
1
  6
CONTINUOUS
 62
           2
100
AcDbCircle
 10
908.000000000001
 20
1290.499999999978
 40
8.0
100
AcDbArc
 50
-90.0
 51
0.0
  0
ARC
  5
453
100
AcDbEntity
  8
1
  6
CONTINUOUS
 62
           2
100
AcDbCircle
 10
876.000000000001
 20
1327.499999999978
 40
15.0
100
AcDbArc
 50
-90.0
 51
90.0
  0
ARC
  5
452
100
AcDbEntity
  8
1
  6
CONTINUOUS
 62
           7
100
AcDbCircle
 10
-450.0
 20
2156.0
 40
15.0
100
AcDbArc
 50
32.230952635502
 51
147.769047364498
  0
ARC
  5
451
100
AcDbEntity
  8
1
  6
CONTINUOUS
 62
           7
100
AcDbCircle
 10
-450.0
 20
2156.0
 40
15.0
100
AcDbArc
 50
0.0
 51
32.230952635502
  0
SPLINE
  5
450
100
AcDbEntity
  8
0
  6
CONTINUOUS
 62
           3
100
AcDbSpline
210
0.0
220
0.0
230
1.0
 70
           0
 71
           3
 72
           8
 73
           5
 74
           7
 42
0.00000000001
 43
0.00000000001
 44
0.00000000001
 40
0.0
 40
0.0
 40
0.0
 40
0.2989651950314283
 40
0.4296296276529574
 40
0.4465803504019732
 40
0.4465803504019732
 40
0.4465803504019732
 10
3920.8999966098609
 20
1384.6465796233019
 30
0.0
 10
3920.8999966099068
 20
1384.4669365634261
 30
0.0
 10
3920.8999966099068
 20
1384.2282922931149
 30
0.0
 10
3920.8999966099068
 20
1384.205607698183
 30
0.0
 10
3920.8999966099068
 20
1384.1999992729
 30
0.0
 11
3920.8999966098609
 21
1384.6465796233019
 31
0.0
 11
3920.8999966098954
 21
1384.4703311443234
 31
0.0
 11
3920.8999966099068
 21
1384.3008718271403
 31
0.0
 11
3920.8999966099063
 21
1384.2414172487579
 31
0.0
 11
3920.8999966099063
 21
1384.2082125816614
 31
0.0
 11
3920.8999966099072
 21
1384.2048568127318
 31
0.0
 11
3920.8999966099068
 21
1384.1999992729
 31
0.0
  0
SPLINE
  5
44F
100
AcDbEntity
  8
0
  6
CONTINUOUS
 62
           3
100
AcDbSpline
210
0.0
220
0.0
230
1.0
 70
           0
 71
           3
 72
           8
 73
           5
 74
           7
 42
0.00000000001
 43
0.00000000001
 44
0.00000000001
 40
0.0
 40
0.0
 40
0.0
 40
0.0169507227490158
 40
0.1476151553705449
 40
0.4465803504019732
 40
0.4465803504019732
 40
0.4465803504019732
 10
3910.8999968334342
 20
1384.1999992729
 30
0.0
 10
3910.8999968334342
 20
1384.205607698183
 30
0.0
 10
3910.8999968334342
 20
1384.2282922931149
 30
0.0
 10
3910.8999968334342
 20
1384.4669365634261
 30
0.0
 10
3910.8999968334701
 20
1384.6465796233019
 30
0.0
 11
3910.8999968334342
 21
1384.1999992729
 31
0.0
 11
3910.8999968334338
 21
1384.2048568127318
 31
0.0
 11
3910.8999968334342
 21
1384.2082125816612
 31
0.0
 11
3910.8999968334347
 21
1384.2414172487579
 31
0.0
 11
3910.8999968334342
 21
1384.3008718271403
 31
0.0
 11
3910.8999968334433
 21
1384.4703311443236
 31
0.0
 11
3910.8999968334701
 21
1384.6465796233019
 31
0.0
  0
SPLINE
  5
44E
100
AcDbEntity
  8
0
  6
CONTINUOUS
 62
           3
100
AcDbSpline
210
0.0
220
0.0
230
1.0
 70
           0
 71
           3
 72
           8
 73
           5
 74
           7
 42
0.00000000001
 43
0.00000000001
 44
0.00000000001
 40
0.0
 40
0.0
 40
0.0
 40
0.4813883392789984
 40
1.3325653926389922
 40
2.5594910488265357
 40
2.5594910488265357
 40
2.5594910488265357
 10
3918.399996665762
 20
1384.1999992729
 30
0.0
 10
3918.45926147194
 20
1384.2004449713099
 30
0.0
 10
3919.3034813132872
 20
1384.2067938900659
 30
0.0
 10
3920.1307773327771
 20
1384.4346858415561
 30
0.0
 10
3920.8999966098609
 20
1384.6465796233019
 30
0.0
 11
3918.399996665762
 21
1384.1999992729
 31
0.0
 11
3918.5206887308773
 21
1384.2009069323501
 31
0.0
 11
3918.7642353138672
 21
1384.2027385138806
 31
0.0
 11
3919.2533835507384
 21
1384.2291158030616
 31
0.0
 11
3919.642336262511
 21
1384.3001369182343
 31
0.0
 11
3920.2009718844811
 21
1384.4540220561621
 31
0.0
 11
3920.8999966098609
 21
1384.6465796233019
 31
0.0
  0
SPLINE
  5
44D
100
AcDbEntity
  8
0
  6
CONTINUOUS
 62
           3
100
AcDbSpline
210
0.0
220
0.0
230
1.0
 70
           0
 71
           3
 72
           8
 73
           5
 74
           7
 42
0.00000000001
 43
0.00000000001
 44
0.00000000001
 40
0.0
 40
0.0
 40
0.0
 40
0.4813884775006201
 40
1.3325655942382009
 40
2.5594910572496983
 40
2.5594910572496983
 40
2.5594910572496983
 10
3913.399996777553
 20
1384.1999992729
 30
0.0
 10
3913.459261584384
 20
1384.200444971553
 30
0.0
 10
3914.3034817008311
 20
1384.206793895828
 30
0.0
 10
3915.1307775679561
 20
1384.4346858417271
 30
0.0
 10
3915.89999672167
 20
1384.6465796232951
 30
0.0
 11
3913.399996777553
 21
1384.1999992729
 31
0.0
 11
3913.52068887836
 21
1384.2009069331086
 31
0.0
 11
3913.7642355671201
 21
1384.2027385164288
 31
0.0
 11
3914.2533839007065
 21
1384.2291158106432
 31
0.0
 11
3914.6423366340427
 21
1384.3001369344865
 31
0.0
 11
3915.2009721229065
 21
1384.4540220603092
 31
0.0
 11
3915.89999672167
 21
1384.6465796232951
 31
0.0
  0
SPLINE
  5
44C
100
AcDbEntity
  8
0
  6
CONTINUOUS
 62
           3
100
AcDbSpline
210
0.0
220
0.0
230
1.0
 70
           0
 71
           3
 72
           8
 73
           5
 74
           7
 42
0.00000000001
 43
0.00000000001
 44
0.00000000001
 40
0.0
 40
0.0
 40
0.0
 40
0.2779454797525598
 40
0.7862825386945511
 40
1.5429638907265533
 40
1.5429638907265533
 40
1.5429638907265533
 10
3911.569869687336
 20
1367.5999939442561
 30
0.0
 10
3911.604086231916
 20
1367.6004396365131
 30
0.0
 10
3912.0914969500309
 20
1367.606788471174
 30
0.0
 10
3912.5691364171848
 20
1367.834684325677
 30
0.0
 10
3913.0132452878379
 20
1368.046581745235
 30
0.0
 11
3911.569869687336
 21
1367.5999939442561
 31
0.0
 11
3911.6386061814901
 21
1367.6008892808161
 31
0.0
 11
3911.7763825747902
 21
1367.6026839059823
 31
0.0
 11
3912.0607022116055
 21
1367.6286568402281
 31
0.0
 11
3912.2834323715724
 21
1367.6983665125829
 31
0.0
 11
3912.6087376234454
 21
1367.853579227293
 31
0.0
 11
3913.0132452878379
 21
1368.046581745235
 31
0.0
  0
SPLINE
  5
44B
100
AcDbEntity
  8
0
  6
CONTINUOUS
 62
           3
100
AcDbSpline
210
0.0
220
0.0
230
1.0
 70
           0
 71
           3
 72
           8
 73
           5
 74
           7
 42
0.00000000001
 43
0.00000000001
 44
0.00000000001
 40
0.0
 40
0.0
 40
0.0
 40
0.2779464854274467
 40
0.7862840843633001
 40
1.5429642658504845
 40
1.5429642658504845
 40
1.5429642658504845
 10
3911.569869687336
 20
1372.6000040770409
 30
0.0
 10
3911.535653137978
 20
1372.5995583816691
 30
0.0
 10
3911.0482404188861
 20
1372.59320947744
 30
0.0
 10
3910.5706019393442
 20
1372.365313693474
 30
0.0
 10
3910.1264938539689
 20
1372.1534162761091
 30
0.0
 11
3911.569869687336
 21
1372.6000040770409
 31
0.0
 11
3911.5011329415879
 21
1372.5991087310695
 31
0.0
 11
3911.3633558030601
 21
1372.5973140838996
 31
0.0
 11
3911.0790354338706
 21
1372.5713410900569
 31
0.0
 11
3910.8563050946505
 21
1372.5016313214476
 31
0.0
 11
3910.5310007068274
 21
1372.3464187461261
 31
0.0
 11
3910.1264938539689
 21
1372.1534162761091
 31
0.0
  0
SPLINE
  5
44A
100
AcDbEntity
  8
0
  6
CONTINUOUS
 62
           3
100
AcDbSpline
210
0.0
220
0.0
230
1.0
 70
           0
 71
           3
 72
           8
 73
           5
 74
           7
 42
0.00000000001
 43
0.00000000001
 44
0.00000000001
 40
0.0
 40
0.0
 40
0.0
 40
0.2779464854264017
 40
0.7862840843605381
 40
1.5429642658924829
 40
1.5429642658924829
 40
1.5429642658924829
 10
3920.2301237560041
 20
1367.5999939442561
 30
0.0
 10
3920.264340305363
 20
1367.6004396396349
 30
0.0
 10
3920.7517530244509
 20
1367.606788543864
 30
0.0
 10
3921.2293915039968
 20
1367.834684327823
 30
0.0
 10
3921.6734995893621
 20
1368.0465817453121
 30
0.0
 11
3920.2301237560041
 21
1367.5999939442561
 31
0.0
 11
3920.2988605017526
 21
1367.6008892902325
 31
0.0
 11
3920.4366376402795
 21
1367.6026839374044
 31
0.0
 11
3920.7209580094654
 21
1367.6286569312456
 31
0.0
 11
3920.9436883486815
 21
1367.6983666998503
 31
0.0
 11
3921.2689927365095
 21
1367.8535792752023
 31
0.0
 11
3921.6734995893621
 21
1368.0465817453121
 31
0.0
  0
SPLINE
  5
449
100
AcDbEntity
  8
0
  6
CONTINUOUS
 62
           3
100
AcDbSpline
210
0.0
220
0.0
230
1.0
 70
           0
 71
           3
 72
           8
 73
           5
 74
           7
 42
0.00000000001
 43
0.00000000001
 44
0.00000000001
 40
0.0
 40
0.0
 40
0.0
 40
0.2779454797525331
 40
0.7862825386968155
 40
1.5429638907282623
 40
1.5429638907282623
 40
1.5429638907282623
 10
3920.2301237560041
 20
1372.6000040770409
 30
0.0
 10
3920.1959072114241
 20
1372.5995583847839
 30
0.0
 10
3919.7084964933092
 20
1372.5932095501271
 30
0.0
 10
3919.2308570261521
 20
1372.36531369562
 30
0.0
 10
3918.7867481555022
 20
1372.153416276062
 30
0.0
 11
3920.2301237560041
 21
1372.6000040770409
 31
0.0
 11
3920.16138726185
 21
1372.5991087404811
 31
0.0
 11
3920.0236108685503
 21
1372.5973141153163
 31
0.0
 11
3919.7392912317337
 21
1372.5713411810718
 31
0.0
 11
3919.5165610717659
 21
1372.5016315087164
 31
0.0
 11
3919.1912558198933
 21
1372.3464187940049
 31
0.0
 11
3918.7867481555022
 21
1372.153416276062
 31
0.0
  0
SPLINE
  5
448
100
AcDbEntity
  8
0
  6
CONTINUOUS
 62
           3
100
AcDbSpline
210
0.0
220
0.0
230
1.0
 70
           0
 71
           3
 72
           8
 73
           5
 74
           7
 42
0.00000000001
 43
0.00000000001
 44
0.00000000001
 40
0.0
 40
0.0
 40
0.0
 40
0.7097107189167987
 40
1.687855612122958
 40
2.9354150974130047
 40
2.9354150974130047
 40
2.9354150974130047
 10
3913.0132452878379
 20
1368.046581745235
 30
0.0
 10
3913.2266018694909
 20
1367.986940602696
 30
0.0
 10
3914.1669045504609
 20
1367.7240908429519
 30
0.0
 10
3915.144341891682
 20
1367.654102099867
 30
0.0
 10
3915.89999672167
 20
1367.5999939442561
 30
0.0
 11
3913.0132452878379
 21
1368.046581745235
 31
0.0
 11
3913.2721075077957
 21
1367.9742200752128
 31
0.0
 11
3913.6219810043631
 21
1367.8764173502238
 31
0.0
 11
3914.1380638628525
 21
1367.754482866841
 31
0.0
 11
3914.5964653461269
 21
1367.6933324312365
 31
0.0
 11
3915.1962864627899
 21
1367.6503826438066
 31
0.0
 11
3915.89999672167
 21
1367.5999939442561
 31
0.0
  0
SPLINE
  5
447
100
AcDbEntity
  8
0
  6
CONTINUOUS
 62
           3
100
AcDbSpline
210
0.0
220
0.0
230
1.0
 70
           0
 71
           3
 72
           8
 73
           5
 74
           7
 42
0.00000000001
 43
0.00000000001
 44
0.00000000001
 40
0.0
 40
0.0
 40
0.0
 40
0.7273681394920537
 40
1.7065914567906473
 40
2.9387223240342446
 40
2.9387223240342446
 40
2.9387223240342446
 10
3915.89999672167
 20
1367.5999939442561
 30
0.0
 10
3916.1387195010302
 20
1367.6054734833269
 30
0.0
 10
3917.1156271469772
 20
1367.6278969974519
 30
0.0
 10
3918.067488856243
 20
1367.8663776207211
 30
0.0
 10
3918.7867481553631
 20
1368.0465817453121
 30
0.0
 11
3915.89999672167
 21
1367.5999939442561
 31
0.0
 11
3916.1831310149696
 21
1367.6064928859432
 31
0.0
 11
3916.5550883361493
 21
1367.6150306328632
 31
0.0
 11
3917.0808673755082
 21
1367.6510811733847
 31
0.0
 11
3917.5371268719296
 21
1367.7335000657715
 31
0.0
 11
3918.1147131849448
 21
1367.8782092631313
 31
0.0
 11
3918.7867481553631
 21
1368.0465817453121
 31
0.0
  0
SPLINE
  5
446
100
AcDbEntity
  8
0
  6
CONTINUOUS
 62
           3
100
AcDbSpline
210
0.0
220
0.0
230
1.0
 70
           0
 71
           3
 72
           8
 73
           5
 74
           7
 42
0.00000000001
 43
0.00000000001
 44
0.00000000001
 40
0.0
 40
0.0
 40
0.0
 40
1.2321308673607017
 40
2.2113541846593336
 40
2.9387223241513429
 40
2.9387223241513429
 40
2.9387223241513429
 10
3918.7867481555022
 20
1372.153416276062
 30
0.0
 10
3918.067488856243
 20
1372.3336204005791
 30
0.0
 10
3917.1156271469772
 20
1372.572101023849
 30
0.0
 10
3916.1387195010302
 20
1372.5945245379701
 30
0.0
 10
3915.89999672167
 20
1372.6000040770409
 30
0.0
 11
3918.7867481555022
 21
1372.153416276062
 31
0.0
 11
3918.1147131849739
 21
1372.3217887581886
 31
0.0
 11
3917.5371268719073
 21
1372.4664979555348
 31
0.0
 11
3917.0808673755027
 21
1372.5489168479171
 31
0.0
 11
3916.5550883361489
 21
1372.5849673884354
 31
0.0
 11
3916.1831310149701
 21
1372.593505135354
 31
0.0
 11
3915.89999672167
 21
1372.6000040770409
 31
0.0
  0
SPLINE
  5
445
100
AcDbEntity
  8
0
  6
CONTINUOUS
 62
           3
100
AcDbSpline
210
0.0
220
0.0
230
1.0
 70
           0
 71
           3
 72
           8
 73
           5
 74
           7
 42
0.00000000001
 43
0.00000000001
 44
0.00000000001
 40
0.0
 40
0.0
 40
0.0
 40
1.2475616964942591
 40
2.2257084622408936
 40
2.9354211178809577
 40
2.9354211178809577
 40
2.9354211178809577
 10
3915.89999672167
 20
1372.6000040770409
 30
0.0
 10
3915.1443400642461
 20
1372.5459088094719
 30
0.0
 10
3914.1668989125792
 20
1372.475936633469
 30
0.0
 10
3913.22660170376
 20
1372.2130631111611
 30
0.0
 10
3913.0132452878379
 20
1372.153416276062
 30
0.0
 11
3915.89999672167
 21
1372.6000040770409
 31
0.0
 11
3915.1962845667977
 21
1372.5496273656929
 31
0.0
 11
3914.5964614170266
 21
1372.5066877667871
 31
0.0
 11
3914.1380594916282
 21
1372.4455393603082
 31
0.0
 11
3913.6219787243258
 21
1372.323596407507
 31
0.0
 11
3913.2721068549208
 21
1372.2257847264727
 31
0.0
 11
3913.0132452878379
 21
1372.153416276062
 31
0.0
  0
SPLINE
  5
444
100
AcDbEntity
  8
0
  6
CONTINUOUS
 62
           3
100
AcDbSpline
210
0.0
220
0.0
230
1.0
 70
           0
 71
           3
 72
           8
 73
           5
 74
           7
 42
0.00000000001
 43
0.00000000001
 44
0.00000000001
 40
0.0
 40
0.0
 40
0.0
 40
0.2779452695568832
 40
0.7862805426591408
 40
1.5429573555012195
 40
1.5429573555012195
 40
1.5429573555012195
 10
3911.569869687336
 20
1372.6000040770409
 30
0.0
 10
3911.6040862308669
 20
1372.6004497818101
 30
0.0
 10
3912.0914965280749
 20
1372.6067987893659
 30
0.0
 10
3912.569136228356
 20
1372.834686833085
 30
0.0
 10
3913.0132452878379
 20
1373.04657697686
 30
0.0
 11
3911.569869687336
 21
1372.6000040770409
 31
0.0
 11
3911.6386062202773
 21
1372.6008994392644
 31
0.0
 11
3911.7763827320423
 21
1372.6026941163966
 31
0.0
 11
3912.0607020292173
 21
1372.628666380841
 31
0.0
 11
3912.2834323286766
 21
1372.6983738282354
 31
0.0
 11
3912.608737518307
 21
1372.8535811178162
 31
0.0
 11
3913.0132452878379
 21
1373.04657697686
 31
0.0
  0
SPLINE
  5
443
100
AcDbEntity
  8
0
  6
CONTINUOUS
 62
           3
100
AcDbSpline
210
0.0
220
0.0
230
1.0
 70
           0
 71
           3
 72
           8
 73
           5
 74
           7
 42
0.00000000001
 43
0.00000000001
 44
0.00000000001
 40
0.0
 40
0.0
 40
0.0
 40
0.2779463803285011
 40
0.7862830863351852
 40
1.5429609982549422
 40
1.5429609982549422
 40
1.5429609982549422
 10
3911.569869687336
 20
1377.5999993086659
 30
0.0
 10
3911.5356531385019
 20
1377.599553607037
 30
0.0
 10
3911.048240629867
 20
1377.593204616358
 30
0.0
 10
3910.5706020337602
 20
1377.3653127377879
 30
0.0
 10
3910.1264938539689
 20
1377.1534189582051
 30
0.0
 11
3911.569869687336
 21
1377.5999993086659
 31
0.0
 11
3911.5011329221925
 21
1377.5991039498617
 31
0.0
 11
3911.3633557244325
 21
1377.5973092767078
 31
0.0
 11
3911.0790355250683
 21
1377.5713366177661
 31
0.0
 11
3910.8563051161063
 21
1377.5016279616407
 31
0.0
 11
3910.531000759398
 21
1377.3464180988553
 31
0.0
 11
3910.1264938539689
 21
1377.1534189582051
 31
0.0
  0
SPLINE
  5
442
100
AcDbEntity
  8
0
  6
CONTINUOUS
 62
           3
100
AcDbSpline
210
0.0
220
0.0
230
1.0
 70
           0
 71
           3
 72
           8
 73
           5
 74
           7
 42
0.00000000001
 43
0.00000000001
 44
0.00000000001
 40
0.0
 40
0.0
 40
0.0
 40
0.2779462752334179
 40
0.7862820883235817
 40
1.5429577306479334
 40
1.5429577306479334
 40
1.5429577306479334
 10
3920.2301237560041
 20
1372.6000040770409
 30
0.0
 10
3920.2643403043171
 20
1372.6004497849281
 30
0.0
 10
3920.7517526024972
 20
1372.606798862053
 30
0.0
 10
3921.2293913151639
 20
1372.8346868352351
 30
0.0
 10
3921.6734995893621
 20
1373.046576976911
 30
0.0
 11
3920.2301237560041
 21
1372.6000040770409
 31
0.0
 11
3920.298860540544
 21
1372.6008994486779
 31
0.0
 11
3920.4366377975375
 21
1372.6026941478153
 31
0.0
 11
3920.7209578270804
 21
1372.628666471855
 31
0.0
 11
3920.9436883057888
 21
1372.6983740154992
 31
0.0
 11
3921.2689926313692
 21
1372.85358116572
 31
0.0
 11
3921.6734995893621
 21
1373.046576976911
 31
0.0
  0
SPLINE
  5
441
100
AcDbEntity
  8
0
  6
CONTINUOUS
 62
           3
100
AcDbSpline
210
0.0
220
0.0
230
1.0
 70
           0
 71
           3
 72
           8
 73
           5
 74
           7
 42
0.00000000001
 43
0.00000000001
 44
0.00000000001
 40
0.0
 40
0.0
 40
0.0
 40
0.2779453746547257
 40
0.7862815406699579
 40
1.5429606230908357
 40
1.5429606230908357
 40
1.5429606230908357
 10
3920.2301237560041
 20
1377.5999993086659
 30
0.0
 10
3920.1959072119489
 20
1377.5995536101509
 30
0.0
 10
3919.708496704287
 20
1377.593204689045
 30
0.0
 10
3919.2308571205699
 20
1377.365312739938
 30
0.0
 10
3918.7867481555022
 20
1377.1534189582669
 30
0.0
 11
3920.2301237560041
 21
1377.5999993086659
 31
0.0
 11
3920.1613872424564
 21
1377.5991039592732
 31
0.0
 11
3920.0236107899227
 21
1377.5973093081241
 31
0.0
 11
3919.7392913229278
 21
1377.5713367087801
 31
0.0
 11
3919.5165610932154
 21
1377.5016281489061
 31
0.0
 11
3919.1912558724644
 21
1377.3464181467623
 31
0.0
 11
3918.7867481555022
 21
1377.1534189582669
 31
0.0
  0
SPLINE
  5
440
100
AcDbEntity
  8
0
  6
CONTINUOUS
 62
           3
100
AcDbSpline
210
0.0
220
0.0
230
1.0
 70
           0
 71
           3
 72
           8
 73
           5
 74
           7
 42
0.00000000001
 43
0.00000000001
 44
0.00000000001
 40
0.0
 40
0.0
 40
0.0
 40
0.7097104926838095
 40
1.6878550560213661
 40
2.9354142011763011
 40
2.9354142011763011
 40
2.9354142011763011
 10
3913.0132452878379
 20
1373.04657697686
 30
0.0
 10
3913.2266018489522
 20
1372.9869356693489
 30
0.0
 10
3914.166903851647
 20
1372.7240853468579
 30
0.0
 10
3915.14434166517
 20
1372.654105412621
 30
0.0
 10
3915.89999672167
 20
1372.6000040770409
 30
0.0
 11
3913.0132452878379
 21
1373.04657697686
 31
0.0
 11
3913.2721074221495
 21
1372.9742151236569
 31
0.0
 11
3913.6219807028551
 21
1372.8764121790696
 31
0.0
 11
3914.1380633113681
 21
1372.7544784200807
 31
0.0
 11
3914.5964648393247
 21
1372.6933308075384
 31
0.0
 11
3915.1962862228338
 21
1372.6503864274555
 31
0.0
 11
3915.89999672167
 21
1372.6000040770409
 31
0.0
  0
SPLINE
  5
43F
100
AcDbEntity
  8
0
  6
CONTINUOUS
 62
           3
100
AcDbSpline
210
0.0
220
0.0
230
1.0
 70
           0
 71
           3
 72
           8
 73
           5
 74
           7
 42
0.00000000001
 43
0.00000000001
 44
0.00000000001
 40
0.0
 40
0.0
 40
0.0
 40
0.7273675739568596
 40
1.706589637465274
 40
2.9387184666058817
 40
2.9387184666058817
 40
2.9387184666058817
 10
3915.89999672167
 20
1372.6000040770409
 30
0.0
 10
3916.1387194651479
 20
1372.605483801264
 30
0.0
 10
3917.1156260260941
 20
1372.6279080515201
 30
0.0
 10
3918.0674885010471
 20
1372.866379694286
 30
0.0
 10
3918.7867481553631
 20
1373.046576976911
 30
0.0
 11
3915.89999672167
 21
1372.6000040770409
 31
0.0
 11
3916.1831309024838
 21
1372.6065032367185
 31
0.0
 11
3916.5550879579705
 21
1372.6150412673055
 31
0.0
 11
3917.0808665470095
 21
1372.651091133866
 31
0.0
 11
3917.5371261778782
 21
1372.7335071651178
 31
0.0
 11
3918.1147128338334
 21
1372.8782108826504
 31
0.0
 11
3918.7867481553631
 21
1373.046576976911
 31
0.0
  0
SPLINE
  5
43E
100
AcDbEntity
  8
0
  6
CONTINUOUS
 62
           3
100
AcDbSpline
210
0.0
220
0.0
230
1.0
 70
           0
 71
           3
 72
           8
 73
           5
 74
           7
 42
0.00000000001
 43
0.00000000001
 44
0.00000000001
 40
0.0
 40
0.0
 40
0.0
 40
1.2321298483036798
 40
2.211352538699674
 40
2.9387203954226111
 40
2.9387203954226111
 40
2.9387203954226111
 10
3918.7867481555022
 20
1377.1534189582669
 30
0.0
 10
3918.067488678641
 20
1377.333619661815
 30
0.0
 10
3917.115626586532
 20
1377.5720957948331
 30
0.0
 10
3916.13871948309
 20
1377.5945196770231
 30
0.0
 10
3915.89999672167
 20
1377.5999993086659
 30
0.0
 11
3918.7867481555022
 21
1377.1534189582669
 31
0.0
 11
3918.1147130094155
 21
1377.3217882464442
 31
0.0
 11
3917.5371265248768
 21
1377.4664947038796
 31
0.0
 11
3917.0808669612502
 21
1377.5489121656951
 31
0.0
 11
3916.5550881470599
 21
1377.5849623692343
 31
0.0
 11
3916.1831309587269
 21
1377.5935002579865
 31
0.0
 11
3915.89999672167
 21
1377.5999993086659
 31
0.0
  0
SPLINE
  5
43D
100
AcDbEntity
  8
0
  6
CONTINUOUS
 62
           3
100
AcDbSpline
210
0.0
220
0.0
230
1.0
 70
           0
 71
           3
 72
           8
 73
           5
 74
           7
 42
0.00000000001
 43
0.00000000001
 44
0.00000000001
 40
0.0
 40
0.0
 40
0.0
 40
1.2475604207827602
 40
2.225706085294247
 40
2.9354176594319701
 40
2.9354176594319701
 40
2.9354176594319701
 10
3915.89999672167
 20
1377.5999993086659
 30
0.0
 10
3915.1443408647219
 20
1377.5459010071061
 30
0.0
 10
3914.1669013821588
 20
1377.4759249520071
 30
0.0
 10
3913.2266017763582
 20
1377.2130630295719
 30
0.0
 10
3913.0132452878379
 20
1377.1534189582669
 30
0.0
 11
3915.89999672167
 21
1377.5999993086659
 31
0.0
 11
3915.1962853948307
 21
1377.5496197777986
 31
0.0
 11
3914.5964631282077
 21
1377.5066777883167
 31
0.0
 11
3914.1380614015343
 21
1377.4455297788074
 31
0.0
 11
3913.6219797136109
 21
1377.3235914228985
 31
0.0
 11
3913.2721071385413
 21
1377.2257841100773
 31
0.0
 11
3913.0132452878379
 21
1377.1534189582669
 31
0.0
  0
SPLINE
  5
43C
100
AcDbEntity
  8
0
  6
CONTINUOUS
 62
           3
100
AcDbSpline
210
0.0
220
0.0
230
1.0
 70
           0
 71
           3
 72
           8
 73
           5
 74
           7
 42
0.00000000001
 43
0.00000000001
 44
0.00000000001
 40
0.0
 40
0.0
 40
0.0
 40
0.2779454797525494
 40
0.7862825386953479
 40
1.5429638907264198
 40
1.5429638907264198
 40
1.5429638907264198
 10
3911.569869687336
 20
1359.9999994040479
 30
0.0
 10
3911.604086231916
 20
1360.0004450963061
 30
0.0
 10
3912.0914969500309
 20
1360.0067939309631
 30
0.0
 10
3912.5691364171848
 20
1360.23468978547
 30
0.0
 10
3913.0132452878379
 20
1360.4465872050239
 30
0.0
 11
3911.569869687336
 21
1359.9999994040479
 31
0.0
 11
3911.6386061814896
 21
1360.0008947406084
 31
0.0
 11
3911.7763825747902
 21
1360.0026893657739
 31
0.0
 11
3912.0607022116055
 21
1360.0286623000184
 31
0.0
 11
3912.2834323715724
 21
1360.0983719723736
 31
0.0
 11
3912.6087376234445
 21
1360.2535846870842
 31
0.0
 11
3913.0132452878379
 21
1360.4465872050239
 31
0.0
  0
SPLINE
  5
43B
100
AcDbEntity
  8
0
  6
CONTINUOUS
 62
           3
100
AcDbSpline
210
0.0
220
0.0
230
1.0
 70
           0
 71
           3
 72
           8
 73
           5
 74
           7
 42
0.00000000001
 43
0.00000000001
 44
0.00000000001
 40
0.0
 40
0.0
 40
0.0
 40
0.277946275232473
 40
0.7862820883219722
 40
1.542957730607867
 40
1.542957730607867
 40
1.542957730607867
 10
3911.569869687336
 20
1364.9999946356729
 30
0.0
 10
3911.5356531390239
 20
1364.9995489277901
 30
0.0
 10
3911.0482408408438
 20
1364.993199850662
 30
0.0
 10
3910.5706021281771
 20
1364.7653118774831
 30
0.0
 10
3910.1264938539689
 20
1364.5534217359159
 30
0.0
 11
3911.569869687336
 21
1364.9999946356729
 31
0.0
 11
3911.5011329027971
 21
1364.9990992640387
 31
0.0
 11
3911.3633556458039
 21
1364.9973045649015
 31
0.0
 11
3911.0790356162593
 21
1364.9713322408597
 31
0.0
 11
3910.8563051375468
 21
1364.9016246972142
 31
0.0
 11
3910.5310008119677
 21
1364.7464175470241
 31
0.0
 11
3910.1264938539689
 21
1364.5534217359159
 31
0.0
  0
SPLINE
  5
43A
100
AcDbEntity
  8
0
  6
CONTINUOUS
 62
           3
100
AcDbSpline
210
0.0
220
0.0
230
1.0
 70
           0
 71
           3
 72
           8
 73
           5
 74
           7
 42
0.00000000001
 43
0.00000000001
 44
0.00000000001
 40
0.0
 40
0.0
 40
0.0
 40
0.2779464854703065
 40
0.7862840844052754
 40
1.542964265945298
 40
1.542964265945298
 40
1.542964265945298
 10
3920.2301237559618
 20
1359.999999403921
 30
0.0
 10
3920.264340305363
 20
1360.000445099424
 30
0.0
 10
3920.7517530244509
 20
1360.0067940036531
 30
0.0
 10
3921.2293915039968
 20
1360.2346897876159
 30
0.0
 10
3921.6734995893621
 20
1360.4465872051219
 30
0.0
 11
3920.2301237559618
 21
1359.999999403921
 31
0.0
 11
3920.2988605017463
 21
1360.0008947499907
 31
0.0
 11
3920.4366376402968
 21
1360.0026893971938
 31
0.0
 11
3920.72095800947
 21
1360.0286623910354
 31
0.0
 11
3920.9436883486806
 21
1360.0983721596403
 31
0.0
 11
3921.2689927365091
 21
1360.2535847349984
 31
0.0
 11
3921.6734995893621
 21
1360.4465872051219
 31
0.0
  0
SPLINE
  5
439
100
AcDbEntity
  8
0
  6
CONTINUOUS
 62
           3
100
AcDbSpline
210
0.0
220
0.0
230
1.0
 70
           0
 71
           3
 72
           8
 73
           5
 74
           7
 42
0.00000000001
 43
0.00000000001
 44
0.00000000001
 40
0.0
 40
0.0
 40
0.0
 40
0.2779452695575371
 40
0.7862805426589989
 40
1.5429573555010778
 40
1.5429573555010778
 40
1.5429573555010778
 10
3920.2301237560041
 20
1364.9999946356729
 30
0.0
 10
3920.195907212471
 20
1364.999548930904
 30
0.0
 10
3919.7084969152661
 20
1364.993199923352
 30
0.0
 10
3919.2308572149832
 20
1364.7653118796329
 30
0.0
 10
3918.7867481555022
 20
1364.5534217358579
 30
0.0
 11
3920.2301237560041
 21
1364.9999946356729
 31
0.0
 11
3920.161387223061
 21
1364.9990992734499
 31
0.0
 11
3920.0236107112964
 21
1364.9973045963188
 31
0.0
 11
3919.7392914141224
 21
1364.9713323318763
 31
0.0
 11
3919.5165611146635
 21
1364.9016248844825
 31
0.0
 11
3919.1912559250331
 21
1364.7464175949017
 31
0.0
 11
3918.7867481555022
 21
1364.5534217358579
 31
0.0
  0
SPLINE
  5
438
100
AcDbEntity
  8
0
  6
CONTINUOUS
 62
           3
100
AcDbSpline
210
0.0
220
0.0
230
1.0
 70
           0
 71
           3
 72
           8
 73
           5
 74
           7
 42
0.00000000001
 43
0.00000000001
 44
0.00000000001
 40
0.0
 40
0.0
 40
0.0
 40
0.7097126556392074
 40
1.6878594213858498
 40
2.9354211178801171
 40
2.9354211178801171
 40
2.9354211178801171
 10
3913.0132452878379
 20
1360.4465872050239
 30
0.0
 10
3913.22660170376
 20
1360.386940369928
 30
0.0
 10
3914.1668989125792
 20
1360.12406684762
 30
0.0
 10
3915.1443400642461
 20
1360.0540946716169
 30
0.0
 10
3915.89999672167
 20
1359.9999994040479
 30
0.0
 11
3913.0132452878379
 21
1360.4465872050239
 31
0.0
 11
3913.2721068549213
 21
1360.3742187546154
 31
0.0
 11
3913.6219787243253
 21
1360.276407073582
 31
0.0
 11
3914.1380594916272
 21
1360.1544641207809
 31
0.0
 11
3914.5964614170271
 21
1360.0933157143018
 31
0.0
 11
3915.1962845667972
 21
1360.0503761153959
 31
0.0
 11
3915.89999672167
 21
1359.9999994040479
 31
0.0
  0
SPLINE
  5
437
100
AcDbEntity
  8
0
  6
CONTINUOUS
 62
           3
100
AcDbSpline
210
0.0
220
0.0
230
1.0
 70
           0
 71
           3
 72
           8
 73
           5
 74
           7
 42
0.00000000001
 43
0.00000000001
 44
0.00000000001
 40
0.0
 40
0.0
 40
0.0
 40
0.7273681394919911
 40
1.706591456790695
 40
2.93872232403921
 40
2.93872232403921
 40
2.93872232403921
 10
3915.89999672167
 20
1359.9999994040479
 30
0.0
 10
3916.1387195010302
 20
1360.005478943116
 30
0.0
 10
3917.1156271469772
 20
1360.027902457241
 30
0.0
 10
3918.067488856243
 20
1360.2663830805111
 30
0.0
 10
3918.7867481553631
 20
1360.4465872051219
 30
0.0
 11
3915.89999672167
 21
1359.9999994040479
 31
0.0
 11
3916.1831310149696
 21
1360.0064983457332
 31
0.0
 11
3916.5550883361493
 21
1360.0150360926523
 31
0.0
 11
3917.0808673755078
 21
1360.0510866331738
 31
0.0
 11
3917.5371268719291
 21
1360.1335055255608
 31
0.0
 11
3918.1147131849448
 21
1360.2782147229264
 31
0.0
 11
3918.7867481553631
 21
1360.4465872051219
 31
0.0
  0
SPLINE
  5
436
100
AcDbEntity
  8
0
  6
CONTINUOUS
 62
           3
100
AcDbSpline
210
0.0
220
0.0
230
1.0
 70
           0
 71
           3
 72
           8
 73
           5
 74
           7
 42
0.00000000001
 43
0.00000000001
 44
0.00000000001
 40
0.0
 40
0.0
 40
0.0
 40
1.23212882926288
 40
2.2113508927716787
 40
2.9387184667284418
 40
2.9387184667284418
 40
2.9387184667284418
 10
3918.7867481555022
 20
1364.5534217358579
 30
0.0
 10
3918.0674885010471
 20
1364.733619018429
 30
0.0
 10
3917.1156260260941
 20
1364.9720906611981
 30
0.0
 10
3916.1387194651479
 20
1364.994514911454
 30
0.0
 10
3915.89999672167
 20
1364.9999946356729
 30
0.0
 11
3918.7867481555022
 21
1364.5534217358579
 31
0.0
 11
3918.114712833863
 21
1364.7217878300803
 31
0.0
 11
3917.537126177855
 21
1364.8664915476047
 31
0.0
 11
3917.0808665470031
 21
1364.9489075788533
 31
0.0
 11
3916.55508795797
 21
1364.9849574454126
 31
0.0
 11
3916.1831309024838
 21
1364.9934954759983
 31
0.0
 11
3915.89999672167
 21
1364.9999946356729
 31
0.0
  0
SPLINE
  5
435
100
AcDbEntity
  8
0
  6
CONTINUOUS
 62
           3
100
AcDbSpline
210
0.0
220
0.0
230
1.0
 70
           0
 71
           3
 72
           8
 73
           5
 74
           7
 42
0.00000000001
 43
0.00000000001
 44
0.00000000001
 40
0.0
 40
0.0
 40
0.0
 40
1.2475591451557939
 40
2.2257037084933495
 40
2.9354142011754871
 40
2.9354142011754871
 40
2.9354142011754871
 10
3915.89999672167
 20
1364.9999946356729
 30
0.0
 10
3915.14434166517
 20
1364.9458933000931
 30
0.0
 10
3914.1669038516452
 20
1364.8759133658571
 30
0.0
 10
3913.2266018489522
 20
1364.6130630433661
 30
0.0
 10
3913.0132452878379
 20
1364.5534217358579
 30
0.0
 11
3915.89999672167
 21
1364.9999946356729
 31
0.0
 11
3915.1962862228329
 21
1364.9496122852588
 31
0.0
 11
3914.5964648393237
 21
1364.9066679051762
 31
0.0
 11
3914.1380633113677
 21
1364.8455202926341
 31
0.0
 11
3913.6219807028538
 21
1364.7235865336452
 31
0.0
 11
3913.272107422149
 21
1364.6257835890588
 31
0.0
 11
3913.0132452878379
 21
1364.5534217358579
 31
0.0
  0
SPLINE
  5
434
100
AcDbEntity
  8
0
  6
CONTINUOUS
 62
           3
100
AcDbSpline
210
0.0
220
0.0
230
1.0
 70
           0
 71
           3
 72
           8
 73
           5
 74
           7
 42
0.00000000001
 43
0.00000000001
 44
0.00000000001
 40
0.0
 40
0.0
 40
0.0
 40
0.2779464854669719
 40
0.7862840844020163
 40
1.5429642659218197
 40
1.5429642659218197
 40
1.5429642659218197
 10
3920.2301237559618
 20
1359.999999403921
 30
0.0
 10
3920.264340305363
 20
1359.9995537086761
 30
0.0
 10
3920.7517530244509
 20
1359.9932048044429
 30
0.0
 10
3921.2293915039968
 20
1359.7653090204799
 30
0.0
 10
3921.6734995893621
 20
1359.553411603021
 30
0.0
 11
3920.2301237559618
 21
1359.999999403921
 31
0.0
 11
3920.2988605017458
 21
1359.9991040580446
 31
0.0
 11
3920.4366376402954
 21
1359.9973094109048
 31
0.0
 11
3920.72095800947
 21
1359.9713364170611
 31
0.0
 11
3920.9436883486833
 21
1359.9016266484541
 31
0.0
 11
3921.2689927365095
 21
1359.7464140731088
 31
0.0
 11
3921.6734995893621
 21
1359.553411603021
 31
0.0
  0
SPLINE
  5
433
100
AcDbEntity
  8
0
  6
CONTINUOUS
 62
           3
100
AcDbSpline
210
0.0
220
0.0
230
1.0
 70
           0
 71
           3
 72
           8
 73
           5
 74
           7
 42
0.00000000001
 43
0.00000000001
 44
0.00000000001
 40
0.0
 40
0.0
 40
0.0
 40
0.3778155284993148
 40
0.8942062233993606
 40
1.5357514174607354
 40
1.5357514174607354
 40
1.5357514174607354
 10
3910.1264938539689
 20
1359.553411603021
 30
0.0
 10
3910.2210118970279
 20
1359.6064716909059
 30
0.0
 10
3910.6908817949029
 20
1359.870245011374
 30
0.0
 10
3911.1795227343
 20
1359.9423771861991
 30
0.0
 10
3911.569869687336
 20
1359.9999994040479
 30
0.0
 11
3910.1264938539689
 21
1359.553411603021
 31
0.0
 11
3910.2470141544018
 21
1359.6210687140278
 31
0.0
 11
3910.4195389695824
 21
1359.7179198712795
 31
0.0
 11
3910.6775244143287
 21
1359.8402057052367
 31
0.0
 11
3910.9087950979251
 21
1359.9024129269192
 31
0.0
 11
3911.2094275634654
 21
1359.9467916758415
 31
0.0
 11
3911.569869687336
 21
1359.9999994040479
 31
0.0
  0
SPLINE
  5
432
100
AcDbEntity
  8
0
  6
CONTINUOUS
 62
           3
100
AcDbSpline
210
0.0
220
0.0
230
1.0
 70
           0
 71
           3
 72
           8
 73
           5
 74
           7
 42
0.00000000001
 43
0.00000000001
 44
0.00000000001
 40
0.0
 40
0.0
 40
0.0
 40
0.6415450374694814
 40
1.1579303686019833
 40
1.5357381749000683
 40
1.5357381749000683
 40
1.5357381749000683
 10
3911.569869687336
 20
1355.0000041724199
 30
0.0
 10
3911.1795237086089
 20
1355.0576336938759
 30
0.0
 10
3910.6908846293591
 20
1355.1297749168839
 30
0.0
 10
3910.2210119621118
 20
1355.3935224482559
 30
0.0
 10
3910.1264938539689
 20
1355.446577072224
 30
0.0
 11
3911.569869687336
 21
1355.0000041724199
 31
0.0
 11
3911.2094282456992
 21
1355.0532186767991
 31
0.0
 11
3910.9087958782429
 21
1355.097603147025
 31
0.0
 11
3910.6775260473187
 21
1355.1598096979619
 31
0.0
 11
3910.4195390523128
 21
1355.282085811054
 31
0.0
 11
3910.2470142076263
 21
1355.3789269449474
 31
0.0
 11
3910.1264938539689
 21
1355.446577072224
 31
0.0
  0
SPLINE
  5
431
100
AcDbEntity
  8
0
  6
CONTINUOUS
 62
           3
100
AcDbSpline
210
0.0
220
0.0
230
1.0
 70
           0
 71
           3
 72
           8
 73
           5
 74
           7
 42
0.00000000001
 43
0.00000000001
 44
0.00000000001
 40
0.0
 40
0.0
 40
0.0
 40
0.3539460334994387
 40
0.8643414136634675
 40
1.5431068114059312
 40
1.5431068114059312
 40
1.5431068114059312
 10
3911.569869687336
 20
1359.9999994040479
 30
0.0
 10
3911.6793238424202
 20
1359.9953935078299
 30
0.0
 10
3912.167681671036
 20
1359.97484311874
 30
0.0
 10
3912.6438213484421
 20
1359.7375336343539
 30
0.0
 10
3913.013245287967
 20
1359.553411603021
 30
0.0
 11
3911.569869687336
 21
1359.9999994040479
 31
0.0
 11
3911.7019556855757
 21
1359.9944411463541
 31
0.0
 11
3911.8793053701293
 21
1359.9869781657089
 31
0.0
 11
3912.146678141381
 21
1359.9524131949256
 31
0.0
 11
3912.372043853321
 21
1359.8729883765131
 31
0.0
 11
3912.6682329595424
 21
1359.7253668120604
 31
0.0
 11
3913.013245287967
 21
1359.553411603021
 31
0.0
  0
SPLINE
  5
430
100
AcDbEntity
  8
0
  6
CONTINUOUS
 62
           3
100
AcDbSpline
210
0.0
220
0.0
230
1.0
 70
           0
 71
           3
 72
           8
 73
           5
 74
           7
 42
0.00000000001
 43
0.00000000001
 44
0.00000000001
 40
0.0
 40
0.0
 40
0.0
 40
0.6787700534894813
 40
1.1891668948798171
 40
1.5431123743501054
 40
1.5431123743501054
 40
1.5431123743501054
 10
3913.0132452878379
 20
1355.446577072242
 30
0.0
 10
3912.6438214744012
 20
1355.2624483716061
 30
0.0
 10
3912.1676820506209
 20
1355.0251303367841
 30
0.0
 10
3911.6793238525811
 20
1355.0046045512611
 30
0.0
 10
3911.569869687336
 20
1355.0000041724199
 30
0.0
 11
3913.0132452878379
 21
1355.446577072242
 31
0.0
 11
3912.668232973635
 21
1355.2746155830068
 31
0.0
 11
3912.3720436578983
 21
1355.1269885165734
 31
0.0
 11
3912.1466781919453
 21
1355.0475647466087
 31
0.0
 11
3911.8793050086424
 21
1355.0130097962933
 31
0.0
 11
3911.7019556002851
 21
1355.0055557678088
 31
0.0
 11
3911.569869687336
 21
1355.0000041724199
 31
0.0
  0
SPLINE
  5
42F
100
AcDbEntity
  8
0
  6
CONTINUOUS
 62
           3
100
AcDbSpline
210
0.0
220
0.0
230
1.0
 70
           0
 71
           3
 72
           8
 73
           5
 74
           7
 42
0.00000000001
 43
0.00000000001
 44
0.00000000001
 40
0.0
 40
0.0
 40
0.0
 40
0.2779452695575593
 40
0.7862805426598727
 40
1.5429573556206393
 40
1.5429573556206393
 40
1.5429573556206393
 10
3920.2301237560041
 20
1355.0000041724199
 30
0.0
 10
3920.195907212471
 20
1355.0004498771891
 30
0.0
 10
3919.7084969152661
 20
1355.0067988847441
 30
0.0
 10
3919.2308572149832
 20
1355.234686928467
 30
0.0
 10
3918.7867481553631
 20
1355.446577072224
 30
0.0
 11
3920.2301237560041
 21
1355.0000041724199
 31
0.0
 11
3920.1613872230605
 21
1355.0008995346434
 31
0.0
 11
3920.0236107112964
 21
1355.0026942117752
 31
0.0
 11
3919.7392914141283
 21
1355.0286664762175
 31
0.0
 11
3919.5165611146813
 21
1355.0983739236062
 31
0.0
 11
3919.1912559250031
 21
1355.2535812131912
 31
0.0
 11
3918.7867481553631
 21
1355.446577072224
 31
0.0
  0
SPLINE
  5
42E
100
AcDbEntity
  8
0
  6
CONTINUOUS
 62
           3
100
AcDbSpline
210
0.0
220
0.0
230
1.0
 70
           0
 71
           3
 72
           8
 73
           5
 74
           7
 42
0.00000000001
 43
0.00000000001
 44
0.00000000001
 40
0.0
 40
0.0
 40
0.0
 40
0.5558558490614896
 40
1.5343195421996656
 40
2.9385037456599621
 40
2.9385037456599621
 40
2.9385037456599621
 10
3915.899996721665
 20
1355.000004172322
 30
0.0
 10
3915.8315636362909
 20
1355.0004498783021
 30
0.0
 10
3914.856741687237
 20
1355.0067989106681
 30
0.0
 10
3913.9014629162589
 20
1355.234686929231
 30
0.0
 10
3913.0132452878379
 20
1355.446577072242
 30
0.0
 11
3915.899996721665
 21
1355.000004172322
 31
0.0
 11
3915.7603818762436
 21
1355.0009134863224
 31
0.0
 11
3915.4784035107291
 21
1355.0027500163628
 31
0.0
 11
3914.9140828960126
 21
1355.0291829422185
 31
0.0
 11
3914.4644446988477
 21
1355.1003839311754
 31
0.0
 11
3913.8201539548008
 21
1355.2540837154697
 31
0.0
 11
3913.0132452878379
 21
1355.446577072242
 31
0.0
  0
SPLINE
  5
42D
100
AcDbEntity
  8
0
  6
CONTINUOUS
 62
           3
100
AcDbSpline
210
0.0
220
0.0
230
1.0
 70
           0
 71
           3
 72
           8
 73
           5
 74
           7
 42
0.00000000001
 43
0.00000000001
 44
0.00000000001
 40
0.0
 40
0.0
 40
0.0
 40
0.5558562714151647
 40
1.5343210643709337
 40
2.9385072682973941
 40
2.9385072682973941
 40
2.9385072682973941
 10
3915.89999672167
 20
1359.9999994040479
 30
0.0
 10
3915.9684298091429
 20
1359.999553710677
 30
0.0
 10
3916.9432526000151
 20
1359.993204851213
 30
0.0
 10
3917.8985309047421
 20
1359.765309021863
 30
0.0
 10
3918.7867481555022
 20
1359.553411603069
 30
0.0
 11
3915.89999672167
 21
1359.9999994040479
 31
0.0
 11
3916.0396116244033
 21
1359.999090115298
 31
0.0
 11
3916.3215901576559
 21
1359.9972536357895
 31
0.0
 11
3916.8859111712791
 21
1359.9708199944766
 31
0.0
 11
3917.3355493274303
 21
1359.8996166396905
 31
0.0
 11
3917.9798398231046
 21
1359.7459115716215
 31
0.0
 11
3918.7867481555022
 21
1359.553411603069
 31
0.0
  0
CIRCLE
  5
42C
100
AcDbEntity
  8
1
  6
CONTINUOUS
 62
           7
100
AcDbCircle
 10
-0.000000000002
 20
5329.0
 40
317.5
  0
CIRCLE
  5
42B
100
AcDbEntity
  8
1
  6
CONTINUOUS
 62
           4
100
AcDbCircle
 10
-0.000000000004
 20
5329.0
 40
84.123000000001
  0
CIRCLE
  5
42A
100
AcDbEntity
  8
1
  6
CONTINUOUS
 62
           4
100
AcDbCircle
 10
-0.000000000004
 20
5329.0
 40
110.700000000001
  0
CIRCLE
  5
429
100
AcDbEntity
  8
1
  6
CONTINUOUS
 62
           3
100
AcDbCircle
 10
508.472255321878
 20
1295.200848327053
 40
40.0
  0
CIRCLE
  5
428
100
AcDbEntity
  8
1
  6
CONTINUOUS
 62
           2
100
AcDbCircle
 10
4299.999999999998
 20
600.0
 40
8.350000000002
  0
CIRCLE
  5
427
100
AcDbEntity
  8
1
  6
CONTINUOUS
 62
           7
100
AcDbCircle
 10
4299.999999999998
 20
600.0
 40
15.0
  0
CIRCLE
  5
426
100
AcDbEntity
  8
1
  6
CONTINUOUS
 62
           7
100
AcDbCircle
 10
-450.0
 20
3969.0
 40
45.0
  0
CIRCLE
  5
425
100
AcDbEntity
  8
1
  6
CONTINUOUS
 62
           2
100
AcDbCircle
 10
3265.0
 20
1327.5
 40
45.0
  0
CIRCLE
  5
424
100
AcDbEntity
  8
1
  6
CONTINUOUS
 62
           4
100
AcDbCircle
 10
3085.0
 20
1500.0
 40
10.0
  0
CIRCLE
  5
423
100
AcDbEntity
  8
1
  6
CONTINUOUS
 62
           4
100
AcDbCircle
 10
3085.0
 20
1500.0
 40
40.0
  0
CIRCLE
  5
422
100
AcDbEntity
  8
1
  6
CONTINUOUS
 62
           4
100
AcDbCircle
 10
3347.5
 20
1439.999999999989
 40
15.0
  0
CIRCLE
  5
421
100
AcDbEntity
  8
1
  6
CONTINUOUS
 62
           4
100
AcDbCircle
 10
3280.0
 20
1474.999999999989
 40
15.0
  0
CIRCLE
  5
420
100
AcDbEntity
  8
1
  6
CONTINUOUS
 62
           4
100
AcDbCircle
 10
3245.0
 20
1474.999999999989
 40
15.0
  0
ARC
  5
41F
100
AcDbEntity
  8
1
  6
CONTINUOUS
 62
           7
100
AcDbCircle
 10
-0.000000000004
 20
5329.0
 40
125.0
100
AcDbArc
 50
19.47546158221
 51
90.0
  0
ARC
  5
41E
100
AcDbEntity
  8
1
  6
CONTINUOUS
 62
           7
100
AcDbCircle
 10
-0.000000000004
 20
5329.0
 40
125.0
100
AcDbArc
 50
90.0
 51
-19.47546158221
  0
ARC
  5
41D
100
AcDbEntity
  8
1
  6
CONTINUOUS
 62
           7
100
AcDbCircle
 10
54.999999999996
 20
5313.999999999998
 40
360.000000000001
100
AcDbArc
 50
-1.498629881627
 51
0.0
  0
ARC
  5
41C
100
AcDbEntity
  8
1
  6
CONTINUOUS
 62
           7
100
AcDbCircle
 10
160.551161566786
 20
5658.1786633304
 40
5.0
100
AcDbArc
 50
163.348397297227
 51
-17.447383814441
  0
ARC
  5
41B
100
AcDbEntity
  8
1
  6
CONTINUOUS
 62
           7
100
AcDbCircle
 10
54.999999999996
 20
5313.999999999998
 40
360.0
100
AcDbArc
 50
18.095065654746
 51
72.15472562971
  0
ARC
  5
41A
100
AcDbEntity
  8
1
  6
CONTINUOUS
 62
           7
100
AcDbCircle
 10
54.999999999996
 20
5313.999999999998
 40
360.000000000002
100
AcDbArc
 50
0.0
 51
16.503503431389
  0
ARC
  5
419
100
AcDbEntity
  8
1
  6
CONTINUOUS
 62
           7
100
AcDbCircle
 10
398.715224597898
 20
5421.050662677139
 40
5.0
100
AcDbArc
 50
107.697175098916
 51
-73.098606012772
  0
ARC
  5
418
100
AcDbEntity
  8
1
  6
CONTINUOUS
 62
           7
100
AcDbCircle
 10
413.419036500109
 20
5256.103069526533
 40
5.0
100
AcDbArc
 50
90.0
 51
-95.092511460492
  0
ARC
  5
417
100
AcDbEntity
  8
1
  6
CONTINUOUS
 62
           7
100
AcDbCircle
 10
413.419036500109
 20
5256.103069526533
 40
5.000000000001
100
AcDbArc
 50
85.537115658273
 51
90.0
  0
ARC
  5
416
100
AcDbEntity
  8
1
  6
CONTINUOUS
 62
           7
100
AcDbCircle
 10
-42.74781696846
 20
5291.499999999999
 40
457.508251836064
100
AcDbArc
 50
-89.655876673074
 51
-5.063201692938
  0
ARC
  5
415
100
AcDbEntity
  8
1
  6
CONTINUOUS
 62
           7
100
AcDbCircle
 10
-40.000000000002
 20
5378.999999999998
 40
540.0
100
AcDbArc
 50
180.0
 51
-175.217743666854
  0
ARC
  5
414
100
AcDbEntity
  8
1
  6
CONTINUOUS
 62
           7
100
AcDbCircle
 10
-577.680202350806
 20
5329.0
 40
5.000000000001
100
AcDbArc
 50
-84.421966108667
 51
90.0
  0
ARC
  5
413
100
AcDbEntity
  8
1
  6
CONTINUOUS
 62
           7
100
AcDbCircle
 10
-577.680202350806
 20
5329.0
 40
5.0
100
AcDbArc
 50
90.0
 51
95.047515519199
  0
ARC
  5
412
100
AcDbEntity
  8
1
  6
CONTINUOUS
 62
           7
100
AcDbCircle
 10
-37.231092924516
 20
5376.499999999998
 40
542.507066171856
100
AcDbArc
 50
-174.449140676885
 51
-90.292433754283
  0
ARC
  5
411
100
AcDbEntity
  8
1
  6
CONTINUOUS
 62
           7
100
AcDbCircle
 10
54.999999999996
 20
5313.999999999998
 40
360.000000000001
100
AcDbArc
 50
73.746287853066
 51
93.901683355293
  0
ARC
  5
410
100
AcDbEntity
  8
1
  6
CONTINUOUS
 62
           7
100
AcDbCircle
 10
-40.000000000002
 20
5293.999999999998
 40
454.999999999998
100
AcDbArc
 50
-4.148070782362
 51
1.333022116547
  0
ARC
  5
40F
100
AcDbEntity
  8
7
  6
CONTINUOUS
 62
           7
100
AcDbCircle
 10
-105.799999999999
 20
2877.411357
 40
6.2
100
AcDbArc
 50
122.681915
 51
180.0
  0
ARC
  5
40E
100
AcDbEntity
  8
7
  6
CONTINUOUS
 62
           7
100
AcDbCircle
 10
-84.75
 20
2898.949999999999
 40
3.053686296922
100
AcDbArc
 50
87.184443315796
 51
177.184443315752
  0
ARC
  5
40D
100
AcDbEntity
  8
7
  6
CONTINUOUS
 62
           7
100
AcDbCircle
 10
-89.799999999999
 20
2899.341134000002
 40
2.000000000001
100
AcDbArc
 50
-55.000000000043
 51
0.0
  0
ARC
  5
40C
100
AcDbEntity
  8
7
  6
CONTINUOUS
 62
           7
100
AcDbCircle
 10
82.250000000002
 20
2898.949999999999
 40
3.05368629692
100
AcDbArc
 50
2.815556684248
 51
92.815556684237
  0
ARC
  5
40B
100
AcDbEntity
  8
7
  6
CONTINUOUS
 62
           7
100
AcDbCircle
 10
87.300000000001
 20
2899.341134000002
 40
2.0
100
AcDbArc
 50
180.0
 51
-124.999999999957
  0
ARC
  5
40A
100
AcDbEntity
  8
7
  6
CONTINUOUS
 62
           7
100
AcDbCircle
 10
107.923187
 20
2882.800000000003
 40
2.0
100
AcDbArc
 50
-124.99999999997
 51
-90.0
  0
ARC
  5
409
100
AcDbEntity
  8
7
  6
CONTINUOUS
 62
           7
100
AcDbCircle
 10
108.800000000001
 20
2877.600000000001
 40
3.199999999999
100
AcDbArc
 50
0.0
 51
90.0
  0
ARC
  5
408
100
AcDbEntity
  8
7
  6
CONTINUOUS
 62
           7
100
AcDbCircle
 10
4715.799999999994
 20
2877.111357
 40
6.200000000003
100
AcDbArc
 50
0.0
 51
57.318084999983
  0
ARC
  5
407
100
AcDbEntity
  8
7
  6
CONTINUOUS
 62
           7
100
AcDbCircle
 10
4694.599999999995
 20
2898.799999999999
 40
3.199999999999
100
AcDbArc
 50
0.0
 51
90.0
  0
ARC
  5
406
100
AcDbEntity
  8
7
  6
CONTINUOUS
 62
           7
100
AcDbCircle
 10
4699.799999999994
 20
2899.041133999999
 40
2.0
100
AcDbArc
 50
180.0
 51
-125.000000000001
  0
ARC
  5
405
100
AcDbEntity
  8
7
  6
CONTINUOUS
 62
           7
100
AcDbCircle
 10
4527.899999999994
 20
2898.799999999999
 40
3.200000000001
100
AcDbArc
 50
90.0
 51
180.0
  0
ARC
  5
404
100
AcDbEntity
  8
7
  6
CONTINUOUS
 62
           7
100
AcDbCircle
 10
4522.699999999994
 20
2899.041133999999
 40
2.0
100
AcDbArc
 50
-54.999999999977
 51
0.0
  0
ARC
  5
403
100
AcDbEntity
  8
7
  6
CONTINUOUS
 62
           7
100
AcDbCircle
 10
4502.076812999996
 20
2882.500000000002
 40
2.0
100
AcDbArc
 50
-90.0
 51
-55.000000000086
  0
ARC
  5
402
100
AcDbEntity
  8
7
  6
CONTINUOUS
 62
           7
100
AcDbCircle
 10
4501.199999999994
 20
2877.299999999999
 40
3.200000000003
100
AcDbArc
 50
90.0
 51
180.0
  0
ARC
  5
401
100
AcDbEntity
  8
1
  6
CONTINUOUS
 62
           3
100
AcDbCircle
 10
4420.163567691036
 20
1925.0
 40
9.499999999998
100
AcDbArc
 50
-124.797812779172
 51
0.0
  0
ARC
  5
400
100
AcDbEntity
  8
1
  6
CONTINUOUS
 62
           3
100
AcDbCircle
 10
4420.163567691036
 20
1925.0
 40
9.5
100
AcDbArc
 50
0.0
 51
125.916957371432
  0
ARC
  5
3FF
100
AcDbEntity
  8
1
  6
CONTINUOUS
 62
           3
100
AcDbCircle
 10
4420.163567691036
 20
1925.0
 40
5.871834995066
100
AcDbArc
 50
0.0
 51
38.599713917941
  0
ARC
  5
3FE
100
AcDbEntity
  8
1
  6
CONTINUOUS
 62
           3
100
AcDbCircle
 10
4420.163567691036
 20
1925.0
 40
5.871834995067
100
AcDbArc
 50
38.599713917941
 51
90.0
  0
ARC
  5
3FD
100
AcDbEntity
  8
1
  6
CONTINUOUS
 62
           3
100
AcDbCircle
 10
4420.163567691036
 20
1925.0
 40
5.871834995066
100
AcDbArc
 50
-90.0
 51
0.0
  0
ARC
  5
3FC
100
AcDbEntity
  8
0
  6
CONTINUOUS
 62
           3
100
AcDbCircle
 10
3978.399996721514
 20
1368.000000000113
 40
2.499999999997
100
AcDbArc
 50
0.0
 51
180.0
  0
ARC
  5
3FB
100
AcDbEntity
  8
0
  6
CONTINUOUS
 62
           3
100
AcDbCircle
 10
3978.399996721514
 20
1631.999999999898
 40
2.499999999998
100
AcDbArc
 50
180.0
 51
0.0
  0
ARC
  5
3FA
100
AcDbEntity
  8
0
  6
CONTINUOUS
 62
           3
100
AcDbCircle
 10
3853.399996721816
 20
1631.999999999898
 40
2.499999999995
100
AcDbArc
 50
180.0
 51
0.0
  0
ARC
  5
3F9
100
AcDbEntity
  8
0
  6
CONTINUOUS
 62
           3
100
AcDbCircle
 10
3853.399996721816
 20
1368.000000000113
 40
2.499999999997
100
AcDbArc
 50
0.0
 51
180.0
  0
ARC
  5
3F8
100
AcDbEntity
  8
0
  6
CONTINUOUS
 62
           3
100
AcDbCircle
 10
3857.899996721813
 20
1508.999999999996
 40
0.999999999996
100
AcDbArc
 50
-90.0
 51
90.0
  0
ARC
  5
3F7
100
AcDbEntity
  8
0
  6
CONTINUOUS
 62
           3
100
AcDbCircle
 10
3857.899996721813
 20
1431.000000000062
 40
1.0
100
AcDbArc
 50
-90.0
 51
90.0
  0
ARC
  5
3F6
100
AcDbEntity
  8
0
  6
CONTINUOUS
 62
           3
100
AcDbCircle
 10
3857.899996721813
 20
1409.000000000178
 40
0.999999999996
100
AcDbArc
 50
-90.0
 51
90.0
  0
ARC
  5
3F5
100
AcDbEntity
  8
0
  6
CONTINUOUS
 62
           3
100
AcDbCircle
 10
3973.899996721519
 20
1409.000000000178
 40
1.0
100
AcDbArc
 50
90.0
 51
-90.0
  0
ARC
  5
3F4
100
AcDbEntity
  8
0
  6
CONTINUOUS
 62
           3
100
AcDbCircle
 10
3973.899996721519
 20
1431.000000000062
 40
0.999999999996
100
AcDbArc
 50
90.0
 51
-90.0
  0
ARC
  5
3F3
100
AcDbEntity
  8
0
  6
CONTINUOUS
 62
           3
100
AcDbCircle
 10
3973.899996721519
 20
1508.999999999996
 40
1.0
100
AcDbArc
 50
90.0
 51
-90.0
  0
ARC
  5
3F2
100
AcDbEntity
  8
0
  6
CONTINUOUS
 62
           3
100
AcDbCircle
 10
3973.899996721519
 20
1530.99999999988
 40
1.0
100
AcDbArc
 50
90.0
 51
-90.0
  0
ARC
  5
3F1
100
AcDbEntity
  8
0
  6
CONTINUOUS
 62
           3
100
AcDbCircle
 10
3857.899996721813
 20
1530.99999999988
 40
0.999999999996
100
AcDbArc
 50
-90.0
 51
90.0
  0
ARC
  5
3F0
100
AcDbEntity
  8
0
  6
CONTINUOUS
 62
           3
100
AcDbCircle
 10
3922.373499413461
 20
1389.999999999996
 40
0.900000000001
100
AcDbArc
 50
-90.0
 51
-62.733955549378
  0
ARC
  5
3EF
100
AcDbEntity
  8
0
  6
CONTINUOUS
 62
           3
100
AcDbCircle
 10
3909.42649402987
 20
1389.999999999996
 40
0.900000000001
100
AcDbArc
 50
-117.26604445057
 51
-90.0
  0
ARC
  5
3EE
100
AcDbEntity
  8
0
  6
CONTINUOUS
 62
           3
100
AcDbCircle
 10
3915.899996721665
 20
1315.000000000058
 40
53.999999999955
100
AcDbArc
 50
180.0
 51
0.0
  0
ARC
  5
3ED
100
AcDbEntity
  8
0
  6
CONTINUOUS
 62
           3
100
AcDbCircle
 10
3915.899996721665
 20
1315.000000000058
 40
45.999999999961
100
AcDbArc
 50
180.0
 51
0.0
  0
ARC
  5
3EC
100
AcDbEntity
  8
0
  6
CONTINUOUS
 62
           3
100
AcDbCircle
 10
3915.899996721665
 20
1355.000000000222
 40
3.999999999995
100
AcDbArc
 50
180.0
 51
0.0
  0
ARC
  5
3EB
100
AcDbEntity
  8
1
  6
CONTINUOUS
 62
           3
100
AcDbCircle
 10
511.509758321877
 20
1267.114622327062
 40
0.500000000003
100
AcDbArc
 50
-83.827497998192
 51
-5.006793000225
  0
ARC
  5
3EA
100
AcDbEntity
  8
1
  6
CONTINUOUS
 62
           3
100
AcDbCircle
 10
505.434752321878
 20
1267.114622327062
 40
0.499999999996
100
AcDbArc
 50
-174.993206999699
 51
-96.172501999288
  0
ARC
  5
3E9
100
AcDbEntity
  8
1
  6
CONTINUOUS
 62
           3
100
AcDbCircle
 10
511.509758321877
 20
1323.287074327053
 40
0.500000000004
100
AcDbArc
 50
5.006793001367
 51
83.827497998178
  0
ARC
  5
3E8
100
AcDbEntity
  8
1
  6
CONTINUOUS
 62
           3
100
AcDbCircle
 10
505.434752321878
 20
1323.287074327053
 40
0.5
100
AcDbArc
 50
96.172501999302
 51
174.993206998557
  0
ARC
  5
3E7
100
AcDbEntity
  8
1
  6
CONTINUOUS
 62
           3
100
AcDbCircle
 10
504.433952321884
 20
1295.200848327053
 40
9.999999999999
100
AcDbArc
 50
-5.006792999979
 51
5.006793000023
  0
ARC
  5
3E6
100
AcDbEntity
  8
1
  6
CONTINUOUS
 62
           3
100
AcDbCircle
 10
512.510557321878
 20
1295.200848327053
 40
10.0
100
AcDbArc
 50
174.993206999977
 51
-174.993207000021
  0
ARC
  5
3E5
100
AcDbEntity
  8
1
  6
CONTINUOUS
 62
           3
100
AcDbCircle
 10
508.472255321878
 20
1295.200848327053
 40
10.74999999999
100
AcDbArc
 50
118.773506999971
 51
-118.773506999947
  0
ARC
  5
3E4
100
AcDbEntity
  8
1
  6
CONTINUOUS
 62
           3
100
AcDbCircle
 10
508.472255321878
 20
1295.200848327053
 40
10.750000000001
100
AcDbArc
 50
-61.226493000021
 51
0.0
  0
ARC
  5
3E3
100
AcDbEntity
  8
1
  6
CONTINUOUS
 62
           3
100
AcDbCircle
 10
508.472255321878
 20
1295.200848327053
 40
10.75
100
AcDbArc
 50
0.0
 51
61.226492999997
  0
ARC
  5
3E2
100
AcDbEntity
  8
1
  6
CONTINUOUS
 62
           3
100
AcDbCircle
 10
508.472255321878
 20
1295.200848327053
 40
28.749999999988
100
AcDbArc
 50
-96.172501999993
 51
-83.827497999993
  0
ARC
  5
3E1
100
AcDbEntity
  8
1
  6
CONTINUOUS
 62
           3
100
AcDbCircle
 10
508.472255321878
 20
1295.200848327053
 40
28.750000000008
100
AcDbArc
 50
83.827497999998
 51
96.172501999989
  0
ARC
  5
3E0
100
AcDbEntity
  8
1
  6
CONTINUOUS
 62
           4
100
AcDbCircle
 10
3085.0
 20
1500.0
 40
50.000000000005
100
AcDbArc
 50
56.536959032818
 51
123.46304096718
  0
ARC
  5
3DF
100
AcDbEntity
  8
1
  6
CONTINUOUS
 62
           4
100
AcDbCircle
 10
3085.0
 20
1500.0
 40
49.999999999998
100
AcDbArc
 50
-123.463040967185
 51
-56.536959032813
  0
ARC
  5
3DE
100
AcDbEntity
  8
1
  6
CONTINUOUS
 62
           4
100
AcDbCircle
 10
3085.0
 20
1500.0
 40
50.0
100
AcDbArc
 50
-33.463040967183
 51
33.463040967183
  0
ARC
  5
3DD
100
AcDbEntity
  8
1
  6
CONTINUOUS
 62
           4
100
AcDbCircle
 10
3085.0
 20
1500.0
 40
49.999999999999
100
AcDbArc
 50
146.536959032816
 51
-146.536959032816
  0
ARC
  5
3DC
100
AcDbEntity
  8
1
  6
CONTINUOUS
 62
           4
100
AcDbCircle
 10
3041.5
 20
1543.5
 40
10.000000000003
100
AcDbArc
 50
45.000000000021
 51
-135.000000000024
  0
ARC
  5
3DB
100
AcDbEntity
  8
1
  6
CONTINUOUS
 62
           4
100
AcDbCircle
 10
3128.5
 20
1543.5
 40
9.999999999995
100
AcDbArc
 50
-44.999999999976
 51
134.999999999979
  0
ARC
  5
3DA
100
AcDbEntity
  8
1
  6
CONTINUOUS
 62
           4
100
AcDbCircle
 10
3128.5
 20
1456.5
 40
9.999999999995
100
AcDbArc
 50
-135.000000000024
 51
45.000000000021
  0
ARC
  5
3D9
100
AcDbEntity
  8
1
  6
CONTINUOUS
 62
           4
100
AcDbCircle
 10
3041.5
 20
1456.5
 40
10.000000000003
100
AcDbArc
 50
134.999999999979
 51
-44.999999999976
  0
LINE
  5
3D8
100
AcDbEntity
  8
1
  6
DOT_CENTER
 62
           2
100
AcDbLine
 10
-285.000000000007
 20
5874.267084004818
 11
-285.000000000007
 21
5531.460449015836
  0
LINE
  5
3D7
100
AcDbEntity
  8
1
  6
CONTINUOUS
 62
           4
100
AcDbLine
 10
39.999999999993
 20
5773.5
 11
-610.000000000007
 21
5773.5
  0
LINE
  5
3D6
100
AcDbEntity
  8
1
  6
CONTINUOUS
 62
           7
100
AcDbLine
 10
-610.000000000007
 20
5769.0
 11
39.999999999993
 21
5769.0
  0
LINE
  5
3D5
100
AcDbEntity
  8
1
  6
CONTINUOUS
 62
           4
100
AcDbLine
 10
-610.000000000007
 20
5764.5
 11
39.999999999993
 21
5764.5
  0
LINE
  5
3D4
100
AcDbEntity
  8
1
  6
CONTINUOUS
 62
           7
100
AcDbLine
 10
-610.000000000007
 20
5769.0
 11
-610.000000000007
 21
5804.0
  0
LINE
  5
3D3
100
AcDbEntity
  8
1
  6
CONTINUOUS
 62
           7
100
AcDbLine
 10
-610.000000000007
 20
5804.0
 11
-605.000000000007
 21
5809.0
  0
LINE
  5
3D2
100
AcDbEntity
  8
1
  6
CONTINUOUS
 62
           7
100
AcDbLine
 10
-605.000000000007
 20
5809.0
 11
34.999999999993
 21
5809.0
  0
LINE
  5
3D1
100
AcDbEntity
  8
1
  6
CONTINUOUS
 62
           7
100
AcDbLine
 10
39.999999999993
 20
5804.0
 11
34.999999999993
 21
5809.0
  0
LINE
  5
3D0
100
AcDbEntity
  8
1
  6
CONTINUOUS
 62
           7
100
AcDbLine
 10
39.999999999993
 20
5804.0
 11
39.999999999993
 21
5769.0
  0
LINE
  5
3CF
100
AcDbEntity
  8
1
  6
CONTINUOUS
 62
           7
100
AcDbLine
 10
34.999999999993
 20
5729.0
 11
-605.000000000007
 21
5729.0
  0
LINE
  5
3CE
100
AcDbEntity
  8
1
  6
CONTINUOUS
 62
           7
100
AcDbLine
 10
39.999999999993
 20
5769.0
 11
39.999999999993
 21
5734.0
  0
LINE
  5
3CD
100
AcDbEntity
  8
1
  6
CONTINUOUS
 62
           7
100
AcDbLine
 10
-610.000000000007
 20
5734.0
 11
-610.000000000007
 21
5769.0
  0
LINE
  5
3CC
100
AcDbEntity
  8
1
  6
CONTINUOUS
 62
           7
100
AcDbLine
 10
-605.000000000007
 20
5729.0
 11
-610.000000000007
 21
5734.0
  0
LINE
  5
3CB
100
AcDbEntity
  8
1
  6
CONTINUOUS
 62
           7
100
AcDbLine
 10
34.999999999993
 20
5729.0
 11
39.999999999993
 21
5734.0
  0
LINE
  5
3CA
100
AcDbEntity
  8
1
  6
CONTINUOUS
 62
           7
100
AcDbLine
 10
389.999999999996
 20
5420.999999999998
 11
159.999999999998
 21
5650.999999999998
  0
LINE
  5
3C9
100
AcDbEntity
  8
1
  6
CONTINUOUS
 62
           4
100
AcDbLine
 10
115.286004408812
 20
5290.25
 11
109.265668111719
 21
5290.25
  0
LINE
  5
3C8
100
AcDbEntity
  8
1
  6
CONTINUOUS
 62
           4
100
AcDbLine
 10
115.286004408812
 20
5367.75
 11
109.265668111719
 21
5367.75
  0
LINE
  5
3C7
100
AcDbEntity
  8
1
  6
CONTINUOUS
 62
           7
100
AcDbLine
 10
156.499999999996
 20
5285.25
 11
123.946258446656
 21
5285.25
  0
LINE
  5
3C6
100
AcDbEntity
  8
1
  6
CONTINUOUS
 62
           7
100
AcDbLine
 10
123.946258446656
 20
5372.75
 11
156.499999999996
 21
5372.75
  0
LINE
  5
3C5
100
AcDbEntity
  8
1
  6
CONTINUOUS
 62
           7
100
AcDbLine
 10
113.946258446656
 20
5295.25
 11
113.946258446656
 21
5362.75
  0
LINE
  5
3C4
100
AcDbEntity
  8
1
  6
CONTINUOUS
 62
           7
100
AcDbLine
 10
166.499999999996
 20
5362.75
 11
166.499999999996
 21
5295.25
  0
LINE
  5
3C3
100
AcDbEntity
  8
1
  6
CONTINUOUS
 62
           7
100
AcDbLine
 10
410.992065668628
 20
5255.869912712011
 11
-40.38731682328
 21
4802.155626997726
  0
LINE
  5
3C2
100
AcDbEntity
  8
1
  6
CONTINUOUS
 62
           7
100
AcDbLine
 10
-569.956959680421
 20
5329.000000000002
 11
-175.000000000002
 21
5729.000000000001
  0
LINE
  5
3C1
100
AcDbEntity
  8
1
  6
CONTINUOUS
 62
           7
100
AcDbLine
 10
-40.38731682328
 20
4802.155626997726
 11
-569.956959680421
 21
5329.000000000002
  0
LINE
  5
3C0
100
AcDbEntity
  8
1
  6
CONTINUOUS
 62
           7
100
AcDbLine
 10
-570.000000000004
 20
5729.0
 11
-570.000000000004
 21
5719.0
  0
LINE
  5
3BF
100
AcDbEntity
  8
1
  6
CONTINUOUS
 62
           7
100
AcDbLine
 10
-580.000000000004
 20
5706.0
 11
-570.000000000004
 21
5719.0
  0
LINE
  5
3BE
100
AcDbEntity
  8
1
  6
CONTINUOUS
 62
           7
100
AcDbLine
 10
-580.000000000004
 20
5706.0
 11
-580.000000000002
 21
5378.999999999998
  0
LINE
  5
3BD
100
AcDbEntity
  8
1
  6
CONTINUOUS
 62
           7
100
AcDbLine
 10
30.503943030828
 20
5673.165620839414
 11
-0.000000000002
 21
5729.0
  0
LINE
  5
3BC
100
AcDbEntity
  8
1
  6
CONTINUOUS
 62
           7
100
AcDbLine
 10
-186.000000000002
 20
5143.0
 11
209.999999999998
 21
5143.0
  0
LINE
  5
3BB
100
AcDbEntity
  8
1
  6
CONTINUOUS
 62
           7
100
AcDbLine
 10
185.999999999989
 20
5143.0
 11
185.999999999989
 21
5539.0
  0
LINE
  5
3BA
100
AcDbEntity
  8
1
  6
CONTINUOUS
 62
           7
100
AcDbLine
 10
185.999999999989
 20
5514.999999999993
 11
-210.000000000002
 21
5514.999999999993
  0
LINE
  5
3B9
100
AcDbEntity
  8
1
  6
CONTINUOUS
 62
           7
100
AcDbLine
 10
-186.000000000002
 20
5514.999999999993
 11
-186.000000000002
 21
5119.0
  0
LINE
  5
3B8
100
AcDbEntity
  8
1
  6
CONTINUOUS
 62
           7
100
AcDbLine
 10
410.992065668632
 20
2150.700000000002
 11
410.992065668632
 21
2165.5
  0
LINE
  5
3B7
100
AcDbEntity
  8
1
  6
CONTINUOUS
 62
           2
100
AcDbLine
 10
362.336090221745
 20
2537.0
 11
362.336090221745
 21
2177.0
  0
LINE
  5
3B6
100
AcDbEntity
  8
1
  6
CONTINUOUS
 62
           2
100
AcDbLine
 10
404.999999999998
 20
2538.0
 11
362.336090221745
 21
2538.0
  0
LINE
  5
3B5
100
AcDbEntity
  8
1
  6
CONTINUOUS
 62
           2
100
AcDbLine
 10
362.336090221745
 20
2177.0
 11
404.999999999998
 21
2177.0
  0
LINE
  5
3B4
100
AcDbEntity
  8
1
  6
CONTINUOUS
 62
           2
100
AcDbLine
 10
-528.316278697896
 20
2537.0
 11
-528.316278697896
 21
2177.0
  0
LINE
  5
3B3
100
AcDbEntity
  8
1
  6
CONTINUOUS
 62
           2
100
AcDbLine
 10
-232.333637661241
 20
2538.0
 11
-528.316278697896
 21
2538.0
  0
LINE
  5
3B2
100
AcDbEntity
  8
1
  6
CONTINUOUS
 62
           2
100
AcDbLine
 10
-232.333637661241
 20
2177.0
 11
-232.333637661241
 21
2537.0
  0
LINE
  5
3B1
100
AcDbEntity
  8
1
  6
CONTINUOUS
 62
           2
100
AcDbLine
 10
-528.316278697896
 20
2177.0
 11
-512.5
 21
2177.0
  0
LINE
  5
3B0
100
AcDbEntity
  8
1
  6
CONTINUOUS
 62
           4
100
AcDbLine
 10
-210.0
 20
2589.500000000001
 11
-210.0
 21
2588.500000000001
  0
LINE
  5
3AF
100
AcDbEntity
  8
1
  6
CONTINUOUS
 62
           4
100
AcDbLine
 10
-204.993063735607
 20
2594.500000000001
 11
-210.0
 21
2589.500000000001
  0
LINE
  5
3AE
100
AcDbEntity
  8
1
  6
CONTINUOUS
 62
           4
100
AcDbLine
 10
210.0
 20
2589.500000000001
 11
205.0
 21
2594.500000000001
  0
LINE
  5
3AD
100
AcDbEntity
  8
1
  6
CONTINUOUS
 62
           4
100
AcDbLine
 10
205.0
 20
2594.500000000001
 11
-204.993063735607
 21
2594.500000000001
  0
LINE
  5
3AC
100
AcDbEntity
  8
1
  6
CONTINUOUS
 62
           7
100
AcDbLine
 10
-570.000000000005
 20
2583.5
 11
-570.000000000005
 21
2550.5
  0
LINE
  5
3AB
100
AcDbEntity
  8
1
  6
CONTINUOUS
 62
           7
100
AcDbLine
 10
-570.000000000005
 20
2583.5
 11
-566.455357142862
 21
2588.5
  0
LINE
  5
3AA
100
AcDbEntity
  8
1
  6
CONTINUOUS
 62
           7
100
AcDbLine
 10
-570.000000000004
 20
2165.500000000001
 11
-570.000000000004
 21
2150.700000000002
  0
LINE
  5
3A9
100
AcDbEntity
  8
1
  6
CONTINUOUS
 62
           7
100
AcDbLine
 10
410.99206566863
 20
2588.5
 11
-566.455357142862
 21
2588.5
  0
LINE
  5
3A8
100
AcDbEntity
  8
1
  6
CONTINUOUS
 62
           7
100
AcDbLine
 10
410.992065668632
 20
2550.5
 11
410.99206566863
 21
2588.5
  0
LINE
  5
3A7
100
AcDbEntity
  8
1
  6
CONTINUOUS
 62
           7
100
AcDbLine
 10
415.0
 20
2550.5
 11
-579.999999999989
 21
2550.5
  0
LINE
  5
3A6
100
AcDbEntity
  8
1
  6
CONTINUOUS
 62
           4
100
AcDbLine
 10
210.0
 20
2588.500000000001
 11
210.0
 21
2589.500000000001
  0
LINE
  5
3A5
100
AcDbEntity
  8
1
  6
DOT_CENTER
 62
           2
100
AcDbLine
 10
473.997537221203
 20
2358.0
 11
-664.640400689392
 21
2358.0
  0
LINE
  5
3A4
100
AcDbEntity
  8
7
  6
CONTINUOUS
 62
           7
100
AcDbLine
 10
0.000000000002
 20
2815.300000000003
 11
-115.0
 21
2815.300000000003
  0
LINE
  5
3A3
100
AcDbEntity
  8
7
  6
CONTINUOUS
 62
           7
100
AcDbLine
 10
-88.652848
 20
2897.702830000002
 11
-109.147842999999
 21
2882.629781000002
  0
LINE
  5
3A2
100
AcDbEntity
  8
7
  6
CONTINUOUS
 62
           7
100
AcDbLine
 10
0.000000000002
 20
2902.0
 11
-84.6
 21
2902.0
  0
LINE
  5
3A1
100
AcDbEntity
  8
7
  6
CONTINUOUS
 62
           7
100
AcDbLine
 10
-115.0
 20
2815.300000000003
 11
-115.0
 21
2842.837538373371
  0
LINE
  5
3A0
100
AcDbEntity
  8
7
  6
CONTINUOUS
 62
           7
100
AcDbLine
 10
115.0
 20
2815.300000000003
 11
0.000000000002
 21
2815.300000000003
  0
LINE
  5
39F
100
AcDbEntity
  8
7
  6
CONTINUOUS
 62
           7
100
AcDbLine
 10
112.0
 20
2877.600000000001
 11
115.0
 21
2842.837538373371
  0
LINE
  5
39E
100
AcDbEntity
  8
7
  6
CONTINUOUS
 62
           4
100
AcDbLine
 10
-110.992022999999
 20
2880.800000000003
 11
108.800000000001
 21
2880.800000000003
  0
LINE
  5
39D
100
AcDbEntity
  8
7
  6
CONTINUOUS
 62
           7
100
AcDbLine
 10
86.152847000001
 20
2897.702830000002
 11
106.776034
 21
2881.161696000002
  0
LINE
  5
39C
100
AcDbEntity
  8
7
  6
CONTINUOUS
 62
           7
100
AcDbLine
 10
0.000000000002
 20
2902.0
 11
82.1
 21
2902.0
  0
LINE
  5
39B
100
AcDbEntity
  8
2
  6
CONTINUOUS
 62
           7
100
AcDbLine
 10
108.613664
 20
2623.000000000001
 11
97.568642
 21
2596.500000000001
  0
LINE
  5
39A
100
AcDbEntity
  8
2
  6
CONTINUOUS
 62
           7
100
AcDbLine
 10
108.613664
 20
2623.000000000001
 11
108.613664
 21
2803.800000000003
  0
LINE
  5
399
100
AcDbEntity
  8
2
  6
CONTINUOUS
 62
           7
100
AcDbLine
 10
108.613664
 20
2803.800000000003
 11
103.820541000001
 21
2815.300000000003
  0
LINE
  5
398
100
AcDbEntity
  8
2
  6
CONTINUOUS
 62
           4
100
AcDbLine
 10
-93.25
 20
2596.500000000001
 11
-93.25
 21
2594.500000000001
  0
LINE
  5
397
100
AcDbEntity
  8
2
  6
CONTINUOUS
 62
           7
100
AcDbLine
 10
-108.613663999999
 20
2623.000000000001
 11
-108.613663999999
 21
2803.800000000003
  0
LINE
  5
396
100
AcDbEntity
  8
2
  6
CONTINUOUS
 62
           7
100
AcDbLine
 10
-103.820540999999
 20
2815.300000000003
 11
-108.613663999999
 21
2803.800000000003
  0
LINE
  5
395
100
AcDbEntity
  8
2
  6
CONTINUOUS
 62
           4
100
AcDbLine
 10
97.568642
 20
2596.500000000001
 11
-97.568642
 21
2596.500000000001
  0
LINE
  5
394
100
AcDbEntity
  8
2
  6
CONTINUOUS
 62
           7
100
AcDbLine
 10
-97.568642
 20
2596.500000000001
 11
-108.613663999999
 21
2623.000000000001
  0
LINE
  5
393
100
AcDbEntity
  8
1
  6
CONTINUOUS
 62
           4
100
AcDbLine
 10
115.0
 20
2842.837538373371
 11
-115.0
 21
2842.837538373371
  0
LINE
  5
392
100
AcDbEntity
  8
7
  6
CONTINUOUS
 62
           7
100
AcDbLine
 10
-115.0
 20
2842.837538373371
 11
-112.0
 21
2877.411357
  0
LINE
  5
391
100
AcDbEntity
  8
7
  6
CONTINUOUS
 62
           7
100
AcDbLine
 10
115.0
 20
2842.837538373371
 11
115.0
 21
2815.300000000003
  0
LINE
  5
390
100
AcDbEntity
  8
2
  6
CONTINUOUS
 62
           4
100
AcDbLine
 10
93.250000000002
 20
2594.500000000001
 11
93.250000000002
 21
2596.500000000001
  0
LINE
  5
38F
100
AcDbEntity
  8
1
  6
CONTINUOUS
 62
           7
100
AcDbLine
 10
404.999999999998
 20
2165.5
 11
404.999999999998
 21
2549.5
  0
LINE
  5
38E
100
AcDbEntity
  8
1
  6
CONTINUOUS
 62
           7
100
AcDbLine
 10
415.0
 20
2165.5
 11
-387.5
 21
2165.5
  0
LINE
  5
38D
100
AcDbEntity
  8
1
  6
CONTINUOUS
 62
           7
100
AcDbLine
 10
166.499999999998
 20
2771.300000000002
 11
166.499999999998
 21
2711.300000000003
  0
LINE
  5
38C
100
AcDbEntity
  8
1
  6
CONTINUOUS
 62
           7
100
AcDbLine
 10
108.613664
 20
2711.300000000003
 11
108.613664
 21
2771.300000000002
  0
LINE
  5
38B
100
AcDbEntity
  8
1
  6
CONTINUOUS
 62
           7
100
AcDbLine
 10
118.613664
 20
2781.300000000002
 11
156.499999999998
 21
2781.300000000002
  0
LINE
  5
38A
100
AcDbEntity
  8
1
  6
CONTINUOUS
 62
           7
100
AcDbLine
 10
156.499999999998
 20
2701.300000000003
 11
118.613664
 21
2701.300000000003
  0
LINE
  5
389
100
AcDbEntity
  8
1
  6
CONTINUOUS
 62
           7
100
AcDbLine
 10
-40.387316823279
 20
2588.5
 11
-40.387316823279
 21
2550.199999999997
  0
LINE
  5
388
100
AcDbEntity
  8
1
  6
CONTINUOUS
 62
           7
100
AcDbLine
 10
-570.000000000005
 20
2550.300000000001
 11
-570.000000000005
 21
2164.700000000002
  0
LINE
  5
387
100
AcDbEntity
  8
1
  6
CONTINUOUS
 62
           7
100
AcDbLine
 10
-611.000000000005
 20
2590.500000000001
 11
-611.000000000005
 21
2151.499999999997
  0
LINE
  5
386
100
AcDbEntity
  8
1
  6
CONTINUOUS
 62
           7
100
AcDbLine
 10
-611.000000000005
 20
2590.500000000001
 11
-577.413444419395
 21
2590.500000000001
  0
LINE
  5
385
100
AcDbEntity
  8
1
  6
CONTINUOUS
 62
           4
100
AcDbLine
 10
-587.618730888042
 20
2550.500000000001
 11
-611.000000000005
 21
2550.500000000001
  0
LINE
  5
384
100
AcDbEntity
  8
1
  6
CONTINUOUS
 62
           4
100
AcDbLine
 10
-587.618730888042
 20
2555.000000000001
 11
-611.000000000005
 21
2555.000000000001
  0
LINE
  5
383
100
AcDbEntity
  8
1
  6
CONTINUOUS
 62
           4
100
AcDbLine
 10
-587.618730888042
 20
2161.0
 11
-611.000000000005
 21
2161.0
  0
LINE
  5
382
100
AcDbEntity
  8
1
  6
CONTINUOUS
 62
           4
100
AcDbLine
 10
-587.618730888042
 20
2165.5
 11
-611.000000000005
 21
2165.5
  0
LINE
  5
381
100
AcDbEntity
  8
1
  6
CONTINUOUS
 62
           7
100
AcDbLine
 10
-40.387316823279
 20
2165.5
 11
-40.387316823279
 21
2150.0
  0
LINE
  5
380
100
AcDbEntity
  8
1
  6
CONTINUOUS
 62
           2
100
AcDbLine
 10
-387.5
 20
2177.0
 11
-232.333637661241
 21
2177.0
  0
LINE
  5
37F
100
AcDbEntity
  8
1
  6
CONTINUOUS
 62
           7
100
AcDbLine
 10
-512.5
 20
2165.5
 11
-579.999999999987
 21
2165.5
  0
LINE
  5
37E
100
AcDbEntity
  8
1
  6
CONTINUOUS
 62
           7
100
AcDbLine
 10
4947.999999999996
 20
2550.5
 11
4947.999999999996
 21
2165.5
  0
LINE
  5
37D
100
AcDbEntity
  8
1
  6
CONTINUOUS
 62
           2
100
AcDbLine
 10
4786.090589533993
 20
2537.0
 11
4381.153949290641
 21
2537.0
  0
LINE
  5
37C
100
AcDbEntity
  8
1
  6
CONTINUOUS
 62
           2
100
AcDbLine
 10
4786.090589533993
 20
2177.0
 11
4786.090589533993
 21
2537.0
  0
LINE
  5
37B
100
AcDbEntity
  8
1
  6
CONTINUOUS
 62
           2
100
AcDbLine
 10
4381.153949290641
 20
2177.0
 11
4786.090589533993
 21
2177.0
  0
LINE
  5
37A
100
AcDbEntity
  8
1
  6
CONTINUOUS
 62
           2
100
AcDbLine
 10
4381.153949290641
 20
2537.0
 11
4381.153949290641
 21
2177.0
  0
LINE
  5
379
100
AcDbEntity
  8
1
  6
CONTINUOUS
 62
           4
100
AcDbLine
 10
4819.999999999996
 20
2587.199999999997
 11
4819.999999999996
 21
2589.500000000002
  0
LINE
  5
378
100
AcDbEntity
  8
1
  6
CONTINUOUS
 62
           4
100
AcDbLine
 10
4819.999999999996
 20
2589.500000000002
 11
4814.993063735601
 21
2594.500000000002
  0
LINE
  5
377
100
AcDbEntity
  8
1
  6
CONTINUOUS
 62
           4
100
AcDbLine
 10
4404.999999999996
 20
2594.500000000002
 11
4399.999999999996
 21
2589.500000000002
  0
LINE
  5
376
100
AcDbEntity
  8
1
  6
CONTINUOUS
 62
           4
100
AcDbLine
 10
4814.993063735601
 20
2594.500000000002
 11
4404.999999999996
 21
2594.500000000002
  0
LINE
  5
375
100
AcDbEntity
  8
1
  6
CONTINUOUS
 62
           7
100
AcDbLine
 10
5009.999999999996
 20
2132.500000000002
 11
5006.455357142851
 21
2127.500000000002
  0
LINE
  5
374
100
AcDbEntity
  8
1
  6
CONTINUOUS
 62
           7
100
AcDbLine
 10
5006.455357142851
 20
2587.199999999997
 11
5009.999999999996
 21
2582.199999999997
  0
LINE
  5
373
100
AcDbEntity
  8
1
  6
CONTINUOUS
 62
           7
100
AcDbLine
 10
5009.999999999996
 20
2132.500000000002
 11
5009.999999999996
 21
2165.5
  0
LINE
  5
372
100
AcDbEntity
  8
1
  6
CONTINUOUS
 62
           7
100
AcDbLine
 10
4083.155626997723
 20
2165.5
 11
4083.155626997723
 21
2127.500000000002
  0
LINE
  5
371
100
AcDbEntity
  8
1
  6
CONTINUOUS
 62
           7
100
AcDbLine
 10
5006.455357142851
 20
2587.199999999997
 11
4701.999999999993
 21
2587.199999999997
  0
LINE
  5
370
100
AcDbEntity
  8
1
  6
CONTINUOUS
 62
           7
100
AcDbLine
 10
4083.155626997723
 20
2587.199999999997
 11
4083.155626997723
 21
2550.5
  0
LINE
  5
36F
100
AcDbEntity
  8
1
  6
CONTINUOUS
 62
           7
100
AcDbLine
 10
5009.999999999989
 20
2550.5
 11
4083.155626997723
 21
2550.5
  0
LINE
  5
36E
100
AcDbEntity
  8
1
  6
CONTINUOUS
 62
           4
100
AcDbLine
 10
4399.999999999996
 20
2589.500000000002
 11
4399.999999999996
 21
2587.199999999997
  0
LINE
  5
36D
100
AcDbEntity
  8
1
  6
DOT_CENTER
 62
           2
100
AcDbLine
 10
5145.456827495054
 20
2358.0
 11
4052.780498763483
 21
2358.0
  0
LINE
  5
36C
100
AcDbEntity
  8
7
  6
CONTINUOUS
 62
           7
100
AcDbLine
 10
4724.999999999996
 20
2815.000000000002
 11
4609.999999999996
 21
2815.000000000002
  0
LINE
  5
36B
100
AcDbEntity
  8
7
  6
CONTINUOUS
 62
           7
100
AcDbLine
 10
4719.147842999995
 20
2882.329781
 11
4698.652847999994
 21
2897.402830000001
  0
LINE
  5
36A
100
AcDbEntity
  8
7
  6
CONTINUOUS
 62
           7
100
AcDbLine
 10
4694.599999999995
 20
2902.0
 11
4609.999999999996
 21
2902.0
  0
LINE
  5
369
100
AcDbEntity
  8
7
  6
CONTINUOUS
 62
           7
100
AcDbLine
 10
4724.999999999996
 20
2842.53753837337
 11
4724.999999999996
 21
2815.000000000002
  0
LINE
  5
368
100
AcDbEntity
  8
7
  6
CONTINUOUS
 62
           7
100
AcDbLine
 10
4609.999999999996
 20
2815.000000000002
 11
4494.999999999996
 21
2815.000000000002
  0
LINE
  5
367
100
AcDbEntity
  8
7
  6
CONTINUOUS
 62
           7
100
AcDbLine
 10
4494.999999999996
 20
2842.53753837337
 11
4497.999999999996
 21
2877.299999999999
  0
LINE
  5
366
100
AcDbEntity
  8
7
  6
CONTINUOUS
 62
           7
100
AcDbLine
 10
4503.223965999994
 20
2880.861696
 11
4523.847152999995
 21
2897.402830000001
  0
LINE
  5
365
100
AcDbEntity
  8
7
  6
CONTINUOUS
 62
           7
100
AcDbLine
 10
4527.899999999994
 20
2902.0
 11
4609.999999999996
 21
2902.0
  0
LINE
  5
364
100
AcDbEntity
  8
2
  6
CONTINUOUS
 62
           7
100
AcDbLine
 10
4512.431357999994
 20
2596.500000000002
 11
4501.386335999996
 21
2621.699999999999
  0
LINE
  5
363
100
AcDbEntity
  8
2
  6
CONTINUOUS
 62
           7
100
AcDbLine
 10
4501.386335999996
 20
2803.500000000002
 11
4501.386335999996
 21
2621.699999999999
  0
LINE
  5
362
100
AcDbEntity
  8
2
  6
CONTINUOUS
 62
           7
100
AcDbLine
 10
4506.179458999994
 20
2815.000000000002
 11
4501.386335999996
 21
2803.500000000002
  0
LINE
  5
361
100
AcDbEntity
  8
2
  6
CONTINUOUS
 62
           4
100
AcDbLine
 10
4703.249999999996
 20
2594.500000000002
 11
4703.249999999996
 21
2596.500000000002
  0
LINE
  5
360
100
AcDbEntity
  8
2
  6
CONTINUOUS
 62
           7
100
AcDbLine
 10
4718.613663999997
 20
2803.500000000002
 11
4718.613663999997
 21
2621.699999999999
  0
LINE
  5
35F
100
AcDbEntity
  8
2
  6
CONTINUOUS
 62
           7
100
AcDbLine
 10
4718.613663999997
 20
2803.500000000002
 11
4713.820540999994
 21
2815.000000000002
  0
LINE
  5
35E
100
AcDbEntity
  8
2
  6
CONTINUOUS
 62
           4
100
AcDbLine
 10
4707.568641999995
 20
2596.500000000002
 11
4512.431357999994
 21
2596.500000000002
  0
LINE
  5
35D
100
AcDbEntity
  8
2
  6
CONTINUOUS
 62
           7
100
AcDbLine
 10
4718.613663999997
 20
2621.699999999999
 11
4707.568641999995
 21
2596.500000000002
  0
LINE
  5
35C
100
AcDbEntity
  8
7
  6
CONTINUOUS
 62
           7
100
AcDbLine
 10
4721.999999999996
 20
2877.111357
 11
4724.999999999996
 21
2842.53753837337
  0
LINE
  5
35B
100
AcDbEntity
  8
7
  6
CONTINUOUS
 62
           7
100
AcDbLine
 10
4494.999999999996
 20
2815.000000000002
 11
4494.999999999996
 21
2842.53753837337
  0
LINE
  5
35A
100
AcDbEntity
  8
2
  6
CONTINUOUS
 62
           4
100
AcDbLine
 10
4516.749999999996
 20
2596.500000000002
 11
4516.749999999996
 21
2594.500000000002
  0
LINE
  5
359
100
AcDbEntity
  8
1
  6
CONTINUOUS
 62
           7
100
AcDbLine
 10
4351.799999999996
 20
2127.500000000002
 11
4351.799999999996
 21
2081.0
  0
LINE
  5
358
100
AcDbEntity
  8
1
  6
CONTINUOUS
 62
           7
100
AcDbLine
 10
4083.155626997723
 20
2127.500000000002
 11
4536.869912712005
 21
2127.500000000004
  0
LINE
  5
357
100
AcDbEntity
  8
1
  6
CONTINUOUS
 62
           7
100
AcDbLine
 10
4129.999999999987
 20
2550.5
 11
4129.999999999987
 21
2165.5
  0
LINE
  5
356
100
AcDbEntity
  8
1
  6
CONTINUOUS
 62
           7
100
AcDbLine
 10
4868.199999999995
 20
2081.0
 11
4868.199999999995
 21
2127.500000000002
  0
LINE
  5
355
100
AcDbEntity
  8
1
  6
CONTINUOUS
 62
           7
100
AcDbLine
 10
5009.999999999996
 20
2165.5
 11
5009.999999999996
 21
2582.199999999997
  0
LINE
  5
354
100
AcDbEntity
  8
1
  6
CONTINUOUS
 62
           7
100
AcDbLine
 10
5089.999999999996
 20
2555.000000000001
 11
5089.999999999996
 21
2161.000000000002
  0
LINE
  5
353
100
AcDbEntity
  8
1
  6
CONTINUOUS
 62
           4
100
AcDbLine
 10
5089.999999999996
 20
2555.000000000001
 11
5055.499999999996
 21
2555.000000000001
  0
LINE
  5
352
100
AcDbEntity
  8
1
  6
CONTINUOUS
 62
           4
100
AcDbLine
 10
5054.499999999996
 20
2590.500000000001
 11
5054.499999999996
 21
2556.000000000001
  0
LINE
  5
351
100
AcDbEntity
  8
1
  6
CONTINUOUS
 62
           4
100
AcDbLine
 10
5054.499999999996
 20
2590.500000000001
 11
5045.499999999996
 21
2590.500000000001
  0
LINE
  5
350
100
AcDbEntity
  8
1
  6
CONTINUOUS
 62
           4
100
AcDbLine
 10
5045.499999999996
 20
2556.000000000001
 11
5045.499999999996
 21
2590.500000000001
  0
LINE
  5
34F
100
AcDbEntity
  8
1
  6
CONTINUOUS
 62
           4
100
AcDbLine
 10
5044.499999999996
 20
2555.000000000001
 11
5009.999999999989
 21
2555.000000000001
  0
LINE
  5
34E
100
AcDbEntity
  8
1
  6
CONTINUOUS
 62
           4
100
AcDbLine
 10
5055.499999999996
 20
2161.000000000002
 11
5089.999999999996
 21
2161.000000000002
  0
LINE
  5
34D
100
AcDbEntity
  8
1
  6
CONTINUOUS
 62
           4
100
AcDbLine
 10
5054.499999999996
 20
2160.000000000002
 11
5054.499999999996
 21
2125.500000000002
  0
LINE
  5
34C
100
AcDbEntity
  8
1
  6
CONTINUOUS
 62
           4
100
AcDbLine
 10
5009.999999999989
 20
2161.000000000002
 11
5044.499999999996
 21
2161.000000000002
  0
LINE
  5
34B
100
AcDbEntity
  8
1
  6
CONTINUOUS
 62
           4
100
AcDbLine
 10
5045.499999999996
 20
2125.500000000002
 11
5045.499999999996
 21
2160.000000000002
  0
LINE
  5
34A
100
AcDbEntity
  8
1
  6
CONTINUOUS
 62
           4
100
AcDbLine
 10
5045.499999999996
 20
2550.500000000004
 11
5045.499999999996
 21
2165.500000000001
  0
LINE
  5
349
100
AcDbEntity
  8
1
  6
CONTINUOUS
 62
           4
100
AcDbLine
 10
5054.499999999996
 20
2165.5
 11
5054.499999999996
 21
2550.500000000004
  0
LINE
  5
348
100
AcDbEntity
  8
1
  6
CONTINUOUS
 62
           4
100
AcDbLine
 10
5045.499999999996
 20
2125.500000000002
 11
5054.499999999996
 21
2125.500000000002
  0
LINE
  5
347
100
AcDbEntity
  8
1
  6
CONTINUOUS
 62
           4
100
AcDbLine
 10
4312.499999999996
 20
2081.0
 11
4312.499999999996
 21
2075.0
  0
LINE
  5
346
100
AcDbEntity
  8
1
  6
CONTINUOUS
 62
           4
100
AcDbLine
 10
4907.499999999996
 20
2081.0
 11
4907.499999999996
 21
2075.0
  0
LINE
  5
345
100
AcDbEntity
  8
1
  6
CONTINUOUS
 62
           4
100
AcDbLine
 10
4907.499999999996
 20
2081.0
 11
4312.499999999996
 21
2081.0
  0
LINE
  5
344
100
AcDbEntity
  8
1
  6
CONTINUOUS
 62
           7
100
AcDbLine
 10
4609.999999999996
 20
2075.0
 11
4312.499999999996
 21
2075.0
  0
LINE
  5
343
100
AcDbEntity
  8
1
  6
CONTINUOUS
 62
           7
100
AcDbLine
 10
4907.499999999996
 20
2075.0
 11
4609.999999999996
 21
2075.0
  0
LINE
  5
342
100
AcDbEntity
  8
1
  6
CONTINUOUS
 62
           7
100
AcDbLine
 10
5009.999999999996
 20
2165.5
 11
4083.155626997723
 21
2165.5
  0
LINE
  5
341
100
AcDbEntity
  8
1
  6
CONTINUOUS
 62
           4
100
AcDbLine
 10
4724.999999999996
 20
2842.53753837337
 11
4494.999999999996
 21
2842.53753837337
  0
LINE
  5
340
100
AcDbEntity
  8
7
  6
CONTINUOUS
 62
           4
100
AcDbLine
 10
4501.199999999994
 20
2880.500000000002
 11
4720.992022999995
 21
2880.500000000002
  0
LINE
  5
33F
100
AcDbEntity
  8
1
  6
CONTINUOUS
 62
           7
100
AcDbLine
 10
5049.999999999996
 20
2590.500000000001
 11
5049.999999999996
 21
2125.500000000002
  0
LINE
  5
33E
100
AcDbEntity
  8
1
  6
CONTINUOUS
 62
           7
100
AcDbLine
 10
5009.999999999989
 20
2550.5
 11
5089.999999999996
 21
2550.500000000001
  0
LINE
  5
33D
100
AcDbEntity
  8
1
  6
CONTINUOUS
 62
           7
100
AcDbLine
 10
5089.999999999996
 20
2165.500000000002
 11
5009.999999999989
 21
2165.500000000002
  0
LINE
  5
33C
100
AcDbEntity
  8
1
  6
CONTINUOUS
 62
           7
100
AcDbLine
 10
4643.749999999996
 20
2700.0
 11
4576.249999999996
 21
2700.0
  0
LINE
  5
33B
100
AcDbEntity
  8
1
  6
CONTINUOUS
 62
           7
100
AcDbLine
 10
4576.249999999996
 20
2780.0
 11
4643.749999999996
 21
2780.0
  0
LINE
  5
33A
100
AcDbEntity
  8
1
  6
CONTINUOUS
 62
           7
100
AcDbLine
 10
4653.749999999996
 20
2770.0
 11
4653.749999999996
 21
2710.0
  0
LINE
  5
339
100
AcDbEntity
  8
1
  6
CONTINUOUS
 62
           7
100
AcDbLine
 10
4566.249999999996
 20
2710.0
 11
4566.249999999996
 21
2770.0
  0
LINE
  5
338
100
AcDbEntity
  8
1
  6
CONTINUOUS
 62
           7
100
AcDbLine
 10
4701.999999999993
 20
2587.199999999997
 11
4701.999999999993
 21
2550.5
  0
LINE
  5
337
100
AcDbEntity
  8
1
  6
CONTINUOUS
 62
           7
100
AcDbLine
 10
4536.869912712005
 20
2587.199999999997
 11
4536.869912712005
 21
2550.5
  0
LINE
  5
336
100
AcDbEntity
  8
1
  6
CONTINUOUS
 62
           7
100
AcDbLine
 10
4536.869912712005
 20
2587.199999999997
 11
4083.155626997723
 21
2587.199999999997
  0
LINE
  5
335
100
AcDbEntity
  8
1
  6
CONTINUOUS
 62
           7
100
AcDbLine
 10
4536.869912712005
 20
2165.500000000004
 11
4536.869912712005
 21
2127.500000000004
  0
LINE
  5
334
100
AcDbEntity
  8
1
  6
CONTINUOUS
 62
           7
100
AcDbLine
 10
4701.999999999993
 20
2165.500000000004
 11
4701.999999999993
 21
2127.500000000004
  0
LINE
  5
333
100
AcDbEntity
  8
1
  6
CONTINUOUS
 62
           7
100
AcDbLine
 10
4701.999999999993
 20
2127.500000000004
 11
5006.455357142851
 21
2127.500000000002
  0
LINE
  5
332
100
AcDbEntity
  8
1
  6
CONTINUOUS
 62
           7
100
AcDbLine
 10
4934.999999999996
 20
2127.500000000002
 11
4934.999999999996
 21
2165.5
  0
LINE
  5
331
100
AcDbEntity
  8
1
  6
CONTINUOUS
 62
           7
100
AcDbLine
 10
4934.999999999996
 20
2550.5
 11
4934.999999999996
 21
2587.199999999997
  0
LINE
  5
330
100
AcDbEntity
  8
1
  6
CONTINUOUS
 62
           3
100
AcDbLine
 10
4420.163567691036
 20
1935.969655114603
 11
4414.489527668225
 21
1932.69374658004
  0
LINE
  5
32F
100
AcDbEntity
  8
1
  6
CONTINUOUS
 62
           3
100
AcDbLine
 10
4429.663567691036
 20
1930.484827557302
 11
4420.163567691036
 21
1935.969655114603
  0
LINE
  5
32E
100
AcDbEntity
  8
1
  6
CONTINUOUS
 62
           3
100
AcDbLine
 10
4429.663567691036
 20
1919.515172442699
 11
4429.663567691036
 21
1930.484827557302
  0
LINE
  5
32D
100
AcDbEntity
  8
1
  6
CONTINUOUS
 62
           3
100
AcDbLine
 10
4420.163567691036
 20
1914.030344885398
 11
4429.663567691036
 21
1919.515172442699
  0
LINE
  5
32C
100
AcDbEntity
  8
1
  6
CONTINUOUS
 62
           3
100
AcDbLine
 10
4414.489527668225
 20
1917.30625341996
 11
4420.163567691036
 21
1914.030344885398
  0
LINE
  5
32B
100
AcDbEntity
  8
1
  6
DOT_CENTER
 62
           3
100
AcDbLine
 10
4396.218519558617
 20
1925.0
 11
4437.667695262444
 21
1925.0
  0
LINE
  5
32A
100
AcDbEntity
  8
1
  6
CONTINUOUS
 62
           3
100
AcDbLine
 10
4409.389214871936
 20
1916.75
 11
4409.389214871936
 21
1917.30625341996
  0
LINE
  5
329
100
AcDbEntity
  8
1
  6
CONTINUOUS
 62
           3
100
AcDbLine
 10
4409.389214871936
 20
1916.75
 11
4399.714603906639
 21
1916.75
  0
LINE
  5
328
100
AcDbEntity
  8
1
  6
CONTINUOUS
 62
           3
100
AcDbLine
 10
4399.714603906639
 20
1916.75
 11
4399.714603906639
 21
1925.0
  0
LINE
  5
327
100
AcDbEntity
  8
1
  6
CONTINUOUS
 62
           3
100
AcDbLine
 10
4399.714603906639
 20
1919.0
 11
4398.868798384459
 21
1919.0
  0
LINE
  5
326
100
AcDbEntity
  8
1
  6
CONTINUOUS
 62
           3
100
AcDbLine
 10
4398.868798384459
 20
1917.30625341996
 11
4398.868798384459
 21
1925.0
  0
LINE
  5
325
100
AcDbEntity
  8
1
  6
CONTINUOUS
 62
           3
100
AcDbLine
 10
4398.868798384459
 20
1917.30625341996
 11
4398.163567691036
 21
1917.30625341996
  0
LINE
  5
324
100
AcDbEntity
  8
1
  6
CONTINUOUS
 62
           3
100
AcDbLine
 10
4397.663567691036
 20
1925.0
 11
4397.663567691036
 21
1917.80625341996
  0
LINE
  5
323
100
AcDbEntity
  8
1
  6
CONTINUOUS
 62
           3
100
AcDbLine
 10
4397.663567691036
 20
1932.19374658004
 11
4397.663567691036
 21
1925.0
  0
LINE
  5
322
100
AcDbEntity
  8
1
  6
CONTINUOUS
 62
           3
100
AcDbLine
 10
4398.163567691036
 20
1932.69374658004
 11
4398.868798384459
 21
1932.69374658004
  0
LINE
  5
321
100
AcDbEntity
  8
1
  6
CONTINUOUS
 62
           3
100
AcDbLine
 10
4398.868798384459
 20
1925.0
 11
4398.868798384459
 21
1932.69374658004
  0
LINE
  5
320
100
AcDbEntity
  8
1
  6
CONTINUOUS
 62
           3
100
AcDbLine
 10
4398.868798384459
 20
1931.0
 11
4399.714603906639
 21
1931.0
  0
LINE
  5
31F
100
AcDbEntity
  8
1
  6
CONTINUOUS
 62
           3
100
AcDbLine
 10
4399.714603906639
 20
1933.25
 11
4409.389214871936
 21
1933.25
  0
LINE
  5
31E
100
AcDbEntity
  8
1
  6
CONTINUOUS
 62
           3
100
AcDbLine
 10
4399.714603906639
 20
1925.0
 11
4399.714603906639
 21
1933.25
  0
LINE
  5
31D
100
AcDbEntity
  8
1
  6
CONTINUOUS
 62
           3
100
AcDbLine
 10
4409.389214871936
 20
1932.69374658004
 11
4409.389214871936
 21
1933.25
  0
LINE
  5
31C
100
AcDbEntity
  8
1
  6
CONTINUOUS
 62
           3
100
AcDbLine
 10
4409.389214871936
 20
1917.30625341996
 11
4409.389214871936
 21
1932.69374658004
  0
LINE
  5
31B
100
AcDbEntity
  8
1
  6
CONTINUOUS
 62
           3
100
AcDbLine
 10
4415.254330418626
 20
1917.30625341996
 11
4415.254330418626
 21
1932.69374658004
  0
LINE
  5
31A
100
AcDbEntity
  8
1
  6
CONTINUOUS
 62
           3
100
AcDbLine
 10
4415.254330418626
 20
1917.30625341996
 11
4409.389214871936
 21
1917.30625341996
  0
LINE
  5
319
100
AcDbEntity
  8
1
  6
CONTINUOUS
 62
           3
100
AcDbLine
 10
4415.254330418626
 20
1932.69374658004
 11
4409.389214871936
 21
1932.69374658004
  0
LINE
  5
318
100
AcDbEntity
  8
1
  6
CONTINUOUS
 62
           3
100
AcDbLine
 10
4415.254330418626
 20
1930.871834995069
 11
4420.163567691036
 21
1930.871834995069
  0
LINE
  5
317
100
AcDbEntity
  8
1
  6
DOT_CENTER
 62
           3
100
AcDbLine
 10
4420.163567691036
 20
1938.643555804874
 11
4420.163567691036
 21
1907.508008255125
  0
LINE
  5
316
100
AcDbEntity
  8
1
  6
CONTINUOUS
 62
           3
100
AcDbLine
 10
4420.163567691036
 20
1919.128165004934
 11
4415.254330418626
 21
1919.128165004934
  0
LINE
  5
315
100
AcDbEntity
  8
0
  6
CONTINUOUS
 62
           3
100
AcDbLine
 10
3914.844723494166
 20
1393.116392195192
 11
3915.899996721665
 21
1393.131740391393
  0
LINE
  5
314
100
AcDbEntity
  8
0
  6
CONTINUOUS
 62
           3
100
AcDbLine
 10
3913.903805503267
 20
1393.072016537193
 11
3914.844723494166
 21
1393.116392195192
  0
LINE
  5
313
100
AcDbEntity
  8
0
  6
CONTINUOUS
 62
           3
100
AcDbLine
 10
3913.17920557357
 20
1393.003411590991
 11
3913.903805503267
 21
1393.072016537193
  0
LINE
  5
312
100
AcDbEntity
  8
0
  6
CONTINUOUS
 62
           3
100
AcDbLine
 10
3912.749445840368
 20
1392.918020486792
 11
3913.17920557357
 21
1393.003411590991
  0
LINE
  5
311
100
AcDbEntity
  8
0
  6
CONTINUOUS
 62
           3
100
AcDbLine
 10
3912.661097088369
 20
1392.825089394992
 11
3912.749445840368
 21
1392.918020486792
  0
LINE
  5
310
100
AcDbEntity
  8
0
  6
CONTINUOUS
 62
           3
100
AcDbLine
 10
3912.899996695568
 20
1392.739541828793
 11
3912.661097088369
 21
1392.825089394992
  0
LINE
  5
30F
100
AcDbEntity
  8
0
  6
CONTINUOUS
 62
           3
100
AcDbLine
 10
3919.138896354963
 20
1392.825089394992
 11
3918.899996747763
 21
1392.739541828793
  0
LINE
  5
30E
100
AcDbEntity
  8
0
  6
CONTINUOUS
 62
           3
100
AcDbLine
 10
3919.050547602962
 20
1392.918020486792
 11
3919.138896354963
 21
1392.825089394992
  0
LINE
  5
30D
100
AcDbEntity
  8
0
  6
CONTINUOUS
 62
           3
100
AcDbLine
 10
3918.620787869764
 20
1393.003411590991
 11
3919.050547602962
 21
1392.918020486792
  0
LINE
  5
30C
100
AcDbEntity
  8
0
  6
CONTINUOUS
 62
           3
100
AcDbLine
 10
3917.896187940064
 20
1393.072016537193
 11
3918.620787869764
 21
1393.003411590991
  0
LINE
  5
30B
100
AcDbEntity
  8
0
  6
CONTINUOUS
 62
           3
100
AcDbLine
 10
3916.955269949165
 20
1393.116392195192
 11
3917.896187940064
 21
1393.072016537193
  0
LINE
  5
30A
100
AcDbEntity
  8
0
  6
CONTINUOUS
 62
           3
100
AcDbLine
 10
3915.899996721665
 20
1393.131740391393
 11
3916.955269949165
 21
1393.116392195192
  0
LINE
  5
309
100
AcDbEntity
  8
FORMAT
  6
CONTINUOUS
 62
           3
100
AcDbLine
 10
3912.39999672157
 20
1392.596845102893
 11
3901.899996721576
 21
1392.596845102893
  0
LINE
  5
308
100
AcDbEntity
  8
FORMAT
  6
DOT_CENTER
 62
           3
100
AcDbLine
 10
3915.899996721665
 20
1249.759397252256
 11
3915.899996721665
 21
1725.394390768569
  0
LINE
  5
307
100
AcDbEntity
  8
FORMAT
  6
CONTINUOUS
 62
           3
100
AcDbLine
 10
3919.399996721762
 20
1392.596845102893
 11
3912.39999672157
 21
1392.596845102893
  0
LINE
  5
306
100
AcDbEntity
  8
FORMAT
  6
CONTINUOUS
 62
           3
100
AcDbLine
 10
3929.899996721755
 20
1392.596845102893
 11
3919.399996721762
 21
1392.596845102893
  0
LINE
  5
305
100
AcDbEntity
  8
FORMAT
  6
DOT_CENTER
 62
           3
100
AcDbLine
 10
3840.999996721628
 20
1375.000000000007
 11
3827.399996721739
 21
1375.000000000007
  0
LINE
  5
304
100
AcDbEntity
  8
FORMAT
  6
DOT_CENTER
 62
           3
100
AcDbLine
 10
3840.999996721628
 20
1625.0
 11
3827.399996721739
 21
1625.0
  0
LINE
  5
303
100
AcDbEntity
  8
0
  6
CONTINUOUS
 62
           3
100
AcDbLine
 10
3850.899999106019
 20
1364.999994635815
 11
3835.49999918923
 21
1364.999994635815
  0
LINE
  5
302
100
AcDbEntity
  8
0
  6
CONTINUOUS
 62
           3
100
AcDbLine
 10
3854.399995023116
 20
1590.000003576231
 11
3854.399995023116
 21
1509.999999776395
  0
LINE
  5
301
100
AcDbEntity
  8
0
  6
CONTINUOUS
 62
           3
100
AcDbLine
 10
3857.399997377514
 20
1590.000003576231
 11
3854.399995023116
 21
1590.000003576231
  0
LINE
  5
300
100
AcDbEntity
  8
0
  6
CONTINUOUS
 62
           3
100
AcDbLine
 10
3857.399997377514
 20
1550.000000744964
 11
3857.399997377514
 21
1590.000003576231
  0
LINE
  5
2FF
100
AcDbEntity
  8
0
  6
CONTINUOUS
 62
           3
100
AcDbLine
 10
3857.399997377514
 20
1529.999999329481
 11
3857.399997377514
 21
1532.000001519879
  0
LINE
  5
2FE
100
AcDbEntity
  8
0
  6
CONTINUOUS
 62
           3
100
AcDbLine
 10
3854.399995023116
 20
1509.999999776395
 11
3855.975189322317
 21
1509.999999776395
  0
LINE
  5
2FD
100
AcDbEntity
  8
0
  6
CONTINUOUS
 62
           3
100
AcDbLine
 10
3975.899995380617
 20
1368.000000715314
 11
3975.899995380617
 21
1367.300003767014
  0
LINE
  5
2FC
100
AcDbEntity
  8
0
  6
CONTINUOUS
 62
           3
100
AcDbLine
 10
3980.899994337312
 20
1364.999994635815
 11
3980.899994337312
 21
1368.000000715314
  0
LINE
  5
2FB
100
AcDbEntity
  8
0
  6
CONTINUOUS
 62
           3
100
AcDbLine
 10
3980.899994337312
 20
1635.000005364196
 11
3980.899994337312
 21
1631.999999284697
  0
LINE
  5
2FA
100
AcDbEntity
  8
0
  6
CONTINUOUS
 62
           3
100
AcDbLine
 10
3975.899995380617
 20
1631.999999284697
 11
3975.899995380617
 21
1632.699996232994
  0
LINE
  5
2F9
100
AcDbEntity
  8
0
  6
CONTINUOUS
 62
           3
100
AcDbLine
 10
3855.899998062714
 20
1631.999999284697
 11
3855.899998062714
 21
1632.699996232994
  0
LINE
  5
2F8
100
AcDbEntity
  8
0
  6
CONTINUOUS
 62
           3
100
AcDbLine
 10
3850.899999106019
 20
1635.000005364196
 11
3850.899999106019
 21
1631.999999284697
  0
LINE
  5
2F7
100
AcDbEntity
  8
0
  6
CONTINUOUS
 62
           3
100
AcDbLine
 10
3850.899999106019
 20
1635.000005364196
 11
3835.49999918923
 21
1635.000005364196
  0
LINE
  5
2F6
100
AcDbEntity
  8
0
  6
CONTINUOUS
 62
           3
100
AcDbLine
 10
3850.899999106019
 20
1364.999994635815
 11
3850.899999106019
 21
1368.000000715314
  0
LINE
  5
2F5
100
AcDbEntity
  8
0
  6
CONTINUOUS
 62
           3
100
AcDbLine
 10
3855.899998062714
 20
1368.000000715314
 11
3855.899998062714
 21
1367.300003767014
  0
LINE
  5
2F4
100
AcDbEntity
  8
0
  6
CONTINUOUS
 62
           3
100
AcDbLine
 10
3854.399995023116
 20
1409.99999642378
 11
3854.399995023116
 21
1490.000000223612
  0
LINE
  5
2F3
100
AcDbEntity
  8
0
  6
CONTINUOUS
 62
           3
100
AcDbLine
 10
3854.399995023116
 20
1490.000000223612
 11
3855.899998062714
 21
1490.000000223612
  0
LINE
  5
2F2
100
AcDbEntity
  8
0
  6
CONTINUOUS
 62
           3
100
AcDbLine
 10
3857.399997377514
 20
1431.999996304559
 11
3857.399997377514
 21
1429.999999701962
  0
LINE
  5
2F1
100
AcDbEntity
  8
0
  6
CONTINUOUS
 62
           3
100
AcDbLine
 10
3855.975189322317
 20
1409.99999642378
 11
3854.399995023116
 21
1409.99999642378
  0
LINE
  5
2F0
100
AcDbEntity
  8
0
  6
CONTINUOUS
 62
           3
100
AcDbLine
 10
3977.399998420215
 20
1590.000003576231
 11
3977.399998420215
 21
1509.999999776395
  0
LINE
  5
2EF
100
AcDbEntity
  8
0
  6
CONTINUOUS
 62
           3
100
AcDbLine
 10
3977.399998420215
 20
1509.999999776395
 11
3975.824804121017
 21
1509.999999776395
  0
LINE
  5
2EE
100
AcDbEntity
  8
0
  6
CONTINUOUS
 62
           3
100
AcDbLine
 10
3974.399996066119
 20
1550.000000744964
 11
3974.399996066119
 21
1590.000003576231
  0
LINE
  5
2ED
100
AcDbEntity
  8
0
  6
CONTINUOUS
 62
           3
100
AcDbLine
 10
3974.399996066119
 20
1529.999999329481
 11
3974.399996066119
 21
1532.000001519879
  0
LINE
  5
2EC
100
AcDbEntity
  8
0
  6
CONTINUOUS
 62
           3
100
AcDbLine
 10
3974.399996066119
 20
1590.000003576231
 11
3977.399998420215
 21
1590.000003576231
  0
LINE
  5
2EB
100
AcDbEntity
  8
0
  6
CONTINUOUS
 62
           3
100
AcDbLine
 10
3977.399998420215
 20
1409.99999642378
 11
3977.399998420215
 21
1490.000000223612
  0
LINE
  5
2EA
100
AcDbEntity
  8
0
  6
CONTINUOUS
 62
           3
100
AcDbLine
 10
3975.824804121017
 20
1409.99999642378
 11
3977.399998420215
 21
1409.99999642378
  0
LINE
  5
2E9
100
AcDbEntity
  8
0
  6
CONTINUOUS
 62
           3
100
AcDbLine
 10
3974.399996066119
 20
1431.999996304559
 11
3974.399996066119
 21
1429.999999701962
  0
LINE
  5
2E8
100
AcDbEntity
  8
0
  6
CONTINUOUS
 62
           3
100
AcDbLine
 10
3977.399998420215
 20
1490.000000223612
 11
3975.899995380617
 21
1490.000000223612
  0
LINE
  5
2E7
100
AcDbEntity
  8
0
  6
CONTINUOUS
 62
           3
100
AcDbLine
 10
3835.49999918923
 20
1635.000005364196
 11
3833.399993443334
 21
1635.000005364196
  0
LINE
  5
2E6
100
AcDbEntity
  8
0
  6
CONTINUOUS
 62
           3
100
AcDbLine
 10
3833.399993443334
 20
1635.000005364196
 11
3833.399993443334
 21
1364.999994635815
  0
LINE
  5
2E5
100
AcDbEntity
  8
0
  6
CONTINUOUS
 62
           3
100
AcDbLine
 10
3835.49999918923
 20
1364.999994635815
 11
3833.399993443334
 21
1364.999994635815
  0
LINE
  5
2E4
100
AcDbEntity
  8
0
  6
CONTINUOUS
 62
           3
100
AcDbLine
 10
3855.899998062714
 20
1366.600006818713
 11
3855.899998062714
 21
1367.300003767014
  0
LINE
  5
2E3
100
AcDbEntity
  8
0
  6
CONTINUOUS
 62
           3
100
AcDbLine
 10
3975.899995380617
 20
1366.600006818713
 11
3975.899995380617
 21
1367.300003767014
  0
LINE
  5
2E2
100
AcDbEntity
  8
0
  6
CONTINUOUS
 62
           3
100
AcDbLine
 10
3855.899998062714
 20
1633.399993180996
 11
3855.899998062714
 21
1632.699996232994
  0
LINE
  5
2E1
100
AcDbEntity
  8
0
  6
CONTINUOUS
 62
           3
100
AcDbLine
 10
3975.899995380617
 20
1633.399993180996
 11
3975.899995380617
 21
1632.699996232994
  0
LINE
  5
2E0
100
AcDbEntity
  8
0
  6
CONTINUOUS
 62
           3
100
AcDbLine
 10
3970.89999642362
 20
1633.399993180996
 11
3975.899995380617
 21
1633.399993180996
  0
LINE
  5
2DF
100
AcDbEntity
  8
0
  6
CONTINUOUS
 62
           3
100
AcDbLine
 10
3975.899995380617
 20
1635.000005364196
 11
3970.89999642362
 21
1635.000005364196
  0
LINE
  5
2DE
100
AcDbEntity
  8
0
  6
CONTINUOUS
 62
           3
100
AcDbLine
 10
3975.899995380617
 20
1633.399993180996
 11
3975.899995380617
 21
1635.000005364196
  0
LINE
  5
2DD
100
AcDbEntity
  8
0
  6
CONTINUOUS
 62
           3
100
AcDbLine
 10
3970.89999642362
 20
1366.600006818713
 11
3975.899995380617
 21
1366.600006818713
  0
LINE
  5
2DC
100
AcDbEntity
  8
0
  6
CONTINUOUS
 62
           3
100
AcDbLine
 10
3975.899995380617
 20
1364.999994635815
 11
3970.89999642362
 21
1364.999994635815
  0
LINE
  5
2DB
100
AcDbEntity
  8
0
  6
CONTINUOUS
 62
           3
100
AcDbLine
 10
3975.899995380617
 20
1366.600006818713
 11
3975.899995380617
 21
1364.999994635815
  0
LINE
  5
2DA
100
AcDbEntity
  8
0
  6
CONTINUOUS
 62
           3
100
AcDbLine
 10
3960.899998509628
 20
1366.600006818713
 11
3962.899995112227
 21
1366.600006818713
  0
LINE
  5
2D9
100
AcDbEntity
  8
0
  6
CONTINUOUS
 62
           3
100
AcDbLine
 10
3962.899995112227
 20
1364.999994635815
 11
3960.899998509628
 21
1364.999994635815
  0
LINE
  5
2D8
100
AcDbEntity
  8
0
  6
CONTINUOUS
 62
           3
100
AcDbLine
 10
3962.899995112227
 20
1366.600006818713
 11
3962.899995112227
 21
1364.999994635815
  0
LINE
  5
2D7
100
AcDbEntity
  8
0
  6
CONTINUOUS
 62
           3
100
AcDbLine
 10
3960.899998509628
 20
1633.399993180996
 11
3962.899995112227
 21
1633.399993180996
  0
LINE
  5
2D6
100
AcDbEntity
  8
0
  6
CONTINUOUS
 62
           3
100
AcDbLine
 10
3962.899995112227
 20
1635.000005364196
 11
3960.899998509628
 21
1635.000005364196
  0
LINE
  5
2D5
100
AcDbEntity
  8
0
  6
CONTINUOUS
 62
           3
100
AcDbLine
 10
3962.899995112227
 20
1633.399993180996
 11
3962.899995112227
 21
1635.000005364196
  0
LINE
  5
2D4
100
AcDbEntity
  8
0
  6
CONTINUOUS
 62
           3
100
AcDbLine
 10
3968.899996095923
 20
1366.600006818713
 11
3970.89999642362
 21
1366.600006818713
  0
LINE
  5
2D3
100
AcDbEntity
  8
0
  6
CONTINUOUS
 62
           3
100
AcDbLine
 10
3970.89999642362
 20
1364.999994635815
 11
3968.899996095923
 21
1364.999994635815
  0
LINE
  5
2D2
100
AcDbEntity
  8
0
  6
CONTINUOUS
 62
           3
100
AcDbLine
 10
3968.899996095923
 20
1364.999994635815
 11
3968.899996095923
 21
1366.600006818713
  0
LINE
  5
2D1
100
AcDbEntity
  8
0
  6
CONTINUOUS
 62
           3
100
AcDbLine
 10
3968.899996095923
 20
1633.399993180996
 11
3970.89999642362
 21
1633.399993180996
  0
LINE
  5
2D0
100
AcDbEntity
  8
0
  6
CONTINUOUS
 62
           3
100
AcDbLine
 10
3970.89999642362
 20
1635.000005364196
 11
3968.899996095923
 21
1635.000005364196
  0
LINE
  5
2CF
100
AcDbEntity
  8
0
  6
CONTINUOUS
 62
           3
100
AcDbLine
 10
3968.899996095923
 20
1635.000005364196
 11
3968.899996095923
 21
1633.399993180996
  0
LINE
  5
2CE
100
AcDbEntity
  8
0
  6
CONTINUOUS
 62
           3
100
AcDbLine
 10
3860.899997019711
 20
1633.399993180996
 11
3855.899998062714
 21
1633.399993180996
  0
LINE
  5
2CD
100
AcDbEntity
  8
0
  6
CONTINUOUS
 62
           3
100
AcDbLine
 10
3855.899998062714
 20
1635.000005364196
 11
3860.899997019711
 21
1635.000005364196
  0
LINE
  5
2CC
100
AcDbEntity
  8
0
  6
CONTINUOUS
 62
           3
100
AcDbLine
 10
3855.899998062714
 20
1633.399993180996
 11
3855.899998062714
 21
1635.000005364196
  0
LINE
  5
2CB
100
AcDbEntity
  8
0
  6
CONTINUOUS
 62
           3
100
AcDbLine
 10
3860.899997019711
 20
1366.600006818713
 11
3855.899998062714
 21
1366.600006818713
  0
LINE
  5
2CA
100
AcDbEntity
  8
0
  6
CONTINUOUS
 62
           3
100
AcDbLine
 10
3855.899998062714
 20
1364.999994635815
 11
3860.899997019711
 21
1364.999994635815
  0
LINE
  5
2C9
100
AcDbEntity
  8
0
  6
CONTINUOUS
 62
           3
100
AcDbLine
 10
3855.899998062714
 20
1366.600006818713
 11
3855.899998062714
 21
1364.999994635815
  0
LINE
  5
2C8
100
AcDbEntity
  8
0
  6
CONTINUOUS
 62
           3
100
AcDbLine
 10
3870.899994933703
 20
1633.399993180996
 11
3960.899998509628
 21
1633.399993180996
  0
LINE
  5
2C7
100
AcDbEntity
  8
0
  6
CONTINUOUS
 62
           3
100
AcDbLine
 10
3870.899994933703
 20
1635.000005364196
 11
3960.899998509628
 21
1635.000005364196
  0
LINE
  5
2C6
100
AcDbEntity
  8
0
  6
CONTINUOUS
 62
           3
100
AcDbLine
 10
3870.899994933703
 20
1366.600006818713
 11
3960.899998509628
 21
1366.600006818713
  0
LINE
  5
2C5
100
AcDbEntity
  8
0
  6
CONTINUOUS
 62
           3
100
AcDbLine
 10
3870.899994933703
 20
1364.999994635815
 11
3960.899998509628
 21
1364.999994635815
  0
LINE
  5
2C4
100
AcDbEntity
  8
0
  6
CONTINUOUS
 62
           3
100
AcDbLine
 10
3870.899994933703
 20
1366.600006818713
 11
3868.899998331104
 21
1366.600006818713
  0
LINE
  5
2C3
100
AcDbEntity
  8
0
  6
CONTINUOUS
 62
           3
100
AcDbLine
 10
3868.899998331104
 20
1366.600006818713
 11
3868.899998331104
 21
1364.999994635815
  0
LINE
  5
2C2
100
AcDbEntity
  8
0
  6
CONTINUOUS
 62
           3
100
AcDbLine
 10
3868.899998331104
 20
1364.999994635815
 11
3870.899994933703
 21
1364.999994635815
  0
LINE
  5
2C1
100
AcDbEntity
  8
0
  6
CONTINUOUS
 62
           3
100
AcDbLine
 10
3870.899994933703
 20
1633.399993180996
 11
3868.899998331104
 21
1633.399993180996
  0
LINE
  5
2C0
100
AcDbEntity
  8
0
  6
CONTINUOUS
 62
           3
100
AcDbLine
 10
3868.899998331104
 20
1635.000005364196
 11
3870.899994933703
 21
1635.000005364196
  0
LINE
  5
2BF
100
AcDbEntity
  8
0
  6
CONTINUOUS
 62
           3
100
AcDbLine
 10
3868.899998331104
 20
1633.399993180996
 11
3868.899998331104
 21
1635.000005364196
  0
LINE
  5
2BE
100
AcDbEntity
  8
0
  6
CONTINUOUS
 62
           3
100
AcDbLine
 10
3862.899997347709
 20
1633.399993180996
 11
3860.899997019711
 21
1633.399993180996
  0
LINE
  5
2BD
100
AcDbEntity
  8
0
  6
CONTINUOUS
 62
           3
100
AcDbLine
 10
3862.899997347709
 20
1635.000005364196
 11
3862.899997347709
 21
1633.399993180996
  0
LINE
  5
2BC
100
AcDbEntity
  8
0
  6
CONTINUOUS
 62
           3
100
AcDbLine
 10
3860.899997019711
 20
1635.000005364196
 11
3862.899997347709
 21
1635.000005364196
  0
LINE
  5
2BB
100
AcDbEntity
  8
0
  6
CONTINUOUS
 62
           3
100
AcDbLine
 10
3862.899997347709
 20
1366.600006818713
 11
3860.899997019711
 21
1366.600006818713
  0
LINE
  5
2BA
100
AcDbEntity
  8
0
  6
CONTINUOUS
 62
           3
100
AcDbLine
 10
3860.899997019711
 20
1364.999994635815
 11
3862.899997347709
 21
1364.999994635815
  0
LINE
  5
2B9
100
AcDbEntity
  8
0
  6
CONTINUOUS
 62
           3
100
AcDbLine
 10
3862.899997347709
 20
1364.999994635815
 11
3862.899997347709
 21
1366.600006818713
  0
LINE
  5
2B8
100
AcDbEntity
  8
0
  6
CONTINUOUS
 62
           3
100
AcDbLine
 10
3975.824804121017
 20
1409.99999642378
 11
3974.199996405618
 21
1409.99999642378
  0
LINE
  5
2B7
100
AcDbEntity
  8
0
  6
CONTINUOUS
 62
           3
100
AcDbLine
 10
3974.199996405618
 20
1429.999999701962
 11
3975.899995380617
 21
1429.999999701962
  0
LINE
  5
2B6
100
AcDbEntity
  8
0
  6
CONTINUOUS
 62
           3
100
AcDbLine
 10
3975.899995380617
 20
1429.999999701962
 11
3975.899995380617
 21
1409.99999642378
  0
LINE
  5
2B5
100
AcDbEntity
  8
0
  6
CONTINUOUS
 62
           3
100
AcDbLine
 10
3855.899998062714
 20
1529.999999329481
 11
3857.599997037714
 21
1529.999999329481
  0
LINE
  5
2B4
100
AcDbEntity
  8
0
  6
CONTINUOUS
 62
           3
100
AcDbLine
 10
3855.899998062714
 20
1509.999999776395
 11
3855.899998062714
 21
1529.999999329481
  0
LINE
  5
2B3
100
AcDbEntity
  8
0
  6
CONTINUOUS
 62
           3
100
AcDbLine
 10
3857.599997037714
 20
1509.999999776395
 11
3855.975189322317
 21
1509.999999776395
  0
LINE
  5
2B2
100
AcDbEntity
  8
0
  6
CONTINUOUS
 62
           3
100
AcDbLine
 10
3855.975189322317
 20
1409.99999642378
 11
3857.599997037714
 21
1409.99999642378
  0
LINE
  5
2B1
100
AcDbEntity
  8
0
  6
CONTINUOUS
 62
           3
100
AcDbLine
 10
3857.599997037714
 20
1429.999999701962
 11
3855.899998062714
 21
1429.999999701962
  0
LINE
  5
2B0
100
AcDbEntity
  8
0
  6
CONTINUOUS
 62
           3
100
AcDbLine
 10
3855.899998062714
 20
1429.999999701962
 11
3855.899998062714
 21
1409.99999642378
  0
LINE
  5
2AF
100
AcDbEntity
  8
0
  6
CONTINUOUS
 62
           3
100
AcDbLine
 10
3857.599997037714
 20
1529.999999329481
 11
3857.899998390714
 21
1529.999999329481
  0
LINE
  5
2AE
100
AcDbEntity
  8
0
  6
CONTINUOUS
 62
           3
100
AcDbLine
 10
3857.899998390714
 20
1509.999999776395
 11
3857.599997037714
 21
1509.999999776395
  0
LINE
  5
2AD
100
AcDbEntity
  8
0
  6
CONTINUOUS
 62
           3
100
AcDbLine
 10
3855.899998062714
 20
1508.0000003799
 11
3857.899998390714
 21
1508.0000003799
  0
LINE
  5
2AC
100
AcDbEntity
  8
0
  6
CONTINUOUS
 62
           3
100
AcDbLine
 10
3855.899998062714
 20
1508.0000003799
 11
3855.899998062714
 21
1431.999996304559
  0
LINE
  5
2AB
100
AcDbEntity
  8
0
  6
CONTINUOUS
 62
           3
100
AcDbLine
 10
3855.899998062714
 20
1431.999996304559
 11
3857.899998390714
 21
1431.999996304559
  0
LINE
  5
2AA
100
AcDbEntity
  8
0
  6
CONTINUOUS
 62
           3
100
AcDbLine
 10
3857.899998390714
 20
1429.999999701962
 11
3857.599997037714
 21
1429.999999701962
  0
LINE
  5
2A9
100
AcDbEntity
  8
0
  6
CONTINUOUS
 62
           3
100
AcDbLine
 10
3857.599997037714
 20
1409.99999642378
 11
3857.899998390714
 21
1409.99999642378
  0
LINE
  5
2A8
100
AcDbEntity
  8
0
  6
CONTINUOUS
 62
           3
100
AcDbLine
 10
3857.899998390714
 20
1407.999999821183
 11
3855.899998062714
 21
1407.999999821183
  0
LINE
  5
2A7
100
AcDbEntity
  8
0
  6
CONTINUOUS
 62
           3
100
AcDbLine
 10
3855.899998062714
 20
1391.699999570792
 11
3855.899998062714
 21
1407.999999821183
  0
LINE
  5
2A6
100
AcDbEntity
  8
0
  6
CONTINUOUS
 62
           3
100
AcDbLine
 10
3975.899995380617
 20
1391.699999570792
 11
3975.899995380617
 21
1407.999999821183
  0
LINE
  5
2A5
100
AcDbEntity
  8
0
  6
CONTINUOUS
 62
           3
100
AcDbLine
 10
3973.89999505262
 20
1407.999999821183
 11
3975.899995380617
 21
1407.999999821183
  0
LINE
  5
2A4
100
AcDbEntity
  8
0
  6
CONTINUOUS
 62
           3
100
AcDbLine
 10
3974.199996405618
 20
1409.99999642378
 11
3973.89999505262
 21
1409.99999642378
  0
LINE
  5
2A3
100
AcDbEntity
  8
0
  6
CONTINUOUS
 62
           3
100
AcDbLine
 10
3973.89999505262
 20
1429.999999701962
 11
3974.199996405618
 21
1429.999999701962
  0
LINE
  5
2A2
100
AcDbEntity
  8
0
  6
CONTINUOUS
 62
           3
100
AcDbLine
 10
3975.899995380617
 20
1431.999996304559
 11
3973.89999505262
 21
1431.999996304559
  0
LINE
  5
2A1
100
AcDbEntity
  8
0
  6
CONTINUOUS
 62
           3
100
AcDbLine
 10
3975.899995380617
 20
1508.0000003799
 11
3975.899995380617
 21
1431.999996304559
  0
LINE
  5
2A0
100
AcDbEntity
  8
0
  6
CONTINUOUS
 62
           3
100
AcDbLine
 10
3975.899995380617
 20
1508.0000003799
 11
3973.89999505262
 21
1508.0000003799
  0
LINE
  5
29F
100
AcDbEntity
  8
0
  6
CONTINUOUS
 62
           3
100
AcDbLine
 10
3973.89999505262
 20
1509.999999776395
 11
3974.199996405618
 21
1509.999999776395
  0
LINE
  5
29E
100
AcDbEntity
  8
0
  6
CONTINUOUS
 62
           3
100
AcDbLine
 10
3974.199996405618
 20
1529.999999329481
 11
3973.89999505262
 21
1529.999999329481
  0
LINE
  5
29D
100
AcDbEntity
  8
0
  6
CONTINUOUS
 62
           3
100
AcDbLine
 10
3973.89999505262
 20
1532.000001519879
 11
3975.899995380617
 21
1532.000001519879
  0
LINE
  5
29C
100
AcDbEntity
  8
0
  6
CONTINUOUS
 62
           3
100
AcDbLine
 10
3975.899995380617
 20
1548.300001770265
 11
3975.899995380617
 21
1532.000001519879
  0
LINE
  5
29B
100
AcDbEntity
  8
0
  6
CONTINUOUS
 62
           3
100
AcDbLine
 10
3855.899998062714
 20
1548.300001770265
 11
3855.899998062714
 21
1532.000001519879
  0
LINE
  5
29A
100
AcDbEntity
  8
0
  6
CONTINUOUS
 62
           3
100
AcDbLine
 10
3857.899998390714
 20
1532.000001519879
 11
3855.899998062714
 21
1532.000001519879
  0
LINE
  5
299
100
AcDbEntity
  8
0
  6
CONTINUOUS
 62
           3
100
AcDbLine
 10
3974.199996405618
 20
1509.999999776395
 11
3975.824804121017
 21
1509.999999776395
  0
LINE
  5
298
100
AcDbEntity
  8
0
  6
CONTINUOUS
 62
           3
100
AcDbLine
 10
3975.899995380617
 20
1509.999999776395
 11
3975.899995380617
 21
1529.999999329481
  0
LINE
  5
297
100
AcDbEntity
  8
0
  6
CONTINUOUS
 62
           3
100
AcDbLine
 10
3975.899995380617
 20
1529.999999329481
 11
3974.199996405618
 21
1529.999999329481
  0
LINE
  5
296
100
AcDbEntity
  8
0
  6
CONTINUOUS
 62
           3
100
AcDbLine
 10
3975.899995380617
 20
1548.799999058065
 11
3975.899995380617
 21
1548.300001770265
  0
LINE
  5
295
100
AcDbEntity
  8
0
  6
CONTINUOUS
 62
           3
100
AcDbLine
 10
3855.899998062714
 20
1548.799999058065
 11
3855.899998062714
 21
1548.300001770265
  0
LINE
  5
294
100
AcDbEntity
  8
0
  6
CONTINUOUS
 62
           3
100
AcDbLine
 10
3855.899998062714
 20
1391.199998557593
 11
3855.899998062714
 21
1391.699999570792
  0
LINE
  5
293
100
AcDbEntity
  8
0
  6
CONTINUOUS
 62
           3
100
AcDbLine
 10
3975.899995380617
 20
1391.199998557593
 11
3975.899995380617
 21
1391.699999570792
  0
LINE
  5
292
100
AcDbEntity
  8
0
  6
CONTINUOUS
 62
           3
100
AcDbLine
 10
3918.899996747763
 20
1550.000000744964
 11
3919.149996788763
 21
1550.000000744964
  0
LINE
  5
291
100
AcDbEntity
  8
0
  6
CONTINUOUS
 62
           3
100
AcDbLine
 10
3912.649996654568
 20
1550.000000744964
 11
3912.899996695568
 21
1550.000000744964
  0
LINE
  5
290
100
AcDbEntity
  8
0
  6
CONTINUOUS
 62
           3
100
AcDbLine
 10
3918.899996747763
 20
1548.799999058065
 11
3919.149996788763
 21
1548.799999058065
  0
LINE
  5
28F
100
AcDbEntity
  8
0
  6
CONTINUOUS
 62
           3
100
AcDbLine
 10
3912.649996654568
 20
1548.799999058065
 11
3912.899996695568
 21
1548.799999058065
  0
LINE
  5
28E
100
AcDbEntity
  8
0
  6
CONTINUOUS
 62
           3
100
AcDbLine
 10
3912.899996695568
 20
1391.199998557593
 11
3912.649996654568
 21
1391.199998557593
  0
LINE
  5
28D
100
AcDbEntity
  8
0
  6
CONTINUOUS
 62
           3
100
AcDbLine
 10
3919.149996788763
 20
1391.199998557593
 11
3918.899996747763
 21
1391.199998557593
  0
LINE
  5
28C
100
AcDbEntity
  8
0
  6
CONTINUOUS
 62
           3
100
AcDbLine
 10
3860.899997019711
 20
1391.199998557593
 11
3855.899998062714
 21
1391.199998557593
  0
LINE
  5
28B
100
AcDbEntity
  8
0
  6
CONTINUOUS
 62
           3
100
AcDbLine
 10
3855.899998062714
 20
1390.000000596097
 11
3860.899997019711
 21
1390.000000596097
  0
LINE
  5
28A
100
AcDbEntity
  8
0
  6
CONTINUOUS
 62
           3
100
AcDbLine
 10
3855.899998062714
 20
1391.199998557593
 11
3855.899998062714
 21
1390.000000596097
  0
LINE
  5
289
100
AcDbEntity
  8
0
  6
CONTINUOUS
 62
           3
100
AcDbLine
 10
3855.899998062714
 20
1550.000000744964
 11
3860.899997019711
 21
1550.000000744964
  0
LINE
  5
288
100
AcDbEntity
  8
0
  6
CONTINUOUS
 62
           3
100
AcDbLine
 10
3860.899997019711
 20
1548.799999058065
 11
3855.899998062714
 21
1548.799999058065
  0
LINE
  5
287
100
AcDbEntity
  8
0
  6
CONTINUOUS
 62
           3
100
AcDbLine
 10
3855.899998062714
 20
1548.799999058065
 11
3855.899998062714
 21
1550.000000744964
  0
LINE
  5
286
100
AcDbEntity
  8
0
  6
CONTINUOUS
 62
           3
100
AcDbLine
 10
3960.899998509628
 20
1550.000000744964
 11
3945.89999605114
 21
1550.000000744964
  0
LINE
  5
285
100
AcDbEntity
  8
0
  6
CONTINUOUS
 62
           3
100
AcDbLine
 10
3960.899998509628
 20
1548.799999058065
 11
3945.89999605114
 21
1548.799999058065
  0
LINE
  5
284
100
AcDbEntity
  8
0
  6
CONTINUOUS
 62
           3
100
AcDbLine
 10
3975.899995380617
 20
1550.000000744964
 11
3970.89999642362
 21
1550.000000744964
  0
LINE
  5
283
100
AcDbEntity
  8
0
  6
CONTINUOUS
 62
           3
100
AcDbLine
 10
3970.89999642362
 20
1548.799999058065
 11
3975.899995380617
 21
1548.799999058065
  0
LINE
  5
282
100
AcDbEntity
  8
0
  6
CONTINUOUS
 62
           3
100
AcDbLine
 10
3975.899995380617
 20
1548.799999058065
 11
3975.899995380617
 21
1550.000000744964
  0
LINE
  5
281
100
AcDbEntity
  8
0
  6
CONTINUOUS
 62
           3
100
AcDbLine
 10
3960.899998509628
 20
1391.199998557593
 11
3945.89999605114
 21
1391.199998557593
  0
LINE
  5
280
100
AcDbEntity
  8
0
  6
CONTINUOUS
 62
           3
100
AcDbLine
 10
3960.899998509628
 20
1390.000000596097
 11
3945.89999605114
 21
1390.000000596097
  0
LINE
  5
27F
100
AcDbEntity
  8
0
  6
CONTINUOUS
 62
           3
100
AcDbLine
 10
3870.899994933703
 20
1550.000000744964
 11
3885.89999739219
 21
1550.000000744964
  0
LINE
  5
27E
100
AcDbEntity
  8
0
  6
CONTINUOUS
 62
           3
100
AcDbLine
 10
3870.899994933703
 20
1548.799999058065
 11
3885.89999739219
 21
1548.799999058065
  0
LINE
  5
27D
100
AcDbEntity
  8
0
  6
CONTINUOUS
 62
           3
100
AcDbLine
 10
3970.89999642362
 20
1391.199998557593
 11
3975.899995380617
 21
1391.199998557593
  0
LINE
  5
27C
100
AcDbEntity
  8
0
  6
CONTINUOUS
 62
           3
100
AcDbLine
 10
3975.899995380617
 20
1390.000000596097
 11
3970.89999642362
 21
1390.000000596097
  0
LINE
  5
27B
100
AcDbEntity
  8
0
  6
CONTINUOUS
 62
           3
100
AcDbLine
 10
3975.899995380617
 20
1391.199998557593
 11
3975.899995380617
 21
1390.000000596097
  0
LINE
  5
27A
100
AcDbEntity
  8
0
  6
CONTINUOUS
 62
           3
100
AcDbLine
 10
3870.899994933703
 20
1391.199998557593
 11
3885.89999739219
 21
1391.199998557593
  0
LINE
  5
279
100
AcDbEntity
  8
0
  6
CONTINUOUS
 62
           3
100
AcDbLine
 10
3870.899994933703
 20
1390.000000596097
 11
3885.89999739219
 21
1390.000000596097
  0
LINE
  5
278
100
AcDbEntity
  8
0
  6
CONTINUOUS
 62
           3
100
AcDbLine
 10
3868.899998331104
 20
1550.000000744964
 11
3870.899994933703
 21
1550.000000744964
  0
LINE
  5
277
100
AcDbEntity
  8
0
  6
CONTINUOUS
 62
           3
100
AcDbLine
 10
3870.899994933703
 20
1548.799999058065
 11
3868.899998331104
 21
1548.799999058065
  0
LINE
  5
276
100
AcDbEntity
  8
0
  6
CONTINUOUS
 62
           3
100
AcDbLine
 10
3868.899998331104
 20
1548.799999058065
 11
3868.899998331104
 21
1550.000000744964
  0
LINE
  5
275
100
AcDbEntity
  8
0
  6
CONTINUOUS
 62
           3
100
AcDbLine
 10
3860.899997019711
 20
1550.000000744964
 11
3862.899997347709
 21
1550.000000744964
  0
LINE
  5
274
100
AcDbEntity
  8
0
  6
CONTINUOUS
 62
           3
100
AcDbLine
 10
3862.899997347709
 20
1548.799999058065
 11
3860.899997019711
 21
1548.799999058065
  0
LINE
  5
273
100
AcDbEntity
  8
0
  6
CONTINUOUS
 62
           3
100
AcDbLine
 10
3862.899997347709
 20
1550.000000744964
 11
3862.899997347709
 21
1548.799999058065
  0
LINE
  5
272
100
AcDbEntity
  8
0
  6
CONTINUOUS
 62
           3
100
AcDbLine
 10
3960.899998509628
 20
1391.199998557593
 11
3962.899995112227
 21
1391.199998557593
  0
LINE
  5
271
100
AcDbEntity
  8
0
  6
CONTINUOUS
 62
           3
100
AcDbLine
 10
3962.899995112227
 20
1390.000000596097
 11
3960.899998509628
 21
1390.000000596097
  0
LINE
  5
270
100
AcDbEntity
  8
0
  6
CONTINUOUS
 62
           3
100
AcDbLine
 10
3962.899995112227
 20
1391.199998557593
 11
3962.899995112227
 21
1390.000000596097
  0
LINE
  5
26F
100
AcDbEntity
  8
0
  6
CONTINUOUS
 62
           3
100
AcDbLine
 10
3968.899996095923
 20
1391.199998557593
 11
3970.89999642362
 21
1391.199998557593
  0
LINE
  5
26E
100
AcDbEntity
  8
0
  6
CONTINUOUS
 62
           3
100
AcDbLine
 10
3970.89999642362
 20
1390.000000596097
 11
3968.899996095923
 21
1390.000000596097
  0
LINE
  5
26D
100
AcDbEntity
  8
0
  6
CONTINUOUS
 62
           3
100
AcDbLine
 10
3968.899996095923
 20
1390.000000596097
 11
3968.899996095923
 21
1391.199998557593
  0
LINE
  5
26C
100
AcDbEntity
  8
0
  6
CONTINUOUS
 62
           3
100
AcDbLine
 10
3962.899995112227
 20
1550.000000744964
 11
3960.899998509628
 21
1550.000000744964
  0
LINE
  5
26B
100
AcDbEntity
  8
0
  6
CONTINUOUS
 62
           3
100
AcDbLine
 10
3960.899998509628
 20
1548.799999058065
 11
3962.899995112227
 21
1548.799999058065
  0
LINE
  5
26A
100
AcDbEntity
  8
0
  6
CONTINUOUS
 62
           3
100
AcDbLine
 10
3962.899995112227
 20
1548.799999058065
 11
3962.899995112227
 21
1550.000000744964
  0
LINE
  5
269
100
AcDbEntity
  8
0
  6
CONTINUOUS
 62
           3
100
AcDbLine
 10
3970.89999642362
 20
1550.000000744964
 11
3968.899996095923
 21
1550.000000744964
  0
LINE
  5
268
100
AcDbEntity
  8
0
  6
CONTINUOUS
 62
           3
100
AcDbLine
 10
3968.899996095923
 20
1548.799999058065
 11
3970.89999642362
 21
1548.799999058065
  0
LINE
  5
267
100
AcDbEntity
  8
0
  6
CONTINUOUS
 62
           3
100
AcDbLine
 10
3968.899996095923
 20
1550.000000744964
 11
3968.899996095923
 21
1548.799999058065
  0
LINE
  5
266
100
AcDbEntity
  8
0
  6
CONTINUOUS
 62
           3
100
AcDbLine
 10
3870.899994933703
 20
1391.199998557593
 11
3868.899998331104
 21
1391.199998557593
  0
LINE
  5
265
100
AcDbEntity
  8
0
  6
CONTINUOUS
 62
           3
100
AcDbLine
 10
3868.899998331104
 20
1390.000000596097
 11
3870.899994933703
 21
1390.000000596097
  0
LINE
  5
264
100
AcDbEntity
  8
0
  6
CONTINUOUS
 62
           3
100
AcDbLine
 10
3868.899998331104
 20
1391.199998557593
 11
3868.899998331104
 21
1390.000000596097
  0
LINE
  5
263
100
AcDbEntity
  8
0
  6
CONTINUOUS
 62
           3
100
AcDbLine
 10
3862.899997347709
 20
1391.199998557593
 11
3860.899997019711
 21
1391.199998557593
  0
LINE
  5
262
100
AcDbEntity
  8
0
  6
CONTINUOUS
 62
           3
100
AcDbLine
 10
3860.899997019711
 20
1390.000000596097
 11
3862.899997347709
 21
1390.000000596097
  0
LINE
  5
261
100
AcDbEntity
  8
0
  6
CONTINUOUS
 62
           3
100
AcDbLine
 10
3862.899997347709
 20
1390.000000596097
 11
3862.899997347709
 21
1391.199998557593
  0
LINE
  5
260
100
AcDbEntity
  8
0
  6
CONTINUOUS
 62
           3
100
AcDbLine
 10
3912.399996613568
 20
1391.199998557593
 11
3912.649996654568
 21
1391.199998557593
  0
LINE
  5
25F
100
AcDbEntity
  8
0
  6
CONTINUOUS
 62
           3
100
AcDbLine
 10
3912.649996654568
 20
1391.199998557593
 11
3912.649996654568
 21
1390.000000596097
  0
LINE
  5
25E
100
AcDbEntity
  8
0
  6
CONTINUOUS
 62
           3
100
AcDbLine
 10
3945.89999605114
 20
1391.199998557593
 11
3935.899996274749
 21
1391.199998557593
  0
LINE
  5
25D
100
AcDbEntity
  8
0
  6
CONTINUOUS
 62
           3
100
AcDbLine
 10
3945.89999605114
 20
1390.000000596097
 11
3935.899996274749
 21
1390.000000596097
  0
LINE
  5
25C
100
AcDbEntity
  8
0
  6
CONTINUOUS
 62
           3
100
AcDbLine
 10
3945.89999605114
 20
1391.199998557593
 11
3945.89999605114
 21
1390.000000596097
  0
LINE
  5
25B
100
AcDbEntity
  8
0
  6
CONTINUOUS
 62
           3
100
AcDbLine
 10
3910.64999679247
 20
1550.000000744964
 11
3912.649996654568
 21
1550.000000744964
  0
LINE
  5
25A
100
AcDbEntity
  8
0
  6
CONTINUOUS
 62
           3
100
AcDbLine
 10
3912.649996654568
 20
1548.799999058065
 11
3910.64999679247
 21
1548.799999058065
  0
LINE
  5
259
100
AcDbEntity
  8
0
  6
CONTINUOUS
 62
           3
100
AcDbLine
 10
3912.649996654568
 20
1550.000000744964
 11
3912.649996654568
 21
1548.799999058065
  0
LINE
  5
258
100
AcDbEntity
  8
0
  6
CONTINUOUS
 62
           3
100
AcDbLine
 10
3923.899997101558
 20
1391.199998557593
 11
3935.899996274749
 21
1391.199998557593
  0
LINE
  5
257
100
AcDbEntity
  8
0
  6
CONTINUOUS
 62
           3
100
AcDbLine
 10
3923.899997101558
 20
1390.000000596097
 11
3935.899996274749
 21
1390.000000596097
  0
LINE
  5
256
100
AcDbEntity
  8
0
  6
CONTINUOUS
 62
           3
100
AcDbLine
 10
3935.899996274749
 20
1391.199998557593
 11
3935.899996274749
 21
1390.000000596097
  0
LINE
  5
255
100
AcDbEntity
  8
0
  6
CONTINUOUS
 62
           3
100
AcDbLine
 10
3885.89999739219
 20
1391.199998557593
 11
3895.899997168583
 21
1391.199998557593
  0
LINE
  5
254
100
AcDbEntity
  8
0
  6
CONTINUOUS
 62
           3
100
AcDbLine
 10
3885.89999739219
 20
1390.000000596097
 11
3895.899997168583
 21
1390.000000596097
  0
LINE
  5
253
100
AcDbEntity
  8
0
  6
CONTINUOUS
 62
           3
100
AcDbLine
 10
3885.89999739219
 20
1391.199998557593
 11
3885.89999739219
 21
1390.000000596097
  0
LINE
  5
252
100
AcDbEntity
  8
0
  6
CONTINUOUS
 62
           3
100
AcDbLine
 10
3919.149996788763
 20
1550.000000744964
 11
3921.149996650861
 21
1550.000000744964
  0
LINE
  5
251
100
AcDbEntity
  8
0
  6
CONTINUOUS
 62
           3
100
AcDbLine
 10
3921.149996650861
 20
1548.799999058065
 11
3919.149996788763
 21
1548.799999058065
  0
LINE
  5
250
100
AcDbEntity
  8
0
  6
CONTINUOUS
 62
           3
100
AcDbLine
 10
3919.149996788763
 20
1548.799999058065
 11
3919.149996788763
 21
1550.000000744964
  0
LINE
  5
24F
100
AcDbEntity
  8
0
  6
CONTINUOUS
 62
           3
100
AcDbLine
 10
3945.89999605114
 20
1550.000000744964
 11
3935.899996274749
 21
1550.000000744964
  0
LINE
  5
24E
100
AcDbEntity
  8
0
  6
CONTINUOUS
 62
           3
100
AcDbLine
 10
3945.89999605114
 20
1548.799999058065
 11
3935.899996274749
 21
1548.799999058065
  0
LINE
  5
24D
100
AcDbEntity
  8
0
  6
CONTINUOUS
 62
           3
100
AcDbLine
 10
3945.89999605114
 20
1548.799999058065
 11
3945.89999605114
 21
1550.000000744964
  0
LINE
  5
24C
100
AcDbEntity
  8
0
  6
CONTINUOUS
 62
           3
100
AcDbLine
 10
3919.149996788763
 20
1391.199998557593
 11
3919.399996829763
 21
1391.199998557593
  0
LINE
  5
24B
100
AcDbEntity
  8
0
  6
CONTINUOUS
 62
           3
100
AcDbLine
 10
3919.149996788763
 20
1390.000000596097
 11
3919.149996788763
 21
1391.199998557593
  0
LINE
  5
24A
100
AcDbEntity
  8
0
  6
CONTINUOUS
 62
           3
100
AcDbLine
 10
3895.899997168583
 20
1391.199998557593
 11
3907.899996341771
 21
1391.199998557593
  0
LINE
  5
249
100
AcDbEntity
  8
0
  6
CONTINUOUS
 62
           3
100
AcDbLine
 10
3895.899997168583
 20
1390.000000596097
 11
3907.899996341771
 21
1390.000000596097
  0
LINE
  5
248
100
AcDbEntity
  8
0
  6
CONTINUOUS
 62
           3
100
AcDbLine
 10
3895.899997168583
 20
1391.199998557593
 11
3895.899997168583
 21
1390.000000596097
  0
LINE
  5
247
100
AcDbEntity
  8
0
  6
CONTINUOUS
 62
           3
100
AcDbLine
 10
3895.899997168583
 20
1550.000000744964
 11
3910.64999679247
 21
1550.000000744964
  0
LINE
  5
246
100
AcDbEntity
  8
0
  6
CONTINUOUS
 62
           3
100
AcDbLine
 10
3895.899997168583
 20
1548.799999058065
 11
3910.64999679247
 21
1548.799999058065
  0
LINE
  5
245
100
AcDbEntity
  8
0
  6
CONTINUOUS
 62
           3
100
AcDbLine
 10
3921.149996650861
 20
1550.000000744964
 11
3935.899996274749
 21
1550.000000744964
  0
LINE
  5
244
100
AcDbEntity
  8
0
  6
CONTINUOUS
 62
           3
100
AcDbLine
 10
3921.149996650861
 20
1548.799999058065
 11
3935.899996274749
 21
1548.799999058065
  0
LINE
  5
243
100
AcDbEntity
  8
0
  6
CONTINUOUS
 62
           3
100
AcDbLine
 10
3935.899996274749
 20
1548.799999058065
 11
3935.899996274749
 21
1550.000000744964
  0
LINE
  5
242
100
AcDbEntity
  8
0
  6
CONTINUOUS
 62
           3
100
AcDbLine
 10
3885.89999739219
 20
1548.799999058065
 11
3885.89999739219
 21
1550.000000744964
  0
LINE
  5
241
100
AcDbEntity
  8
0
  6
CONTINUOUS
 62
           3
100
AcDbLine
 10
3885.89999739219
 20
1548.799999058065
 11
3895.899997168583
 21
1548.799999058065
  0
LINE
  5
240
100
AcDbEntity
  8
0
  6
CONTINUOUS
 62
           3
100
AcDbLine
 10
3895.899997168583
 20
1548.799999058065
 11
3895.899997168583
 21
1550.000000744964
  0
LINE
  5
23F
100
AcDbEntity
  8
0
  6
CONTINUOUS
 62
           3
100
AcDbLine
 10
3885.89999739219
 20
1550.000000744964
 11
3895.899997168583
 21
1550.000000744964
  0
LINE
  5
23E
100
AcDbEntity
  8
0
  6
CONTINUOUS
 62
           3
100
AcDbLine
 10
3923.899997101558
 20
1389.200001954996
 11
3923.899997101558
 21
1388.276241719796
  0
LINE
  5
23D
100
AcDbEntity
  8
0
  6
CONTINUOUS
 62
           3
100
AcDbLine
 10
3907.899996341771
 20
1389.200001954996
 11
3907.899996341771
 21
1388.276241719796
  0
LINE
  5
23C
100
AcDbEntity
  8
0
  6
CONTINUOUS
 62
           3
100
AcDbLine
 10
3910.89999683347
 20
1388.276241719796
 11
3907.899996341771
 21
1388.276241719796
  0
LINE
  5
23B
100
AcDbEntity
  8
0
  6
CONTINUOUS
 62
           3
100
AcDbLine
 10
3923.899997101558
 20
1388.276241719796
 11
3920.899996609861
 21
1388.276241719796
  0
LINE
  5
23A
100
AcDbEntity
  8
0
  6
CONTINUOUS
 62
           3
100
AcDbLine
 10
3918.399996665762
 20
1384.1999992729
 11
3920.899996609907
 21
1384.1999992729
  0
LINE
  5
239
100
AcDbEntity
  8
0
  6
CONTINUOUS
 62
           3
100
AcDbLine
 10
3910.899996833434
 20
1384.1999992729
 11
3913.399996777553
 21
1384.1999992729
  0
LINE
  5
238
100
AcDbEntity
  8
0
  6
CONTINUOUS
 62
           3
100
AcDbLine
 10
3920.899996609861
 20
1384.646579623302
 11
3920.899996609861
 21
1389.100000262195
  0
LINE
  5
237
100
AcDbEntity
  8
0
  6
CONTINUOUS
 62
           3
100
AcDbLine
 10
3910.89999683347
 20
1384.646579623302
 11
3910.89999683347
 21
1389.100000262195
  0
LINE
  5
236
100
AcDbEntity
  8
0
  6
CONTINUOUS
 62
           3
100
AcDbLine
 10
3910.89999683347
 20
1384.646579623302
 11
3913.399996777553
 21
1384.1999992729
  0
LINE
  5
235
100
AcDbEntity
  8
0
  6
CONTINUOUS
 62
           3
100
AcDbLine
 10
3915.89999672167
 20
1384.646579623295
 11
3915.899996721665
 21
1389.100000262195
  0
LINE
  5
234
100
AcDbEntity
  8
0
  6
CONTINUOUS
 62
           3
100
AcDbLine
 10
3913.399996777553
 20
1384.1999992729
 11
3918.399996665762
 21
1384.1999992729
  0
LINE
  5
233
100
AcDbEntity
  8
0
  6
CONTINUOUS
 62
           3
100
AcDbLine
 10
3915.89999672167
 20
1384.646579623295
 11
3918.399996665762
 21
1384.1999992729
  0
LINE
  5
232
100
AcDbEntity
  8
0
  6
CONTINUOUS
 62
           3
100
AcDbLine
 10
3912.399996613568
 20
1389.200001954996
 11
3919.399996829763
 21
1389.200001954996
  0
LINE
  5
231
100
AcDbEntity
  8
0
  6
CONTINUOUS
 62
           3
100
AcDbLine
 10
3912.399996613568
 20
1390.000000596097
 11
3919.399996829763
 21
1390.000000596097
  0
LINE
  5
230
100
AcDbEntity
  8
0
  6
CONTINUOUS
 62
           3
100
AcDbLine
 10
3919.399996829763
 20
1393.990144133492
 11
3912.399996613568
 21
1393.990144133492
  0
LINE
  5
22F
100
AcDbEntity
  8
0
  6
CONTINUOUS
 62
           3
100
AcDbLine
 10
3912.899996695568
 20
1392.246469855294
 11
3912.399996613568
 21
1392.246469855294
  0
LINE
  5
22E
100
AcDbEntity
  8
0
  6
CONTINUOUS
 62
           3
100
AcDbLine
 10
3919.399996829763
 20
1392.246469855294
 11
3918.899996747763
 21
1392.246469855294
  0
LINE
  5
22D
100
AcDbEntity
  8
0
  6
CONTINUOUS
 62
           3
100
AcDbLine
 10
3923.899997101558
 20
1394.799999892894
 11
3923.899997101558
 21
1389.200001954996
  0
LINE
  5
22C
100
AcDbEntity
  8
0
  6
CONTINUOUS
 62
           3
100
AcDbLine
 10
3907.899996341771
 20
1394.799999892894
 11
3907.899996341771
 21
1389.200001954996
  0
LINE
  5
22B
100
AcDbEntity
  8
0
  6
CONTINUOUS
 62
           3
100
AcDbLine
 10
3912.399996613568
 20
1389.200001954996
 11
3912.399996613568
 21
1394.799999892894
  0
LINE
  5
22A
100
AcDbEntity
  8
0
  6
CONTINUOUS
 62
           3
100
AcDbLine
 10
3919.399996829763
 20
1394.799999892894
 11
3919.399996829763
 21
1389.200001954996
  0
LINE
  5
229
100
AcDbEntity
  8
0
  6
CONTINUOUS
 62
           3
100
AcDbLine
 10
3912.399996613568
 20
1389.200001954996
 11
3907.899996341771
 21
1389.200001954996
  0
LINE
  5
228
100
AcDbEntity
  8
0
  6
CONTINUOUS
 62
           3
100
AcDbLine
 10
3912.399996613568
 20
1394.792847335491
 11
3919.399996829763
 21
1394.792847335491
  0
LINE
  5
227
100
AcDbEntity
  8
0
  6
CONTINUOUS
 62
           3
100
AcDbLine
 10
3923.899997101558
 20
1389.200001954996
 11
3919.399996829763
 21
1389.200001954996
  0
LINE
  5
226
100
AcDbEntity
  8
0
  6
CONTINUOUS
 62
           3
100
AcDbLine
 10
3917.899996816565
 20
1638.422653078993
 11
3913.899996626768
 21
1638.422653078993
  0
LINE
  5
225
100
AcDbEntity
  8
0
  6
CONTINUOUS
 62
           3
100
AcDbLine
 10
3912.899996695568
 20
1637.422651052293
 11
3918.899996747763
 21
1637.422651052293
  0
LINE
  5
224
100
AcDbEntity
  8
0
  6
CONTINUOUS
 62
           3
100
AcDbLine
 10
3861.899995321011
 20
1665.000006556369
 11
3865.899995976706
 21
1665.000006556369
  0
LINE
  5
223
100
AcDbEntity
  8
0
  6
CONTINUOUS
 62
           3
100
AcDbLine
 10
3865.899995976706
 20
1665.000006556369
 11
3869.899996632405
 21
1665.000006556369
  0
LINE
  5
222
100
AcDbEntity
  8
0
  6
CONTINUOUS
 62
           3
100
AcDbLine
 10
3911.569869687336
 20
1367.599993944256
 11
3910.89999683347
 21
1367.599993944114
  0
LINE
  5
221
100
AcDbEntity
  8
0
  6
CONTINUOUS
 62
           3
100
AcDbLine
 10
3920.899996609861
 20
1367.599993944114
 11
3920.230123756004
 21
1367.599993944256
  0
LINE
  5
220
100
AcDbEntity
  8
0
  6
CONTINUOUS
 62
           3
100
AcDbLine
 10
3911.569869687336
 20
1372.600004077041
 11
3910.89999683347
 21
1372.600004077009
  0
LINE
  5
21F
100
AcDbEntity
  8
0
  6
CONTINUOUS
 62
           3
100
AcDbLine
 10
3920.230123756004
 20
1367.599993944256
 11
3915.89999672167
 21
1367.599993944256
  0
LINE
  5
21E
100
AcDbEntity
  8
0
  6
CONTINUOUS
 62
           3
100
AcDbLine
 10
3915.89999672167
 20
1367.599993944256
 11
3911.569869687336
 21
1367.599993944256
  0
LINE
  5
21D
100
AcDbEntity
  8
0
  6
CONTINUOUS
 62
           3
100
AcDbLine
 10
3910.126493853969
 20
1372.153416276109
 11
3910.126493853969
 21
1368.046581745312
  0
LINE
  5
21C
100
AcDbEntity
  8
0
  6
CONTINUOUS
 62
           3
100
AcDbLine
 10
3910.126493853969
 20
1368.046581745312
 11
3911.569869687336
 21
1367.599993944256
  0
LINE
  5
21B
100
AcDbEntity
  8
0
  6
CONTINUOUS
 62
           3
100
AcDbLine
 10
3913.013245287838
 20
1372.153416276062
 11
3911.569869687336
 21
1372.600004077041
  0
LINE
  5
21A
100
AcDbEntity
  8
0
  6
CONTINUOUS
 62
           3
100
AcDbLine
 10
3918.786748155363
 20
1368.046581745312
 11
3920.230123756004
 21
1367.599993944256
  0
LINE
  5
219
100
AcDbEntity
  8
0
  6
CONTINUOUS
 62
           3
100
AcDbLine
 10
3921.673499589362
 20
1372.153416276109
 11
3921.673499589362
 21
1368.046581745312
  0
LINE
  5
218
100
AcDbEntity
  8
0
  6
CONTINUOUS
 62
           3
100
AcDbLine
 10
3921.673499589362
 20
1372.153416276109
 11
3920.230123756004
 21
1372.600004077041
  0
LINE
  5
217
100
AcDbEntity
  8
0
  6
CONTINUOUS
 62
           3
100
AcDbLine
 10
3913.013245287838
 20
1372.153416276062
 11
3913.013245287838
 21
1368.046581745235
  0
LINE
  5
216
100
AcDbEntity
  8
0
  6
CONTINUOUS
 62
           3
100
AcDbLine
 10
3918.786748155502
 20
1372.153416276062
 11
3918.786748155363
 21
1368.046581745312
  0
LINE
  5
215
100
AcDbEntity
  8
0
  6
CONTINUOUS
 62
           3
100
AcDbLine
 10
3920.899996609861
 20
1372.600004077009
 11
3920.230123756004
 21
1372.600004077041
  0
LINE
  5
214
100
AcDbEntity
  8
0
  6
CONTINUOUS
 62
           3
100
AcDbLine
 10
3920.899996609861
 20
1377.599999308604
 11
3920.230123756004
 21
1377.599999308666
  0
LINE
  5
213
100
AcDbEntity
  8
0
  6
CONTINUOUS
 62
           3
100
AcDbLine
 10
3911.569869687336
 20
1377.599999308666
 11
3910.89999683347
 21
1377.599999308604
  0
LINE
  5
212
100
AcDbEntity
  8
0
  6
CONTINUOUS
 62
           3
100
AcDbLine
 10
3915.89999672167
 20
1372.600004077041
 11
3911.569869687336
 21
1372.600004077041
  0
LINE
  5
211
100
AcDbEntity
  8
0
  6
CONTINUOUS
 62
           3
100
AcDbLine
 10
3920.230123756004
 20
1372.600004077041
 11
3915.89999672167
 21
1372.600004077041
  0
LINE
  5
210
100
AcDbEntity
  8
0
  6
CONTINUOUS
 62
           3
100
AcDbLine
 10
3915.89999672167
 20
1377.599999308666
 11
3911.569869687336
 21
1377.599999308666
  0
LINE
  5
20F
100
AcDbEntity
  8
0
  6
CONTINUOUS
 62
           3
100
AcDbLine
 10
3910.126493853969
 20
1377.153418958205
 11
3910.126493853969
 21
1373.046576976911
  0
LINE
  5
20E
100
AcDbEntity
  8
0
  6
CONTINUOUS
 62
           3
100
AcDbLine
 10
3910.126493853969
 20
1373.046576976911
 11
3911.569869687336
 21
1372.600004077041
  0
LINE
  5
20D
100
AcDbEntity
  8
0
  6
CONTINUOUS
 62
           3
100
AcDbLine
 10
3913.013245287838
 20
1377.153418958267
 11
3911.569869687336
 21
1377.599999308666
  0
LINE
  5
20C
100
AcDbEntity
  8
0
  6
CONTINUOUS
 62
           3
100
AcDbLine
 10
3920.230123756004
 20
1377.599999308666
 11
3915.89999672167
 21
1377.599999308666
  0
LINE
  5
20B
100
AcDbEntity
  8
0
  6
CONTINUOUS
 62
           3
100
AcDbLine
 10
3918.786748155363
 20
1373.046576976911
 11
3920.230123756004
 21
1372.600004077041
  0
LINE
  5
20A
100
AcDbEntity
  8
0
  6
CONTINUOUS
 62
           3
100
AcDbLine
 10
3921.673499589362
 20
1377.153418958205
 11
3921.673499589362
 21
1373.046576976911
  0
LINE
  5
209
100
AcDbEntity
  8
0
  6
CONTINUOUS
 62
           3
100
AcDbLine
 10
3921.673499589362
 20
1377.153418958205
 11
3920.230123756004
 21
1377.599999308666
  0
LINE
  5
208
100
AcDbEntity
  8
0
  6
CONTINUOUS
 62
           3
100
AcDbLine
 10
3913.013245287838
 20
1377.153418958267
 11
3913.013245287838
 21
1373.04657697686
  0
LINE
  5
207
100
AcDbEntity
  8
0
  6
CONTINUOUS
 62
           3
100
AcDbLine
 10
3918.786748155502
 20
1377.153418958267
 11
3918.786748155363
 21
1373.046576976911
  0
LINE
  5
206
100
AcDbEntity
  8
0
  6
CONTINUOUS
 62
           3
100
AcDbLine
 10
3910.126493853969
 20
1364.553421735916
 11
3910.126493853969
 21
1360.446587205122
  0
LINE
  5
205
100
AcDbEntity
  8
0
  6
CONTINUOUS
 62
           3
100
AcDbLine
 10
3910.126493853969
 20
1360.446587205122
 11
3911.569869687336
 21
1359.999999404048
  0
LINE
  5
204
100
AcDbEntity
  8
0
  6
CONTINUOUS
 62
           3
100
AcDbLine
 10
3913.013245287838
 20
1364.553421735858
 11
3911.569869687336
 21
1364.999994635673
  0
LINE
  5
203
100
AcDbEntity
  8
0
  6
CONTINUOUS
 62
           3
100
AcDbLine
 10
3918.786748155363
 20
1360.446587205122
 11
3920.230123755962
 21
1359.999999403921
  0
LINE
  5
202
100
AcDbEntity
  8
0
  6
CONTINUOUS
 62
           3
100
AcDbLine
 10
3921.673499589362
 20
1364.553421735916
 11
3921.673499589362
 21
1360.446587205122
  0
LINE
  5
201
100
AcDbEntity
  8
0
  6
CONTINUOUS
 62
           3
100
AcDbLine
 10
3921.673499589362
 20
1364.553421735916
 11
3920.230123756004
 21
1364.999994635673
  0
LINE
  5
200
100
AcDbEntity
  8
0
  6
CONTINUOUS
 62
           3
100
AcDbLine
 10
3913.013245287838
 20
1364.553421735858
 11
3913.013245287838
 21
1360.446587205024
  0
LINE
  5
1FF
100
AcDbEntity
  8
0
  6
CONTINUOUS
 62
           3
100
AcDbLine
 10
3918.786748155502
 20
1364.553421735858
 11
3918.786748155363
 21
1360.446587205122
  0
LINE
  5
1FE
100
AcDbEntity
  8
0
  6
CONTINUOUS
 62
           3
100
AcDbLine
 10
3910.89999683347
 20
1359.999999403921
 11
3911.569869687336
 21
1359.999999404048
  0
LINE
  5
1FD
100
AcDbEntity
  8
0
  6
CONTINUOUS
 62
           3
100
AcDbLine
 10
3920.899996609861
 20
1355.000004172322
 11
3920.230123756004
 21
1355.00000417242
  0
LINE
  5
1FC
100
AcDbEntity
  8
0
  6
CONTINUOUS
 62
           3
100
AcDbLine
 10
3910.89999683347
 20
1355.000004172322
 11
3911.569869687336
 21
1355.00000417242
  0
LINE
  5
1FB
100
AcDbEntity
  8
0
  6
CONTINUOUS
 62
           3
100
AcDbLine
 10
3921.673499589362
 20
1355.446577072224
 11
3920.230123756004
 21
1355.00000417242
  0
LINE
  5
1FA
100
AcDbEntity
  8
0
  6
CONTINUOUS
 62
           3
100
AcDbLine
 10
3921.673499589362
 20
1355.446577072224
 11
3921.673499589362
 21
1359.553411603021
  0
LINE
  5
1F9
100
AcDbEntity
  8
0
  6
CONTINUOUS
 62
           3
100
AcDbLine
 10
3910.126493853969
 20
1355.446577072224
 11
3910.126493853969
 21
1359.553411603021
  0
LINE
  5
1F8
100
AcDbEntity
  8
0
  6
CONTINUOUS
 62
           3
100
AcDbLine
 10
3915.89999672167
 20
1359.999999404048
 11
3920.230123755962
 21
1359.999999403921
  0
LINE
  5
1F7
100
AcDbEntity
  8
0
  6
CONTINUOUS
 62
           3
100
AcDbLine
 10
3918.786748155502
 20
1359.553411603069
 11
3920.230123755962
 21
1359.999999403921
  0
LINE
  5
1F6
100
AcDbEntity
  8
0
  6
CONTINUOUS
 62
           3
100
AcDbLine
 10
3911.569869687336
 20
1359.999999404048
 11
3915.89999672167
 21
1359.999999404048
  0
LINE
  5
1F5
100
AcDbEntity
  8
0
  6
CONTINUOUS
 62
           3
100
AcDbLine
 10
3911.569869687336
 20
1355.00000417242
 11
3915.899996721665
 21
1355.000004172322
  0
LINE
  5
1F4
100
AcDbEntity
  8
0
  6
CONTINUOUS
 62
           3
100
AcDbLine
 10
3915.899996721665
 20
1355.000004172322
 11
3920.230123756004
 21
1355.00000417242
  0
LINE
  5
1F3
100
AcDbEntity
  8
0
  6
CONTINUOUS
 62
           3
100
AcDbLine
 10
3913.013245287967
 20
1359.553411603021
 11
3915.89999672167
 21
1359.999999404048
  0
LINE
  5
1F2
100
AcDbEntity
  8
0
  6
CONTINUOUS
 62
           3
100
AcDbLine
 10
3913.013245287838
 20
1355.446577072242
 11
3913.013245287967
 21
1359.553411603021
  0
LINE
  5
1F1
100
AcDbEntity
  8
0
  6
CONTINUOUS
 62
           3
100
AcDbLine
 10
3918.786748155363
 20
1355.446577072224
 11
3915.899996721665
 21
1355.000004172322
  0
LINE
  5
1F0
100
AcDbEntity
  8
0
  6
CONTINUOUS
 62
           3
100
AcDbLine
 10
3918.786748155363
 20
1355.446577072224
 11
3918.786748155502
 21
1359.553411603069
  0
LINE
  5
1EF
100
AcDbEntity
  8
0
  6
CONTINUOUS
 62
           3
100
AcDbLine
 10
3972.899996751319
 20
1393.799997866194
 11
3972.899996751319
 21
1543.800000101368
  0
LINE
  5
1EE
100
AcDbEntity
  8
0
  6
CONTINUOUS
 62
           3
100
AcDbLine
 10
3861.899995321011
 20
1543.800000101368
 11
3858.899996692012
 21
1543.800000101368
  0
LINE
  5
1ED
100
AcDbEntity
  8
0
  6
CONTINUOUS
 62
           3
100
AcDbLine
 10
3912.899996695568
 20
1543.800000101368
 11
3869.899996632405
 21
1543.800000101368
  0
LINE
  5
1EC
100
AcDbEntity
  8
0
  6
CONTINUOUS
 62
           3
100
AcDbLine
 10
3961.899996810927
 20
1543.800000101368
 11
3918.899996747763
 21
1543.800000101368
  0
LINE
  5
1EB
100
AcDbEntity
  8
0
  6
CONTINUOUS
 62
           3
100
AcDbLine
 10
3972.899996751319
 20
1543.800000101368
 11
3969.899998122322
 21
1543.800000101368
  0
LINE
  5
1EA
100
AcDbEntity
  8
0
  6
CONTINUOUS
 62
           3
100
AcDbLine
 10
3858.899996692012
 20
1543.800000101368
 11
3858.899996692012
 21
1393.799997866194
  0
LINE
  5
1E9
100
AcDbEntity
  8
0
  6
CONTINUOUS
 62
           3
100
AcDbLine
 10
3969.899998122322
 20
1393.799997866194
 11
3972.899996751319
 21
1393.799997866194
  0
LINE
  5
1E8
100
AcDbEntity
  8
0
  6
CONTINUOUS
 62
           3
100
AcDbLine
 10
3923.899997101558
 20
1393.799997866194
 11
3961.899996810927
 21
1393.799997866194
  0
LINE
  5
1E7
100
AcDbEntity
  8
0
  6
CONTINUOUS
 62
           3
100
AcDbLine
 10
3869.899996632405
 20
1393.799997866194
 11
3907.899996341771
 21
1393.799997866194
  0
LINE
  5
1E6
100
AcDbEntity
  8
0
  6
CONTINUOUS
 62
           3
100
AcDbLine
 10
3858.899996692012
 20
1393.799997866194
 11
3861.899995321011
 21
1393.799997866194
  0
LINE
  5
1E5
100
AcDbEntity
  8
0
  6
CONTINUOUS
 62
           3
100
AcDbLine
 10
3909.42649402987
 20
1389.099999999995
 11
3922.373499413461
 21
1389.099999999995
  0
LINE
  5
1E4
100
AcDbEntity
  8
0
  6
CONTINUOUS
 62
           3
100
AcDbLine
 10
3923.899997101558
 20
1394.799999892894
 11
3919.399996829763
 21
1394.799999892894
  0
LINE
  5
1E3
100
AcDbEntity
  8
0
  6
CONTINUOUS
 62
           3
100
AcDbLine
 10
3912.399996613568
 20
1394.799999892894
 11
3907.899996341771
 21
1394.799999892894
  0
LINE
  5
1E2
100
AcDbEntity
  8
0
  6
CONTINUOUS
 62
           3
100
AcDbLine
 10
3913.899996626768
 20
1638.422653078993
 11
3912.899996695568
 21
1637.422651052293
  0
LINE
  5
1E1
100
AcDbEntity
  8
0
  6
CONTINUOUS
 62
           3
100
AcDbLine
 10
3918.899996747763
 20
1637.422651052293
 11
3917.899996816565
 21
1638.422653078993
  0
LINE
  5
1E0
100
AcDbEntity
  8
0
  6
CONTINUOUS
 62
           3
100
AcDbLine
 10
3912.899996695568
 20
1367.599993944114
 11
3912.899996695568
 21
1366.600006818713
  0
LINE
  5
1DF
100
AcDbEntity
  8
0
  6
CONTINUOUS
 62
           3
100
AcDbLine
 10
3912.899996695568
 20
1384.1999992729
 11
3912.899996695568
 21
1377.599999308604
  0
LINE
  5
1DE
100
AcDbEntity
  8
0
  6
CONTINUOUS
 62
           3
100
AcDbLine
 10
3912.899996695568
 20
1392.957426607594
 11
3912.899996695568
 21
1390.000000596097
  0
LINE
  5
1DD
100
AcDbEntity
  8
0
  6
CONTINUOUS
 62
           3
100
AcDbLine
 10
3912.899996695568
 20
1633.399993180996
 11
3912.899996695568
 21
1394.792847335491
  0
LINE
  5
1DC
100
AcDbEntity
  8
0
  6
CONTINUOUS
 62
           3
100
AcDbLine
 10
3912.899996695568
 20
1637.422651052293
 11
3912.899996695568
 21
1635.000005364196
  0
LINE
  5
1DB
100
AcDbEntity
  8
0
  6
CONTINUOUS
 62
           3
100
AcDbLine
 10
3918.899996747763
 20
1635.000005364196
 11
3918.899996747763
 21
1637.422651052293
  0
LINE
  5
1DA
100
AcDbEntity
  8
0
  6
CONTINUOUS
 62
           3
100
AcDbLine
 10
3918.899996747763
 20
1394.792847335491
 11
3918.899996747763
 21
1633.399993180996
  0
LINE
  5
1D9
100
AcDbEntity
  8
0
  6
CONTINUOUS
 62
           3
100
AcDbLine
 10
3918.899996747763
 20
1390.000000596097
 11
3918.899996747763
 21
1392.957426607594
  0
LINE
  5
1D8
100
AcDbEntity
  8
0
  6
CONTINUOUS
 62
           3
100
AcDbLine
 10
3918.899996747763
 20
1377.599999308604
 11
3918.899996747763
 21
1384.1999992729
  0
LINE
  5
1D7
100
AcDbEntity
  8
0
  6
CONTINUOUS
 62
           3
100
AcDbLine
 10
3918.899996747763
 20
1366.600006818713
 11
3918.899996747763
 21
1367.599993944114
  0
LINE
  5
1D6
100
AcDbEntity
  8
0
  6
CONTINUOUS
 62
           3
100
AcDbLine
 10
3869.899996632405
 20
1635.000005364196
 11
3869.899996632405
 21
1665.000006556369
  0
LINE
  5
1D5
100
AcDbEntity
  8
0
  6
CONTINUOUS
 62
           3
100
AcDbLine
 10
3869.899996632405
 20
1550.000000744964
 11
3869.899996632405
 21
1633.399993180996
  0
LINE
  5
1D4
100
AcDbEntity
  8
0
  6
CONTINUOUS
 62
           3
100
AcDbLine
 10
3869.899996632405
 20
1391.199998557593
 11
3869.899996632405
 21
1548.799999058065
  0
LINE
  5
1D3
100
AcDbEntity
  8
0
  6
CONTINUOUS
 62
           3
100
AcDbLine
 10
3869.899996632405
 20
1366.600006818713
 11
3869.899996632405
 21
1390.000000596097
  0
LINE
  5
1D2
100
AcDbEntity
  8
0
  6
CONTINUOUS
 62
           3
100
AcDbLine
 10
3861.899995321011
 20
1364.999994635815
 11
3861.899995321011
 21
1314.999997615956
  0
LINE
  5
1D1
100
AcDbEntity
  8
0
  6
CONTINUOUS
 62
           3
100
AcDbLine
 10
3861.899995321011
 20
1390.000000596097
 11
3861.899995321011
 21
1366.600006818713
  0
LINE
  5
1D0
100
AcDbEntity
  8
0
  6
CONTINUOUS
 62
           3
100
AcDbLine
 10
3861.899995321011
 20
1548.799999058065
 11
3861.899995321011
 21
1391.199998557593
  0
LINE
  5
1CF
100
AcDbEntity
  8
0
  6
CONTINUOUS
 62
           3
100
AcDbLine
 10
3861.899995321011
 20
1633.399993180996
 11
3861.899995321011
 21
1550.000000744964
  0
LINE
  5
1CE
100
AcDbEntity
  8
0
  6
CONTINUOUS
 62
           3
100
AcDbLine
 10
3861.899995321011
 20
1665.000006556369
 11
3861.899995321011
 21
1635.000005364196
  0
LINE
  5
1CD
100
AcDbEntity
  8
0
  6
CONTINUOUS
 62
           3
100
AcDbLine
 10
3969.899998122322
 20
1635.000005364196
 11
3969.899998122322
 21
1641.000000000001
  0
LINE
  5
1CC
100
AcDbEntity
  8
0
  6
CONTINUOUS
 62
           3
100
AcDbLine
 10
3969.899998122322
 20
1550.000000744964
 11
3969.899998122322
 21
1633.399993180996
  0
LINE
  5
1CB
100
AcDbEntity
  8
0
  6
CONTINUOUS
 62
           3
100
AcDbLine
 10
3969.899998122322
 20
1391.199998557593
 11
3969.899998122322
 21
1548.799999058065
  0
LINE
  5
1CA
100
AcDbEntity
  8
0
  6
CONTINUOUS
 62
           3
100
AcDbLine
 10
3969.899998122322
 20
1366.600006818713
 11
3969.899998122322
 21
1390.000000596097
  0
LINE
  5
1C9
100
AcDbEntity
  8
0
  6
CONTINUOUS
 62
           3
100
AcDbLine
 10
3969.899998122322
 20
1314.999997615956
 11
3969.899998122322
 21
1364.999994635815
  0
LINE
  5
1C8
100
AcDbEntity
  8
0
  6
CONTINUOUS
 62
           3
100
AcDbLine
 10
3961.899996810927
 20
1364.999994635815
 11
3961.899996810927
 21
1314.999997615956
  0
LINE
  5
1C7
100
AcDbEntity
  8
0
  6
CONTINUOUS
 62
           3
100
AcDbLine
 10
3961.899996810927
 20
1390.000000596097
 11
3961.899996810927
 21
1366.600006818713
  0
LINE
  5
1C6
100
AcDbEntity
  8
0
  6
CONTINUOUS
 62
           3
100
AcDbLine
 10
3961.899996810927
 20
1548.799999058065
 11
3961.899996810927
 21
1391.199998557593
  0
LINE
  5
1C5
100
AcDbEntity
  8
0
  6
CONTINUOUS
 62
           3
100
AcDbLine
 10
3961.899996810927
 20
1633.399993180996
 11
3961.899996810927
 21
1550.000000744964
  0
LINE
  5
1C4
100
AcDbEntity
  8
0
  6
CONTINUOUS
 62
           3
100
AcDbLine
 10
3961.899996810927
 20
1641.0
 11
3961.899996810927
 21
1635.000005364196
  0
LINE
  5
1C3
100
AcDbEntity
  8
0
  6
CONTINUOUS
 62
           3
100
AcDbLine
 10
3910.126493853969
 20
1368.046581745312
 11
3910.89999683347
 21
1367.599993944114
  0
LINE
  5
1C2
100
AcDbEntity
  8
0
  6
CONTINUOUS
 62
           3
100
AcDbLine
 10
3920.899996609861
 20
1367.599993944114
 11
3921.673499589362
 21
1368.046581745312
  0
LINE
  5
1C1
100
AcDbEntity
  8
0
  6
CONTINUOUS
 62
           3
100
AcDbLine
 10
3921.673499589362
 20
1372.153416276109
 11
3920.899996609861
 21
1372.600004077009
  0
LINE
  5
1C0
100
AcDbEntity
  8
0
  6
CONTINUOUS
 62
           3
100
AcDbLine
 10
3910.89999683347
 20
1372.600004077009
 11
3910.126493853969
 21
1372.153416276109
  0
LINE
  5
1BF
100
AcDbEntity
  8
0
  6
CONTINUOUS
 62
           3
100
AcDbLine
 10
3910.126493853969
 20
1373.046576976911
 11
3910.89999683347
 21
1372.600004077009
  0
LINE
  5
1BE
100
AcDbEntity
  8
0
  6
CONTINUOUS
 62
           3
100
AcDbLine
 10
3920.899996609861
 20
1372.600004077009
 11
3921.673499589362
 21
1373.046576976911
  0
LINE
  5
1BD
100
AcDbEntity
  8
0
  6
CONTINUOUS
 62
           3
100
AcDbLine
 10
3921.673499589362
 20
1377.153418958205
 11
3920.899996609861
 21
1377.599999308604
  0
LINE
  5
1BC
100
AcDbEntity
  8
0
  6
CONTINUOUS
 62
           3
100
AcDbLine
 10
3910.89999683347
 20
1377.599999308604
 11
3910.126493853969
 21
1377.153418958205
  0
LINE
  5
1BB
100
AcDbEntity
  8
0
  6
CONTINUOUS
 62
           3
100
AcDbLine
 10
3910.126493853969
 20
1360.446587205122
 11
3910.89999683347
 21
1359.999999403921
  0
LINE
  5
1BA
100
AcDbEntity
  8
0
  6
CONTINUOUS
 62
           3
100
AcDbLine
 10
3920.899996609861
 20
1359.999999403921
 11
3921.673499589362
 21
1360.446587205122
  0
LINE
  5
1B9
100
AcDbEntity
  8
0
  6
CONTINUOUS
 62
           3
100
AcDbLine
 10
3921.673499589362
 20
1364.553421735916
 11
3920.899996609861
 21
1364.999994635815
  0
LINE
  5
1B8
100
AcDbEntity
  8
0
  6
CONTINUOUS
 62
           3
100
AcDbLine
 10
3910.89999683347
 20
1364.999994635815
 11
3910.126493853969
 21
1364.553421735916
  0
LINE
  5
1B7
100
AcDbEntity
  8
0
  6
CONTINUOUS
 62
           3
100
AcDbLine
 10
3921.673499589362
 20
1359.553411603021
 11
3920.899996609861
 21
1359.999999403921
  0
LINE
  5
1B6
100
AcDbEntity
  8
0
  6
CONTINUOUS
 62
           3
100
AcDbLine
 10
3910.89999683347
 20
1359.999999403921
 11
3910.126493853969
 21
1359.553411603021
  0
LINE
  5
1B5
100
AcDbEntity
  8
0
  6
CONTINUOUS
 62
           3
100
AcDbLine
 10
3920.899996609861
 20
1355.000004172322
 11
3921.673499589362
 21
1355.446577072224
  0
LINE
  5
1B4
100
AcDbEntity
  8
0
  6
CONTINUOUS
 62
           3
100
AcDbLine
 10
3910.126493853969
 20
1355.446577072224
 11
3910.89999683347
 21
1355.000004172322
  0
LINE
  5
1B3
100
AcDbEntity
  8
0
  6
CONTINUOUS
 62
           3
100
AcDbLine
 10
3869.899996632405
 20
1314.999997615956
 11
3869.899996632405
 21
1364.999994635815
  0
LINE
  5
1B2
100
AcDbEntity
  8
1
  6
CONTINUOUS
 62
           3
100
AcDbLine
 10
4397.499999999998
 20
1929.0
 11
4249.899996810927
 21
1929.0
  0
LINE
  5
1B1
100
AcDbEntity
  8
1
  6
CONTINUOUS
 62
           3
100
AcDbLine
 10
4397.499999999998
 20
1921.000000000001
 11
4249.899998122322
 21
1921.000000000001
  0
LINE
  5
1B0
100
AcDbEntity
  8
1
  6
CONTINUOUS
 62
           3
100
AcDbLine
 10
514.395796321874
 20
1294.328109327063
 11
512.007850321893
 21
1267.070985327062
  0
LINE
  5
1AF
100
AcDbEntity
  8
1
  6
CONTINUOUS
 62
           3
100
AcDbLine
 10
512.007850321893
 20
1323.330711327063
 11
514.395796321874
 21
1296.073587327063
  0
LINE
  5
1AE
100
AcDbEntity
  8
1
  6
CONTINUOUS
 62
           3
100
AcDbLine
 10
502.548714321873
 20
1294.328109327063
 11
504.936660321884
 21
1267.070985327062
  0
LINE
  5
1AD
100
AcDbEntity
  8
1
  6
CONTINUOUS
 62
           3
100
AcDbLine
 10
504.936660321884
 20
1323.330711327063
 11
502.548714321873
 21
1296.073587327063
  0
LINE
  5
1AC
100
AcDbEntity
  8
1
  6
DOT_CENTER
 62
           3
100
AcDbLine
 10
553.472255321877
 20
1295.200848327053
 11
463.474800321873
 21
1295.200848327053
  0
LINE
  5
1AB
100
AcDbEntity
  8
1
  6
DOT_CENTER
 62
           3
100
AcDbLine
 10
508.472255321878
 20
1340.200848327053
 11
508.472255321878
 21
1250.202277327053
  0
LINE
  5
1AA
100
AcDbEntity
  8
1
  6
CONTINUOUS
 62
           7
100
AcDbLine
 10
-487.5
 20
2150.0
 11
-487.5
 21
2155.683280999348
  0
LINE
  5
1A9
100
AcDbEntity
  8
1
  6
CONTINUOUS
 62
           7
100
AcDbLine
 10
-412.5
 20
2150.0
 11
-412.5
 21
2155.683280999348
  0
LINE
  5
1A8
100
AcDbEntity
  8
1
  6
CONTINUOUS
 62
           7
100
AcDbLine
 10
-387.5
 20
2171.0
 11
-387.5
 21
2150.0
  0
LINE
  5
1A7
100
AcDbEntity
  8
1
  6
CONTINUOUS
 62
           7
100
AcDbLine
 10
-616.0
 20
3843.0
 11
-616.0
 21
4095.000000000001
  0
LINE
  5
1A6
100
AcDbEntity
  8
1
  6
CONTINUOUS
 62
           7
100
AcDbLine
 10
616.0
 20
3843.0
 11
-616.0
 21
3843.0
  0
LINE
  5
1A5
100
AcDbEntity
  8
1
  6
CONTINUOUS
 62
           7
100
AcDbLine
 10
616.0
 20
4095.000000000001
 11
616.0
 21
3843.0
  0
LINE
  5
1A4
100
AcDbEntity
  8
1
  6
CONTINUOUS
 62
           7
100
AcDbLine
 10
-616.0
 20
4095.000000000001
 11
616.0
 21
4095.000000000001
  0
LINE
  5
1A3
100
AcDbEntity
  8
1
  6
CONTINUOUS
 62
           7
100
AcDbLine
 10
-666.0
 20
3793.0
 11
-666.0
 21
4145.000000000001
  0
LINE
  5
1A2
100
AcDbEntity
  8
1
  6
CONTINUOUS
 62
           7
100
AcDbLine
 10
666.0
 20
3793.0
 11
-666.0
 21
3793.0
  0
LINE
  5
1A1
100
AcDbEntity
  8
1
  6
CONTINUOUS
 62
           7
100
AcDbLine
 10
666.0
 20
4145.000000000001
 11
666.0
 21
3793.0
  0
LINE
  5
1A0
100
AcDbEntity
  8
1
  6
CONTINUOUS
 62
           7
100
AcDbLine
 10
-666.0
 20
4145.000000000001
 11
666.0
 21
4145.000000000001
  0
LINE
  5
19F
100
AcDbEntity
  8
1
  6
DOT_CENTER
 62
           2
100
AcDbLine
 10
0.0
 20
-75.734147716068
 11
0.0
 21
2951.543537887943
  0
LINE
  5
19E
100
AcDbEntity
  8
1
  6
CONTINUOUS
 62
           7
100
AcDbLine
 10
3240.0
 20
1862.0
 11
3240.0
 21
1950.0
  0
LINE
  5
19D
100
AcDbEntity
  8
1
  6
CONTINUOUS
 62
           7
100
AcDbLine
 10
3050.0
 20
1862.0
 11
3240.0
 21
1862.0
  0
LINE
  5
19C
100
AcDbEntity
  8
1
  6
CONTINUOUS
 62
           7
100
AcDbLine
 10
3050.0
 20
1950.0
 11
3050.0
 21
1862.0
  0
LINE
  5
19B
100
AcDbEntity
  8
1
  6
CONTINUOUS
 62
           7
100
AcDbLine
 10
3240.0
 20
1950.0
 11
3050.0
 21
1950.0
  0
LINE
  5
19A
100
AcDbEntity
  8
1
  6
CONTINUOUS
 62
           7
100
AcDbLine
 10
3730.0
 20
1330.0
 11
3550.0
 21
1330.0
  0
LINE
  5
199
100
AcDbEntity
  8
1
  6
CONTINUOUS
 62
           7
100
AcDbLine
 10
3550.0
 20
1570.0
 11
3730.0
 21
1570.0
  0
LINE
  5
198
100
AcDbEntity
  8
1
  6
CONTINUOUS
 62
           7
100
AcDbLine
 10
3550.0
 20
1330.0
 11
3550.0
 21
1570.0
  0
LINE
  5
197
100
AcDbEntity
  8
1
  6
CONTINUOUS
 62
           7
100
AcDbLine
 10
3730.0
 20
1570.0
 11
3730.0
 21
1330.0
  0
LINE
  5
196
100
AcDbEntity
  8
1
  6
CONTINUOUS
 62
           7
100
AcDbLine
 10
1300.0
 20
0.0
 11
-1300.0
 21
0.0
  0
LINE
  5
195
100
AcDbEntity
  8
1
  6
CONTINUOUS
 62
           7
100
AcDbLine
 10
5499.999999999996
 20
0.0
 11
2499.999999999999
 21
0.0
  0
LINE
  5
194
100
AcDbEntity
  8
1
  6
CONTINUOUS
 62
           2
100
AcDbLine
 10
4979.999999999998
 20
1980.0
 11
4020.0
 21
1980.0
  0
LINE
  5
193
100
AcDbEntity
  8
1
  6
CONTINUOUS
 62
           2
100
AcDbLine
 10
4979.999999999998
 20
520.0
 11
4979.999999999998
 21
1980.0
  0
LINE
  5
192
100
AcDbEntity
  8
1
  6
CONTINUOUS
 62
           2
100
AcDbLine
 10
4020.0
 20
520.0
 11
4979.999999999998
 21
520.0
  0
LINE
  5
191
100
AcDbEntity
  8
1
  6
CONTINUOUS
 62
           2
100
AcDbLine
 10
3520.0
 20
520.0
 11
3980.0
 21
520.0
  0
LINE
  5
190
100
AcDbEntity
  8
1
  6
CONTINUOUS
 62
           2
100
AcDbLine
 10
3520.0
 20
1980.0
 11
3520.0
 21
520.0
  0
LINE
  5
18F
100
AcDbEntity
  8
1
  6
CONTINUOUS
 62
           2
100
AcDbLine
 10
3980.0
 20
1980.0
 11
3520.0
 21
1980.0
  0
LINE
  5
18E
100
AcDbEntity
  8
1
  6
CONTINUOUS
 62
           2
100
AcDbLine
 10
4979.433325304561
 20
20.0
 11
4979.433325304561
 21
479.385061529882
  0
LINE
  5
18D
100
AcDbEntity
  8
1
  6
CONTINUOUS
 62
           2
100
AcDbLine
 10
3520.0
 20
20.0
 11
4979.433325304561
 21
20.0
  0
LINE
  5
18C
100
AcDbEntity
  8
1
  6
CONTINUOUS
 62
           2
100
AcDbLine
 10
3520.0
 20
479.385061529882
 11
3520.0
 21
20.0
  0
LINE
  5
18B
100
AcDbEntity
  8
1
  6
CONTINUOUS
 62
           2
100
AcDbLine
 10
4979.433325304561
 20
479.385061529882
 11
3520.0
 21
479.385061529882
  0
LINE
  5
18A
100
AcDbEntity
  8
1
  6
CONTINUOUS
 62
           7
100
AcDbLine
 10
3500.0
 20
500.0
 11
4999.999999999998
 21
500.0
  0
LINE
  5
189
100
AcDbEntity
  8
1
  6
CONTINUOUS
 62
           7
100
AcDbLine
 10
3500.0
 20
0.0
 11
3500.0
 21
2000.0
  0
LINE
  5
188
100
AcDbEntity
  8
1
  6
CONTINUOUS
 62
           2
100
AcDbLine
 10
3020.0
 20
1980.0
 11
3020.0
 21
1670.0
  0
LINE
  5
187
100
AcDbEntity
  8
1
  6
CONTINUOUS
 62
           2
100
AcDbLine
 10
3480.0
 20
1980.0
 11
3020.0
 21
1980.0
  0
LINE
  5
186
100
AcDbEntity
  8
1
  6
CONTINUOUS
 62
           2
100
AcDbLine
 10
3480.0
 20
20.0
 11
3480.0
 21
1330.0
  0
LINE
  5
185
100
AcDbEntity
  8
1
  6
CONTINUOUS
 62
           2
100
AcDbLine
 10
3020.0
 20
20.0
 11
3480.0
 21
20.0
  0
LINE
  5
184
100
AcDbEntity
  8
1
  6
CONTINUOUS
 62
           7
100
AcDbLine
 10
-800.0
 20
3719.0
 11
800.0
 21
3719.0
  0
LINE
  5
183
100
AcDbEntity
  8
1
  6
CONTINUOUS
 62
           2
100
AcDbLine
 10
-730.0
 20
4699.0
 11
-730.0
 21
3739.0
  0
LINE
  5
182
100
AcDbEntity
  8
1
  6
CONTINUOUS
 62
           7
100
AcDbLine
 10
-750.0
 20
3719.0
 11
-750.0
 21
4719.0
  0
LINE
  5
181
100
AcDbEntity
  8
1
  6
CONTINUOUS
 62
           7
100
AcDbLine
 10
750.0
 20
3719.0
 11
750.0
 21
4719.0
  0
LINE
  5
180
100
AcDbEntity
  8
1
  6
CONTINUOUS
 62
           7
100
AcDbLine
 10
500.0
 20
4719.0
 11
500.0
 21
5718.999999999999
  0
LINE
  5
17F
100
AcDbEntity
  8
1
  6
CONTINUOUS
 62
           2
100
AcDbLine
 10
520.0
 20
5698.999999999999
 11
520.0
 21
4739.0
  0
LINE
  5
17E
100
AcDbEntity
  8
1
  6
CONTINUOUS
 62
           2
100
AcDbLine
 10
-780.0
 20
4739.0
 11
-780.0
 21
5698.999999999999
  0
LINE
  5
17D
100
AcDbEntity
  8
1
  6
CONTINUOUS
 62
           7
100
AcDbLine
 10
800.0
 20
2000.0
 11
-800.0
 21
2000.0
  0
LINE
  5
17C
100
AcDbEntity
  8
1
  6
CONTINUOUS
 62
           7
100
AcDbLine
 10
3000.0
 20
0.0
 11
3000.0
 21
2050.0
  0
LINE
  5
17B
100
AcDbEntity
  8
1
  6
CONTINUOUS
 62
           7
100
AcDbLine
 10
4999.999999999998
 20
0.0
 11
4999.999999999998
 21
2075.0
  0
LINE
  5
17A
100
AcDbEntity
  8
1
  6
CONTINUOUS
 62
           7
100
AcDbLine
 10
4999.999999999998
 20
2000.0
 11
3000.0
 21
2000.0
  0
LINE
  5
179
100
AcDbEntity
  8
1
  6
CONTINUOUS
 62
           2
100
AcDbLine
 10
3000.0
 20
2004.0
 11
4000.0
 21
2004.0
  0
LINE
  5
178
100
AcDbEntity
  8
1
  6
CONTINUOUS
 62
           7
100
AcDbLine
 10
3000.0
 20
2050.0
 11
4999.999999999998
 21
2050.0
  0
LINE
  5
177
100
AcDbEntity
  8
1
  6
CONTINUOUS
 62
           7
100
AcDbLine
 10
4000.0
 20
2075.0
 11
4999.999999999998
 21
2075.0
  0
LINE
  5
176
100
AcDbEntity
  8
1
  6
CONTINUOUS
 62
           7
100
AcDbLine
 10
-750.0
 20
0.0
 11
-750.0
 21
2000.0
  0
LINE
  5
175
100
AcDbEntity
  8
1
  6
CONTINUOUS
 62
           7
100
AcDbLine
 10
750.0
 20
1900.0
 11
-750.0
 21
1900.0
  0
LINE
  5
174
100
AcDbEntity
  8
1
  6
CONTINUOUS
 62
           7
100
AcDbLine
 10
750.0
 20
50.0
 11
-750.0
 21
50.0
  0
LINE
  5
173
100
AcDbEntity
  8
1
  6
CONTINUOUS
 62
           7
100
AcDbLine
 10
-750.0
 20
400.0
 11
750.0
 21
400.0
  0
LINE
  5
172
100
AcDbEntity
  8
1
  6
CONTINUOUS
 62
           7
100
AcDbLine
 10
735.0
 20
540.0
 11
735.0
 21
475.000000000001
  0
LINE
  5
171
100
AcDbEntity
  8
1
  6
CONTINUOUS
 62
           7
100
AcDbLine
 10
-750.0
 20
513.85332266763
 11
-750.0
 21
572.607085651512
  0
LINE
  5
170
100
AcDbEntity
  8
1
  6
CONTINUOUS
 62
           7
100
AcDbLine
 10
-750.0
 20
800.0
 11
750.0
 21
800.0
  0
LINE
  5
16F
100
AcDbEntity
  8
1
  6
CONTINUOUS
 62
           7
100
AcDbLine
 10
735.0
 20
500.0
 11
750.0
 21
500.0
  0
LINE
  5
16E
100
AcDbEntity
  8
1
  6
CONTINUOUS
 62
           7
100
AcDbLine
 10
-750.0
 20
500.0
 11
-735.0
 21
500.0
  0
LINE
  5
16D
100
AcDbEntity
  8
1
  6
CONTINUOUS
 62
           7
100
AcDbLine
 10
800.0
 20
4719.0
 11
-800.0
 21
4719.0
  0
LINE
  5
16C
100
AcDbEntity
  8
1
  6
DOT_CENTER
 62
           2
100
AcDbLine
 10
4609.999999999998
 20
2023.931109148503
 11
4609.999999999998
 21
2943.62473898561
  0
LINE
  5
16B
100
AcDbEntity
  8
1
  6
CONTINUOUS
 62
           7
100
AcDbLine
 10
735.0
 20
540.0
 11
-735.0
 21
540.0
  0
LINE
  5
16A
100
AcDbEntity
  8
1
  6
DOT_CENTER
 62
           2
100
AcDbLine
 10
0.0
 20
5883.216232355006
 11
0.0
 21
3624.8779476195
  0
LINE
  5
169
100
AcDbEntity
  8
1
  6
DOT_CENTER
 62
           2
100
AcDbLine
 10
4224.999999999998
 20
600.0
 11
4374.999999999998
 21
600.0
  0
LINE
  5
168
100
AcDbEntity
  8
1
  6
DOT_CENTER
 62
           2
100
AcDbLine
 10
4299.999999999998
 20
675.0
 11
4299.999999999998
 21
525.0
  0
LINE
  5
167
100
AcDbEntity
  8
1
  6
CONTINUOUS
 62
           2
100
AcDbLine
 10
780.0
 20
5698.999999999999
 11
780.0
 21
4739.0
  0
LINE
  5
166
100
AcDbEntity
  8
1
  6
CONTINUOUS
 62
           2
100
AcDbLine
 10
730.0
 20
4699.0
 11
730.0
 21
3739.0
  0
LINE
  5
165
100
AcDbEntity
  8
1
  6
CONTINUOUS
 62
           7
100
AcDbLine
 10
-570.0
 20
5718.999999999999
 11
-800.0
 21
5718.999999999999
  0
LINE
  5
164
100
AcDbEntity
  8
1
  6
CONTINUOUS
 62
           2
100
AcDbLine
 10
730.0
 20
4699.0
 11
-730.0
 21
4699.0
  0
LINE
  5
163
100
AcDbEntity
  8
1
  6
CONTINUOUS
 62
           2
100
AcDbLine
 10
780.0
 20
4739.0
 11
520.0
 21
4739.0
  0
LINE
  5
162
100
AcDbEntity
  8
1
  6
CONTINUOUS
 62
           2
100
AcDbLine
 10
780.0
 20
5698.999999999999
 11
520.0
 21
5698.999999999999
  0
LINE
  5
161
100
AcDbEntity
  8
1
  6
CONTINUOUS
 62
           7
100
AcDbLine
 10
800.0
 20
0.0
 11
800.0
 21
2150.0
  0
LINE
  5
160
100
AcDbEntity
  8
1
  6
CONTINUOUS
 62
           7
100
AcDbLine
 10
-800.0
 20
0.0
 11
-800.0
 21
2150.0
  0
LINE
  5
15F
100
AcDbEntity
  8
1
  6
CONTINUOUS
 62
           2
100
AcDbLine
 10
-730.0
 20
3739.0
 11
730.0
 21
3739.0
  0
LINE
  5
15E
100
AcDbEntity
  8
1
  6
CONTINUOUS
 62
           2
100
AcDbLine
 10
754.0
 20
4719.0
 11
754.0
 21
3719.0
  0
LINE
  5
15D
100
AcDbEntity
  8
1
  6
CONTINUOUS
 62
           7
100
AcDbLine
 10
-800.0
 20
3719.0
 11
-800.0
 21
5718.999999999999
  0
LINE
  5
15C
100
AcDbEntity
  8
1
  6
CONTINUOUS
 62
           2
100
AcDbLine
 10
-754.0
 20
4719.0
 11
-754.0
 21
3719.0
  0
LINE
  5
15B
100
AcDbEntity
  8
1
  6
CONTINUOUS
 62
           7
100
AcDbLine
 10
800.0
 20
5718.999999999999
 11
5.463290447466
 21
5718.999999999999
  0
LINE
  5
15A
100
AcDbEntity
  8
1
  6
CONTINUOUS
 62
           7
100
AcDbLine
 10
800.0
 20
5718.999999999999
 11
800.0
 21
3719.0
  0
LINE
  5
159
100
AcDbEntity
  8
1
  6
CONTINUOUS
 62
           2
100
AcDbLine
 10
-520.0
 20
4739.0
 11
-780.0
 21
4739.0
  0
LINE
  5
158
100
AcDbEntity
  8
1
  6
CONTINUOUS
 62
           7
100
AcDbLine
 10
-500.0
 20
5075.22844919101
 11
-500.0
 21
4719.0
  0
LINE
  5
157
100
AcDbEntity
  8
1
  6
CONTINUOUS
 62
           2
100
AcDbLine
 10
-520.0
 20
5112.205166113212
 11
-520.0
 21
4739.0
  0
LINE
  5
156
100
AcDbEntity
  8
1
  6
CONTINUOUS
 62
           2
100
AcDbLine
 10
-580.000000000004
 20
5698.999999999999
 11
-780.0
 21
5698.999999999999
  0
LINE
  5
155
100
AcDbEntity
  8
1
  6
DOT_CENTER
 62
           2
100
AcDbLine
 10
-659.913260625578
 20
5328.999999999999
 11
482.40954264821
 21
5328.999999999999
  0
LINE
  5
154
100
AcDbEntity
  8
1
  6
DOT_CENTER
 62
           2
100
AcDbLine
 10
3250.0
 20
2218.396608496726
 11
3250.0
 21
1891.877190864322
  0
LINE
  5
153
100
AcDbEntity
  8
1
  6
CONTINUOUS
 62
           7
100
AcDbLine
 10
-387.500000000001
 20
3954.0
 11
-407.573593128807
 21
3954.0
  0
LINE
  5
152
100
AcDbEntity
  8
1
  6
CONTINUOUS
 62
           7
100
AcDbLine
 10
-465.0
 20
3906.5
 11
-465.0
 21
3926.573593128807
  0
LINE
  5
151
100
AcDbEntity
  8
1
  6
CONTINUOUS
 62
           7
100
AcDbLine
 10
-512.5
 20
3984.0
 11
-492.426406871193
 21
3984.0
  0
LINE
  5
150
100
AcDbEntity
  8
1
  6
CONTINUOUS
 62
           7
100
AcDbLine
 10
-387.500000000001
 20
3984.0
 11
-387.500000000001
 21
3954.0
  0
LINE
  5
14F
100
AcDbEntity
  8
1
  6
CONTINUOUS
 62
           7
100
AcDbLine
 10
-435.0
 20
3906.5
 11
-465.0
 21
3906.5
  0
LINE
  5
14E
100
AcDbEntity
  8
1
  6
CONTINUOUS
 62
           7
100
AcDbLine
 10
-512.5
 20
3954.0
 11
-512.5
 21
3984.0
  0
LINE
  5
14D
100
AcDbEntity
  8
1
  6
CONTINUOUS
 62
           7
100
AcDbLine
 10
-407.573593128807
 20
3984.0
 11
-387.500000000001
 21
3984.0
  0
LINE
  5
14C
100
AcDbEntity
  8
1
  6
CONTINUOUS
 62
           7
100
AcDbLine
 10
-435.0
 20
3926.573593128807
 11
-435.0
 21
3906.5
  0
LINE
  5
14B
100
AcDbEntity
  8
1
  6
CONTINUOUS
 62
           7
100
AcDbLine
 10
-492.426406871193
 20
3954.0
 11
-512.5
 21
3954.0
  0
LINE
  5
14A
100
AcDbEntity
  8
1
  6
CONTINUOUS
 62
           7
100
AcDbLine
 10
-435.0
 20
4031.5
 11
-435.0
 21
4011.426406871193
  0
LINE
  5
149
100
AcDbEntity
  8
1
  6
CONTINUOUS
 62
           7
100
AcDbLine
 10
-465.0
 20
4031.5
 11
-435.0
 21
4031.5
  0
LINE
  5
148
100
AcDbEntity
  8
1
  6
CONTINUOUS
 62
           7
100
AcDbLine
 10
-465.0
 20
4011.426406871193
 11
-465.0
 21
4031.5
  0
LINE
  5
147
100
AcDbEntity
  8
1
  6
DOT_CENTER
 62
           2
100
AcDbLine
 10
-680.912924024838
 20
3969.0
 11
704.924669896944
 21
3969.0
  0
LINE
  5
146
100
AcDbEntity
  8
1
  6
CONTINUOUS
 62
           7
100
AcDbLine
 10
3124.000000000001
 20
2050.0
 11
3124.000000000001
 21
2136.0
  0
LINE
  5
145
100
AcDbEntity
  8
1
  6
CONTINUOUS
 62
           7
100
AcDbLine
 10
-495.0
 20
2184.0
 11
-405.0
 21
2184.0
  0
LINE
  5
144
100
AcDbEntity
  8
1
  6
CONTINUOUS
 62
           7
100
AcDbLine
 10
-405.0
 20
2171.0
 11
-387.5
 21
2171.0
  0
LINE
  5
143
100
AcDbEntity
  8
1
  6
CONTINUOUS
 62
           7
100
AcDbLine
 10
-495.0
 20
2171.0
 11
-512.5
 21
2171.0
  0
LINE
  5
142
100
AcDbEntity
  8
1
  6
CONTINUOUS
 62
           7
100
AcDbLine
 10
-512.5
 20
2171.0
 11
-512.5
 21
2150.0
  0
LINE
  5
141
100
AcDbEntity
  8
1
  6
CONTINUOUS
 62
           7
100
AcDbLine
 10
-495.0
 20
2188.0
 11
-495.0
 21
2171.0
  0
LINE
  5
140
100
AcDbEntity
  8
1
  6
CONTINUOUS
 62
           7
100
AcDbLine
 10
-413.0
 20
2196.0
 11
-487.0
 21
2196.0
  0
LINE
  5
13F
100
AcDbEntity
  8
1
  6
CONTINUOUS
 62
           7
100
AcDbLine
 10
-405.0
 20
2188.0
 11
-405.0
 21
2171.0
  0
LINE
  5
13E
100
AcDbEntity
  8
1
  6
CONTINUOUS
 62
           7
100
AcDbLine
 10
-465.0
 20
2156.0
 11
-465.0
 21
2150.0
  0
LINE
  5
13D
100
AcDbEntity
  8
1
  6
CONTINUOUS
 62
           7
100
AcDbLine
 10
-435.0
 20
2156.0
 11
-435.0
 21
2150.0
  0
LINE
  5
13C
100
AcDbEntity
  8
1
  6
CONTINUOUS
 62
           7
100
AcDbLine
 10
3124.000000000001
 20
2136.0
 11
3376.0
 21
2136.0
  0
LINE
  5
13B
100
AcDbEntity
  8
1
  6
CONTINUOUS
 62
           7
100
AcDbLine
 10
3376.0
 20
2136.0
 11
3376.0
 21
2050.0
  0
LINE
  5
13A
100
AcDbEntity
  8
1
  6
CONTINUOUS
 62
           7
100
AcDbLine
 10
3205.0
 20
2184.0
 11
3295.0
 21
2184.0
  0
LINE
  5
139
100
AcDbEntity
  8
1
  6
CONTINUOUS
 62
           7
100
AcDbLine
 10
3212.5
 20
2155.683280999348
 11
3212.5
 21
2136.0
  0
LINE
  5
138
100
AcDbEntity
  8
1
  6
CONTINUOUS
 62
           7
100
AcDbLine
 10
3287.5
 20
2155.683280999348
 11
3287.5
 21
2136.0
  0
LINE
  5
137
100
AcDbEntity
  8
1
  6
CONTINUOUS
 62
           7
100
AcDbLine
 10
3187.5
 20
2171.0
 11
3205.0
 21
2171.0
  0
LINE
  5
136
100
AcDbEntity
  8
1
  6
CONTINUOUS
 62
           7
100
AcDbLine
 10
3187.5
 20
2136.0
 11
3187.5
 21
2171.0
  0
LINE
  5
135
100
AcDbEntity
  8
1
  6
CONTINUOUS
 62
           7
100
AcDbLine
 10
3312.5
 20
2171.0
 11
3295.0
 21
2171.0
  0
LINE
  5
134
100
AcDbEntity
  8
1
  6
CONTINUOUS
 62
           7
100
AcDbLine
 10
3312.5
 20
2136.0
 11
3312.5
 21
2171.0
  0
LINE
  5
133
100
AcDbEntity
  8
1
  6
CONTINUOUS
 62
           7
100
AcDbLine
 10
3295.0
 20
2171.0
 11
3295.0
 21
2188.0
  0
LINE
  5
132
100
AcDbEntity
  8
1
  6
CONTINUOUS
 62
           7
100
AcDbLine
 10
3287.0
 20
2196.0
 11
3213.0
 21
2196.0
  0
LINE
  5
131
100
AcDbEntity
  8
1
  6
CONTINUOUS
 62
           7
100
AcDbLine
 10
3205.0
 20
2171.0
 11
3205.0
 21
2188.0
  0
LINE
  5
130
100
AcDbEntity
  8
1
  6
CONTINUOUS
 62
           7
100
AcDbLine
 10
3265.0
 20
2136.0
 11
3265.0
 21
2156.0
  0
LINE
  5
12F
100
AcDbEntity
  8
1
  6
CONTINUOUS
 62
           7
100
AcDbLine
 10
3235.0
 20
2136.0
 11
3235.0
 21
2156.0
  0
LINE
  5
12E
100
AcDbEntity
  8
1
  6
CONTINUOUS
 62
           2
100
AcDbLine
 10
3480.0
 20
1670.0
 11
3480.0
 21
1980.0
  0
LINE
  5
12D
100
AcDbEntity
  8
1
  6
CONTINUOUS
 62
           2
100
AcDbLine
 10
3020.0
 20
1330.0
 11
3020.0
 21
20.0
  0
LINE
  5
12C
100
AcDbEntity
  8
1
  6
CONTINUOUS
 62
           7
100
AcDbLine
 10
-750.0
 20
475.000000000001
 11
750.0
 21
475.000000000001
  0
LINE
  5
12B
100
AcDbEntity
  8
1
  6
CONTINUOUS
 62
           7
100
AcDbLine
 10
-735.0
 20
475.000000000001
 11
-735.0
 21
540.0
  0
LINE
  5
12A
100
AcDbEntity
  8
1
  6
DOT_CENTER
 62
           2
100
AcDbLine
 10
-450.0
 20
2202.686878034487
 11
-450.0
 21
2107.007003733832
  0
LINE
  5
129
100
AcDbEntity
  8
1
  6
DOT_CENTER
 62
           2
100
AcDbLine
 10
-450.0
 20
4058.175838705179
 11
-450.0
 21
3858.29341007616
  0
LINE
  5
128
100
AcDbEntity
  8
1
  6
CONTINUOUS
 62
           7
100
AcDbLine
 10
3314.223057556694
 20
1329.999999999989
 11
3500.0
 21
1329.999999999989
  0
LINE
  5
127
100
AcDbEntity
  8
1
  6
CONTINUOUS
 62
           4
100
AcDbLine
 10
3095.0
 20
1367.499999999989
 11
3095.0
 21
1430.0
  0
LINE
  5
126
100
AcDbEntity
  8
1
  6
CONTINUOUS
 62
           4
100
AcDbLine
 10
3202.314185654645
 20
1337.499999999989
 11
3125.0
 21
1337.499999999989
  0
LINE
  5
125
100
AcDbEntity
  8
1
  6
CONTINUOUS
 62
           4
100
AcDbLine
 10
3202.314185654645
 20
1317.499999999989
 11
3202.314185654645
 21
1337.499999999989
  0
LINE
  5
124
100
AcDbEntity
  8
1
  6
CONTINUOUS
 62
           4
100
AcDbLine
 10
3125.0
 20
1317.5
 11
3202.314185654645
 21
1317.499999999989
  0
LINE
  5
123
100
AcDbEntity
  8
1
  6
CONTINUOUS
 62
           4
100
AcDbLine
 10
3075.0
 20
1430.0
 11
3075.0
 21
1367.499999999989
  0
LINE
  5
122
100
AcDbEntity
  8
1
  6
CONTINUOUS
 62
           4
100
AcDbLine
 10
3095.0
 20
1430.0
 11
3075.0
 21
1430.0
  0
LINE
  5
121
100
AcDbEntity
  8
1
  6
CONTINUOUS
 62
           7
100
AcDbLine
 10
3000.0
 20
1669.999999999989
 11
3500.0
 21
1669.999999999989
  0
LINE
  5
120
100
AcDbEntity
  8
1
  6
CONTINUOUS
 62
           7
100
AcDbLine
 10
3000.0
 20
1329.999999999989
 11
3089.288577918023
 21
1329.999999999989
  0
LINE
  5
11F
100
AcDbEntity
  8
1
  6
CONTINUOUS
 62
           2
100
AcDbLine
 10
3250.0
 20
1264.999999999989
 11
3250.0
 21
1285.073593128811
  0
LINE
  5
11E
100
AcDbEntity
  8
1
  6
CONTINUOUS
 62
           2
100
AcDbLine
 10
3280.0
 20
1285.073593128811
 11
3280.0
 21
1264.999999999989
  0
LINE
  5
11D
100
AcDbEntity
  8
1
  6
CONTINUOUS
 62
           2
100
AcDbLine
 10
3280.0
 20
1264.999999999989
 11
3250.0
 21
1264.999999999989
  0
LINE
  5
11C
100
AcDbEntity
  8
1
  6
CONTINUOUS
 62
           2
100
AcDbLine
 10
3280.0
 20
1389.999999999989
 11
3280.0
 21
1369.926406871189
  0
LINE
  5
11B
100
AcDbEntity
  8
1
  6
CONTINUOUS
 62
           2
100
AcDbLine
 10
3250.0
 20
1389.999999999989
 11
3280.0
 21
1389.999999999989
  0
LINE
  5
11A
100
AcDbEntity
  8
1
  6
CONTINUOUS
 62
           2
100
AcDbLine
 10
3250.0
 20
1369.926406871189
 11
3250.0
 21
1389.999999999989
  0
LINE
  5
119
100
AcDbEntity
  8
1
  6
CONTINUOUS
 62
           2
100
AcDbLine
 10
3222.573593128806
 20
1312.499999999989
 11
3202.499999999998
 21
1312.499999999989
  0
LINE
  5
118
100
AcDbEntity
  8
1
  6
CONTINUOUS
 62
           2
100
AcDbLine
 10
3255.0
 20
1389.999999999989
 11
3255.0
 21
1409.999999999989
  0
LINE
  5
117
100
AcDbEntity
  8
1
  6
CONTINUOUS
 62
           2
100
AcDbLine
 10
3275.0
 20
1389.999999999989
 11
3275.0
 21
1409.999999999989
  0
LINE
  5
116
100
AcDbEntity
  8
1
  6
CONTINUOUS
 62
           2
100
AcDbLine
 10
3202.314185654644
 20
1312.499999999989
 11
3202.314185654644
 21
1342.499999999989
  0
LINE
  5
115
100
AcDbEntity
  8
1
  6
CONTINUOUS
 62
           2
100
AcDbLine
 10
3202.499999999998
 20
1342.499999999989
 11
3222.573593128806
 21
1342.499999999989
  0
LINE
  5
114
100
AcDbEntity
  8
1
  6
CONTINUOUS
 62
           4
100
AcDbLine
 10
3082.411809548976
 20
1509.659258262891
 11
3070.85786437627
 21
1514.14213562373
  0
LINE
  5
113
100
AcDbEntity
  8
1
  6
CONTINUOUS
 62
           4
100
AcDbLine
 10
3075.340741737111
 20
1502.588190451021
 11
3070.85786437627
 21
1514.14213562373
  0
LINE
  5
112
100
AcDbEntity
  8
1
  6
CONTINUOUS
 62
           4
100
AcDbLine
 10
3087.588190451025
 20
1490.340741737109
 11
3109.526896494872
 21
1468.402035693271
  0
LINE
  5
111
100
AcDbEntity
  8
1
  6
CONTINUOUS
 62
           4
100
AcDbLine
 10
3094.659258262891
 20
1497.411809548979
 11
3116.597964306739
 21
1475.47310350513
  0
LINE
  5
110
100
AcDbEntity
  8
1
  6
CONTINUOUS
 62
           4
100
AcDbLine
 10
3045.0
 20
1552.867496997598
 11
3045.0
 21
1570.0
  0
LINE
  5
10F
100
AcDbEntity
  8
1
  6
CONTINUOUS
 62
           4
100
AcDbLine
 10
3034.428932188135
 20
1536.428932188141
 11
3050.542804312876
 21
1520.3150600634
  0
LINE
  5
10E
100
AcDbEntity
  8
1
  6
CONTINUOUS
 62
           4
100
AcDbLine
 10
3121.428932188135
 20
1550.57106781187
 11
3105.315060063394
 21
1534.457195687119
  0
LINE
  5
10D
100
AcDbEntity
  8
1
  6
CONTINUOUS
 62
           4
100
AcDbLine
 10
3135.571067811865
 20
1463.57106781187
 11
3119.457195687124
 21
1479.684939936611
  0
LINE
  5
10C
100
AcDbEntity
  8
1
  6
CONTINUOUS
 62
           4
100
AcDbLine
 10
3064.684939936608
 20
1534.457195687119
 11
3048.571067811865
 21
1550.57106781187
  0
LINE
  5
10B
100
AcDbEntity
  8
1
  6
CONTINUOUS
 62
           4
100
AcDbLine
 10
3119.457195687124
 20
1520.3150600634
 11
3135.571067811865
 21
1536.428932188141
  0
LINE
  5
10A
100
AcDbEntity
  8
1
  6
CONTINUOUS
 62
           4
100
AcDbLine
 10
3105.315060063394
 20
1465.542804312881
 11
3121.428932188135
 21
1449.428932188141
  0
LINE
  5
109
100
AcDbEntity
  8
1
  6
CONTINUOUS
 62
           4
100
AcDbLine
 10
3048.571067811865
 20
1449.428932188141
 11
3064.684939936608
 21
1465.542804312881
  0
LINE
  5
108
100
AcDbEntity
  8
1
  6
CONTINUOUS
 62
           4
100
AcDbLine
 10
3050.542804312876
 20
1479.684939936611
 11
3034.428932188135
 21
1463.57106781187
  0
LINE
  5
107
100
AcDbEntity
  8
1
  6
CONTINUOUS
 62
           4
100
AcDbLine
 10
3045.0
 20
1570.0
 11
3105.0
 21
1570.0
  0
LINE
  5
106
100
AcDbEntity
  8
1
  6
CONTINUOUS
 62
           4
100
AcDbLine
 10
3105.0
 20
1570.0
 11
3105.0
 21
1545.825756949558
  0
LINE
  5
105
100
AcDbEntity
  8
1
  6
CONTINUOUS
 62
           4
100
AcDbLine
 10
3065.0
 20
1454.174243050449
 11
3065.0
 21
1430.0
  0
LINE
  5
104
100
AcDbEntity
  8
1
  6
CONTINUOUS
 62
           4
100
AcDbLine
 10
3065.0
 20
1430.0
 11
3125.0
 21
1430.0
  0
LINE
  5
103
100
AcDbEntity
  8
1
  6
CONTINUOUS
 62
           4
100
AcDbLine
 10
3125.0
 20
1430.0
 11
3125.0
 21
1447.132503002398
  0
LINE
  5
102
100
AcDbEntity
  8
1
  6
CONTINUOUS
 62
           4
100
AcDbLine
 10
3105.0
 20
1454.174243050449
 11
3105.0
 21
1430.0
  0
LINE
  5
101
100
AcDbEntity
  8
1
  6
CONTINUOUS
 62
           4
100
AcDbLine
 10
3065.0
 20
1570.0
 11
3065.0
 21
1545.825756949558
  0
LINE
  5
100
100
AcDbEntity
  8
1
  6
CONTINUOUS
 62
           4
100
AcDbLine
 10
3220.0
 20
1589.999999999989
 11
3390.0
 21
1589.999999999989
  0
LINE
  5
FF
100
AcDbEntity
  8
1
  6
CONTINUOUS
 62
           4
100
AcDbLine
 10
3220.0
 20
1409.999999999989
 11
3220.0
 21
1589.999999999989
  0
LINE
  5
FE
100
AcDbEntity
  8
1
  6
CONTINUOUS
 62
           4
100
AcDbLine
 10
3390.0
 20
1409.999999999989
 11
3220.0
 21
1409.999999999989
  0
LINE
  5
FD
100
AcDbEntity
  8
1
  6
CONTINUOUS
 62
           4
100
AcDbLine
 10
3390.0
 20
1589.999999999989
 11
3390.0
 21
1409.999999999989
  0
LINE
  5
FC
100
AcDbEntity
  8
1
  6
CONTINUOUS
 62
           4
100
AcDbLine
 10
3220.0
 20
1544.999999999989
 11
3205.0
 21
1544.999999999989
  0
LINE
  5
FB
100
AcDbEntity
  8
1
  6
CONTINUOUS
 62
           4
100
AcDbLine
 10
3205.0
 20
1544.999999999989
 11
3205.0
 21
1529.999999999989
  0
LINE
  5
FA
100
AcDbEntity
  8
1
  6
CONTINUOUS
 62
           4
100
AcDbLine
 10
3205.0
 20
1529.999999999989
 11
3220.0
 21
1529.999999999989
  0
LINE
  5
F9
100
AcDbEntity
  8
1
  6
CONTINUOUS
 62
           4
100
AcDbLine
 10
3220.0
 20
1469.999999999989
 11
3205.0
 21
1469.999999999989
  0
LINE
  5
F8
100
AcDbEntity
  8
1
  6
CONTINUOUS
 62
           4
100
AcDbLine
 10
3205.0
 20
1469.999999999989
 11
3205.0
 21
1454.999999999989
  0
LINE
  5
F7
100
AcDbEntity
  8
1
  6
CONTINUOUS
 62
           4
100
AcDbLine
 10
3205.0
 20
1454.999999999989
 11
3220.0
 21
1454.999999999989
  0
LINE
  5
F6
100
AcDbEntity
  8
1
  6
CONTINUOUS
 62
           4
100
AcDbLine
 10
3347.5
 20
1409.999999999989
 11
3347.5
 21
1379.999999999989
  0
LINE
  5
F5
100
AcDbEntity
  8
1
  6
CONTINUOUS
 62
           4
100
AcDbLine
 10
3347.5
 20
1379.999999999989
 11
3367.5
 21
1379.999999999989
  0
LINE
  5
F4
100
AcDbEntity
  8
1
  6
CONTINUOUS
 62
           4
100
AcDbLine
 10
3367.5
 20
1379.999999999989
 11
3367.5
 21
1409.999999999989
  0
LINE
  5
F3
100
AcDbEntity
  8
1
  6
CONTINUOUS
 62
           4
100
AcDbLine
 10
3242.5
 20
1379.999999999989
 11
3248.904554286894
 21
1379.999999999989
  0
LINE
  5
F2
100
AcDbEntity
  8
1
  6
CONTINUOUS
 62
           4
100
AcDbLine
 10
3242.5
 20
1409.999999999989
 11
3242.5
 21
1379.999999999989
  0
LINE
  5
F1
100
AcDbEntity
  8
1
  6
CONTINUOUS
 62
           4
100
AcDbLine
 10
3367.5
 20
1619.999999999989
 11
3347.5
 21
1619.999999999989
  0
LINE
  5
F0
100
AcDbEntity
  8
1
  6
CONTINUOUS
 62
           4
100
AcDbLine
 10
3347.5
 20
1619.999999999989
 11
3347.5
 21
1589.999999999989
  0
LINE
  5
EF
100
AcDbEntity
  8
1
  6
CONTINUOUS
 62
           4
100
AcDbLine
 10
3367.5
 20
1589.999999999989
 11
3367.5
 21
1619.999999999989
  0
LINE
  5
EE
100
AcDbEntity
  8
1
  6
CONTINUOUS
 62
           4
100
AcDbLine
 10
3242.5
 20
1619.999999999989
 11
3242.5
 21
1589.999999999989
  0
LINE
  5
ED
100
AcDbEntity
  8
1
  6
CONTINUOUS
 62
           4
100
AcDbLine
 10
3262.5
 20
1619.999999999989
 11
3242.5
 21
1619.999999999989
  0
LINE
  5
EC
100
AcDbEntity
  8
1
  6
CONTINUOUS
 62
           4
100
AcDbLine
 10
3262.5
 20
1589.999999999989
 11
3262.5
 21
1619.999999999989
  0
LINE
  5
EB
100
AcDbEntity
  8
1
  6
CONTINUOUS
 62
           2
100
AcDbLine
 10
875.683280999351
 20
1364.999999999978
 11
843.000000000001
 21
1364.999999999978
  0
LINE
  5
EA
100
AcDbEntity
  8
1
  6
CONTINUOUS
 62
           2
100
AcDbLine
 10
875.683280999351
 20
1289.999999999978
 11
843.000000000001
 21
1289.999999999978
  0
LINE
  5
E9
100
AcDbEntity
  8
1
  6
CONTINUOUS
 62
           2
100
AcDbLine
 10
891.000000000001
 20
1389.999999999978
 11
891.000000000001
 21
1372.499999999978
  0
LINE
  5
E8
100
AcDbEntity
  8
1
  6
CONTINUOUS
 62
           2
100
AcDbLine
 10
843.000000000001
 20
1389.999999999978
 11
891.000000000001
 21
1389.999999999978
  0
LINE
  5
E7
100
AcDbEntity
  8
1
  6
CONTINUOUS
 62
           2
100
AcDbLine
 10
891.000000000001
 20
1264.999999999978
 11
891.000000000001
 21
1282.499999999978
  0
LINE
  5
E6
100
AcDbEntity
  8
1
  6
CONTINUOUS
 62
           2
100
AcDbLine
 10
843.000000000001
 20
1264.999999999978
 11
891.000000000001
 21
1264.999999999978
  0
LINE
  5
E5
100
AcDbEntity
  8
1
  6
CONTINUOUS
 62
           2
100
AcDbLine
 10
891.000000000001
 20
1282.499999999978
 11
908.000000000001
 21
1282.499999999978
  0
LINE
  5
E4
100
AcDbEntity
  8
1
  6
CONTINUOUS
 62
           2
100
AcDbLine
 10
891.000000000001
 20
1372.499999999978
 11
908.000000000001
 21
1372.499999999978
  0
LINE
  5
E3
100
AcDbEntity
  8
1
  6
CONTINUOUS
 62
           2
100
AcDbLine
 10
843.000000000001
 20
1312.499999999978
 11
876.000000000001
 21
1312.499999999978
  0
LINE
  5
E2
100
AcDbEntity
  8
1
  6
CONTINUOUS
 62
           2
100
AcDbLine
 10
843.000000000001
 20
1342.499999999978
 11
876.000000000001
 21
1342.499999999978
  0
LINE
  5
E1
100
AcDbEntity
  8
1
  6
CONTINUOUS
 62
           2
100
AcDbLine
 10
853.000000000001
 20
1389.999999999978
 11
853.000000000001
 21
1409.999999999978
  0
LINE
  5
E0
100
AcDbEntity
  8
1
  6
CONTINUOUS
 62
           2
100
AcDbLine
 10
873.000000000001
 20
1389.999999999978
 11
873.000000000001
 21
1409.999999999978
  0
LINE
  5
DF
100
AcDbEntity
  8
1
  6
CONTINUOUS
 62
           2
100
AcDbLine
 10
843.000000000001
 20
1355.249999999978
 11
843.000000000001
 21
1294.749999999978
  0
LINE
  5
DE
100
AcDbEntity
  8
1
  6
CONTINUOUS
 62
           2
100
AcDbLine
 10
899.000000000001
 20
1355.249999999978
 11
899.000000000001
 21
1294.749999999978
  0
LINE
  5
DD
100
AcDbEntity
  8
1
  6
CONTINUOUS
 62
           2
100
AcDbLine
 10
899.000000000001
 20
1355.249999999978
 11
899.000000000001
 21
1372.499999999978
  0
LINE
  5
DC
100
AcDbEntity
  8
1
  6
CONTINUOUS
 62
           2
100
AcDbLine
 10
899.000000000001
 20
1294.749999999978
 11
899.000000000001
 21
1282.499999999978
  0
LINE
  5
DB
100
AcDbEntity
  8
1
  6
CONTINUOUS
 62
           2
100
AcDbLine
 10
843.000000000001
 20
1294.749999999978
 11
843.000000000001
 21
1264.999999999978
  0
LINE
  5
DA
100
AcDbEntity
  8
1
  6
CONTINUOUS
 62
           2
100
AcDbLine
 10
843.000000000001
 20
1355.249999999978
 11
843.000000000001
 21
1389.999999999978
  0
LINE
  5
D9
100
AcDbEntity
  8
1
  6
CONTINUOUS
 62
           2
100
AcDbLine
 10
916.000000000001
 20
1294.749999999978
 11
916.000000000001
 21
1355.249999999978
  0
LINE
  5
D8
100
AcDbEntity
  8
1
  6
CONTINUOUS
 62
           2
100
AcDbLine
 10
916.000000000001
 20
1294.749999999978
 11
916.000000000001
 21
1290.499999999978
  0
LINE
  5
D7
100
AcDbEntity
  8
1
  6
CONTINUOUS
 62
           2
100
AcDbLine
 10
916.000000000001
 20
1355.249999999978
 11
916.000000000001
 21
1364.499999999978
  0
LINE
  5
D6
100
AcDbEntity
  8
1
  6
CONTINUOUS
 62
           4
100
AcDbLine
 10
805.000000000001
 20
1670.000000000011
 11
805.000000000001
 21
1330.0
  0
LINE
  5
D5
100
AcDbEntity
  8
1
  6
CONTINUOUS
 62
           4
100
AcDbLine
 10
800.000000000001
 20
1670.000000000011
 11
805.000000000001
 21
1670.000000000011
  0
LINE
  5
D4
100
AcDbEntity
  8
1
  6
CONTINUOUS
 62
           4
100
AcDbLine
 10
805.000000000001
 20
1330.0
 11
800.000000000001
 21
1330.0
  0
LINE
  5
D3
100
AcDbEntity
  8
1
  6
CONTINUOUS
 62
           4
100
AcDbLine
 10
875.000000000001
 20
1524.0
 11
815.000000000001
 21
1524.0
  0
LINE
  5
D2
100
AcDbEntity
  8
1
  6
CONTINUOUS
 62
           4
100
AcDbLine
 10
815.000000000001
 20
1476.0
 11
875.000000000001
 21
1476.0
  0
LINE
  5
D1
100
AcDbEntity
  8
1
  6
CONTINUOUS
 62
           4
100
AcDbLine
 10
890.000000000001
 20
1553.5
 11
875.000000000001
 21
1553.5
  0
LINE
  5
D0
100
AcDbEntity
  8
1
  6
CONTINUOUS
 62
           4
100
AcDbLine
 10
890.000000000001
 20
1446.5
 11
890.000000000001
 21
1479.684939936611
  0
LINE
  5
CF
100
AcDbEntity
  8
1
  6
CONTINUOUS
 62
           4
100
AcDbLine
 10
815.000000000001
 20
1450.0
 11
875.000000000001
 21
1450.0
  0
LINE
  5
CE
100
AcDbEntity
  8
1
  6
CONTINUOUS
 62
           4
100
AcDbLine
 10
875.000000000001
 20
1520.3150600634
 11
890.000000000001
 21
1520.3150600634
  0
LINE
  5
CD
100
AcDbEntity
  8
1
  6
CONTINUOUS
 62
           4
100
AcDbLine
 10
875.000000000001
 20
1446.5
 11
875.000000000001
 21
1553.5
  0
LINE
  5
CC
100
AcDbEntity
  8
1
  6
CONTINUOUS
 62
           4
100
AcDbLine
 10
875.000000000001
 20
1479.684939936611
 11
890.000000000001
 21
1479.684939936611
  0
LINE
  5
CB
100
AcDbEntity
  8
1
  6
CONTINUOUS
 62
           4
100
AcDbLine
 10
805.000000000001
 20
1570.0
 11
805.000000000001
 21
1430.0
  0
LINE
  5
CA
100
AcDbEntity
  8
1
  6
CONTINUOUS
 62
           4
100
AcDbLine
 10
875.000000000001
 20
1550.0
 11
815.000000000001
 21
1550.0
  0
LINE
  5
C9
100
AcDbEntity
  8
1
  6
CONTINUOUS
 62
           4
100
AcDbLine
 10
890.000000000001
 20
1520.3150600634
 11
890.000000000001
 21
1553.5
  0
LINE
  5
C8
100
AcDbEntity
  8
1
  6
CONTINUOUS
 62
           4
100
AcDbLine
 10
875.000000000001
 20
1446.5
 11
890.000000000001
 21
1446.5
  0
LINE
  5
C7
100
AcDbEntity
  8
1
  6
CONTINUOUS
 62
           4
100
AcDbLine
 10
920.000000000001
 20
1540.0
 11
890.000000000001
 21
1540.0
  0
LINE
  5
C6
100
AcDbEntity
  8
1
  6
CONTINUOUS
 62
           4
100
AcDbLine
 10
920.000000000001
 20
1460.0
 11
920.000000000001
 21
1540.0
  0
LINE
  5
C5
100
AcDbEntity
  8
1
  6
CONTINUOUS
 62
           4
100
AcDbLine
 10
890.000000000001
 20
1460.0
 11
920.000000000001
 21
1460.0
  0
LINE
  5
C4
100
AcDbEntity
  8
1
  6
CONTINUOUS
 62
           4
100
AcDbLine
 10
920.000000000001
 20
1470.0
 11
935.000000000001
 21
1470.0
  0
LINE
  5
C3
100
AcDbEntity
  8
1
  6
CONTINUOUS
 62
           4
100
AcDbLine
 10
935.000000000001
 20
1470.0
 11
935.000000000001
 21
1515.0
  0
LINE
  5
C2
100
AcDbEntity
  8
1
  6
CONTINUOUS
 62
           4
100
AcDbLine
 10
935.000000000001
 20
1515.0
 11
920.000000000001
 21
1515.0
  0
LINE
  5
C1
100
AcDbEntity
  8
1
  6
CONTINUOUS
 62
           4
100
AcDbLine
 10
935.000000000001
 20
1510.0
 11
920.000000000001
 21
1510.0
  0
LINE
  5
C0
100
AcDbEntity
  8
1
  6
CONTINUOUS
 62
           4
100
AcDbLine
 10
920.000000000001
 20
1490.0
 11
935.000000000001
 21
1490.0
  0
LINE
  5
BF
100
AcDbEntity
  8
1
  6
CONTINUOUS
 62
           4
100
AcDbLine
 10
815.000000000001
 20
1570.0
 11
815.000000000001
 21
1430.0
  0
LINE
  5
BE
100
AcDbEntity
  8
1
  6
CONTINUOUS
 62
           4
100
AcDbLine
 10
853.000000000001
 20
1570.0
 11
805.000000000001
 21
1570.0
  0
LINE
  5
BD
100
AcDbEntity
  8
1
  6
CONTINUOUS
 62
           4
100
AcDbLine
 10
853.000000000001
 20
1550.0
 11
853.000000000001
 21
1570.0
  0
LINE
  5
BC
100
AcDbEntity
  8
1
  6
CONTINUOUS
 62
           4
100
AcDbLine
 10
853.000000000001
 20
1430.0
 11
805.000000000001
 21
1430.0
  0
LINE
  5
BB
100
AcDbEntity
  8
1
  6
CONTINUOUS
 62
           4
100
AcDbLine
 10
853.000000000001
 20
1450.0
 11
853.000000000001
 21
1430.0
  0
LINE
  5
BA
100
AcDbEntity
  8
1
  6
CONTINUOUS
 62
           4
100
AcDbLine
 10
1013.000000000001
 20
1409.999999999989
 11
1013.000000000001
 21
1589.999999999989
  0
LINE
  5
B9
100
AcDbEntity
  8
1
  6
CONTINUOUS
 62
           4
100
AcDbLine
 10
818.000000000001
 20
1589.999999999989
 11
818.000000000001
 21
1570.0
  0
LINE
  5
B8
100
AcDbEntity
  8
1
  6
CONTINUOUS
 62
           4
100
AcDbLine
 10
1030.000000000001
 20
1452.499999999989
 11
1013.000000000001
 21
1452.499999999989
  0
LINE
  5
B7
100
AcDbEntity
  8
1
  6
CONTINUOUS
 62
           4
100
AcDbLine
 10
1030.000000000001
 20
1427.499999999989
 11
1030.000000000001
 21
1452.499999999989
  0
LINE
  5
B6
100
AcDbEntity
  8
1
  6
CONTINUOUS
 62
           4
100
AcDbLine
 10
1013.000000000001
 20
1427.499999999989
 11
1030.000000000001
 21
1427.499999999989
  0
LINE
  5
B5
100
AcDbEntity
  8
1
  6
CONTINUOUS
 62
           4
100
AcDbLine
 10
930.500000000001
 20
1409.999999999989
 11
930.500000000001
 21
1470.0
  0
LINE
  5
B4
100
AcDbEntity
  8
1
  6
CONTINUOUS
 62
           4
100
AcDbLine
 10
1013.000000000001
 20
1589.999999999989
 11
818.000000000001
 21
1589.999999999989
  0
LINE
  5
B3
100
AcDbEntity
  8
1
  6
CONTINUOUS
 62
           4
100
AcDbLine
 10
1013.000000000001
 20
1409.999999999989
 11
818.000000000001
 21
1409.999999999989
  0
LINE
  5
B2
100
AcDbEntity
  8
1
  6
CONTINUOUS
 62
           4
100
AcDbLine
 10
1013.000000000001
 20
1462.499999999989
 11
1030.000000000001
 21
1462.499999999989
  0
LINE
  5
B1
100
AcDbEntity
  8
1
  6
CONTINUOUS
 62
           4
100
AcDbLine
 10
1030.000000000001
 20
1462.499999999989
 11
1030.000000000001
 21
1487.499999999989
  0
LINE
  5
B0
100
AcDbEntity
  8
1
  6
CONTINUOUS
 62
           4
100
AcDbLine
 10
1030.000000000001
 20
1487.499999999989
 11
1013.000000000001
 21
1487.499999999989
  0
LINE
  5
AF
100
AcDbEntity
  8
1
  6
CONTINUOUS
 62
           4
100
AcDbLine
 10
805.000000000001
 20
1619.999999999989
 11
808.000000000001
 21
1619.999999999989
  0
LINE
  5
AE
100
AcDbEntity
  8
1
  6
CONTINUOUS
 62
           4
100
AcDbLine
 10
808.000000000001
 20
1619.999999999989
 11
808.000000000001
 21
1594.999999999989
  0
LINE
  5
AD
100
AcDbEntity
  8
1
  6
CONTINUOUS
 62
           4
100
AcDbLine
 10
808.000000000001
 20
1594.999999999989
 11
818.000000000001
 21
1589.999999999989
  0
LINE
  5
AC
100
AcDbEntity
  8
1
  6
CONTINUOUS
 62
           4
100
AcDbLine
 10
815.000000000001
 20
1426.46399435429
 11
815.000000000001
 21
1411.854101966248
  0
LINE
  5
AB
100
AcDbEntity
  8
1
  6
CONTINUOUS
 62
           4
100
AcDbLine
 10
815.000000000001
 20
1411.854101966248
 11
805.000000000001
 21
1406.854101966248
  0
LINE
  5
AA
100
AcDbEntity
  8
1
  6
CONTINUOUS
 62
           4
100
AcDbLine
 10
818.000000000001
 20
1410.0
 11
808.000000000001
 21
1405.0
  0
LINE
  5
A9
100
AcDbEntity
  8
1
  6
CONTINUOUS
 62
           4
100
AcDbLine
 10
808.000000000001
 20
1405.0
 11
808.000000000001
 21
1380.0
  0
LINE
  5
A8
100
AcDbEntity
  8
1
  6
CONTINUOUS
 62
           4
100
AcDbLine
 10
808.000000000001
 20
1380.0
 11
805.000000000001
 21
1380.0
  0
LINE
  5
A7
100
AcDbEntity
  8
1
  6
CONTINUOUS
 62
           4
100
AcDbLine
 10
818.000000000001
 20
1430.0
 11
818.000000000001
 21
1409.999999999989
  0
LINE
  5
A6
100
AcDbEntity
  8
1
  6
CONTINUOUS
 62
           4
100
AcDbLine
 10
805.000000000001
 20
1593.145898033741
 11
815.000000000001
 21
1588.145898033741
  0
LINE
  5
A5
100
AcDbEntity
  8
1
  6
CONTINUOUS
 62
           4
100
AcDbLine
 10
815.000000000001
 20
1588.145898033741
 11
815.000000000001
 21
1573.536005645699
  0
LINE
  5
A4
100
AcDbEntity
  8
1
  6
CONTINUOUS
 62
           4
100
AcDbLine
 10
900.500000000001
 20
1409.999999999989
 11
900.500000000001
 21
1460.0
  0
LINE
  5
A3
100
AcDbEntity
  8
1
  6
CONTINUOUS
 62
           4
100
AcDbLine
 10
900.500000000001
 20
1540.0
 11
900.500000000001
 21
1589.999999999989
  0
LINE
  5
A2
100
AcDbEntity
  8
1
  6
CONTINUOUS
 62
           4
100
AcDbLine
 10
930.500000000001
 20
1515.0
 11
930.500000000001
 21
1589.999999999989
  0
LINE
  5
A1
100
AcDbEntity
  8
1
  6
CONTINUOUS
 62
           4
100
AcDbLine
 10
800.0
 20
3719.0
 11
805.000000000001
 21
3719.0
  0
LINE
  5
A0
100
AcDbEntity
  8
1
  6
CONTINUOUS
 62
           4
100
AcDbLine
 10
805.000000000001
 20
3719.0
 11
805.000000000001
 21
4219.0
  0
LINE
  5
9F
100
AcDbEntity
  8
1
  6
CONTINUOUS
 62
           4
100
AcDbLine
 10
805.000000000001
 20
4219.0
 11
800.0
 21
4219.000000000001
  0
LINE
  5
9E
100
AcDbEntity
  8
1
  6
CONTINUOUS
 62
           4
100
AcDbLine
 10
920.000000000001
 20
3794.0
 11
935.000000000001
 21
3794.0
  0
LINE
  5
9D
100
AcDbEntity
  8
1
  6
CONTINUOUS
 62
           4
100
AcDbLine
 10
935.000000000001
 20
3814.0
 11
920.000000000001
 21
3814.0
  0
LINE
  5
9C
100
AcDbEntity
  8
1
  6
CONTINUOUS
 62
           4
100
AcDbLine
 10
935.000000000001
 20
3819.0
 11
920.000000000001
 21
3819.0
  0
LINE
  5
9B
100
AcDbEntity
  8
1
  6
CONTINUOUS
 62
           4
100
AcDbLine
 10
935.000000000001
 20
3774.0
 11
935.000000000001
 21
3819.0
  0
LINE
  5
9A
100
AcDbEntity
  8
1
  6
CONTINUOUS
 62
           4
100
AcDbLine
 10
920.000000000001
 20
3774.0
 11
935.000000000001
 21
3774.0
  0
LINE
  5
99
100
AcDbEntity
  8
1
  6
CONTINUOUS
 62
           4
100
AcDbLine
 10
920.000000000001
 20
3844.0
 11
890.000000000001
 21
3844.0
  0
LINE
  5
98
100
AcDbEntity
  8
1
  6
CONTINUOUS
 62
           4
100
AcDbLine
 10
920.000000000001
 20
3764.0
 11
920.000000000001
 21
3844.0
  0
LINE
  5
97
100
AcDbEntity
  8
1
  6
CONTINUOUS
 62
           4
100
AcDbLine
 10
890.000000000001
 20
3764.0
 11
920.000000000001
 21
3764.0
  0
LINE
  5
96
100
AcDbEntity
  8
1
  6
CONTINUOUS
 62
           4
100
AcDbLine
 10
890.000000000001
 20
3857.5
 11
875.000000000001
 21
3857.5
  0
LINE
  5
95
100
AcDbEntity
  8
1
  6
CONTINUOUS
 62
           4
100
AcDbLine
 10
890.000000000001
 20
3750.5
 11
890.000000000001
 21
3783.684939936611
  0
LINE
  5
94
100
AcDbEntity
  8
1
  6
CONTINUOUS
 62
           4
100
AcDbLine
 10
805.000000000001
 20
3754.0
 11
875.000000000001
 21
3754.0
  0
LINE
  5
93
100
AcDbEntity
  8
1
  6
CONTINUOUS
 62
           4
100
AcDbLine
 10
805.000000000001
 20
3854.0
 11
805.000000000001
 21
3754.0
  0
LINE
  5
92
100
AcDbEntity
  8
1
  6
CONTINUOUS
 62
           4
100
AcDbLine
 10
890.000000000001
 20
3824.315060063389
 11
875.000000000001
 21
3824.315060063389
  0
LINE
  5
91
100
AcDbEntity
  8
1
  6
CONTINUOUS
 62
           4
100
AcDbLine
 10
875.000000000001
 20
3750.5
 11
875.000000000001
 21
3857.5
  0
LINE
  5
90
100
AcDbEntity
  8
1
  6
CONTINUOUS
 62
           4
100
AcDbLine
 10
890.000000000001
 20
3783.684939936611
 11
875.000000000001
 21
3783.684939936611
  0
LINE
  5
8F
100
AcDbEntity
  8
1
  6
CONTINUOUS
 62
           4
100
AcDbLine
 10
875.000000000001
 20
3854.0
 11
805.000000000001
 21
3854.0
  0
LINE
  5
8E
100
AcDbEntity
  8
1
  6
CONTINUOUS
 62
           4
100
AcDbLine
 10
890.000000000001
 20
3824.315060063389
 11
890.000000000001
 21
3857.5
  0
LINE
  5
8D
100
AcDbEntity
  8
1
  6
CONTINUOUS
 62
           4
100
AcDbLine
 10
875.000000000001
 20
3750.5
 11
890.000000000001
 21
3750.5
  0
LINE
  5
8C
100
AcDbEntity
  8
1
  6
CONTINUOUS
 62
           4
100
AcDbLine
 10
875.000000000001
 20
3828.0
 11
805.000000000001
 21
3828.0
  0
LINE
  5
8B
100
AcDbEntity
  8
1
  6
CONTINUOUS
 62
           4
100
AcDbLine
 10
805.000000000001
 20
3780.0
 11
875.000000000001
 21
3780.0
  0
LINE
  5
8A
100
AcDbEntity
  8
1
  6
CONTINUOUS
 62
           4
100
AcDbLine
 10
818.000000000001
 20
4109.0
 11
818.000000000001
 21
3939.0
  0
LINE
  5
89
100
AcDbEntity
  8
1
  6
CONTINUOUS
 62
           4
100
AcDbLine
 10
1013.000000000001
 20
4109.0
 11
818.000000000001
 21
4109.0
  0
LINE
  5
88
100
AcDbEntity
  8
1
  6
CONTINUOUS
 62
           4
100
AcDbLine
 10
1013.000000000001
 20
3939.0
 11
1013.000000000001
 21
4109.0
  0
LINE
  5
87
100
AcDbEntity
  8
1
  6
CONTINUOUS
 62
           4
100
AcDbLine
 10
818.000000000001
 20
3939.0
 11
1013.000000000001
 21
3939.0
  0
LINE
  5
86
100
AcDbEntity
  8
1
  6
CONTINUOUS
 62
           4
100
AcDbLine
 10
1030.000000000001
 20
3976.5
 11
1013.000000000001
 21
3976.5
  0
LINE
  5
85
100
AcDbEntity
  8
1
  6
CONTINUOUS
 62
           4
100
AcDbLine
 10
1030.000000000001
 20
3951.5
 11
1030.000000000001
 21
3976.5
  0
LINE
  5
84
100
AcDbEntity
  8
1
  6
CONTINUOUS
 62
           4
100
AcDbLine
 10
1013.000000000001
 20
3951.5
 11
1030.000000000001
 21
3951.5
  0
LINE
  5
83
100
AcDbEntity
  8
1
  6
CONTINUOUS
 62
           4
100
AcDbLine
 10
930.500000000001
 20
3939.0
 11
930.500000000001
 21
4109.0
  0
LINE
  5
82
100
AcDbEntity
  8
1
  6
CONTINUOUS
 62
           4
100
AcDbLine
 10
1013.000000000001
 20
3986.5
 11
1030.000000000001
 21
3986.5
  0
LINE
  5
81
100
AcDbEntity
  8
1
  6
CONTINUOUS
 62
           4
100
AcDbLine
 10
1030.000000000001
 20
3986.5
 11
1030.000000000001
 21
4011.5
  0
LINE
  5
80
100
AcDbEntity
  8
1
  6
CONTINUOUS
 62
           4
100
AcDbLine
 10
1030.000000000001
 20
4011.5
 11
1013.000000000001
 21
4011.5
  0
LINE
  5
7F
100
AcDbEntity
  8
1
  6
CONTINUOUS
 62
           4
100
AcDbLine
 10
1030.000000000001
 20
4054.0
 11
1013.000000000001
 21
4054.0
  0
LINE
  5
7E
100
AcDbEntity
  8
1
  6
CONTINUOUS
 62
           4
100
AcDbLine
 10
1030.000000000001
 20
4029.0
 11
1030.000000000001
 21
4054.0
  0
LINE
  5
7D
100
AcDbEntity
  8
1
  6
CONTINUOUS
 62
           4
100
AcDbLine
 10
1013.000000000001
 20
4029.0
 11
1030.000000000001
 21
4029.0
  0
LINE
  5
7C
100
AcDbEntity
  8
1
  6
CONTINUOUS
 62
           4
100
AcDbLine
 10
805.000000000001
 20
4086.5
 11
818.000000000001
 21
4086.5
  0
LINE
  5
7B
100
AcDbEntity
  8
1
  6
CONTINUOUS
 62
           4
100
AcDbLine
 10
805.000000000001
 20
4066.5
 11
818.000000000001
 21
4066.5
  0
LINE
  5
7A
100
AcDbEntity
  8
1
  6
CONTINUOUS
 62
           4
100
AcDbLine
 10
815.000000000001
 20
4086.5
 11
815.000000000001
 21
4066.5
  0
LINE
  5
79
100
AcDbEntity
  8
1
  6
CONTINUOUS
 62
           4
100
AcDbLine
 10
808.000000000001
 20
4086.5
 11
808.000000000001
 21
4066.5
  0
LINE
  5
78
100
AcDbEntity
  8
1
  6
CONTINUOUS
 62
           4
100
AcDbLine
 10
808.000000000001
 20
3981.5
 11
808.000000000001
 21
3961.5
  0
LINE
  5
77
100
AcDbEntity
  8
1
  6
CONTINUOUS
 62
           4
100
AcDbLine
 10
815.000000000001
 20
3981.5
 11
815.000000000001
 21
3961.5
  0
LINE
  5
76
100
AcDbEntity
  8
1
  6
CONTINUOUS
 62
           4
100
AcDbLine
 10
818.000000000001
 20
3981.5
 11
805.000000000001
 21
3981.5
  0
LINE
  5
75
100
AcDbEntity
  8
1
  6
CONTINUOUS
 62
           4
100
AcDbLine
 10
818.000000000001
 20
3961.5
 11
805.000000000001
 21
3961.5
  0
LINE
  5
74
100
AcDbEntity
  8
1
  6
CONTINUOUS
 62
           4
100
AcDbLine
 10
900.500000000001
 20
3939.0
 11
900.500000000001
 21
4109.0
  0
LINE
  5
73
100
AcDbEntity
  8
1
  6
CONTINUOUS
 62
           7
100
AcDbLine
 10
153.59626982517
 20
3719.0
 11
800.0
 21
3719.0
  0
LINE
  5
72
100
AcDbEntity
  8
1
  6
CONTINUOUS
 62
           7
100
AcDbLine
 10
2999.999999999995
 20
2150.0
 11
3019.999999999995
 21
2150.0
  0
LINE
  5
71
100
AcDbEntity
  8
1
  6
CONTINUOUS
 62
           7
100
AcDbLine
 10
2999.999999999995
 20
2050.0
 11
2999.999999999995
 21
2150.0
  0
LINE
  5
70
100
AcDbEntity
  8
1
  6
CONTINUOUS
 62
           7
100
AcDbLine
 10
800.0
 20
2150.0
 11
-800.0
 21
2150.0
  0
LINE
  5
6F
100
AcDbEntity
  8
1
  6
CONTINUOUS
 62
           7
100
AcDbLine
 10
750.0
 20
2000.0
 11
750.0
 21
0.0
  0
LINE
  5
6E
100
AcDbEntity
  8
1
  6
CONTINUOUS
 62
           7
100
AcDbLine
 10
4000.0
 20
2000.0
 11
4000.0
 21
2075.0
  0
LINE
  5
6D
100
AcDbEntity
  8
1
  6
CONTINUOUS
 62
           7
100
AcDbLine
 10
575.0
 20
1646.282992387803
 11
-575.0
 21
1646.282992387803
  0
LINE
  5
6C
100
AcDbEntity
  8
1
  6
CONTINUOUS
 62
           7
100
AcDbLine
 10
-575.0
 20
941.513526798368
 11
-575.0
 21
1646.282992387803
  0
LINE
  5
6B
100
AcDbEntity
  8
1
  6
CONTINUOUS
 62
           7
100
AcDbLine
 10
575.0
 20
941.513526798368
 11
575.0
 21
1646.282992387803
  0
LINE
  5
6A
100
AcDbEntity
  8
1
  6
CONTINUOUS
 62
           7
100
AcDbLine
 10
-575.0
 20
941.513526798368
 11
575.0
 21
941.513526798368
  0
LINE
  5
69
100
AcDbEntity
  8
___S__
  6
DOT_CENTER
 62
           3
100
AcDbLine
 10
-574.999999999976
 20
1621.052837286498
 11
-574.999999999977
 21
1536.05712705539
  0
LINE
  5
68
100
AcDbEntity
  8
____
  6
CONTINUOUS
 62
           3
100
AcDbLine
 10
-569.595947044857
 20
1614.449075506232
 11
-569.595947044857
 21
1612.571144758109
  0
LINE
  5
67
100
AcDbEntity
  8
____
  6
CONTINUOUS
 62
           3
100
AcDbLine
 10
-579.91277541372
 20
1614.918558193264
 11
-570.087224586232
 21
1614.918558193264
  0
LINE
  5
66
100
AcDbEntity
  8
____
  6
CONTINUOUS
 62
           3
100
AcDbLine
 10
-580.404052955095
 20
1612.57114475811
 11
-580.404052955095
 21
1614.449075506232
  0
LINE
  5
65
100
AcDbEntity
  8
____
  6
CONTINUOUS
 62
           3
100
AcDbLine
 10
-569.497691536592
 20
1576.890460543778
 11
-580.502308463369
 21
1576.890460543778
  0
LINE
  5
64
100
AcDbEntity
  8
____
  6
CONTINUOUS
 62
           3
100
AcDbLine
 10
-569.497691536591
 20
1612.571144758109
 11
-569.497691536592
 21
1576.890460543778
  0
LINE
  5
63
100
AcDbEntity
  8
____
  6
CONTINUOUS
 62
           3
100
AcDbLine
 10
-580.502308463368
 20
1612.57114475811
 11
-569.497691536591
 21
1612.571144758109
  0
LINE
  5
62
100
AcDbEntity
  8
____
  6
CONTINUOUS
 62
           3
100
AcDbLine
 10
-580.502308463369
 20
1576.890460543778
 11
-580.502308463368
 21
1612.57114475811
  0
LINE
  5
61
100
AcDbEntity
  8
____
  6
CONTINUOUS
 62
           3
100
AcDbLine
 10
-580.404052955096
 20
1538.39288020726
 11
-580.404052955096
 21
1540.270810955383
  0
LINE
  5
60
100
AcDbEntity
  8
____
  6
CONTINUOUS
 62
           3
100
AcDbLine
 10
-570.087224586232
 20
1537.923397520231
 11
-579.912775413721
 21
1537.923397520231
  0
LINE
  5
5F
100
AcDbEntity
  8
____
  6
CONTINUOUS
 62
           3
100
AcDbLine
 10
-569.595947044858
 20
1540.270810955383
 11
-569.595947044858
 21
1538.39288020726
  0
LINE
  5
5E
100
AcDbEntity
  8
____
  6
CONTINUOUS
 62
           3
100
AcDbLine
 10
-580.158414184408
 20
1576.890460543778
 11
-580.158414184408
 21
1575.951495169716
  0
LINE
  5
5D
100
AcDbEntity
  8
____
  6
CONTINUOUS
 62
           3
100
AcDbLine
 10
-569.841585815545
 20
1576.890460543778
 11
-580.158414184408
 21
1576.890460543778
  0
LINE
  5
5C
100
AcDbEntity
  8
____
  6
CONTINUOUS
 62
           3
100
AcDbLine
 10
-569.841585815545
 20
1575.951495169716
 11
-569.841585815545
 21
1576.890460543778
  0
LINE
  5
5B
100
AcDbEntity
  8
____
  6
CONTINUOUS
 62
           3
100
AcDbLine
 10
-580.404052955095
 20
1614.449075506232
 11
-569.595947044857
 21
1614.449075506232
  0
LINE
  5
5A
100
AcDbEntity
  8
____
  6
CONTINUOUS
 62
           3
100
AcDbLine
 10
-580.502308463369
 20
1575.951495169716
 11
-569.497691536592
 21
1575.951495169716
  0
LINE
  5
59
100
AcDbEntity
  8
____
  6
CONTINUOUS
 62
           3
100
AcDbLine
 10
-580.502308463369
 20
1540.270810955383
 11
-580.502308463369
 21
1575.951495169716
  0
LINE
  5
58
100
AcDbEntity
  8
____
  6
CONTINUOUS
 62
           3
100
AcDbLine
 10
-569.497691536592
 20
1540.270810955383
 11
-580.502308463369
 21
1540.270810955383
  0
LINE
  5
57
100
AcDbEntity
  8
____
  6
CONTINUOUS
 62
           3
100
AcDbLine
 10
-569.497691536592
 20
1575.951495169716
 11
-569.497691536592
 21
1540.270810955383
  0
LINE
  5
56
100
AcDbEntity
  8
____
  6
CONTINUOUS
 62
           3
100
AcDbLine
 10
-580.404052955095
 20
1614.449075506232
 11
-579.91277541372
 21
1614.918558193264
  0
LINE
  5
55
100
AcDbEntity
  8
____
  6
CONTINUOUS
 62
           3
100
AcDbLine
 10
-570.087224586232
 20
1614.918558193264
 11
-569.595947044857
 21
1614.449075506232
  0
LINE
  5
54
100
AcDbEntity
  8
____
  6
CONTINUOUS
 62
           3
100
AcDbLine
 10
-579.912775413721
 20
1537.923397520231
 11
-580.404052955096
 21
1538.39288020726
  0
LINE
  5
53
100
AcDbEntity
  8
____
  6
CONTINUOUS
 62
           3
100
AcDbLine
 10
-569.595947044858
 20
1538.39288020726
 11
-570.087224586232
 21
1537.923397520231
  0
LINE
  5
52
100
AcDbEntity
  8
____
  6
CONTINUOUS
 62
           3
100
AcDbLine
 10
-580.404052955096
 20
1538.39288020726
 11
-569.595947044858
 21
1538.39288020726
  0
LINE
  5
51
100
AcDbEntity
  8
____
  6
CONTINUOUS
 62
           3
100
AcDbLine
 10
-580.40405295512
 20
984.403309517207
 11
-569.595947044882
 21
984.403309517207
  0
LINE
  5
50
100
AcDbEntity
  8
____
  6
CONTINUOUS
 62
           3
100
AcDbLine
 10
-569.595947044882
 20
984.403309517207
 11
-570.087224586257
 21
983.933826830176
  0
LINE
  5
4F
100
AcDbEntity
  8
____
  6
CONTINUOUS
 62
           3
100
AcDbLine
 10
-579.912775413746
 20
983.933826830176
 11
-580.40405295512
 21
984.403309517207
  0
LINE
  5
4E
100
AcDbEntity
  8
____
  6
CONTINUOUS
 62
           3
100
AcDbLine
 10
-570.087224586255
 20
1060.92898750321
 11
-569.59594704488
 21
1060.459504816179
  0
LINE
  5
4D
100
AcDbEntity
  8
____
  6
CONTINUOUS
 62
           3
100
AcDbLine
 10
-580.404052955118
 20
1060.459504816179
 11
-579.912775413744
 21
1060.92898750321
  0
LINE
  5
4C
100
AcDbEntity
  8
____
  6
CONTINUOUS
 62
           3
100
AcDbLine
 10
-569.497691536608
 20
1021.961924479662
 11
-569.497691536609
 21
986.28124026533
  0
LINE
  5
4B
100
AcDbEntity
  8
____
  6
CONTINUOUS
 62
           3
100
AcDbLine
 10
-569.497691536609
 20
986.28124026533
 11
-580.502308463385
 21
986.28124026533
  0
LINE
  5
4A
100
AcDbEntity
  8
____
  6
CONTINUOUS
 62
           3
100
AcDbLine
 10
-580.502308463385
 20
986.28124026533
 11
-580.502308463384
 21
1021.961924479662
  0
LINE
  5
49
100
AcDbEntity
  8
____
  6
CONTINUOUS
 62
           3
100
AcDbLine
 10
-580.502308463384
 20
1021.961924479662
 11
-569.497691536608
 21
1021.961924479662
  0
LINE
  5
48
100
AcDbEntity
  8
____
  6
CONTINUOUS
 62
           3
100
AcDbLine
 10
-580.404052955118
 20
1060.459504816179
 11
-569.59594704488
 21
1060.459504816179
  0
LINE
  5
47
100
AcDbEntity
  8
____
  6
CONTINUOUS
 62
           3
100
AcDbLine
 10
-569.841585815569
 20
1021.961924479662
 11
-569.841585815569
 21
1022.900889853723
  0
LINE
  5
46
100
AcDbEntity
  8
____
  6
CONTINUOUS
 62
           3
100
AcDbLine
 10
-569.841585815569
 20
1022.900889853723
 11
-580.158414184432
 21
1022.900889853724
  0
LINE
  5
45
100
AcDbEntity
  8
____
  6
CONTINUOUS
 62
           3
100
AcDbLine
 10
-580.158414184432
 20
1022.900889853724
 11
-580.158414184432
 21
1021.961924479662
  0
LINE
  5
44
100
AcDbEntity
  8
____
  6
CONTINUOUS
 62
           3
100
AcDbLine
 10
-569.595947044882
 20
986.28124026533
 11
-569.595947044882
 21
984.403309517207
  0
LINE
  5
43
100
AcDbEntity
  8
____
  6
CONTINUOUS
 62
           3
100
AcDbLine
 10
-570.087224586257
 20
983.933826830176
 11
-579.912775413746
 21
983.933826830176
  0
LINE
  5
42
100
AcDbEntity
  8
____
  6
CONTINUOUS
 62
           3
100
AcDbLine
 10
-580.40405295512
 20
984.403309517207
 11
-580.40405295512
 21
986.28124026533
  0
LINE
  5
41
100
AcDbEntity
  8
____
  6
CONTINUOUS
 62
           3
100
AcDbLine
 10
-580.502308463384
 20
1022.900889853724
 11
-580.502308463384
 21
1058.581574068057
  0
LINE
  5
40
100
AcDbEntity
  8
____
  6
CONTINUOUS
 62
           3
100
AcDbLine
 10
-580.502308463384
 20
1058.581574068057
 11
-569.497691536607
 21
1058.581574068057
  0
LINE
  5
3F
100
AcDbEntity
  8
____
  6
CONTINUOUS
 62
           3
100
AcDbLine
 10
-569.497691536607
 20
1058.581574068057
 11
-569.497691536608
 21
1022.900889853723
  0
LINE
  5
3E
100
AcDbEntity
  8
____
  6
CONTINUOUS
 62
           3
100
AcDbLine
 10
-569.497691536608
 20
1022.900889853723
 11
-580.502308463384
 21
1022.900889853724
  0
LINE
  5
3D
100
AcDbEntity
  8
____
  6
CONTINUOUS
 62
           3
100
AcDbLine
 10
-580.404052955118
 20
1058.581574068057
 11
-580.404052955118
 21
1060.459504816179
  0
LINE
  5
3C
100
AcDbEntity
  8
____
  6
CONTINUOUS
 62
           3
100
AcDbLine
 10
-579.912775413744
 20
1060.92898750321
 11
-570.087224586255
 21
1060.92898750321
  0
LINE
  5
3B
100
AcDbEntity
  8
____
  6
CONTINUOUS
 62
           3
100
AcDbLine
 10
-569.59594704488
 20
1060.459504816179
 11
-569.59594704488
 21
1058.581574068057
  0
LINE
  5
3A
100
AcDbEntity
  8
___S__
  6
DOT_CENTER
 62
           3
100
AcDbLine
 10
-575.0
 20
1067.063266596461
 11
-575.000000000001
 21
982.067556365336
  0
LINE
  5
39
100
AcDbEntity
  8
1
  6
CONTINUOUS
 62
           7
100
AcDbLine
 10
3999.999999999998
 20
500.0
 11
3999.999999999999
 21
1767.293273528177
  0
LINE
  5
38
100
AcDbEntity
  8
1
  6
CONTINUOUS
 62
           2
100
AcDbLine
 10
3979.999999999998
 20
520.0
 11
3979.999999999999
 21
1715.525103244275
  0
LINE
  5
37
100
AcDbEntity
  8
1
  6
CONTINUOUS
 62
           2
100
AcDbLine
 10
4019.999999999998
 20
1980.0
 11
4019.999999999999
 21
1814.464669216343
  0
LINE
  5
36
100
AcDbEntity
  8
1
  6
CONTINUOUS
 62
           2
100
AcDbLine
 10
3979.999999999999
 20
1741.488764155307
 11
3979.999999999998
 21
1980.0
  0
LINE
  5
35
100
AcDbEntity
  8
1
  6
CONTINUOUS
 62
           7
100
AcDbLine
 10
3999.999999999999
 20
1784.157226830845
 11
3999.999999999998
 21
2000.0
  0
LINE
  5
34
100
AcDbEntity
  8
1
  6
CONTINUOUS
 62
           2
100
AcDbLine
 10
4019.999999999999
 20
1800.831132334586
 11
4019.999999999998
 21
520.0
  0
LINE
  5
33
100
AcDbEntity
  8
1
  6
CONTINUOUS
 62
           7
100
AcDbLine
 10
-569.497691536609
 20
986.513526798368
 11
575.0
 21
986.513526798368
  0
LINE
  5
32
100
AcDbEntity
  8
1
  6
CONTINUOUS
 62
           7
100
AcDbLine
 10
3549.999999999998
 20
1619.999999999999
 11
3549.999999999999
 21
1733.0
  0
LINE
  5
31
100
AcDbEntity
  8
1
  6
CONTINUOUS
 62
           7
100
AcDbLine
 10
3729.999999999999
 20
1733.0
 11
3729.999999999999
 21
1620.0
  0
LINE
  5
30
100
AcDbEntity
  8
1
  6
CONTINUOUS
 62
           7
100
AcDbLine
 10
3549.999999999999
 20
1733.0
 11
3729.999999999999
 21
1733.0
  0
LINE
  5
2F
100
AcDbEntity
  8
1
  6
CONTINUOUS
 62
           7
100
AcDbLine
 10
3729.999999999999
 20
1620.0
 11
3549.999999999998
 21
1619.999999999999
  0
LINE
  5
2E
100
AcDbEntity
  8
1
  6
CONTINUOUS
 62
           7
100
AcDbLine
 10
750.0
 20
1763.744569986044
 11
-750.0
 21
1763.744569986044
  0
POINT
  5
2D
100
AcDbEntity
  8
0
 62
           3
100
AcDbPoint
 10
3833.399996721733
 20
1365.000000000117
  0
ENDSEC
  0
SECTION
  2
OBJECTS
  0
DICTIONARY
  5
19
100
AcDbDictionary
  3
ACAD_GROUP
350
1A
  3
ACAD_MLINESTYLE
350
1B
  0
DICTIONARY
  5
1A
102
{ACAD_REACTORS
330
19
102
}
100
AcDbDictionary
  0
DICTIONARY
  5
1B
102
{ACAD_REACTORS
330
19
102
}
100
AcDbDictionary
  3
STANDARD
350
1C
  0
MLINESTYLE
  5
1C
102
{ACAD_REACTORS
330
1B
102
}
100
AcDbMlineStyle
  2
STANDARD
 70
           0
  3

 62
           0
 51
90.0
 52
90.0
 71
           2
 49
0.5
 62
         256
  6
BYLAYER
 49
-0.5
 62
         256
  6
BYLAYER
  0
ENDSEC
  0
EOF
