  0
SECTION
  2
HEADER
  9
$ACADVER
  1
AC1014
  9
$ACADMAINTVER
 70
           0
  9
$DWGCODEPAGE
  3
DOS932
  9
$INSBASE
 10
0.0
 20
0.0
 30
0.0
  9
$EXTMIN
 10
1.000000000000E+20
 20
1.000000000000E+20
 30
1.000000000000E+20
  9
$EXTMAX
 10
-1.000000000000E+20
 20
-1.000000000000E+20
 30
-1.000000000000E+20
  9
$LIMMIN
 10
0.0
 20
0.0
  9
$LIMMAX
 10
0.0
 20
0.0
  9
$ORTHOMODE
 70
           0
  9
$REGENMODE
 70
           1
  9
$FILLMODE
 70
           1
  9
$QTEXTMODE
 70
           0
  9
$MIRRTEXT
 70
           1
  9
$DRAGMODE
 70
           2
  9
$LTSCALE
 40
1.0
  9
$OSMODE
 70
           0
  9
$ATTMODE
 70
           1
  9
$TEXTSIZE
 40
0.2
  9
$TRACEWID
 40
0.05
  9
$TEXTSTYLE
  7
STANDARD
  9
$CLAYER
  8
0
  9
$CELTYPE
  6
CONTINUOUS
  9
$CECOLOR
 62
         256
  9
$CELTSCALE
 40
1.0
  9
$DELOBJ
 70
           1
  9
$DISPSILH
 70
           0
  9
$DIMSCALE
 40
1.0
  9
$DIMASZ
 40
0.18
  9
$DIMEXO
 40
0.0625
  9
$DIMDLI
 40
0.38
  9
$DIMRND
 40
0.0
  9
$DIMDLE
 40
0.0
  9
$DIMEXE
 40
0.18
  9
$DIMTP
 40
0.0
  9
$DIMTM
 40
0.0
  9
$DIMTXT
 40
0.18
  9
$DIMCEN
 40
0.09
  9
$DIMTSZ
 40
0.0
  9
$DIMTOL
 70
           0
  9
$DIMLIM
 70
           0
  9
$DIMTIH
 70
           1
  9
$DIMTOH
 70
           1
  9
$DIMSE1
 70
           0
  9
$DIMSE2
 70
           0
  9
$DIMTAD
 70
           0
  9
$DIMZIN
 70
           0
  9
$DIMBLK
  1

  9
$DIMASO
 70
           1
  9
$DIMSHO
 70
           1
  9
$DIMPOST
  1

  9
$DIMAPOST
  1

  9
$DIMALT
 70
           0
  9
$DIMALTD
 70
           2
  9
$DIMALTF
 40
25.4
  9
$DIMLFAC
 40
1.0
  9
$DIMTOFL
 70
           0
  9
$DIMTVP
 40
0.0
  9
$DIMTIX
 70
           0
  9
$DIMSOXD
 70
           0
  9
$DIMSAH
 70
           0
  9
$DIMBLK1
  1

  9
$DIMBLK2
  1

  9
$DIMSTYLE
  2
STANDARD
  9
$DIMCLRD
 70
           0
  9
$DIMCLRE
 70
           0
  9
$DIMCLRT
 70
           0
  9
$DIMTFAC
 40
1.0
  9
$DIMGAP
 40
0.09
  9
$DIMJUST
 70
           0
  9
$DIMSD1
 70
           0
  9
$DIMSD2
 70
           0
  9
$DIMTOLJ
 70
           1
  9
$DIMTZIN
 70
           0
  9
$DIMALTZ
 70
           0
  9
$DIMALTTZ
 70
           0
  9
$DIMFIT
 70
           3
  9
$DIMUPT
 70
           0
  9
$DIMUNIT
 70
           2
  9
$DIMDEC
 70
           4
  9
$DIMTDEC
 70
           4
  9
$DIMALTU
 70
           2
  9
$DIMALTTD
 70
           2
  9
$DIMTXSTY
  7
STANDARD
  9
$DIMAUNIT
 70
           0
  9
$LUNITS
 70
           2
  9
$LUPREC
 70
           4
  9
$SKETCHINC
 40
0.1
  9
$FILLETRAD
 40
0.0
  9
$AUNITS
 70
           0
  9
$AUPREC
 70
           0
  9
$MENU
  1
acad
  9
$ELEVATION
 40
0.0
  9
$PELEVATION
 40
0.0
  9
$THICKNESS
 40
0.0
  9
$LIMCHECK
 70
           0
  9
$BLIPMODE
 70
           1
  9
$CHAMFERA
 40
0.0
  9
$CHAMFERB
 40
0.0
  9
$CHAMFERC
 40
0.0
  9
$CHAMFERD
 40
0.0
  9
$SKPOLY
 70
           0
  9
$TDCREATE
 40
0.000000000
  9
$TDUPDATE
 40
0.000000000
  9
$TDINDWG
 40
0.0000000000
  9
$TDUSRTIMER
 40
0.0000000000
  9
$USRTIMER
 70
           1
  9
$ANGBASE
 50
0.0
  9
$ANGDIR
 70
           0
  9
$PDMODE
 70
           0
  9
$PDSIZE
 40
0.0
  9
$PLINEWID
 40
0.0
  9
$COORDS
 70
           0
  9
$SPLFRAME
 70
           0
  9
$SPLINETYPE
 70
           6
  9
$SPLINESEGS
 70
           8
  9
$ATTDIA
 70
           0
  9
$ATTREQ
 70
           1
  9
$HANDLING
 70
           1
  9
$HANDSEED
  5
47C
  9
$SURFTAB1
 70
           6
  9
$SURFTAB2
 70
           6
  9
$SURFTYPE
 70
           6
  9
$SURFU
 70
           6
  9
$SURFV
 70
           6
  9
$UCSNAME
  2

  9
$UCSORG
 10
0.0
 20
0.0
 30
0.0
  9
$UCSXDIR
 10
1.0
 20
0.0
 30
0.0
  9
$UCSYDIR
 10
0.0
 20
1.0
 30
0.0
  9
$PUCSNAME
  2

  9
$PUCSORG
 10
0.0
 20
0.0
 30
0.0
  9
$PUCSXDIR
 10
1.0
 20
0.0
 30
0.0
  9
$PUCSYDIR
 10
0.0
 20
1.0
 30
0.0
  9
$USERI1
 70
           0
  9
$USERI2
 70
           0
  9
$USERI3
 70
           0
  9
$USERI4
 70
           0
  9
$USERI5
 70
           0
  9
$USERR1
 40
0.0
  9
$USERR2
 40
0.0
  9
$USERR3
 40
0.0
  9
$USERR4
 40
0.0
  9
$USERR5
 40
0.0
  9
$WORLDVIEW
 70
           1
  9
$SHADEDGE
 70
           3
  9
$SHADEDIF
 70
          70
  9
$TILEMODE
 70
           1
  9
$MAXACTVP
 70
          16
  9
$PINSBASE
 10
0.0
 20
0.0
 30
0.0
  9
$PLIMCHECK
 70
           0
  9
$PEXTMIN
 10
1.000000000000E+20
 20
1.000000000000E+20
 30
1.000000000000E+20
  9
$PEXTMAX
 10
-1.000000000000E+20
 20
-1.000000000000E+20
 30
-1.000000000000E+20
  9
$PLIMMIN
 10
0.0
 20
0.0
  9
$PLIMMAX
 10
12.0
 20
9.0
  9
$UNITMODE
 70
           0
  9
$VISRETAIN
 70
           0
  9
$PLINEGEN
 70
           1
  9
$PSLTSCALE
 70
           0
  9
$TREEDEPTH
 70
        3020
  9
$PICKSTYLE
 70
           1
  9
$CMLSTYLE
  2
STANDARD
  9
$CMLJUST
 70
           0
  9
$CMLSCALE
 40
1.0
  9
$PROXYGRAPHICS
 70
           0
  9
$MEASUREMENT
 70
           0
  0
ENDSEC
  0
SECTION
  2
CLASSES
  0
CLASS
  1
LWPOLYLINE
  2
AcDbPolyline
  3
"AutoCAD"
 90
        0
280
           0
281
           1
  0
CLASS
  1
IMAGE
  2
AcDbRasterImage
  3
ISM
 90
      127
280
           0
281
           1
  0
CLASS
  1
OLE2FRAME
  2
AcDbOle2Frame
  3
""
 90
        0
280
           0
281
           1
  0
CLASS
  1
HATCH
  2
AcDbHatch
  3
"ACAD_SEDONA"
 90
        0
280
           0
281
           1
  0
CLASS
  1
DICTIONARYVAR
  2
AcDbDictionaryVar
  3
"AutoCAD"
 90
        0
280
           0
281
           0
  0
CLASS
  1
RASTERVARIABLES
  2
AcDbRasterVariables
  3
ISM
 90
        0
280
           0
281
           0
  0
CLASS
  1
IMAGEDEF
  2
AcDbRasterImageDef
  3
ISM
 90
        0
280
           0
281
           0
  0
CLASS
  1
IMAGEDEF_REACTOR
  2
AcDbRasterImageDefReactor
  3
ISM
 90
        1
280
           0
281
           0
  0
CLASS
  1
IDBUFFER
  2
AcDbIdBuffer
  3
"Acad"
 90
        0
280
           0
281
           0
  0
CLASS
  1
SPATIAL_FILTER
  2
AcDbSpatialFilter
  3
"Acad"
 90
        0
280
           0
281
           0
  0
CLASS
  1
XRECORD
  2
AcDbXrecord
  3
"<Built In>"
 90
        0
280
           0
281
           0
  0
CLASS
  1
SORTENTSTABLE
  2
AcDbSortentsTable
  3
"AutoCAD"
 90
        0
280
           0
281
           0
  0
CLASS
  1
LAYER_INDEX
  2
AcDbLayerIndex
  3
"Acad"
 90
        0
280
           0
281
           0
  0
CLASS
  1
SPATIAL_INDEX
  2
AcDbSpatialIndex
  3
"Acad"
 90
        0
280
           0
281
           0
  0
CLASS
  1
OBJECT_PTR
  2
CAseDLPNTableRecord
  3
"ASE-LPNTableRecord"
 90
        1
280
           0
281
           0
  0
CLASS
  1
LAYOUT
  2
AcDbLayout
  3
"AutoCAD 2000"
 90
        1
280
           0
281
           0
  0
CLASS
  1
PLOTSETTINGS
  2
AcDbPlotSettings
  3
"AutoCAD 2000"
 90
        1
280
           0
281
           0
  0
CLASS
  1
ACDBDICTIONARYWDFLT
  2
AcDbDictionaryWithDefault
  3
"AutoCAD 2000"
 90
        1
280
           0
281
           0
  0
CLASS
  1
ACDBPLACEHOLDER
  2
AcDbPlaceHolder
  3
"AutoCAD 2000"
 90
        1
280
           0
281
           0
  0
CLASS
  1
VBA_PROJECT
  2
AcDbVbaProject
  3
"acadvba"
 90
        1
280
           0
281
           0
  0
CLASS
  1
WIPEOUT
  2
AcDbWipeout
  3
WipeOut|AutoCAD Express Tool|expresstools@autodesk.com
 90
      127
280
           0
281
           1
  0
CLASS
  1
WIPEOUTVARIABLES
  2
AcDbWipeoutVariables
  3
WipeOut|AutoCAD Express Tool|expresstools@autodesk.com
 90
        0
280
           0
281
           0
  0
CLASS
  1
RTEXT
  2
RText
  3
RText|AutoCAD Express Tool|expresstools@autodesk.com
 90
        0
280
           0
281
           1
  0
CLASS
  1
ARCALIGNEDTEXT
  2
AcDbArcAlignedText
  3
ATEXT|AutoCAD Express Tool|expresstools@autodesk.com
 90
        0
280
           0
281
           1
  0
ENDSEC
  0
SECTION
  2
TABLES
  0
TABLE
  2
VPORT
  5
7
100
AcDbSymbolTable
 70
           1
  0
VPORT
  5
15
100
AcDbSymbolTableRecord
100
AcDbViewportTableRecord
  2
*ACTIVE
 70
           0
 10
0.0
 20
0.0
 11
1.0
 21
1.0
 12
6.591288
 22
4.579184
 13
0.0
 23
0.0
 14
1.0
 24
1.0
 15
0.0
 25
0.0
 16
0.0
 26
0.0
 36
1.0
 17
0.0
 27
0.0
 37
0.0
 40
9.158369
 41
0.688564
 42
50.0
 43
0.0
 44
0.0
 50
0.0
 51
0.0
 71
           0
 72
         100
 73
           1
 74
           1
 75
           0
 76
           0
 77
           0
 78
           0
  0
ENDTAB
  0
TABLE
  2
LTYPE
  5
4
100
AcDbSymbolTable
 70
          10
  0
LTYPE
  5
11
100
AcDbSymbolTableRecord
100
AcDbLinetypeTableRecord
  2
BYBLOCK
 70
          64
  3

 72
          65
 73
           0
 40
0.0
  0
LTYPE
  5
12
100
AcDbSymbolTableRecord
100
AcDbLinetypeTableRecord
  2
BYLAYER
 70
          64
  3

 72
          65
 73
           0
 40
0.0
  0
LTYPE
  5
13
100
AcDbSymbolTableRecord
100
AcDbLinetypeTableRecord
  2
CONTINUOUS
 70
          64
  3
Solid line
 72
          65
 73
           0
 40
0.0
  0
LTYPE
  5
1D
100
AcDbSymbolTableRecord
100
AcDbLinetypeTableRecord
  2
DASHED
 70
          64
  3
Dashed
 72
          65
 73
           2
 40
15.0
 49
12.0
 74
           0
 49
-3.0
 74
           0
  0
LTYPE
  5
1E
100
AcDbSymbolTableRecord
100
AcDbLinetypeTableRecord
  2
DOTTED
 70
          64
  3
Dotted
 72
          65
 73
           2
 40
3.5
 49
0.5
 74
           0
 49
-3.0
 74
           0
  0
LTYPE
  5
1F
100
AcDbSymbolTableRecord
100
AcDbLinetypeTableRecord
  2
DOT_CENTER
 70
          64
  3
Dot_Center
 72
          65
 73
           4
 40
2.0
 49
1.25
 74
           0
 49
-0.25
 74
           0
 49
0.25
 74
           0
 49
-0.25
 74
           0
  0
LTYPE
  5
20
100
AcDbSymbolTableRecord
100
AcDbLinetypeTableRecord
  2
LONG_DASHED
 70
          64
  3
Long_Dashed
 72
          65
 73
           2
 40
2.0
 49
1.5
 74
           0
 49
-0.5
 74
           0
  0
LTYPE
  5
21
100
AcDbSymbolTableRecord
100
AcDbLinetypeTableRecord
  2
DASH_CENTER
 70
          64
  3
Dash_Center
 72
          65
 73
           4
 40
36.0
 49
24.0
 74
           0
 49
-3.0
 74
           0
 49
6.0
 74
           0
 49
-3.0
 74
           0
  0
LTYPE
  5
22
100
AcDbSymbolTableRecord
100
AcDbLinetypeTableRecord
  2
PHANTOM
 70
          64
  3
Phantom
 72
          65
 73
           6
 40
2.5
 49
1.25
 74
           0
 49
-0.25
 74
           0
 49
0.25
 74
           0
 49
-0.25
 74
           0
 49
0.25
 74
           0
 49
-0.25
 74
           0
  0
LTYPE
  5
23
100
AcDbSymbolTableRecord
100
AcDbLinetypeTableRecord
  2
CENTER_DASH_DASH
 70
          64
  3
Center_Dash_Dash
 72
          65
 73
           6
 40
22.0
 49
12.0
 74
           0
 49
-3.0
 74
           0
 49
0.5
 74
           0
 49
-3.0
 74
           0
 49
0.5
 74
           0
 49
-3.0
 74
           0
  0
ENDTAB
  0
TABLE
  2
LAYER
  5
2
100
AcDbSymbolTable
 70
           7
  0
LAYER
  5
14
100
AcDbSymbolTableRecord
100
AcDbLayerTableRecord
  2
0
 70
           0
 62
           7
  6
CONTINUOUS
  0
LAYER
  5
24
100
AcDbSymbolTableRecord
100
AcDbLayerTableRecord
  2
___S__
 70
           0
 62
           7
  6
CONTINUOUS
  0
LAYER
  5
25
100
AcDbSymbolTableRecord
100
AcDbLayerTableRecord
  2
FORMAT
 70
           0
 62
           7
  6
CONTINUOUS
  0
LAYER
  5
26
100
AcDbSymbolTableRecord
100
AcDbLayerTableRecord
  2
1
 70
           0
 62
           7
  6
CONTINUOUS
  0
LAYER
  5
27
100
AcDbSymbolTableRecord
100
AcDbLayerTableRecord
  2
2
 70
           0
 62
           7
  6
CONTINUOUS
  0
LAYER
  5
28
100
AcDbSymbolTableRecord
100
AcDbLayerTableRecord
  2
7
 70
           0
 62
           7
  6
CONTINUOUS
  0
LAYER
  5
29
100
AcDbSymbolTableRecord
100
AcDbLayerTableRecord
  2
____
 70
           0
 62
           7
  6
CONTINUOUS
  0
ENDTAB
  0
TABLE
  2
STYLE
  5
3
100
AcDbSymbolTable
 70
           1
  0
STYLE
  5
17
100
AcDbSymbolTableRecord
100
AcDbTextStyleTableRecord
  2
STANDARD
 70
           0
 40
0.0
 41
1.0
 50
0.0
 71
           0
 42
0.0
  3
txt
  4

  0
ENDTAB
  0
TABLE
  2
VIEW
  5
5
100
AcDbSymbolTable
 70
           0
  0
ENDTAB
  0
TABLE
  2
UCS
  5
6
100
AcDbSymbolTable
 70
           0
  0
ENDTAB
  0
TABLE
  2
APPID
  5
8
100
AcDbSymbolTable
 70
           1
  0
APPID
  5
16
100
AcDbSymbolTableRecord
100
AcDbRegAppTableRecord
  2
ACAD
 70
           0
  0
ENDTAB
  0
TABLE
  2
DIMSTYLE
  5
9
100
AcDbSymbolTable
 70
           1
  0
DIMSTYLE
105
18
100
AcDbSymbolTableRecord
100
AcDbDimStyleTableRecord
  2
STANDARD
 70
           0
  3

  4

  5

  6

  7

 40
1.0
 41
0.18
 42
0.0625
 43
0.38
 44
0.18
 45
0.0
 46
0.0
 47
0.0
 48
0.0
 71
           0
 72
           0
 73
           1
 74
           1
 75
           0
 76
           0
 77
           0
 78
           0
140
0.18
141
0.09
142
0.0
143
25.4
144
1.0
145
0.0
146
1.0
147
0.09
170
           0
171
           2
172
           0
173
           0
174
           0
175
           0
176
           0
177
           0
178
           0
270
           2
271
           4
272
           4
273
           2
274
           2
275
           0
280
           0
281
           0
282
           0
283
           1
284
           0
285
           0
286
           0
287
           0
288
           0
340
17
  0
ENDTAB
  0
TABLE
  2
BLOCK_RECORD
  5
1
100
AcDbSymbolTable
 70
           0
  0
BLOCK_RECORD
  5
A
100
AcDbSymbolTableRecord
100
AcDbBlockTableRecord
  2
*MODEL_SPACE
  0
BLOCK_RECORD
  5
B
100
AcDbSymbolTableRecord
100
AcDbBlockTableRecord
  2
*PAPER_SPACE
  0
ENDTAB
  0
ENDSEC
  0
SECTION
  2
BLOCKS
  0
BLOCK
  5
D
100
AcDbEntity
  8
0
100
AcDbBlockBegin
  2
*MODEL_SPACE
 70
           0
 10
0.0
 20
0.0
 30
0.0
  3
*MODEL_SPACE
  1

  0
ENDBLK
  5
E
100
AcDbEntity
  8
0
100
AcDbBlockEnd
  0
BLOCK
  5
F
100
AcDbEntity
 67
           1
  8
0
100
AcDbBlockBegin
  2
*PAPER_SPACE
 70
           0
 10
0.0
 20
0.0
 30
0.0
  3
*PAPER_SPACE
  1

  0
ENDBLK
  5
10
100
AcDbEntity
 67
           1
  8
0
100
AcDbBlockEnd
  0
ENDSEC
  0
SECTION
  2
ENTITIES
  0
HATCH
  5
47A
100
AcDbEntity
  8
0
  6
CONTINUOUS
 62
           3
100
AcDbHatch
 10
0.0
 20
0.0
 30
0.0
210
0.0
220
0.0
230
1.0
  2
USER
 70
           0
 71
           1
 91
        1
 92
        1
 93
        8
 72
           1
 10
3452.3141856546449
 20
1317.4999999999891
 11
3452.3141856546449
 21
1337.4999999999891
 72
           1
 10
3375.0000000000009
 20
1317.5
 11
3452.3141856546449
 21
1317.4999999999891
 72
           2
 10
3375.0000000000009
 20
1367.5
 40
50.0
 50
-179.999999999987
 51
-90.0
 73
           1
 72
           1
 10
3325.0000000000009
 20
1430.0
 11
3325.0000000000009
 21
1367.4999999999891
 72
           1
 10
3345.0000000000009
 20
1430.0
 11
3325.0000000000009
 21
1430.0
 72
           1
 10
3345.0000000000009
 20
1367.4999999999891
 11
3345.0000000000009
 21
1430.0
 72
           2
 10
3375.0000000000009
 20
1367.4999999999891
 40
30.0
 50
180.0
 51
-90.0
 73
           1
 72
           1
 10
3452.3141856546449
 20
1337.4999999999891
 11
3375.0000000000009
 21
1337.4999999999891
 97
        8
330
BA
330
BB
330
45F
330
BC
330
BD
330
B8
330
460
330
B9
 75
           1
 76
           0
 52
45.0
 41
10.0
 77
           0
 78
           1
 53
45.0
 43
0.0
 44
0.0
 45
-7.0710678118654746
 46
7.0710678118654755
 79
           0
 98
        1
 10
0.0
 20
0.0
  0
ARC
  5
479
100
AcDbEntity
  8
1
  6
CONTINUOUS
 62
           7
100
AcDbCircle
 10
156.5
 20
5185.749999999998
 40
10.0
100
AcDbArc
 50
0.0
 51
90.0
  0
ARC
  5
478
100
AcDbEntity
  8
1
  6
CONTINUOUS
 62
           7
100
AcDbCircle
 10
156.5
 20
5118.249999999998
 40
10.0
100
AcDbArc
 50
-90.0
 51
0.0
  0
ARC
  5
477
100
AcDbEntity
  8
1
  6
CONTINUOUS
 62
           7
100
AcDbCircle
 10
123.946258446662
 20
5185.749999999998
 40
10.0
100
AcDbArc
 50
90.0
 51
180.0
  0
ARC
  5
476
100
AcDbEntity
  8
1
  6
CONTINUOUS
 62
           7
100
AcDbCircle
 10
123.946258446662
 20
5118.249999999998
 40
10.0
100
AcDbArc
 50
180.0
 51
-90.0
  0
ARC
  5
475
100
AcDbEntity
  8
1
  6
CONTINUOUS
 62
           4
100
AcDbCircle
 10
109.265668111722
 20
5123.249999999998
 40
10.0
100
AcDbArc
 50
-120.430594205706
 51
-90.0
  0
ARC
  5
474
100
AcDbEntity
  8
1
  6
CONTINUOUS
 62
           4
100
AcDbCircle
 10
109.265668111722
 20
5180.749999999998
 40
10.0
100
AcDbArc
 50
90.0
 51
120.430594205711
  0
ARC
  5
473
100
AcDbEntity
  8
1
  6
CONTINUOUS
 62
           7
100
AcDbCircle
 10
156.5
 20
2825.000000000001
 40
10.0
100
AcDbArc
 50
0.0
 51
90.0
  0
ARC
  5
472
100
AcDbEntity
  8
1
  6
CONTINUOUS
 62
           7
100
AcDbCircle
 10
156.5
 20
2765.000000000001
 40
10.0
100
AcDbArc
 50
-90.0
 51
0.0
  0
ARC
  5
471
100
AcDbEntity
  8
1
  6
CONTINUOUS
 62
           7
100
AcDbCircle
 10
118.613664
 20
2825.000000000001
 40
10.0
100
AcDbArc
 50
90.0
 51
180.0
  0
ARC
  5
470
100
AcDbEntity
  8
1
  6
CONTINUOUS
 62
           7
100
AcDbCircle
 10
118.613664
 20
2765.000000000001
 40
10.0
100
AcDbArc
 50
180.0
 51
-90.0
  0
ARC
  5
46F
100
AcDbEntity
  8
1
  6
CONTINUOUS
 62
           7
100
AcDbCircle
 10
4756.249999999998
 20
2825.000000000001
 40
10.0
100
AcDbArc
 50
90.0
 51
180.0
  0
ARC
  5
46E
100
AcDbEntity
  8
1
  6
CONTINUOUS
 62
           7
100
AcDbCircle
 10
4823.749999999998
 20
2825.000000000001
 40
10.0
100
AcDbArc
 50
0.0
 51
90.0
  0
ARC
  5
46D
100
AcDbEntity
  8
1
  6
CONTINUOUS
 62
           7
100
AcDbCircle
 10
4756.249999999998
 20
2765.000000000001
 40
10.0
100
AcDbArc
 50
180.0
 51
-90.0
  0
ARC
  5
46C
100
AcDbEntity
  8
1
  6
CONTINUOUS
 62
           7
100
AcDbCircle
 10
4823.749999999998
 20
2765.000000000001
 40
10.0
100
AcDbArc
 50
-90.0
 51
0.0
  0
ARC
  5
46B
100
AcDbEntity
  8
1
  6
CONTINUOUS
 62
           4
100
AcDbCircle
 10
5305.499999999998
 20
2610.500000000002
 40
1.0
100
AcDbArc
 50
180.0
 51
-90.0
  0
ARC
  5
46A
100
AcDbEntity
  8
1
  6
CONTINUOUS
 62
           4
100
AcDbCircle
 10
5294.499999999998
 20
2610.500000000002
 40
1.0
100
AcDbArc
 50
-90.0
 51
0.0
  0
ARC
  5
469
100
AcDbEntity
  8
1
  6
CONTINUOUS
 62
           4
100
AcDbCircle
 10
5305.499999999998
 20
2159.5
 40
1.0
100
AcDbArc
 50
90.0
 51
180.0
  0
ARC
  5
468
100
AcDbEntity
  8
1
  6
CONTINUOUS
 62
           4
100
AcDbCircle
 10
5294.499999999998
 20
2159.5
 40
1.0
100
AcDbArc
 50
0.0
 51
90.0
  0
ARC
  5
467
100
AcDbEntity
  8
1
  6
CONTINUOUS
 62
           3
100
AcDbCircle
 10
4648.163567691036
 20
1917.80625341996
 40
0.5
100
AcDbArc
 50
180.0
 51
-90.0
  0
ARC
  5
466
100
AcDbEntity
  8
1
  6
CONTINUOUS
 62
           3
100
AcDbCircle
 10
4648.163567691036
 20
1932.19374658004
 40
0.5
100
AcDbArc
 50
90.0
 51
180.0
  0
ARC
  5
465
100
AcDbEntity
  8
1
  6
CONTINUOUS
 62
           3
100
AcDbCircle
 10
4499.899998122322
 20
1641.000000000001
 40
280.0
100
AcDbArc
 50
90.0
 51
180.0
  0
ARC
  5
464
100
AcDbEntity
  8
1
  6
CONTINUOUS
 62
           3
100
AcDbCircle
 10
4499.899996810927
 20
1641.0
 40
288.0
100
AcDbArc
 50
90.0
 51
180.0
  0
ARC
  5
463
100
AcDbEntity
  8
1
  6
CONTINUOUS
 62
           2
100
AcDbCircle
 10
1126.000000000001
 20
1327.499999999978
 40
15.0
100
AcDbArc
 50
-90.0
 51
90.0
  0
ARC
  5
462
100
AcDbEntity
  8
1
  6
CONTINUOUS
 62
           2
100
AcDbCircle
 10
1158.000000000001
 20
1290.499999999978
 40
8.0
100
AcDbArc
 50
-90.0
 51
0.0
  0
ARC
  5
461
100
AcDbEntity
  8
1
  6
CONTINUOUS
 62
           2
100
AcDbCircle
 10
1158.000000000001
 20
1364.499999999978
 40
8.0
100
AcDbArc
 50
0.0
 51
90.0
  0
ARC
  5
460
100
AcDbEntity
  8
1
  6
CONTINUOUS
 62
           4
100
AcDbCircle
 10
3375.000000000001
 20
1367.499999999989
 40
30.0
100
AcDbArc
 50
180.0
 51
-90.0
  0
ARC
  5
45F
100
AcDbEntity
  8
1
  6
CONTINUOUS
 62
           4
100
AcDbCircle
 10
3375.000000000001
 20
1367.5
 40
50.0
100
AcDbArc
 50
-179.999999999987
 51
-90.0
  0
ARC
  5
45E
100
AcDbEntity
  8
1
  6
CONTINUOUS
 62
           7
100
AcDbCircle
 10
-413.0
 20
2188.0
 40
8.0
100
AcDbArc
 50
0.0
 51
90.0
  0
ARC
  5
45D
100
AcDbEntity
  8
1
  6
CONTINUOUS
 62
           7
100
AcDbCircle
 10
-487.0
 20
2188.0
 40
8.0
100
AcDbArc
 50
90.0
 51
180.0
  0
ARC
  5
45C
100
AcDbEntity
  8
1
  6
CONTINUOUS
 62
           7
100
AcDbCircle
 10
-450.0
 20
2156.0
 40
15.000000000002
100
AcDbArc
 50
147.769047364502
 51
180.0
  0
ARC
  5
45B
100
AcDbEntity
  8
1
  6
CONTINUOUS
 62
           7
100
AcDbCircle
 10
3463.000000000006
 20
2188.0
 40
8.0
100
AcDbArc
 50
90.0
 51
180.0
  0
ARC
  5
45A
100
AcDbEntity
  8
1
  6
CONTINUOUS
 62
           7
100
AcDbCircle
 10
3537.000000000006
 20
2188.0
 40
8.0
100
AcDbArc
 50
0.0
 51
90.0
  0
ARC
  5
459
100
AcDbEntity
  8
1
  6
CONTINUOUS
 62
           7
100
AcDbCircle
 10
3500.000000000006
 20
2156.0
 40
15.0
100
AcDbArc
 50
0.0
 51
180.0
  0
ARC
  5
458
100
AcDbEntity
  8
1
  6
CONTINUOUS
 62
           7
100
AcDbCircle
 10
-450.0
 20
2156.0
 40
14.999999999999
100
AcDbArc
 50
32.230952635505
 51
147.769047364502
  0
ARC
  5
457
100
AcDbEntity
  8
1
  6
CONTINUOUS
 62
           7
100
AcDbCircle
 10
-450.0
 20
2156.0
 40
15.0
100
AcDbArc
 50
0.0
 51
32.230952635505
  0
SPLINE
  5
456
100
AcDbEntity
  8
0
  6
CONTINUOUS
 62
           3
100
AcDbSpline
210
0.0
220
0.0
230
1.0
 70
           0
 71
           3
 72
           8
 73
           5
 74
           7
 42
0.00000000001
 43
0.00000000001
 44
0.00000000001
 40
0.0
 40
0.0
 40
0.0
 40
0.2989651950314283
 40
0.4296296276529574
 40
0.4465803504019732
 40
0.4465803504019732
 40
0.4465803504019732
 10
4170.8999966098618
 20
1384.6465796233019
 30
0.0
 10
4170.8999966099082
 20
1384.4669365634261
 30
0.0
 10
4170.8999966099082
 20
1384.2282922931149
 30
0.0
 10
4170.8999966099082
 20
1384.205607698183
 30
0.0
 10
4170.8999966099082
 20
1384.1999992729
 30
0.0
 11
4170.8999966098618
 21
1384.6465796233019
 31
0.0
 11
4170.8999966098963
 21
1384.4703311443234
 31
0.0
 11
4170.8999966099082
 21
1384.3008718271403
 31
0.0
 11
4170.8999966099082
 21
1384.2414172487579
 31
0.0
 11
4170.8999966099082
 21
1384.2082125816614
 31
0.0
 11
4170.8999966099082
 21
1384.2048568127318
 31
0.0
 11
4170.8999966099082
 21
1384.1999992729
 31
0.0
  0
SPLINE
  5
455
100
AcDbEntity
  8
0
  6
CONTINUOUS
 62
           3
100
AcDbSpline
210
0.0
220
0.0
230
1.0
 70
           0
 71
           3
 72
           8
 73
           5
 74
           7
 42
0.00000000001
 43
0.00000000001
 44
0.00000000001
 40
0.0
 40
0.0
 40
0.0
 40
0.0169507227490158
 40
0.1476151553705449
 40
0.4465803504019732
 40
0.4465803504019732
 40
0.4465803504019732
 10
4160.8999968334338
 20
1384.1999992729
 30
0.0
 10
4160.8999968334338
 20
1384.205607698183
 30
0.0
 10
4160.8999968334338
 20
1384.2282922931149
 30
0.0
 10
4160.8999968334338
 20
1384.4669365634261
 30
0.0
 10
4160.8999968334711
 20
1384.6465796233019
 30
0.0
 11
4160.8999968334338
 21
1384.1999992729
 31
0.0
 11
4160.8999968334338
 21
1384.2048568127318
 31
0.0
 11
4160.8999968334338
 21
1384.2082125816612
 31
0.0
 11
4160.8999968334338
 21
1384.2414172487579
 31
0.0
 11
4160.8999968334338
 21
1384.3008718271403
 31
0.0
 11
4160.8999968334429
 21
1384.4703311443236
 31
0.0
 11
4160.8999968334711
 21
1384.6465796233019
 31
0.0
  0
SPLINE
  5
454
100
AcDbEntity
  8
0
  6
CONTINUOUS
 62
           3
100
AcDbSpline
210
0.0
220
0.0
230
1.0
 70
           0
 71
           3
 72
           8
 73
           5
 74
           7
 42
0.00000000001
 43
0.00000000001
 44
0.00000000001
 40
0.0
 40
0.0
 40
0.0
 40
0.4813883392787711
 40
1.3325653926389924
 40
2.5594910488265361
 40
2.5594910488265361
 40
2.5594910488265361
 10
4168.399996665763
 20
1384.1999992729
 30
0.0
 10
4168.4592614719404
 20
1384.2004449713099
 30
0.0
 10
4169.3034813132881
 20
1384.2067938900659
 30
0.0
 10
4170.1307773327781
 20
1384.4346858415561
 30
0.0
 10
4170.8999966098618
 20
1384.6465796233019
 30
0.0
 11
4168.399996665763
 21
1384.1999992729
 31
0.0
 11
4168.5206887308777
 21
1384.2009069323501
 31
0.0
 11
4168.7642353138681
 21
1384.2027385138806
 31
0.0
 11
4169.2533835507384
 21
1384.2291158030616
 31
0.0
 11
4169.6423362625119
 21
1384.3001369182341
 31
0.0
 11
4170.200971884482
 21
1384.4540220561621
 31
0.0
 11
4170.8999966098618
 21
1384.6465796233019
 31
0.0
  0
SPLINE
  5
453
100
AcDbEntity
  8
0
  6
CONTINUOUS
 62
           3
100
AcDbSpline
210
0.0
220
0.0
230
1.0
 70
           0
 71
           3
 72
           8
 73
           5
 74
           7
 42
0.00000000001
 43
0.00000000001
 44
0.00000000001
 40
0.0
 40
0.0
 40
0.0
 40
0.4813884775019844
 40
1.3325655942395651
 40
2.5594910572497471
 40
2.5594910572497471
 40
2.5594910572497471
 10
4163.3999967775526
 20
1384.1999992729
 30
0.0
 10
4163.4592615843849
 20
1384.200444971553
 30
0.0
 10
4164.303481700832
 20
1384.206793895828
 30
0.0
 10
4165.130777567957
 20
1384.4346858417271
 30
0.0
 10
4165.8999967216696
 20
1384.6465796232951
 30
0.0
 11
4163.3999967775526
 21
1384.1999992729
 31
0.0
 11
4163.5206888783605
 21
1384.2009069331084
 31
0.0
 11
4163.7642355671214
 21
1384.2027385164288
 31
0.0
 11
4164.2533839007074
 21
1384.2291158106427
 31
0.0
 11
4164.6423366340441
 21
1384.3001369344865
 31
0.0
 11
4165.2009721229078
 21
1384.4540220603092
 31
0.0
 11
4165.8999967216696
 21
1384.6465796232951
 31
0.0
  0
SPLINE
  5
452
100
AcDbEntity
  8
0
  6
CONTINUOUS
 62
           3
100
AcDbSpline
210
0.0
220
0.0
230
1.0
 70
           0
 71
           3
 72
           8
 73
           5
 74
           7
 42
0.00000000001
 43
0.00000000001
 44
0.00000000001
 40
0.0
 40
0.0
 40
0.0
 40
0.2779454797525598
 40
0.7862825386947563
 40
1.542963890726553
 40
1.542963890726553
 40
1.542963890726553
 10
4161.5698696873369
 20
1367.5999939442561
 30
0.0
 10
4161.6040862319169
 20
1367.6004396365131
 30
0.0
 10
4162.0914969500318
 20
1367.606788471174
 30
0.0
 10
4162.5691364171862
 20
1367.834684325677
 30
0.0
 10
4163.0132452878388
 20
1368.046581745235
 30
0.0
 11
4161.5698696873369
 21
1367.5999939442561
 31
0.0
 11
4161.638606181491
 21
1367.6008892808163
 31
0.0
 11
4161.7763825747916
 21
1367.6026839059823
 31
0.0
 11
4162.0607022116073
 21
1367.6286568402284
 31
0.0
 11
4162.2834323715724
 21
1367.6983665125829
 31
0.0
 11
4162.6087376234464
 21
1367.853579227293
 31
0.0
 11
4163.0132452878388
 21
1368.046581745235
 31
0.0
  0
SPLINE
  5
451
100
AcDbEntity
  8
0
  6
CONTINUOUS
 62
           3
100
AcDbSpline
210
0.0
220
0.0
230
1.0
 70
           0
 71
           3
 72
           8
 73
           5
 74
           7
 42
0.00000000001
 43
0.00000000001
 44
0.00000000001
 40
0.0
 40
0.0
 40
0.0
 40
0.277946485427674
 40
0.7862840843639157
 40
1.5429642658504845
 40
1.5429642658504845
 40
1.5429642658504845
 10
4161.5698696873369
 20
1372.6000040770409
 30
0.0
 10
4161.5356531379784
 20
1372.5995583816691
 30
0.0
 10
4161.048240418887
 20
1372.59320947744
 30
0.0
 10
4160.5706019393438
 20
1372.365313693474
 30
0.0
 10
4160.1264938539698
 20
1372.1534162761091
 30
0.0
 11
4161.5698696873369
 21
1372.6000040770409
 31
0.0
 11
4161.5011329415884
 21
1372.5991087310697
 31
0.0
 11
4161.3633558030606
 21
1372.5973140838996
 31
0.0
 11
4161.0790354338715
 21
1372.5713410900569
 31
0.0
 11
4160.8563050946505
 21
1372.5016313214473
 31
0.0
 11
4160.5310007068265
 21
1372.3464187461261
 31
0.0
 11
4160.1264938539698
 21
1372.1534162761091
 31
0.0
  0
SPLINE
  5
450
100
AcDbEntity
  8
0
  6
CONTINUOUS
 62
           3
100
AcDbSpline
210
0.0
220
0.0
230
1.0
 70
           0
 71
           3
 72
           8
 73
           5
 74
           7
 42
0.00000000001
 43
0.00000000001
 44
0.00000000001
 40
0.0
 40
0.0
 40
0.0
 40
0.2779464854254922
 40
0.7862840843604939
 40
1.5429642658924387
 40
1.5429642658924387
 40
1.5429642658924387
 10
4170.230123756005
 20
1367.5999939442561
 30
0.0
 10
4170.2643403053626
 20
1367.6004396396349
 30
0.0
 10
4170.7517530244513
 20
1367.606788543864
 30
0.0
 10
4171.2293915039982
 20
1367.834684327823
 30
0.0
 10
4171.673499589363
 20
1368.0465817453121
 30
0.0
 11
4170.230123756005
 21
1367.5999939442561
 31
0.0
 11
4170.2988605017526
 21
1367.6008892902328
 31
0.0
 11
4170.4366376402786
 21
1367.6026839374044
 31
0.0
 11
4170.7209580094659
 21
1367.6286569312458
 31
0.0
 11
4170.9436883486824
 21
1367.6983666998503
 31
0.0
 11
4171.2689927365109
 21
1367.8535792752023
 31
0.0
 11
4171.673499589363
 21
1368.0465817453121
 31
0.0
  0
SPLINE
  5
44F
100
AcDbEntity
  8
0
  6
CONTINUOUS
 62
           3
100
AcDbSpline
210
0.0
220
0.0
230
1.0
 70
           0
 71
           3
 72
           8
 73
           5
 74
           7
 42
0.00000000001
 43
0.00000000001
 44
0.00000000001
 40
0.0
 40
0.0
 40
0.0
 40
0.2779454797525331
 40
0.7862825386968155
 40
1.5429638907282623
 40
1.5429638907282623
 40
1.5429638907282623
 10
4170.230123756005
 20
1372.6000040770409
 30
0.0
 10
4170.195907211425
 20
1372.5995583847839
 30
0.0
 10
4169.7084964933101
 20
1372.5932095501271
 30
0.0
 10
4169.230857026153
 20
1372.36531369562
 30
0.0
 10
4168.7867481555031
 20
1372.153416276062
 30
0.0
 11
4170.230123756005
 21
1372.6000040770409
 31
0.0
 11
4170.1613872618509
 21
1372.5991087404811
 31
0.0
 11
4170.0236108685513
 21
1372.5973141153163
 31
0.0
 11
4169.7392912317355
 21
1372.5713411810718
 31
0.0
 11
4169.5165610717668
 21
1372.5016315087164
 31
0.0
 11
4169.1912558198946
 21
1372.3464187940049
 31
0.0
 11
4168.7867481555031
 21
1372.153416276062
 31
0.0
  0
SPLINE
  5
44E
100
AcDbEntity
  8
0
  6
CONTINUOUS
 62
           3
100
AcDbSpline
210
0.0
220
0.0
230
1.0
 70
           0
 71
           3
 72
           8
 73
           5
 74
           7
 42
0.00000000001
 43
0.00000000001
 44
0.00000000001
 40
0.0
 40
0.0
 40
0.0
 40
0.7097107189165798
 40
1.6878556121225201
 40
2.9354150974116595
 40
2.9354150974116595
 40
2.9354150974116595
 10
4163.0132452878388
 20
1368.046581745235
 30
0.0
 10
4163.2266018694918
 20
1367.986940602696
 30
0.0
 10
4164.1669045504614
 20
1367.7240908429519
 30
0.0
 10
4165.1443418916824
 20
1367.654102099867
 30
0.0
 10
4165.8999967216696
 20
1367.5999939442561
 30
0.0
 11
4163.0132452878388
 21
1368.046581745235
 31
0.0
 11
4163.2721075077961
 21
1367.9742200752128
 31
0.0
 11
4163.621981004364
 21
1367.8764173502238
 31
0.0
 11
4164.1380638628534
 21
1367.754482866841
 31
0.0
 11
4164.5964653461278
 21
1367.6933324312365
 31
0.0
 11
4165.1962864627903
 21
1367.6503826438068
 31
0.0
 11
4165.8999967216696
 21
1367.5999939442561
 31
0.0
  0
SPLINE
  5
44D
100
AcDbEntity
  8
0
  6
CONTINUOUS
 62
           3
100
AcDbSpline
210
0.0
220
0.0
230
1.0
 70
           0
 71
           3
 72
           8
 73
           5
 74
           7
 42
0.00000000001
 43
0.00000000001
 44
0.00000000001
 40
0.0
 40
0.0
 40
0.0
 40
0.7273681394934177
 40
1.7065914567913496
 40
2.9387223240356084
 40
2.9387223240356084
 40
2.9387223240356084
 10
4165.8999967216696
 20
1367.5999939442561
 30
0.0
 10
4166.1387195010311
 20
1367.6054734833269
 30
0.0
 10
4167.1156271469781
 20
1367.6278969974519
 30
0.0
 10
4168.0674888562426
 20
1367.8663776207211
 30
0.0
 10
4168.786748155364
 20
1368.0465817453121
 30
0.0
 11
4165.8999967216696
 21
1367.5999939442561
 31
0.0
 11
4166.183131014971
 21
1367.6064928859435
 31
0.0
 11
4166.5550883361502
 21
1367.6150306328632
 31
0.0
 11
4167.0808673755091
 21
1367.6510811733845
 31
0.0
 11
4167.53712687193
 21
1367.7335000657715
 31
0.0
 11
4168.1147131849448
 21
1367.8782092631316
 31
0.0
 11
4168.786748155364
 21
1368.0465817453121
 31
0.0
  0
SPLINE
  5
44C
100
AcDbEntity
  8
0
  6
CONTINUOUS
 62
           3
100
AcDbSpline
210
0.0
220
0.0
230
1.0
 70
           0
 71
           3
 72
           8
 73
           5
 74
           7
 42
0.00000000001
 43
0.00000000001
 44
0.00000000001
 40
0.0
 40
0.0
 40
0.0
 40
1.2321308673613633
 40
2.2113541846593336
 40
2.9387223241527067
 40
2.9387223241527067
 40
2.9387223241527067
 10
4168.7867481555031
 20
1372.153416276062
 30
0.0
 10
4168.0674888562426
 20
1372.3336204005791
 30
0.0
 10
4167.1156271469781
 20
1372.572101023849
 30
0.0
 10
4166.1387195010311
 20
1372.5945245379701
 30
0.0
 10
4165.8999967216696
 20
1372.6000040770409
 30
0.0
 11
4168.7867481555031
 21
1372.153416276062
 31
0.0
 11
4168.1147131849739
 21
1372.3217887581886
 31
0.0
 11
4167.5371268719064
 21
1372.4664979555346
 31
0.0
 11
4167.0808673755037
 21
1372.5489168479171
 31
0.0
 11
4166.5550883361502
 21
1372.5849673884354
 31
0.0
 11
4166.183131014971
 21
1372.593505135354
 31
0.0
 11
4165.8999967216696
 21
1372.6000040770409
 31
0.0
  0
SPLINE
  5
44B
100
AcDbEntity
  8
0
  6
CONTINUOUS
 62
           3
100
AcDbSpline
210
0.0
220
0.0
230
1.0
 70
           0
 71
           3
 72
           8
 73
           5
 74
           7
 42
0.00000000001
 43
0.00000000001
 44
0.00000000001
 40
0.0
 40
0.0
 40
0.0
 40
1.2475616964935787
 40
2.2257084622395329
 40
2.935421117879597
 40
2.935421117879597
 40
2.935421117879597
 10
4165.8999967216696
 20
1372.6000040770409
 30
0.0
 10
4165.1443400642456
 20
1372.5459088094719
 30
0.0
 10
4164.1668989125801
 20
1372.475936633469
 30
0.0
 10
4163.2266017037609
 20
1372.2130631111611
 30
0.0
 10
4163.0132452878388
 20
1372.153416276062
 30
0.0
 11
4165.8999967216696
 21
1372.6000040770409
 31
0.0
 11
4165.1962845667967
 21
1372.5496273656929
 31
0.0
 11
4164.5964614170271
 21
1372.5066877667871
 31
0.0
 11
4164.1380594916291
 21
1372.4455393603082
 31
0.0
 11
4163.6219787243263
 21
1372.323596407507
 31
0.0
 11
4163.2721068549217
 21
1372.2257847264727
 31
0.0
 11
4163.0132452878388
 21
1372.153416276062
 31
0.0
  0
SPLINE
  5
44A
100
AcDbEntity
  8
0
  6
CONTINUOUS
 62
           3
100
AcDbSpline
210
0.0
220
0.0
230
1.0
 70
           0
 71
           3
 72
           8
 73
           5
 74
           7
 42
0.00000000001
 43
0.00000000001
 44
0.00000000001
 40
0.0
 40
0.0
 40
0.0
 40
0.2779452695564284
 40
0.7862805426588913
 40
1.5429573555011751
 40
1.5429573555011751
 40
1.5429573555011751
 10
4161.5698696873369
 20
1372.6000040770409
 30
0.0
 10
4161.6040862308673
 20
1372.6004497818101
 30
0.0
 10
4162.0914965280754
 20
1372.6067987893659
 30
0.0
 10
4162.5691362283569
 20
1372.834686833085
 30
0.0
 10
4163.0132452878388
 20
1373.04657697686
 30
0.0
 11
4161.5698696873369
 21
1372.6000040770409
 31
0.0
 11
4161.6386062202782
 21
1372.6008994392641
 31
0.0
 11
4161.7763827320423
 21
1372.6026941163964
 31
0.0
 11
4162.0607020292173
 21
1372.628666380841
 31
0.0
 11
4162.283432328677
 21
1372.6983738282354
 31
0.0
 11
4162.6087375183079
 21
1372.8535811178162
 31
0.0
 11
4163.0132452878388
 21
1373.04657697686
 31
0.0
  0
SPLINE
  5
449
100
AcDbEntity
  8
0
  6
CONTINUOUS
 62
           3
100
AcDbSpline
210
0.0
220
0.0
230
1.0
 70
           0
 71
           3
 72
           8
 73
           5
 74
           7
 42
0.00000000001
 43
0.00000000001
 44
0.00000000001
 40
0.0
 40
0.0
 40
0.0
 40
0.2779463803282737
 40
0.7862830863351852
 40
1.5429609982549422
 40
1.5429609982549422
 40
1.5429609982549422
 10
4161.5698696873369
 20
1377.5999993086659
 30
0.0
 10
4161.5356531385032
 20
1377.599553607037
 30
0.0
 10
4161.0482406298679
 20
1377.593204616358
 30
0.0
 10
4160.5706020337611
 20
1377.3653127377879
 30
0.0
 10
4160.1264938539698
 20
1377.1534189582051
 30
0.0
 11
4161.5698696873369
 21
1377.5999993086659
 31
0.0
 11
4161.5011329221943
 21
1377.599103949862
 31
0.0
 11
4161.3633557244339
 21
1377.5973092767078
 31
0.0
 11
4161.0790355250692
 21
1377.5713366177663
 31
0.0
 11
4160.8563051161073
 21
1377.5016279616407
 31
0.0
 11
4160.5310007593989
 21
1377.3464180988553
 31
0.0
 11
4160.1264938539698
 21
1377.1534189582051
 31
0.0
  0
SPLINE
  5
448
100
AcDbEntity
  8
0
  6
CONTINUOUS
 62
           3
100
AcDbSpline
210
0.0
220
0.0
230
1.0
 70
           0
 71
           3
 72
           8
 73
           5
 74
           7
 42
0.00000000001
 43
0.00000000001
 44
0.00000000001
 40
0.0
 40
0.0
 40
0.0
 40
0.2779462752320538
 40
0.7862820883226281
 40
1.5429577306478008
 40
1.5429577306478008
 40
1.5429577306478008
 10
4170.230123756005
 20
1372.6000040770409
 30
0.0
 10
4170.2643403043166
 20
1372.6004497849281
 30
0.0
 10
4170.7517526024967
 20
1372.606798862053
 30
0.0
 10
4171.2293913151643
 20
1372.8346868352351
 30
0.0
 10
4171.673499589363
 20
1373.046576976911
 30
0.0
 11
4170.230123756005
 21
1372.6000040770409
 31
0.0
 11
4170.2988605405435
 21
1372.6008994486781
 31
0.0
 11
4170.4366377975366
 21
1372.6026941478153
 31
0.0
 11
4170.7209578270795
 21
1372.628666471855
 31
0.0
 11
4170.9436883057879
 21
1372.6983740154992
 31
0.0
 11
4171.2689926313697
 21
1372.8535811657198
 31
0.0
 11
4171.673499589363
 21
1373.046576976911
 31
0.0
  0
SPLINE
  5
447
100
AcDbEntity
  8
0
  6
CONTINUOUS
 62
           3
100
AcDbSpline
210
0.0
220
0.0
230
1.0
 70
           0
 71
           3
 72
           8
 73
           5
 74
           7
 42
0.00000000001
 43
0.00000000001
 44
0.00000000001
 40
0.0
 40
0.0
 40
0.0
 40
0.2779453746549531
 40
0.7862815406704127
 40
1.5429606230908801
 40
1.5429606230908801
 40
1.5429606230908801
 10
4170.230123756005
 20
1377.5999993086659
 30
0.0
 10
4170.1959072119498
 20
1377.5995536101509
 30
0.0
 10
4169.7084967042874
 20
1377.593204689045
 30
0.0
 10
4169.2308571205704
 20
1377.365312739938
 30
0.0
 10
4168.7867481555031
 20
1377.1534189582669
 30
0.0
 11
4170.230123756005
 21
1377.5999993086659
 31
0.0
 11
4170.1613872424568
 21
1377.5991039592727
 31
0.0
 11
4170.0236107899236
 21
1377.5973093081238
 31
0.0
 11
4169.7392913229287
 21
1377.5713367087801
 31
0.0
 11
4169.5165610932154
 21
1377.5016281489061
 31
0.0
 11
4169.1912558724644
 21
1377.3464181467623
 31
0.0
 11
4168.7867481555031
 21
1377.1534189582669
 31
0.0
  0
SPLINE
  5
446
100
AcDbEntity
  8
0
  6
CONTINUOUS
 62
           3
100
AcDbSpline
210
0.0
220
0.0
230
1.0
 70
           0
 71
           3
 72
           8
 73
           5
 74
           7
 42
0.00000000001
 43
0.00000000001
 44
0.00000000001
 40
0.0
 40
0.0
 40
0.0
 40
0.7097104926824956
 40
1.6878550560207326
 40
2.9354142011749875
 40
2.9354142011749875
 40
2.9354142011749875
 10
4163.0132452878388
 20
1373.04657697686
 30
0.0
 10
4163.2266018489518
 20
1372.9869356693489
 30
0.0
 10
4164.1669038516466
 20
1372.7240853468579
 30
0.0
 10
4165.1443416651709
 20
1372.654105412621
 30
0.0
 10
4165.8999967216696
 20
1372.6000040770409
 30
0.0
 11
4163.0132452878388
 21
1373.04657697686
 31
0.0
 11
4163.272107422149
 21
1372.9742151236569
 31
0.0
 11
4163.6219807028538
 21
1372.8764121790696
 31
0.0
 11
4164.1380633113686
 21
1372.7544784200811
 31
0.0
 11
4164.5964648393256
 21
1372.6933308075384
 31
0.0
 11
4165.1962862228338
 21
1372.650386427455
 31
0.0
 11
4165.8999967216696
 21
1372.6000040770409
 31
0.0
  0
SPLINE
  5
445
100
AcDbEntity
  8
0
  6
CONTINUOUS
 62
           3
100
AcDbSpline
210
0.0
220
0.0
230
1.0
 70
           0
 71
           3
 72
           8
 73
           5
 74
           7
 42
0.00000000001
 43
0.00000000001
 44
0.00000000001
 40
0.0
 40
0.0
 40
0.0
 40
0.7273675739582235
 40
1.7065896374659766
 40
2.9387184666072459
 40
2.9387184666072459
 40
2.9387184666072459
 10
4165.8999967216696
 20
1372.6000040770409
 30
0.0
 10
4166.1387194651488
 20
1372.605483801264
 30
0.0
 10
4167.115626026095
 20
1372.6279080515201
 30
0.0
 10
4168.0674885010467
 20
1372.866379694286
 30
0.0
 10
4168.786748155364
 20
1373.046576976911
 30
0.0
 11
4165.8999967216696
 21
1372.6000040770409
 31
0.0
 11
4166.1831309024847
 21
1372.6065032367185
 31
0.0
 11
4166.5550879579714
 21
1372.6150412673053
 31
0.0
 11
4167.0808665470104
 21
1372.6510911338657
 31
0.0
 11
4167.5371261778782
 21
1372.7335071651178
 31
0.0
 11
4168.1147128338343
 21
1372.8782108826504
 31
0.0
 11
4168.786748155364
 21
1373.046576976911
 31
0.0
  0
SPLINE
  5
444
100
AcDbEntity
  8
0
  6
CONTINUOUS
 62
           3
100
AcDbSpline
210
0.0
220
0.0
230
1.0
 70
           0
 71
           3
 72
           8
 73
           5
 74
           7
 42
0.00000000001
 43
0.00000000001
 44
0.00000000001
 40
0.0
 40
0.0
 40
0.0
 40
1.2321298483036798
 40
2.2113525386999009
 40
2.9387203954239745
 40
2.9387203954239745
 40
2.9387203954239745
 10
4168.7867481555031
 20
1377.1534189582669
 30
0.0
 10
4168.0674886786419
 20
1377.333619661815
 30
0.0
 10
4167.1156265865329
 20
1377.5720957948331
 30
0.0
 10
4166.1387194830904
 20
1377.5945196770231
 30
0.0
 10
4165.8999967216696
 20
1377.5999993086659
 30
0.0
 11
4168.7867481555031
 21
1377.1534189582669
 31
0.0
 11
4168.1147130094159
 21
1377.3217882464439
 31
0.0
 11
4167.5371265248777
 21
1377.4664947038796
 31
0.0
 11
4167.0808669612516
 21
1377.5489121656951
 31
0.0
 11
4166.5550881470608
 21
1377.5849623692343
 31
0.0
 11
4166.1831309587278
 21
1377.5935002579868
 31
0.0
 11
4165.8999967216696
 21
1377.5999993086659
 31
0.0
  0
SPLINE
  5
443
100
AcDbEntity
  8
0
  6
CONTINUOUS
 62
           3
100
AcDbSpline
210
0.0
220
0.0
230
1.0
 70
           0
 71
           3
 72
           8
 73
           5
 74
           7
 42
0.00000000001
 43
0.00000000001
 44
0.00000000001
 40
0.0
 40
0.0
 40
0.0
 40
1.2475604207811726
 40
2.2257060852933082
 40
2.9354176594305934
 40
2.9354176594305934
 40
2.9354176594305934
 10
4165.8999967216696
 20
1377.5999993086659
 30
0.0
 10
4165.1443408647228
 20
1377.5459010071061
 30
0.0
 10
4164.1669013821602
 20
1377.4759249520071
 30
0.0
 10
4163.2266017763577
 20
1377.2130630295719
 30
0.0
 10
4163.0132452878388
 20
1377.1534189582669
 30
0.0
 11
4165.8999967216696
 21
1377.5999993086659
 31
0.0
 11
4165.1962853948307
 21
1377.5496197777986
 31
0.0
 11
4164.5964631282095
 21
1377.5066777883169
 31
0.0
 11
4164.1380614015352
 21
1377.4455297788072
 31
0.0
 11
4163.6219797136109
 21
1377.3235914228981
 31
0.0
 11
4163.2721071385404
 21
1377.225784110077
 31
0.0
 11
4163.0132452878388
 21
1377.1534189582669
 31
0.0
  0
SPLINE
  5
442
100
AcDbEntity
  8
0
  6
CONTINUOUS
 62
           3
100
AcDbSpline
210
0.0
220
0.0
230
1.0
 70
           0
 71
           3
 72
           8
 73
           5
 74
           7
 42
0.00000000001
 43
0.00000000001
 44
0.00000000001
 40
0.0
 40
0.0
 40
0.0
 40
0.2779454797525494
 40
0.7862825386955531
 40
1.5429638907264198
 40
1.5429638907264198
 40
1.5429638907264198
 10
4161.5698696873369
 20
1359.9999994040479
 30
0.0
 10
4161.6040862319169
 20
1360.0004450963061
 30
0.0
 10
4162.0914969500318
 20
1360.0067939309631
 30
0.0
 10
4162.5691364171862
 20
1360.23468978547
 30
0.0
 10
4163.0132452878388
 20
1360.4465872050239
 30
0.0
 11
4161.5698696873369
 21
1359.9999994040479
 31
0.0
 11
4161.6386061814901
 21
1360.0008947406084
 31
0.0
 11
4161.7763825747907
 21
1360.0026893657739
 31
0.0
 11
4162.0607022116073
 21
1360.0286623000186
 31
0.0
 11
4162.2834323715742
 21
1360.0983719723736
 31
0.0
 11
4162.6087376234454
 21
1360.2535846870842
 31
0.0
 11
4163.0132452878388
 21
1360.4465872050239
 31
0.0
  0
SPLINE
  5
441
100
AcDbEntity
  8
0
  6
CONTINUOUS
 62
           3
100
AcDbSpline
210
0.0
220
0.0
230
1.0
 70
           0
 71
           3
 72
           8
 73
           5
 74
           7
 42
0.00000000001
 43
0.00000000001
 44
0.00000000001
 40
0.0
 40
0.0
 40
0.0
 40
0.277946275232473
 40
0.7862820883223384
 40
1.5429577306078226
 40
1.5429577306078226
 40
1.5429577306078226
 10
4161.5698696873369
 20
1364.9999946356729
 30
0.0
 10
4161.5356531390244
 20
1364.9995489277901
 30
0.0
 10
4161.0482408408452
 20
1364.993199850662
 30
0.0
 10
4160.5706021281767
 20
1364.7653118774831
 30
0.0
 10
4160.1264938539698
 20
1364.5534217359159
 30
0.0
 11
4161.5698696873369
 21
1364.9999946356729
 31
0.0
 11
4161.5011329027984
 21
1364.9990992640387
 31
0.0
 11
4161.3633556458044
 21
1364.9973045649017
 31
0.0
 11
4161.0790356162597
 21
1364.97133224086
 31
0.0
 11
4160.8563051375468
 21
1364.9016246972142
 31
0.0
 11
4160.5310008119677
 21
1364.7464175470241
 31
0.0
 11
4160.1264938539698
 21
1364.5534217359159
 31
0.0
  0
SPLINE
  5
440
100
AcDbEntity
  8
0
  6
CONTINUOUS
 62
           3
100
AcDbSpline
210
0.0
220
0.0
230
1.0
 70
           0
 71
           3
 72
           8
 73
           5
 74
           7
 42
0.00000000001
 43
0.00000000001
 44
0.00000000001
 40
0.0
 40
0.0
 40
0.0
 40
0.2779464854689425
 40
0.7862840844047764
 40
1.5429642659447991
 40
1.5429642659447991
 40
1.5429642659447991
 10
4170.2301237559632
 20
1359.999999403921
 30
0.0
 10
4170.2643403053626
 20
1360.000445099424
 30
0.0
 10
4170.7517530244513
 20
1360.0067940036531
 30
0.0
 10
4171.2293915039982
 20
1360.2346897876159
 30
0.0
 10
4171.673499589363
 20
1360.4465872051219
 30
0.0
 11
4170.2301237559632
 21
1359.999999403921
 31
0.0
 11
4170.2988605017454
 21
1360.0008947499905
 31
0.0
 11
4170.4366376402959
 21
1360.0026893971938
 31
0.0
 11
4170.7209580094695
 21
1360.0286623910351
 31
0.0
 11
4170.9436883486815
 21
1360.0983721596403
 31
0.0
 11
4171.26899273651
 21
1360.2535847349986
 31
0.0
 11
4171.673499589363
 21
1360.4465872051219
 31
0.0
  0
SPLINE
  5
43F
100
AcDbEntity
  8
0
  6
CONTINUOUS
 62
           3
100
AcDbSpline
210
0.0
220
0.0
230
1.0
 70
           0
 71
           3
 72
           8
 73
           5
 74
           7
 42
0.00000000001
 43
0.00000000001
 44
0.00000000001
 40
0.0
 40
0.0
 40
0.0
 40
0.2779452695582191
 40
0.7862805426597475
 40
1.5429573555012106
 40
1.5429573555012106
 40
1.5429573555012106
 10
4170.230123756005
 20
1364.9999946356729
 30
0.0
 10
4170.1959072124719
 20
1364.999548930904
 30
0.0
 10
4169.7084969152656
 20
1364.993199923352
 30
0.0
 10
4169.2308572149841
 20
1364.7653118796329
 30
0.0
 10
4168.7867481555031
 20
1364.5534217358579
 30
0.0
 11
4170.230123756005
 21
1364.9999946356729
 31
0.0
 11
4170.1613872230619
 21
1364.9990992734502
 31
0.0
 11
4170.0236107112969
 21
1364.9973045963188
 31
0.0
 11
4169.7392914141228
 21
1364.9713323318765
 31
0.0
 11
4169.516561114664
 21
1364.9016248844828
 31
0.0
 11
4169.1912559250331
 21
1364.7464175949015
 31
0.0
 11
4168.7867481555031
 21
1364.5534217358579
 31
0.0
  0
SPLINE
  5
43E
100
AcDbEntity
  8
0
  6
CONTINUOUS
 62
           3
100
AcDbSpline
210
0.0
220
0.0
230
1.0
 70
           0
 71
           3
 72
           8
 73
           5
 74
           7
 42
0.00000000001
 43
0.00000000001
 44
0.00000000001
 40
0.0
 40
0.0
 40
0.0
 40
0.7097126556392074
 40
1.6878594213851694
 40
2.9354211178787564
 40
2.9354211178787564
 40
2.9354211178787564
 10
4163.0132452878388
 20
1360.4465872050239
 30
0.0
 10
4163.2266017037609
 20
1360.386940369928
 30
0.0
 10
4164.1668989125801
 20
1360.12406684762
 30
0.0
 10
4165.1443400642456
 20
1360.0540946716169
 30
0.0
 10
4165.8999967216696
 20
1359.9999994040479
 30
0.0
 11
4163.0132452878388
 21
1360.4465872050239
 31
0.0
 11
4163.2721068549217
 21
1360.3742187546154
 31
0.0
 11
4163.6219787243263
 21
1360.276407073582
 31
0.0
 11
4164.1380594916282
 21
1360.1544641207811
 31
0.0
 11
4164.5964614170271
 21
1360.0933157143018
 31
0.0
 11
4165.1962845667967
 21
1360.0503761153959
 31
0.0
 11
4165.8999967216696
 21
1359.9999994040479
 31
0.0
  0
SPLINE
  5
43D
100
AcDbEntity
  8
0
  6
CONTINUOUS
 62
           3
100
AcDbSpline
210
0.0
220
0.0
230
1.0
 70
           0
 71
           3
 72
           8
 73
           5
 74
           7
 42
0.00000000001
 43
0.00000000001
 44
0.00000000001
 40
0.0
 40
0.0
 40
0.0
 40
0.7273681394933551
 40
1.7065914567913976
 40
2.9387223240405742
 40
2.9387223240405742
 40
2.9387223240405742
 10
4165.8999967216696
 20
1359.9999994040479
 30
0.0
 10
4166.1387195010311
 20
1360.005478943116
 30
0.0
 10
4167.1156271469781
 20
1360.027902457241
 30
0.0
 10
4168.0674888562426
 20
1360.2663830805111
 30
0.0
 10
4168.786748155364
 20
1360.4465872051219
 30
0.0
 11
4165.8999967216696
 21
1359.9999994040479
 31
0.0
 11
4166.183131014971
 21
1360.006498345733
 31
0.0
 11
4166.5550883361502
 21
1360.0150360926523
 31
0.0
 11
4167.0808673755091
 21
1360.0510866331738
 31
0.0
 11
4167.5371268719282
 21
1360.1335055255606
 31
0.0
 11
4168.1147131849448
 21
1360.2782147229264
 31
0.0
 11
4168.786748155364
 21
1360.4465872051219
 31
0.0
  0
SPLINE
  5
43C
100
AcDbEntity
  8
0
  6
CONTINUOUS
 62
           3
100
AcDbSpline
210
0.0
220
0.0
230
1.0
 70
           0
 71
           3
 72
           8
 73
           5
 74
           7
 42
0.00000000001
 43
0.00000000001
 44
0.00000000001
 40
0.0
 40
0.0
 40
0.0
 40
1.2321288292635417
 40
2.2113508927716787
 40
2.9387184667298056
 40
2.9387184667298056
 40
2.9387184667298056
 10
4168.7867481555031
 20
1364.5534217358579
 30
0.0
 10
4168.0674885010467
 20
1364.733619018429
 30
0.0
 10
4167.115626026095
 20
1364.9720906611981
 30
0.0
 10
4166.1387194651488
 20
1364.994514911454
 30
0.0
 10
4165.8999967216696
 20
1364.9999946356729
 30
0.0
 11
4168.7867481555031
 21
1364.5534217358579
 31
0.0
 11
4168.1147128338625
 21
1364.7217878300803
 31
0.0
 11
4167.5371261778555
 21
1364.8664915476047
 31
0.0
 11
4167.0808665470049
 21
1364.9489075788533
 31
0.0
 11
4166.5550879579723
 21
1364.9849574454126
 31
0.0
 11
4166.1831309024838
 21
1364.9934954759983
 31
0.0
 11
4165.8999967216696
 21
1364.9999946356729
 31
0.0
  0
SPLINE
  5
43B
100
AcDbEntity
  8
0
  6
CONTINUOUS
 62
           3
100
AcDbSpline
210
0.0
220
0.0
230
1.0
 70
           0
 71
           3
 72
           8
 73
           5
 74
           7
 42
0.00000000001
 43
0.00000000001
 44
0.00000000001
 40
0.0
 40
0.0
 40
0.0
 40
1.2475591451551133
 40
2.2257037084933491
 40
2.9354142011741726
 40
2.9354142011741726
 40
2.9354142011741726
 10
4165.8999967216696
 20
1364.9999946356729
 30
0.0
 10
4165.1443416651709
 20
1364.9458933000931
 30
0.0
 10
4164.1669038516447
 20
1364.8759133658571
 30
0.0
 10
4163.2266018489518
 20
1364.6130630433661
 30
0.0
 10
4163.0132452878388
 20
1364.5534217358579
 30
0.0
 11
4165.8999967216696
 21
1364.9999946356729
 31
0.0
 11
4165.1962862228338
 21
1364.9496122852588
 31
0.0
 11
4164.5964648393237
 21
1364.9066679051762
 31
0.0
 11
4164.1380633113667
 21
1364.8455202926339
 31
0.0
 11
4163.6219807028529
 21
1364.7235865336452
 31
0.0
 11
4163.272107422149
 21
1364.625783589059
 31
0.0
 11
4163.0132452878388
 21
1364.5534217358579
 31
0.0
  0
SPLINE
  5
43A
100
AcDbEntity
  8
0
  6
CONTINUOUS
 62
           3
100
AcDbSpline
210
0.0
220
0.0
230
1.0
 70
           0
 71
           3
 72
           8
 73
           5
 74
           7
 42
0.00000000001
 43
0.00000000001
 44
0.00000000001
 40
0.0
 40
0.0
 40
0.0
 40
0.2779464854656078
 40
0.7862840844015173
 40
1.542964265921321
 40
1.542964265921321
 40
1.542964265921321
 10
4170.2301237559632
 20
1359.999999403921
 30
0.0
 10
4170.2643403053626
 20
1359.9995537086761
 30
0.0
 10
4170.7517530244513
 20
1359.9932048044429
 30
0.0
 10
4171.2293915039982
 20
1359.7653090204799
 30
0.0
 10
4171.673499589363
 20
1359.553411603021
 30
0.0
 11
4170.2301237559632
 21
1359.999999403921
 31
0.0
 11
4170.2988605017454
 21
1359.9991040580446
 31
0.0
 11
4170.436637640295
 21
1359.997309410905
 31
0.0
 11
4170.7209580094705
 21
1359.9713364170611
 31
0.0
 11
4170.9436883486842
 21
1359.9016266484539
 31
0.0
 11
4171.2689927365109
 21
1359.7464140731086
 31
0.0
 11
4171.673499589363
 21
1359.553411603021
 31
0.0
  0
SPLINE
  5
439
100
AcDbEntity
  8
0
  6
CONTINUOUS
 62
           3
100
AcDbSpline
210
0.0
220
0.0
230
1.0
 70
           0
 71
           3
 72
           8
 73
           5
 74
           7
 42
0.00000000001
 43
0.00000000001
 44
0.00000000001
 40
0.0
 40
0.0
 40
0.0
 40
0.3778155284991165
 40
0.894206223399189
 40
1.5357514174607887
 40
1.5357514174607887
 40
1.5357514174607887
 10
4160.1264938539698
 20
1359.553411603021
 30
0.0
 10
4160.2210118970288
 20
1359.6064716909059
 30
0.0
 10
4160.6908817949034
 20
1359.870245011374
 30
0.0
 10
4161.1795227343009
 20
1359.9423771861991
 30
0.0
 10
4161.5698696873369
 20
1359.9999994040479
 30
0.0
 11
4160.1264938539698
 21
1359.553411603021
 31
0.0
 11
4160.2470141544018
 21
1359.6210687140281
 31
0.0
 11
4160.4195389695833
 21
1359.7179198712797
 31
0.0
 11
4160.6775244143291
 21
1359.8402057052365
 31
0.0
 11
4160.9087950979256
 21
1359.9024129269189
 31
0.0
 11
4161.2094275634663
 21
1359.9467916758413
 31
0.0
 11
4161.5698696873369
 21
1359.9999994040479
 31
0.0
  0
SPLINE
  5
438
100
AcDbEntity
  8
0
  6
CONTINUOUS
 62
           3
100
AcDbSpline
210
0.0
220
0.0
230
1.0
 70
           0
 71
           3
 72
           8
 73
           5
 74
           7
 42
0.00000000001
 43
0.00000000001
 44
0.00000000001
 40
0.0
 40
0.0
 40
0.0
 40
0.6415450374694814
 40
1.157930368601785
 40
1.5357381749000683
 40
1.5357381749000683
 40
1.5357381749000683
 10
4161.5698696873369
 20
1355.0000041724199
 30
0.0
 10
4161.1795237086098
 20
1355.0576336938759
 30
0.0
 10
4160.69088462936
 20
1355.1297749168839
 30
0.0
 10
4160.2210119621132
 20
1355.3935224482559
 30
0.0
 10
4160.1264938539698
 20
1355.446577072224
 30
0.0
 11
4161.5698696873369
 21
1355.0000041724199
 31
0.0
 11
4161.2094282457001
 21
1355.0532186767991
 31
0.0
 11
4160.9087958782438
 21
1355.097603147025
 31
0.0
 11
4160.6775260473196
 21
1355.1598096979617
 31
0.0
 11
4160.4195390523146
 21
1355.282085811054
 31
0.0
 11
4160.2470142076272
 21
1355.3789269449474
 31
0.0
 11
4160.1264938539698
 21
1355.446577072224
 31
0.0
  0
SPLINE
  5
437
100
AcDbEntity
  8
0
  6
CONTINUOUS
 62
           3
100
AcDbSpline
210
0.0
220
0.0
230
1.0
 70
           0
 71
           3
 72
           8
 73
           5
 74
           7
 42
0.00000000001
 43
0.00000000001
 44
0.00000000001
 40
0.0
 40
0.0
 40
0.0
 40
0.3539460334987572
 40
0.8643414136628571
 40
1.5431068114059314
 40
1.5431068114059314
 40
1.5431068114059314
 10
4161.5698696873369
 20
1359.9999994040479
 30
0.0
 10
4161.6793238424198
 20
1359.9953935078299
 30
0.0
 10
4162.1676816710369
 20
1359.97484311874
 30
0.0
 10
4162.6438213484416
 20
1359.7375336343539
 30
0.0
 10
4163.0132452879679
 20
1359.553411603021
 30
0.0
 11
4161.5698696873369
 21
1359.9999994040479
 31
0.0
 11
4161.7019556855766
 21
1359.9944411463541
 31
0.0
 11
4161.8793053701293
 21
1359.9869781657089
 31
0.0
 11
4162.146678141381
 21
1359.9524131949256
 31
0.0
 11
4162.3720438533219
 21
1359.8729883765134
 31
0.0
 11
4162.6682329595424
 21
1359.7253668120607
 31
0.0
 11
4163.0132452879679
 21
1359.553411603021
 31
0.0
  0
SPLINE
  5
436
100
AcDbEntity
  8
0
  6
CONTINUOUS
 62
           3
100
AcDbSpline
210
0.0
220
0.0
230
1.0
 70
           0
 71
           3
 72
           8
 73
           5
 74
           7
 42
0.00000000001
 43
0.00000000001
 44
0.00000000001
 40
0.0
 40
0.0
 40
0.0
 40
0.6787700534894813
 40
1.1891668948804988
 40
1.5431123743501056
 40
1.5431123743501056
 40
1.5431123743501056
 10
4163.0132452878388
 20
1355.446577072242
 30
0.0
 10
4162.6438214744021
 20
1355.2624483716061
 30
0.0
 10
4162.1676820506218
 20
1355.0251303367841
 30
0.0
 10
4161.6793238525806
 20
1355.0046045512611
 30
0.0
 10
4161.5698696873369
 20
1355.0000041724199
 30
0.0
 11
4163.0132452878388
 21
1355.446577072242
 31
0.0
 11
4162.668232973635
 21
1355.2746155830068
 31
0.0
 11
4162.3720436578997
 21
1355.1269885165734
 31
0.0
 11
4162.1466781919462
 21
1355.0475647466085
 31
0.0
 11
4161.8793050086424
 21
1355.0130097962933
 31
0.0
 11
4161.7019556002851
 21
1355.0055557678088
 31
0.0
 11
4161.5698696873369
 21
1355.0000041724199
 31
0.0
  0
SPLINE
  5
435
100
AcDbEntity
  8
0
  6
CONTINUOUS
 62
           3
100
AcDbSpline
210
0.0
220
0.0
230
1.0
 70
           0
 71
           3
 72
           8
 73
           5
 74
           7
 42
0.00000000001
 43
0.00000000001
 44
0.00000000001
 40
0.0
 40
0.0
 40
0.0
 40
0.2779452695582413
 40
0.7862805426606212
 40
1.5429573556207721
 40
1.5429573556207721
 40
1.5429573556207721
 10
4170.230123756005
 20
1355.0000041724199
 30
0.0
 10
4170.1959072124719
 20
1355.0004498771891
 30
0.0
 10
4169.7084969152656
 20
1355.0067988847441
 30
0.0
 10
4169.2308572149841
 20
1355.234686928467
 30
0.0
 10
4168.786748155364
 20
1355.446577072224
 30
0.0
 11
4170.230123756005
 21
1355.0000041724199
 31
0.0
 11
4170.1613872230619
 21
1355.0008995346432
 31
0.0
 11
4170.0236107112969
 21
1355.0026942117752
 31
0.0
 11
4169.7392914141274
 21
1355.0286664762175
 31
0.0
 11
4169.5165611146813
 21
1355.0983739236067
 31
0.0
 11
4169.1912559250031
 21
1355.2535812131914
 31
0.0
 11
4168.786748155364
 21
1355.446577072224
 31
0.0
  0
SPLINE
  5
434
100
AcDbEntity
  8
0
  6
CONTINUOUS
 62
           3
100
AcDbSpline
210
0.0
220
0.0
230
1.0
 70
           0
 71
           3
 72
           8
 73
           5
 74
           7
 42
0.00000000001
 43
0.00000000001
 44
0.00000000001
 40
0.0
 40
0.0
 40
0.0
 40
0.5558558490619443
 40
1.5343195422001203
 40
2.9385037456599745
 40
2.9385037456599745
 40
2.9385037456599745
 10
4165.899996721666
 20
1355.000004172322
 30
0.0
 10
4165.8315636362913
 20
1355.0004498783021
 30
0.0
 10
4164.8567416872374
 20
1355.0067989106681
 30
0.0
 10
4163.9014629162593
 20
1355.234686929231
 30
0.0
 10
4163.0132452878388
 20
1355.446577072242
 30
0.0
 11
4165.899996721666
 21
1355.000004172322
 31
0.0
 11
4165.7603818762445
 21
1355.0009134863224
 31
0.0
 11
4165.4784035107295
 21
1355.0027500163631
 31
0.0
 11
4164.9140828960135
 21
1355.0291829422188
 31
0.0
 11
4164.4644446988477
 21
1355.1003839311754
 31
0.0
 11
4163.8201539548008
 21
1355.2540837154697
 31
0.0
 11
4163.0132452878388
 21
1355.446577072242
 31
0.0
  0
SPLINE
  5
433
100
AcDbEntity
  8
0
  6
CONTINUOUS
 62
           3
100
AcDbSpline
210
0.0
220
0.0
230
1.0
 70
           0
 71
           3
 72
           8
 73
           5
 74
           7
 42
0.00000000001
 43
0.00000000001
 44
0.00000000001
 40
0.0
 40
0.0
 40
0.0
 40
0.5558562714156194
 40
1.5343210643715972
 40
2.938507268298721
 40
2.938507268298721
 40
2.938507268298721
 10
4165.8999967216696
 20
1359.9999994040479
 30
0.0
 10
4165.9684298091433
 20
1359.999553710677
 30
0.0
 10
4166.9432526000146
 20
1359.993204851213
 30
0.0
 10
4167.898530904743
 20
1359.765309021863
 30
0.0
 10
4168.7867481555031
 20
1359.553411603069
 30
0.0
 11
4165.8999967216696
 21
1359.9999994040479
 31
0.0
 11
4166.0396116244028
 21
1359.9990901152978
 31
0.0
 11
4166.3215901576568
 21
1359.9972536357895
 31
0.0
 11
4166.8859111712791
 21
1359.9708199944766
 31
0.0
 11
4167.3355493274303
 21
1359.8996166396905
 31
0.0
 11
4167.9798398231051
 21
1359.7459115716213
 31
0.0
 11
4168.7867481555031
 21
1359.553411603069
 31
0.0
  0
CIRCLE
  5
432
100
AcDbEntity
  8
1
  6
CONTINUOUS
 62
           4
100
AcDbCircle
 10
0.0
 20
5151.999999999998
 40
110.699999999999
  0
CIRCLE
  5
431
100
AcDbEntity
  8
1
  6
CONTINUOUS
 62
           4
100
AcDbCircle
 10
0.0
 20
5151.999999999998
 40
84.123
  0
CIRCLE
  5
430
100
AcDbEntity
  8
1
  6
CONTINUOUS
 62
           7
100
AcDbCircle
 10
0.0
 20
5151.999999999998
 40
360.000000000002
  0
CIRCLE
  5
42F
100
AcDbEntity
  8
1
  6
CONTINUOUS
 62
           3
100
AcDbCircle
 10
508.472255321878
 20
1295.200848327053
 40
40.0
  0
CIRCLE
  5
42E
100
AcDbEntity
  8
1
  6
CONTINUOUS
 62
           4
100
AcDbCircle
 10
3495.000000000001
 20
1474.999999999989
 40
15.0
  0
CIRCLE
  5
42D
100
AcDbEntity
  8
1
  6
CONTINUOUS
 62
           4
100
AcDbCircle
 10
3530.000000000001
 20
1474.999999999989
 40
15.0
  0
CIRCLE
  5
42C
100
AcDbEntity
  8
1
  6
CONTINUOUS
 62
           4
100
AcDbCircle
 10
3597.500000000001
 20
1439.999999999989
 40
15.0
  0
CIRCLE
  5
42B
100
AcDbEntity
  8
1
  6
CONTINUOUS
 62
           4
100
AcDbCircle
 10
3335.000000000001
 20
1500.0
 40
40.0
  0
CIRCLE
  5
42A
100
AcDbEntity
  8
1
  6
CONTINUOUS
 62
           4
100
AcDbCircle
 10
3335.000000000001
 20
1500.0
 40
10.0
  0
CIRCLE
  5
429
100
AcDbEntity
  8
1
  6
CONTINUOUS
 62
           2
100
AcDbCircle
 10
3515.000000000001
 20
1327.5
 40
45.0
  0
CIRCLE
  5
428
100
AcDbEntity
  8
1
  6
CONTINUOUS
 62
           7
100
AcDbCircle
 10
-450.0
 20
3861.999999999999
 40
45.0
  0
CIRCLE
  5
427
100
AcDbEntity
  8
1
  6
CONTINUOUS
 62
           2
100
AcDbCircle
 10
4549.999999999999
 20
600.0
 40
8.350000000002
  0
CIRCLE
  5
426
100
AcDbEntity
  8
1
  6
CONTINUOUS
 62
           7
100
AcDbCircle
 10
4549.999999999999
 20
600.0
 40
15.0
  0
ARC
  5
425
100
AcDbEntity
  8
1
  6
CONTINUOUS
 62
           7
100
AcDbCircle
 10
0.0
 20
5151.999999999998
 40
124.999999999998
100
AcDbArc
 50
90.0
 51
-19.47546158221
  0
ARC
  5
424
100
AcDbEntity
  8
1
  6
CONTINUOUS
 62
           7
100
AcDbCircle
 10
0.0
 20
5151.999999999998
 40
125.000000000002
100
AcDbArc
 50
19.47546158221
 51
90.0
  0
ARC
  5
423
100
AcDbEntity
  8
1
  6
CONTINUOUS
 62
           7
100
AcDbCircle
 10
18.000000000004
 20
5096.999785420927
 40
459.999999999998
100
AcDbArc
 50
71.463109290188
 51
88.271493544498
  0
ARC
  5
422
100
AcDbEntity
  8
1
  6
CONTINUOUS
 62
           7
100
AcDbCircle
 10
-46.999999999996
 20
5106.999999999998
 40
525.000000000001
100
AcDbArc
 50
-2.792103456718
 51
-0.563719865862
  0
ARC
  5
421
100
AcDbEntity
  8
1
  6
CONTINUOUS
 62
           7
100
AcDbCircle
 10
-39.999999999996
 20
5201.999999999998
 40
620.000000000001
100
AcDbArc
 50
-174.912285430339
 51
-90.336887134984
  0
ARC
  5
420
100
AcDbEntity
  8
1
  6
CONTINUOUS
 62
           7
100
AcDbCircle
 10
452.450424338096
 20
5248.171306523445
 40
5.0
100
AcDbArc
 50
109.497261771664
 51
-90.0
  0
ARC
  5
41F
100
AcDbEntity
  8
1
  6
CONTINUOUS
 62
           7
100
AcDbCircle
 10
18.000000000004
 20
5096.999785420927
 40
460.0
100
AcDbArc
 50
0.602232686388
 51
18.563086854737
  0
ARC
  5
41E
100
AcDbEntity
  8
1
  6
CONTINUOUS
 62
           7
100
AcDbCircle
 10
452.450424338096
 20
5248.171306523445
 40
5.0
100
AcDbArc
 50
-90.0
 51
-71.125521506265
  0
ARC
  5
41D
100
AcDbEntity
  8
1
  6
CONTINUOUS
 62
           7
100
AcDbCircle
 10
477.10941262802
 20
5076.433292707339
 40
5.000000000003
100
AcDbArc
 50
86.935058466828
 51
-93.610617686046
  0
ARC
  5
41C
100
AcDbEntity
  8
1
  6
CONTINUOUS
 62
           7
100
AcDbCircle
 10
-46.999999999996
 20
5106.999999999998
 40
525.000000000001
100
AcDbArc
 50
-89.633899153763
 51
-3.883455762483
  0
ARC
  5
41B
100
AcDbEntity
  8
1
  6
CONTINUOUS
 62
           7
100
AcDbCircle
 10
18.000000000004
 20
5096.999785420927
 40
460.0
100
AcDbArc
 50
19.808653410673
 51
70.217542734251
  0
ARC
  5
41A
100
AcDbEntity
  8
1
  6
CONTINUOUS
 62
           7
100
AcDbCircle
 10
168.972870673508
 20
5531.519281324852
 40
5.0
100
AcDbArc
 50
161.151717651222
 51
-19.471065626773
  0
ARC
  5
419
100
AcDbEntity
  8
1
  6
CONTINUOUS
 62
           7
100
AcDbCircle
 10
-39.999999999996
 20
5201.999999999998
 40
620.0
100
AcDbArc
 50
-179.999999999999
 51
-175.836413410616
  0
ARC
  5
418
100
AcDbEntity
  8
1
  6
CONTINUOUS
 62
           7
100
AcDbCircle
 10
-657.980582219212
 20
5151.999999999998
 40
4.999999999997
100
AcDbArc
 50
-85.143317425417
 51
94.39461858444
  0
ARC
  5
417
100
AcDbEntity
  8
7
  6
CONTINUOUS
 62
           7
100
AcDbCircle
 10
108.800000000001
 20
2931.299999999999
 40
3.199999999999
100
AcDbArc
 50
0.0
 51
90.0
  0
ARC
  5
416
100
AcDbEntity
  8
7
  6
CONTINUOUS
 62
           7
100
AcDbCircle
 10
107.923187
 20
2936.5
 40
2.0
100
AcDbArc
 50
-124.999999999985
 51
-90.0
  0
ARC
  5
415
100
AcDbEntity
  8
7
  6
CONTINUOUS
 62
           7
100
AcDbCircle
 10
87.300000000001
 20
2953.041134000001
 40
2.0
100
AcDbArc
 50
180.0
 51
-124.999999999971
  0
ARC
  5
414
100
AcDbEntity
  8
7
  6
CONTINUOUS
 62
           7
100
AcDbCircle
 10
82.1
 20
2952.799999999999
 40
3.200000000001
100
AcDbArc
 50
0.0
 51
90.0
  0
ARC
  5
413
100
AcDbEntity
  8
7
  6
CONTINUOUS
 62
           7
100
AcDbCircle
 10
-89.799999999999
 20
2953.041134000001
 40
2.0
100
AcDbArc
 50
-55.000000000028
 51
0.0
  0
ARC
  5
412
100
AcDbEntity
  8
7
  6
CONTINUOUS
 62
           7
100
AcDbCircle
 10
-84.599999999999
 20
2952.799999999999
 40
3.200000000001
100
AcDbArc
 50
90.0
 51
180.0
  0
ARC
  5
411
100
AcDbEntity
  8
7
  6
CONTINUOUS
 62
           7
100
AcDbCircle
 10
-105.799999999999
 20
2931.111357
 40
6.2
100
AcDbArc
 50
122.681915000002
 51
180.0
  0
ARC
  5
410
100
AcDbEntity
  8
7
  6
CONTINUOUS
 62
           7
100
AcDbCircle
 10
4681.199999999995
 20
2931.299999999998
 40
3.200000000002
100
AcDbArc
 50
90.0
 51
180.0
  0
ARC
  5
40F
100
AcDbEntity
  8
7
  6
CONTINUOUS
 62
           7
100
AcDbCircle
 10
4682.076812999998
 20
2936.5
 40
2.0
100
AcDbArc
 50
-90.0
 51
-55.000000000028
  0
ARC
  5
40E
100
AcDbEntity
  8
7
  6
CONTINUOUS
 62
           7
100
AcDbCircle
 10
4702.699999999995
 20
2953.041134000001
 40
2.000000000005
100
AcDbArc
 50
-54.999999999951
 51
0.0
  0
ARC
  5
40D
100
AcDbEntity
  8
7
  6
CONTINUOUS
 62
           7
100
AcDbCircle
 10
4707.899999999996
 20
2952.799999999998
 40
3.200000000002
100
AcDbArc
 50
90.0
 51
180.0
  0
ARC
  5
40C
100
AcDbEntity
  8
7
  6
CONTINUOUS
 62
           7
100
AcDbCircle
 10
4879.799999999998
 20
2953.041134000001
 40
2.0
100
AcDbArc
 50
180.0
 51
-124.999999999963
  0
ARC
  5
40B
100
AcDbEntity
  8
7
  6
CONTINUOUS
 62
           7
100
AcDbCircle
 10
4874.599999999997
 20
2952.799999999998
 40
3.200000000002
100
AcDbArc
 50
0.0
 51
90.0
  0
ARC
  5
40A
100
AcDbEntity
  8
7
  6
CONTINUOUS
 62
           7
100
AcDbCircle
 10
4895.799999999998
 20
2931.111356999998
 40
6.2
100
AcDbArc
 50
0.0
 51
57.318085000011
  0
ARC
  5
409
100
AcDbEntity
  8
1
  6
CONTINUOUS
 62
           3
100
AcDbCircle
 10
4670.163567691036
 20
1925.0
 40
9.499999999998
100
AcDbArc
 50
-124.797812779172
 51
0.0
  0
ARC
  5
408
100
AcDbEntity
  8
1
  6
CONTINUOUS
 62
           3
100
AcDbCircle
 10
4670.163567691036
 20
1925.0
 40
9.5
100
AcDbArc
 50
0.0
 51
125.916957371428
  0
ARC
  5
407
100
AcDbEntity
  8
1
  6
CONTINUOUS
 62
           3
100
AcDbCircle
 10
4670.163567691036
 20
1925.0
 40
5.871834995066
100
AcDbArc
 50
0.0
 51
38.599713917941
  0
ARC
  5
406
100
AcDbEntity
  8
1
  6
CONTINUOUS
 62
           3
100
AcDbCircle
 10
4670.163567691036
 20
1925.0
 40
5.871834995067
100
AcDbArc
 50
38.599713917941
 51
90.0
  0
ARC
  5
405
100
AcDbEntity
  8
1
  6
CONTINUOUS
 62
           3
100
AcDbCircle
 10
4670.163567691036
 20
1925.0
 40
5.871834995066
100
AcDbArc
 50
-90.0
 51
0.0
  0
ARC
  5
404
100
AcDbEntity
  8
0
  6
CONTINUOUS
 62
           3
100
AcDbCircle
 10
4228.399996721515
 20
1368.000000000113
 40
2.499999999996
100
AcDbArc
 50
0.0
 51
180.0
  0
ARC
  5
403
100
AcDbEntity
  8
0
  6
CONTINUOUS
 62
           3
100
AcDbCircle
 10
4228.399996721515
 20
1631.999999999898
 40
2.499999999998
100
AcDbArc
 50
180.0
 51
0.0
  0
ARC
  5
402
100
AcDbEntity
  8
0
  6
CONTINUOUS
 62
           3
100
AcDbCircle
 10
4103.399996721817
 20
1631.999999999898
 40
2.499999999996
100
AcDbArc
 50
180.0
 51
0.0
  0
ARC
  5
401
100
AcDbEntity
  8
0
  6
CONTINUOUS
 62
           3
100
AcDbCircle
 10
4103.399996721817
 20
1368.000000000113
 40
2.499999999997
100
AcDbArc
 50
0.0
 51
180.0
  0
ARC
  5
400
100
AcDbEntity
  8
0
  6
CONTINUOUS
 62
           3
100
AcDbCircle
 10
4107.899996721814
 20
1508.999999999996
 40
0.999999999996
100
AcDbArc
 50
-90.0
 51
90.0
  0
ARC
  5
3FF
100
AcDbEntity
  8
0
  6
CONTINUOUS
 62
           3
100
AcDbCircle
 10
4107.899996721814
 20
1431.000000000062
 40
1.0
100
AcDbArc
 50
-90.0
 51
90.0
  0
ARC
  5
3FE
100
AcDbEntity
  8
0
  6
CONTINUOUS
 62
           3
100
AcDbCircle
 10
4107.899996721814
 20
1409.000000000178
 40
0.999999999996
100
AcDbArc
 50
-90.0
 51
90.0
  0
ARC
  5
3FD
100
AcDbEntity
  8
0
  6
CONTINUOUS
 62
           3
100
AcDbCircle
 10
4223.899996721519
 20
1409.000000000178
 40
1.0
100
AcDbArc
 50
90.0
 51
-90.0
  0
ARC
  5
3FC
100
AcDbEntity
  8
0
  6
CONTINUOUS
 62
           3
100
AcDbCircle
 10
4223.899996721519
 20
1431.000000000062
 40
0.999999999996
100
AcDbArc
 50
90.0
 51
-90.0
  0
ARC
  5
3FB
100
AcDbEntity
  8
0
  6
CONTINUOUS
 62
           3
100
AcDbCircle
 10
4223.899996721519
 20
1508.999999999996
 40
1.0
100
AcDbArc
 50
90.0
 51
-90.0
  0
ARC
  5
3FA
100
AcDbEntity
  8
0
  6
CONTINUOUS
 62
           3
100
AcDbCircle
 10
4223.899996721519
 20
1530.99999999988
 40
1.0
100
AcDbArc
 50
90.0
 51
-90.0
  0
ARC
  5
3F9
100
AcDbEntity
  8
0
  6
CONTINUOUS
 62
           3
100
AcDbCircle
 10
4107.899996721814
 20
1530.99999999988
 40
0.999999999996
100
AcDbArc
 50
-90.0
 51
90.0
  0
ARC
  5
3F8
100
AcDbEntity
  8
0
  6
CONTINUOUS
 62
           3
100
AcDbCircle
 10
4172.373499413462
 20
1389.999999999996
 40
0.900000000001
100
AcDbArc
 50
-90.0
 51
-62.733955549404
  0
ARC
  5
3F7
100
AcDbEntity
  8
0
  6
CONTINUOUS
 62
           3
100
AcDbCircle
 10
4159.426494029871
 20
1389.999999999996
 40
0.900000000001
100
AcDbArc
 50
-117.266044450596
 51
-90.0
  0
ARC
  5
3F6
100
AcDbEntity
  8
0
  6
CONTINUOUS
 62
           3
100
AcDbCircle
 10
4165.899996721666
 20
1315.000000000058
 40
53.999999999956
100
AcDbArc
 50
180.0
 51
0.0
  0
ARC
  5
3F5
100
AcDbEntity
  8
0
  6
CONTINUOUS
 62
           3
100
AcDbCircle
 10
4165.899996721666
 20
1315.000000000058
 40
45.999999999961
100
AcDbArc
 50
180.0
 51
0.0
  0
ARC
  5
3F4
100
AcDbEntity
  8
0
  6
CONTINUOUS
 62
           3
100
AcDbCircle
 10
4165.899996721666
 20
1355.000000000222
 40
3.999999999996
100
AcDbArc
 50
180.0
 51
0.0
  0
ARC
  5
3F3
100
AcDbEntity
  8
1
  6
CONTINUOUS
 62
           3
100
AcDbCircle
 10
511.509758321877
 20
1267.114622327062
 40
0.500000000003
100
AcDbArc
 50
-83.827497998186
 51
-5.006793000224
  0
ARC
  5
3F2
100
AcDbEntity
  8
1
  6
CONTINUOUS
 62
           3
100
AcDbCircle
 10
505.434752321878
 20
1267.114622327062
 40
0.499999999996
100
AcDbArc
 50
-174.993206999702
 51
-96.172501999314
  0
ARC
  5
3F1
100
AcDbEntity
  8
1
  6
CONTINUOUS
 62
           3
100
AcDbCircle
 10
511.509758321877
 20
1323.287074327053
 40
0.500000000004
100
AcDbArc
 50
5.006793001366
 51
83.827497998172
  0
ARC
  5
3F0
100
AcDbEntity
  8
1
  6
CONTINUOUS
 62
           3
100
AcDbCircle
 10
505.434752321878
 20
1323.287074327053
 40
0.5
100
AcDbArc
 50
96.172501999328
 51
174.99320699856
  0
ARC
  5
3EF
100
AcDbEntity
  8
1
  6
CONTINUOUS
 62
           3
100
AcDbCircle
 10
504.433952321884
 20
1295.200848327053
 40
9.999999999999
100
AcDbArc
 50
-5.006792999978
 51
5.006793000023
  0
ARC
  5
3EE
100
AcDbEntity
  8
1
  6
CONTINUOUS
 62
           3
100
AcDbCircle
 10
512.510557321878
 20
1295.200848327053
 40
10.0
100
AcDbArc
 50
174.993206999977
 51
-174.993207000021
  0
ARC
  5
3ED
100
AcDbEntity
  8
1
  6
CONTINUOUS
 62
           3
100
AcDbCircle
 10
508.472255321878
 20
1295.200848327053
 40
10.749999999989
100
AcDbArc
 50
118.77350699997
 51
-118.773506999946
  0
ARC
  5
3EC
100
AcDbEntity
  8
1
  6
CONTINUOUS
 62
           3
100
AcDbCircle
 10
508.472255321878
 20
1295.200848327053
 40
10.750000000001
100
AcDbArc
 50
-61.22649300002
 51
0.0
  0
ARC
  5
3EB
100
AcDbEntity
  8
1
  6
CONTINUOUS
 62
           3
100
AcDbCircle
 10
508.472255321878
 20
1295.200848327053
 40
10.75
100
AcDbArc
 50
0.0
 51
61.226492999996
  0
ARC
  5
3EA
100
AcDbEntity
  8
1
  6
CONTINUOUS
 62
           3
100
AcDbCircle
 10
508.472255321878
 20
1295.200848327053
 40
28.749999999988
100
AcDbArc
 50
-96.172501999993
 51
-83.827497999993
  0
ARC
  5
3E9
100
AcDbEntity
  8
1
  6
CONTINUOUS
 62
           3
100
AcDbCircle
 10
508.472255321878
 20
1295.200848327053
 40
28.750000000008
100
AcDbArc
 50
83.827497999997
 51
96.172501999988
  0
ARC
  5
3E8
100
AcDbEntity
  8
1
  6
CONTINUOUS
 62
           4
100
AcDbCircle
 10
3291.500000000001
 20
1456.5
 40
10.000000000003
100
AcDbArc
 50
134.999999999979
 51
-44.99999999998
  0
ARC
  5
3E7
100
AcDbEntity
  8
1
  6
CONTINUOUS
 62
           4
100
AcDbCircle
 10
3378.500000000001
 20
1456.5
 40
9.999999999995
100
AcDbArc
 50
-135.000000000024
 51
45.000000000025
  0
ARC
  5
3E6
100
AcDbEntity
  8
1
  6
CONTINUOUS
 62
           4
100
AcDbCircle
 10
3378.500000000001
 20
1543.5
 40
9.999999999994
100
AcDbArc
 50
-44.99999999998
 51
134.999999999979
  0
ARC
  5
3E5
100
AcDbEntity
  8
1
  6
CONTINUOUS
 62
           4
100
AcDbCircle
 10
3291.500000000001
 20
1543.5
 40
10.000000000002
100
AcDbArc
 50
45.000000000025
 51
-135.000000000024
  0
ARC
  5
3E4
100
AcDbEntity
  8
1
  6
CONTINUOUS
 62
           4
100
AcDbCircle
 10
3335.000000000001
 20
1500.0
 40
49.999999999999
100
AcDbArc
 50
146.536959032816
 51
-146.536959032816
  0
ARC
  5
3E3
100
AcDbEntity
  8
1
  6
CONTINUOUS
 62
           4
100
AcDbCircle
 10
3335.000000000001
 20
1500.0
 40
49.999999999999
100
AcDbArc
 50
-33.463040967183
 51
33.463040967183
  0
ARC
  5
3E2
100
AcDbEntity
  8
1
  6
CONTINUOUS
 62
           4
100
AcDbCircle
 10
3335.000000000001
 20
1500.0
 40
49.999999999998
100
AcDbArc
 50
-123.463040967185
 51
-56.536959032814
  0
ARC
  5
3E1
100
AcDbEntity
  8
1
  6
CONTINUOUS
 62
           4
100
AcDbCircle
 10
3335.000000000001
 20
1500.0
 40
50.000000000004
100
AcDbArc
 50
56.536959032819
 51
123.463040967181
  0
LINE
  5
3E0
100
AcDbEntity
  8
1
  6
CONTINUOUS
 62
           4
100
AcDbLine
 10
-689.999999999996
 20
5657.499999999998
 11
40.000000000004
 21
5657.499999999998
  0
LINE
  5
3DF
100
AcDbEntity
  8
1
  6
CONTINUOUS
 62
           7
100
AcDbLine
 10
40.000000000004
 20
5661.999999999998
 11
-689.999999999996
 21
5661.999999999998
  0
LINE
  5
3DE
100
AcDbEntity
  8
1
  6
CONTINUOUS
 62
           4
100
AcDbLine
 10
40.000000000004
 20
5666.499999999998
 11
-689.999999999996
 21
5666.499999999998
  0
LINE
  5
3DD
100
AcDbEntity
  8
1
  6
DOT_CENTER
 62
           2
100
AcDbLine
 10
-324.999999999996
 20
5770.888968922947
 11
-324.999999999996
 21
5338.651872456057
  0
LINE
  5
3DC
100
AcDbEntity
  8
1
  6
CONTINUOUS
 62
           7
100
AcDbLine
 10
166.5
 20
5185.749999999998
 11
166.5
 21
5118.249999999998
  0
LINE
  5
3DB
100
AcDbEntity
  8
1
  6
CONTINUOUS
 62
           7
100
AcDbLine
 10
113.946258446662
 20
5118.249999999998
 11
113.946258446662
 21
5185.749999999998
  0
LINE
  5
3DA
100
AcDbEntity
  8
1
  6
CONTINUOUS
 62
           7
100
AcDbLine
 10
123.946258446662
 20
5195.749999999998
 11
156.5
 21
5195.749999999998
  0
LINE
  5
3D9
100
AcDbEntity
  8
1
  6
CONTINUOUS
 62
           7
100
AcDbLine
 10
156.5
 20
5108.249999999998
 11
123.946258446662
 21
5108.249999999998
  0
LINE
  5
3D8
100
AcDbEntity
  8
1
  6
CONTINUOUS
 62
           4
100
AcDbLine
 10
115.286004408819
 20
5190.749999999998
 11
109.265668111722
 21
5190.749999999998
  0
LINE
  5
3D7
100
AcDbEntity
  8
1
  6
CONTINUOUS
 62
           4
100
AcDbLine
 10
115.286004408819
 20
5113.249999999998
 11
109.265668111722
 21
5113.249999999998
  0
LINE
  5
3D6
100
AcDbEntity
  8
1
  6
CONTINUOUS
 62
           7
100
AcDbLine
 10
0.000000000002
 20
5611.999999999998
 11
0.000000000004
 21
5621.999999999998
  0
LINE
  5
3D5
100
AcDbEntity
  8
1
  6
CONTINUOUS
 62
           7
100
AcDbLine
 10
-649.999999999996
 20
5621.999999999998
 11
-649.999999999996
 21
5611.999999999998
  0
LINE
  5
3D4
100
AcDbEntity
  8
1
  6
CONTINUOUS
 62
           7
100
AcDbLine
 10
-659.999999999996
 20
5601.999999999998
 11
-649.999999999996
 21
5611.999999999998
  0
LINE
  5
3D3
100
AcDbEntity
  8
1
  6
CONTINUOUS
 62
           7
100
AcDbLine
 10
31.875234341349
 20
5556.790474617623
 11
0.000000000002
 21
5611.999999999998
  0
LINE
  5
3D2
100
AcDbEntity
  8
1
  6
CONTINUOUS
 62
           7
100
AcDbLine
 10
-659.999999999996
 20
5601.999999999998
 11
-659.999999999996
 21
5201.999999999996
  0
LINE
  5
3D1
100
AcDbEntity
  8
1
  6
CONTINUOUS
 62
           7
100
AcDbLine
 10
-689.999999999996
 20
5696.999999999998
 11
-689.999999999996
 21
5661.999999999998
  0
LINE
  5
3D0
100
AcDbEntity
  8
1
  6
CONTINUOUS
 62
           7
100
AcDbLine
 10
-689.999999999996
 20
5696.999999999998
 11
-684.999999999996
 21
5701.999999999998
  0
LINE
  5
3CF
100
AcDbEntity
  8
1
  6
CONTINUOUS
 62
           7
100
AcDbLine
 10
35.000000000004
 20
5701.999999999998
 11
-684.999999999996
 21
5701.999999999998
  0
LINE
  5
3CE
100
AcDbEntity
  8
1
  6
CONTINUOUS
 62
           7
100
AcDbLine
 10
35.000000000004
 20
5701.999999999998
 11
40.000000000004
 21
5696.999999999998
  0
LINE
  5
3CD
100
AcDbEntity
  8
1
  6
CONTINUOUS
 62
           7
100
AcDbLine
 10
40.000000000004
 20
5661.999999999998
 11
40.000000000004
 21
5696.999999999998
  0
LINE
  5
3CC
100
AcDbEntity
  8
1
  6
CONTINUOUS
 62
           7
100
AcDbLine
 10
40.000000000004
 20
5626.999999999998
 11
40.000000000004
 21
5661.999999999998
  0
LINE
  5
3CB
100
AcDbEntity
  8
1
  6
CONTINUOUS
 62
           7
100
AcDbLine
 10
40.000000000004
 20
5626.999999999998
 11
35.000000000004
 21
5621.999999999998
  0
LINE
  5
3CA
100
AcDbEntity
  8
1
  6
CONTINUOUS
 62
           7
100
AcDbLine
 10
-684.999999999996
 20
5621.999999999998
 11
35.000000000004
 21
5621.999999999998
  0
LINE
  5
3C9
100
AcDbEntity
  8
1
  6
CONTINUOUS
 62
           7
100
AcDbLine
 10
-684.999999999996
 20
5621.999999999998
 11
-689.999999999996
 21
5626.999999999998
  0
LINE
  5
3C8
100
AcDbEntity
  8
1
  6
CONTINUOUS
 62
           7
100
AcDbLine
 10
-689.999999999996
 20
5661.999999999998
 11
-689.999999999996
 21
5626.999999999998
  0
LINE
  5
3C7
100
AcDbEntity
  8
1
  6
CONTINUOUS
 62
           7
100
AcDbLine
 10
445.000000000004
 20
5251.999999999998
 11
170.000000200063
 21
5526.999999999998
  0
LINE
  5
3C6
100
AcDbEntity
  8
1
  6
CONTINUOUS
 62
           7
100
AcDbLine
 10
-645.983368801932
 20
5147.531349823827
 11
-56.963420073538
 21
4558.511401095431
  0
LINE
  5
3C5
100
AcDbEntity
  8
1
  6
CONTINUOUS
 62
           7
100
AcDbLine
 10
-179.999999999996
 20
5621.999999999998
 11
-649.999999999998
 21
5151.999999999998
  0
LINE
  5
3C4
100
AcDbEntity
  8
1
  6
CONTINUOUS
 62
           7
100
AcDbLine
 10
-650.226009489052
 20
5151.773990510947
 11
-645.983368801932
 21
5147.531349823827
  0
LINE
  5
3C3
100
AcDbEntity
  8
1
  6
CONTINUOUS
 62
           7
100
AcDbLine
 10
-52.720779386418
 20
4554.268760408311
 11
470.538238691626
 21
5077.527778486356
  0
LINE
  5
3C2
100
AcDbEntity
  8
1
  6
CONTINUOUS
 62
           7
100
AcDbLine
 10
-56.963420073538
 20
4558.511401095431
 11
-52.720779386418
 21
4554.268760408311
  0
LINE
  5
3C1
100
AcDbEntity
  8
1
  6
CONTINUOUS
 62
           7
100
AcDbLine
 10
-649.999999999998
 20
5151.999999999998
 11
-650.226009489052
 21
5151.773990510947
  0
LINE
  5
3C0
100
AcDbEntity
  8
1
  6
CONTINUOUS
 62
           7
100
AcDbLine
 10
216.0
 20
4936.0
 11
216.000000000004
 21
5421.999999999998
  0
LINE
  5
3BF
100
AcDbEntity
  8
1
  6
CONTINUOUS
 62
           7
100
AcDbLine
 10
-215.999999999996
 20
4936.0
 11
270.000000000004
 21
4936.0
  0
LINE
  5
3BE
100
AcDbEntity
  8
1
  6
CONTINUOUS
 62
           7
100
AcDbLine
 10
-215.999999999998
 20
5368.0
 11
-215.999999999996
 21
4881.999999999998
  0
LINE
  5
3BD
100
AcDbEntity
  8
1
  6
CONTINUOUS
 62
           7
100
AcDbLine
 10
216.000000000006
 20
5368.0
 11
-269.999999999996
 21
5368.0
  0
LINE
  5
3BC
100
AcDbEntity
  8
1
  6
CONTINUOUS
 62
           7
100
AcDbLine
 10
-52.72077938642
 20
2150.0
 11
-52.720779386418
 21
2165.300000000002
  0
LINE
  5
3BB
100
AcDbEntity
  8
1
  6
CONTINUOUS
 62
           7
100
AcDbLine
 10
166.5
 20
2825.000000000001
 11
166.5
 21
2765.000000000001
  0
LINE
  5
3BA
100
AcDbEntity
  8
1
  6
CONTINUOUS
 62
           7
100
AcDbLine
 10
108.613664
 20
2765.000000000001
 11
108.613664
 21
2825.000000000001
  0
LINE
  5
3B9
100
AcDbEntity
  8
1
  6
CONTINUOUS
 62
           7
100
AcDbLine
 10
118.613664
 20
2835.000000000001
 11
156.5
 21
2835.000000000001
  0
LINE
  5
3B8
100
AcDbEntity
  8
1
  6
CONTINUOUS
 62
           7
100
AcDbLine
 10
156.5
 20
2755.000000000001
 11
118.613664
 21
2755.000000000001
  0
LINE
  5
3B7
100
AcDbEntity
  8
1
  6
DOT_CENTER
 62
           2
100
AcDbLine
 10
533.829689541417
 20
2385.000000000003
 11
-733.147676803783
 21
2385.000000000001
  0
LINE
  5
3B6
100
AcDbEntity
  8
1
  6
CONTINUOUS
 62
           2
100
AcDbLine
 10
467.974062000609
 20
2565.000000000003
 11
425.133110726258
 21
2565.000000000003
  0
LINE
  5
3B5
100
AcDbEntity
  8
1
  6
CONTINUOUS
 62
           2
100
AcDbLine
 10
425.133110726258
 20
2205.000000000002
 11
467.974062000609
 21
2205.000000000003
  0
LINE
  5
3B4
100
AcDbEntity
  8
1
  6
CONTINUOUS
 62
           2
100
AcDbLine
 10
425.133110726258
 20
2565.000000000003
 11
425.133110726258
 21
2205.000000000002
  0
LINE
  5
3B3
100
AcDbEntity
  8
1
  6
CONTINUOUS
 62
           7
100
AcDbLine
 10
-650.0
 20
2165.299999999998
 11
-650.0
 21
2150.0
  0
LINE
  5
3B2
100
AcDbEntity
  8
1
  6
CONTINUOUS
 62
           7
100
AcDbLine
 10
-649.999999999993
 20
2604.700000000002
 11
-649.999999999993
 21
2165.299999999998
  0
LINE
  5
3B1
100
AcDbEntity
  8
1
  6
CONTINUOUS
 62
           7
100
AcDbLine
 10
-650.0
 20
2604.700000000002
 11
-650.0
 21
2642.700000000001
  0
LINE
  5
3B0
100
AcDbEntity
  8
1
  6
CONTINUOUS
 62
           7
100
AcDbLine
 10
-668.432750797187
 20
2605.000000000001
 11
-690.773990510945
 21
2605.000000000001
  0
LINE
  5
3AF
100
AcDbEntity
  8
1
  6
CONTINUOUS
 62
           7
100
AcDbLine
 10
-659.999999999996
 20
2645.000000000001
 11
-690.773990510945
 21
2645.000000000001
  0
LINE
  5
3AE
100
AcDbEntity
  8
1
  6
CONTINUOUS
 62
           7
100
AcDbLine
 10
467.974062000609
 20
2604.700000000002
 11
467.974062000609
 21
2165.300000000002
  0
LINE
  5
3AD
100
AcDbEntity
  8
2
  6
CONTINUOUS
 62
           4
100
AcDbLine
 10
93.250000000002
 20
2648.700000000002
 11
93.250000000002
 21
2650.7
  0
LINE
  5
3AC
100
AcDbEntity
  8
7
  6
CONTINUOUS
 62
           7
100
AcDbLine
 10
115.0
 20
2896.537538373369
 11
115.0
 21
2869.0
  0
LINE
  5
3AB
100
AcDbEntity
  8
7
  6
CONTINUOUS
 62
           7
100
AcDbLine
 10
-115.0
 20
2896.537538373369
 11
-112.0
 21
2931.111357
  0
LINE
  5
3AA
100
AcDbEntity
  8
1
  6
CONTINUOUS
 62
           4
100
AcDbLine
 10
115.0
 20
2896.537538373369
 11
-115.0
 21
2896.537538373369
  0
LINE
  5
3A9
100
AcDbEntity
  8
2
  6
CONTINUOUS
 62
           7
100
AcDbLine
 10
-97.568642
 20
2650.7
 11
-108.613663999999
 21
2677.2
  0
LINE
  5
3A8
100
AcDbEntity
  8
2
  6
CONTINUOUS
 62
           4
100
AcDbLine
 10
97.568642
 20
2650.7
 11
-97.568642
 21
2650.7
  0
LINE
  5
3A7
100
AcDbEntity
  8
2
  6
CONTINUOUS
 62
           7
100
AcDbLine
 10
-103.820540999999
 20
2869.0
 11
-108.613663999999
 21
2857.5
  0
LINE
  5
3A6
100
AcDbEntity
  8
2
  6
CONTINUOUS
 62
           7
100
AcDbLine
 10
-108.613663999999
 20
2677.2
 11
-108.613663999999
 21
2857.5
  0
LINE
  5
3A5
100
AcDbEntity
  8
2
  6
CONTINUOUS
 62
           4
100
AcDbLine
 10
-93.25
 20
2650.7
 11
-93.25
 21
2648.700000000002
  0
LINE
  5
3A4
100
AcDbEntity
  8
2
  6
CONTINUOUS
 62
           7
100
AcDbLine
 10
108.613664
 20
2857.5
 11
103.820541000001
 21
2869.0
  0
LINE
  5
3A3
100
AcDbEntity
  8
2
  6
CONTINUOUS
 62
           7
100
AcDbLine
 10
108.613664
 20
2677.2
 11
108.613664
 21
2857.5
  0
LINE
  5
3A2
100
AcDbEntity
  8
2
  6
CONTINUOUS
 62
           7
100
AcDbLine
 10
108.613664
 20
2677.2
 11
97.568642
 21
2650.7
  0
LINE
  5
3A1
100
AcDbEntity
  8
7
  6
CONTINUOUS
 62
           7
100
AcDbLine
 10
0.0
 20
2956.0
 11
82.1
 21
2956.0
  0
LINE
  5
3A0
100
AcDbEntity
  8
7
  6
CONTINUOUS
 62
           7
100
AcDbLine
 10
86.152847000001
 20
2951.40283
 11
106.776034
 21
2934.861696
  0
LINE
  5
39F
100
AcDbEntity
  8
7
  6
CONTINUOUS
 62
           4
100
AcDbLine
 10
-110.992022999999
 20
2934.5
 11
108.800000000001
 21
2934.5
  0
LINE
  5
39E
100
AcDbEntity
  8
7
  6
CONTINUOUS
 62
           7
100
AcDbLine
 10
112.0
 20
2931.299999999999
 11
115.0
 21
2896.537538373369
  0
LINE
  5
39D
100
AcDbEntity
  8
7
  6
CONTINUOUS
 62
           7
100
AcDbLine
 10
115.0
 20
2869.0
 11
0.0
 21
2869.0
  0
LINE
  5
39C
100
AcDbEntity
  8
7
  6
CONTINUOUS
 62
           7
100
AcDbLine
 10
-115.0
 20
2869.0
 11
-115.0
 21
2896.537538373369
  0
LINE
  5
39B
100
AcDbEntity
  8
7
  6
CONTINUOUS
 62
           7
100
AcDbLine
 10
0.0
 20
2956.0
 11
-84.599999999999
 21
2956.0
  0
LINE
  5
39A
100
AcDbEntity
  8
7
  6
CONTINUOUS
 62
           7
100
AcDbLine
 10
-88.652848
 20
2951.40283
 11
-109.147842999999
 21
2936.329780999999
  0
LINE
  5
399
100
AcDbEntity
  8
7
  6
CONTINUOUS
 62
           7
100
AcDbLine
 10
0.0
 20
2869.0
 11
-115.0
 21
2869.0
  0
LINE
  5
398
100
AcDbEntity
  8
1
  6
CONTINUOUS
 62
           4
100
AcDbLine
 10
270.0
 20
2642.700000000002
 11
270.0
 21
2643.7
  0
LINE
  5
397
100
AcDbEntity
  8
1
  6
CONTINUOUS
 62
           4
100
AcDbLine
 10
265.0
 20
2648.700000000002
 11
-264.993063735608
 21
2648.700000000002
  0
LINE
  5
396
100
AcDbEntity
  8
1
  6
CONTINUOUS
 62
           4
100
AcDbLine
 10
270.0
 20
2643.7
 11
265.0
 21
2648.700000000002
  0
LINE
  5
395
100
AcDbEntity
  8
1
  6
CONTINUOUS
 62
           7
100
AcDbLine
 10
470.538238691624
 20
2165.300000000002
 11
470.538238691624
 21
2150.0
  0
LINE
  5
394
100
AcDbEntity
  8
1
  6
CONTINUOUS
 62
           7
100
AcDbLine
 10
470.538238691624
 20
2642.700000000002
 11
470.538238691624
 21
2604.700000000002
  0
LINE
  5
393
100
AcDbEntity
  8
1
  6
CONTINUOUS
 62
           7
100
AcDbLine
 10
-650.0
 20
2642.700000000001
 11
470.538238691624
 21
2642.700000000002
  0
LINE
  5
392
100
AcDbEntity
  8
1
  6
CONTINUOUS
 62
           2
100
AcDbLine
 10
-576.934895578939
 20
2565.000000000003
 11
-576.934895578939
 21
2205.000000000002
  0
LINE
  5
391
100
AcDbEntity
  8
1
  6
CONTINUOUS
 62
           2
100
AcDbLine
 10
-268.542359119501
 20
2565.000000000003
 11
-576.934895578939
 21
2565.000000000003
  0
LINE
  5
390
100
AcDbEntity
  8
1
  6
CONTINUOUS
 62
           2
100
AcDbLine
 10
-268.542359119501
 20
2205.000000000002
 11
-268.542359119501
 21
2565.000000000003
  0
LINE
  5
38F
100
AcDbEntity
  8
1
  6
CONTINUOUS
 62
           2
100
AcDbLine
 10
-576.934895578939
 20
2205.000000000002
 11
-268.542359119501
 21
2205.000000000002
  0
LINE
  5
38E
100
AcDbEntity
  8
1
  6
CONTINUOUS
 62
           7
100
AcDbLine
 10
477.97458985055
 20
2165.000000000006
 11
-387.5
 21
2165.000000000002
  0
LINE
  5
38D
100
AcDbEntity
  8
1
  6
CONTINUOUS
 62
           7
100
AcDbLine
 10
477.97458985055
 20
2605.000000000002
 11
-659.776331535244
 21
2605.000000000002
  0
LINE
  5
38C
100
AcDbEntity
  8
1
  6
CONTINUOUS
 62
           7
100
AcDbLine
 10
-690.773990510945
 20
2165.000000000001
 11
-668.188191940733
 21
2165.000000000001
  0
LINE
  5
38B
100
AcDbEntity
  8
1
  6
CONTINUOUS
 62
           7
100
AcDbLine
 10
-690.773990510945
 20
2645.000000000001
 11
-690.773990510945
 21
2150.0
  0
LINE
  5
38A
100
AcDbEntity
  8
1
  6
CONTINUOUS
 62
           4
100
AcDbLine
 10
-264.993063735608
 20
2648.700000000002
 11
-271.00138725288
 21
2642.700000000002
  0
LINE
  5
389
100
AcDbEntity
  8
1
  6
CONTINUOUS
 62
           7
100
AcDbLine
 10
-52.720779386418
 20
2604.700000000002
 11
-52.720779386418
 21
2642.700000000001
  0
LINE
  5
388
100
AcDbEntity
  8
1
  6
CONTINUOUS
 62
           7
100
AcDbLine
 10
-512.5
 20
2165.000000000001
 11
-659.999999999996
 21
2165.000000000001
  0
LINE
  5
387
100
AcDbEntity
  8
1
  6
CONTINUOUS
 62
           7
100
AcDbLine
 10
4746.249999999998
 20
2765.000000000001
 11
4746.249999999998
 21
2825.000000000001
  0
LINE
  5
386
100
AcDbEntity
  8
1
  6
CONTINUOUS
 62
           7
100
AcDbLine
 10
4833.749999999998
 20
2825.000000000001
 11
4833.749999999998
 21
2765.000000000001
  0
LINE
  5
385
100
AcDbEntity
  8
1
  6
CONTINUOUS
 62
           7
100
AcDbLine
 10
4756.249999999998
 20
2835.000000000001
 11
4823.749999999998
 21
2835.000000000001
  0
LINE
  5
384
100
AcDbEntity
  8
1
  6
CONTINUOUS
 62
           7
100
AcDbLine
 10
4823.749999999998
 20
2755.000000000001
 11
4756.249999999998
 21
2755.000000000001
  0
LINE
  5
383
100
AcDbEntity
  8
1
  6
CONTINUOUS
 62
           7
100
AcDbLine
 10
4715.527778486356
 20
2127.299999999999
 11
4192.268760408313
 21
2127.299999999999
  0
LINE
  5
382
100
AcDbEntity
  8
1
  6
CONTINUOUS
 62
           7
100
AcDbLine
 10
4715.527778486356
 20
2165.299999999999
 11
4715.527778486356
 21
2127.299999999999
  0
LINE
  5
381
100
AcDbEntity
  8
1
  6
CONTINUOUS
 62
           7
100
AcDbLine
 10
4889.999999999998
 20
2165.299999999999
 11
4889.999999999998
 21
2127.299999999999
  0
LINE
  5
380
100
AcDbEntity
  8
1
  6
CONTINUOUS
 62
           7
100
AcDbLine
 10
5164.999999999998
 20
2165.299999999999
 11
5164.999999999998
 21
2127.299999999999
  0
LINE
  5
37F
100
AcDbEntity
  8
1
  6
CONTINUOUS
 62
           7
100
AcDbLine
 10
5164.999999999998
 20
2642.7
 11
5164.999999999998
 21
2604.7
  0
LINE
  5
37E
100
AcDbEntity
  8
1
  6
CONTINUOUS
 62
           7
100
AcDbLine
 10
4889.999999999998
 20
2642.7
 11
5256.464466094067
 21
2642.7
  0
LINE
  5
37D
100
AcDbEntity
  8
1
  6
CONTINUOUS
 62
           7
100
AcDbLine
 10
4715.527778486356
 20
2642.7
 11
4715.527778486356
 21
2604.7
  0
LINE
  5
37C
100
AcDbEntity
  8
1
  6
CONTINUOUS
 62
           7
100
AcDbLine
 10
4889.999999999998
 20
2642.7
 11
4889.999999999998
 21
2604.7
  0
LINE
  5
37B
100
AcDbEntity
  8
1
  6
CONTINUOUS
 62
           7
100
AcDbLine
 10
4230.010908476355
 20
2165.299999999999
 11
4230.010908476355
 21
2604.7
  0
LINE
  5
37A
100
AcDbEntity
  8
2
  6
CONTINUOUS
 62
           4
100
AcDbLine
 10
4696.749999999996
 20
2650.699999999999
 11
4696.749999999996
 21
2648.7
  0
LINE
  5
379
100
AcDbEntity
  8
7
  6
CONTINUOUS
 62
           7
100
AcDbLine
 10
4674.999999999998
 20
2869.0
 11
4674.999999999998
 21
2896.537538373368
  0
LINE
  5
378
100
AcDbEntity
  8
7
  6
CONTINUOUS
 62
           7
100
AcDbLine
 10
4901.999999999998
 20
2931.111356999998
 11
4904.999999999998
 21
2896.537538373368
  0
LINE
  5
377
100
AcDbEntity
  8
1
  6
CONTINUOUS
 62
           4
100
AcDbLine
 10
4904.999999999998
 20
2896.537538373368
 11
4674.999999999998
 21
2896.537538373368
  0
LINE
  5
376
100
AcDbEntity
  8
2
  6
CONTINUOUS
 62
           7
100
AcDbLine
 10
4898.613663999995
 20
2677.199999999999
 11
4887.568641999998
 21
2650.699999999999
  0
LINE
  5
375
100
AcDbEntity
  8
2
  6
CONTINUOUS
 62
           4
100
AcDbLine
 10
4887.568641999998
 20
2650.699999999999
 11
4692.431357999996
 21
2650.699999999999
  0
LINE
  5
374
100
AcDbEntity
  8
2
  6
CONTINUOUS
 62
           7
100
AcDbLine
 10
4898.613663999995
 20
2857.5
 11
4893.820540999996
 21
2869.0
  0
LINE
  5
373
100
AcDbEntity
  8
2
  6
CONTINUOUS
 62
           7
100
AcDbLine
 10
4898.613663999995
 20
2857.5
 11
4898.613663999995
 21
2677.199999999999
  0
LINE
  5
372
100
AcDbEntity
  8
2
  6
CONTINUOUS
 62
           4
100
AcDbLine
 10
4883.249999999998
 20
2648.7
 11
4883.249999999998
 21
2650.699999999999
  0
LINE
  5
371
100
AcDbEntity
  8
2
  6
CONTINUOUS
 62
           7
100
AcDbLine
 10
4686.179458999997
 20
2869.0
 11
4681.386335999998
 21
2857.5
  0
LINE
  5
370
100
AcDbEntity
  8
2
  6
CONTINUOUS
 62
           7
100
AcDbLine
 10
4681.386335999998
 20
2857.5
 11
4681.386335999998
 21
2677.199999999999
  0
LINE
  5
36F
100
AcDbEntity
  8
2
  6
CONTINUOUS
 62
           7
100
AcDbLine
 10
4692.431357999996
 20
2650.699999999999
 11
4681.386335999998
 21
2677.199999999999
  0
LINE
  5
36E
100
AcDbEntity
  8
7
  6
CONTINUOUS
 62
           7
100
AcDbLine
 10
4707.899999999996
 20
2956.0
 11
4789.999999999998
 21
2956.0
  0
LINE
  5
36D
100
AcDbEntity
  8
7
  6
CONTINUOUS
 62
           7
100
AcDbLine
 10
4683.223965999996
 20
2934.861695999999
 11
4703.847152999997
 21
2951.402829999999
  0
LINE
  5
36C
100
AcDbEntity
  8
7
  6
CONTINUOUS
 62
           4
100
AcDbLine
 10
4681.199999999995
 20
2934.5
 11
4900.992022999997
 21
2934.5
  0
LINE
  5
36B
100
AcDbEntity
  8
7
  6
CONTINUOUS
 62
           7
100
AcDbLine
 10
4674.999999999998
 20
2896.537538373368
 11
4677.999999999998
 21
2931.299999999998
  0
LINE
  5
36A
100
AcDbEntity
  8
7
  6
CONTINUOUS
 62
           7
100
AcDbLine
 10
4789.999999999998
 20
2869.0
 11
4674.999999999998
 21
2869.0
  0
LINE
  5
369
100
AcDbEntity
  8
7
  6
CONTINUOUS
 62
           7
100
AcDbLine
 10
4904.999999999998
 20
2896.537538373368
 11
4904.999999999998
 21
2869.0
  0
LINE
  5
368
100
AcDbEntity
  8
7
  6
CONTINUOUS
 62
           7
100
AcDbLine
 10
4874.599999999997
 20
2956.0
 11
4789.999999999998
 21
2956.0
  0
LINE
  5
367
100
AcDbEntity
  8
7
  6
CONTINUOUS
 62
           7
100
AcDbLine
 10
4899.147842999997
 20
2936.329780999997
 11
4878.652847999996
 21
2951.402829999999
  0
LINE
  5
366
100
AcDbEntity
  8
7
  6
CONTINUOUS
 62
           7
100
AcDbLine
 10
4904.999999999998
 20
2869.0
 11
4789.999999999998
 21
2869.0
  0
LINE
  5
365
100
AcDbEntity
  8
1
  6
CONTINUOUS
 62
           4
100
AcDbLine
 10
5129.999999999998
 20
2075.0
 11
5129.999999999998
 21
2081.0
  0
LINE
  5
364
100
AcDbEntity
  8
1
  6
CONTINUOUS
 62
           4
100
AcDbLine
 10
4449.999999999998
 20
2081.0
 11
4449.999999999998
 21
2075.0
  0
LINE
  5
363
100
AcDbEntity
  8
1
  6
CONTINUOUS
 62
           7
100
AcDbLine
 10
4449.999999999998
 20
2075.0
 11
5129.999999999998
 21
2075.0
  0
LINE
  5
362
100
AcDbEntity
  8
1
  6
CONTINUOUS
 62
           4
100
AcDbLine
 10
5129.999999999998
 20
2081.0
 11
4449.999999999998
 21
2081.0
  0
LINE
  5
361
100
AcDbEntity
  8
0
  6
CONTINUOUS
 62
           7
100
AcDbLine
 10
5109.999999999998
 20
2165.299999999999
 11
5044.211716344313
 21
2165.299999999999
  0
LINE
  5
360
100
AcDbEntity
  8
0
  6
CONTINUOUS
 62
           7
100
AcDbLine
 10
4491.799999999998
 20
2127.299999999999
 11
4491.799999999998
 21
2081.0
  0
LINE
  5
35F
100
AcDbEntity
  8
0
  6
CONTINUOUS
 62
           7
100
AcDbLine
 10
5088.199999999999
 20
2081.0
 11
5088.199999999999
 21
2127.299999999999
  0
LINE
  5
35E
100
AcDbEntity
  8
1
  6
CONTINUOUS
 62
           4
100
AcDbLine
 10
4519.999999999998
 20
2643.699999999999
 11
4519.999999999998
 21
2642.7
  0
LINE
  5
35D
100
AcDbEntity
  8
1
  6
CONTINUOUS
 62
           4
100
AcDbLine
 10
5054.993063735607
 20
2648.7
 11
4524.999999999998
 21
2648.7
  0
LINE
  5
35C
100
AcDbEntity
  8
1
  6
CONTINUOUS
 62
           4
100
AcDbLine
 10
4524.999999999998
 20
2648.7
 11
4519.999999999998
 21
2643.699999999999
  0
LINE
  5
35B
100
AcDbEntity
  8
1
  6
CONTINUOUS
 62
           4
100
AcDbLine
 10
5059.999999999998
 20
2643.699999999999
 11
5054.993063735607
 21
2648.7
  0
LINE
  5
35A
100
AcDbEntity
  8
1
  6
CONTINUOUS
 62
           4
100
AcDbLine
 10
5059.999999999998
 20
2642.7
 11
5059.999999999998
 21
2643.699999999999
  0
LINE
  5
359
100
AcDbEntity
  8
1
  6
CONTINUOUS
 62
           7
100
AcDbLine
 10
5259.999999999998
 20
2165.299999999999
 11
4192.268760408313
 21
2165.299999999999
  0
LINE
  5
358
100
AcDbEntity
  8
1
  6
CONTINUOUS
 62
           7
100
AcDbLine
 10
5259.999999999998
 20
2604.7
 11
4192.268760408313
 21
2604.7
  0
LINE
  5
357
100
AcDbEntity
  8
1
  6
CONTINUOUS
 62
           7
100
AcDbLine
 10
4192.268760408313
 20
2127.299999999999
 11
4192.268760408313
 21
2165.299999999999
  0
LINE
  5
356
100
AcDbEntity
  8
1
  6
CONTINUOUS
 62
           7
100
AcDbLine
 10
5259.999999999998
 20
2132.299999999999
 11
5256.464466094067
 21
2127.299999999999
  0
LINE
  5
355
100
AcDbEntity
  8
1
  6
CONTINUOUS
 62
           7
100
AcDbLine
 10
5256.464466094067
 20
2642.7
 11
5259.999999999998
 21
2637.7
  0
LINE
  5
354
100
AcDbEntity
  8
1
  6
CONTINUOUS
 62
           7
100
AcDbLine
 10
4192.268760408313
 20
2604.7
 11
4192.268760408313
 21
2642.7
  0
LINE
  5
353
100
AcDbEntity
  8
1
  6
CONTINUOUS
 62
           7
100
AcDbLine
 10
4192.268760408313
 20
2642.7
 11
4715.527778486356
 21
2642.7
  0
LINE
  5
352
100
AcDbEntity
  8
1
  6
CONTINUOUS
 62
           7
100
AcDbLine
 10
5259.999999999998
 20
2637.7
 11
5259.999999999998
 21
2604.7
  0
LINE
  5
351
100
AcDbEntity
  8
1
  6
CONTINUOUS
 62
           7
100
AcDbLine
 10
5259.999999999998
 20
2165.299999999999
 11
5259.999999999998
 21
2132.299999999999
  0
LINE
  5
350
100
AcDbEntity
  8
1
  6
CONTINUOUS
 62
           7
100
AcDbLine
 10
5256.464466094067
 20
2127.299999999999
 11
4889.999999999998
 21
2127.299999999999
  0
LINE
  5
34F
100
AcDbEntity
  8
1
  6
CONTINUOUS
 62
           7
100
AcDbLine
 10
5259.999999999998
 20
2165.0
 11
5294.499999999996
 21
2165.0
  0
LINE
  5
34E
100
AcDbEntity
  8
1
  6
CONTINUOUS
 62
           7
100
AcDbLine
 10
5259.999999999998
 20
2604.999999999999
 11
5259.999999999998
 21
2165.0
  0
LINE
  5
34D
100
AcDbEntity
  8
1
  6
CONTINUOUS
 62
           4
100
AcDbLine
 10
5295.499999999998
 20
2605.000000000002
 11
5295.499999999998
 21
2165.0
  0
LINE
  5
34C
100
AcDbEntity
  8
1
  6
CONTINUOUS
 62
           4
100
AcDbLine
 10
5295.499999999998
 20
2125.0
 11
5295.499999999998
 21
2159.5
  0
LINE
  5
34B
100
AcDbEntity
  8
1
  6
CONTINUOUS
 62
           4
100
AcDbLine
 10
5295.499999999998
 20
2610.500000000002
 11
5295.499999999998
 21
2645.000000000002
  0
LINE
  5
34A
100
AcDbEntity
  8
1
  6
CONTINUOUS
 62
           7
100
AcDbLine
 10
5294.500000000016
 20
2605.000000000002
 11
5259.999999999998
 21
2604.999999999999
  0
LINE
  5
349
100
AcDbEntity
  8
1
  6
CONTINUOUS
 62
           7
100
AcDbLine
 10
5339.999999999998
 20
2604.999999999999
 11
5305.499999999998
 21
2605.000000000002
  0
LINE
  5
348
100
AcDbEntity
  8
1
  6
CONTINUOUS
 62
           4
100
AcDbLine
 10
5304.499999999998
 20
2645.000000000002
 11
5304.499999999998
 21
2610.500000000002
  0
LINE
  5
347
100
AcDbEntity
  8
1
  6
CONTINUOUS
 62
           4
100
AcDbLine
 10
5304.499999999998
 20
2159.5
 11
5304.499999999998
 21
2125.0
  0
LINE
  5
346
100
AcDbEntity
  8
1
  6
CONTINUOUS
 62
           4
100
AcDbLine
 10
5304.499999999998
 20
2165.0
 11
5304.499999999998
 21
2605.000000000001
  0
LINE
  5
345
100
AcDbEntity
  8
1
  6
CONTINUOUS
 62
           7
100
AcDbLine
 10
5339.999999999998
 20
2165.0
 11
5339.999999999998
 21
2604.999999999999
  0
LINE
  5
344
100
AcDbEntity
  8
1
  6
CONTINUOUS
 62
           7
100
AcDbLine
 10
5305.499999999996
 20
2165.0
 11
5339.999999999998
 21
2165.0
  0
LINE
  5
343
100
AcDbEntity
  8
1
  6
CONTINUOUS
 62
           7
100
AcDbLine
 10
5299.999999999998
 20
2125.0
 11
5299.999999999998
 21
2645.000000000002
  0
LINE
  5
342
100
AcDbEntity
  8
1
  6
CONTINUOUS
 62
           4
100
AcDbLine
 10
5259.999999999998
 20
2609.499999999999
 11
5294.499999999998
 21
2609.500000000002
  0
LINE
  5
341
100
AcDbEntity
  8
1
  6
CONTINUOUS
 62
           7
100
AcDbLine
 10
5259.999999999998
 20
2604.999999999999
 11
5259.999999999998
 21
2609.499999999999
  0
LINE
  5
340
100
AcDbEntity
  8
1
  6
CONTINUOUS
 62
           4
100
AcDbLine
 10
5339.999999999998
 20
2609.500000000004
 11
5305.499999999998
 21
2609.500000000002
  0
LINE
  5
33F
100
AcDbEntity
  8
1
  6
CONTINUOUS
 62
           7
100
AcDbLine
 10
5339.999999999998
 20
2604.999999999999
 11
5339.999999999998
 21
2609.500000000004
  0
LINE
  5
33E
100
AcDbEntity
  8
1
  6
CONTINUOUS
 62
           4
100
AcDbLine
 10
5295.499999999998
 20
2645.000000000002
 11
5304.499999999998
 21
2645.000000000002
  0
LINE
  5
33D
100
AcDbEntity
  8
1
  6
CONTINUOUS
 62
           7
100
AcDbLine
 10
5305.499999999998
 20
2605.000000000002
 11
5294.500000000016
 21
2605.000000000002
  0
LINE
  5
33C
100
AcDbEntity
  8
1
  6
CONTINUOUS
 62
           4
100
AcDbLine
 10
5295.499999999998
 20
2125.0
 11
5304.499999999998
 21
2125.0
  0
LINE
  5
33B
100
AcDbEntity
  8
1
  6
CONTINUOUS
 62
           7
100
AcDbLine
 10
5259.999999999996
 20
2160.5
 11
5259.999999999998
 21
2165.0
  0
LINE
  5
33A
100
AcDbEntity
  8
1
  6
CONTINUOUS
 62
           4
100
AcDbLine
 10
5339.999999999998
 20
2160.5
 11
5305.499999999998
 21
2160.5
  0
LINE
  5
339
100
AcDbEntity
  8
1
  6
CONTINUOUS
 62
           7
100
AcDbLine
 10
5339.999999999998
 20
2165.0
 11
5339.999999999998
 21
2160.5
  0
LINE
  5
338
100
AcDbEntity
  8
1
  6
CONTINUOUS
 62
           4
100
AcDbLine
 10
5294.499999999998
 20
2160.5
 11
5259.999999999996
 21
2160.5
  0
LINE
  5
337
100
AcDbEntity
  8
1
  6
CONTINUOUS
 62
           7
100
AcDbLine
 10
5305.499999999996
 20
2165.0
 11
5294.499999999996
 21
2165.0
  0
LINE
  5
336
100
AcDbEntity
  8
1
  6
CONTINUOUS
 62
           2
100
AcDbLine
 10
4942.5322627437
 20
2205.0
 11
4942.5322627437
 21
2565.000000000001
  0
LINE
  5
335
100
AcDbEntity
  8
1
  6
CONTINUOUS
 62
           2
100
AcDbLine
 10
4942.5322627437
 20
2565.000000000001
 11
4535.319562772414
 21
2565.000000000001
  0
LINE
  5
334
100
AcDbEntity
  8
1
  6
CONTINUOUS
 62
           2
100
AcDbLine
 10
4535.319562772414
 20
2565.000000000001
 11
4535.319562772414
 21
2205.0
  0
LINE
  5
333
100
AcDbEntity
  8
1
  6
CONTINUOUS
 62
           2
100
AcDbLine
 10
4535.319562772414
 20
2205.0
 11
4942.5322627437
 21
2205.0
  0
LINE
  5
332
100
AcDbEntity
  8
1
  6
CONTINUOUS
 62
           3
100
AcDbLine
 10
4670.163567691036
 20
1935.969655114603
 11
4664.489527668226
 21
1932.69374658004
  0
LINE
  5
331
100
AcDbEntity
  8
1
  6
CONTINUOUS
 62
           3
100
AcDbLine
 10
4679.663567691036
 20
1930.484827557302
 11
4670.163567691036
 21
1935.969655114603
  0
LINE
  5
330
100
AcDbEntity
  8
1
  6
CONTINUOUS
 62
           3
100
AcDbLine
 10
4679.663567691036
 20
1919.515172442699
 11
4679.663567691036
 21
1930.484827557302
  0
LINE
  5
32F
100
AcDbEntity
  8
1
  6
CONTINUOUS
 62
           3
100
AcDbLine
 10
4670.163567691036
 20
1914.030344885398
 11
4679.663567691036
 21
1919.515172442699
  0
LINE
  5
32E
100
AcDbEntity
  8
1
  6
CONTINUOUS
 62
           3
100
AcDbLine
 10
4664.489527668226
 20
1917.30625341996
 11
4670.163567691036
 21
1914.030344885398
  0
LINE
  5
32D
100
AcDbEntity
  8
1
  6
DOT_CENTER
 62
           3
100
AcDbLine
 10
4646.218519558617
 20
1925.0
 11
4687.667695262444
 21
1925.0
  0
LINE
  5
32C
100
AcDbEntity
  8
1
  6
CONTINUOUS
 62
           3
100
AcDbLine
 10
4659.389214871937
 20
1916.75
 11
4659.389214871937
 21
1917.30625341996
  0
LINE
  5
32B
100
AcDbEntity
  8
1
  6
CONTINUOUS
 62
           3
100
AcDbLine
 10
4659.389214871937
 20
1916.75
 11
4649.714603906639
 21
1916.75
  0
LINE
  5
32A
100
AcDbEntity
  8
1
  6
CONTINUOUS
 62
           3
100
AcDbLine
 10
4649.714603906639
 20
1916.75
 11
4649.714603906639
 21
1925.0
  0
LINE
  5
329
100
AcDbEntity
  8
1
  6
CONTINUOUS
 62
           3
100
AcDbLine
 10
4649.714603906639
 20
1919.0
 11
4648.868798384459
 21
1919.0
  0
LINE
  5
328
100
AcDbEntity
  8
1
  6
CONTINUOUS
 62
           3
100
AcDbLine
 10
4648.868798384459
 20
1917.30625341996
 11
4648.868798384459
 21
1925.0
  0
LINE
  5
327
100
AcDbEntity
  8
1
  6
CONTINUOUS
 62
           3
100
AcDbLine
 10
4648.868798384459
 20
1917.30625341996
 11
4648.163567691036
 21
1917.30625341996
  0
LINE
  5
326
100
AcDbEntity
  8
1
  6
CONTINUOUS
 62
           3
100
AcDbLine
 10
4647.663567691036
 20
1925.0
 11
4647.663567691036
 21
1917.80625341996
  0
LINE
  5
325
100
AcDbEntity
  8
1
  6
CONTINUOUS
 62
           3
100
AcDbLine
 10
4647.663567691036
 20
1932.19374658004
 11
4647.663567691036
 21
1925.0
  0
LINE
  5
324
100
AcDbEntity
  8
1
  6
CONTINUOUS
 62
           3
100
AcDbLine
 10
4648.163567691036
 20
1932.69374658004
 11
4648.868798384459
 21
1932.69374658004
  0
LINE
  5
323
100
AcDbEntity
  8
1
  6
CONTINUOUS
 62
           3
100
AcDbLine
 10
4648.868798384459
 20
1925.0
 11
4648.868798384459
 21
1932.69374658004
  0
LINE
  5
322
100
AcDbEntity
  8
1
  6
CONTINUOUS
 62
           3
100
AcDbLine
 10
4648.868798384459
 20
1931.0
 11
4649.714603906639
 21
1931.0
  0
LINE
  5
321
100
AcDbEntity
  8
1
  6
CONTINUOUS
 62
           3
100
AcDbLine
 10
4649.714603906639
 20
1933.25
 11
4659.389214871937
 21
1933.25
  0
LINE
  5
320
100
AcDbEntity
  8
1
  6
CONTINUOUS
 62
           3
100
AcDbLine
 10
4649.714603906639
 20
1925.0
 11
4649.714603906639
 21
1933.25
  0
LINE
  5
31F
100
AcDbEntity
  8
1
  6
CONTINUOUS
 62
           3
100
AcDbLine
 10
4659.389214871937
 20
1932.69374658004
 11
4659.389214871937
 21
1933.25
  0
LINE
  5
31E
100
AcDbEntity
  8
1
  6
CONTINUOUS
 62
           3
100
AcDbLine
 10
4659.389214871937
 20
1917.30625341996
 11
4659.389214871937
 21
1932.69374658004
  0
LINE
  5
31D
100
AcDbEntity
  8
1
  6
CONTINUOUS
 62
           3
100
AcDbLine
 10
4665.254330418626
 20
1917.30625341996
 11
4665.254330418626
 21
1932.69374658004
  0
LINE
  5
31C
100
AcDbEntity
  8
1
  6
CONTINUOUS
 62
           3
100
AcDbLine
 10
4665.254330418626
 20
1917.30625341996
 11
4659.389214871937
 21
1917.30625341996
  0
LINE
  5
31B
100
AcDbEntity
  8
1
  6
CONTINUOUS
 62
           3
100
AcDbLine
 10
4665.254330418626
 20
1932.69374658004
 11
4659.389214871937
 21
1932.69374658004
  0
LINE
  5
31A
100
AcDbEntity
  8
1
  6
CONTINUOUS
 62
           3
100
AcDbLine
 10
4665.254330418626
 20
1930.871834995069
 11
4670.163567691036
 21
1930.871834995069
  0
LINE
  5
319
100
AcDbEntity
  8
1
  6
DOT_CENTER
 62
           3
100
AcDbLine
 10
4670.163567691036
 20
1938.643555804874
 11
4670.163567691036
 21
1907.508008255125
  0
LINE
  5
318
100
AcDbEntity
  8
1
  6
CONTINUOUS
 62
           3
100
AcDbLine
 10
4670.163567691036
 20
1919.128165004934
 11
4665.254330418626
 21
1919.128165004934
  0
LINE
  5
317
100
AcDbEntity
  8
0
  6
CONTINUOUS
 62
           3
100
AcDbLine
 10
4164.844723494167
 20
1393.116392195192
 11
4165.899996721666
 21
1393.131740391393
  0
LINE
  5
316
100
AcDbEntity
  8
0
  6
CONTINUOUS
 62
           3
100
AcDbLine
 10
4163.903805503268
 20
1393.072016537193
 11
4164.844723494167
 21
1393.116392195192
  0
LINE
  5
315
100
AcDbEntity
  8
0
  6
CONTINUOUS
 62
           3
100
AcDbLine
 10
4163.17920557357
 20
1393.003411590991
 11
4163.903805503268
 21
1393.072016537193
  0
LINE
  5
314
100
AcDbEntity
  8
0
  6
CONTINUOUS
 62
           3
100
AcDbLine
 10
4162.749445840369
 20
1392.918020486792
 11
4163.17920557357
 21
1393.003411590991
  0
LINE
  5
313
100
AcDbEntity
  8
0
  6
CONTINUOUS
 62
           3
100
AcDbLine
 10
4162.661097088369
 20
1392.825089394992
 11
4162.749445840369
 21
1392.918020486792
  0
LINE
  5
312
100
AcDbEntity
  8
0
  6
CONTINUOUS
 62
           3
100
AcDbLine
 10
4162.899996695569
 20
1392.739541828793
 11
4162.661097088369
 21
1392.825089394992
  0
LINE
  5
311
100
AcDbEntity
  8
0
  6
CONTINUOUS
 62
           3
100
AcDbLine
 10
4169.138896354963
 20
1392.825089394992
 11
4168.899996747764
 21
1392.739541828793
  0
LINE
  5
310
100
AcDbEntity
  8
0
  6
CONTINUOUS
 62
           3
100
AcDbLine
 10
4169.050547602963
 20
1392.918020486792
 11
4169.138896354963
 21
1392.825089394992
  0
LINE
  5
30F
100
AcDbEntity
  8
0
  6
CONTINUOUS
 62
           3
100
AcDbLine
 10
4168.620787869765
 20
1393.003411590991
 11
4169.050547602963
 21
1392.918020486792
  0
LINE
  5
30E
100
AcDbEntity
  8
0
  6
CONTINUOUS
 62
           3
100
AcDbLine
 10
4167.896187940065
 20
1393.072016537193
 11
4168.620787869765
 21
1393.003411590991
  0
LINE
  5
30D
100
AcDbEntity
  8
0
  6
CONTINUOUS
 62
           3
100
AcDbLine
 10
4166.955269949166
 20
1393.116392195192
 11
4167.896187940065
 21
1393.072016537193
  0
LINE
  5
30C
100
AcDbEntity
  8
0
  6
CONTINUOUS
 62
           3
100
AcDbLine
 10
4165.899996721666
 20
1393.131740391393
 11
4166.955269949166
 21
1393.116392195192
  0
LINE
  5
30B
100
AcDbEntity
  8
FORMAT
  6
CONTINUOUS
 62
           3
100
AcDbLine
 10
4162.39999672157
 20
1392.596845102893
 11
4151.899996721577
 21
1392.596845102893
  0
LINE
  5
30A
100
AcDbEntity
  8
FORMAT
  6
DOT_CENTER
 62
           3
100
AcDbLine
 10
4165.899996721666
 20
1249.759397252256
 11
4165.899996721666
 21
1725.394390768569
  0
LINE
  5
309
100
AcDbEntity
  8
FORMAT
  6
CONTINUOUS
 62
           3
100
AcDbLine
 10
4169.399996721762
 20
1392.596845102893
 11
4162.39999672157
 21
1392.596845102893
  0
LINE
  5
308
100
AcDbEntity
  8
FORMAT
  6
CONTINUOUS
 62
           3
100
AcDbLine
 10
4179.899996721756
 20
1392.596845102893
 11
4169.399996721762
 21
1392.596845102893
  0
LINE
  5
307
100
AcDbEntity
  8
FORMAT
  6
DOT_CENTER
 62
           3
100
AcDbLine
 10
4090.999996721629
 20
1375.000000000007
 11
4077.399996721739
 21
1375.000000000007
  0
LINE
  5
306
100
AcDbEntity
  8
FORMAT
  6
DOT_CENTER
 62
           3
100
AcDbLine
 10
4090.999996721629
 20
1625.0
 11
4077.399996721739
 21
1625.0
  0
LINE
  5
305
100
AcDbEntity
  8
0
  6
CONTINUOUS
 62
           3
100
AcDbLine
 10
4100.89999910602
 20
1364.999994635815
 11
4085.499999189231
 21
1364.999994635815
  0
LINE
  5
304
100
AcDbEntity
  8
0
  6
CONTINUOUS
 62
           3
100
AcDbLine
 10
4104.399995023116
 20
1590.000003576231
 11
4104.399995023116
 21
1509.999999776395
  0
LINE
  5
303
100
AcDbEntity
  8
0
  6
CONTINUOUS
 62
           3
100
AcDbLine
 10
4107.399997377514
 20
1590.000003576231
 11
4104.399995023116
 21
1590.000003576231
  0
LINE
  5
302
100
AcDbEntity
  8
0
  6
CONTINUOUS
 62
           3
100
AcDbLine
 10
4107.399997377514
 20
1550.000000744964
 11
4107.399997377514
 21
1590.000003576231
  0
LINE
  5
301
100
AcDbEntity
  8
0
  6
CONTINUOUS
 62
           3
100
AcDbLine
 10
4107.399997377514
 20
1529.999999329481
 11
4107.399997377514
 21
1532.000001519879
  0
LINE
  5
300
100
AcDbEntity
  8
0
  6
CONTINUOUS
 62
           3
100
AcDbLine
 10
4104.399995023116
 20
1509.999999776395
 11
4105.975189322317
 21
1509.999999776395
  0
LINE
  5
2FF
100
AcDbEntity
  8
0
  6
CONTINUOUS
 62
           3
100
AcDbLine
 10
4225.899995380618
 20
1368.000000715314
 11
4225.899995380618
 21
1367.300003767014
  0
LINE
  5
2FE
100
AcDbEntity
  8
0
  6
CONTINUOUS
 62
           3
100
AcDbLine
 10
4230.899994337313
 20
1364.999994635815
 11
4230.899994337313
 21
1368.000000715314
  0
LINE
  5
2FD
100
AcDbEntity
  8
0
  6
CONTINUOUS
 62
           3
100
AcDbLine
 10
4230.899994337313
 20
1635.000005364196
 11
4230.899994337313
 21
1631.999999284697
  0
LINE
  5
2FC
100
AcDbEntity
  8
0
  6
CONTINUOUS
 62
           3
100
AcDbLine
 10
4225.899995380618
 20
1631.999999284697
 11
4225.899995380618
 21
1632.699996232994
  0
LINE
  5
2FB
100
AcDbEntity
  8
0
  6
CONTINUOUS
 62
           3
100
AcDbLine
 10
4105.899998062715
 20
1631.999999284697
 11
4105.899998062715
 21
1632.699996232994
  0
LINE
  5
2FA
100
AcDbEntity
  8
0
  6
CONTINUOUS
 62
           3
100
AcDbLine
 10
4100.89999910602
 20
1635.000005364196
 11
4100.89999910602
 21
1631.999999284697
  0
LINE
  5
2F9
100
AcDbEntity
  8
0
  6
CONTINUOUS
 62
           3
100
AcDbLine
 10
4100.89999910602
 20
1635.000005364196
 11
4085.499999189231
 21
1635.000005364196
  0
LINE
  5
2F8
100
AcDbEntity
  8
0
  6
CONTINUOUS
 62
           3
100
AcDbLine
 10
4100.89999910602
 20
1364.999994635815
 11
4100.89999910602
 21
1368.000000715314
  0
LINE
  5
2F7
100
AcDbEntity
  8
0
  6
CONTINUOUS
 62
           3
100
AcDbLine
 10
4105.899998062715
 20
1368.000000715314
 11
4105.899998062715
 21
1367.300003767014
  0
LINE
  5
2F6
100
AcDbEntity
  8
0
  6
CONTINUOUS
 62
           3
100
AcDbLine
 10
4104.399995023116
 20
1409.99999642378
 11
4104.399995023116
 21
1490.000000223612
  0
LINE
  5
2F5
100
AcDbEntity
  8
0
  6
CONTINUOUS
 62
           3
100
AcDbLine
 10
4104.399995023116
 20
1490.000000223612
 11
4105.899998062715
 21
1490.000000223612
  0
LINE
  5
2F4
100
AcDbEntity
  8
0
  6
CONTINUOUS
 62
           3
100
AcDbLine
 10
4107.399997377514
 20
1431.999996304559
 11
4107.399997377514
 21
1429.999999701962
  0
LINE
  5
2F3
100
AcDbEntity
  8
0
  6
CONTINUOUS
 62
           3
100
AcDbLine
 10
4105.975189322317
 20
1409.99999642378
 11
4104.399995023116
 21
1409.99999642378
  0
LINE
  5
2F2
100
AcDbEntity
  8
0
  6
CONTINUOUS
 62
           3
100
AcDbLine
 10
4227.399998420215
 20
1590.000003576231
 11
4227.399998420215
 21
1509.999999776395
  0
LINE
  5
2F1
100
AcDbEntity
  8
0
  6
CONTINUOUS
 62
           3
100
AcDbLine
 10
4227.399998420215
 20
1509.999999776395
 11
4225.824804121018
 21
1509.999999776395
  0
LINE
  5
2F0
100
AcDbEntity
  8
0
  6
CONTINUOUS
 62
           3
100
AcDbLine
 10
4224.399996066119
 20
1550.000000744964
 11
4224.399996066119
 21
1590.000003576231
  0
LINE
  5
2EF
100
AcDbEntity
  8
0
  6
CONTINUOUS
 62
           3
100
AcDbLine
 10
4224.399996066119
 20
1529.999999329481
 11
4224.399996066119
 21
1532.000001519879
  0
LINE
  5
2EE
100
AcDbEntity
  8
0
  6
CONTINUOUS
 62
           3
100
AcDbLine
 10
4224.399996066119
 20
1590.000003576231
 11
4227.399998420215
 21
1590.000003576231
  0
LINE
  5
2ED
100
AcDbEntity
  8
0
  6
CONTINUOUS
 62
           3
100
AcDbLine
 10
4227.399998420215
 20
1409.99999642378
 11
4227.399998420215
 21
1490.000000223612
  0
LINE
  5
2EC
100
AcDbEntity
  8
0
  6
CONTINUOUS
 62
           3
100
AcDbLine
 10
4225.824804121018
 20
1409.99999642378
 11
4227.399998420215
 21
1409.99999642378
  0
LINE
  5
2EB
100
AcDbEntity
  8
0
  6
CONTINUOUS
 62
           3
100
AcDbLine
 10
4224.399996066119
 20
1431.999996304559
 11
4224.399996066119
 21
1429.999999701962
  0
LINE
  5
2EA
100
AcDbEntity
  8
0
  6
CONTINUOUS
 62
           3
100
AcDbLine
 10
4227.399998420215
 20
1490.000000223612
 11
4225.899995380618
 21
1490.000000223612
  0
LINE
  5
2E9
100
AcDbEntity
  8
0
  6
CONTINUOUS
 62
           3
100
AcDbLine
 10
4085.499999189231
 20
1635.000005364196
 11
4083.399993443335
 21
1635.000005364196
  0
LINE
  5
2E8
100
AcDbEntity
  8
0
  6
CONTINUOUS
 62
           3
100
AcDbLine
 10
4083.399993443335
 20
1635.000005364196
 11
4083.399993443335
 21
1364.999994635815
  0
LINE
  5
2E7
100
AcDbEntity
  8
0
  6
CONTINUOUS
 62
           3
100
AcDbLine
 10
4085.499999189231
 20
1364.999994635815
 11
4083.399993443335
 21
1364.999994635815
  0
LINE
  5
2E6
100
AcDbEntity
  8
0
  6
CONTINUOUS
 62
           3
100
AcDbLine
 10
4105.899998062715
 20
1366.600006818713
 11
4105.899998062715
 21
1367.300003767014
  0
LINE
  5
2E5
100
AcDbEntity
  8
0
  6
CONTINUOUS
 62
           3
100
AcDbLine
 10
4225.899995380618
 20
1366.600006818713
 11
4225.899995380618
 21
1367.300003767014
  0
LINE
  5
2E4
100
AcDbEntity
  8
0
  6
CONTINUOUS
 62
           3
100
AcDbLine
 10
4105.899998062715
 20
1633.399993180996
 11
4105.899998062715
 21
1632.699996232994
  0
LINE
  5
2E3
100
AcDbEntity
  8
0
  6
CONTINUOUS
 62
           3
100
AcDbLine
 10
4225.899995380618
 20
1633.399993180996
 11
4225.899995380618
 21
1632.699996232994
  0
LINE
  5
2E2
100
AcDbEntity
  8
0
  6
CONTINUOUS
 62
           3
100
AcDbLine
 10
4220.899996423621
 20
1633.399993180996
 11
4225.899995380618
 21
1633.399993180996
  0
LINE
  5
2E1
100
AcDbEntity
  8
0
  6
CONTINUOUS
 62
           3
100
AcDbLine
 10
4225.899995380618
 20
1635.000005364196
 11
4220.899996423621
 21
1635.000005364196
  0
LINE
  5
2E0
100
AcDbEntity
  8
0
  6
CONTINUOUS
 62
           3
100
AcDbLine
 10
4225.899995380618
 20
1633.399993180996
 11
4225.899995380618
 21
1635.000005364196
  0
LINE
  5
2DF
100
AcDbEntity
  8
0
  6
CONTINUOUS
 62
           3
100
AcDbLine
 10
4220.899996423621
 20
1366.600006818713
 11
4225.899995380618
 21
1366.600006818713
  0
LINE
  5
2DE
100
AcDbEntity
  8
0
  6
CONTINUOUS
 62
           3
100
AcDbLine
 10
4225.899995380618
 20
1364.999994635815
 11
4220.899996423621
 21
1364.999994635815
  0
LINE
  5
2DD
100
AcDbEntity
  8
0
  6
CONTINUOUS
 62
           3
100
AcDbLine
 10
4225.899995380618
 20
1366.600006818713
 11
4225.899995380618
 21
1364.999994635815
  0
LINE
  5
2DC
100
AcDbEntity
  8
0
  6
CONTINUOUS
 62
           3
100
AcDbLine
 10
4210.899998509629
 20
1366.600006818713
 11
4212.899995112228
 21
1366.600006818713
  0
LINE
  5
2DB
100
AcDbEntity
  8
0
  6
CONTINUOUS
 62
           3
100
AcDbLine
 10
4212.899995112228
 20
1364.999994635815
 11
4210.899998509629
 21
1364.999994635815
  0
LINE
  5
2DA
100
AcDbEntity
  8
0
  6
CONTINUOUS
 62
           3
100
AcDbLine
 10
4212.899995112228
 20
1366.600006818713
 11
4212.899995112228
 21
1364.999994635815
  0
LINE
  5
2D9
100
AcDbEntity
  8
0
  6
CONTINUOUS
 62
           3
100
AcDbLine
 10
4210.899998509629
 20
1633.399993180996
 11
4212.899995112228
 21
1633.399993180996
  0
LINE
  5
2D8
100
AcDbEntity
  8
0
  6
CONTINUOUS
 62
           3
100
AcDbLine
 10
4212.899995112228
 20
1635.000005364196
 11
4210.899998509629
 21
1635.000005364196
  0
LINE
  5
2D7
100
AcDbEntity
  8
0
  6
CONTINUOUS
 62
           3
100
AcDbLine
 10
4212.899995112228
 20
1633.399993180996
 11
4212.899995112228
 21
1635.000005364196
  0
LINE
  5
2D6
100
AcDbEntity
  8
0
  6
CONTINUOUS
 62
           3
100
AcDbLine
 10
4218.899996095923
 20
1366.600006818713
 11
4220.899996423621
 21
1366.600006818713
  0
LINE
  5
2D5
100
AcDbEntity
  8
0
  6
CONTINUOUS
 62
           3
100
AcDbLine
 10
4220.899996423621
 20
1364.999994635815
 11
4218.899996095923
 21
1364.999994635815
  0
LINE
  5
2D4
100
AcDbEntity
  8
0
  6
CONTINUOUS
 62
           3
100
AcDbLine
 10
4218.899996095923
 20
1364.999994635815
 11
4218.899996095923
 21
1366.600006818713
  0
LINE
  5
2D3
100
AcDbEntity
  8
0
  6
CONTINUOUS
 62
           3
100
AcDbLine
 10
4218.899996095923
 20
1633.399993180996
 11
4220.899996423621
 21
1633.399993180996
  0
LINE
  5
2D2
100
AcDbEntity
  8
0
  6
CONTINUOUS
 62
           3
100
AcDbLine
 10
4220.899996423621
 20
1635.000005364196
 11
4218.899996095923
 21
1635.000005364196
  0
LINE
  5
2D1
100
AcDbEntity
  8
0
  6
CONTINUOUS
 62
           3
100
AcDbLine
 10
4218.899996095923
 20
1635.000005364196
 11
4218.899996095923
 21
1633.399993180996
  0
LINE
  5
2D0
100
AcDbEntity
  8
0
  6
CONTINUOUS
 62
           3
100
AcDbLine
 10
4110.899997019712
 20
1633.399993180996
 11
4105.899998062715
 21
1633.399993180996
  0
LINE
  5
2CF
100
AcDbEntity
  8
0
  6
CONTINUOUS
 62
           3
100
AcDbLine
 10
4105.899998062715
 20
1635.000005364196
 11
4110.899997019712
 21
1635.000005364196
  0
LINE
  5
2CE
100
AcDbEntity
  8
0
  6
CONTINUOUS
 62
           3
100
AcDbLine
 10
4105.899998062715
 20
1633.399993180996
 11
4105.899998062715
 21
1635.000005364196
  0
LINE
  5
2CD
100
AcDbEntity
  8
0
  6
CONTINUOUS
 62
           3
100
AcDbLine
 10
4110.899997019712
 20
1366.600006818713
 11
4105.899998062715
 21
1366.600006818713
  0
LINE
  5
2CC
100
AcDbEntity
  8
0
  6
CONTINUOUS
 62
           3
100
AcDbLine
 10
4105.899998062715
 20
1364.999994635815
 11
4110.899997019712
 21
1364.999994635815
  0
LINE
  5
2CB
100
AcDbEntity
  8
0
  6
CONTINUOUS
 62
           3
100
AcDbLine
 10
4105.899998062715
 20
1366.600006818713
 11
4105.899998062715
 21
1364.999994635815
  0
LINE
  5
2CA
100
AcDbEntity
  8
0
  6
CONTINUOUS
 62
           3
100
AcDbLine
 10
4120.899994933704
 20
1633.399993180996
 11
4210.899998509629
 21
1633.399993180996
  0
LINE
  5
2C9
100
AcDbEntity
  8
0
  6
CONTINUOUS
 62
           3
100
AcDbLine
 10
4120.899994933704
 20
1635.000005364196
 11
4210.899998509629
 21
1635.000005364196
  0
LINE
  5
2C8
100
AcDbEntity
  8
0
  6
CONTINUOUS
 62
           3
100
AcDbLine
 10
4120.899994933704
 20
1366.600006818713
 11
4210.899998509629
 21
1366.600006818713
  0
LINE
  5
2C7
100
AcDbEntity
  8
0
  6
CONTINUOUS
 62
           3
100
AcDbLine
 10
4120.899994933704
 20
1364.999994635815
 11
4210.899998509629
 21
1364.999994635815
  0
LINE
  5
2C6
100
AcDbEntity
  8
0
  6
CONTINUOUS
 62
           3
100
AcDbLine
 10
4120.899994933704
 20
1366.600006818713
 11
4118.899998331105
 21
1366.600006818713
  0
LINE
  5
2C5
100
AcDbEntity
  8
0
  6
CONTINUOUS
 62
           3
100
AcDbLine
 10
4118.899998331105
 20
1366.600006818713
 11
4118.899998331105
 21
1364.999994635815
  0
LINE
  5
2C4
100
AcDbEntity
  8
0
  6
CONTINUOUS
 62
           3
100
AcDbLine
 10
4118.899998331105
 20
1364.999994635815
 11
4120.899994933704
 21
1364.999994635815
  0
LINE
  5
2C3
100
AcDbEntity
  8
0
  6
CONTINUOUS
 62
           3
100
AcDbLine
 10
4120.899994933704
 20
1633.399993180996
 11
4118.899998331105
 21
1633.399993180996
  0
LINE
  5
2C2
100
AcDbEntity
  8
0
  6
CONTINUOUS
 62
           3
100
AcDbLine
 10
4118.899998331105
 20
1635.000005364196
 11
4120.899994933704
 21
1635.000005364196
  0
LINE
  5
2C1
100
AcDbEntity
  8
0
  6
CONTINUOUS
 62
           3
100
AcDbLine
 10
4118.899998331105
 20
1633.399993180996
 11
4118.899998331105
 21
1635.000005364196
  0
LINE
  5
2C0
100
AcDbEntity
  8
0
  6
CONTINUOUS
 62
           3
100
AcDbLine
 10
4112.899997347709
 20
1633.399993180996
 11
4110.899997019712
 21
1633.399993180996
  0
LINE
  5
2BF
100
AcDbEntity
  8
0
  6
CONTINUOUS
 62
           3
100
AcDbLine
 10
4112.899997347709
 20
1635.000005364196
 11
4112.899997347709
 21
1633.399993180996
  0
LINE
  5
2BE
100
AcDbEntity
  8
0
  6
CONTINUOUS
 62
           3
100
AcDbLine
 10
4110.899997019712
 20
1635.000005364196
 11
4112.899997347709
 21
1635.000005364196
  0
LINE
  5
2BD
100
AcDbEntity
  8
0
  6
CONTINUOUS
 62
           3
100
AcDbLine
 10
4112.899997347709
 20
1366.600006818713
 11
4110.899997019712
 21
1366.600006818713
  0
LINE
  5
2BC
100
AcDbEntity
  8
0
  6
CONTINUOUS
 62
           3
100
AcDbLine
 10
4110.899997019712
 20
1364.999994635815
 11
4112.899997347709
 21
1364.999994635815
  0
LINE
  5
2BB
100
AcDbEntity
  8
0
  6
CONTINUOUS
 62
           3
100
AcDbLine
 10
4112.899997347709
 20
1364.999994635815
 11
4112.899997347709
 21
1366.600006818713
  0
LINE
  5
2BA
100
AcDbEntity
  8
0
  6
CONTINUOUS
 62
           3
100
AcDbLine
 10
4225.824804121018
 20
1409.99999642378
 11
4224.199996405618
 21
1409.99999642378
  0
LINE
  5
2B9
100
AcDbEntity
  8
0
  6
CONTINUOUS
 62
           3
100
AcDbLine
 10
4224.199996405618
 20
1429.999999701962
 11
4225.899995380618
 21
1429.999999701962
  0
LINE
  5
2B8
100
AcDbEntity
  8
0
  6
CONTINUOUS
 62
           3
100
AcDbLine
 10
4225.899995380618
 20
1429.999999701962
 11
4225.899995380618
 21
1409.99999642378
  0
LINE
  5
2B7
100
AcDbEntity
  8
0
  6
CONTINUOUS
 62
           3
100
AcDbLine
 10
4105.899998062715
 20
1529.999999329481
 11
4107.599997037715
 21
1529.999999329481
  0
LINE
  5
2B6
100
AcDbEntity
  8
0
  6
CONTINUOUS
 62
           3
100
AcDbLine
 10
4105.899998062715
 20
1509.999999776395
 11
4105.899998062715
 21
1529.999999329481
  0
LINE
  5
2B5
100
AcDbEntity
  8
0
  6
CONTINUOUS
 62
           3
100
AcDbLine
 10
4107.599997037715
 20
1509.999999776395
 11
4105.975189322317
 21
1509.999999776395
  0
LINE
  5
2B4
100
AcDbEntity
  8
0
  6
CONTINUOUS
 62
           3
100
AcDbLine
 10
4105.975189322317
 20
1409.99999642378
 11
4107.599997037715
 21
1409.99999642378
  0
LINE
  5
2B3
100
AcDbEntity
  8
0
  6
CONTINUOUS
 62
           3
100
AcDbLine
 10
4107.599997037715
 20
1429.999999701962
 11
4105.899998062715
 21
1429.999999701962
  0
LINE
  5
2B2
100
AcDbEntity
  8
0
  6
CONTINUOUS
 62
           3
100
AcDbLine
 10
4105.899998062715
 20
1429.999999701962
 11
4105.899998062715
 21
1409.99999642378
  0
LINE
  5
2B1
100
AcDbEntity
  8
0
  6
CONTINUOUS
 62
           3
100
AcDbLine
 10
4107.599997037715
 20
1529.999999329481
 11
4107.899998390715
 21
1529.999999329481
  0
LINE
  5
2B0
100
AcDbEntity
  8
0
  6
CONTINUOUS
 62
           3
100
AcDbLine
 10
4107.899998390715
 20
1509.999999776395
 11
4107.599997037715
 21
1509.999999776395
  0
LINE
  5
2AF
100
AcDbEntity
  8
0
  6
CONTINUOUS
 62
           3
100
AcDbLine
 10
4105.899998062715
 20
1508.0000003799
 11
4107.899998390715
 21
1508.0000003799
  0
LINE
  5
2AE
100
AcDbEntity
  8
0
  6
CONTINUOUS
 62
           3
100
AcDbLine
 10
4105.899998062715
 20
1508.0000003799
 11
4105.899998062715
 21
1431.999996304559
  0
LINE
  5
2AD
100
AcDbEntity
  8
0
  6
CONTINUOUS
 62
           3
100
AcDbLine
 10
4105.899998062715
 20
1431.999996304559
 11
4107.899998390715
 21
1431.999996304559
  0
LINE
  5
2AC
100
AcDbEntity
  8
0
  6
CONTINUOUS
 62
           3
100
AcDbLine
 10
4107.899998390715
 20
1429.999999701962
 11
4107.599997037715
 21
1429.999999701962
  0
LINE
  5
2AB
100
AcDbEntity
  8
0
  6
CONTINUOUS
 62
           3
100
AcDbLine
 10
4107.599997037715
 20
1409.99999642378
 11
4107.899998390715
 21
1409.99999642378
  0
LINE
  5
2AA
100
AcDbEntity
  8
0
  6
CONTINUOUS
 62
           3
100
AcDbLine
 10
4107.899998390715
 20
1407.999999821183
 11
4105.899998062715
 21
1407.999999821183
  0
LINE
  5
2A9
100
AcDbEntity
  8
0
  6
CONTINUOUS
 62
           3
100
AcDbLine
 10
4105.899998062715
 20
1391.699999570792
 11
4105.899998062715
 21
1407.999999821183
  0
LINE
  5
2A8
100
AcDbEntity
  8
0
  6
CONTINUOUS
 62
           3
100
AcDbLine
 10
4225.899995380618
 20
1391.699999570792
 11
4225.899995380618
 21
1407.999999821183
  0
LINE
  5
2A7
100
AcDbEntity
  8
0
  6
CONTINUOUS
 62
           3
100
AcDbLine
 10
4223.89999505262
 20
1407.999999821183
 11
4225.899995380618
 21
1407.999999821183
  0
LINE
  5
2A6
100
AcDbEntity
  8
0
  6
CONTINUOUS
 62
           3
100
AcDbLine
 10
4224.199996405618
 20
1409.99999642378
 11
4223.89999505262
 21
1409.99999642378
  0
LINE
  5
2A5
100
AcDbEntity
  8
0
  6
CONTINUOUS
 62
           3
100
AcDbLine
 10
4223.89999505262
 20
1429.999999701962
 11
4224.199996405618
 21
1429.999999701962
  0
LINE
  5
2A4
100
AcDbEntity
  8
0
  6
CONTINUOUS
 62
           3
100
AcDbLine
 10
4225.899995380618
 20
1431.999996304559
 11
4223.89999505262
 21
1431.999996304559
  0
LINE
  5
2A3
100
AcDbEntity
  8
0
  6
CONTINUOUS
 62
           3
100
AcDbLine
 10
4225.899995380618
 20
1508.0000003799
 11
4225.899995380618
 21
1431.999996304559
  0
LINE
  5
2A2
100
AcDbEntity
  8
0
  6
CONTINUOUS
 62
           3
100
AcDbLine
 10
4225.899995380618
 20
1508.0000003799
 11
4223.89999505262
 21
1508.0000003799
  0
LINE
  5
2A1
100
AcDbEntity
  8
0
  6
CONTINUOUS
 62
           3
100
AcDbLine
 10
4223.89999505262
 20
1509.999999776395
 11
4224.199996405618
 21
1509.999999776395
  0
LINE
  5
2A0
100
AcDbEntity
  8
0
  6
CONTINUOUS
 62
           3
100
AcDbLine
 10
4224.199996405618
 20
1529.999999329481
 11
4223.89999505262
 21
1529.999999329481
  0
LINE
  5
29F
100
AcDbEntity
  8
0
  6
CONTINUOUS
 62
           3
100
AcDbLine
 10
4223.89999505262
 20
1532.000001519879
 11
4225.899995380618
 21
1532.000001519879
  0
LINE
  5
29E
100
AcDbEntity
  8
0
  6
CONTINUOUS
 62
           3
100
AcDbLine
 10
4225.899995380618
 20
1548.300001770265
 11
4225.899995380618
 21
1532.000001519879
  0
LINE
  5
29D
100
AcDbEntity
  8
0
  6
CONTINUOUS
 62
           3
100
AcDbLine
 10
4105.899998062715
 20
1548.300001770265
 11
4105.899998062715
 21
1532.000001519879
  0
LINE
  5
29C
100
AcDbEntity
  8
0
  6
CONTINUOUS
 62
           3
100
AcDbLine
 10
4107.899998390715
 20
1532.000001519879
 11
4105.899998062715
 21
1532.000001519879
  0
LINE
  5
29B
100
AcDbEntity
  8
0
  6
CONTINUOUS
 62
           3
100
AcDbLine
 10
4224.199996405618
 20
1509.999999776395
 11
4225.824804121018
 21
1509.999999776395
  0
LINE
  5
29A
100
AcDbEntity
  8
0
  6
CONTINUOUS
 62
           3
100
AcDbLine
 10
4225.899995380618
 20
1509.999999776395
 11
4225.899995380618
 21
1529.999999329481
  0
LINE
  5
299
100
AcDbEntity
  8
0
  6
CONTINUOUS
 62
           3
100
AcDbLine
 10
4225.899995380618
 20
1529.999999329481
 11
4224.199996405618
 21
1529.999999329481
  0
LINE
  5
298
100
AcDbEntity
  8
0
  6
CONTINUOUS
 62
           3
100
AcDbLine
 10
4225.899995380618
 20
1548.799999058065
 11
4225.899995380618
 21
1548.300001770265
  0
LINE
  5
297
100
AcDbEntity
  8
0
  6
CONTINUOUS
 62
           3
100
AcDbLine
 10
4105.899998062715
 20
1548.799999058065
 11
4105.899998062715
 21
1548.300001770265
  0
LINE
  5
296
100
AcDbEntity
  8
0
  6
CONTINUOUS
 62
           3
100
AcDbLine
 10
4105.899998062715
 20
1391.199998557593
 11
4105.899998062715
 21
1391.699999570792
  0
LINE
  5
295
100
AcDbEntity
  8
0
  6
CONTINUOUS
 62
           3
100
AcDbLine
 10
4225.899995380618
 20
1391.199998557593
 11
4225.899995380618
 21
1391.699999570792
  0
LINE
  5
294
100
AcDbEntity
  8
0
  6
CONTINUOUS
 62
           3
100
AcDbLine
 10
4168.899996747764
 20
1550.000000744964
 11
4169.149996788764
 21
1550.000000744964
  0
LINE
  5
293
100
AcDbEntity
  8
0
  6
CONTINUOUS
 62
           3
100
AcDbLine
 10
4162.649996654569
 20
1550.000000744964
 11
4162.899996695569
 21
1550.000000744964
  0
LINE
  5
292
100
AcDbEntity
  8
0
  6
CONTINUOUS
 62
           3
100
AcDbLine
 10
4168.899996747764
 20
1548.799999058065
 11
4169.149996788764
 21
1548.799999058065
  0
LINE
  5
291
100
AcDbEntity
  8
0
  6
CONTINUOUS
 62
           3
100
AcDbLine
 10
4162.649996654569
 20
1548.799999058065
 11
4162.899996695569
 21
1548.799999058065
  0
LINE
  5
290
100
AcDbEntity
  8
0
  6
CONTINUOUS
 62
           3
100
AcDbLine
 10
4162.899996695569
 20
1391.199998557593
 11
4162.649996654569
 21
1391.199998557593
  0
LINE
  5
28F
100
AcDbEntity
  8
0
  6
CONTINUOUS
 62
           3
100
AcDbLine
 10
4169.149996788764
 20
1391.199998557593
 11
4168.899996747764
 21
1391.199998557593
  0
LINE
  5
28E
100
AcDbEntity
  8
0
  6
CONTINUOUS
 62
           3
100
AcDbLine
 10
4110.899997019712
 20
1391.199998557593
 11
4105.899998062715
 21
1391.199998557593
  0
LINE
  5
28D
100
AcDbEntity
  8
0
  6
CONTINUOUS
 62
           3
100
AcDbLine
 10
4105.899998062715
 20
1390.000000596097
 11
4110.899997019712
 21
1390.000000596097
  0
LINE
  5
28C
100
AcDbEntity
  8
0
  6
CONTINUOUS
 62
           3
100
AcDbLine
 10
4105.899998062715
 20
1391.199998557593
 11
4105.899998062715
 21
1390.000000596097
  0
LINE
  5
28B
100
AcDbEntity
  8
0
  6
CONTINUOUS
 62
           3
100
AcDbLine
 10
4105.899998062715
 20
1550.000000744964
 11
4110.899997019712
 21
1550.000000744964
  0
LINE
  5
28A
100
AcDbEntity
  8
0
  6
CONTINUOUS
 62
           3
100
AcDbLine
 10
4110.899997019712
 20
1548.799999058065
 11
4105.899998062715
 21
1548.799999058065
  0
LINE
  5
289
100
AcDbEntity
  8
0
  6
CONTINUOUS
 62
           3
100
AcDbLine
 10
4105.899998062715
 20
1548.799999058065
 11
4105.899998062715
 21
1550.000000744964
  0
LINE
  5
288
100
AcDbEntity
  8
0
  6
CONTINUOUS
 62
           3
100
AcDbLine
 10
4210.899998509629
 20
1550.000000744964
 11
4195.899996051141
 21
1550.000000744964
  0
LINE
  5
287
100
AcDbEntity
  8
0
  6
CONTINUOUS
 62
           3
100
AcDbLine
 10
4210.899998509629
 20
1548.799999058065
 11
4195.899996051141
 21
1548.799999058065
  0
LINE
  5
286
100
AcDbEntity
  8
0
  6
CONTINUOUS
 62
           3
100
AcDbLine
 10
4225.899995380618
 20
1550.000000744964
 11
4220.899996423621
 21
1550.000000744964
  0
LINE
  5
285
100
AcDbEntity
  8
0
  6
CONTINUOUS
 62
           3
100
AcDbLine
 10
4220.899996423621
 20
1548.799999058065
 11
4225.899995380618
 21
1548.799999058065
  0
LINE
  5
284
100
AcDbEntity
  8
0
  6
CONTINUOUS
 62
           3
100
AcDbLine
 10
4225.899995380618
 20
1548.799999058065
 11
4225.899995380618
 21
1550.000000744964
  0
LINE
  5
283
100
AcDbEntity
  8
0
  6
CONTINUOUS
 62
           3
100
AcDbLine
 10
4210.899998509629
 20
1391.199998557593
 11
4195.899996051141
 21
1391.199998557593
  0
LINE
  5
282
100
AcDbEntity
  8
0
  6
CONTINUOUS
 62
           3
100
AcDbLine
 10
4210.899998509629
 20
1390.000000596097
 11
4195.899996051141
 21
1390.000000596097
  0
LINE
  5
281
100
AcDbEntity
  8
0
  6
CONTINUOUS
 62
           3
100
AcDbLine
 10
4120.899994933704
 20
1550.000000744964
 11
4135.899997392191
 21
1550.000000744964
  0
LINE
  5
280
100
AcDbEntity
  8
0
  6
CONTINUOUS
 62
           3
100
AcDbLine
 10
4120.899994933704
 20
1548.799999058065
 11
4135.899997392191
 21
1548.799999058065
  0
LINE
  5
27F
100
AcDbEntity
  8
0
  6
CONTINUOUS
 62
           3
100
AcDbLine
 10
4220.899996423621
 20
1391.199998557593
 11
4225.899995380618
 21
1391.199998557593
  0
LINE
  5
27E
100
AcDbEntity
  8
0
  6
CONTINUOUS
 62
           3
100
AcDbLine
 10
4225.899995380618
 20
1390.000000596097
 11
4220.899996423621
 21
1390.000000596097
  0
LINE
  5
27D
100
AcDbEntity
  8
0
  6
CONTINUOUS
 62
           3
100
AcDbLine
 10
4225.899995380618
 20
1391.199998557593
 11
4225.899995380618
 21
1390.000000596097
  0
LINE
  5
27C
100
AcDbEntity
  8
0
  6
CONTINUOUS
 62
           3
100
AcDbLine
 10
4120.899994933704
 20
1391.199998557593
 11
4135.899997392191
 21
1391.199998557593
  0
LINE
  5
27B
100
AcDbEntity
  8
0
  6
CONTINUOUS
 62
           3
100
AcDbLine
 10
4120.899994933704
 20
1390.000000596097
 11
4135.899997392191
 21
1390.000000596097
  0
LINE
  5
27A
100
AcDbEntity
  8
0
  6
CONTINUOUS
 62
           3
100
AcDbLine
 10
4118.899998331105
 20
1550.000000744964
 11
4120.899994933704
 21
1550.000000744964
  0
LINE
  5
279
100
AcDbEntity
  8
0
  6
CONTINUOUS
 62
           3
100
AcDbLine
 10
4120.899994933704
 20
1548.799999058065
 11
4118.899998331105
 21
1548.799999058065
  0
LINE
  5
278
100
AcDbEntity
  8
0
  6
CONTINUOUS
 62
           3
100
AcDbLine
 10
4118.899998331105
 20
1548.799999058065
 11
4118.899998331105
 21
1550.000000744964
  0
LINE
  5
277
100
AcDbEntity
  8
0
  6
CONTINUOUS
 62
           3
100
AcDbLine
 10
4110.899997019712
 20
1550.000000744964
 11
4112.899997347709
 21
1550.000000744964
  0
LINE
  5
276
100
AcDbEntity
  8
0
  6
CONTINUOUS
 62
           3
100
AcDbLine
 10
4112.899997347709
 20
1548.799999058065
 11
4110.899997019712
 21
1548.799999058065
  0
LINE
  5
275
100
AcDbEntity
  8
0
  6
CONTINUOUS
 62
           3
100
AcDbLine
 10
4112.899997347709
 20
1550.000000744964
 11
4112.899997347709
 21
1548.799999058065
  0
LINE
  5
274
100
AcDbEntity
  8
0
  6
CONTINUOUS
 62
           3
100
AcDbLine
 10
4210.899998509629
 20
1391.199998557593
 11
4212.899995112228
 21
1391.199998557593
  0
LINE
  5
273
100
AcDbEntity
  8
0
  6
CONTINUOUS
 62
           3
100
AcDbLine
 10
4212.899995112228
 20
1390.000000596097
 11
4210.899998509629
 21
1390.000000596097
  0
LINE
  5
272
100
AcDbEntity
  8
0
  6
CONTINUOUS
 62
           3
100
AcDbLine
 10
4212.899995112228
 20
1391.199998557593
 11
4212.899995112228
 21
1390.000000596097
  0
LINE
  5
271
100
AcDbEntity
  8
0
  6
CONTINUOUS
 62
           3
100
AcDbLine
 10
4218.899996095923
 20
1391.199998557593
 11
4220.899996423621
 21
1391.199998557593
  0
LINE
  5
270
100
AcDbEntity
  8
0
  6
CONTINUOUS
 62
           3
100
AcDbLine
 10
4220.899996423621
 20
1390.000000596097
 11
4218.899996095923
 21
1390.000000596097
  0
LINE
  5
26F
100
AcDbEntity
  8
0
  6
CONTINUOUS
 62
           3
100
AcDbLine
 10
4218.899996095923
 20
1390.000000596097
 11
4218.899996095923
 21
1391.199998557593
  0
LINE
  5
26E
100
AcDbEntity
  8
0
  6
CONTINUOUS
 62
           3
100
AcDbLine
 10
4212.899995112228
 20
1550.000000744964
 11
4210.899998509629
 21
1550.000000744964
  0
LINE
  5
26D
100
AcDbEntity
  8
0
  6
CONTINUOUS
 62
           3
100
AcDbLine
 10
4210.899998509629
 20
1548.799999058065
 11
4212.899995112228
 21
1548.799999058065
  0
LINE
  5
26C
100
AcDbEntity
  8
0
  6
CONTINUOUS
 62
           3
100
AcDbLine
 10
4212.899995112228
 20
1548.799999058065
 11
4212.899995112228
 21
1550.000000744964
  0
LINE
  5
26B
100
AcDbEntity
  8
0
  6
CONTINUOUS
 62
           3
100
AcDbLine
 10
4220.899996423621
 20
1550.000000744964
 11
4218.899996095923
 21
1550.000000744964
  0
LINE
  5
26A
100
AcDbEntity
  8
0
  6
CONTINUOUS
 62
           3
100
AcDbLine
 10
4218.899996095923
 20
1548.799999058065
 11
4220.899996423621
 21
1548.799999058065
  0
LINE
  5
269
100
AcDbEntity
  8
0
  6
CONTINUOUS
 62
           3
100
AcDbLine
 10
4218.899996095923
 20
1550.000000744964
 11
4218.899996095923
 21
1548.799999058065
  0
LINE
  5
268
100
AcDbEntity
  8
0
  6
CONTINUOUS
 62
           3
100
AcDbLine
 10
4120.899994933704
 20
1391.199998557593
 11
4118.899998331105
 21
1391.199998557593
  0
LINE
  5
267
100
AcDbEntity
  8
0
  6
CONTINUOUS
 62
           3
100
AcDbLine
 10
4118.899998331105
 20
1390.000000596097
 11
4120.899994933704
 21
1390.000000596097
  0
LINE
  5
266
100
AcDbEntity
  8
0
  6
CONTINUOUS
 62
           3
100
AcDbLine
 10
4118.899998331105
 20
1391.199998557593
 11
4118.899998331105
 21
1390.000000596097
  0
LINE
  5
265
100
AcDbEntity
  8
0
  6
CONTINUOUS
 62
           3
100
AcDbLine
 10
4112.899997347709
 20
1391.199998557593
 11
4110.899997019712
 21
1391.199998557593
  0
LINE
  5
264
100
AcDbEntity
  8
0
  6
CONTINUOUS
 62
           3
100
AcDbLine
 10
4110.899997019712
 20
1390.000000596097
 11
4112.899997347709
 21
1390.000000596097
  0
LINE
  5
263
100
AcDbEntity
  8
0
  6
CONTINUOUS
 62
           3
100
AcDbLine
 10
4112.899997347709
 20
1390.000000596097
 11
4112.899997347709
 21
1391.199998557593
  0
LINE
  5
262
100
AcDbEntity
  8
0
  6
CONTINUOUS
 62
           3
100
AcDbLine
 10
4162.399996613569
 20
1391.199998557593
 11
4162.649996654569
 21
1391.199998557593
  0
LINE
  5
261
100
AcDbEntity
  8
0
  6
CONTINUOUS
 62
           3
100
AcDbLine
 10
4162.649996654569
 20
1391.199998557593
 11
4162.649996654569
 21
1390.000000596097
  0
LINE
  5
260
100
AcDbEntity
  8
0
  6
CONTINUOUS
 62
           3
100
AcDbLine
 10
4195.899996051141
 20
1391.199998557593
 11
4185.899996274749
 21
1391.199998557593
  0
LINE
  5
25F
100
AcDbEntity
  8
0
  6
CONTINUOUS
 62
           3
100
AcDbLine
 10
4195.899996051141
 20
1390.000000596097
 11
4185.899996274749
 21
1390.000000596097
  0
LINE
  5
25E
100
AcDbEntity
  8
0
  6
CONTINUOUS
 62
           3
100
AcDbLine
 10
4195.899996051141
 20
1391.199998557593
 11
4195.899996051141
 21
1390.000000596097
  0
LINE
  5
25D
100
AcDbEntity
  8
0
  6
CONTINUOUS
 62
           3
100
AcDbLine
 10
4160.649996792471
 20
1550.000000744964
 11
4162.649996654569
 21
1550.000000744964
  0
LINE
  5
25C
100
AcDbEntity
  8
0
  6
CONTINUOUS
 62
           3
100
AcDbLine
 10
4162.649996654569
 20
1548.799999058065
 11
4160.649996792471
 21
1548.799999058065
  0
LINE
  5
25B
100
AcDbEntity
  8
0
  6
CONTINUOUS
 62
           3
100
AcDbLine
 10
4162.649996654569
 20
1550.000000744964
 11
4162.649996654569
 21
1548.799999058065
  0
LINE
  5
25A
100
AcDbEntity
  8
0
  6
CONTINUOUS
 62
           3
100
AcDbLine
 10
4173.899997101559
 20
1391.199998557593
 11
4185.899996274749
 21
1391.199998557593
  0
LINE
  5
259
100
AcDbEntity
  8
0
  6
CONTINUOUS
 62
           3
100
AcDbLine
 10
4173.899997101559
 20
1390.000000596097
 11
4185.899996274749
 21
1390.000000596097
  0
LINE
  5
258
100
AcDbEntity
  8
0
  6
CONTINUOUS
 62
           3
100
AcDbLine
 10
4185.899996274749
 20
1391.199998557593
 11
4185.899996274749
 21
1390.000000596097
  0
LINE
  5
257
100
AcDbEntity
  8
0
  6
CONTINUOUS
 62
           3
100
AcDbLine
 10
4135.899997392191
 20
1391.199998557593
 11
4145.899997168583
 21
1391.199998557593
  0
LINE
  5
256
100
AcDbEntity
  8
0
  6
CONTINUOUS
 62
           3
100
AcDbLine
 10
4135.899997392191
 20
1390.000000596097
 11
4145.899997168583
 21
1390.000000596097
  0
LINE
  5
255
100
AcDbEntity
  8
0
  6
CONTINUOUS
 62
           3
100
AcDbLine
 10
4135.899997392191
 20
1391.199998557593
 11
4135.899997392191
 21
1390.000000596097
  0
LINE
  5
254
100
AcDbEntity
  8
0
  6
CONTINUOUS
 62
           3
100
AcDbLine
 10
4169.149996788764
 20
1550.000000744964
 11
4171.149996650862
 21
1550.000000744964
  0
LINE
  5
253
100
AcDbEntity
  8
0
  6
CONTINUOUS
 62
           3
100
AcDbLine
 10
4171.149996650862
 20
1548.799999058065
 11
4169.149996788764
 21
1548.799999058065
  0
LINE
  5
252
100
AcDbEntity
  8
0
  6
CONTINUOUS
 62
           3
100
AcDbLine
 10
4169.149996788764
 20
1548.799999058065
 11
4169.149996788764
 21
1550.000000744964
  0
LINE
  5
251
100
AcDbEntity
  8
0
  6
CONTINUOUS
 62
           3
100
AcDbLine
 10
4195.899996051141
 20
1550.000000744964
 11
4185.899996274749
 21
1550.000000744964
  0
LINE
  5
250
100
AcDbEntity
  8
0
  6
CONTINUOUS
 62
           3
100
AcDbLine
 10
4195.899996051141
 20
1548.799999058065
 11
4185.899996274749
 21
1548.799999058065
  0
LINE
  5
24F
100
AcDbEntity
  8
0
  6
CONTINUOUS
 62
           3
100
AcDbLine
 10
4195.899996051141
 20
1548.799999058065
 11
4195.899996051141
 21
1550.000000744964
  0
LINE
  5
24E
100
AcDbEntity
  8
0
  6
CONTINUOUS
 62
           3
100
AcDbLine
 10
4169.149996788764
 20
1391.199998557593
 11
4169.399996829764
 21
1391.199998557593
  0
LINE
  5
24D
100
AcDbEntity
  8
0
  6
CONTINUOUS
 62
           3
100
AcDbLine
 10
4169.149996788764
 20
1390.000000596097
 11
4169.149996788764
 21
1391.199998557593
  0
LINE
  5
24C
100
AcDbEntity
  8
0
  6
CONTINUOUS
 62
           3
100
AcDbLine
 10
4145.899997168583
 20
1391.199998557593
 11
4157.899996341772
 21
1391.199998557593
  0
LINE
  5
24B
100
AcDbEntity
  8
0
  6
CONTINUOUS
 62
           3
100
AcDbLine
 10
4145.899997168583
 20
1390.000000596097
 11
4157.899996341772
 21
1390.000000596097
  0
LINE
  5
24A
100
AcDbEntity
  8
0
  6
CONTINUOUS
 62
           3
100
AcDbLine
 10
4145.899997168583
 20
1391.199998557593
 11
4145.899997168583
 21
1390.000000596097
  0
LINE
  5
249
100
AcDbEntity
  8
0
  6
CONTINUOUS
 62
           3
100
AcDbLine
 10
4145.899997168583
 20
1550.000000744964
 11
4160.649996792471
 21
1550.000000744964
  0
LINE
  5
248
100
AcDbEntity
  8
0
  6
CONTINUOUS
 62
           3
100
AcDbLine
 10
4145.899997168583
 20
1548.799999058065
 11
4160.649996792471
 21
1548.799999058065
  0
LINE
  5
247
100
AcDbEntity
  8
0
  6
CONTINUOUS
 62
           3
100
AcDbLine
 10
4171.149996650862
 20
1550.000000744964
 11
4185.899996274749
 21
1550.000000744964
  0
LINE
  5
246
100
AcDbEntity
  8
0
  6
CONTINUOUS
 62
           3
100
AcDbLine
 10
4171.149996650862
 20
1548.799999058065
 11
4185.899996274749
 21
1548.799999058065
  0
LINE
  5
245
100
AcDbEntity
  8
0
  6
CONTINUOUS
 62
           3
100
AcDbLine
 10
4185.899996274749
 20
1548.799999058065
 11
4185.899996274749
 21
1550.000000744964
  0
LINE
  5
244
100
AcDbEntity
  8
0
  6
CONTINUOUS
 62
           3
100
AcDbLine
 10
4135.899997392191
 20
1548.799999058065
 11
4135.899997392191
 21
1550.000000744964
  0
LINE
  5
243
100
AcDbEntity
  8
0
  6
CONTINUOUS
 62
           3
100
AcDbLine
 10
4135.899997392191
 20
1548.799999058065
 11
4145.899997168583
 21
1548.799999058065
  0
LINE
  5
242
100
AcDbEntity
  8
0
  6
CONTINUOUS
 62
           3
100
AcDbLine
 10
4145.899997168583
 20
1548.799999058065
 11
4145.899997168583
 21
1550.000000744964
  0
LINE
  5
241
100
AcDbEntity
  8
0
  6
CONTINUOUS
 62
           3
100
AcDbLine
 10
4135.899997392191
 20
1550.000000744964
 11
4145.899997168583
 21
1550.000000744964
  0
LINE
  5
240
100
AcDbEntity
  8
0
  6
CONTINUOUS
 62
           3
100
AcDbLine
 10
4173.899997101559
 20
1389.200001954996
 11
4173.899997101559
 21
1388.276241719796
  0
LINE
  5
23F
100
AcDbEntity
  8
0
  6
CONTINUOUS
 62
           3
100
AcDbLine
 10
4157.899996341772
 20
1389.200001954996
 11
4157.899996341772
 21
1388.276241719796
  0
LINE
  5
23E
100
AcDbEntity
  8
0
  6
CONTINUOUS
 62
           3
100
AcDbLine
 10
4160.899996833471
 20
1388.276241719796
 11
4157.899996341772
 21
1388.276241719796
  0
LINE
  5
23D
100
AcDbEntity
  8
0
  6
CONTINUOUS
 62
           3
100
AcDbLine
 10
4173.899997101559
 20
1388.276241719796
 11
4170.899996609862
 21
1388.276241719796
  0
LINE
  5
23C
100
AcDbEntity
  8
0
  6
CONTINUOUS
 62
           3
100
AcDbLine
 10
4168.399996665763
 20
1384.1999992729
 11
4170.899996609908
 21
1384.1999992729
  0
LINE
  5
23B
100
AcDbEntity
  8
0
  6
CONTINUOUS
 62
           3
100
AcDbLine
 10
4160.899996833434
 20
1384.1999992729
 11
4163.399996777553
 21
1384.1999992729
  0
LINE
  5
23A
100
AcDbEntity
  8
0
  6
CONTINUOUS
 62
           3
100
AcDbLine
 10
4170.899996609862
 20
1384.646579623302
 11
4170.899996609862
 21
1389.100000262195
  0
LINE
  5
239
100
AcDbEntity
  8
0
  6
CONTINUOUS
 62
           3
100
AcDbLine
 10
4160.899996833471
 20
1384.646579623302
 11
4160.899996833471
 21
1389.100000262195
  0
LINE
  5
238
100
AcDbEntity
  8
0
  6
CONTINUOUS
 62
           3
100
AcDbLine
 10
4160.899996833471
 20
1384.646579623302
 11
4163.399996777553
 21
1384.1999992729
  0
LINE
  5
237
100
AcDbEntity
  8
0
  6
CONTINUOUS
 62
           3
100
AcDbLine
 10
4165.89999672167
 20
1384.646579623295
 11
4165.899996721666
 21
1389.100000262195
  0
LINE
  5
236
100
AcDbEntity
  8
0
  6
CONTINUOUS
 62
           3
100
AcDbLine
 10
4163.399996777553
 20
1384.1999992729
 11
4168.399996665763
 21
1384.1999992729
  0
LINE
  5
235
100
AcDbEntity
  8
0
  6
CONTINUOUS
 62
           3
100
AcDbLine
 10
4165.89999672167
 20
1384.646579623295
 11
4168.399996665763
 21
1384.1999992729
  0
LINE
  5
234
100
AcDbEntity
  8
0
  6
CONTINUOUS
 62
           3
100
AcDbLine
 10
4162.399996613569
 20
1389.200001954996
 11
4169.399996829764
 21
1389.200001954996
  0
LINE
  5
233
100
AcDbEntity
  8
0
  6
CONTINUOUS
 62
           3
100
AcDbLine
 10
4162.399996613569
 20
1390.000000596097
 11
4169.399996829764
 21
1390.000000596097
  0
LINE
  5
232
100
AcDbEntity
  8
0
  6
CONTINUOUS
 62
           3
100
AcDbLine
 10
4169.399996829764
 20
1393.990144133492
 11
4162.399996613569
 21
1393.990144133492
  0
LINE
  5
231
100
AcDbEntity
  8
0
  6
CONTINUOUS
 62
           3
100
AcDbLine
 10
4162.899996695569
 20
1392.246469855294
 11
4162.399996613569
 21
1392.246469855294
  0
LINE
  5
230
100
AcDbEntity
  8
0
  6
CONTINUOUS
 62
           3
100
AcDbLine
 10
4169.399996829764
 20
1392.246469855294
 11
4168.899996747764
 21
1392.246469855294
  0
LINE
  5
22F
100
AcDbEntity
  8
0
  6
CONTINUOUS
 62
           3
100
AcDbLine
 10
4173.899997101559
 20
1394.799999892894
 11
4173.899997101559
 21
1389.200001954996
  0
LINE
  5
22E
100
AcDbEntity
  8
0
  6
CONTINUOUS
 62
           3
100
AcDbLine
 10
4157.899996341772
 20
1394.799999892894
 11
4157.899996341772
 21
1389.200001954996
  0
LINE
  5
22D
100
AcDbEntity
  8
0
  6
CONTINUOUS
 62
           3
100
AcDbLine
 10
4162.399996613569
 20
1389.200001954996
 11
4162.399996613569
 21
1394.799999892894
  0
LINE
  5
22C
100
AcDbEntity
  8
0
  6
CONTINUOUS
 62
           3
100
AcDbLine
 10
4169.399996829764
 20
1394.799999892894
 11
4169.399996829764
 21
1389.200001954996
  0
LINE
  5
22B
100
AcDbEntity
  8
0
  6
CONTINUOUS
 62
           3
100
AcDbLine
 10
4162.399996613569
 20
1389.200001954996
 11
4157.899996341772
 21
1389.200001954996
  0
LINE
  5
22A
100
AcDbEntity
  8
0
  6
CONTINUOUS
 62
           3
100
AcDbLine
 10
4162.399996613569
 20
1394.792847335491
 11
4169.399996829764
 21
1394.792847335491
  0
LINE
  5
229
100
AcDbEntity
  8
0
  6
CONTINUOUS
 62
           3
100
AcDbLine
 10
4173.899997101559
 20
1389.200001954996
 11
4169.399996829764
 21
1389.200001954996
  0
LINE
  5
228
100
AcDbEntity
  8
0
  6
CONTINUOUS
 62
           3
100
AcDbLine
 10
4167.899996816565
 20
1638.422653078993
 11
4163.899996626768
 21
1638.422653078993
  0
LINE
  5
227
100
AcDbEntity
  8
0
  6
CONTINUOUS
 62
           3
100
AcDbLine
 10
4162.899996695569
 20
1637.422651052293
 11
4168.899996747764
 21
1637.422651052293
  0
LINE
  5
226
100
AcDbEntity
  8
0
  6
CONTINUOUS
 62
           3
100
AcDbLine
 10
4111.899995321011
 20
1665.000006556369
 11
4115.899995976707
 21
1665.000006556369
  0
LINE
  5
225
100
AcDbEntity
  8
0
  6
CONTINUOUS
 62
           3
100
AcDbLine
 10
4115.899995976707
 20
1665.000006556369
 11
4119.899996632405
 21
1665.000006556369
  0
LINE
  5
224
100
AcDbEntity
  8
0
  6
CONTINUOUS
 62
           3
100
AcDbLine
 10
4161.569869687337
 20
1367.599993944256
 11
4160.899996833471
 21
1367.599993944114
  0
LINE
  5
223
100
AcDbEntity
  8
0
  6
CONTINUOUS
 62
           3
100
AcDbLine
 10
4170.899996609862
 20
1367.599993944114
 11
4170.230123756005
 21
1367.599993944256
  0
LINE
  5
222
100
AcDbEntity
  8
0
  6
CONTINUOUS
 62
           3
100
AcDbLine
 10
4161.569869687337
 20
1372.600004077041
 11
4160.899996833471
 21
1372.600004077009
  0
LINE
  5
221
100
AcDbEntity
  8
0
  6
CONTINUOUS
 62
           3
100
AcDbLine
 10
4170.230123756005
 20
1367.599993944256
 11
4165.89999672167
 21
1367.599993944256
  0
LINE
  5
220
100
AcDbEntity
  8
0
  6
CONTINUOUS
 62
           3
100
AcDbLine
 10
4165.89999672167
 20
1367.599993944256
 11
4161.569869687337
 21
1367.599993944256
  0
LINE
  5
21F
100
AcDbEntity
  8
0
  6
CONTINUOUS
 62
           3
100
AcDbLine
 10
4160.12649385397
 20
1372.153416276109
 11
4160.12649385397
 21
1368.046581745312
  0
LINE
  5
21E
100
AcDbEntity
  8
0
  6
CONTINUOUS
 62
           3
100
AcDbLine
 10
4160.12649385397
 20
1368.046581745312
 11
4161.569869687337
 21
1367.599993944256
  0
LINE
  5
21D
100
AcDbEntity
  8
0
  6
CONTINUOUS
 62
           3
100
AcDbLine
 10
4163.013245287839
 20
1372.153416276062
 11
4161.569869687337
 21
1372.600004077041
  0
LINE
  5
21C
100
AcDbEntity
  8
0
  6
CONTINUOUS
 62
           3
100
AcDbLine
 10
4168.786748155364
 20
1368.046581745312
 11
4170.230123756005
 21
1367.599993944256
  0
LINE
  5
21B
100
AcDbEntity
  8
0
  6
CONTINUOUS
 62
           3
100
AcDbLine
 10
4171.673499589363
 20
1372.153416276109
 11
4171.673499589363
 21
1368.046581745312
  0
LINE
  5
21A
100
AcDbEntity
  8
0
  6
CONTINUOUS
 62
           3
100
AcDbLine
 10
4171.673499589363
 20
1372.153416276109
 11
4170.230123756005
 21
1372.600004077041
  0
LINE
  5
219
100
AcDbEntity
  8
0
  6
CONTINUOUS
 62
           3
100
AcDbLine
 10
4163.013245287839
 20
1372.153416276062
 11
4163.013245287839
 21
1368.046581745235
  0
LINE
  5
218
100
AcDbEntity
  8
0
  6
CONTINUOUS
 62
           3
100
AcDbLine
 10
4168.786748155503
 20
1372.153416276062
 11
4168.786748155364
 21
1368.046581745312
  0
LINE
  5
217
100
AcDbEntity
  8
0
  6
CONTINUOUS
 62
           3
100
AcDbLine
 10
4170.899996609862
 20
1372.600004077009
 11
4170.230123756005
 21
1372.600004077041
  0
LINE
  5
216
100
AcDbEntity
  8
0
  6
CONTINUOUS
 62
           3
100
AcDbLine
 10
4170.899996609862
 20
1377.599999308604
 11
4170.230123756005
 21
1377.599999308666
  0
LINE
  5
215
100
AcDbEntity
  8
0
  6
CONTINUOUS
 62
           3
100
AcDbLine
 10
4161.569869687337
 20
1377.599999308666
 11
4160.899996833471
 21
1377.599999308604
  0
LINE
  5
214
100
AcDbEntity
  8
0
  6
CONTINUOUS
 62
           3
100
AcDbLine
 10
4165.89999672167
 20
1372.600004077041
 11
4161.569869687337
 21
1372.600004077041
  0
LINE
  5
213
100
AcDbEntity
  8
0
  6
CONTINUOUS
 62
           3
100
AcDbLine
 10
4170.230123756005
 20
1372.600004077041
 11
4165.89999672167
 21
1372.600004077041
  0
LINE
  5
212
100
AcDbEntity
  8
0
  6
CONTINUOUS
 62
           3
100
AcDbLine
 10
4165.89999672167
 20
1377.599999308666
 11
4161.569869687337
 21
1377.599999308666
  0
LINE
  5
211
100
AcDbEntity
  8
0
  6
CONTINUOUS
 62
           3
100
AcDbLine
 10
4160.12649385397
 20
1377.153418958205
 11
4160.12649385397
 21
1373.046576976911
  0
LINE
  5
210
100
AcDbEntity
  8
0
  6
CONTINUOUS
 62
           3
100
AcDbLine
 10
4160.12649385397
 20
1373.046576976911
 11
4161.569869687337
 21
1372.600004077041
  0
LINE
  5
20F
100
AcDbEntity
  8
0
  6
CONTINUOUS
 62
           3
100
AcDbLine
 10
4163.013245287839
 20
1377.153418958267
 11
4161.569869687337
 21
1377.599999308666
  0
LINE
  5
20E
100
AcDbEntity
  8
0
  6
CONTINUOUS
 62
           3
100
AcDbLine
 10
4170.230123756005
 20
1377.599999308666
 11
4165.89999672167
 21
1377.599999308666
  0
LINE
  5
20D
100
AcDbEntity
  8
0
  6
CONTINUOUS
 62
           3
100
AcDbLine
 10
4168.786748155364
 20
1373.046576976911
 11
4170.230123756005
 21
1372.600004077041
  0
LINE
  5
20C
100
AcDbEntity
  8
0
  6
CONTINUOUS
 62
           3
100
AcDbLine
 10
4171.673499589363
 20
1377.153418958205
 11
4171.673499589363
 21
1373.046576976911
  0
LINE
  5
20B
100
AcDbEntity
  8
0
  6
CONTINUOUS
 62
           3
100
AcDbLine
 10
4171.673499589363
 20
1377.153418958205
 11
4170.230123756005
 21
1377.599999308666
  0
LINE
  5
20A
100
AcDbEntity
  8
0
  6
CONTINUOUS
 62
           3
100
AcDbLine
 10
4163.013245287839
 20
1377.153418958267
 11
4163.013245287839
 21
1373.04657697686
  0
LINE
  5
209
100
AcDbEntity
  8
0
  6
CONTINUOUS
 62
           3
100
AcDbLine
 10
4168.786748155503
 20
1377.153418958267
 11
4168.786748155364
 21
1373.046576976911
  0
LINE
  5
208
100
AcDbEntity
  8
0
  6
CONTINUOUS
 62
           3
100
AcDbLine
 10
4160.12649385397
 20
1364.553421735916
 11
4160.12649385397
 21
1360.446587205122
  0
LINE
  5
207
100
AcDbEntity
  8
0
  6
CONTINUOUS
 62
           3
100
AcDbLine
 10
4160.12649385397
 20
1360.446587205122
 11
4161.569869687337
 21
1359.999999404048
  0
LINE
  5
206
100
AcDbEntity
  8
0
  6
CONTINUOUS
 62
           3
100
AcDbLine
 10
4163.013245287839
 20
1364.553421735858
 11
4161.569869687337
 21
1364.999994635673
  0
LINE
  5
205
100
AcDbEntity
  8
0
  6
CONTINUOUS
 62
           3
100
AcDbLine
 10
4168.786748155364
 20
1360.446587205122
 11
4170.230123755963
 21
1359.999999403921
  0
LINE
  5
204
100
AcDbEntity
  8
0
  6
CONTINUOUS
 62
           3
100
AcDbLine
 10
4171.673499589363
 20
1364.553421735916
 11
4171.673499589363
 21
1360.446587205122
  0
LINE
  5
203
100
AcDbEntity
  8
0
  6
CONTINUOUS
 62
           3
100
AcDbLine
 10
4171.673499589363
 20
1364.553421735916
 11
4170.230123756005
 21
1364.999994635673
  0
LINE
  5
202
100
AcDbEntity
  8
0
  6
CONTINUOUS
 62
           3
100
AcDbLine
 10
4163.013245287839
 20
1364.553421735858
 11
4163.013245287839
 21
1360.446587205024
  0
LINE
  5
201
100
AcDbEntity
  8
0
  6
CONTINUOUS
 62
           3
100
AcDbLine
 10
4168.786748155503
 20
1364.553421735858
 11
4168.786748155364
 21
1360.446587205122
  0
LINE
  5
200
100
AcDbEntity
  8
0
  6
CONTINUOUS
 62
           3
100
AcDbLine
 10
4160.899996833471
 20
1359.999999403921
 11
4161.569869687337
 21
1359.999999404048
  0
LINE
  5
1FF
100
AcDbEntity
  8
0
  6
CONTINUOUS
 62
           3
100
AcDbLine
 10
4170.899996609862
 20
1355.000004172322
 11
4170.230123756005
 21
1355.00000417242
  0
LINE
  5
1FE
100
AcDbEntity
  8
0
  6
CONTINUOUS
 62
           3
100
AcDbLine
 10
4160.899996833471
 20
1355.000004172322
 11
4161.569869687337
 21
1355.00000417242
  0
LINE
  5
1FD
100
AcDbEntity
  8
0
  6
CONTINUOUS
 62
           3
100
AcDbLine
 10
4171.673499589363
 20
1355.446577072224
 11
4170.230123756005
 21
1355.00000417242
  0
LINE
  5
1FC
100
AcDbEntity
  8
0
  6
CONTINUOUS
 62
           3
100
AcDbLine
 10
4171.673499589363
 20
1355.446577072224
 11
4171.673499589363
 21
1359.553411603021
  0
LINE
  5
1FB
100
AcDbEntity
  8
0
  6
CONTINUOUS
 62
           3
100
AcDbLine
 10
4160.12649385397
 20
1355.446577072224
 11
4160.12649385397
 21
1359.553411603021
  0
LINE
  5
1FA
100
AcDbEntity
  8
0
  6
CONTINUOUS
 62
           3
100
AcDbLine
 10
4165.89999672167
 20
1359.999999404048
 11
4170.230123755963
 21
1359.999999403921
  0
LINE
  5
1F9
100
AcDbEntity
  8
0
  6
CONTINUOUS
 62
           3
100
AcDbLine
 10
4168.786748155503
 20
1359.553411603069
 11
4170.230123755963
 21
1359.999999403921
  0
LINE
  5
1F8
100
AcDbEntity
  8
0
  6
CONTINUOUS
 62
           3
100
AcDbLine
 10
4161.569869687337
 20
1359.999999404048
 11
4165.89999672167
 21
1359.999999404048
  0
LINE
  5
1F7
100
AcDbEntity
  8
0
  6
CONTINUOUS
 62
           3
100
AcDbLine
 10
4161.569869687337
 20
1355.00000417242
 11
4165.899996721666
 21
1355.000004172322
  0
LINE
  5
1F6
100
AcDbEntity
  8
0
  6
CONTINUOUS
 62
           3
100
AcDbLine
 10
4165.899996721666
 20
1355.000004172322
 11
4170.230123756005
 21
1355.00000417242
  0
LINE
  5
1F5
100
AcDbEntity
  8
0
  6
CONTINUOUS
 62
           3
100
AcDbLine
 10
4163.013245287968
 20
1359.553411603021
 11
4165.89999672167
 21
1359.999999404048
  0
LINE
  5
1F4
100
AcDbEntity
  8
0
  6
CONTINUOUS
 62
           3
100
AcDbLine
 10
4163.013245287839
 20
1355.446577072242
 11
4163.013245287968
 21
1359.553411603021
  0
LINE
  5
1F3
100
AcDbEntity
  8
0
  6
CONTINUOUS
 62
           3
100
AcDbLine
 10
4168.786748155364
 20
1355.446577072224
 11
4165.899996721666
 21
1355.000004172322
  0
LINE
  5
1F2
100
AcDbEntity
  8
0
  6
CONTINUOUS
 62
           3
100
AcDbLine
 10
4168.786748155364
 20
1355.446577072224
 11
4168.786748155503
 21
1359.553411603069
  0
LINE
  5
1F1
100
AcDbEntity
  8
0
  6
CONTINUOUS
 62
           3
100
AcDbLine
 10
4222.89999675132
 20
1393.799997866194
 11
4222.89999675132
 21
1543.800000101368
  0
LINE
  5
1F0
100
AcDbEntity
  8
0
  6
CONTINUOUS
 62
           3
100
AcDbLine
 10
4111.899995321011
 20
1543.800000101368
 11
4108.899996692013
 21
1543.800000101368
  0
LINE
  5
1EF
100
AcDbEntity
  8
0
  6
CONTINUOUS
 62
           3
100
AcDbLine
 10
4162.899996695569
 20
1543.800000101368
 11
4119.899996632405
 21
1543.800000101368
  0
LINE
  5
1EE
100
AcDbEntity
  8
0
  6
CONTINUOUS
 62
           3
100
AcDbLine
 10
4211.899996810927
 20
1543.800000101368
 11
4168.899996747764
 21
1543.800000101368
  0
LINE
  5
1ED
100
AcDbEntity
  8
0
  6
CONTINUOUS
 62
           3
100
AcDbLine
 10
4222.89999675132
 20
1543.800000101368
 11
4219.899998122322
 21
1543.800000101368
  0
LINE
  5
1EC
100
AcDbEntity
  8
0
  6
CONTINUOUS
 62
           3
100
AcDbLine
 10
4108.899996692013
 20
1543.800000101368
 11
4108.899996692013
 21
1393.799997866194
  0
LINE
  5
1EB
100
AcDbEntity
  8
0
  6
CONTINUOUS
 62
           3
100
AcDbLine
 10
4219.899998122322
 20
1393.799997866194
 11
4222.89999675132
 21
1393.799997866194
  0
LINE
  5
1EA
100
AcDbEntity
  8
0
  6
CONTINUOUS
 62
           3
100
AcDbLine
 10
4173.899997101559
 20
1393.799997866194
 11
4211.899996810927
 21
1393.799997866194
  0
LINE
  5
1E9
100
AcDbEntity
  8
0
  6
CONTINUOUS
 62
           3
100
AcDbLine
 10
4119.899996632405
 20
1393.799997866194
 11
4157.899996341772
 21
1393.799997866194
  0
LINE
  5
1E8
100
AcDbEntity
  8
0
  6
CONTINUOUS
 62
           3
100
AcDbLine
 10
4108.899996692013
 20
1393.799997866194
 11
4111.899995321011
 21
1393.799997866194
  0
LINE
  5
1E7
100
AcDbEntity
  8
0
  6
CONTINUOUS
 62
           3
100
AcDbLine
 10
4159.426494029871
 20
1389.099999999995
 11
4172.373499413462
 21
1389.099999999995
  0
LINE
  5
1E6
100
AcDbEntity
  8
0
  6
CONTINUOUS
 62
           3
100
AcDbLine
 10
4173.899997101559
 20
1394.799999892894
 11
4169.399996829764
 21
1394.799999892894
  0
LINE
  5
1E5
100
AcDbEntity
  8
0
  6
CONTINUOUS
 62
           3
100
AcDbLine
 10
4162.399996613569
 20
1394.799999892894
 11
4157.899996341772
 21
1394.799999892894
  0
LINE
  5
1E4
100
AcDbEntity
  8
0
  6
CONTINUOUS
 62
           3
100
AcDbLine
 10
4163.899996626768
 20
1638.422653078993
 11
4162.899996695569
 21
1637.422651052293
  0
LINE
  5
1E3
100
AcDbEntity
  8
0
  6
CONTINUOUS
 62
           3
100
AcDbLine
 10
4168.899996747764
 20
1637.422651052293
 11
4167.899996816565
 21
1638.422653078993
  0
LINE
  5
1E2
100
AcDbEntity
  8
0
  6
CONTINUOUS
 62
           3
100
AcDbLine
 10
4162.899996695569
 20
1367.599993944114
 11
4162.899996695569
 21
1366.600006818713
  0
LINE
  5
1E1
100
AcDbEntity
  8
0
  6
CONTINUOUS
 62
           3
100
AcDbLine
 10
4162.899996695569
 20
1384.1999992729
 11
4162.899996695569
 21
1377.599999308604
  0
LINE
  5
1E0
100
AcDbEntity
  8
0
  6
CONTINUOUS
 62
           3
100
AcDbLine
 10
4162.899996695569
 20
1392.957426607594
 11
4162.899996695569
 21
1390.000000596097
  0
LINE
  5
1DF
100
AcDbEntity
  8
0
  6
CONTINUOUS
 62
           3
100
AcDbLine
 10
4162.899996695569
 20
1633.399993180996
 11
4162.899996695569
 21
1394.792847335491
  0
LINE
  5
1DE
100
AcDbEntity
  8
0
  6
CONTINUOUS
 62
           3
100
AcDbLine
 10
4162.899996695569
 20
1637.422651052293
 11
4162.899996695569
 21
1635.000005364196
  0
LINE
  5
1DD
100
AcDbEntity
  8
0
  6
CONTINUOUS
 62
           3
100
AcDbLine
 10
4168.899996747764
 20
1635.000005364196
 11
4168.899996747764
 21
1637.422651052293
  0
LINE
  5
1DC
100
AcDbEntity
  8
0
  6
CONTINUOUS
 62
           3
100
AcDbLine
 10
4168.899996747764
 20
1394.792847335491
 11
4168.899996747764
 21
1633.399993180996
  0
LINE
  5
1DB
100
AcDbEntity
  8
0
  6
CONTINUOUS
 62
           3
100
AcDbLine
 10
4168.899996747764
 20
1390.000000596097
 11
4168.899996747764
 21
1392.957426607594
  0
LINE
  5
1DA
100
AcDbEntity
  8
0
  6
CONTINUOUS
 62
           3
100
AcDbLine
 10
4168.899996747764
 20
1377.599999308604
 11
4168.899996747764
 21
1384.1999992729
  0
LINE
  5
1D9
100
AcDbEntity
  8
0
  6
CONTINUOUS
 62
           3
100
AcDbLine
 10
4168.899996747764
 20
1366.600006818713
 11
4168.899996747764
 21
1367.599993944114
  0
LINE
  5
1D8
100
AcDbEntity
  8
0
  6
CONTINUOUS
 62
           3
100
AcDbLine
 10
4119.899996632405
 20
1635.000005364196
 11
4119.899996632405
 21
1665.000006556369
  0
LINE
  5
1D7
100
AcDbEntity
  8
0
  6
CONTINUOUS
 62
           3
100
AcDbLine
 10
4119.899996632405
 20
1550.000000744964
 11
4119.899996632405
 21
1633.399993180996
  0
LINE
  5
1D6
100
AcDbEntity
  8
0
  6
CONTINUOUS
 62
           3
100
AcDbLine
 10
4119.899996632405
 20
1391.199998557593
 11
4119.899996632405
 21
1548.799999058065
  0
LINE
  5
1D5
100
AcDbEntity
  8
0
  6
CONTINUOUS
 62
           3
100
AcDbLine
 10
4119.899996632405
 20
1366.600006818713
 11
4119.899996632405
 21
1390.000000596097
  0
LINE
  5
1D4
100
AcDbEntity
  8
0
  6
CONTINUOUS
 62
           3
100
AcDbLine
 10
4111.899995321011
 20
1364.999994635815
 11
4111.899995321011
 21
1314.999997615956
  0
LINE
  5
1D3
100
AcDbEntity
  8
0
  6
CONTINUOUS
 62
           3
100
AcDbLine
 10
4111.899995321011
 20
1390.000000596097
 11
4111.899995321011
 21
1366.600006818713
  0
LINE
  5
1D2
100
AcDbEntity
  8
0
  6
CONTINUOUS
 62
           3
100
AcDbLine
 10
4111.899995321011
 20
1548.799999058065
 11
4111.899995321011
 21
1391.199998557593
  0
LINE
  5
1D1
100
AcDbEntity
  8
0
  6
CONTINUOUS
 62
           3
100
AcDbLine
 10
4111.899995321011
 20
1633.399993180996
 11
4111.899995321011
 21
1550.000000744964
  0
LINE
  5
1D0
100
AcDbEntity
  8
0
  6
CONTINUOUS
 62
           3
100
AcDbLine
 10
4111.899995321011
 20
1665.000006556369
 11
4111.899995321011
 21
1635.000005364196
  0
LINE
  5
1CF
100
AcDbEntity
  8
0
  6
CONTINUOUS
 62
           3
100
AcDbLine
 10
4219.899998122322
 20
1635.000005364196
 11
4219.899998122322
 21
1641.000000000001
  0
LINE
  5
1CE
100
AcDbEntity
  8
0
  6
CONTINUOUS
 62
           3
100
AcDbLine
 10
4219.899998122322
 20
1550.000000744964
 11
4219.899998122322
 21
1633.399993180996
  0
LINE
  5
1CD
100
AcDbEntity
  8
0
  6
CONTINUOUS
 62
           3
100
AcDbLine
 10
4219.899998122322
 20
1391.199998557593
 11
4219.899998122322
 21
1548.799999058065
  0
LINE
  5
1CC
100
AcDbEntity
  8
0
  6
CONTINUOUS
 62
           3
100
AcDbLine
 10
4219.899998122322
 20
1366.600006818713
 11
4219.899998122322
 21
1390.000000596097
  0
LINE
  5
1CB
100
AcDbEntity
  8
0
  6
CONTINUOUS
 62
           3
100
AcDbLine
 10
4219.899998122322
 20
1314.999997615956
 11
4219.899998122322
 21
1364.999994635815
  0
LINE
  5
1CA
100
AcDbEntity
  8
0
  6
CONTINUOUS
 62
           3
100
AcDbLine
 10
4211.899996810927
 20
1364.999994635815
 11
4211.899996810927
 21
1314.999997615956
  0
LINE
  5
1C9
100
AcDbEntity
  8
0
  6
CONTINUOUS
 62
           3
100
AcDbLine
 10
4211.899996810927
 20
1390.000000596097
 11
4211.899996810927
 21
1366.600006818713
  0
LINE
  5
1C8
100
AcDbEntity
  8
0
  6
CONTINUOUS
 62
           3
100
AcDbLine
 10
4211.899996810927
 20
1548.799999058065
 11
4211.899996810927
 21
1391.199998557593
  0
LINE
  5
1C7
100
AcDbEntity
  8
0
  6
CONTINUOUS
 62
           3
100
AcDbLine
 10
4211.899996810927
 20
1633.399993180996
 11
4211.899996810927
 21
1550.000000744964
  0
LINE
  5
1C6
100
AcDbEntity
  8
0
  6
CONTINUOUS
 62
           3
100
AcDbLine
 10
4211.899996810927
 20
1641.0
 11
4211.899996810927
 21
1635.000005364196
  0
LINE
  5
1C5
100
AcDbEntity
  8
0
  6
CONTINUOUS
 62
           3
100
AcDbLine
 10
4160.12649385397
 20
1368.046581745312
 11
4160.899996833471
 21
1367.599993944114
  0
LINE
  5
1C4
100
AcDbEntity
  8
0
  6
CONTINUOUS
 62
           3
100
AcDbLine
 10
4170.899996609862
 20
1367.599993944114
 11
4171.673499589363
 21
1368.046581745312
  0
LINE
  5
1C3
100
AcDbEntity
  8
0
  6
CONTINUOUS
 62
           3
100
AcDbLine
 10
4171.673499589363
 20
1372.153416276109
 11
4170.899996609862
 21
1372.600004077009
  0
LINE
  5
1C2
100
AcDbEntity
  8
0
  6
CONTINUOUS
 62
           3
100
AcDbLine
 10
4160.899996833471
 20
1372.600004077009
 11
4160.12649385397
 21
1372.153416276109
  0
LINE
  5
1C1
100
AcDbEntity
  8
0
  6
CONTINUOUS
 62
           3
100
AcDbLine
 10
4160.12649385397
 20
1373.046576976911
 11
4160.899996833471
 21
1372.600004077009
  0
LINE
  5
1C0
100
AcDbEntity
  8
0
  6
CONTINUOUS
 62
           3
100
AcDbLine
 10
4170.899996609862
 20
1372.600004077009
 11
4171.673499589363
 21
1373.046576976911
  0
LINE
  5
1BF
100
AcDbEntity
  8
0
  6
CONTINUOUS
 62
           3
100
AcDbLine
 10
4171.673499589363
 20
1377.153418958205
 11
4170.899996609862
 21
1377.599999308604
  0
LINE
  5
1BE
100
AcDbEntity
  8
0
  6
CONTINUOUS
 62
           3
100
AcDbLine
 10
4160.899996833471
 20
1377.599999308604
 11
4160.12649385397
 21
1377.153418958205
  0
LINE
  5
1BD
100
AcDbEntity
  8
0
  6
CONTINUOUS
 62
           3
100
AcDbLine
 10
4160.12649385397
 20
1360.446587205122
 11
4160.899996833471
 21
1359.999999403921
  0
LINE
  5
1BC
100
AcDbEntity
  8
0
  6
CONTINUOUS
 62
           3
100
AcDbLine
 10
4170.899996609862
 20
1359.999999403921
 11
4171.673499589363
 21
1360.446587205122
  0
LINE
  5
1BB
100
AcDbEntity
  8
0
  6
CONTINUOUS
 62
           3
100
AcDbLine
 10
4171.673499589363
 20
1364.553421735916
 11
4170.899996609862
 21
1364.999994635815
  0
LINE
  5
1BA
100
AcDbEntity
  8
0
  6
CONTINUOUS
 62
           3
100
AcDbLine
 10
4160.899996833471
 20
1364.999994635815
 11
4160.12649385397
 21
1364.553421735916
  0
LINE
  5
1B9
100
AcDbEntity
  8
0
  6
CONTINUOUS
 62
           3
100
AcDbLine
 10
4171.673499589363
 20
1359.553411603021
 11
4170.899996609862
 21
1359.999999403921
  0
LINE
  5
1B8
100
AcDbEntity
  8
0
  6
CONTINUOUS
 62
           3
100
AcDbLine
 10
4160.899996833471
 20
1359.999999403921
 11
4160.12649385397
 21
1359.553411603021
  0
LINE
  5
1B7
100
AcDbEntity
  8
0
  6
CONTINUOUS
 62
           3
100
AcDbLine
 10
4170.899996609862
 20
1355.000004172322
 11
4171.673499589363
 21
1355.446577072224
  0
LINE
  5
1B6
100
AcDbEntity
  8
0
  6
CONTINUOUS
 62
           3
100
AcDbLine
 10
4160.12649385397
 20
1355.446577072224
 11
4160.899996833471
 21
1355.000004172322
  0
LINE
  5
1B5
100
AcDbEntity
  8
0
  6
CONTINUOUS
 62
           3
100
AcDbLine
 10
4119.899996632405
 20
1314.999997615956
 11
4119.899996632405
 21
1364.999994635815
  0
LINE
  5
1B4
100
AcDbEntity
  8
1
  6
CONTINUOUS
 62
           3
100
AcDbLine
 10
4647.499999999998
 20
1929.0
 11
4499.899996810927
 21
1929.0
  0
LINE
  5
1B3
100
AcDbEntity
  8
1
  6
CONTINUOUS
 62
           3
100
AcDbLine
 10
4647.499999999998
 20
1921.000000000001
 11
4499.899998122322
 21
1921.000000000001
  0
LINE
  5
1B2
100
AcDbEntity
  8
1
  6
CONTINUOUS
 62
           3
100
AcDbLine
 10
514.395796321874
 20
1294.328109327063
 11
512.007850321893
 21
1267.070985327062
  0
LINE
  5
1B1
100
AcDbEntity
  8
1
  6
CONTINUOUS
 62
           3
100
AcDbLine
 10
512.007850321893
 20
1323.330711327063
 11
514.395796321874
 21
1296.073587327063
  0
LINE
  5
1B0
100
AcDbEntity
  8
1
  6
CONTINUOUS
 62
           3
100
AcDbLine
 10
502.548714321874
 20
1294.328109327063
 11
504.936660321884
 21
1267.070985327062
  0
LINE
  5
1AF
100
AcDbEntity
  8
1
  6
CONTINUOUS
 62
           3
100
AcDbLine
 10
504.936660321884
 20
1323.330711327063
 11
502.548714321874
 21
1296.073587327063
  0
LINE
  5
1AE
100
AcDbEntity
  8
1
  6
DOT_CENTER
 62
           3
100
AcDbLine
 10
553.472255321877
 20
1295.200848327053
 11
463.474800321873
 21
1295.200848327053
  0
LINE
  5
1AD
100
AcDbEntity
  8
1
  6
DOT_CENTER
 62
           3
100
AcDbLine
 10
508.472255321878
 20
1340.200848327053
 11
508.472255321878
 21
1250.202277327053
  0
LINE
  5
1AC
100
AcDbEntity
  8
1
  6
CONTINUOUS
 62
           7
100
AcDbLine
 10
3980.0
 20
1620.0
 11
3799.999999999999
 21
1619.999999999999
  0
LINE
  5
1AB
100
AcDbEntity
  8
1
  6
CONTINUOUS
 62
           7
100
AcDbLine
 10
3800.0
 20
1733.0
 11
3980.0
 21
1733.0
  0
LINE
  5
1AA
100
AcDbEntity
  8
1
  6
CONTINUOUS
 62
           7
100
AcDbLine
 10
3980.0
 20
1733.0
 11
3980.0
 21
1620.0
  0
LINE
  5
1A9
100
AcDbEntity
  8
1
  6
CONTINUOUS
 62
           7
100
AcDbLine
 10
3799.999999999999
 20
1619.999999999999
 11
3800.0
 21
1733.0
  0
LINE
  5
1A8
100
AcDbEntity
  8
1
  6
CONTINUOUS
 62
           7
100
AcDbLine
 10
-569.497691536609
 20
986.513526798368
 11
575.0
 21
986.513526798368
  0
LINE
  5
1A7
100
AcDbEntity
  8
1
  6
CONTINUOUS
 62
           2
100
AcDbLine
 10
4270.0
 20
1800.831132334586
 11
4269.999999999999
 21
520.0
  0
LINE
  5
1A6
100
AcDbEntity
  8
1
  6
CONTINUOUS
 62
           7
100
AcDbLine
 10
4250.0
 20
1784.157226830845
 11
4249.999999999999
 21
2000.0
  0
LINE
  5
1A5
100
AcDbEntity
  8
1
  6
CONTINUOUS
 62
           2
100
AcDbLine
 10
4230.0
 20
1741.488764155307
 11
4229.999999999999
 21
1980.0
  0
LINE
  5
1A4
100
AcDbEntity
  8
1
  6
CONTINUOUS
 62
           2
100
AcDbLine
 10
4269.999999999999
 20
1980.0
 11
4270.0
 21
1814.464669216343
  0
LINE
  5
1A3
100
AcDbEntity
  8
1
  6
CONTINUOUS
 62
           2
100
AcDbLine
 10
4229.999999999999
 20
520.0
 11
4230.0
 21
1715.525103244275
  0
LINE
  5
1A2
100
AcDbEntity
  8
1
  6
CONTINUOUS
 62
           7
100
AcDbLine
 10
4249.999999999999
 20
500.0
 11
4250.0
 21
1767.293273528177
  0
LINE
  5
1A1
100
AcDbEntity
  8
___S__
  6
DOT_CENTER
 62
           3
100
AcDbLine
 10
-574.999999999999
 20
1067.063266596461
 11
-575.000000000001
 21
982.067556365336
  0
LINE
  5
1A0
100
AcDbEntity
  8
____
  6
CONTINUOUS
 62
           3
100
AcDbLine
 10
-569.59594704488
 20
1060.459504816179
 11
-569.59594704488
 21
1058.581574068057
  0
LINE
  5
19F
100
AcDbEntity
  8
____
  6
CONTINUOUS
 62
           3
100
AcDbLine
 10
-579.912775413744
 20
1060.92898750321
 11
-570.087224586255
 21
1060.92898750321
  0
LINE
  5
19E
100
AcDbEntity
  8
____
  6
CONTINUOUS
 62
           3
100
AcDbLine
 10
-580.404052955118
 20
1058.581574068057
 11
-580.404052955118
 21
1060.459504816179
  0
LINE
  5
19D
100
AcDbEntity
  8
____
  6
CONTINUOUS
 62
           3
100
AcDbLine
 10
-569.497691536608
 20
1022.900889853723
 11
-580.502308463384
 21
1022.900889853724
  0
LINE
  5
19C
100
AcDbEntity
  8
____
  6
CONTINUOUS
 62
           3
100
AcDbLine
 10
-569.497691536607
 20
1058.581574068057
 11
-569.497691536608
 21
1022.900889853723
  0
LINE
  5
19B
100
AcDbEntity
  8
____
  6
CONTINUOUS
 62
           3
100
AcDbLine
 10
-580.502308463383
 20
1058.581574068057
 11
-569.497691536607
 21
1058.581574068057
  0
LINE
  5
19A
100
AcDbEntity
  8
____
  6
CONTINUOUS
 62
           3
100
AcDbLine
 10
-580.502308463384
 20
1022.900889853724
 11
-580.502308463383
 21
1058.581574068057
  0
LINE
  5
199
100
AcDbEntity
  8
____
  6
CONTINUOUS
 62
           3
100
AcDbLine
 10
-580.40405295512
 20
984.403309517207
 11
-580.40405295512
 21
986.28124026533
  0
LINE
  5
198
100
AcDbEntity
  8
____
  6
CONTINUOUS
 62
           3
100
AcDbLine
 10
-570.087224586257
 20
983.933826830176
 11
-579.912775413746
 21
983.933826830176
  0
LINE
  5
197
100
AcDbEntity
  8
____
  6
CONTINUOUS
 62
           3
100
AcDbLine
 10
-569.595947044882
 20
986.28124026533
 11
-569.595947044882
 21
984.403309517207
  0
LINE
  5
196
100
AcDbEntity
  8
____
  6
CONTINUOUS
 62
           3
100
AcDbLine
 10
-580.158414184432
 20
1022.900889853724
 11
-580.158414184432
 21
1021.961924479662
  0
LINE
  5
195
100
AcDbEntity
  8
____
  6
CONTINUOUS
 62
           3
100
AcDbLine
 10
-569.841585815569
 20
1022.900889853723
 11
-580.158414184432
 21
1022.900889853724
  0
LINE
  5
194
100
AcDbEntity
  8
____
  6
CONTINUOUS
 62
           3
100
AcDbLine
 10
-569.841585815569
 20
1021.961924479662
 11
-569.841585815569
 21
1022.900889853723
  0
LINE
  5
193
100
AcDbEntity
  8
____
  6
CONTINUOUS
 62
           3
100
AcDbLine
 10
-580.404052955118
 20
1060.459504816179
 11
-569.59594704488
 21
1060.459504816179
  0
LINE
  5
192
100
AcDbEntity
  8
____
  6
CONTINUOUS
 62
           3
100
AcDbLine
 10
-580.502308463384
 20
1021.961924479662
 11
-569.497691536608
 21
1021.961924479662
  0
LINE
  5
191
100
AcDbEntity
  8
____
  6
CONTINUOUS
 62
           3
100
AcDbLine
 10
-580.502308463385
 20
986.28124026533
 11
-580.502308463384
 21
1021.961924479662
  0
LINE
  5
190
100
AcDbEntity
  8
____
  6
CONTINUOUS
 62
           3
100
AcDbLine
 10
-569.497691536609
 20
986.28124026533
 11
-580.502308463385
 21
986.28124026533
  0
LINE
  5
18F
100
AcDbEntity
  8
____
  6
CONTINUOUS
 62
           3
100
AcDbLine
 10
-569.497691536608
 20
1021.961924479662
 11
-569.497691536609
 21
986.28124026533
  0
LINE
  5
18E
100
AcDbEntity
  8
____
  6
CONTINUOUS
 62
           3
100
AcDbLine
 10
-580.404052955118
 20
1060.459504816179
 11
-579.912775413744
 21
1060.92898750321
  0
LINE
  5
18D
100
AcDbEntity
  8
____
  6
CONTINUOUS
 62
           3
100
AcDbLine
 10
-570.087224586255
 20
1060.92898750321
 11
-569.59594704488
 21
1060.459504816179
  0
LINE
  5
18C
100
AcDbEntity
  8
____
  6
CONTINUOUS
 62
           3
100
AcDbLine
 10
-579.912775413746
 20
983.933826830176
 11
-580.40405295512
 21
984.403309517207
  0
LINE
  5
18B
100
AcDbEntity
  8
____
  6
CONTINUOUS
 62
           3
100
AcDbLine
 10
-569.595947044882
 20
984.403309517207
 11
-570.087224586257
 21
983.933826830176
  0
LINE
  5
18A
100
AcDbEntity
  8
____
  6
CONTINUOUS
 62
           3
100
AcDbLine
 10
-580.40405295512
 20
984.403309517207
 11
-569.595947044882
 21
984.403309517207
  0
LINE
  5
189
100
AcDbEntity
  8
____
  6
CONTINUOUS
 62
           3
100
AcDbLine
 10
-580.404052955096
 20
1538.39288020726
 11
-569.595947044858
 21
1538.39288020726
  0
LINE
  5
188
100
AcDbEntity
  8
____
  6
CONTINUOUS
 62
           3
100
AcDbLine
 10
-569.595947044858
 20
1538.39288020726
 11
-570.087224586232
 21
1537.923397520231
  0
LINE
  5
187
100
AcDbEntity
  8
____
  6
CONTINUOUS
 62
           3
100
AcDbLine
 10
-579.912775413721
 20
1537.923397520231
 11
-580.404052955096
 21
1538.39288020726
  0
LINE
  5
186
100
AcDbEntity
  8
____
  6
CONTINUOUS
 62
           3
100
AcDbLine
 10
-570.087224586231
 20
1614.918558193264
 11
-569.595947044857
 21
1614.449075506232
  0
LINE
  5
185
100
AcDbEntity
  8
____
  6
CONTINUOUS
 62
           3
100
AcDbLine
 10
-580.404052955095
 20
1614.449075506232
 11
-579.91277541372
 21
1614.918558193264
  0
LINE
  5
184
100
AcDbEntity
  8
____
  6
CONTINUOUS
 62
           3
100
AcDbLine
 10
-569.497691536592
 20
1575.951495169716
 11
-569.497691536592
 21
1540.270810955383
  0
LINE
  5
183
100
AcDbEntity
  8
____
  6
CONTINUOUS
 62
           3
100
AcDbLine
 10
-569.497691536592
 20
1540.270810955383
 11
-580.502308463369
 21
1540.270810955383
  0
LINE
  5
182
100
AcDbEntity
  8
____
  6
CONTINUOUS
 62
           3
100
AcDbLine
 10
-580.502308463369
 20
1540.270810955383
 11
-580.502308463369
 21
1575.951495169716
  0
LINE
  5
181
100
AcDbEntity
  8
____
  6
CONTINUOUS
 62
           3
100
AcDbLine
 10
-580.502308463369
 20
1575.951495169716
 11
-569.497691536592
 21
1575.951495169716
  0
LINE
  5
180
100
AcDbEntity
  8
____
  6
CONTINUOUS
 62
           3
100
AcDbLine
 10
-580.404052955095
 20
1614.449075506232
 11
-569.595947044857
 21
1614.449075506232
  0
LINE
  5
17F
100
AcDbEntity
  8
____
  6
CONTINUOUS
 62
           3
100
AcDbLine
 10
-569.841585815545
 20
1575.951495169716
 11
-569.841585815545
 21
1576.890460543778
  0
LINE
  5
17E
100
AcDbEntity
  8
____
  6
CONTINUOUS
 62
           3
100
AcDbLine
 10
-569.841585815545
 20
1576.890460543778
 11
-580.158414184408
 21
1576.890460543778
  0
LINE
  5
17D
100
AcDbEntity
  8
____
  6
CONTINUOUS
 62
           3
100
AcDbLine
 10
-580.158414184408
 20
1576.890460543778
 11
-580.158414184408
 21
1575.951495169716
  0
LINE
  5
17C
100
AcDbEntity
  8
____
  6
CONTINUOUS
 62
           3
100
AcDbLine
 10
-569.595947044858
 20
1540.270810955383
 11
-569.595947044858
 21
1538.39288020726
  0
LINE
  5
17B
100
AcDbEntity
  8
____
  6
CONTINUOUS
 62
           3
100
AcDbLine
 10
-570.087224586232
 20
1537.923397520231
 11
-579.912775413721
 21
1537.923397520231
  0
LINE
  5
17A
100
AcDbEntity
  8
____
  6
CONTINUOUS
 62
           3
100
AcDbLine
 10
-580.404052955096
 20
1538.39288020726
 11
-580.404052955096
 21
1540.270810955383
  0
LINE
  5
179
100
AcDbEntity
  8
____
  6
CONTINUOUS
 62
           3
100
AcDbLine
 10
-580.502308463369
 20
1576.890460543778
 11
-580.502308463368
 21
1612.57114475811
  0
LINE
  5
178
100
AcDbEntity
  8
____
  6
CONTINUOUS
 62
           3
100
AcDbLine
 10
-580.502308463368
 20
1612.57114475811
 11
-569.497691536591
 21
1612.571144758109
  0
LINE
  5
177
100
AcDbEntity
  8
____
  6
CONTINUOUS
 62
           3
100
AcDbLine
 10
-569.497691536591
 20
1612.571144758109
 11
-569.497691536592
 21
1576.890460543778
  0
LINE
  5
176
100
AcDbEntity
  8
____
  6
CONTINUOUS
 62
           3
100
AcDbLine
 10
-569.497691536592
 20
1576.890460543778
 11
-580.502308463369
 21
1576.890460543778
  0
LINE
  5
175
100
AcDbEntity
  8
____
  6
CONTINUOUS
 62
           3
100
AcDbLine
 10
-580.404052955095
 20
1612.57114475811
 11
-580.404052955095
 21
1614.449075506232
  0
LINE
  5
174
100
AcDbEntity
  8
____
  6
CONTINUOUS
 62
           3
100
AcDbLine
 10
-579.91277541372
 20
1614.918558193264
 11
-570.087224586231
 21
1614.918558193264
  0
LINE
  5
173
100
AcDbEntity
  8
____
  6
CONTINUOUS
 62
           3
100
AcDbLine
 10
-569.595947044857
 20
1614.449075506232
 11
-569.595947044857
 21
1612.571144758109
  0
LINE
  5
172
100
AcDbEntity
  8
___S__
  6
DOT_CENTER
 62
           3
100
AcDbLine
 10
-574.999999999976
 20
1621.052837286498
 11
-574.999999999977
 21
1536.05712705539
  0
LINE
  5
171
100
AcDbEntity
  8
1
  6
CONTINUOUS
 62
           7
100
AcDbLine
 10
-575.0
 20
941.513526798368
 11
575.0
 21
941.513526798368
  0
LINE
  5
170
100
AcDbEntity
  8
1
  6
CONTINUOUS
 62
           7
100
AcDbLine
 10
575.0
 20
941.513526798368
 11
575.0
 21
1646.282992387803
  0
LINE
  5
16F
100
AcDbEntity
  8
1
  6
CONTINUOUS
 62
           7
100
AcDbLine
 10
-575.0
 20
941.513526798368
 11
-575.0
 21
1646.282992387803
  0
LINE
  5
16E
100
AcDbEntity
  8
1
  6
CONTINUOUS
 62
           7
100
AcDbLine
 10
575.0
 20
1646.282992387803
 11
-575.0
 21
1646.282992387803
  0
LINE
  5
16D
100
AcDbEntity
  8
1
  6
CONTINUOUS
 62
           7
100
AcDbLine
 10
1000.0
 20
1763.744569986044
 11
-1000.0
 21
1763.744569986044
  0
LINE
  5
16C
100
AcDbEntity
  8
1
  6
CONTINUOUS
 62
           7
100
AcDbLine
 10
4250.000000000001
 20
2000.0
 11
4250.000000000001
 21
2075.0
  0
LINE
  5
16B
100
AcDbEntity
  8
1
  6
CONTINUOUS
 62
           4
100
AcDbLine
 10
1150.500000000001
 20
3831.999999999999
 11
1150.500000000001
 21
4001.999999999999
  0
LINE
  5
16A
100
AcDbEntity
  8
1
  6
CONTINUOUS
 62
           4
100
AcDbLine
 10
1068.000000000001
 20
3854.499999999999
 11
1055.000000000001
 21
3854.499999999999
  0
LINE
  5
169
100
AcDbEntity
  8
1
  6
CONTINUOUS
 62
           4
100
AcDbLine
 10
1068.000000000001
 20
3874.499999999999
 11
1055.000000000001
 21
3874.499999999999
  0
LINE
  5
168
100
AcDbEntity
  8
1
  6
CONTINUOUS
 62
           4
100
AcDbLine
 10
1065.000000000001
 20
3874.499999999999
 11
1065.000000000001
 21
3854.499999999999
  0
LINE
  5
167
100
AcDbEntity
  8
1
  6
CONTINUOUS
 62
           4
100
AcDbLine
 10
1058.000000000001
 20
3874.499999999999
 11
1058.000000000001
 21
3854.499999999999
  0
LINE
  5
166
100
AcDbEntity
  8
1
  6
CONTINUOUS
 62
           4
100
AcDbLine
 10
1058.000000000001
 20
3979.499999999999
 11
1058.000000000001
 21
3959.499999999999
  0
LINE
  5
165
100
AcDbEntity
  8
1
  6
CONTINUOUS
 62
           4
100
AcDbLine
 10
1065.000000000001
 20
3979.499999999999
 11
1065.000000000001
 21
3959.499999999999
  0
LINE
  5
164
100
AcDbEntity
  8
1
  6
CONTINUOUS
 62
           4
100
AcDbLine
 10
1055.000000000001
 20
3959.499999999999
 11
1068.000000000001
 21
3959.499999999999
  0
LINE
  5
163
100
AcDbEntity
  8
1
  6
CONTINUOUS
 62
           4
100
AcDbLine
 10
1055.000000000001
 20
3979.499999999999
 11
1068.000000000001
 21
3979.499999999999
  0
LINE
  5
162
100
AcDbEntity
  8
1
  6
CONTINUOUS
 62
           4
100
AcDbLine
 10
1263.000000000001
 20
3921.999999999999
 11
1280.000000000001
 21
3921.999999999999
  0
LINE
  5
161
100
AcDbEntity
  8
1
  6
CONTINUOUS
 62
           4
100
AcDbLine
 10
1280.000000000001
 20
3921.999999999999
 11
1280.000000000001
 21
3946.999999999999
  0
LINE
  5
160
100
AcDbEntity
  8
1
  6
CONTINUOUS
 62
           4
100
AcDbLine
 10
1280.000000000001
 20
3946.999999999999
 11
1263.000000000001
 21
3946.999999999999
  0
LINE
  5
15F
100
AcDbEntity
  8
1
  6
CONTINUOUS
 62
           4
100
AcDbLine
 10
1280.000000000001
 20
3904.499999999999
 11
1263.000000000001
 21
3904.499999999999
  0
LINE
  5
15E
100
AcDbEntity
  8
1
  6
CONTINUOUS
 62
           4
100
AcDbLine
 10
1280.000000000001
 20
3879.499999999999
 11
1280.000000000001
 21
3904.499999999999
  0
LINE
  5
15D
100
AcDbEntity
  8
1
  6
CONTINUOUS
 62
           4
100
AcDbLine
 10
1263.000000000001
 20
3879.499999999999
 11
1280.000000000001
 21
3879.499999999999
  0
LINE
  5
15C
100
AcDbEntity
  8
1
  6
CONTINUOUS
 62
           4
100
AcDbLine
 10
1180.500000000001
 20
3831.999999999999
 11
1180.500000000001
 21
4001.999999999999
  0
LINE
  5
15B
100
AcDbEntity
  8
1
  6
CONTINUOUS
 62
           4
100
AcDbLine
 10
1263.000000000001
 20
3844.499999999999
 11
1280.000000000001
 21
3844.499999999999
  0
LINE
  5
15A
100
AcDbEntity
  8
1
  6
CONTINUOUS
 62
           4
100
AcDbLine
 10
1280.000000000001
 20
3844.499999999999
 11
1280.000000000001
 21
3869.499999999999
  0
LINE
  5
159
100
AcDbEntity
  8
1
  6
CONTINUOUS
 62
           4
100
AcDbLine
 10
1280.000000000001
 20
3869.499999999999
 11
1263.000000000001
 21
3869.499999999999
  0
LINE
  5
158
100
AcDbEntity
  8
1
  6
CONTINUOUS
 62
           4
100
AcDbLine
 10
1068.000000000001
 20
3831.999999999999
 11
1263.000000000001
 21
3831.999999999999
  0
LINE
  5
157
100
AcDbEntity
  8
1
  6
CONTINUOUS
 62
           4
100
AcDbLine
 10
1263.000000000001
 20
3831.999999999999
 11
1263.000000000001
 21
4001.999999999999
  0
LINE
  5
156
100
AcDbEntity
  8
1
  6
CONTINUOUS
 62
           4
100
AcDbLine
 10
1263.000000000001
 20
4001.999999999999
 11
1068.000000000001
 21
4001.999999999999
  0
LINE
  5
155
100
AcDbEntity
  8
1
  6
CONTINUOUS
 62
           4
100
AcDbLine
 10
1068.000000000001
 20
4001.999999999999
 11
1068.000000000001
 21
3831.999999999999
  0
LINE
  5
154
100
AcDbEntity
  8
1
  6
CONTINUOUS
 62
           4
100
AcDbLine
 10
1055.000000000001
 20
3672.999999999999
 11
1125.000000000001
 21
3672.999999999999
  0
LINE
  5
153
100
AcDbEntity
  8
1
  6
CONTINUOUS
 62
           4
100
AcDbLine
 10
1125.000000000001
 20
3720.999999999999
 11
1055.000000000001
 21
3720.999999999999
  0
LINE
  5
152
100
AcDbEntity
  8
1
  6
CONTINUOUS
 62
           4
100
AcDbLine
 10
1125.000000000001
 20
3643.499999999999
 11
1140.000000000001
 21
3643.499999999999
  0
LINE
  5
151
100
AcDbEntity
  8
1
  6
CONTINUOUS
 62
           4
100
AcDbLine
 10
1140.000000000001
 20
3717.315060063388
 11
1140.000000000001
 21
3750.499999999999
  0
LINE
  5
150
100
AcDbEntity
  8
1
  6
CONTINUOUS
 62
           4
100
AcDbLine
 10
1125.000000000001
 20
3746.999999999999
 11
1055.000000000001
 21
3746.999999999999
  0
LINE
  5
14F
100
AcDbEntity
  8
1
  6
CONTINUOUS
 62
           4
100
AcDbLine
 10
1140.000000000001
 20
3676.68493993661
 11
1125.000000000001
 21
3676.68493993661
  0
LINE
  5
14E
100
AcDbEntity
  8
1
  6
CONTINUOUS
 62
           4
100
AcDbLine
 10
1125.000000000001
 20
3643.499999999999
 11
1125.000000000001
 21
3750.499999999999
  0
LINE
  5
14D
100
AcDbEntity
  8
1
  6
CONTINUOUS
 62
           4
100
AcDbLine
 10
1140.000000000001
 20
3717.315060063388
 11
1125.000000000001
 21
3717.315060063388
  0
LINE
  5
14C
100
AcDbEntity
  8
1
  6
CONTINUOUS
 62
           4
100
AcDbLine
 10
1055.000000000001
 20
3746.999999999999
 11
1055.000000000001
 21
3646.999999999999
  0
LINE
  5
14B
100
AcDbEntity
  8
1
  6
CONTINUOUS
 62
           4
100
AcDbLine
 10
1055.000000000001
 20
3646.999999999999
 11
1125.000000000001
 21
3646.999999999999
  0
LINE
  5
14A
100
AcDbEntity
  8
1
  6
CONTINUOUS
 62
           4
100
AcDbLine
 10
1140.000000000001
 20
3643.499999999999
 11
1140.000000000001
 21
3676.68493993661
  0
LINE
  5
149
100
AcDbEntity
  8
1
  6
CONTINUOUS
 62
           4
100
AcDbLine
 10
1140.000000000001
 20
3750.499999999999
 11
1125.000000000001
 21
3750.499999999999
  0
LINE
  5
148
100
AcDbEntity
  8
1
  6
CONTINUOUS
 62
           4
100
AcDbLine
 10
1140.000000000001
 20
3656.999999999999
 11
1170.000000000001
 21
3656.999999999999
  0
LINE
  5
147
100
AcDbEntity
  8
1
  6
CONTINUOUS
 62
           4
100
AcDbLine
 10
1170.000000000001
 20
3656.999999999999
 11
1170.000000000001
 21
3736.999999999999
  0
LINE
  5
146
100
AcDbEntity
  8
1
  6
CONTINUOUS
 62
           4
100
AcDbLine
 10
1170.000000000001
 20
3736.999999999999
 11
1140.000000000001
 21
3736.999999999999
  0
LINE
  5
145
100
AcDbEntity
  8
1
  6
CONTINUOUS
 62
           4
100
AcDbLine
 10
1170.000000000001
 20
3666.999999999999
 11
1185.000000000001
 21
3666.999999999999
  0
LINE
  5
144
100
AcDbEntity
  8
1
  6
CONTINUOUS
 62
           4
100
AcDbLine
 10
1185.000000000001
 20
3666.999999999999
 11
1185.000000000001
 21
3711.999999999999
  0
LINE
  5
143
100
AcDbEntity
  8
1
  6
CONTINUOUS
 62
           4
100
AcDbLine
 10
1185.000000000001
 20
3711.999999999999
 11
1170.000000000001
 21
3711.999999999999
  0
LINE
  5
142
100
AcDbEntity
  8
1
  6
CONTINUOUS
 62
           4
100
AcDbLine
 10
1185.000000000001
 20
3706.999999999999
 11
1170.000000000001
 21
3706.999999999999
  0
LINE
  5
141
100
AcDbEntity
  8
1
  6
CONTINUOUS
 62
           4
100
AcDbLine
 10
1170.000000000001
 20
3686.999999999999
 11
1185.000000000001
 21
3686.999999999999
  0
LINE
  5
140
100
AcDbEntity
  8
1
  6
CONTINUOUS
 62
           4
100
AcDbLine
 10
1055.000000000001
 20
4111.999999999999
 11
1050.0
 21
4112.0
  0
LINE
  5
13F
100
AcDbEntity
  8
1
  6
CONTINUOUS
 62
           4
100
AcDbLine
 10
1055.000000000001
 20
3611.999999999999
 11
1055.000000000001
 21
4111.999999999999
  0
LINE
  5
13E
100
AcDbEntity
  8
1
  6
CONTINUOUS
 62
           4
100
AcDbLine
 10
1050.0
 20
3611.999999999999
 11
1055.000000000001
 21
3611.999999999999
  0
LINE
  5
13D
100
AcDbEntity
  8
1
  6
CONTINUOUS
 62
           4
100
AcDbLine
 10
1180.500000000001
 20
1515.0
 11
1180.500000000001
 21
1589.999999999989
  0
LINE
  5
13C
100
AcDbEntity
  8
1
  6
CONTINUOUS
 62
           4
100
AcDbLine
 10
1150.500000000001
 20
1540.0
 11
1150.500000000001
 21
1589.999999999989
  0
LINE
  5
13B
100
AcDbEntity
  8
1
  6
CONTINUOUS
 62
           4
100
AcDbLine
 10
1150.500000000001
 20
1409.999999999989
 11
1150.500000000001
 21
1460.0
  0
LINE
  5
13A
100
AcDbEntity
  8
1
  6
CONTINUOUS
 62
           4
100
AcDbLine
 10
1065.000000000001
 20
1588.145898033741
 11
1065.000000000001
 21
1573.536005645699
  0
LINE
  5
139
100
AcDbEntity
  8
1
  6
CONTINUOUS
 62
           4
100
AcDbLine
 10
1055.000000000001
 20
1593.145898033741
 11
1065.000000000001
 21
1588.145898033741
  0
LINE
  5
138
100
AcDbEntity
  8
1
  6
CONTINUOUS
 62
           4
100
AcDbLine
 10
1068.000000000001
 20
1430.0
 11
1068.000000000001
 21
1409.999999999989
  0
LINE
  5
137
100
AcDbEntity
  8
1
  6
CONTINUOUS
 62
           4
100
AcDbLine
 10
1058.000000000001
 20
1380.0
 11
1055.000000000001
 21
1380.0
  0
LINE
  5
136
100
AcDbEntity
  8
1
  6
CONTINUOUS
 62
           4
100
AcDbLine
 10
1058.000000000001
 20
1405.0
 11
1058.000000000001
 21
1380.0
  0
LINE
  5
135
100
AcDbEntity
  8
1
  6
CONTINUOUS
 62
           4
100
AcDbLine
 10
1068.000000000001
 20
1410.0
 11
1058.000000000001
 21
1405.0
  0
LINE
  5
134
100
AcDbEntity
  8
1
  6
CONTINUOUS
 62
           4
100
AcDbLine
 10
1065.000000000001
 20
1411.854101966248
 11
1055.000000000001
 21
1406.854101966248
  0
LINE
  5
133
100
AcDbEntity
  8
1
  6
CONTINUOUS
 62
           4
100
AcDbLine
 10
1065.000000000001
 20
1426.46399435429
 11
1065.000000000001
 21
1411.854101966248
  0
LINE
  5
132
100
AcDbEntity
  8
1
  6
CONTINUOUS
 62
           4
100
AcDbLine
 10
1058.000000000001
 20
1594.999999999989
 11
1068.000000000001
 21
1589.999999999989
  0
LINE
  5
131
100
AcDbEntity
  8
1
  6
CONTINUOUS
 62
           4
100
AcDbLine
 10
1058.000000000001
 20
1619.999999999989
 11
1058.000000000001
 21
1594.999999999989
  0
LINE
  5
130
100
AcDbEntity
  8
1
  6
CONTINUOUS
 62
           4
100
AcDbLine
 10
1055.000000000001
 20
1619.999999999989
 11
1058.000000000001
 21
1619.999999999989
  0
LINE
  5
12F
100
AcDbEntity
  8
1
  6
CONTINUOUS
 62
           4
100
AcDbLine
 10
1280.000000000001
 20
1487.499999999989
 11
1263.000000000001
 21
1487.499999999989
  0
LINE
  5
12E
100
AcDbEntity
  8
1
  6
CONTINUOUS
 62
           4
100
AcDbLine
 10
1280.000000000001
 20
1462.499999999989
 11
1280.000000000001
 21
1487.499999999989
  0
LINE
  5
12D
100
AcDbEntity
  8
1
  6
CONTINUOUS
 62
           4
100
AcDbLine
 10
1263.000000000001
 20
1462.499999999989
 11
1280.000000000001
 21
1462.499999999989
  0
LINE
  5
12C
100
AcDbEntity
  8
1
  6
CONTINUOUS
 62
           4
100
AcDbLine
 10
1263.000000000001
 20
1409.999999999989
 11
1068.000000000001
 21
1409.999999999989
  0
LINE
  5
12B
100
AcDbEntity
  8
1
  6
CONTINUOUS
 62
           4
100
AcDbLine
 10
1263.000000000001
 20
1589.999999999989
 11
1068.000000000001
 21
1589.999999999989
  0
LINE
  5
12A
100
AcDbEntity
  8
1
  6
CONTINUOUS
 62
           4
100
AcDbLine
 10
1180.500000000001
 20
1409.999999999989
 11
1180.500000000001
 21
1470.0
  0
LINE
  5
129
100
AcDbEntity
  8
1
  6
CONTINUOUS
 62
           4
100
AcDbLine
 10
1263.000000000001
 20
1427.499999999989
 11
1280.000000000001
 21
1427.499999999989
  0
LINE
  5
128
100
AcDbEntity
  8
1
  6
CONTINUOUS
 62
           4
100
AcDbLine
 10
1280.000000000001
 20
1427.499999999989
 11
1280.000000000001
 21
1452.499999999989
  0
LINE
  5
127
100
AcDbEntity
  8
1
  6
CONTINUOUS
 62
           4
100
AcDbLine
 10
1280.000000000001
 20
1452.499999999989
 11
1263.000000000001
 21
1452.499999999989
  0
LINE
  5
126
100
AcDbEntity
  8
1
  6
CONTINUOUS
 62
           4
100
AcDbLine
 10
1068.000000000001
 20
1589.999999999989
 11
1068.000000000001
 21
1570.0
  0
LINE
  5
125
100
AcDbEntity
  8
1
  6
CONTINUOUS
 62
           4
100
AcDbLine
 10
1263.000000000001
 20
1409.999999999989
 11
1263.000000000001
 21
1589.999999999989
  0
LINE
  5
124
100
AcDbEntity
  8
1
  6
CONTINUOUS
 62
           4
100
AcDbLine
 10
1103.000000000001
 20
1450.0
 11
1103.000000000001
 21
1430.0
  0
LINE
  5
123
100
AcDbEntity
  8
1
  6
CONTINUOUS
 62
           4
100
AcDbLine
 10
1103.000000000001
 20
1430.0
 11
1055.000000000001
 21
1430.0
  0
LINE
  5
122
100
AcDbEntity
  8
1
  6
CONTINUOUS
 62
           4
100
AcDbLine
 10
1103.000000000001
 20
1550.0
 11
1103.000000000001
 21
1570.0
  0
LINE
  5
121
100
AcDbEntity
  8
1
  6
CONTINUOUS
 62
           4
100
AcDbLine
 10
1103.000000000001
 20
1570.0
 11
1055.000000000001
 21
1570.0
  0
LINE
  5
120
100
AcDbEntity
  8
1
  6
CONTINUOUS
 62
           4
100
AcDbLine
 10
1065.000000000001
 20
1570.0
 11
1065.000000000001
 21
1430.0
  0
LINE
  5
11F
100
AcDbEntity
  8
1
  6
CONTINUOUS
 62
           4
100
AcDbLine
 10
1170.000000000001
 20
1490.0
 11
1185.000000000001
 21
1490.0
  0
LINE
  5
11E
100
AcDbEntity
  8
1
  6
CONTINUOUS
 62
           4
100
AcDbLine
 10
1185.000000000001
 20
1510.0
 11
1170.000000000001
 21
1510.0
  0
LINE
  5
11D
100
AcDbEntity
  8
1
  6
CONTINUOUS
 62
           4
100
AcDbLine
 10
1185.000000000001
 20
1515.0
 11
1170.000000000001
 21
1515.0
  0
LINE
  5
11C
100
AcDbEntity
  8
1
  6
CONTINUOUS
 62
           4
100
AcDbLine
 10
1185.000000000001
 20
1470.0
 11
1185.000000000001
 21
1515.0
  0
LINE
  5
11B
100
AcDbEntity
  8
1
  6
CONTINUOUS
 62
           4
100
AcDbLine
 10
1170.000000000001
 20
1470.0
 11
1185.000000000001
 21
1470.0
  0
LINE
  5
11A
100
AcDbEntity
  8
1
  6
CONTINUOUS
 62
           4
100
AcDbLine
 10
1140.000000000001
 20
1460.0
 11
1170.000000000001
 21
1460.0
  0
LINE
  5
119
100
AcDbEntity
  8
1
  6
CONTINUOUS
 62
           4
100
AcDbLine
 10
1170.000000000001
 20
1460.0
 11
1170.000000000001
 21
1540.0
  0
LINE
  5
118
100
AcDbEntity
  8
1
  6
CONTINUOUS
 62
           4
100
AcDbLine
 10
1170.000000000001
 20
1540.0
 11
1140.000000000001
 21
1540.0
  0
LINE
  5
117
100
AcDbEntity
  8
1
  6
CONTINUOUS
 62
           4
100
AcDbLine
 10
1125.000000000001
 20
1446.5
 11
1140.000000000001
 21
1446.5
  0
LINE
  5
116
100
AcDbEntity
  8
1
  6
CONTINUOUS
 62
           4
100
AcDbLine
 10
1140.000000000001
 20
1520.3150600634
 11
1140.000000000001
 21
1553.5
  0
LINE
  5
115
100
AcDbEntity
  8
1
  6
CONTINUOUS
 62
           4
100
AcDbLine
 10
1125.000000000001
 20
1550.0
 11
1065.000000000001
 21
1550.0
  0
LINE
  5
114
100
AcDbEntity
  8
1
  6
CONTINUOUS
 62
           4
100
AcDbLine
 10
1055.000000000001
 20
1570.0
 11
1055.000000000001
 21
1430.0
  0
LINE
  5
113
100
AcDbEntity
  8
1
  6
CONTINUOUS
 62
           4
100
AcDbLine
 10
1125.000000000001
 20
1479.684939936611
 11
1140.000000000001
 21
1479.684939936611
  0
LINE
  5
112
100
AcDbEntity
  8
1
  6
CONTINUOUS
 62
           4
100
AcDbLine
 10
1125.000000000001
 20
1446.5
 11
1125.000000000001
 21
1553.5
  0
LINE
  5
111
100
AcDbEntity
  8
1
  6
CONTINUOUS
 62
           4
100
AcDbLine
 10
1125.000000000001
 20
1520.3150600634
 11
1140.000000000001
 21
1520.3150600634
  0
LINE
  5
110
100
AcDbEntity
  8
1
  6
CONTINUOUS
 62
           4
100
AcDbLine
 10
1065.000000000001
 20
1450.0
 11
1125.000000000001
 21
1450.0
  0
LINE
  5
10F
100
AcDbEntity
  8
1
  6
CONTINUOUS
 62
           4
100
AcDbLine
 10
1140.000000000001
 20
1446.5
 11
1140.000000000001
 21
1479.684939936611
  0
LINE
  5
10E
100
AcDbEntity
  8
1
  6
CONTINUOUS
 62
           4
100
AcDbLine
 10
1140.000000000001
 20
1553.5
 11
1125.000000000001
 21
1553.5
  0
LINE
  5
10D
100
AcDbEntity
  8
1
  6
CONTINUOUS
 62
           4
100
AcDbLine
 10
1065.000000000001
 20
1476.0
 11
1125.000000000001
 21
1476.0
  0
LINE
  5
10C
100
AcDbEntity
  8
1
  6
CONTINUOUS
 62
           4
100
AcDbLine
 10
1125.000000000001
 20
1524.0
 11
1065.000000000001
 21
1524.0
  0
LINE
  5
10B
100
AcDbEntity
  8
1
  6
CONTINUOUS
 62
           4
100
AcDbLine
 10
1055.000000000001
 20
1330.0
 11
1050.000000000001
 21
1330.0
  0
LINE
  5
10A
100
AcDbEntity
  8
1
  6
CONTINUOUS
 62
           4
100
AcDbLine
 10
1050.000000000001
 20
1670.000000000011
 11
1055.000000000001
 21
1670.000000000011
  0
LINE
  5
109
100
AcDbEntity
  8
1
  6
CONTINUOUS
 62
           4
100
AcDbLine
 10
1055.000000000001
 20
1670.000000000011
 11
1055.000000000001
 21
1330.0
  0
LINE
  5
108
100
AcDbEntity
  8
1
  6
CONTINUOUS
 62
           2
100
AcDbLine
 10
1166.000000000001
 20
1355.249999999978
 11
1166.000000000001
 21
1364.499999999978
  0
LINE
  5
107
100
AcDbEntity
  8
1
  6
CONTINUOUS
 62
           2
100
AcDbLine
 10
1166.000000000001
 20
1294.749999999978
 11
1166.000000000001
 21
1290.499999999978
  0
LINE
  5
106
100
AcDbEntity
  8
1
  6
CONTINUOUS
 62
           2
100
AcDbLine
 10
1166.000000000001
 20
1294.749999999978
 11
1166.000000000001
 21
1355.249999999978
  0
LINE
  5
105
100
AcDbEntity
  8
1
  6
CONTINUOUS
 62
           2
100
AcDbLine
 10
1093.000000000001
 20
1355.249999999978
 11
1093.000000000001
 21
1389.999999999978
  0
LINE
  5
104
100
AcDbEntity
  8
1
  6
CONTINUOUS
 62
           2
100
AcDbLine
 10
1093.000000000001
 20
1294.749999999978
 11
1093.000000000001
 21
1264.999999999978
  0
LINE
  5
103
100
AcDbEntity
  8
1
  6
CONTINUOUS
 62
           2
100
AcDbLine
 10
1149.000000000001
 20
1294.749999999978
 11
1149.000000000001
 21
1282.499999999978
  0
LINE
  5
102
100
AcDbEntity
  8
1
  6
CONTINUOUS
 62
           2
100
AcDbLine
 10
1149.000000000001
 20
1355.249999999978
 11
1149.000000000001
 21
1372.499999999978
  0
LINE
  5
101
100
AcDbEntity
  8
1
  6
CONTINUOUS
 62
           2
100
AcDbLine
 10
1149.000000000001
 20
1355.249999999978
 11
1149.000000000001
 21
1294.749999999978
  0
LINE
  5
100
100
AcDbEntity
  8
1
  6
CONTINUOUS
 62
           2
100
AcDbLine
 10
1093.000000000001
 20
1355.249999999978
 11
1093.000000000001
 21
1294.749999999978
  0
LINE
  5
FF
100
AcDbEntity
  8
1
  6
CONTINUOUS
 62
           2
100
AcDbLine
 10
1123.000000000001
 20
1389.999999999978
 11
1123.000000000001
 21
1409.999999999978
  0
LINE
  5
FE
100
AcDbEntity
  8
1
  6
CONTINUOUS
 62
           2
100
AcDbLine
 10
1103.000000000001
 20
1389.999999999978
 11
1103.000000000001
 21
1409.999999999978
  0
LINE
  5
FD
100
AcDbEntity
  8
1
  6
CONTINUOUS
 62
           2
100
AcDbLine
 10
1093.000000000001
 20
1342.499999999978
 11
1126.000000000001
 21
1342.499999999978
  0
LINE
  5
FC
100
AcDbEntity
  8
1
  6
CONTINUOUS
 62
           2
100
AcDbLine
 10
1093.000000000001
 20
1312.499999999978
 11
1126.000000000001
 21
1312.499999999978
  0
LINE
  5
FB
100
AcDbEntity
  8
1
  6
CONTINUOUS
 62
           2
100
AcDbLine
 10
1141.000000000001
 20
1372.499999999978
 11
1158.000000000001
 21
1372.499999999978
  0
LINE
  5
FA
100
AcDbEntity
  8
1
  6
CONTINUOUS
 62
           2
100
AcDbLine
 10
1141.000000000001
 20
1282.499999999978
 11
1158.000000000001
 21
1282.499999999978
  0
LINE
  5
F9
100
AcDbEntity
  8
1
  6
CONTINUOUS
 62
           2
100
AcDbLine
 10
1093.000000000001
 20
1264.999999999978
 11
1141.000000000001
 21
1264.999999999978
  0
LINE
  5
F8
100
AcDbEntity
  8
1
  6
CONTINUOUS
 62
           2
100
AcDbLine
 10
1141.000000000001
 20
1264.999999999978
 11
1141.000000000001
 21
1282.499999999978
  0
LINE
  5
F7
100
AcDbEntity
  8
1
  6
CONTINUOUS
 62
           2
100
AcDbLine
 10
1093.000000000001
 20
1389.999999999978
 11
1141.000000000001
 21
1389.999999999978
  0
LINE
  5
F6
100
AcDbEntity
  8
1
  6
CONTINUOUS
 62
           2
100
AcDbLine
 10
1141.000000000001
 20
1389.999999999978
 11
1141.000000000001
 21
1372.499999999978
  0
LINE
  5
F5
100
AcDbEntity
  8
1
  6
CONTINUOUS
 62
           2
100
AcDbLine
 10
1125.683280999351
 20
1289.999999999978
 11
1093.000000000001
 21
1289.999999999978
  0
LINE
  5
F4
100
AcDbEntity
  8
1
  6
CONTINUOUS
 62
           2
100
AcDbLine
 10
1125.683280999351
 20
1364.999999999978
 11
1093.000000000001
 21
1364.999999999978
  0
LINE
  5
F3
100
AcDbEntity
  8
1
  6
CONTINUOUS
 62
           4
100
AcDbLine
 10
3512.500000000001
 20
1589.999999999989
 11
3512.500000000001
 21
1619.999999999989
  0
LINE
  5
F2
100
AcDbEntity
  8
1
  6
CONTINUOUS
 62
           4
100
AcDbLine
 10
3512.500000000001
 20
1619.999999999989
 11
3492.500000000001
 21
1619.999999999989
  0
LINE
  5
F1
100
AcDbEntity
  8
1
  6
CONTINUOUS
 62
           4
100
AcDbLine
 10
3492.500000000001
 20
1619.999999999989
 11
3492.500000000001
 21
1589.999999999989
  0
LINE
  5
F0
100
AcDbEntity
  8
1
  6
CONTINUOUS
 62
           4
100
AcDbLine
 10
3617.500000000001
 20
1589.999999999989
 11
3617.500000000001
 21
1619.999999999989
  0
LINE
  5
EF
100
AcDbEntity
  8
1
  6
CONTINUOUS
 62
           4
100
AcDbLine
 10
3597.500000000001
 20
1619.999999999989
 11
3597.500000000001
 21
1589.999999999989
  0
LINE
  5
EE
100
AcDbEntity
  8
1
  6
CONTINUOUS
 62
           4
100
AcDbLine
 10
3617.500000000001
 20
1619.999999999989
 11
3597.500000000001
 21
1619.999999999989
  0
LINE
  5
ED
100
AcDbEntity
  8
1
  6
CONTINUOUS
 62
           4
100
AcDbLine
 10
3492.500000000001
 20
1409.999999999989
 11
3492.500000000001
 21
1379.999999999989
  0
LINE
  5
EC
100
AcDbEntity
  8
1
  6
CONTINUOUS
 62
           4
100
AcDbLine
 10
3492.500000000001
 20
1379.999999999989
 11
3498.904554286894
 21
1379.999999999989
  0
LINE
  5
EB
100
AcDbEntity
  8
1
  6
CONTINUOUS
 62
           4
100
AcDbLine
 10
3617.500000000001
 20
1379.999999999989
 11
3617.500000000001
 21
1409.999999999989
  0
LINE
  5
EA
100
AcDbEntity
  8
1
  6
CONTINUOUS
 62
           4
100
AcDbLine
 10
3597.500000000001
 20
1379.999999999989
 11
3617.500000000001
 21
1379.999999999989
  0
LINE
  5
E9
100
AcDbEntity
  8
1
  6
CONTINUOUS
 62
           4
100
AcDbLine
 10
3597.500000000001
 20
1409.999999999989
 11
3597.500000000001
 21
1379.999999999989
  0
LINE
  5
E8
100
AcDbEntity
  8
1
  6
CONTINUOUS
 62
           4
100
AcDbLine
 10
3455.000000000001
 20
1454.999999999989
 11
3470.000000000001
 21
1454.999999999989
  0
LINE
  5
E7
100
AcDbEntity
  8
1
  6
CONTINUOUS
 62
           4
100
AcDbLine
 10
3455.000000000001
 20
1469.999999999989
 11
3455.000000000001
 21
1454.999999999989
  0
LINE
  5
E6
100
AcDbEntity
  8
1
  6
CONTINUOUS
 62
           4
100
AcDbLine
 10
3470.000000000001
 20
1469.999999999989
 11
3455.000000000001
 21
1469.999999999989
  0
LINE
  5
E5
100
AcDbEntity
  8
1
  6
CONTINUOUS
 62
           4
100
AcDbLine
 10
3455.000000000001
 20
1529.999999999989
 11
3470.000000000001
 21
1529.999999999989
  0
LINE
  5
E4
100
AcDbEntity
  8
1
  6
CONTINUOUS
 62
           4
100
AcDbLine
 10
3455.000000000001
 20
1544.999999999989
 11
3455.000000000001
 21
1529.999999999989
  0
LINE
  5
E3
100
AcDbEntity
  8
1
  6
CONTINUOUS
 62
           4
100
AcDbLine
 10
3470.000000000001
 20
1544.999999999989
 11
3455.000000000001
 21
1544.999999999989
  0
LINE
  5
E2
100
AcDbEntity
  8
1
  6
CONTINUOUS
 62
           4
100
AcDbLine
 10
3640.000000000001
 20
1589.999999999989
 11
3640.000000000001
 21
1409.999999999989
  0
LINE
  5
E1
100
AcDbEntity
  8
1
  6
CONTINUOUS
 62
           4
100
AcDbLine
 10
3640.000000000001
 20
1409.999999999989
 11
3470.000000000001
 21
1409.999999999989
  0
LINE
  5
E0
100
AcDbEntity
  8
1
  6
CONTINUOUS
 62
           4
100
AcDbLine
 10
3470.000000000001
 20
1409.999999999989
 11
3470.000000000001
 21
1589.999999999989
  0
LINE
  5
DF
100
AcDbEntity
  8
1
  6
CONTINUOUS
 62
           4
100
AcDbLine
 10
3470.000000000001
 20
1589.999999999989
 11
3640.000000000001
 21
1589.999999999989
  0
LINE
  5
DE
100
AcDbEntity
  8
1
  6
CONTINUOUS
 62
           4
100
AcDbLine
 10
3315.000000000001
 20
1570.0
 11
3315.000000000001
 21
1545.825756949558
  0
LINE
  5
DD
100
AcDbEntity
  8
1
  6
CONTINUOUS
 62
           4
100
AcDbLine
 10
3355.000000000001
 20
1454.174243050449
 11
3355.000000000001
 21
1430.0
  0
LINE
  5
DC
100
AcDbEntity
  8
1
  6
CONTINUOUS
 62
           4
100
AcDbLine
 10
3375.000000000001
 20
1430.0
 11
3375.000000000001
 21
1447.132503002398
  0
LINE
  5
DB
100
AcDbEntity
  8
1
  6
CONTINUOUS
 62
           4
100
AcDbLine
 10
3315.000000000001
 20
1430.0
 11
3375.000000000001
 21
1430.0
  0
LINE
  5
DA
100
AcDbEntity
  8
1
  6
CONTINUOUS
 62
           4
100
AcDbLine
 10
3315.000000000001
 20
1454.174243050449
 11
3315.000000000001
 21
1430.0
  0
LINE
  5
D9
100
AcDbEntity
  8
1
  6
CONTINUOUS
 62
           4
100
AcDbLine
 10
3355.000000000001
 20
1570.0
 11
3355.000000000001
 21
1545.825756949558
  0
LINE
  5
D8
100
AcDbEntity
  8
1
  6
CONTINUOUS
 62
           4
100
AcDbLine
 10
3295.000000000001
 20
1570.0
 11
3355.000000000001
 21
1570.0
  0
LINE
  5
D7
100
AcDbEntity
  8
1
  6
CONTINUOUS
 62
           4
100
AcDbLine
 10
3300.542804312876
 20
1479.684939936611
 11
3284.428932188136
 21
1463.57106781187
  0
LINE
  5
D6
100
AcDbEntity
  8
1
  6
CONTINUOUS
 62
           4
100
AcDbLine
 10
3298.571067811865
 20
1449.428932188141
 11
3314.684939936608
 21
1465.542804312881
  0
LINE
  5
D5
100
AcDbEntity
  8
1
  6
CONTINUOUS
 62
           4
100
AcDbLine
 10
3355.315060063394
 20
1465.542804312881
 11
3371.428932188136
 21
1449.428932188141
  0
LINE
  5
D4
100
AcDbEntity
  8
1
  6
CONTINUOUS
 62
           4
100
AcDbLine
 10
3369.457195687125
 20
1520.3150600634
 11
3385.571067811865
 21
1536.428932188141
  0
LINE
  5
D3
100
AcDbEntity
  8
1
  6
CONTINUOUS
 62
           4
100
AcDbLine
 10
3314.684939936608
 20
1534.457195687119
 11
3298.571067811865
 21
1550.57106781187
  0
LINE
  5
D2
100
AcDbEntity
  8
1
  6
CONTINUOUS
 62
           4
100
AcDbLine
 10
3385.571067811865
 20
1463.57106781187
 11
3369.457195687125
 21
1479.684939936611
  0
LINE
  5
D1
100
AcDbEntity
  8
1
  6
CONTINUOUS
 62
           4
100
AcDbLine
 10
3371.428932188136
 20
1550.57106781187
 11
3355.315060063394
 21
1534.457195687119
  0
LINE
  5
D0
100
AcDbEntity
  8
1
  6
CONTINUOUS
 62
           4
100
AcDbLine
 10
3284.428932188136
 20
1536.428932188141
 11
3300.542804312876
 21
1520.3150600634
  0
LINE
  5
CF
100
AcDbEntity
  8
1
  6
CONTINUOUS
 62
           4
100
AcDbLine
 10
3295.000000000001
 20
1552.867496997598
 11
3295.000000000001
 21
1570.0
  0
LINE
  5
CE
100
AcDbEntity
  8
1
  6
CONTINUOUS
 62
           4
100
AcDbLine
 10
3344.659258262891
 20
1497.411809548979
 11
3366.597964306739
 21
1475.47310350513
  0
LINE
  5
CD
100
AcDbEntity
  8
1
  6
CONTINUOUS
 62
           4
100
AcDbLine
 10
3337.588190451026
 20
1490.340741737109
 11
3359.526896494872
 21
1468.402035693271
  0
LINE
  5
CC
100
AcDbEntity
  8
1
  6
CONTINUOUS
 62
           4
100
AcDbLine
 10
3325.340741737111
 20
1502.588190451021
 11
3320.85786437627
 21
1514.14213562373
  0
LINE
  5
CB
100
AcDbEntity
  8
1
  6
CONTINUOUS
 62
           4
100
AcDbLine
 10
3332.411809548977
 20
1509.659258262891
 11
3320.85786437627
 21
1514.14213562373
  0
LINE
  5
CA
100
AcDbEntity
  8
1
  6
CONTINUOUS
 62
           2
100
AcDbLine
 10
3452.499999999999
 20
1342.499999999989
 11
3472.573593128806
 21
1342.499999999989
  0
LINE
  5
C9
100
AcDbEntity
  8
1
  6
CONTINUOUS
 62
           2
100
AcDbLine
 10
3452.314185654645
 20
1312.499999999989
 11
3452.314185654645
 21
1342.499999999989
  0
LINE
  5
C8
100
AcDbEntity
  8
1
  6
CONTINUOUS
 62
           2
100
AcDbLine
 10
3525.000000000001
 20
1389.999999999989
 11
3525.000000000001
 21
1409.999999999989
  0
LINE
  5
C7
100
AcDbEntity
  8
1
  6
CONTINUOUS
 62
           2
100
AcDbLine
 10
3505.000000000001
 20
1389.999999999989
 11
3505.000000000001
 21
1409.999999999989
  0
LINE
  5
C6
100
AcDbEntity
  8
1
  6
CONTINUOUS
 62
           2
100
AcDbLine
 10
3472.573593128806
 20
1312.499999999989
 11
3452.499999999999
 21
1312.499999999989
  0
LINE
  5
C5
100
AcDbEntity
  8
1
  6
CONTINUOUS
 62
           2
100
AcDbLine
 10
3500.000000000001
 20
1369.926406871189
 11
3500.000000000001
 21
1389.999999999989
  0
LINE
  5
C4
100
AcDbEntity
  8
1
  6
CONTINUOUS
 62
           2
100
AcDbLine
 10
3500.000000000001
 20
1389.999999999989
 11
3530.000000000001
 21
1389.999999999989
  0
LINE
  5
C3
100
AcDbEntity
  8
1
  6
CONTINUOUS
 62
           2
100
AcDbLine
 10
3530.000000000001
 20
1389.999999999989
 11
3530.000000000001
 21
1369.926406871189
  0
LINE
  5
C2
100
AcDbEntity
  8
1
  6
CONTINUOUS
 62
           2
100
AcDbLine
 10
3530.000000000001
 20
1264.999999999989
 11
3500.000000000001
 21
1264.999999999989
  0
LINE
  5
C1
100
AcDbEntity
  8
1
  6
CONTINUOUS
 62
           2
100
AcDbLine
 10
3530.000000000001
 20
1285.073593128811
 11
3530.000000000001
 21
1264.999999999989
  0
LINE
  5
C0
100
AcDbEntity
  8
1
  6
CONTINUOUS
 62
           2
100
AcDbLine
 10
3500.000000000001
 20
1264.999999999989
 11
3500.000000000001
 21
1285.073593128811
  0
LINE
  5
BF
100
AcDbEntity
  8
1
  6
CONTINUOUS
 62
           7
100
AcDbLine
 10
3250.000000000001
 20
1329.999999999989
 11
3339.288577918023
 21
1329.999999999989
  0
LINE
  5
BE
100
AcDbEntity
  8
1
  6
CONTINUOUS
 62
           7
100
AcDbLine
 10
3250.000000000001
 20
1669.999999999989
 11
3750.000000000001
 21
1669.999999999989
  0
LINE
  5
BD
100
AcDbEntity
  8
1
  6
CONTINUOUS
 62
           4
100
AcDbLine
 10
3345.000000000001
 20
1430.0
 11
3325.000000000001
 21
1430.0
  0
LINE
  5
BC
100
AcDbEntity
  8
1
  6
CONTINUOUS
 62
           4
100
AcDbLine
 10
3325.000000000001
 20
1430.0
 11
3325.000000000001
 21
1367.499999999989
  0
LINE
  5
BB
100
AcDbEntity
  8
1
  6
CONTINUOUS
 62
           4
100
AcDbLine
 10
3375.000000000001
 20
1317.5
 11
3452.314185654645
 21
1317.499999999989
  0
LINE
  5
BA
100
AcDbEntity
  8
1
  6
CONTINUOUS
 62
           4
100
AcDbLine
 10
3452.314185654645
 20
1317.499999999989
 11
3452.314185654645
 21
1337.499999999989
  0
LINE
  5
B9
100
AcDbEntity
  8
1
  6
CONTINUOUS
 62
           4
100
AcDbLine
 10
3452.314185654645
 20
1337.499999999989
 11
3375.000000000001
 21
1337.499999999989
  0
LINE
  5
B8
100
AcDbEntity
  8
1
  6
CONTINUOUS
 62
           4
100
AcDbLine
 10
3345.000000000001
 20
1367.499999999989
 11
3345.000000000001
 21
1430.0
  0
LINE
  5
B7
100
AcDbEntity
  8
1
  6
CONTINUOUS
 62
           7
100
AcDbLine
 10
3564.223057556695
 20
1329.999999999989
 11
3750.000000000001
 21
1329.999999999989
  0
LINE
  5
B6
100
AcDbEntity
  8
1
  6
DOT_CENTER
 62
           2
100
AcDbLine
 10
5657.217205878088
 20
2385.0
 11
5724.790011717011
 21
2385.0
  0
LINE
  5
B5
100
AcDbEntity
  8
1
  6
CONTINUOUS
 62
           7
100
AcDbLine
 10
4250.000000000001
 20
2075.0
 11
5249.999999999999
 21
2075.0
  0
LINE
  5
B4
100
AcDbEntity
  8
1
  6
DOT_CENTER
 62
           2
100
AcDbLine
 10
4789.999999999999
 20
2022.300813483772
 11
4789.999999999999
 21
3060.16124361648
  0
LINE
  5
B3
100
AcDbEntity
  8
1
  6
CONTINUOUS
 62
           7
100
AcDbLine
 10
-1050.0
 20
3611.999999999999
 11
1050.0
 21
3611.999999999999
  0
LINE
  5
B2
100
AcDbEntity
  8
1
  6
CONTINUOUS
 62
           7
100
AcDbLine
 10
-1050.0
 20
5611.999999999999
 11
-1050.0
 21
3611.999999999999
  0
LINE
  5
B1
100
AcDbEntity
  8
1
  6
CONTINUOUS
 62
           2
100
AcDbLine
 10
-980.0
 20
4591.999999999999
 11
-980.0
 21
3631.999999999999
  0
LINE
  5
B0
100
AcDbEntity
  8
1
  6
CONTINUOUS
 62
           7
100
AcDbLine
 10
500.0
 20
4611.999999999999
 11
500.0
 21
5611.999999999999
  0
LINE
  5
AF
100
AcDbEntity
  8
1
  6
CONTINUOUS
 62
           2
100
AcDbLine
 10
520.0
 20
5591.999999999999
 11
520.0
 21
4631.999999999999
  0
LINE
  5
AE
100
AcDbEntity
  8
1
  6
CONTINUOUS
 62
           7
100
AcDbLine
 10
-500.0
 20
4611.999999999999
 11
-500.0
 21
4784.600454638258
  0
LINE
  5
AD
100
AcDbEntity
  8
1
  6
CONTINUOUS
 62
           2
100
AcDbLine
 10
-520.0
 20
4631.999999999999
 11
-520.0
 21
4812.45896980973
  0
LINE
  5
AC
100
AcDbEntity
  8
1
  6
CONTINUOUS
 62
           2
100
AcDbLine
 10
-980.0
 20
4631.999999999999
 11
-980.0
 21
5591.999999999999
  0
LINE
  5
AB
100
AcDbEntity
  8
1
  6
CONTINUOUS
 62
           7
100
AcDbLine
 10
1050.0
 20
5611.999999999999
 11
0.0
 21
5611.999999999999
  0
LINE
  5
AA
100
AcDbEntity
  8
1
  6
CONTINUOUS
 62
           7
100
AcDbLine
 10
1550.0
 20
0.0
 11
-1550.0
 21
0.0
  0
LINE
  5
A9
100
AcDbEntity
  8
1
  6
CONTINUOUS
 62
           7
100
AcDbLine
 10
1050.0
 20
2000.0
 11
-1050.0
 21
2000.0
  0
LINE
  5
A8
100
AcDbEntity
  8
1
  6
CONTINUOUS
 62
           2
100
AcDbLine
 10
-660.0
 20
5591.999999999999
 11
-980.0
 21
5591.999999999999
  0
LINE
  5
A7
100
AcDbEntity
  8
1
  6
CONTINUOUS
 62
           7
100
AcDbLine
 10
-1000.0
 20
0.0
 11
-1000.0
 21
2000.0
  0
LINE
  5
A6
100
AcDbEntity
  8
1
  6
CONTINUOUS
 62
           7
100
AcDbLine
 10
1000.0
 20
1900.0
 11
-1000.0
 21
1900.0
  0
LINE
  5
A5
100
AcDbEntity
  8
1
  6
CONTINUOUS
 62
           7
100
AcDbLine
 10
1000.0
 20
50.0
 11
-1000.0
 21
50.0
  0
LINE
  5
A4
100
AcDbEntity
  8
1
  6
CONTINUOUS
 62
           7
100
AcDbLine
 10
-1000.0
 20
400.0
 11
1000.0
 21
400.0
  0
LINE
  5
A3
100
AcDbEntity
  8
1
  6
CONTINUOUS
 62
           7
100
AcDbLine
 10
985.0
 20
540.0
 11
985.0
 21
475.000000000001
  0
LINE
  5
A2
100
AcDbEntity
  8
1
  6
CONTINUOUS
 62
           7
100
AcDbLine
 10
-1000.0
 20
800.0
 11
1000.0
 21
800.0
  0
LINE
  5
A1
100
AcDbEntity
  8
1
  6
CONTINUOUS
 62
           7
100
AcDbLine
 10
985.0
 20
500.0
 11
1000.0
 21
500.0
  0
LINE
  5
A0
100
AcDbEntity
  8
1
  6
CONTINUOUS
 62
           7
100
AcDbLine
 10
-1000.0
 20
500.0
 11
-985.0
 21
500.0
  0
LINE
  5
9F
100
AcDbEntity
  8
1
  6
CONTINUOUS
 62
           7
100
AcDbLine
 10
1050.0
 20
4611.999999999999
 11
127.928556845357
 21
4611.999999999999
  0
LINE
  5
9E
100
AcDbEntity
  8
1
  6
CONTINUOUS
 62
           7
100
AcDbLine
 10
985.0
 20
540.0
 11
-985.0
 21
540.0
  0
LINE
  5
9D
100
AcDbEntity
  8
1
  6
DOT_CENTER
 62
           2
100
AcDbLine
 10
0.0
 20
-75.734147716068
 11
0.0
 21
3006.543537887944
  0
LINE
  5
9C
100
AcDbEntity
  8
1
  6
DOT_CENTER
 62
           2
100
AcDbLine
 10
-760.87876835802
 20
5151.999999999999
 11
608.105197189406
 21
5151.999999999999
  0
LINE
  5
9B
100
AcDbEntity
  8
1
  6
CONTINUOUS
 62
           7
100
AcDbLine
 10
1050.0
 20
3611.999999999999
 11
1050.0
 21
5611.999999999999
  0
LINE
  5
9A
100
AcDbEntity
  8
1
  6
CONTINUOUS
 62
           2
100
AcDbLine
 10
980.0
 20
5591.999999999999
 11
980.0
 21
4631.999999999999
  0
LINE
  5
99
100
AcDbEntity
  8
1
  6
CONTINUOUS
 62
           2
100
AcDbLine
 10
980.0
 20
4591.999999999999
 11
980.0
 21
3631.999999999999
  0
LINE
  5
98
100
AcDbEntity
  8
1
  6
CONTINUOUS
 62
           7
100
AcDbLine
 10
-650.0
 20
5611.999999999999
 11
-1050.0
 21
5611.999999999999
  0
LINE
  5
97
100
AcDbEntity
  8
1
  6
CONTINUOUS
 62
           2
100
AcDbLine
 10
980.0
 20
4591.999999999999
 11
54.980390271853
 21
4591.999999999999
  0
LINE
  5
96
100
AcDbEntity
  8
1
  6
CONTINUOUS
 62
           2
100
AcDbLine
 10
-520.0
 20
4631.999999999999
 11
-980.0
 21
4631.999999999999
  0
LINE
  5
95
100
AcDbEntity
  8
1
  6
CONTINUOUS
 62
           2
100
AcDbLine
 10
-1004.0
 20
5611.999999999999
 11
-1004.0
 21
3631.999999999999
  0
LINE
  5
94
100
AcDbEntity
  8
1
  6
CONTINUOUS
 62
           2
100
AcDbLine
 10
1004.0
 20
5611.999999999999
 11
1004.0
 21
3631.999999999999
  0
LINE
  5
93
100
AcDbEntity
  8
1
  6
CONTINUOUS
 62
           2
100
AcDbLine
 10
980.0
 20
4631.999999999999
 11
520.0
 21
4631.999999999999
  0
LINE
  5
92
100
AcDbEntity
  8
1
  6
CONTINUOUS
 62
           2
100
AcDbLine
 10
980.0
 20
5591.999999999999
 11
520.0
 21
5591.999999999999
  0
LINE
  5
91
100
AcDbEntity
  8
1
  6
CONTINUOUS
 62
           7
100
AcDbLine
 10
-1050.0
 20
2150.0
 11
-1050.0
 21
0.0
  0
LINE
  5
90
100
AcDbEntity
  8
1
  6
CONTINUOUS
 62
           7
100
AcDbLine
 10
1050.0
 20
2150.0
 11
1050.0
 21
0.0
  0
LINE
  5
8F
100
AcDbEntity
  8
1
  6
CONTINUOUS
 62
           7
100
AcDbLine
 10
-1050.0
 20
3631.999999999999
 11
1055.000000000001
 21
3631.999999999999
  0
LINE
  5
8E
100
AcDbEntity
  8
1
  6
DOT_CENTER
 62
           2
100
AcDbLine
 10
-680.912924024838
 20
3861.999999999999
 11
704.924669896944
 21
3861.999999999999
  0
LINE
  5
8D
100
AcDbEntity
  8
1
  6
CONTINUOUS
 62
           7
100
AcDbLine
 10
-465.0
 20
3904.426406871192
 11
-465.0
 21
3924.499999999999
  0
LINE
  5
8C
100
AcDbEntity
  8
1
  6
CONTINUOUS
 62
           7
100
AcDbLine
 10
-465.0
 20
3924.499999999999
 11
-435.0
 21
3924.499999999999
  0
LINE
  5
8B
100
AcDbEntity
  8
1
  6
CONTINUOUS
 62
           7
100
AcDbLine
 10
-435.0
 20
3924.499999999999
 11
-435.0
 21
3904.426406871192
  0
LINE
  5
8A
100
AcDbEntity
  8
1
  6
CONTINUOUS
 62
           7
100
AcDbLine
 10
-492.426406871193
 20
3846.999999999999
 11
-512.5
 21
3846.999999999999
  0
LINE
  5
89
100
AcDbEntity
  8
1
  6
CONTINUOUS
 62
           7
100
AcDbLine
 10
-435.0
 20
3819.573593128807
 11
-435.0
 21
3799.499999999999
  0
LINE
  5
88
100
AcDbEntity
  8
1
  6
CONTINUOUS
 62
           7
100
AcDbLine
 10
-407.573593128808
 20
3876.999999999999
 11
-387.500000000001
 21
3876.999999999999
  0
LINE
  5
87
100
AcDbEntity
  8
1
  6
CONTINUOUS
 62
           7
100
AcDbLine
 10
-512.5
 20
3846.999999999999
 11
-512.5
 21
3876.999999999999
  0
LINE
  5
86
100
AcDbEntity
  8
1
  6
CONTINUOUS
 62
           7
100
AcDbLine
 10
-435.0
 20
3799.499999999999
 11
-465.0
 21
3799.499999999999
  0
LINE
  5
85
100
AcDbEntity
  8
1
  6
CONTINUOUS
 62
           7
100
AcDbLine
 10
-387.500000000001
 20
3876.999999999999
 11
-387.500000000001
 21
3846.999999999999
  0
LINE
  5
84
100
AcDbEntity
  8
1
  6
CONTINUOUS
 62
           7
100
AcDbLine
 10
-512.5
 20
3876.999999999999
 11
-492.426406871193
 21
3876.999999999999
  0
LINE
  5
83
100
AcDbEntity
  8
1
  6
CONTINUOUS
 62
           7
100
AcDbLine
 10
-465.0
 20
3799.499999999999
 11
-465.0
 21
3819.573593128807
  0
LINE
  5
82
100
AcDbEntity
  8
1
  6
CONTINUOUS
 62
           7
100
AcDbLine
 10
-387.500000000001
 20
3846.999999999999
 11
-407.573593128808
 21
3846.999999999999
  0
LINE
  5
81
100
AcDbEntity
  8
1
  6
CONTINUOUS
 62
           7
100
AcDbLine
 10
-1000.0
 20
475.000000000001
 11
1000.0
 21
475.000000000001
  0
LINE
  5
80
100
AcDbEntity
  8
1
  6
CONTINUOUS
 62
           7
100
AcDbLine
 10
-985.0
 20
475.000000000001
 11
-985.0
 21
540.0
  0
LINE
  5
7F
100
AcDbEntity
  8
1
  6
CONTINUOUS
 62
           7
100
AcDbLine
 10
-228.415448489472
 20
4611.999999999999
 11
-1050.0
 21
4611.999999999999
  0
LINE
  5
7E
100
AcDbEntity
  8
1
  6
CONTINUOUS
 62
           7
100
AcDbLine
 10
3490.000000000001
 20
1862.0
 11
3490.000000000001
 21
1950.0
  0
LINE
  5
7D
100
AcDbEntity
  8
1
  6
CONTINUOUS
 62
           7
100
AcDbLine
 10
3300.000000000001
 20
1862.0
 11
3490.000000000001
 21
1862.0
  0
LINE
  5
7C
100
AcDbEntity
  8
1
  6
CONTINUOUS
 62
           7
100
AcDbLine
 10
3300.000000000001
 20
1950.0
 11
3300.000000000001
 21
1862.0
  0
LINE
  5
7B
100
AcDbEntity
  8
1
  6
CONTINUOUS
 62
           7
100
AcDbLine
 10
3490.000000000001
 20
1950.0
 11
3300.000000000001
 21
1950.0
  0
LINE
  5
7A
100
AcDbEntity
  8
1
  6
CONTINUOUS
 62
           7
100
AcDbLine
 10
3980.000000000001
 20
1330.0
 11
3800.000000000001
 21
1330.0
  0
LINE
  5
79
100
AcDbEntity
  8
1
  6
CONTINUOUS
 62
           7
100
AcDbLine
 10
3800.000000000001
 20
1570.0
 11
3980.000000000001
 21
1570.0
  0
LINE
  5
78
100
AcDbEntity
  8
1
  6
CONTINUOUS
 62
           7
100
AcDbLine
 10
3800.000000000001
 20
1330.0
 11
3800.000000000001
 21
1570.0
  0
LINE
  5
77
100
AcDbEntity
  8
1
  6
CONTINUOUS
 62
           7
100
AcDbLine
 10
3980.000000000001
 20
1570.0
 11
3980.000000000001
 21
1330.0
  0
LINE
  5
76
100
AcDbEntity
  8
1
  6
CONTINUOUS
 62
           7
100
AcDbLine
 10
5749.999999999997
 20
0.0
 11
2750.0
 21
0.0
  0
LINE
  5
75
100
AcDbEntity
  8
1
  6
CONTINUOUS
 62
           2
100
AcDbLine
 10
5229.999999999999
 20
1980.0
 11
4270.000000000001
 21
1980.0
  0
LINE
  5
74
100
AcDbEntity
  8
1
  6
CONTINUOUS
 62
           2
100
AcDbLine
 10
5229.999999999999
 20
520.0
 11
5229.999999999999
 21
1980.0
  0
LINE
  5
73
100
AcDbEntity
  8
1
  6
CONTINUOUS
 62
           2
100
AcDbLine
 10
4270.000000000001
 20
520.0
 11
5229.999999999999
 21
520.0
  0
LINE
  5
72
100
AcDbEntity
  8
1
  6
CONTINUOUS
 62
           2
100
AcDbLine
 10
3770.000000000001
 20
520.0
 11
4230.000000000001
 21
520.0
  0
LINE
  5
71
100
AcDbEntity
  8
1
  6
CONTINUOUS
 62
           2
100
AcDbLine
 10
3770.000000000001
 20
1980.0
 11
3770.000000000001
 21
520.0
  0
LINE
  5
70
100
AcDbEntity
  8
1
  6
CONTINUOUS
 62
           2
100
AcDbLine
 10
4230.000000000001
 20
1980.0
 11
3770.000000000001
 21
1980.0
  0
LINE
  5
6F
100
AcDbEntity
  8
1
  6
CONTINUOUS
 62
           2
100
AcDbLine
 10
5229.433325304562
 20
20.0
 11
5229.433325304562
 21
479.385061529882
  0
LINE
  5
6E
100
AcDbEntity
  8
1
  6
CONTINUOUS
 62
           2
100
AcDbLine
 10
3770.0
 20
20.0
 11
5229.433325304562
 21
20.0
  0
LINE
  5
6D
100
AcDbEntity
  8
1
  6
CONTINUOUS
 62
           2
100
AcDbLine
 10
3770.000000000001
 20
479.385061529882
 11
3770.0
 21
20.0
  0
LINE
  5
6C
100
AcDbEntity
  8
1
  6
CONTINUOUS
 62
           2
100
AcDbLine
 10
5229.433325304562
 20
479.385061529882
 11
3770.000000000001
 21
479.385061529882
  0
LINE
  5
6B
100
AcDbEntity
  8
1
  6
CONTINUOUS
 62
           7
100
AcDbLine
 10
3750.000000000001
 20
500.0
 11
5249.999999999999
 21
500.0
  0
LINE
  5
6A
100
AcDbEntity
  8
1
  6
CONTINUOUS
 62
           7
100
AcDbLine
 10
3750.000000000001
 20
0.0
 11
3750.000000000001
 21
2000.0
  0
LINE
  5
69
100
AcDbEntity
  8
1
  6
CONTINUOUS
 62
           2
100
AcDbLine
 10
3270.000000000001
 20
1980.0
 11
3270.000000000001
 21
1670.0
  0
LINE
  5
68
100
AcDbEntity
  8
1
  6
CONTINUOUS
 62
           2
100
AcDbLine
 10
3730.000000000001
 20
1980.0
 11
3270.000000000001
 21
1980.0
  0
LINE
  5
67
100
AcDbEntity
  8
1
  6
CONTINUOUS
 62
           2
100
AcDbLine
 10
3730.0
 20
20.0
 11
3730.000000000001
 21
1330.0
  0
LINE
  5
66
100
AcDbEntity
  8
1
  6
CONTINUOUS
 62
           2
100
AcDbLine
 10
3270.0
 20
20.0
 11
3730.0
 21
20.0
  0
LINE
  5
65
100
AcDbEntity
  8
1
  6
CONTINUOUS
 62
           7
100
AcDbLine
 10
3250.0
 20
0.0
 11
3250.000000000001
 21
2050.0
  0
LINE
  5
64
100
AcDbEntity
  8
1
  6
CONTINUOUS
 62
           7
100
AcDbLine
 10
5249.999999999999
 20
0.0
 11
5249.999999999999
 21
2075.0
  0
LINE
  5
63
100
AcDbEntity
  8
1
  6
CONTINUOUS
 62
           7
100
AcDbLine
 10
5249.999999999999
 20
2000.0
 11
3250.000000000001
 21
2000.0
  0
LINE
  5
62
100
AcDbEntity
  8
1
  6
CONTINUOUS
 62
           2
100
AcDbLine
 10
3250.000000000001
 20
2004.0
 11
4250.000000000001
 21
2004.0
  0
LINE
  5
61
100
AcDbEntity
  8
1
  6
CONTINUOUS
 62
           7
100
AcDbLine
 10
3250.000000000001
 20
2050.0
 11
5249.999999999999
 21
2050.0
  0
LINE
  5
60
100
AcDbEntity
  8
1
  6
DOT_CENTER
 62
           2
100
AcDbLine
 10
4474.999999999999
 20
600.0
 11
4624.999999999999
 21
600.0
  0
LINE
  5
5F
100
AcDbEntity
  8
1
  6
DOT_CENTER
 62
           2
100
AcDbLine
 10
4549.999999999999
 20
675.0
 11
4549.999999999999
 21
525.0
  0
LINE
  5
5E
100
AcDbEntity
  8
1
  6
CONTINUOUS
 62
           2
100
AcDbLine
 10
3730.000000000001
 20
1670.0
 11
3730.000000000001
 21
1980.0
  0
LINE
  5
5D
100
AcDbEntity
  8
1
  6
CONTINUOUS
 62
           2
100
AcDbLine
 10
3270.000000000001
 20
1330.0
 11
3270.0
 21
20.0
  0
LINE
  5
5C
100
AcDbEntity
  8
1
  6
DOT_CENTER
 62
           2
100
AcDbLine
 10
0.0
 20
5816.538788581686
 11
0.0
 21
3511.437449488489
  0
LINE
  5
5B
100
AcDbEntity
  8
1
  6
CONTINUOUS
 62
           2
100
AcDbLine
 10
-150.905365064102
 20
4592.0
 11
-980.0
 21
4591.999999999999
  0
LINE
  5
5A
100
AcDbEntity
  8
1
  6
DOT_CENTER
 62
           2
100
AcDbLine
 10
4143.683300641172
 20
2385.0
 11
5522.956274504118
 21
2385.0
  0
LINE
  5
59
100
AcDbEntity
  8
1
  6
CONTINUOUS
 62
           7
100
AcDbLine
 10
1050.0
 20
2150.0
 11
-1050.0
 21
2150.0
  0
LINE
  5
58
100
AcDbEntity
  8
1
  6
CONTINUOUS
 62
           7
100
AcDbLine
 10
1000.0
 20
2000.0
 11
1000.0
 21
0.0
  0
LINE
  5
57
100
AcDbEntity
  8
1
  6
CONTINUOUS
 62
           7
100
AcDbLine
 10
-1000.0
 20
3631.999999999999
 11
-1000.0
 21
5611.999999999999
  0
LINE
  5
56
100
AcDbEntity
  8
1
  6
CONTINUOUS
 62
           7
100
AcDbLine
 10
1000.0
 20
3631.999999999999
 11
1000.0
 21
5611.999999999999
  0
LINE
  5
55
100
AcDbEntity
  8
1
  6
CONTINUOUS
 62
           7
100
AcDbLine
 10
-487.5
 20
2150.0
 11
-487.5
 21
2155.683280999348
  0
LINE
  5
54
100
AcDbEntity
  8
1
  6
CONTINUOUS
 62
           7
100
AcDbLine
 10
-412.5
 20
2150.0
 11
-412.5
 21
2155.683280999348
  0
LINE
  5
53
100
AcDbEntity
  8
1
  6
CONTINUOUS
 62
           7
100
AcDbLine
 10
-387.5
 20
2171.0
 11
-387.5
 21
2150.0
  0
LINE
  5
52
100
AcDbEntity
  8
1
  6
CONTINUOUS
 62
           7
100
AcDbLine
 10
-616.0
 20
3735.999999999999
 11
-616.0
 21
3988.0
  0
LINE
  5
51
100
AcDbEntity
  8
1
  6
CONTINUOUS
 62
           7
100
AcDbLine
 10
616.0
 20
3735.999999999999
 11
-616.0
 21
3735.999999999999
  0
LINE
  5
50
100
AcDbEntity
  8
1
  6
CONTINUOUS
 62
           7
100
AcDbLine
 10
616.0
 20
3988.0
 11
616.0
 21
3735.999999999999
  0
LINE
  5
4F
100
AcDbEntity
  8
1
  6
CONTINUOUS
 62
           7
100
AcDbLine
 10
-616.0
 20
3988.0
 11
616.0
 21
3988.0
  0
LINE
  5
4E
100
AcDbEntity
  8
1
  6
CONTINUOUS
 62
           7
100
AcDbLine
 10
-666.0
 20
3685.999999999999
 11
-666.0
 21
4038.0
  0
LINE
  5
4D
100
AcDbEntity
  8
1
  6
CONTINUOUS
 62
           7
100
AcDbLine
 10
666.0
 20
3685.999999999999
 11
-666.0
 21
3685.999999999999
  0
LINE
  5
4C
100
AcDbEntity
  8
1
  6
CONTINUOUS
 62
           7
100
AcDbLine
 10
666.0
 20
4038.0
 11
666.0
 21
3685.999999999999
  0
LINE
  5
4B
100
AcDbEntity
  8
1
  6
CONTINUOUS
 62
           7
100
AcDbLine
 10
-666.0
 20
4038.0
 11
666.0
 21
4038.0
  0
LINE
  5
4A
100
AcDbEntity
  8
1
  6
DOT_CENTER
 62
           2
100
AcDbLine
 10
3500.000000000006
 20
2218.396608496726
 11
3500.000000000006
 21
1934.635911434662
  0
LINE
  5
49
100
AcDbEntity
  8
1
  6
CONTINUOUS
 62
           7
100
AcDbLine
 10
3374.000000000008
 20
2050.0
 11
3374.000000000008
 21
2136.0
  0
LINE
  5
48
100
AcDbEntity
  8
1
  6
CONTINUOUS
 62
           7
100
AcDbLine
 10
-495.0
 20
2184.0
 11
-405.0
 21
2184.0
  0
LINE
  5
47
100
AcDbEntity
  8
1
  6
CONTINUOUS
 62
           7
100
AcDbLine
 10
-405.0
 20
2171.0
 11
-387.5
 21
2171.0
  0
LINE
  5
46
100
AcDbEntity
  8
1
  6
CONTINUOUS
 62
           7
100
AcDbLine
 10
-495.0
 20
2171.0
 11
-512.5
 21
2171.0
  0
LINE
  5
45
100
AcDbEntity
  8
1
  6
CONTINUOUS
 62
           7
100
AcDbLine
 10
-512.5
 20
2171.0
 11
-512.5
 21
2150.0
  0
LINE
  5
44
100
AcDbEntity
  8
1
  6
CONTINUOUS
 62
           7
100
AcDbLine
 10
-495.0
 20
2188.0
 11
-495.0
 21
2171.0
  0
LINE
  5
43
100
AcDbEntity
  8
1
  6
CONTINUOUS
 62
           7
100
AcDbLine
 10
-413.0
 20
2196.0
 11
-487.0
 21
2196.0
  0
LINE
  5
42
100
AcDbEntity
  8
1
  6
CONTINUOUS
 62
           7
100
AcDbLine
 10
-405.0
 20
2188.0
 11
-405.0
 21
2171.0
  0
LINE
  5
41
100
AcDbEntity
  8
1
  6
CONTINUOUS
 62
           7
100
AcDbLine
 10
-465.0
 20
2156.0
 11
-465.0
 21
2150.0
  0
LINE
  5
40
100
AcDbEntity
  8
1
  6
CONTINUOUS
 62
           7
100
AcDbLine
 10
-435.0
 20
2156.0
 11
-435.0
 21
2150.0
  0
LINE
  5
3F
100
AcDbEntity
  8
1
  6
CONTINUOUS
 62
           7
100
AcDbLine
 10
3374.000000000008
 20
2136.0
 11
3626.000000000006
 21
2136.0
  0
LINE
  5
3E
100
AcDbEntity
  8
1
  6
CONTINUOUS
 62
           7
100
AcDbLine
 10
3626.000000000006
 20
2136.0
 11
3626.000000000006
 21
2050.0
  0
LINE
  5
3D
100
AcDbEntity
  8
1
  6
CONTINUOUS
 62
           7
100
AcDbLine
 10
3455.000000000006
 20
2184.0
 11
3545.000000000006
 21
2184.0
  0
LINE
  5
3C
100
AcDbEntity
  8
1
  6
CONTINUOUS
 62
           7
100
AcDbLine
 10
3462.500000000006
 20
2155.683280999348
 11
3462.500000000006
 21
2136.0
  0
LINE
  5
3B
100
AcDbEntity
  8
1
  6
CONTINUOUS
 62
           7
100
AcDbLine
 10
3537.500000000006
 20
2155.683280999348
 11
3537.500000000006
 21
2136.0
  0
LINE
  5
3A
100
AcDbEntity
  8
1
  6
CONTINUOUS
 62
           7
100
AcDbLine
 10
3437.500000000006
 20
2171.0
 11
3455.000000000006
 21
2171.0
  0
LINE
  5
39
100
AcDbEntity
  8
1
  6
CONTINUOUS
 62
           7
100
AcDbLine
 10
3437.500000000006
 20
2136.0
 11
3437.500000000006
 21
2171.0
  0
LINE
  5
38
100
AcDbEntity
  8
1
  6
CONTINUOUS
 62
           7
100
AcDbLine
 10
3562.500000000006
 20
2171.0
 11
3545.000000000006
 21
2171.0
  0
LINE
  5
37
100
AcDbEntity
  8
1
  6
CONTINUOUS
 62
           7
100
AcDbLine
 10
3562.500000000006
 20
2136.0
 11
3562.500000000006
 21
2171.0
  0
LINE
  5
36
100
AcDbEntity
  8
1
  6
CONTINUOUS
 62
           7
100
AcDbLine
 10
3545.000000000006
 20
2171.0
 11
3545.000000000006
 21
2188.0
  0
LINE
  5
35
100
AcDbEntity
  8
1
  6
CONTINUOUS
 62
           7
100
AcDbLine
 10
3537.000000000006
 20
2196.0
 11
3463.000000000006
 21
2196.0
  0
LINE
  5
34
100
AcDbEntity
  8
1
  6
CONTINUOUS
 62
           7
100
AcDbLine
 10
3455.000000000006
 20
2171.0
 11
3455.000000000006
 21
2188.0
  0
LINE
  5
33
100
AcDbEntity
  8
1
  6
CONTINUOUS
 62
           7
100
AcDbLine
 10
3515.000000000006
 20
2136.0
 11
3515.000000000006
 21
2156.0
  0
LINE
  5
32
100
AcDbEntity
  8
1
  6
CONTINUOUS
 62
           7
100
AcDbLine
 10
3485.000000000006
 20
2136.0
 11
3485.000000000006
 21
2156.0
  0
LINE
  5
31
100
AcDbEntity
  8
1
  6
DOT_CENTER
 62
           2
100
AcDbLine
 10
-450.0
 20
2202.686878034487
 11
-450.0
 21
2107.007003733832
  0
LINE
  5
30
100
AcDbEntity
  8
1
  6
CONTINUOUS
 62
           7
100
AcDbLine
 10
3270.000000000001
 20
2150.0
 11
3250.000000000001
 21
2150.0
  0
LINE
  5
2F
100
AcDbEntity
  8
1
  6
CONTINUOUS
 62
           7
100
AcDbLine
 10
3250.000000000001
 20
2150.0
 11
3250.000000000001
 21
2050.0
  0
POINT
  5
2E
100
AcDbEntity
  8
0
 62
           3
100
AcDbPoint
 10
4083.399996721734
 20
1365.000000000117
  0
POINT
  5
2D
100
AcDbEntity
  8
1
 62
         250
100
AcDbPoint
 10
-650.0
 20
5701.999999999999
  0
ENDSEC
  0
SECTION
  2
OBJECTS
  0
DICTIONARY
  5
19
100
AcDbDictionary
  3
ACAD_GROUP
350
1A
  3
ACAD_MLINESTYLE
350
1B
  0
DICTIONARY
  5
1A
102
{ACAD_REACTORS
330
19
102
}
100
AcDbDictionary
  0
DICTIONARY
  5
1B
102
{ACAD_REACTORS
330
19
102
}
100
AcDbDictionary
  3
STANDARD
350
1C
  0
MLINESTYLE
  5
1C
102
{ACAD_REACTORS
330
1B
102
}
100
AcDbMlineStyle
  2
STANDARD
 70
           0
  3

 62
           0
 51
90.0
 52
90.0
 71
           2
 49
0.5
 62
         256
  6
BYLAYER
 49
-0.5
 62
         256
  6
BYLAYER
  0
ENDSEC
  0
EOF
