  0
SECTION
  2
HEADER
  9
$ACADVER
  1
AC1014
  9
$ACADMAINTVER
 70
           0
  9
$DWGCODEPAGE
  3
DOS932
  9
$INSBASE
 10
0.0
 20
0.0
 30
0.0
  9
$EXTMIN
 10
1.000000000000E+20
 20
1.000000000000E+20
 30
1.000000000000E+20
  9
$EXTMAX
 10
-1.000000000000E+20
 20
-1.000000000000E+20
 30
-1.000000000000E+20
  9
$LIMMIN
 10
0.0
 20
0.0
  9
$LIMMAX
 10
0.0
 20
0.0
  9
$ORTHOMODE
 70
           0
  9
$REGENMODE
 70
           1
  9
$FILLMODE
 70
           1
  9
$QTEXTMODE
 70
           0
  9
$MIRRTEXT
 70
           1
  9
$DRAGMODE
 70
           2
  9
$LTSCALE
 40
1.0
  9
$OSMODE
 70
           0
  9
$ATTMODE
 70
           1
  9
$TEXTSIZE
 40
0.2
  9
$TRACEWID
 40
0.05
  9
$TEXTSTYLE
  7
STANDARD
  9
$CLAYER
  8
0
  9
$CELTYPE
  6
CONTINUOUS
  9
$CECOLOR
 62
         256
  9
$CELTSCALE
 40
1.0
  9
$DELOBJ
 70
           1
  9
$DISPSILH
 70
           0
  9
$DIMSCALE
 40
1.0
  9
$DIMASZ
 40
0.18
  9
$DIMEXO
 40
0.0625
  9
$DIMDLI
 40
0.38
  9
$DIMRND
 40
0.0
  9
$DIMDLE
 40
0.0
  9
$DIMEXE
 40
0.18
  9
$DIMTP
 40
0.0
  9
$DIMTM
 40
0.0
  9
$DIMTXT
 40
0.18
  9
$DIMCEN
 40
0.09
  9
$DIMTSZ
 40
0.0
  9
$DIMTOL
 70
           0
  9
$DIMLIM
 70
           0
  9
$DIMTIH
 70
           1
  9
$DIMTOH
 70
           1
  9
$DIMSE1
 70
           0
  9
$DIMSE2
 70
           0
  9
$DIMTAD
 70
           0
  9
$DIMZIN
 70
           0
  9
$DIMBLK
  1

  9
$DIMASO
 70
           1
  9
$DIMSHO
 70
           1
  9
$DIMPOST
  1

  9
$DIMAPOST
  1

  9
$DIMALT
 70
           0
  9
$DIMALTD
 70
           2
  9
$DIMALTF
 40
25.4
  9
$DIMLFAC
 40
1.0
  9
$DIMTOFL
 70
           0
  9
$DIMTVP
 40
0.0
  9
$DIMTIX
 70
           0
  9
$DIMSOXD
 70
           0
  9
$DIMSAH
 70
           0
  9
$DIMBLK1
  1

  9
$DIMBLK2
  1

  9
$DIMSTYLE
  2
STANDARD
  9
$DIMCLRD
 70
           0
  9
$DIMCLRE
 70
           0
  9
$DIMCLRT
 70
           0
  9
$DIMTFAC
 40
1.0
  9
$DIMGAP
 40
0.09
  9
$DIMJUST
 70
           0
  9
$DIMSD1
 70
           0
  9
$DIMSD2
 70
           0
  9
$DIMTOLJ
 70
           1
  9
$DIMTZIN
 70
           0
  9
$DIMALTZ
 70
           0
  9
$DIMALTTZ
 70
           0
  9
$DIMFIT
 70
           3
  9
$DIMUPT
 70
           0
  9
$DIMUNIT
 70
           2
  9
$DIMDEC
 70
           4
  9
$DIMTDEC
 70
           4
  9
$DIMALTU
 70
           2
  9
$DIMALTTD
 70
           2
  9
$DIMTXSTY
  7
STANDARD
  9
$DIMAUNIT
 70
           0
  9
$LUNITS
 70
           2
  9
$LUPREC
 70
           4
  9
$SKETCHINC
 40
0.1
  9
$FILLETRAD
 40
0.0
  9
$AUNITS
 70
           0
  9
$AUPREC
 70
           0
  9
$MENU
  1
acad
  9
$ELEVATION
 40
0.0
  9
$PELEVATION
 40
0.0
  9
$THICKNESS
 40
0.0
  9
$LIMCHECK
 70
           0
  9
$BLIPMODE
 70
           1
  9
$CHAMFERA
 40
0.0
  9
$CHAMFERB
 40
0.0
  9
$CHAMFERC
 40
0.0
  9
$CHAMFERD
 40
0.0
  9
$SKPOLY
 70
           0
  9
$TDCREATE
 40
0.000000000
  9
$TDUPDATE
 40
0.000000000
  9
$TDINDWG
 40
0.0000000000
  9
$TDUSRTIMER
 40
0.0000000000
  9
$USRTIMER
 70
           1
  9
$ANGBASE
 50
0.0
  9
$ANGDIR
 70
           0
  9
$PDMODE
 70
           0
  9
$PDSIZE
 40
0.0
  9
$PLINEWID
 40
0.0
  9
$COORDS
 70
           0
  9
$SPLFRAME
 70
           0
  9
$SPLINETYPE
 70
           6
  9
$SPLINESEGS
 70
           8
  9
$ATTDIA
 70
           0
  9
$ATTREQ
 70
           1
  9
$HANDLING
 70
           1
  9
$HANDSEED
  5
474
  9
$SURFTAB1
 70
           6
  9
$SURFTAB2
 70
           6
  9
$SURFTYPE
 70
           6
  9
$SURFU
 70
           6
  9
$SURFV
 70
           6
  9
$UCSNAME
  2

  9
$UCSORG
 10
0.0
 20
0.0
 30
0.0
  9
$UCSXDIR
 10
1.0
 20
0.0
 30
0.0
  9
$UCSYDIR
 10
0.0
 20
1.0
 30
0.0
  9
$PUCSNAME
  2

  9
$PUCSORG
 10
0.0
 20
0.0
 30
0.0
  9
$PUCSXDIR
 10
1.0
 20
0.0
 30
0.0
  9
$PUCSYDIR
 10
0.0
 20
1.0
 30
0.0
  9
$USERI1
 70
           0
  9
$USERI2
 70
           0
  9
$USERI3
 70
           0
  9
$USERI4
 70
           0
  9
$USERI5
 70
           0
  9
$USERR1
 40
0.0
  9
$USERR2
 40
0.0
  9
$USERR3
 40
0.0
  9
$USERR4
 40
0.0
  9
$USERR5
 40
0.0
  9
$WORLDVIEW
 70
           1
  9
$SHADEDGE
 70
           3
  9
$SHADEDIF
 70
          70
  9
$TILEMODE
 70
           1
  9
$MAXACTVP
 70
          16
  9
$PINSBASE
 10
0.0
 20
0.0
 30
0.0
  9
$PLIMCHECK
 70
           0
  9
$PEXTMIN
 10
1.000000000000E+20
 20
1.000000000000E+20
 30
1.000000000000E+20
  9
$PEXTMAX
 10
-1.000000000000E+20
 20
-1.000000000000E+20
 30
-1.000000000000E+20
  9
$PLIMMIN
 10
0.0
 20
0.0
  9
$PLIMMAX
 10
12.0
 20
9.0
  9
$UNITMODE
 70
           0
  9
$VISRETAIN
 70
           0
  9
$PLINEGEN
 70
           1
  9
$PSLTSCALE
 70
           0
  9
$TREEDEPTH
 70
        3020
  9
$PICKSTYLE
 70
           1
  9
$CMLSTYLE
  2
STANDARD
  9
$CMLJUST
 70
           0
  9
$CMLSCALE
 40
1.0
  9
$PROXYGRAPHICS
 70
           0
  9
$MEASUREMENT
 70
           0
  0
ENDSEC
  0
SECTION
  2
CLASSES
  0
CLASS
  1
LWPOLYLINE
  2
AcDbPolyline
  3
"AutoCAD"
 90
        0
280
           0
281
           1
  0
CLASS
  1
IMAGE
  2
AcDbRasterImage
  3
ISM
 90
      127
280
           0
281
           1
  0
CLASS
  1
OLE2FRAME
  2
AcDbOle2Frame
  3
""
 90
        0
280
           0
281
           1
  0
CLASS
  1
HATCH
  2
AcDbHatch
  3
"ACAD_SEDONA"
 90
        0
280
           0
281
           1
  0
CLASS
  1
DICTIONARYVAR
  2
AcDbDictionaryVar
  3
"AutoCAD"
 90
        0
280
           0
281
           0
  0
CLASS
  1
RASTERVARIABLES
  2
AcDbRasterVariables
  3
ISM
 90
        0
280
           0
281
           0
  0
CLASS
  1
IMAGEDEF
  2
AcDbRasterImageDef
  3
ISM
 90
        0
280
           0
281
           0
  0
CLASS
  1
IMAGEDEF_REACTOR
  2
AcDbRasterImageDefReactor
  3
ISM
 90
        1
280
           0
281
           0
  0
CLASS
  1
IDBUFFER
  2
AcDbIdBuffer
  3
"Acad"
 90
        0
280
           0
281
           0
  0
CLASS
  1
SPATIAL_FILTER
  2
AcDbSpatialFilter
  3
"Acad"
 90
        0
280
           0
281
           0
  0
CLASS
  1
XRECORD
  2
AcDbXrecord
  3
"<Built In>"
 90
        0
280
           0
281
           0
  0
CLASS
  1
SORTENTSTABLE
  2
AcDbSortentsTable
  3
"AutoCAD"
 90
        0
280
           0
281
           0
  0
CLASS
  1
LAYER_INDEX
  2
AcDbLayerIndex
  3
"Acad"
 90
        0
280
           0
281
           0
  0
CLASS
  1
SPATIAL_INDEX
  2
AcDbSpatialIndex
  3
"Acad"
 90
        0
280
           0
281
           0
  0
CLASS
  1
OBJECT_PTR
  2
CAseDLPNTableRecord
  3
"ASE-LPNTableRecord"
 90
        1
280
           0
281
           0
  0
CLASS
  1
LAYOUT
  2
AcDbLayout
  3
"AutoCAD 2000"
 90
        1
280
           0
281
           0
  0
CLASS
  1
PLOTSETTINGS
  2
AcDbPlotSettings
  3
"AutoCAD 2000"
 90
        1
280
           0
281
           0
  0
CLASS
  1
ACDBDICTIONARYWDFLT
  2
AcDbDictionaryWithDefault
  3
"AutoCAD 2000"
 90
        1
280
           0
281
           0
  0
CLASS
  1
ACDBPLACEHOLDER
  2
AcDbPlaceHolder
  3
"AutoCAD 2000"
 90
        1
280
           0
281
           0
  0
CLASS
  1
VBA_PROJECT
  2
AcDbVbaProject
  3
"acadvba"
 90
        1
280
           0
281
           0
  0
CLASS
  1
WIPEOUT
  2
AcDbWipeout
  3
WipeOut|AutoCAD Express Tool|expresstools@autodesk.com
 90
      127
280
           0
281
           1
  0
CLASS
  1
WIPEOUTVARIABLES
  2
AcDbWipeoutVariables
  3
WipeOut|AutoCAD Express Tool|expresstools@autodesk.com
 90
        0
280
           0
281
           0
  0
CLASS
  1
RTEXT
  2
RText
  3
RText|AutoCAD Express Tool|expresstools@autodesk.com
 90
        0
280
           0
281
           1
  0
CLASS
  1
ARCALIGNEDTEXT
  2
AcDbArcAlignedText
  3
ATEXT|AutoCAD Express Tool|expresstools@autodesk.com
 90
        0
280
           0
281
           1
  0
ENDSEC
  0
SECTION
  2
TABLES
  0
TABLE
  2
VPORT
  5
7
100
AcDbSymbolTable
 70
           1
  0
VPORT
  5
15
100
AcDbSymbolTableRecord
100
AcDbViewportTableRecord
  2
*ACTIVE
 70
           0
 10
0.0
 20
0.0
 11
1.0
 21
1.0
 12
6.591288
 22
4.579184
 13
0.0
 23
0.0
 14
1.0
 24
1.0
 15
0.0
 25
0.0
 16
0.0
 26
0.0
 36
1.0
 17
0.0
 27
0.0
 37
0.0
 40
9.158369
 41
0.688564
 42
50.0
 43
0.0
 44
0.0
 50
0.0
 51
0.0
 71
           0
 72
         100
 73
           1
 74
           1
 75
           0
 76
           0
 77
           0
 78
           0
  0
ENDTAB
  0
TABLE
  2
LTYPE
  5
4
100
AcDbSymbolTable
 70
          10
  0
LTYPE
  5
11
100
AcDbSymbolTableRecord
100
AcDbLinetypeTableRecord
  2
BYBLOCK
 70
          64
  3

 72
          65
 73
           0
 40
0.0
  0
LTYPE
  5
12
100
AcDbSymbolTableRecord
100
AcDbLinetypeTableRecord
  2
BYLAYER
 70
          64
  3

 72
          65
 73
           0
 40
0.0
  0
LTYPE
  5
13
100
AcDbSymbolTableRecord
100
AcDbLinetypeTableRecord
  2
CONTINUOUS
 70
          64
  3
Solid line
 72
          65
 73
           0
 40
0.0
  0
LTYPE
  5
1D
100
AcDbSymbolTableRecord
100
AcDbLinetypeTableRecord
  2
DASHED
 70
          64
  3
Dashed
 72
          65
 73
           2
 40
15.0
 49
12.0
 74
           0
 49
-3.0
 74
           0
  0
LTYPE
  5
1E
100
AcDbSymbolTableRecord
100
AcDbLinetypeTableRecord
  2
DOTTED
 70
          64
  3
Dotted
 72
          65
 73
           2
 40
3.5
 49
0.5
 74
           0
 49
-3.0
 74
           0
  0
LTYPE
  5
1F
100
AcDbSymbolTableRecord
100
AcDbLinetypeTableRecord
  2
DOT_CENTER
 70
          64
  3
Dot_Center
 72
          65
 73
           4
 40
2.0
 49
1.25
 74
           0
 49
-0.25
 74
           0
 49
0.25
 74
           0
 49
-0.25
 74
           0
  0
LTYPE
  5
20
100
AcDbSymbolTableRecord
100
AcDbLinetypeTableRecord
  2
LONG_DASHED
 70
          64
  3
Long_Dashed
 72
          65
 73
           2
 40
2.0
 49
1.5
 74
           0
 49
-0.5
 74
           0
  0
LTYPE
  5
21
100
AcDbSymbolTableRecord
100
AcDbLinetypeTableRecord
  2
DASH_CENTER
 70
          64
  3
Dash_Center
 72
          65
 73
           4
 40
36.0
 49
24.0
 74
           0
 49
-3.0
 74
           0
 49
6.0
 74
           0
 49
-3.0
 74
           0
  0
LTYPE
  5
22
100
AcDbSymbolTableRecord
100
AcDbLinetypeTableRecord
  2
PHANTOM
 70
          64
  3
Phantom
 72
          65
 73
           6
 40
2.5
 49
1.25
 74
           0
 49
-0.25
 74
           0
 49
0.25
 74
           0
 49
-0.25
 74
           0
 49
0.25
 74
           0
 49
-0.25
 74
           0
  0
LTYPE
  5
23
100
AcDbSymbolTableRecord
100
AcDbLinetypeTableRecord
  2
CENTER_DASH_DASH
 70
          64
  3
Center_Dash_Dash
 72
          65
 73
           6
 40
22.0
 49
12.0
 74
           0
 49
-3.0
 74
           0
 49
0.5
 74
           0
 49
-3.0
 74
           0
 49
0.5
 74
           0
 49
-3.0
 74
           0
  0
ENDTAB
  0
TABLE
  2
LAYER
  5
2
100
AcDbSymbolTable
 70
           7
  0
LAYER
  5
14
100
AcDbSymbolTableRecord
100
AcDbLayerTableRecord
  2
0
 70
           0
 62
           7
  6
CONTINUOUS
  0
LAYER
  5
24
100
AcDbSymbolTableRecord
100
AcDbLayerTableRecord
  2
___S__
 70
           0
 62
           7
  6
CONTINUOUS
  0
LAYER
  5
25
100
AcDbSymbolTableRecord
100
AcDbLayerTableRecord
  2
FORMAT
 70
           0
 62
           7
  6
CONTINUOUS
  0
LAYER
  5
26
100
AcDbSymbolTableRecord
100
AcDbLayerTableRecord
  2
1
 70
           0
 62
           7
  6
CONTINUOUS
  0
LAYER
  5
27
100
AcDbSymbolTableRecord
100
AcDbLayerTableRecord
  2
2
 70
           0
 62
           7
  6
CONTINUOUS
  0
LAYER
  5
28
100
AcDbSymbolTableRecord
100
AcDbLayerTableRecord
  2
7
 70
           0
 62
           7
  6
CONTINUOUS
  0
LAYER
  5
29
100
AcDbSymbolTableRecord
100
AcDbLayerTableRecord
  2
____
 70
           0
 62
           7
  6
CONTINUOUS
  0
ENDTAB
  0
TABLE
  2
STYLE
  5
3
100
AcDbSymbolTable
 70
           1
  0
STYLE
  5
17
100
AcDbSymbolTableRecord
100
AcDbTextStyleTableRecord
  2
STANDARD
 70
           0
 40
0.0
 41
1.0
 50
0.0
 71
           0
 42
0.0
  3
txt
  4

  0
ENDTAB
  0
TABLE
  2
VIEW
  5
5
100
AcDbSymbolTable
 70
           0
  0
ENDTAB
  0
TABLE
  2
UCS
  5
6
100
AcDbSymbolTable
 70
           0
  0
ENDTAB
  0
TABLE
  2
APPID
  5
8
100
AcDbSymbolTable
 70
           1
  0
APPID
  5
16
100
AcDbSymbolTableRecord
100
AcDbRegAppTableRecord
  2
ACAD
 70
           0
  0
ENDTAB
  0
TABLE
  2
DIMSTYLE
  5
9
100
AcDbSymbolTable
 70
           1
  0
DIMSTYLE
105
18
100
AcDbSymbolTableRecord
100
AcDbDimStyleTableRecord
  2
STANDARD
 70
           0
  3

  4

  5

  6

  7

 40
1.0
 41
0.18
 42
0.0625
 43
0.38
 44
0.18
 45
0.0
 46
0.0
 47
0.0
 48
0.0
 71
           0
 72
           0
 73
           1
 74
           1
 75
           0
 76
           0
 77
           0
 78
           0
140
0.18
141
0.09
142
0.0
143
25.4
144
1.0
145
0.0
146
1.0
147
0.09
170
           0
171
           2
172
           0
173
           0
174
           0
175
           0
176
           0
177
           0
178
           0
270
           2
271
           4
272
           4
273
           2
274
           2
275
           0
280
           0
281
           0
282
           0
283
           1
284
           0
285
           0
286
           0
287
           0
288
           0
340
17
  0
ENDTAB
  0
TABLE
  2
BLOCK_RECORD
  5
1
100
AcDbSymbolTable
 70
           0
  0
BLOCK_RECORD
  5
A
100
AcDbSymbolTableRecord
100
AcDbBlockTableRecord
  2
*MODEL_SPACE
  0
BLOCK_RECORD
  5
B
100
AcDbSymbolTableRecord
100
AcDbBlockTableRecord
  2
*PAPER_SPACE
  0
ENDTAB
  0
ENDSEC
  0
SECTION
  2
BLOCKS
  0
BLOCK
  5
D
100
AcDbEntity
  8
0
100
AcDbBlockBegin
  2
*MODEL_SPACE
 70
           0
 10
0.0
 20
0.0
 30
0.0
  3
*MODEL_SPACE
  1

  0
ENDBLK
  5
E
100
AcDbEntity
  8
0
100
AcDbBlockEnd
  0
BLOCK
  5
F
100
AcDbEntity
 67
           1
  8
0
100
AcDbBlockBegin
  2
*PAPER_SPACE
 70
           0
 10
0.0
 20
0.0
 30
0.0
  3
*PAPER_SPACE
  1

  0
ENDBLK
  5
10
100
AcDbEntity
 67
           1
  8
0
100
AcDbBlockEnd
  0
ENDSEC
  0
SECTION
  2
ENTITIES
  0
HATCH
  5
472
100
AcDbEntity
  8
0
  6
CONTINUOUS
 62
           3
100
AcDbHatch
 10
0.0
 20
0.0
 30
0.0
210
0.0
220
0.0
230
1.0
  2
USER
 70
           0
 71
           1
 91
        1
 92
        1
 93
        8
 72
           1
 10
3452.3141856546449
 20
-138.75926010224089
 11
3452.3141856546449
 21
-118.7592601022409
 72
           1
 10
3375.0
 20
-138.7592601022298
 11
3452.3141856546449
 21
-138.75926010224089
 72
           2
 10
3375.0
 20
-88.759260102229746
 40
50.0
 50
-179.999999999987
 51
-90.0
 73
           1
 72
           1
 10
3325.0
 20
-26.259260102229749
 11
3325.0
 21
-88.759260102240887
 72
           1
 10
3345.0
 20
-26.259260102229749
 11
3325.0
 21
-26.259260102229749
 72
           1
 10
3345.0
 20
-88.759260102240887
 11
3345.0
 21
-26.259260102229749
 72
           2
 10
3375.0
 20
-88.759260102240887
 40
30.0
 50
180.0
 51
-90.0
 73
           1
 72
           1
 10
3452.3141856546449
 20
-118.7592601022409
 11
3375.0
 21
-118.7592601022409
 97
        8
330
106
330
105
330
45B
330
104
330
103
330
108
330
45A
330
107
 75
           1
 76
           0
 52
45.0
 41
10.0
 77
           0
 78
           1
 53
45.0
 43
0.0
 44
0.0
 45
-7.0710678118654746
 46
7.0710678118654755
 79
           0
 98
        1
 10
0.0
 20
0.0
  0
ARC
  5
471
100
AcDbEntity
  8
1
  6
CONTINUOUS
 62
           3
100
AcDbCircle
 10
4499.899996810929
 20
184.740739897771
 40
288.0
100
AcDbArc
 50
90.0
 51
180.0
  0
ARC
  5
470
100
AcDbEntity
  8
1
  6
CONTINUOUS
 62
           3
100
AcDbCircle
 10
4499.899998122324
 20
184.740739897771
 40
280.0
100
AcDbArc
 50
90.0
 51
180.0
  0
ARC
  5
46F
100
AcDbEntity
  8
1
  6
CONTINUOUS
 62
           3
100
AcDbCircle
 10
4648.163567691037
 20
475.93448647781
 40
0.5
100
AcDbArc
 50
90.0
 51
180.0
  0
ARC
  5
46E
100
AcDbEntity
  8
1
  6
CONTINUOUS
 62
           3
100
AcDbCircle
 10
4648.163567691037
 20
461.54699331773
 40
0.5
100
AcDbArc
 50
180.0
 51
-90.0
  0
ARC
  5
46D
100
AcDbEntity
  8
1
  6
CONTINUOUS
 62
           7
100
AcDbCircle
 10
118.613663999999
 20
1225.040739897773
 40
10.0
100
AcDbArc
 50
180.0
 51
-90.0
  0
ARC
  5
46C
100
AcDbEntity
  8
1
  6
CONTINUOUS
 62
           7
100
AcDbCircle
 10
118.613663999999
 20
1285.040739897772
 40
10.0
100
AcDbArc
 50
90.0
 51
180.0
  0
ARC
  5
46B
100
AcDbEntity
  8
1
  6
CONTINUOUS
 62
           7
100
AcDbCircle
 10
156.5
 20
1225.040739897773
 40
10.0
100
AcDbArc
 50
-90.0
 51
0.0
  0
ARC
  5
46A
100
AcDbEntity
  8
1
  6
CONTINUOUS
 62
           7
100
AcDbCircle
 10
156.5
 20
1285.040739897772
 40
10.0
100
AcDbArc
 50
0.0
 51
90.0
  0
ARC
  5
469
100
AcDbEntity
  8
1
  6
CONTINUOUS
 62
           4
100
AcDbCircle
 10
109.265668111719
 20
3794.49073989777
 40
10.0
100
AcDbArc
 50
90.0
 51
120.430594205714
  0
ARC
  5
468
100
AcDbEntity
  8
1
  6
CONTINUOUS
 62
           4
100
AcDbCircle
 10
109.265668111719
 20
3736.99073989777
 40
10.000000000001
100
AcDbArc
 50
-120.430594205715
 51
-90.0
  0
ARC
  5
467
100
AcDbEntity
  8
1
  6
CONTINUOUS
 62
           7
100
AcDbCircle
 10
123.94625844666
 20
3731.99073989777
 40
10.0
100
AcDbArc
 50
180.0
 51
-90.0
  0
ARC
  5
466
100
AcDbEntity
  8
1
  6
CONTINUOUS
 62
           7
100
AcDbCircle
 10
123.94625844666
 20
3799.49073989777
 40
10.0
100
AcDbArc
 50
90.0
 51
180.0
  0
ARC
  5
465
100
AcDbEntity
  8
1
  6
CONTINUOUS
 62
           7
100
AcDbCircle
 10
156.5
 20
3731.99073989777
 40
10.0
100
AcDbArc
 50
-90.0
 51
0.0
  0
ARC
  5
464
100
AcDbEntity
  8
1
  6
CONTINUOUS
 62
           7
100
AcDbCircle
 10
156.5
 20
3799.49073989777
 40
10.0
100
AcDbArc
 50
0.0
 51
90.0
  0
ARC
  5
463
100
AcDbEntity
  8
1
  6
CONTINUOUS
 62
           4
100
AcDbCircle
 10
5305.499999999996
 20
1099.74073989777
 40
1.0
100
AcDbArc
 50
179.999999999947
 51
-90.0
  0
ARC
  5
462
100
AcDbEntity
  8
1
  6
CONTINUOUS
 62
           4
100
AcDbCircle
 10
5294.499999999996
 20
1099.74073989777
 40
1.0
100
AcDbArc
 50
-90.0
 51
0.0
  0
ARC
  5
461
100
AcDbEntity
  8
1
  6
CONTINUOUS
 62
           4
100
AcDbCircle
 10
5305.499999999996
 20
703.74073989777
 40
1.0
100
AcDbArc
 50
90.0
 51
180.0
  0
ARC
  5
460
100
AcDbEntity
  8
1
  6
CONTINUOUS
 62
           4
100
AcDbCircle
 10
5294.499999999996
 20
703.74073989777
 40
1.0
100
AcDbArc
 50
0.0
 51
90.0
  0
ARC
  5
45F
100
AcDbEntity
  8
1
  6
CONTINUOUS
 62
           7
100
AcDbCircle
 10
4893.749999999996
 20
1224.545258052593
 40
10.0
100
AcDbArc
 50
-90.0
 51
0.0
  0
ARC
  5
45E
100
AcDbEntity
  8
1
  6
CONTINUOUS
 62
           7
100
AcDbCircle
 10
4826.249999999996
 20
1224.545258052593
 40
10.0
100
AcDbArc
 50
180.0
 51
-90.0
  0
ARC
  5
45D
100
AcDbEntity
  8
1
  6
CONTINUOUS
 62
           7
100
AcDbCircle
 10
4893.749999999996
 20
1284.545258052593
 40
10.0
100
AcDbArc
 50
0.0
 51
90.0
  0
ARC
  5
45C
100
AcDbEntity
  8
1
  6
CONTINUOUS
 62
           7
100
AcDbCircle
 10
4826.249999999996
 20
1284.545258052593
 40
10.0
100
AcDbArc
 50
90.0
 51
180.0
  0
ARC
  5
45B
100
AcDbEntity
  8
1
  6
CONTINUOUS
 62
           4
100
AcDbCircle
 10
3375.0
 20
-88.75926010223
 40
50.0
100
AcDbArc
 50
-179.999999999987
 51
-90.0
  0
ARC
  5
45A
100
AcDbEntity
  8
1
  6
CONTINUOUS
 62
           4
100
AcDbCircle
 10
3375.0
 20
-88.759260102241
 40
30.0
100
AcDbArc
 50
180.0
 51
-90.0
  0
ARC
  5
459
100
AcDbEntity
  8
1
  6
CONTINUOUS
 62
           2
100
AcDbCircle
 10
1158.0
 20
-91.759260102252
 40
8.0
100
AcDbArc
 50
0.0
 51
90.0
  0
ARC
  5
458
100
AcDbEntity
  8
1
  6
CONTINUOUS
 62
           2
100
AcDbCircle
 10
1158.0
 20
-165.759260102252
 40
8.0
100
AcDbArc
 50
-90.0
 51
0.0
  0
ARC
  5
457
100
AcDbEntity
  8
1
  6
CONTINUOUS
 62
           2
100
AcDbCircle
 10
1126.0
 20
-128.759260102252
 40
15.0
100
AcDbArc
 50
-90.0
 51
90.0
  0
ARC
  5
456
100
AcDbEntity
  8
1
  6
CONTINUOUS
 62
           7
100
AcDbCircle
 10
-413.0
 20
731.740739897771
 40
8.0
100
AcDbArc
 50
0.0
 51
90.0
  0
ARC
  5
455
100
AcDbEntity
  8
1
  6
CONTINUOUS
 62
           7
100
AcDbCircle
 10
-487.0
 20
731.740739897771
 40
8.0
100
AcDbArc
 50
90.0
 51
180.0
  0
ARC
  5
454
100
AcDbEntity
  8
1
  6
CONTINUOUS
 62
           7
100
AcDbCircle
 10
-450.0
 20
699.740739897771
 40
15.0
100
AcDbArc
 50
147.769047364498
 51
180.0
  0
ARC
  5
453
100
AcDbEntity
  8
1
  6
CONTINUOUS
 62
           7
100
AcDbCircle
 10
3443.000000000007
 20
731.740739897771
 40
8.0
100
AcDbArc
 50
90.0
 51
180.0
  0
ARC
  5
452
100
AcDbEntity
  8
1
  6
CONTINUOUS
 62
           7
100
AcDbCircle
 10
3517.000000000007
 20
731.740739897771
 40
8.0
100
AcDbArc
 50
0.0
 51
90.0
  0
ARC
  5
451
100
AcDbEntity
  8
1
  6
CONTINUOUS
 62
           7
100
AcDbCircle
 10
3480.000000000007
 20
699.740739897771
 40
15.0
100
AcDbArc
 50
0.0
 51
180.0
  0
ARC
  5
450
100
AcDbEntity
  8
1
  6
CONTINUOUS
 62
           7
100
AcDbCircle
 10
-450.0
 20
699.740739897771
 40
15.0
100
AcDbArc
 50
32.230952635502
 51
147.769047364498
  0
ARC
  5
44F
100
AcDbEntity
  8
1
  6
CONTINUOUS
 62
           7
100
AcDbCircle
 10
-450.0
 20
699.740739897771
 40
15.0
100
AcDbArc
 50
0.0
 51
32.230952635502
  0
SPLINE
  5
44E
100
AcDbEntity
  8
0
  6
CONTINUOUS
 62
           3
100
AcDbSpline
210
0.0
220
0.0
230
1.0
 70
           0
 71
           3
 72
           8
 73
           5
 74
           7
 42
0.00000000001
 43
0.00000000001
 44
0.00000000001
 40
0.0
 40
0.0
 40
0.0
 40
0.555856271415624
 40
1.5343210643711624
 40
2.938507268297633
 40
2.938507268297633
 40
2.938507268297633
 10
4165.8999967216714
 20
-96.259260698180697
 30
0.0
 10
4165.9684298091452
 20
-96.259706391551845
 30
0.0
 10
4166.9432526000164
 20
-96.266055251016724
 30
0.0
 10
4167.8985309047439
 20
-96.493951080366742
 30
0.0
 10
4168.786748155504
 20
-96.705848499159856
 30
0.0
 11
4165.8999967216714
 21
-96.259260698180697
 31
0.0
 11
4166.0396116244046
 21
-96.26016998693099
 31
0.0
 11
4166.3215901576586
 21
-96.262006466439573
 31
0.0
 11
4166.88591117128
 21
-96.288440107753047
 31
0.0
 11
4167.3355493274321
 21
-96.359643462539182
 31
0.0
 11
4167.979839823106
 21
-96.513348530608127
 31
0.0
 11
4168.786748155504
 21
-96.705848499159856
 31
0.0
  0
SPLINE
  5
44D
100
AcDbEntity
  8
0
  6
CONTINUOUS
 62
           3
100
AcDbSpline
210
0.0
220
0.0
230
1.0
 70
           0
 71
           3
 72
           8
 73
           5
 74
           7
 42
0.00000000001
 43
0.00000000001
 44
0.00000000001
 40
0.0
 40
0.0
 40
0.0
 40
0.5558558490619433
 40
1.5343195422002223
 40
2.9385037456599874
 40
2.9385037456599874
 40
2.9385037456599874
 10
4165.8999967216678
 20
-101.25925592990779
 30
0.0
 10
4165.8315636362931
 20
-101.2588102239279
 30
0.0
 10
4164.8567416872393
 20
-101.25246119156169
 30
0.0
 10
4163.9014629162612
 20
-101.0245731729979
 30
0.0
 10
4163.0132452878406
 20
-100.8126830299877
 30
0.0
 11
4165.8999967216678
 21
-101.25925592990779
 31
0.0
 11
4165.7603818762464
 21
-101.25834661590764
 31
0.0
 11
4165.4784035107314
 21
-101.25651008586698
 31
0.0
 11
4164.9140828960144
 21
-101.23007716001108
 31
0.0
 11
4164.4644446988495
 21
-101.15887617105393
 31
0.0
 11
4163.8201539548036
 21
-101.00517638675936
 31
0.0
 11
4163.0132452878406
 21
-100.8126830299877
 31
0.0
  0
SPLINE
  5
44C
100
AcDbEntity
  8
0
  6
CONTINUOUS
 62
           3
100
AcDbSpline
210
0.0
220
0.0
230
1.0
 70
           0
 71
           3
 72
           8
 73
           5
 74
           7
 42
0.00000000001
 43
0.00000000001
 44
0.00000000001
 40
0.0
 40
0.0
 40
0.0
 40
0.2779452695568813
 40
0.7862805426594299
 40
1.5429573556194005
 40
1.5429573556194005
 40
1.5429573556194005
 10
4170.2301237560059
 20
-101.2592559298098
 30
0.0
 10
4170.1959072124737
 20
-101.2588102250409
 30
0.0
 10
4169.7084969152684
 20
-101.25246121748479
 30
0.0
 10
4169.230857214985
 20
-101.0245731737628
 30
0.0
 10
4168.7867481553658
 20
-100.8126830300057
 30
0.0
 11
4170.2301237560059
 21
-101.2592559298098
 31
0.0
 11
4170.1613872230628
 21
-101.25836056758649
 31
0.0
 11
4170.0236107112996
 21
-101.25656589045438
 31
0.0
 11
4169.7392914141292
 21
-101.23059362601165
 31
0.0
 11
4169.516561114684
 21
-101.16088617862268
 31
0.0
 11
4169.191255925005
 21
-101.00567888903849
 31
0.0
 11
4168.7867481553658
 21
-100.8126830300057
 31
0.0
  0
SPLINE
  5
44B
100
AcDbEntity
  8
0
  6
CONTINUOUS
 62
           3
100
AcDbSpline
210
0.0
220
0.0
230
1.0
 70
           0
 71
           3
 72
           8
 73
           5
 74
           7
 42
0.00000000001
 43
0.00000000001
 44
0.00000000001
 40
0.0
 40
0.0
 40
0.0
 40
0.678770053489717
 40
1.1891668948796938
 40
1.5431123743497683
 40
1.5431123743497683
 40
1.5431123743497683
 10
4163.0132452878406
 20
-100.8126830299877
 30
0.0
 10
4162.643821474403
 20
-100.9968117306237
 30
0.0
 10
4162.1676820506236
 20
-101.23412976544481
 30
0.0
 10
4161.6793238525834
 20
-101.25465555096891
 30
0.0
 10
4161.5698696873387
 20
-101.2592559298098
 30
0.0
 11
4163.0132452878406
 21
-100.8126830299877
 31
0.0
 11
4162.6682329736368
 21
-100.98464451922277
 31
0.0
 11
4162.3720436579006
 21
-101.13227158565599
 31
0.0
 11
4162.146678191948
 21
-101.21169535562048
 31
0.0
 11
4161.8793050086451
 21
-101.24625030593637
 31
0.0
 11
4161.701955600287
 21
-101.253704334421
 31
0.0
 11
4161.5698696873387
 21
-101.2592559298098
 31
0.0
  0
SPLINE
  5
44A
100
AcDbEntity
  8
0
  6
CONTINUOUS
 62
           3
100
AcDbSpline
210
0.0
220
0.0
230
1.0
 70
           0
 71
           3
 72
           8
 73
           5
 74
           7
 42
0.00000000001
 43
0.00000000001
 44
0.00000000001
 40
0.0
 40
0.0
 40
0.0
 40
0.353946033498762
 40
0.8643414136634766
 40
1.5431068114063469
 40
1.5431068114063469
 40
1.5431068114063469
 10
4161.5698696873387
 20
-96.259260698180697
 30
0.0
 10
4161.6793238424216
 20
-96.263866594398678
 30
0.0
 10
4162.1676816710387
 20
-96.284416983488882
 30
0.0
 10
4162.6438213484444
 20
-96.521726467875851
 30
0.0
 10
4163.0132452879698
 20
-96.705848499208741
 30
0.0
 11
4161.5698696873387
 21
-96.259260698180697
 31
0.0
 11
4161.7019556855785
 21
-96.264818955874446
 31
0.0
 11
4161.8793053701311
 21
-96.27228193651969
 31
0.0
 11
4162.1466781413819
 21
-96.306846907303353
 31
0.0
 11
4162.3720438533237
 21
-96.386271725716
 31
0.0
 11
4162.668232959546
 21
-96.533893290169118
 31
0.0
 11
4163.0132452879698
 21
-96.705848499208741
 31
0.0
  0
SPLINE
  5
449
100
AcDbEntity
  8
0
  6
CONTINUOUS
 62
           3
100
AcDbSpline
210
0.0
220
0.0
230
1.0
 70
           0
 71
           3
 72
           8
 73
           5
 74
           7
 42
0.00000000001
 43
0.00000000001
 44
0.00000000001
 40
0.0
 40
0.0
 40
0.0
 40
0.6415450374699302
 40
1.1579303686026992
 40
1.5357381749001893
 40
1.5357381749001893
 40
1.5357381749001893
 10
4161.5698696873387
 20
-101.2592559298098
 30
0.0
 10
4161.1795237086117
 20
-101.2016264083538
 30
0.0
 10
4160.6908846293609
 20
-101.1294851853459
 30
0.0
 10
4160.2210119621141
 20
-100.8657376539738
 30
0.0
 10
4160.1264938539716
 20
-100.8126830300057
 30
0.0
 11
4161.5698696873387
 21
-101.2592559298098
 31
0.0
 11
4161.2094282457019
 21
-101.20604142543054
 31
0.0
 11
4160.9087958782457
 21
-101.16165695520476
 31
0.0
 11
4160.6775260473196
 21
-101.099450404268
 31
0.0
 11
4160.4195390523146
 21
-100.97717429117552
 31
0.0
 11
4160.247014207629
 21
-100.88033315728219
 31
0.0
 11
4160.1264938539716
 21
-100.8126830300057
 31
0.0
  0
SPLINE
  5
448
100
AcDbEntity
  8
0
  6
CONTINUOUS
 62
           3
100
AcDbSpline
210
0.0
220
0.0
230
1.0
 70
           0
 71
           3
 72
           8
 73
           5
 74
           7
 42
0.00000000001
 43
0.00000000001
 44
0.00000000001
 40
0.0
 40
0.0
 40
0.0
 40
0.3778155284989426
 40
0.894206223399208
 40
1.5357514174613738
 40
1.5357514174613738
 40
1.5357514174613738
 10
4160.1264938539716
 20
-96.705848499208741
 30
0.0
 10
4160.2210118970306
 20
-96.652788411323854
 30
0.0
 10
4160.6908817949043
 20
-96.389015090854855
 30
0.0
 10
4161.1795227343027
 20
-96.316882916030863
 30
0.0
 10
4161.5698696873387
 20
-96.259260698180697
 30
0.0
 11
4160.1264938539716
 21
-96.705848499208741
 31
0.0
 11
4160.2470141544045
 21
-96.638191388201591
 31
0.0
 11
4160.4195389695842
 21
-96.541340230949885
 31
0.0
 11
4160.67752441433
 21
-96.419054396992507
 31
0.0
 11
4160.9087950979274
 21
-96.356847175310406
 31
0.0
 11
4161.2094275634672
 21
-96.312468426388193
 31
0.0
 11
4161.5698696873387
 21
-96.259260698180697
 31
0.0
  0
SPLINE
  5
447
100
AcDbEntity
  8
0
  6
CONTINUOUS
 62
           3
100
AcDbSpline
210
0.0
220
0.0
230
1.0
 70
           0
 71
           3
 72
           8
 73
           5
 74
           7
 42
0.00000000001
 43
0.00000000001
 44
0.00000000001
 40
0.0
 40
0.0
 40
0.0
 40
0.2779464854665114
 40
0.7862840844020164
 40
1.5429642659214096
 40
1.5429642659214096
 40
1.5429642659214096
 10
4170.2301237559641
 20
-96.259260698308708
 30
0.0
 10
4170.2643403053644
 20
-96.259706393552733
 30
0.0
 10
4170.7517530244531
 20
-96.266055297786806
 30
0.0
 10
4171.2293915039991
 20
-96.493951081749856
 30
0.0
 10
4171.6734995893639
 20
-96.705848499208741
 30
0.0
 11
4170.2301237559641
 21
-96.259260698308708
 31
0.0
 11
4170.2988605017472
 21
-96.260156044184598
 31
0.0
 11
4170.4366376402968
 21
-96.261950691324273
 31
0.0
 11
4170.7209580094723
 21
-96.287923685168408
 31
0.0
 11
4170.943688348686
 21
-96.357633453775762
 31
0.0
 11
4171.2689927365118
 21
-96.51284602912105
 31
0.0
 11
4171.6734995893639
 21
-96.705848499208741
 31
0.0
  0
SPLINE
  5
446
100
AcDbEntity
  8
0
  6
CONTINUOUS
 62
           3
100
AcDbSpline
210
0.0
220
0.0
230
1.0
 70
           0
 71
           3
 72
           8
 73
           5
 74
           7
 42
0.00000000001
 43
0.00000000001
 44
0.00000000001
 40
0.0
 40
0.0
 40
0.0
 40
1.2475591451551216
 40
2.2257037084933797
 40
2.9354142011738666
 40
2.9354142011738666
 40
2.9354142011738666
 10
4165.8999967216714
 20
-91.259265466556826
 30
0.0
 10
4165.1443416651728
 20
-91.313366802136898
 30
0.0
 10
4164.1669038516466
 20
-91.383346736372687
 30
0.0
 10
4163.2266018489536
 20
-91.646197058863891
 30
0.0
 10
4163.0132452878406
 20
-91.705838366370699
 30
0.0
 11
4165.8999967216714
 21
-91.259265466556826
 31
0.0
 11
4165.1962862228356
 21
-91.309647816971065
 31
0.0
 11
4164.5964648393256
 21
-91.352592197053596
 31
0.0
 11
4164.1380633113686
 21
-91.413739809595938
 31
0.0
 11
4163.6219807028547
 21
-91.53567356858477
 31
0.0
 11
4163.2721074221499
 21
-91.633476513170805
 31
0.0
 11
4163.0132452878406
 21
-91.705838366370699
 31
0.0
  0
SPLINE
  5
445
100
AcDbEntity
  8
0
  6
CONTINUOUS
 62
           3
100
AcDbSpline
210
0.0
220
0.0
230
1.0
 70
           0
 71
           3
 72
           8
 73
           5
 74
           7
 42
0.00000000001
 43
0.00000000001
 44
0.00000000001
 40
0.0
 40
0.0
 40
0.0
 40
1.2321288292623556
 40
2.2113508927708954
 40
2.9387184667285702
 40
2.9387184667285702
 40
2.9387184667285702
 10
4168.786748155504
 20
-91.705838366370699
 30
0.0
 10
4168.0674885010494
 20
-91.525641083800792
 30
0.0
 10
4167.1156260260959
 20
-91.287169441031892
 30
0.0
 10
4166.1387194651506
 20
-91.264745190775784
 30
0.0
 10
4165.8999967216714
 20
-91.259265466556826
 30
0.0
 11
4168.786748155504
 21
-91.705838366370699
 31
0.0
 11
4168.1147128338653
 21
-91.537472272149373
 31
0.0
 11
4167.5371261778573
 21
-91.392768554625221
 31
0.0
 11
4167.0808665470049
 21
-91.310352523376537
 31
0.0
 11
4166.5550879579732
 21
-91.274302656817127
 31
0.0
 11
4166.1831309024865
 21
-91.265764626231388
 31
0.0
 11
4165.8999967216714
 21
-91.259265466556826
 31
0.0
  0
SPLINE
  5
444
100
AcDbEntity
  8
0
  6
CONTINUOUS
 62
           3
100
AcDbSpline
210
0.0
220
0.0
230
1.0
 70
           0
 71
           3
 72
           8
 73
           5
 74
           7
 42
0.00000000001
 43
0.00000000001
 44
0.00000000001
 40
0.0
 40
0.0
 40
0.0
 40
0.7273681394924405
 40
1.7065914567907858
 40
2.9387223240403211
 40
2.9387223240403211
 40
2.9387223240403211
 10
4165.8999967216714
 20
-96.259260698180697
 30
0.0
 10
4166.138719501032
 20
-96.253781159112805
 30
0.0
 10
4167.115627146979
 20
-96.231357644987838
 30
0.0
 10
4168.0674888562444
 20
-95.992877021718868
 30
0.0
 10
4168.7867481553658
 20
-95.812672897107859
 30
0.0
 11
4165.8999967216714
 21
-96.259260698180697
 31
0.0
 11
4166.1831310149719
 21
-96.252761756495701
 31
0.0
 11
4166.5550883361511
 21
-96.24422400957647
 31
0.0
 11
4167.08086737551
 21
-96.208173469055197
 31
0.0
 11
4167.53712687193
 21
-96.125754576668612
 31
0.0
 11
4168.1147131849466
 21
-95.981045379303566
 31
0.0
 11
4168.7867481553658
 21
-95.812672897107859
 31
0.0
  0
SPLINE
  5
443
100
AcDbEntity
  8
0
  6
CONTINUOUS
 62
           3
100
AcDbSpline
210
0.0
220
0.0
230
1.0
 70
           0
 71
           3
 72
           8
 73
           5
 74
           7
 42
0.00000000001
 43
0.00000000001
 44
0.00000000001
 40
0.0
 40
0.0
 40
0.0
 40
0.709712655638515
 40
1.6878594213850531
 40
2.9354211178790122
 40
2.9354211178790122
 40
2.9354211178790122
 10
4163.0132452878406
 20
-95.81267289720472
 30
0.0
 10
4163.2266017037618
 20
-95.872319732300866
 30
0.0
 10
4164.166898912581
 20
-96.135193254609703
 30
0.0
 10
4165.1443400642474
 20
-96.205165430612851
 30
0.0
 10
4165.8999967216714
 20
-96.259260698180697
 30
0.0
 11
4163.0132452878406
 21
-95.81267289720472
 31
0.0
 11
4163.2721068549226
 21
-95.885041347613395
 31
0.0
 11
4163.6219787243272
 21
-95.982853028647156
 31
0.0
 11
4164.13805949163
 21
-96.104795981448618
 31
0.0
 11
4164.5964614170289
 21
-96.165944387927865
 31
0.0
 11
4165.1962845667986
 21
-96.20888398683357
 31
0.0
 11
4165.8999967216714
 21
-96.259260698180697
 31
0.0
  0
SPLINE
  5
442
100
AcDbEntity
  8
0
  6
CONTINUOUS
 62
           3
100
AcDbSpline
210
0.0
220
0.0
230
1.0
 70
           0
 71
           3
 72
           8
 73
           5
 74
           7
 42
0.00000000001
 43
0.00000000001
 44
0.00000000001
 40
0.0
 40
0.0
 40
0.0
 40
0.2779452695568432
 40
0.7862805426589334
 40
1.5429573555009237
 40
1.5429573555009237
 40
1.5429573555009237
 10
4170.2301237560059
 20
-91.259265466556826
 30
0.0
 10
4170.1959072124737
 20
-91.259711171324852
 30
0.0
 10
4169.7084969152684
 20
-91.266060178876842
 30
0.0
 10
4169.230857214985
 20
-91.493948222596828
 30
0.0
 10
4168.786748155504
 20
-91.705838366370699
 30
0.0
 11
4170.2301237560059
 21
-91.259265466556826
 31
0.0
 11
4170.1613872230637
 21
-91.260160828779107
 31
0.0
 11
4170.0236107112996
 21
-91.261955505909924
 31
0.0
 11
4169.7392914141255
 21
-91.287927770352553
 31
0.0
 11
4169.5165611146658
 21
-91.357635217746633
 31
0.0
 11
4169.191255925035
 21
-91.512842507327747
 31
0.0
 11
4168.786748155504
 21
-91.705838366370699
 31
0.0
  0
SPLINE
  5
441
100
AcDbEntity
  8
0
  6
CONTINUOUS
 62
           3
100
AcDbSpline
210
0.0
220
0.0
230
1.0
 70
           0
 71
           3
 72
           8
 73
           5
 74
           7
 42
0.00000000001
 43
0.00000000001
 44
0.00000000001
 40
0.0
 40
0.0
 40
0.0
 40
0.2779464854698504
 40
0.7862840844053213
 40
1.5429642659449825
 40
1.5429642659449825
 40
1.5429642659449825
 10
4170.2301237559641
 20
-96.259260698308708
 30
0.0
 10
4170.2643403053644
 20
-96.258815002805704
 30
0.0
 10
4170.7517530244531
 20
-96.252466098576861
 30
0.0
 10
4171.2293915039991
 20
-96.024570314613811
 30
0.0
 10
4171.6734995893639
 20
-95.812672897107859
 30
0.0
 11
4170.2301237559641
 21
-96.259260698308708
 31
0.0
 11
4170.2988605017481
 21
-96.258365352239025
 31
0.0
 11
4170.4366376402986
 21
-96.256570705035983
 31
0.0
 11
4170.7209580094723
 21
-96.230597711194775
 31
0.0
 11
4170.9436883486824
 21
-96.160887942589369
 31
0.0
 11
4171.2689927365118
 21
-96.005675367231206
 31
0.0
 11
4171.6734995893639
 21
-95.812672897107859
 31
0.0
  0
SPLINE
  5
440
100
AcDbEntity
  8
0
  6
CONTINUOUS
 62
           3
100
AcDbSpline
210
0.0
220
0.0
230
1.0
 70
           0
 71
           3
 72
           8
 73
           5
 74
           7
 42
0.00000000001
 43
0.00000000001
 44
0.00000000001
 40
0.0
 40
0.0
 40
0.0
 40
0.2779462752329292
 40
0.7862820883224759
 40
1.5429577306079112
 40
1.5429577306079112
 40
1.5429577306079112
 10
4161.5698696873387
 20
-91.259265466556826
 30
0.0
 10
4161.5356531390262
 20
-91.259711174439872
 30
0.0
 10
4161.0482408408461
 20
-91.266060251567751
 30
0.0
 10
4160.5706021281794
 20
-91.493948224746873
 30
0.0
 10
4160.1264938539716
 20
-91.705838366313856
 30
0.0
 11
4161.5698696873387
 21
-91.259265466556826
 31
0.0
 11
4161.5011329027993
 21
-91.260160838191211
 31
0.0
 11
4161.3633556458062
 21
-91.261955537328291
 31
0.0
 11
4161.0790356162615
 21
-91.28792786136988
 31
0.0
 11
4160.8563051375495
 21
-91.357635405015671
 31
0.0
 11
4160.5310008119695
 21
-91.512842555205822
 31
0.0
 11
4160.1264938539716
 21
-91.705838366313856
 31
0.0
  0
SPLINE
  5
43F
100
AcDbEntity
  8
0
  6
CONTINUOUS
 62
           3
100
AcDbSpline
210
0.0
220
0.0
230
1.0
 70
           0
 71
           3
 72
           8
 73
           5
 74
           7
 42
0.00000000001
 43
0.00000000001
 44
0.00000000001
 40
0.0
 40
0.0
 40
0.0
 40
0.2779454797525391
 40
0.7862825386953697
 40
1.5429638907269896
 40
1.5429638907269896
 40
1.5429638907269896
 10
4161.5698696873387
 20
-96.259260698180697
 30
0.0
 10
4161.6040862319187
 20
-96.25881500592277
 30
0.0
 10
4162.0914969500336
 20
-96.25246617126686
 30
0.0
 10
4162.5691364171871
 20
-96.024570316758854
 30
0.0
 10
4163.0132452878406
 20
-95.81267289720472
 30
0.0
 11
4161.5698696873387
 21
-96.259260698180697
 31
0.0
 11
4161.6386061814919
 21
-96.258365361620406
 31
0.0
 11
4161.7763825747934
 21
-96.256570736455416
 31
0.0
 11
4162.0607022116083
 21
-96.23059780221125
 31
0.0
 11
4162.2834323715751
 21
-96.160888129855891
 31
0.0
 11
4162.6087376234464
 21
-96.005675415144566
 31
0.0
 11
4163.0132452878406
 21
-95.81267289720472
 31
0.0
  0
SPLINE
  5
43E
100
AcDbEntity
  8
0
  6
CONTINUOUS
 62
           3
100
AcDbSpline
210
0.0
220
0.0
230
1.0
 70
           0
 71
           3
 72
           8
 73
           5
 74
           7
 42
0.00000000001
 43
0.00000000001
 44
0.00000000001
 40
0.0
 40
0.0
 40
0.0
 40
1.2475604207817075
 40
2.225706085293421
 40
2.9354176594303998
 40
2.9354176594303998
 40
2.9354176594303998
 10
4165.8999967216714
 20
-78.65926079356268
 30
0.0
 10
4165.1443408647247
 20
-78.713359095123678
 30
0.0
 10
4164.1669013821611
 20
-78.783335150222683
 30
0.0
 10
4163.2266017763604
 20
-79.046197072657833
 30
0.0
 10
4163.0132452878406
 20
-79.105841143961698
 30
0.0
 11
4165.8999967216714
 21
-78.65926079356268
 31
0.0
 11
4165.1962853948335
 21
-78.709640324430737
 31
0.0
 11
4164.5964631282113
 21
-78.75258231391291
 31
0.0
 11
4164.138061401537
 21
-78.813730323422433
 31
0.0
 11
4163.6219797136127
 21
-78.935668679331457
 31
0.0
 11
4163.272107138544
 21
-79.033475992152205
 31
0.0
 11
4163.0132452878406
 21
-79.105841143961698
 31
0.0
  0
SPLINE
  5
43D
100
AcDbEntity
  8
0
  6
CONTINUOUS
 62
           3
100
AcDbSpline
210
0.0
220
0.0
230
1.0
 70
           0
 71
           3
 72
           8
 73
           5
 74
           7
 42
0.00000000001
 43
0.00000000001
 44
0.00000000001
 40
0.0
 40
0.0
 40
0.0
 40
1.2321298483029346
 40
2.2113525386995692
 40
2.9387203954227648
 40
2.9387203954227648
 40
2.9387203954227648
 10
4168.786748155504
 20
-79.105841143961698
 30
0.0
 10
4168.0674886786437
 20
-78.925640440414782
 30
0.0
 10
4167.1156265865338
 20
-78.68716430739687
 30
0.0
 10
4166.1387194830913
 20
-78.664740425206901
 30
0.0
 10
4165.8999967216714
 20
-78.65926079356268
 30
0.0
 11
4168.786748155504
 21
-79.105841143961698
 31
0.0
 11
4168.1147130094178
 21
-78.937471855785375
 31
0.0
 11
4167.5371265248796
 21
-78.792765398350241
 31
0.0
 11
4167.0808669612525
 21
-78.710347936534873
 31
0.0
 11
4166.5550881470617
 21
-78.674297732995498
 31
0.0
 11
4166.1831309587287
 21
-78.665759844242999
 31
0.0
 11
4165.8999967216714
 21
-78.65926079356268
 31
0.0
  0
SPLINE
  5
43C
100
AcDbEntity
  8
0
  6
CONTINUOUS
 62
           3
100
AcDbSpline
210
0.0
220
0.0
230
1.0
 70
           0
 71
           3
 72
           8
 73
           5
 74
           7
 42
0.00000000001
 43
0.00000000001
 44
0.00000000001
 40
0.0
 40
0.0
 40
0.0
 40
0.7273675739577766
 40
1.7065896374659717
 40
2.938718466607269
 40
2.938718466607269
 40
2.938718466607269
 10
4165.8999967216714
 20
-83.659256025188824
 30
0.0
 10
4166.1387194651506
 20
-83.653776300964864
 30
0.0
 10
4167.1156260260959
 20
-83.631352050709893
 30
0.0
 10
4168.0674885010494
 20
-83.392880407943721
 30
0.0
 10
4168.7867481553658
 20
-83.21268312531879
 30
0.0
 11
4165.8999967216714
 21
-83.659256025188824
 31
0.0
 11
4166.1831309024865
 21
-83.652756865510639
 31
0.0
 11
4166.5550879579732
 21
-83.64421883492399
 31
0.0
 11
4167.0808665470113
 21
-83.608168968363941
 31
0.0
 11
4167.5371261778801
 21
-83.525752937112003
 31
0.0
 11
4168.1147128338362
 21
-83.381049219579566
 31
0.0
 11
4168.7867481553658
 21
-83.21268312531879
 31
0.0
  0
SPLINE
  5
43B
100
AcDbEntity
  8
0
  6
CONTINUOUS
 62
           3
100
AcDbSpline
210
0.0
220
0.0
230
1.0
 70
           0
 71
           3
 72
           8
 73
           5
 74
           7
 42
0.00000000001
 43
0.00000000001
 44
0.00000000001
 40
0.0
 40
0.0
 40
0.0
 40
0.7097104926824956
 40
1.6878550560207
 40
2.9354142011749875
 40
2.9354142011749875
 40
2.9354142011749875
 10
4163.0132452878406
 20
-83.212683125369722
 30
0.0
 10
4163.2266018489536
 20
-83.272324432880851
 30
0.0
 10
4164.1669038516484
 20
-83.535174755371827
 30
0.0
 10
4165.1443416651728
 20
-83.605154689607843
 30
0.0
 10
4165.8999967216714
 20
-83.659256025188824
 30
0.0
 11
4163.0132452878406
 21
-83.212683125369722
 31
0.0
 11
4163.2721074221508
 21
-83.285044978572856
 31
0.0
 11
4163.6219807028556
 21
-83.382847923160057
 31
0.0
 11
4164.1380633113695
 21
-83.504781682148675
 31
0.0
 11
4164.5964648393274
 21
-83.565929294691031
 31
0.0
 11
4165.1962862228356
 21
-83.608873674773889
 31
0.0
 11
4165.8999967216714
 21
-83.659256025188824
 31
0.0
  0
SPLINE
  5
43A
100
AcDbEntity
  8
0
  6
CONTINUOUS
 62
           3
100
AcDbSpline
210
0.0
220
0.0
230
1.0
 70
           0
 71
           3
 72
           8
 73
           5
 74
           7
 42
0.00000000001
 43
0.00000000001
 44
0.00000000001
 40
0.0
 40
0.0
 40
0.0
 40
0.2779453746545131
 40
0.7862815406698213
 40
1.5429606230904052
 40
1.5429606230904052
 40
1.5429606230904052
 10
4170.2301237560059
 20
-78.65926079356268
 30
0.0
 10
4170.1959072119516
 20
-78.65970649207884
 30
0.0
 10
4169.7084967042883
 20
-78.666055413184722
 30
0.0
 10
4169.2308571205722
 20
-78.893947362290874
 30
0.0
 10
4168.786748155504
 20
-79.105841143961698
 30
0.0
 11
4170.2301237560059
 21
-78.65926079356268
 31
0.0
 11
4170.1613872424587
 21
-78.660156142956524
 31
0.0
 11
4170.0236107899254
 21
-78.661950794105721
 31
0.0
 11
4169.7392913229296
 21
-78.687923393449637
 31
0.0
 11
4169.5165610932163
 21
-78.757631953323354
 31
0.0
 11
4169.1912558724653
 21
-78.912841955466689
 31
0.0
 11
4168.786748155504
 21
-79.105841143961698
 31
0.0
  0
SPLINE
  5
439
100
AcDbEntity
  8
0
  6
CONTINUOUS
 62
           3
100
AcDbSpline
210
0.0
220
0.0
230
1.0
 70
           0
 71
           3
 72
           8
 73
           5
 74
           7
 42
0.00000000001
 43
0.00000000001
 44
0.00000000001
 40
0.0
 40
0.0
 40
0.0
 40
0.2779462752338845
 40
0.7862820883238526
 40
1.5429577306475979
 40
1.5429577306475979
 40
1.5429577306475979
 10
4170.2301237560059
 20
-83.659256025188824
 30
0.0
 10
4170.2643403043194
 20
-83.658810317300777
 30
0.0
 10
4170.7517526024994
 20
-83.652461240175853
 30
0.0
 10
4171.2293913151661
 20
-83.424573266994685
 30
0.0
 10
4171.6734995893639
 20
-83.21268312531879
 30
0.0
 11
4170.2301237560059
 21
-83.659256025188824
 31
0.0
 11
4170.2988605405462
 21
-83.658360653550957
 31
0.0
 11
4170.4366377975402
 21
-83.656565954413395
 31
0.0
 11
4170.7209578270822
 21
-83.630593630373738
 31
0.0
 11
4170.9436883057906
 21
-83.560886086729852
 31
0.0
 11
4171.2689926313715
 21
-83.405678936509503
 31
0.0
 11
4171.6734995893639
 21
-83.21268312531879
 31
0.0
  0
SPLINE
  5
438
100
AcDbEntity
  8
0
  6
CONTINUOUS
 62
           3
100
AcDbSpline
210
0.0
220
0.0
230
1.0
 70
           0
 71
           3
 72
           8
 73
           5
 74
           7
 42
0.00000000001
 43
0.00000000001
 44
0.00000000001
 40
0.0
 40
0.0
 40
0.0
 40
0.277946380329192
 40
0.7862830863362935
 40
1.5429609982554255
 40
1.5429609982554255
 40
1.5429609982554255
 10
4161.5698696873387
 20
-78.65926079356268
 30
0.0
 10
4161.5356531385041
 20
-78.659706495192722
 30
0.0
 10
4161.0482406298688
 20
-78.666055485870857
 30
0.0
 10
4160.570602033762
 20
-78.893947364441829
 30
0.0
 10
4160.1264938539716
 20
-79.10584114402468
 30
0.0
 11
4161.5698696873387
 21
-78.65926079356268
 31
0.0
 11
4161.5011329221952
 21
-78.660156152367421
 31
0.0
 11
4161.3633557244348
 21
-78.661950825521586
 31
0.0
 11
4161.0790355250701
 21
-78.687923484462928
 31
0.0
 11
4160.8563051161073
 21
-78.757632140588441
 31
0.0
 11
4160.5310007594007
 21
-78.912842003374195
 31
0.0
 11
4160.1264938539716
 21
-79.10584114402468
 31
0.0
  0
SPLINE
  5
437
100
AcDbEntity
  8
0
  6
CONTINUOUS
 62
           3
100
AcDbSpline
210
0.0
220
0.0
230
1.0
 70
           0
 71
           3
 72
           8
 73
           5
 74
           7
 42
0.00000000001
 43
0.00000000001
 44
0.00000000001
 40
0.0
 40
0.0
 40
0.0
 40
0.277945269556427
 40
0.7862805426584809
 40
1.5429573555011753
 40
1.5429573555011753
 40
1.5429573555011753
 10
4161.5698696873387
 20
-83.659256025188824
 30
0.0
 10
4161.6040862308691
 20
-83.658810320419889
 30
0.0
 10
4162.0914965280772
 20
-83.652461312863807
 30
0.0
 10
4162.5691362283578
 20
-83.42457326914473
 30
0.0
 10
4163.0132452878406
 20
-83.212683125369722
 30
0.0
 11
4161.5698696873387
 21
-83.659256025188824
 31
0.0
 11
4161.6386062202801
 21
-83.658360662965492
 31
0.0
 11
4161.7763827320441
 21
-83.656565985833367
 31
0.0
 11
4162.0607020292191
 21
-83.630593721388848
 31
0.0
 11
4162.2834323286788
 21
-83.560886273994413
 31
0.0
 11
4162.6087375183088
 21
-83.405678984413399
 31
0.0
 11
4163.0132452878406
 21
-83.212683125369722
 31
0.0
  0
SPLINE
  5
436
100
AcDbEntity
  8
0
  6
CONTINUOUS
 62
           3
100
AcDbSpline
210
0.0
220
0.0
230
1.0
 70
           0
 71
           3
 72
           8
 73
           5
 74
           7
 42
0.00000000001
 43
0.00000000001
 44
0.00000000001
 40
0.0
 40
0.0
 40
0.0
 40
1.2475616964939999
 40
2.2257084622404708
 40
2.9354211178796286
 40
2.9354211178796286
 40
2.9354211178796286
 10
4165.8999967216714
 20
-83.659256025188824
 30
0.0
 10
4165.1443400642474
 20
-83.713351292756897
 30
0.0
 10
4164.166898912581
 20
-83.783323468760727
 30
0.0
 10
4163.2266017037618
 20
-84.046196991068882
 30
0.0
 10
4163.0132452878406
 20
-84.105843826167757
 30
0.0
 11
4165.8999967216714
 21
-83.659256025188824
 31
0.0
 11
4165.1962845667986
 21
-83.709632736536221
 31
0.0
 11
4164.596461417028
 21
-83.752572335442267
 31
0.0
 11
4164.1380594916291
 21
-83.813720741921628
 31
0.0
 11
4163.6219787243281
 21
-83.935663694722805
 31
0.0
 11
4163.2721068549235
 21
-84.033475375757092
 31
0.0
 11
4163.0132452878406
 21
-84.105843826167757
 31
0.0
  0
SPLINE
  5
435
100
AcDbEntity
  8
0
  6
CONTINUOUS
 62
           3
100
AcDbSpline
210
0.0
220
0.0
230
1.0
 70
           0
 71
           3
 72
           8
 73
           5
 74
           7
 42
0.00000000001
 43
0.00000000001
 44
0.00000000001
 40
0.0
 40
0.0
 40
0.0
 40
1.2321308673611433
 40
2.2113541846595419
 40
2.9387223241519984
 40
2.9387223241519984
 40
2.9387223241519984
 10
4168.786748155504
 20
-84.105843826167757
 30
0.0
 10
4168.0674888562444
 20
-83.925639701649743
 30
0.0
 10
4167.115627146979
 20
-83.687159078379864
 30
0.0
 10
4166.138719501032
 20
-83.6647355642599
 30
0.0
 10
4165.8999967216714
 20
-83.659256025188824
 30
0.0
 11
4168.786748155504
 21
-84.105843826167757
 31
0.0
 11
4168.1147131849757
 21
-83.937471344040361
 31
0.0
 11
4167.5371268719091
 21
-83.792762146694173
 31
0.0
 11
4167.0808673755046
 21
-83.710343254311994
 31
0.0
 11
4166.5550883361511
 21
-83.674292713794102
 31
0.0
 11
4166.1831310149719
 21
-83.665754966875681
 31
0.0
 11
4165.8999967216714
 21
-83.659256025188824
 31
0.0
  0
SPLINE
  5
434
100
AcDbEntity
  8
0
  6
CONTINUOUS
 62
           3
100
AcDbSpline
210
0.0
220
0.0
230
1.0
 70
           0
 71
           3
 72
           8
 73
           5
 74
           7
 42
0.00000000001
 43
0.00000000001
 44
0.00000000001
 40
0.0
 40
0.0
 40
0.0
 40
0.7273681394925136
 40
1.7065914567908589
 40
2.9387223240355316
 40
2.9387223240355316
 40
2.9387223240355316
 10
4165.8999967216714
 20
-88.659266157973889
 30
0.0
 10
4166.138719501032
 20
-88.653786618902814
 30
0.0
 10
4167.115627146979
 20
-88.631363104777847
 30
0.0
 10
4168.0674888562444
 20
-88.392882481508877
 30
0.0
 10
4168.7867481553658
 20
-88.212678356917877
 30
0.0
 11
4165.8999967216714
 21
-88.659266157973889
 31
0.0
 11
4166.1831310149719
 21
-88.652767216286506
 31
0.0
 11
4166.5550883361511
 21
-88.644229469366493
 31
0.0
 11
4167.08086737551
 21
-88.608178928845149
 31
0.0
 11
4167.5371268719309
 21
-88.525760036458394
 31
0.0
 11
4168.1147131849466
 21
-88.381050839098492
 31
0.0
 11
4168.7867481553658
 21
-88.212678356917877
 31
0.0
  0
SPLINE
  5
433
100
AcDbEntity
  8
0
  6
CONTINUOUS
 62
           3
100
AcDbSpline
210
0.0
220
0.0
230
1.0
 70
           0
 71
           3
 72
           8
 73
           5
 74
           7
 42
0.00000000001
 43
0.00000000001
 44
0.00000000001
 40
0.0
 40
0.0
 40
0.0
 40
0.7097107189161113
 40
1.6878556121220774
 40
2.935415097411727
 40
2.935415097411727
 40
2.935415097411727
 10
4163.0132452878406
 20
-88.21267835699382
 30
0.0
 10
4163.2266018694936
 20
-88.272319499532841
 30
0.0
 10
4164.1669045504623
 20
-88.535169259276699
 30
0.0
 10
4165.1443418916842
 20
-88.605158002362714
 30
0.0
 10
4165.8999967216714
 20
-88.659266157973889
 30
0.0
 11
4163.0132452878406
 21
-88.21267835699382
 31
0.0
 11
4163.272107507798
 21
-88.285040027016066
 31
0.0
 11
4163.6219810043649
 21
-88.382842752004763
 31
0.0
 11
4164.1380638628552
 21
-88.504777235387678
 31
0.0
 11
4164.5964653461288
 21
-88.565927670992522
 31
0.0
 11
4165.1962864627922
 21
-88.608877458422953
 31
0.0
 11
4165.8999967216714
 21
-88.659266157973889
 31
0.0
  0
SPLINE
  5
432
100
AcDbEntity
  8
0
  6
CONTINUOUS
 62
           3
100
AcDbSpline
210
0.0
220
0.0
230
1.0
 70
           0
 71
           3
 72
           8
 73
           5
 74
           7
 42
0.00000000001
 43
0.00000000001
 44
0.00000000001
 40
0.0
 40
0.0
 40
0.0
 40
0.2779454797525346
 40
0.7862825386965737
 40
1.5429638907281675
 40
1.5429638907281675
 40
1.5429638907281675
 10
4170.2301237560059
 20
-83.659256025188824
 30
0.0
 10
4170.1959072114259
 20
-83.659701717445841
 30
0.0
 10
4169.708496493311
 20
-83.666050552102888
 30
0.0
 10
4169.2308570261539
 20
-83.893946406608848
 30
0.0
 10
4168.786748155504
 20
-84.105843826167757
 30
0.0
 11
4170.2301237560059
 21
-83.659256025188824
 31
0.0
 11
4170.1613872618527
 21
-83.660151361748518
 31
0.0
 11
4170.0236108685522
 21
-83.661945986913594
 31
0.0
 11
4169.7392912317355
 21
-83.687918921158143
 31
0.0
 11
4169.5165610717686
 21
-83.757628593513175
 31
0.0
 11
4169.1912558198946
 21
-83.912841308224657
 31
0.0
 11
4168.786748155504
 21
-84.105843826167757
 31
0.0
  0
SPLINE
  5
431
100
AcDbEntity
  8
0
  6
CONTINUOUS
 62
           3
100
AcDbSpline
210
0.0
220
0.0
230
1.0
 70
           0
 71
           3
 72
           8
 73
           5
 74
           7
 42
0.00000000001
 43
0.00000000001
 44
0.00000000001
 40
0.0
 40
0.0
 40
0.0
 40
0.2779464854264046
 40
0.7862840843611916
 40
1.5429642658924323
 40
1.5429642658924323
 40
1.5429642658924323
 10
4170.2301237560059
 20
-88.659266157973889
 30
0.0
 10
4170.2643403053644
 20
-88.658820462594804
 30
0.0
 10
4170.7517530244531
 20
-88.652471558365733
 30
0.0
 10
4171.2293915039991
 20
-88.424575774405866
 30
0.0
 10
4171.6734995893639
 20
-88.212678356917877
 30
0.0
 11
4170.2301237560059
 21
-88.659266157973889
 31
0.0
 11
4170.2988605017536
 21
-88.658370811997173
 31
0.0
 11
4170.4366376402813
 21
-88.656576164825239
 31
0.0
 11
4170.7209580094686
 21
-88.630603170983917
 31
0.0
 11
4170.9436883486842
 21
-88.560893402378994
 31
0.0
 11
4171.2689927365118
 21
-88.405680827027169
 31
0.0
 11
4171.6734995893639
 21
-88.212678356917877
 31
0.0
  0
SPLINE
  5
430
100
AcDbEntity
  8
0
  6
CONTINUOUS
 62
           3
100
AcDbSpline
210
0.0
220
0.0
230
1.0
 70
           0
 71
           3
 72
           8
 73
           5
 74
           7
 42
0.00000000001
 43
0.00000000001
 44
0.00000000001
 40
0.0
 40
0.0
 40
0.0
 40
0.2779464854281302
 40
0.7862840843644148
 40
1.5429642658501814
 40
1.5429642658501814
 40
1.5429642658501814
 10
4161.5698696873387
 20
-83.659256025188824
 30
0.0
 10
4161.5356531379803
 20
-83.659701720560861
 30
0.0
 10
4161.0482404188879
 20
-83.666050624789705
 30
0.0
 10
4160.5706019393456
 20
-83.89394640875571
 30
0.0
 10
4160.1264938539716
 20
-84.105843826119781
 30
0.0
 11
4161.5698696873387
 21
-83.659256025188824
 31
0.0
 11
4161.5011329415902
 21
-83.660151371160225
 31
0.0
 11
4161.3633558030615
 21
-83.661946018330354
 31
0.0
 11
4161.0790354338724
 21
-83.68791901217304
 31
0.0
 11
4160.8563050946514
 21
-83.757628780782369
 31
0.0
 11
4160.5310007068283
 21
-83.912841356103385
 31
0.0
 11
4160.1264938539716
 21
-84.105843826119781
 31
0.0
  0
SPLINE
  5
42F
100
AcDbEntity
  8
0
  6
CONTINUOUS
 62
           3
100
AcDbSpline
210
0.0
220
0.0
230
1.0
 70
           0
 71
           3
 72
           8
 73
           5
 74
           7
 42
0.00000000001
 43
0.00000000001
 44
0.00000000001
 40
0.0
 40
0.0
 40
0.0
 40
0.2779454797525613
 40
0.7862825386943491
 40
1.5429638907269481
 40
1.5429638907269481
 40
1.5429638907269481
 10
4161.5698696873387
 20
-88.659266157973889
 30
0.0
 10
4161.6040862319187
 20
-88.658820465716872
 30
0.0
 10
4162.0914969500336
 20
-88.652471631055732
 30
0.0
 10
4162.5691364171871
 20
-88.424575776552729
 30
0.0
 10
4163.0132452878406
 20
-88.21267835699382
 30
0.0
 11
4161.5698696873387
 21
-88.659266157973889
 31
0.0
 11
4161.6386061814919
 21
-88.658370821413826
 31
0.0
 11
4161.7763825747934
 21
-88.65657619624767
 31
0.0
 11
4162.0607022116092
 21
-88.630603262001515
 31
0.0
 11
4162.2834323715742
 21
-88.560893589646952
 31
0.0
 11
4162.6087376234473
 21
-88.405680874936564
 31
0.0
 11
4163.0132452878406
 21
-88.21267835699382
 31
0.0
  0
SPLINE
  5
42E
100
AcDbEntity
  8
0
  6
CONTINUOUS
 62
           3
100
AcDbSpline
210
0.0
220
0.0
230
1.0
 70
           0
 71
           3
 72
           8
 73
           5
 74
           7
 42
0.00000000001
 43
0.00000000001
 44
0.00000000001
 40
0.0
 40
0.0
 40
0.0
 40
0.4813884775019912
 40
1.3325655942390127
 40
2.5594910572497538
 40
2.5594910572497538
 40
2.5594910572497538
 10
4163.3999967775544
 20
-72.059260829329787
 30
0.0
 10
4163.4592615843867
 20
-72.058815130675839
 30
0.0
 10
4164.3034817008338
 20
-72.052466206400823
 30
0.0
 10
4165.1307775679579
 20
-71.824574260502686
 30
0.0
 10
4165.8999967216714
 20
-71.612680478933726
 30
0.0
 11
4163.3999967775544
 21
-72.059260829329787
 31
0.0
 11
4163.5206888783632
 21
-72.058353169120338
 31
0.0
 11
4163.7642355671233
 21
-72.056521585799899
 31
0.0
 11
4164.2533839007083
 21
-72.030144291586026
 31
0.0
 11
4164.6423366340459
 21
-71.95912316774259
 31
0.0
 11
4165.2009721229078
 21
-71.805238041920433
 31
0.0
 11
4165.8999967216714
 21
-71.612680478933726
 31
0.0
  0
SPLINE
  5
42D
100
AcDbEntity
  8
0
  6
CONTINUOUS
 62
           3
100
AcDbSpline
210
0.0
220
0.0
230
1.0
 70
           0
 71
           3
 72
           8
 73
           5
 74
           7
 42
0.00000000001
 43
0.00000000001
 44
0.00000000001
 40
0.0
 40
0.0
 40
0.0
 40
0.4813883392783164
 40
1.3325653926380527
 40
2.5594910488265032
 40
2.5594910488265032
 40
2.5594910488265032
 10
4168.3999966657648
 20
-72.059260829329787
 30
0.0
 10
4168.4592614719422
 20
-72.058815130919811
 30
0.0
 10
4169.303481313289
 20
-72.052466212163836
 30
0.0
 10
4170.130777332779
 20
-71.824574260673899
 30
0.0
 10
4170.8999966098636
 20
-71.612680478927814
 30
0.0
 11
4168.3999966657648
 21
-72.059260829329787
 31
0.0
 11
4168.5206887308796
 21
-72.058353169879638
 31
0.0
 11
4168.764235313869
 21
-72.056521588349199
 31
0.0
 11
4169.2533835507402
 21
-72.030144299168128
 31
0.0
 11
4169.6423362625128
 21
-71.959123183995715
 31
0.0
 11
4170.2009718844838
 21
-71.805238046067828
 31
0.0
 11
4170.8999966098636
 21
-71.612680478927814
 31
0.0
  0
SPLINE
  5
42C
100
AcDbEntity
  8
0
  6
CONTINUOUS
 62
           3
100
AcDbSpline
210
0.0
220
0.0
230
1.0
 70
           0
 71
           3
 72
           8
 73
           5
 74
           7
 42
0.00000000001
 43
0.00000000001
 44
0.00000000001
 40
0.0
 40
0.0
 40
0.0
 40
0.0169507227490158
 40
0.1476151553704312
 40
0.4465803504019732
 40
0.4465803504019732
 40
0.4465803504019732
 10
4160.8999968334356
 20
-72.059260829329787
 30
0.0
 10
4160.8999968334356
 20
-72.053652404046716
 30
0.0
 10
4160.8999968334356
 20
-72.030967809114827
 30
0.0
 10
4160.8999968334356
 20
-71.792323538803885
 30
0.0
 10
4160.899996833472
 20
-71.612680478927814
 30
0.0
 11
4160.8999968334356
 21
-72.059260829329787
 31
0.0
 11
4160.8999968334356
 21
-72.054403289497927
 31
0.0
 11
4160.8999968334356
 21
-72.05104752056846
 31
0.0
 11
4160.8999968334356
 21
-72.017842853471905
 31
0.0
 11
4160.8999968334356
 21
-71.95838827508949
 31
0.0
 11
4160.8999968334447
 21
-71.788928957906279
 31
0.0
 11
4160.899996833472
 21
-71.612680478927814
 31
0.0
  0
SPLINE
  5
42B
100
AcDbEntity
  8
0
  6
CONTINUOUS
 62
           3
100
AcDbSpline
210
0.0
220
0.0
230
1.0
 70
           0
 71
           3
 72
           8
 73
           5
 74
           7
 42
0.00000000001
 43
0.00000000001
 44
0.00000000001
 40
0.0
 40
0.0
 40
0.0
 40
0.298965195031542
 40
0.4296296276529574
 40
0.4465803504019732
 40
0.4465803504019732
 40
0.4465803504019732
 10
4170.8999966098636
 20
-71.612680478927814
 30
0.0
 10
4170.8999966099091
 20
-71.792323538803885
 30
0.0
 10
4170.8999966099091
 20
-72.030967809114827
 30
0.0
 10
4170.8999966099091
 20
-72.053652404046716
 30
0.0
 10
4170.8999966099091
 20
-72.059260829329787
 30
0.0
 11
4170.8999966098636
 21
-71.612680478927814
 31
0.0
 11
4170.8999966098972
 21
-71.788928957906279
 31
0.0
 11
4170.8999966099091
 21
-71.95838827508949
 31
0.0
 11
4170.8999966099091
 21
-72.017842853471905
 31
0.0
 11
4170.8999966099091
 21
-72.05104752056846
 31
0.0
 11
4170.8999966099091
 21
-72.054403289497927
 31
0.0
 11
4170.8999966099091
 21
-72.059260829329787
 31
0.0
  0
CIRCLE
  5
42A
100
AcDbEntity
  8
1
  6
CONTINUOUS
 62
           3
100
AcDbCircle
 10
508.47225532188
 20
-161.058411775177
 40
40.0
  0
CIRCLE
  5
429
100
AcDbEntity
  8
1
  6
CONTINUOUS
 62
           7
100
AcDbCircle
 10
0.0
 20
3765.74073989777
 40
317.5
  0
CIRCLE
  5
428
100
AcDbEntity
  8
1
  6
CONTINUOUS
 62
           4
100
AcDbCircle
 10
0.0
 20
3765.74073989777
 40
84.123000000001
  0
CIRCLE
  5
427
100
AcDbEntity
  8
1
  6
CONTINUOUS
 62
           4
100
AcDbCircle
 10
0.0
 20
3765.74073989777
 40
110.700000000001
  0
CIRCLE
  5
426
100
AcDbEntity
  8
1
  6
CONTINUOUS
 62
           7
100
AcDbCircle
 10
-450.0
 20
2405.74073989777
 40
45.0
  0
CIRCLE
  5
425
100
AcDbEntity
  8
1
  6
CONTINUOUS
 62
           2
100
AcDbCircle
 10
4550.0
 20
-856.25926010223
 40
8.350000000002
  0
CIRCLE
  5
424
100
AcDbEntity
  8
1
  6
CONTINUOUS
 62
           7
100
AcDbCircle
 10
4550.0
 20
-856.25926010223
 40
15.0
  0
CIRCLE
  5
423
100
AcDbEntity
  8
1
  6
CONTINUOUS
 62
           2
100
AcDbCircle
 10
3515.0
 20
-128.75926010223
 40
45.0
  0
CIRCLE
  5
422
100
AcDbEntity
  8
1
  6
CONTINUOUS
 62
           4
100
AcDbCircle
 10
3335.0
 20
43.74073989777
 40
10.0
  0
CIRCLE
  5
421
100
AcDbEntity
  8
1
  6
CONTINUOUS
 62
           4
100
AcDbCircle
 10
3335.0
 20
43.74073989777
 40
40.0
  0
CIRCLE
  5
420
100
AcDbEntity
  8
1
  6
CONTINUOUS
 62
           4
100
AcDbCircle
 10
3597.5
 20
-16.259260102241
 40
15.0
  0
CIRCLE
  5
41F
100
AcDbEntity
  8
1
  6
CONTINUOUS
 62
           4
100
AcDbCircle
 10
3530.0
 20
18.740739897759
 40
15.0
  0
CIRCLE
  5
41E
100
AcDbEntity
  8
1
  6
CONTINUOUS
 62
           4
100
AcDbCircle
 10
3495.0
 20
18.740739897759
 40
15.0
  0
ARC
  5
41D
100
AcDbEntity
  8
1
  6
CONTINUOUS
 62
           3
100
AcDbCircle
 10
508.47225532188
 20
-161.058411775177
 40
28.750000000009
100
AcDbArc
 50
83.827498000008
 51
96.172501999992
  0
ARC
  5
41C
100
AcDbEntity
  8
1
  6
CONTINUOUS
 62
           3
100
AcDbCircle
 10
508.47225532188
 20
-161.058411775177
 40
28.749999999988
100
AcDbArc
 50
-96.172501999996
 51
-83.827498000004
  0
ARC
  5
41B
100
AcDbEntity
  8
1
  6
CONTINUOUS
 62
           3
100
AcDbCircle
 10
508.47225532188
 20
-161.058411775177
 40
10.75
100
AcDbArc
 50
0.0
 51
61.226493000005
  0
ARC
  5
41A
100
AcDbEntity
  8
1
  6
CONTINUOUS
 62
           3
100
AcDbCircle
 10
508.47225532188
 20
-161.058411775177
 40
10.749999999999
100
AcDbArc
 50
-61.226493000026
 51
0.0
  0
ARC
  5
419
100
AcDbEntity
  8
1
  6
CONTINUOUS
 62
           3
100
AcDbCircle
 10
508.47225532188
 20
-161.058411775177
 40
10.749999999993
100
AcDbArc
 50
118.773507000004
 51
-118.773506999983
  0
ARC
  5
418
100
AcDbEntity
  8
1
  6
CONTINUOUS
 62
           3
100
AcDbCircle
 10
512.510557321879
 20
-161.058411775177
 40
10.000000000004
100
AcDbArc
 50
174.993206999972
 51
-174.993207000025
  0
ARC
  5
417
100
AcDbEntity
  8
1
  6
CONTINUOUS
 62
           3
100
AcDbCircle
 10
504.433952321879
 20
-161.058411775177
 40
10.000000000005
100
AcDbArc
 50
-5.006792999974
 51
5.006793000027
  0
ARC
  5
416
100
AcDbEntity
  8
1
  6
CONTINUOUS
 62
           3
100
AcDbCircle
 10
505.434752321878
 20
-132.972185775177
 40
0.5
100
AcDbArc
 50
96.172501999951
 51
174.99320699856
  0
ARC
  5
415
100
AcDbEntity
  8
1
  6
CONTINUOUS
 62
           3
100
AcDbCircle
 10
511.509758321879
 20
-132.972185775177
 40
0.499999999997
100
AcDbArc
 50
5.006793001439
 51
83.827497998793
  0
ARC
  5
414
100
AcDbEntity
  8
1
  6
CONTINUOUS
 62
           3
100
AcDbCircle
 10
505.434752321878
 20
-189.144637775168
 40
0.499999999996
100
AcDbArc
 50
-174.993206999829
 51
-96.17250199995
  0
ARC
  5
413
100
AcDbEntity
  8
1
  6
CONTINUOUS
 62
           3
100
AcDbCircle
 10
511.509758321879
 20
-189.144637775168
 40
0.500000000002
100
AcDbArc
 50
-83.827497998794
 51
-5.006793000171
  0
ARC
  5
412
100
AcDbEntity
  8
0
  6
CONTINUOUS
 62
           3
100
AcDbCircle
 10
4165.899996721668
 20
-101.259260102008
 40
3.999999999996
100
AcDbArc
 50
180.0
 51
0.0
  0
ARC
  5
411
100
AcDbEntity
  8
0
  6
CONTINUOUS
 62
           3
100
AcDbCircle
 10
4165.899996721668
 20
-141.259260102171
 40
45.999999999962
100
AcDbArc
 50
180.0
 51
0.0
  0
ARC
  5
410
100
AcDbEntity
  8
0
  6
CONTINUOUS
 62
           3
100
AcDbCircle
 10
4165.899996721668
 20
-141.259260102171
 40
53.999999999956
100
AcDbArc
 50
180.0
 51
0.0
  0
ARC
  5
40F
100
AcDbEntity
  8
0
  6
CONTINUOUS
 62
           3
100
AcDbCircle
 10
4159.426494029873
 20
-66.259260102234
 40
0.900000000001
100
AcDbArc
 50
-117.266044450596
 51
-90.0
  0
ARC
  5
40E
100
AcDbEntity
  8
0
  6
CONTINUOUS
 62
           3
100
AcDbCircle
 10
4172.373499413463
 20
-66.259260102234
 40
0.900000000001
100
AcDbArc
 50
-90.0
 51
-62.733955549404
  0
ARC
  5
40D
100
AcDbEntity
  8
0
  6
CONTINUOUS
 62
           3
100
AcDbCircle
 10
4107.899996721815
 20
74.74073989765
 40
0.999999999996
100
AcDbArc
 50
-90.0
 51
90.0
  0
ARC
  5
40C
100
AcDbEntity
  8
0
  6
CONTINUOUS
 62
           3
100
AcDbCircle
 10
4223.89999672152
 20
74.74073989765
 40
1.0
100
AcDbArc
 50
90.0
 51
-90.0
  0
ARC
  5
40B
100
AcDbEntity
  8
0
  6
CONTINUOUS
 62
           3
100
AcDbCircle
 10
4223.89999672152
 20
52.740739897766
 40
1.0
100
AcDbArc
 50
90.0
 51
-90.0
  0
ARC
  5
40A
100
AcDbEntity
  8
0
  6
CONTINUOUS
 62
           3
100
AcDbCircle
 10
4223.89999672152
 20
-25.259260102168
 40
0.999999999997
100
AcDbArc
 50
90.0
 51
-90.0
  0
ARC
  5
409
100
AcDbEntity
  8
0
  6
CONTINUOUS
 62
           3
100
AcDbCircle
 10
4223.89999672152
 20
-47.259260102052
 40
1.0
100
AcDbArc
 50
90.0
 51
-90.0
  0
ARC
  5
408
100
AcDbEntity
  8
0
  6
CONTINUOUS
 62
           3
100
AcDbCircle
 10
4107.899996721815
 20
-47.259260102052
 40
0.999999999996
100
AcDbArc
 50
-90.0
 51
90.0
  0
ARC
  5
407
100
AcDbEntity
  8
0
  6
CONTINUOUS
 62
           3
100
AcDbCircle
 10
4107.899996721815
 20
-25.259260102168
 40
1.0
100
AcDbArc
 50
-90.0
 51
90.0
  0
ARC
  5
406
100
AcDbEntity
  8
0
  6
CONTINUOUS
 62
           3
100
AcDbCircle
 10
4107.899996721815
 20
52.740739897766
 40
0.999999999995
100
AcDbArc
 50
-90.0
 51
90.0
  0
ARC
  5
405
100
AcDbEntity
  8
0
  6
CONTINUOUS
 62
           3
100
AcDbCircle
 10
4103.399996721819
 20
-88.259260102117
 40
2.499999999996
100
AcDbArc
 50
0.0
 51
180.0
  0
ARC
  5
404
100
AcDbEntity
  8
0
  6
CONTINUOUS
 62
           3
100
AcDbCircle
 10
4103.399996721819
 20
175.740739897669
 40
2.499999999996
100
AcDbArc
 50
180.0
 51
0.0
  0
ARC
  5
403
100
AcDbEntity
  8
0
  6
CONTINUOUS
 62
           3
100
AcDbCircle
 10
4228.399996721517
 20
175.740739897669
 40
2.499999999998
100
AcDbArc
 50
180.0
 51
0.0
  0
ARC
  5
402
100
AcDbEntity
  8
0
  6
CONTINUOUS
 62
           3
100
AcDbCircle
 10
4228.399996721517
 20
-88.259260102117
 40
2.499999999996
100
AcDbArc
 50
0.0
 51
180.0
  0
ARC
  5
401
100
AcDbEntity
  8
1
  6
CONTINUOUS
 62
           3
100
AcDbCircle
 10
4670.163567691037
 20
468.740739897771
 40
5.871834995066
100
AcDbArc
 50
-90.0
 51
0.0
  0
ARC
  5
400
100
AcDbEntity
  8
1
  6
CONTINUOUS
 62
           3
100
AcDbCircle
 10
4670.163567691037
 20
468.740739897771
 40
5.871834995067
100
AcDbArc
 50
38.599713917926
 51
90.0
  0
ARC
  5
3FF
100
AcDbEntity
  8
1
  6
CONTINUOUS
 62
           3
100
AcDbCircle
 10
4670.163567691037
 20
468.740739897771
 40
5.871834995067
100
AcDbArc
 50
0.0
 51
38.599713917926
  0
ARC
  5
3FE
100
AcDbEntity
  8
1
  6
CONTINUOUS
 62
           3
100
AcDbCircle
 10
4670.163567691037
 20
468.740739897771
 40
9.5
100
AcDbArc
 50
0.0
 51
125.916957371426
  0
ARC
  5
3FD
100
AcDbEntity
  8
1
  6
CONTINUOUS
 62
           3
100
AcDbCircle
 10
4670.163567691037
 20
468.740739897771
 40
9.499999999999
100
AcDbArc
 50
-124.797812779174
 51
0.0
  0
ARC
  5
3FC
100
AcDbEntity
  8
7
  6
CONTINUOUS
 62
           7
100
AcDbCircle
 10
108.799999999999
 20
1421.040739897768
 40
3.200000000001
100
AcDbArc
 50
0.0
 51
90.0
  0
ARC
  5
3FB
100
AcDbEntity
  8
7
  6
CONTINUOUS
 62
           7
100
AcDbCircle
 10
107.923186999999
 20
1426.24073989777
 40
1.999999999999
100
AcDbArc
 50
-124.999999999928
 51
-90.0
  0
ARC
  5
3FA
100
AcDbEntity
  8
7
  6
CONTINUOUS
 62
           7
100
AcDbCircle
 10
87.299999999999
 20
1442.781873897769
 40
2.0
100
AcDbArc
 50
180.0
 51
-124.999999999944
  0
ARC
  5
3F9
100
AcDbEntity
  8
7
  6
CONTINUOUS
 62
           7
100
AcDbCircle
 10
82.099999999999
 20
1442.540739897768
 40
3.200000000001
100
AcDbArc
 50
0.0
 51
90.0
  0
ARC
  5
3F8
100
AcDbEntity
  8
7
  6
CONTINUOUS
 62
           7
100
AcDbCircle
 10
-89.800000000001
 20
1442.781873897769
 40
1.999999999999
100
AcDbArc
 50
-55.000000000056
 51
0.0
  0
ARC
  5
3F7
100
AcDbEntity
  8
7
  6
CONTINUOUS
 62
           7
100
AcDbCircle
 10
-84.6
 20
1442.540739897768
 40
3.200000000002
100
AcDbArc
 50
90.0
 51
180.0
  0
ARC
  5
3F6
100
AcDbEntity
  8
7
  6
CONTINUOUS
 62
           7
100
AcDbCircle
 10
-105.800000000001
 20
1420.852096897768
 40
6.200000000002
100
AcDbArc
 50
122.68191500001
 51
180.0
  0
ARC
  5
3F5
100
AcDbEntity
  8
1
  6
CONTINUOUS
 62
           7
100
AcDbCircle
 10
0.0
 20
3765.74073989777
 40
125.0
100
AcDbArc
 50
19.47546158221
 51
90.0
  0
ARC
  5
3F4
100
AcDbEntity
  8
1
  6
CONTINUOUS
 62
           7
100
AcDbCircle
 10
0.0
 20
3765.74073989777
 40
125.0
100
AcDbArc
 50
90.0
 51
-19.47546158221
  0
ARC
  5
3F3
100
AcDbEntity
  8
1
  6
CONTINUOUS
 62
           7
100
AcDbCircle
 10
55.0
 20
3750.740739897768
 40
359.999999999999
100
AcDbArc
 50
-1.498629881627
 51
0.0
  0
ARC
  5
3F2
100
AcDbEntity
  8
1
  6
CONTINUOUS
 62
           7
100
AcDbCircle
 10
160.551161566789
 20
4094.91940322817
 40
4.999999999997
100
AcDbArc
 50
163.34839729721
 51
-17.447383814428
  0
ARC
  5
3F1
100
AcDbEntity
  8
1
  6
CONTINUOUS
 62
           7
100
AcDbCircle
 10
55.0
 20
3750.740739897768
 40
360.000000000004
100
AcDbArc
 50
18.095065654746
 51
72.154725629709
  0
ARC
  5
3F0
100
AcDbEntity
  8
1
  6
CONTINUOUS
 62
           7
100
AcDbCircle
 10
55.0
 20
3750.740739897768
 40
360.0
100
AcDbArc
 50
0.0
 51
16.503503431389
  0
ARC
  5
3EF
100
AcDbEntity
  8
1
  6
CONTINUOUS
 62
           7
100
AcDbCircle
 10
398.7152245979
 20
3857.791402574908
 40
5.000000000001
100
AcDbArc
 50
107.697175098847
 51
-73.098606012766
  0
ARC
  5
3EE
100
AcDbEntity
  8
1
  6
CONTINUOUS
 62
           7
100
AcDbCircle
 10
413.419036500109
 20
3692.843809424302
 40
5.0
100
AcDbArc
 50
90.0
 51
-95.092511460451
  0
ARC
  5
3ED
100
AcDbEntity
  8
1
  6
CONTINUOUS
 62
           7
100
AcDbCircle
 10
413.419036500109
 20
3692.843809424302
 40
5.0
100
AcDbArc
 50
85.537115658251
 51
90.0
  0
ARC
  5
3EC
100
AcDbEntity
  8
1
  6
CONTINUOUS
 62
           7
100
AcDbCircle
 10
-40.0
 20
3730.740739897768
 40
455.0
100
AcDbArc
 50
-90.0
 51
-5.407325019864
  0
ARC
  5
3EB
100
AcDbEntity
  8
1
  6
CONTINUOUS
 62
           7
100
AcDbCircle
 10
-40.0
 20
3815.740739897768
 40
540.0
100
AcDbArc
 50
180.0
 51
-175.217743666855
  0
ARC
  5
3EA
100
AcDbEntity
  8
1
  6
CONTINUOUS
 62
           7
100
AcDbCircle
 10
-577.680202350801
 20
3765.74073989777
 40
5.000000000001
100
AcDbArc
 50
-84.421966108709
 51
90.0
  0
ARC
  5
3E9
100
AcDbEntity
  8
1
  6
CONTINUOUS
 62
           7
100
AcDbCircle
 10
-577.680202350801
 20
3765.74073989777
 40
5.0
100
AcDbArc
 50
90.0
 51
95.04751551926
  0
ARC
  5
3E8
100
AcDbEntity
  8
1
  6
CONTINUOUS
 62
           7
100
AcDbCircle
 10
-40.0
 20
3815.740739897768
 40
540.000000000002
100
AcDbArc
 50
-174.156706922602
 51
-90.0
  0
ARC
  5
3E7
100
AcDbEntity
  8
1
  6
CONTINUOUS
 62
           7
100
AcDbCircle
 10
55.0
 20
3750.740739897768
 40
360.000000000002
100
AcDbArc
 50
73.746287853066
 51
93.901683355293
  0
ARC
  5
3E6
100
AcDbEntity
  8
1
  6
CONTINUOUS
 62
           7
100
AcDbCircle
 10
-40.0
 20
3730.740739897768
 40
454.999999999998
100
AcDbArc
 50
-4.148070782362
 51
1.333022116547
  0
ARC
  5
3E5
100
AcDbEntity
  8
7
  6
CONTINUOUS
 62
           7
100
AcDbCircle
 10
4965.799999999996
 20
1420.852096897767
 40
6.200000000001
100
AcDbArc
 50
0.0
 51
57.318084999993
  0
ARC
  5
3E4
100
AcDbEntity
  8
7
  6
CONTINUOUS
 62
           7
100
AcDbCircle
 10
4944.599999999997
 20
1442.540739897767
 40
3.199999999999
100
AcDbArc
 50
0.0
 51
90.0
  0
ARC
  5
3E3
100
AcDbEntity
  8
7
  6
CONTINUOUS
 62
           7
100
AcDbCircle
 10
4949.799999999996
 20
1442.781873897766
 40
2.0
100
AcDbArc
 50
180.0
 51
-125.00000000002
  0
ARC
  5
3E2
100
AcDbEntity
  8
7
  6
CONTINUOUS
 62
           7
100
AcDbCircle
 10
4777.899999999996
 20
1442.540739897767
 40
3.200000000003
100
AcDbArc
 50
90.0
 51
180.0
  0
ARC
  5
3E1
100
AcDbEntity
  8
7
  6
CONTINUOUS
 62
           7
100
AcDbCircle
 10
4772.699999999995
 20
1442.781873897766
 40
1.999999999999
100
AcDbArc
 50
-54.999999999937
 51
0.0
  0
ARC
  5
3E0
100
AcDbEntity
  8
7
  6
CONTINUOUS
 62
           7
100
AcDbCircle
 10
4752.076812999996
 20
1426.24073989777
 40
2.0
100
AcDbArc
 50
-90.0
 51
-55.00000000008
  0
ARC
  5
3DF
100
AcDbEntity
  8
7
  6
CONTINUOUS
 62
           7
100
AcDbCircle
 10
4751.199999999995
 20
1421.040739897767
 40
3.200000000003
100
AcDbArc
 50
90.0
 51
180.0
  0
ARC
  5
3DE
100
AcDbEntity
  8
1
  6
CONTINUOUS
 62
           4
100
AcDbCircle
 10
3335.0
 20
43.74073989777
 40
50.000000000005
100
AcDbArc
 50
56.536959032818
 51
123.46304096718
  0
ARC
  5
3DD
100
AcDbEntity
  8
1
  6
CONTINUOUS
 62
           4
100
AcDbCircle
 10
3335.0
 20
43.74073989777
 40
49.999999999998
100
AcDbArc
 50
-123.463040967185
 51
-56.536959032813
  0
ARC
  5
3DC
100
AcDbEntity
  8
1
  6
CONTINUOUS
 62
           4
100
AcDbCircle
 10
3335.0
 20
43.74073989777
 40
50.0
100
AcDbArc
 50
-33.463040967183
 51
33.463040967183
  0
ARC
  5
3DB
100
AcDbEntity
  8
1
  6
CONTINUOUS
 62
           4
100
AcDbCircle
 10
3335.0
 20
43.74073989777
 40
49.999999999999
100
AcDbArc
 50
146.536959032816
 51
-146.536959032816
  0
ARC
  5
3DA
100
AcDbEntity
  8
1
  6
CONTINUOUS
 62
           4
100
AcDbCircle
 10
3291.5
 20
87.24073989777
 40
10.000000000003
100
AcDbArc
 50
45.00000000002
 51
-135.000000000024
  0
ARC
  5
3D9
100
AcDbEntity
  8
1
  6
CONTINUOUS
 62
           4
100
AcDbCircle
 10
3378.5
 20
87.24073989777
 40
9.999999999995
100
AcDbArc
 50
-44.999999999976
 51
134.999999999979
  0
ARC
  5
3D8
100
AcDbEntity
  8
1
  6
CONTINUOUS
 62
           4
100
AcDbCircle
 10
3378.5
 20
0.24073989777
 40
9.999999999995
100
AcDbArc
 50
-135.000000000024
 51
45.00000000002
  0
ARC
  5
3D7
100
AcDbEntity
  8
1
  6
CONTINUOUS
 62
           4
100
AcDbCircle
 10
3291.5
 20
0.24073989777
 40
10.000000000003
100
AcDbArc
 50
134.999999999979
 51
-44.999999999976
  0
LINE
  5
3D6
100
AcDbEntity
  8
1
  6
DOT_CENTER
 62
           3
100
AcDbLine
 10
508.47225532188
 20
-116.058411775177
 11
508.47225532188
 21
-206.056982775177
  0
LINE
  5
3D5
100
AcDbEntity
  8
1
  6
DOT_CENTER
 62
           3
100
AcDbLine
 10
553.47225532188
 20
-161.058411775177
 11
463.47480032187
 21
-161.058411775177
  0
LINE
  5
3D4
100
AcDbEntity
  8
1
  6
CONTINUOUS
 62
           3
100
AcDbLine
 10
504.936660321879
 20
-132.928548775166
 11
502.548714321869
 21
-160.185672775167
  0
LINE
  5
3D3
100
AcDbEntity
  8
1
  6
CONTINUOUS
 62
           3
100
AcDbLine
 10
502.548714321869
 20
-161.931150775166
 11
504.936660321879
 21
-189.188274775168
  0
LINE
  5
3D2
100
AcDbEntity
  8
1
  6
CONTINUOUS
 62
           3
100
AcDbLine
 10
512.00785032189
 20
-132.928548775166
 11
514.395796321869
 21
-160.185672775167
  0
LINE
  5
3D1
100
AcDbEntity
  8
1
  6
CONTINUOUS
 62
           3
100
AcDbLine
 10
514.395796321869
 20
-161.931150775166
 11
512.00785032189
 21
-189.188274775168
  0
LINE
  5
3D0
100
AcDbEntity
  8
1
  6
CONTINUOUS
 62
           3
100
AcDbLine
 10
4647.5
 20
464.740739897771
 11
4499.899998122324
 21
464.740739897771
  0
LINE
  5
3CF
100
AcDbEntity
  8
1
  6
CONTINUOUS
 62
           3
100
AcDbLine
 10
4647.5
 20
472.740739897771
 11
4499.899996810929
 21
472.740739897771
  0
LINE
  5
3CE
100
AcDbEntity
  8
0
  6
CONTINUOUS
 62
           3
100
AcDbLine
 10
4119.899996632406
 20
-141.259262486273
 11
4119.899996632406
 21
-91.259265466415
  0
LINE
  5
3CD
100
AcDbEntity
  8
0
  6
CONTINUOUS
 62
           3
100
AcDbLine
 10
4160.126493853972
 20
-100.812683030006
 11
4160.899996833472
 21
-101.259255929908
  0
LINE
  5
3CC
100
AcDbEntity
  8
0
  6
CONTINUOUS
 62
           3
100
AcDbLine
 10
4170.899996609864
 20
-101.259255929908
 11
4171.673499589364
 21
-100.812683030006
  0
LINE
  5
3CB
100
AcDbEntity
  8
0
  6
CONTINUOUS
 62
           3
100
AcDbLine
 10
4160.899996833472
 20
-96.259260698309
 11
4160.126493853972
 21
-96.705848499209
  0
LINE
  5
3CA
100
AcDbEntity
  8
0
  6
CONTINUOUS
 62
           3
100
AcDbLine
 10
4171.673499589364
 20
-96.705848499209
 11
4170.899996609864
 21
-96.259260698309
  0
LINE
  5
3C9
100
AcDbEntity
  8
0
  6
CONTINUOUS
 62
           3
100
AcDbLine
 10
4160.899996833472
 20
-91.259265466415
 11
4160.126493853972
 21
-91.705838366314
  0
LINE
  5
3C8
100
AcDbEntity
  8
0
  6
CONTINUOUS
 62
           3
100
AcDbLine
 10
4171.673499589364
 20
-91.705838366314
 11
4170.899996609864
 21
-91.259265466415
  0
LINE
  5
3C7
100
AcDbEntity
  8
0
  6
CONTINUOUS
 62
           3
100
AcDbLine
 10
4170.899996609864
 20
-96.259260698309
 11
4171.673499589364
 21
-95.812672897108
  0
LINE
  5
3C6
100
AcDbEntity
  8
0
  6
CONTINUOUS
 62
           3
100
AcDbLine
 10
4160.126493853972
 20
-95.812672897108
 11
4160.899996833472
 21
-96.259260698309
  0
LINE
  5
3C5
100
AcDbEntity
  8
0
  6
CONTINUOUS
 62
           3
100
AcDbLine
 10
4160.899996833472
 20
-78.659260793626
 11
4160.126493853972
 21
-79.105841144025
  0
LINE
  5
3C4
100
AcDbEntity
  8
0
  6
CONTINUOUS
 62
           3
100
AcDbLine
 10
4171.673499589364
 20
-79.105841144025
 11
4170.899996609864
 21
-78.659260793626
  0
LINE
  5
3C3
100
AcDbEntity
  8
0
  6
CONTINUOUS
 62
           3
100
AcDbLine
 10
4170.899996609864
 20
-83.659256025221
 11
4171.673499589364
 21
-83.212683125319
  0
LINE
  5
3C2
100
AcDbEntity
  8
0
  6
CONTINUOUS
 62
           3
100
AcDbLine
 10
4160.126493853972
 20
-83.212683125319
 11
4160.899996833472
 21
-83.659256025221
  0
LINE
  5
3C1
100
AcDbEntity
  8
0
  6
CONTINUOUS
 62
           3
100
AcDbLine
 10
4160.899996833472
 20
-83.659256025221
 11
4160.126493853972
 21
-84.10584382612
  0
LINE
  5
3C0
100
AcDbEntity
  8
0
  6
CONTINUOUS
 62
           3
100
AcDbLine
 10
4171.673499589364
 20
-84.10584382612
 11
4170.899996609864
 21
-83.659256025221
  0
LINE
  5
3BF
100
AcDbEntity
  8
0
  6
CONTINUOUS
 62
           3
100
AcDbLine
 10
4170.899996609864
 20
-88.659266158115
 11
4171.673499589364
 21
-88.212678356918
  0
LINE
  5
3BE
100
AcDbEntity
  8
0
  6
CONTINUOUS
 62
           3
100
AcDbLine
 10
4160.126493853972
 20
-88.212678356918
 11
4160.899996833472
 21
-88.659266158115
  0
LINE
  5
3BD
100
AcDbEntity
  8
0
  6
CONTINUOUS
 62
           3
100
AcDbLine
 10
4211.899996810929
 20
184.740739897771
 11
4211.899996810929
 21
178.740745261967
  0
LINE
  5
3BC
100
AcDbEntity
  8
0
  6
CONTINUOUS
 62
           3
100
AcDbLine
 10
4211.899996810929
 20
177.140733078766
 11
4211.899996810929
 21
93.740740642734
  0
LINE
  5
3BB
100
AcDbEntity
  8
0
  6
CONTINUOUS
 62
           3
100
AcDbLine
 10
4211.899996810929
 20
92.540738955835
 11
4211.899996810929
 21
-65.059261544636
  0
LINE
  5
3BA
100
AcDbEntity
  8
0
  6
CONTINUOUS
 62
           3
100
AcDbLine
 10
4211.899996810929
 20
-66.259259506133
 11
4211.899996810929
 21
-89.659253283516
  0
LINE
  5
3B9
100
AcDbEntity
  8
0
  6
CONTINUOUS
 62
           3
100
AcDbLine
 10
4211.899996810929
 20
-91.259265466415
 11
4211.899996810929
 21
-141.259262486273
  0
LINE
  5
3B8
100
AcDbEntity
  8
0
  6
CONTINUOUS
 62
           3
100
AcDbLine
 10
4219.899998122324
 20
-141.259262486273
 11
4219.899998122324
 21
-91.259265466415
  0
LINE
  5
3B7
100
AcDbEntity
  8
0
  6
CONTINUOUS
 62
           3
100
AcDbLine
 10
4219.899998122324
 20
-89.659253283516
 11
4219.899998122324
 21
-66.259259506133
  0
LINE
  5
3B6
100
AcDbEntity
  8
0
  6
CONTINUOUS
 62
           3
100
AcDbLine
 10
4219.899998122324
 20
-65.059261544636
 11
4219.899998122324
 21
92.540738955835
  0
LINE
  5
3B5
100
AcDbEntity
  8
0
  6
CONTINUOUS
 62
           3
100
AcDbLine
 10
4219.899998122324
 20
93.740740642734
 11
4219.899998122324
 21
177.140733078766
  0
LINE
  5
3B4
100
AcDbEntity
  8
0
  6
CONTINUOUS
 62
           3
100
AcDbLine
 10
4219.899998122324
 20
178.740745261967
 11
4219.899998122324
 21
184.740739897771
  0
LINE
  5
3B3
100
AcDbEntity
  8
0
  6
CONTINUOUS
 62
           3
100
AcDbLine
 10
4111.899995321013
 20
208.74074645414
 11
4111.899995321013
 21
178.740745261967
  0
LINE
  5
3B2
100
AcDbEntity
  8
0
  6
CONTINUOUS
 62
           3
100
AcDbLine
 10
4111.899995321013
 20
177.140733078766
 11
4111.899995321013
 21
93.740740642734
  0
LINE
  5
3B1
100
AcDbEntity
  8
0
  6
CONTINUOUS
 62
           3
100
AcDbLine
 10
4111.899995321013
 20
92.540738955835
 11
4111.899995321013
 21
-65.059261544636
  0
LINE
  5
3B0
100
AcDbEntity
  8
0
  6
CONTINUOUS
 62
           3
100
AcDbLine
 10
4111.899995321013
 20
-66.259259506133
 11
4111.899995321013
 21
-89.659253283516
  0
LINE
  5
3AF
100
AcDbEntity
  8
0
  6
CONTINUOUS
 62
           3
100
AcDbLine
 10
4111.899995321013
 20
-91.259265466415
 11
4111.899995321013
 21
-141.259262486273
  0
LINE
  5
3AE
100
AcDbEntity
  8
0
  6
CONTINUOUS
 62
           3
100
AcDbLine
 10
4119.899996632406
 20
-89.659253283516
 11
4119.899996632406
 21
-66.259259506133
  0
LINE
  5
3AD
100
AcDbEntity
  8
0
  6
CONTINUOUS
 62
           3
100
AcDbLine
 10
4119.899996632406
 20
-65.059261544636
 11
4119.899996632406
 21
92.540738955835
  0
LINE
  5
3AC
100
AcDbEntity
  8
0
  6
CONTINUOUS
 62
           3
100
AcDbLine
 10
4119.899996632406
 20
93.740740642734
 11
4119.899996632406
 21
177.140733078766
  0
LINE
  5
3AB
100
AcDbEntity
  8
0
  6
CONTINUOUS
 62
           3
100
AcDbLine
 10
4119.899996632406
 20
178.740745261967
 11
4119.899996632406
 21
208.74074645414
  0
LINE
  5
3AA
100
AcDbEntity
  8
0
  6
CONTINUOUS
 62
           3
100
AcDbLine
 10
4168.899996747765
 20
-89.659253283516
 11
4168.899996747765
 21
-88.659266158115
  0
LINE
  5
3A9
100
AcDbEntity
  8
0
  6
CONTINUOUS
 62
           3
100
AcDbLine
 10
4168.899996747765
 20
-78.659260793626
 11
4168.899996747765
 21
-72.05926082933
  0
LINE
  5
3A8
100
AcDbEntity
  8
0
  6
CONTINUOUS
 62
           3
100
AcDbLine
 10
4168.899996747765
 20
-66.259259506133
 11
4168.899996747765
 21
-63.301833494636
  0
LINE
  5
3A7
100
AcDbEntity
  8
0
  6
CONTINUOUS
 62
           3
100
AcDbLine
 10
4168.899996747765
 20
-61.466412766739
 11
4168.899996747765
 21
177.140733078766
  0
LINE
  5
3A6
100
AcDbEntity
  8
0
  6
CONTINUOUS
 62
           3
100
AcDbLine
 10
4168.899996747765
 20
178.740745261967
 11
4168.899996747765
 21
181.163390950064
  0
LINE
  5
3A5
100
AcDbEntity
  8
0
  6
CONTINUOUS
 62
           3
100
AcDbLine
 10
4162.899996695571
 20
181.163390950064
 11
4162.899996695571
 21
178.740745261967
  0
LINE
  5
3A4
100
AcDbEntity
  8
0
  6
CONTINUOUS
 62
           3
100
AcDbLine
 10
4162.899996695571
 20
177.140733078766
 11
4162.899996695571
 21
-61.466412766739
  0
LINE
  5
3A3
100
AcDbEntity
  8
0
  6
CONTINUOUS
 62
           3
100
AcDbLine
 10
4162.899996695571
 20
-63.301833494636
 11
4162.899996695571
 21
-66.259259506133
  0
LINE
  5
3A2
100
AcDbEntity
  8
0
  6
CONTINUOUS
 62
           3
100
AcDbLine
 10
4162.899996695571
 20
-72.05926082933
 11
4162.899996695571
 21
-78.659260793626
  0
LINE
  5
3A1
100
AcDbEntity
  8
0
  6
CONTINUOUS
 62
           3
100
AcDbLine
 10
4162.899996695571
 20
-88.659266158115
 11
4162.899996695571
 21
-89.659253283516
  0
LINE
  5
3A0
100
AcDbEntity
  8
0
  6
CONTINUOUS
 62
           3
100
AcDbLine
 10
4168.899996747765
 20
181.163390950064
 11
4167.899996816566
 21
182.163392976763
  0
LINE
  5
39F
100
AcDbEntity
  8
0
  6
CONTINUOUS
 62
           3
100
AcDbLine
 10
4163.899996626769
 20
182.163392976763
 11
4162.899996695571
 21
181.163390950064
  0
LINE
  5
39E
100
AcDbEntity
  8
0
  6
CONTINUOUS
 62
           3
100
AcDbLine
 10
4162.399996613571
 20
-61.459260209335
 11
4157.899996341774
 21
-61.459260209335
  0
LINE
  5
39D
100
AcDbEntity
  8
0
  6
CONTINUOUS
 62
           3
100
AcDbLine
 10
4173.89999710156
 20
-61.459260209335
 11
4169.399996829765
 21
-61.459260209335
  0
LINE
  5
39C
100
AcDbEntity
  8
0
  6
CONTINUOUS
 62
           3
100
AcDbLine
 10
4159.426494029873
 20
-67.159260102235
 11
4172.373499413463
 21
-67.159260102235
  0
LINE
  5
39B
100
AcDbEntity
  8
0
  6
CONTINUOUS
 62
           3
100
AcDbLine
 10
4108.899996692015
 20
-62.459262236036
 11
4111.899995321013
 21
-62.459262236036
  0
LINE
  5
39A
100
AcDbEntity
  8
0
  6
CONTINUOUS
 62
           3
100
AcDbLine
 10
4119.899996632406
 20
-62.459262236036
 11
4157.899996341774
 21
-62.459262236036
  0
LINE
  5
399
100
AcDbEntity
  8
0
  6
CONTINUOUS
 62
           3
100
AcDbLine
 10
4173.89999710156
 20
-62.459262236036
 11
4211.899996810929
 21
-62.459262236036
  0
LINE
  5
398
100
AcDbEntity
  8
0
  6
CONTINUOUS
 62
           3
100
AcDbLine
 10
4219.899998122324
 20
-62.459262236036
 11
4222.899996751321
 21
-62.459262236036
  0
LINE
  5
397
100
AcDbEntity
  8
0
  6
CONTINUOUS
 62
           3
100
AcDbLine
 10
4108.899996692015
 20
87.540739999138
 11
4108.899996692015
 21
-62.459262236036
  0
LINE
  5
396
100
AcDbEntity
  8
0
  6
CONTINUOUS
 62
           3
100
AcDbLine
 10
4222.899996751321
 20
87.540739999138
 11
4219.899998122324
 21
87.540739999138
  0
LINE
  5
395
100
AcDbEntity
  8
0
  6
CONTINUOUS
 62
           3
100
AcDbLine
 10
4211.899996810929
 20
87.540739999138
 11
4168.899996747765
 21
87.540739999138
  0
LINE
  5
394
100
AcDbEntity
  8
0
  6
CONTINUOUS
 62
           3
100
AcDbLine
 10
4162.899996695571
 20
87.540739999138
 11
4119.899996632406
 21
87.540739999138
  0
LINE
  5
393
100
AcDbEntity
  8
0
  6
CONTINUOUS
 62
           3
100
AcDbLine
 10
4111.899995321013
 20
87.540739999138
 11
4108.899996692015
 21
87.540739999138
  0
LINE
  5
392
100
AcDbEntity
  8
0
  6
CONTINUOUS
 62
           3
100
AcDbLine
 10
4222.899996751321
 20
-62.459262236036
 11
4222.899996751321
 21
87.540739999138
  0
LINE
  5
391
100
AcDbEntity
  8
0
  6
CONTINUOUS
 62
           3
100
AcDbLine
 10
4168.786748155366
 20
-100.812683030006
 11
4168.786748155504
 21
-96.70584849916
  0
LINE
  5
390
100
AcDbEntity
  8
0
  6
CONTINUOUS
 62
           3
100
AcDbLine
 10
4168.786748155366
 20
-100.812683030006
 11
4165.899996721668
 21
-101.259255929908
  0
LINE
  5
38F
100
AcDbEntity
  8
0
  6
CONTINUOUS
 62
           3
100
AcDbLine
 10
4163.013245287841
 20
-100.812683029988
 11
4163.01324528797
 21
-96.705848499209
  0
LINE
  5
38E
100
AcDbEntity
  8
0
  6
CONTINUOUS
 62
           3
100
AcDbLine
 10
4163.01324528797
 20
-96.705848499209
 11
4165.899996721671
 21
-96.259260698181
  0
LINE
  5
38D
100
AcDbEntity
  8
0
  6
CONTINUOUS
 62
           3
100
AcDbLine
 10
4165.899996721668
 20
-101.259255929908
 11
4170.230123756006
 21
-101.25925592981
  0
LINE
  5
38C
100
AcDbEntity
  8
0
  6
CONTINUOUS
 62
           3
100
AcDbLine
 10
4161.569869687339
 20
-101.25925592981
 11
4165.899996721668
 21
-101.259255929908
  0
LINE
  5
38B
100
AcDbEntity
  8
0
  6
CONTINUOUS
 62
           3
100
AcDbLine
 10
4161.569869687339
 20
-96.259260698181
 11
4165.899996721671
 21
-96.259260698181
  0
LINE
  5
38A
100
AcDbEntity
  8
0
  6
CONTINUOUS
 62
           3
100
AcDbLine
 10
4168.786748155504
 20
-96.70584849916
 11
4170.230123755964
 21
-96.259260698309
  0
LINE
  5
389
100
AcDbEntity
  8
0
  6
CONTINUOUS
 62
           3
100
AcDbLine
 10
4165.899996721671
 20
-96.259260698181
 11
4170.230123755964
 21
-96.259260698309
  0
LINE
  5
388
100
AcDbEntity
  8
0
  6
CONTINUOUS
 62
           3
100
AcDbLine
 10
4160.126493853972
 20
-100.812683030006
 11
4160.126493853972
 21
-96.705848499209
  0
LINE
  5
387
100
AcDbEntity
  8
0
  6
CONTINUOUS
 62
           3
100
AcDbLine
 10
4171.673499589364
 20
-100.812683030006
 11
4171.673499589364
 21
-96.705848499209
  0
LINE
  5
386
100
AcDbEntity
  8
0
  6
CONTINUOUS
 62
           3
100
AcDbLine
 10
4171.673499589364
 20
-100.812683030006
 11
4170.230123756006
 21
-101.25925592981
  0
LINE
  5
385
100
AcDbEntity
  8
0
  6
CONTINUOUS
 62
           3
100
AcDbLine
 10
4160.899996833472
 20
-101.259255929908
 11
4161.569869687339
 21
-101.25925592981
  0
LINE
  5
384
100
AcDbEntity
  8
0
  6
CONTINUOUS
 62
           3
100
AcDbLine
 10
4170.899996609864
 20
-101.259255929908
 11
4170.230123756006
 21
-101.25925592981
  0
LINE
  5
383
100
AcDbEntity
  8
0
  6
CONTINUOUS
 62
           3
100
AcDbLine
 10
4160.899996833472
 20
-96.259260698309
 11
4161.569869687339
 21
-96.259260698181
  0
LINE
  5
382
100
AcDbEntity
  8
0
  6
CONTINUOUS
 62
           3
100
AcDbLine
 10
4168.786748155504
 20
-91.705838366371
 11
4168.786748155366
 21
-95.812672897108
  0
LINE
  5
381
100
AcDbEntity
  8
0
  6
CONTINUOUS
 62
           3
100
AcDbLine
 10
4163.013245287841
 20
-91.705838366371
 11
4163.013245287841
 21
-95.812672897205
  0
LINE
  5
380
100
AcDbEntity
  8
0
  6
CONTINUOUS
 62
           3
100
AcDbLine
 10
4171.673499589364
 20
-91.705838366314
 11
4170.230123756006
 21
-91.259265466557
  0
LINE
  5
37F
100
AcDbEntity
  8
0
  6
CONTINUOUS
 62
           3
100
AcDbLine
 10
4171.673499589364
 20
-91.705838366314
 11
4171.673499589364
 21
-95.812672897108
  0
LINE
  5
37E
100
AcDbEntity
  8
0
  6
CONTINUOUS
 62
           3
100
AcDbLine
 10
4168.786748155366
 20
-95.812672897108
 11
4170.230123755964
 21
-96.259260698309
  0
LINE
  5
37D
100
AcDbEntity
  8
0
  6
CONTINUOUS
 62
           3
100
AcDbLine
 10
4163.013245287841
 20
-91.705838366371
 11
4161.569869687339
 21
-91.259265466557
  0
LINE
  5
37C
100
AcDbEntity
  8
0
  6
CONTINUOUS
 62
           3
100
AcDbLine
 10
4160.126493853972
 20
-95.812672897108
 11
4161.569869687339
 21
-96.259260698181
  0
LINE
  5
37B
100
AcDbEntity
  8
0
  6
CONTINUOUS
 62
           3
100
AcDbLine
 10
4160.126493853972
 20
-91.705838366314
 11
4160.126493853972
 21
-95.812672897108
  0
LINE
  5
37A
100
AcDbEntity
  8
0
  6
CONTINUOUS
 62
           3
100
AcDbLine
 10
4168.786748155504
 20
-79.105841143962
 11
4168.786748155366
 21
-83.212683125319
  0
LINE
  5
379
100
AcDbEntity
  8
0
  6
CONTINUOUS
 62
           3
100
AcDbLine
 10
4163.013245287841
 20
-79.105841143962
 11
4163.013245287841
 21
-83.21268312537
  0
LINE
  5
378
100
AcDbEntity
  8
0
  6
CONTINUOUS
 62
           3
100
AcDbLine
 10
4171.673499589364
 20
-79.105841144025
 11
4170.230123756006
 21
-78.659260793563
  0
LINE
  5
377
100
AcDbEntity
  8
0
  6
CONTINUOUS
 62
           3
100
AcDbLine
 10
4171.673499589364
 20
-79.105841144025
 11
4171.673499589364
 21
-83.212683125319
  0
LINE
  5
376
100
AcDbEntity
  8
0
  6
CONTINUOUS
 62
           3
100
AcDbLine
 10
4168.786748155366
 20
-83.212683125319
 11
4170.230123756006
 21
-83.659256025189
  0
LINE
  5
375
100
AcDbEntity
  8
0
  6
CONTINUOUS
 62
           3
100
AcDbLine
 10
4170.230123756006
 20
-78.659260793563
 11
4165.899996721671
 21
-78.659260793563
  0
LINE
  5
374
100
AcDbEntity
  8
0
  6
CONTINUOUS
 62
           3
100
AcDbLine
 10
4163.013245287841
 20
-79.105841143962
 11
4161.569869687339
 21
-78.659260793563
  0
LINE
  5
373
100
AcDbEntity
  8
0
  6
CONTINUOUS
 62
           3
100
AcDbLine
 10
4160.126493853972
 20
-83.212683125319
 11
4161.569869687339
 21
-83.659256025189
  0
LINE
  5
372
100
AcDbEntity
  8
0
  6
CONTINUOUS
 62
           3
100
AcDbLine
 10
4160.126493853972
 20
-79.105841144025
 11
4160.126493853972
 21
-83.212683125319
  0
LINE
  5
371
100
AcDbEntity
  8
0
  6
CONTINUOUS
 62
           3
100
AcDbLine
 10
4165.899996721671
 20
-78.659260793563
 11
4161.569869687339
 21
-78.659260793563
  0
LINE
  5
370
100
AcDbEntity
  8
0
  6
CONTINUOUS
 62
           3
100
AcDbLine
 10
4170.230123756006
 20
-83.659256025189
 11
4165.899996721671
 21
-83.659256025189
  0
LINE
  5
36F
100
AcDbEntity
  8
0
  6
CONTINUOUS
 62
           3
100
AcDbLine
 10
4165.899996721671
 20
-83.659256025189
 11
4161.569869687339
 21
-83.659256025189
  0
LINE
  5
36E
100
AcDbEntity
  8
0
  6
CONTINUOUS
 62
           3
100
AcDbLine
 10
4161.569869687339
 20
-78.659260793563
 11
4160.899996833472
 21
-78.659260793626
  0
LINE
  5
36D
100
AcDbEntity
  8
0
  6
CONTINUOUS
 62
           3
100
AcDbLine
 10
4170.899996609864
 20
-78.659260793626
 11
4170.230123756006
 21
-78.659260793563
  0
LINE
  5
36C
100
AcDbEntity
  8
0
  6
CONTINUOUS
 62
           3
100
AcDbLine
 10
4170.899996609864
 20
-83.659256025221
 11
4170.230123756006
 21
-83.659256025189
  0
LINE
  5
36B
100
AcDbEntity
  8
0
  6
CONTINUOUS
 62
           3
100
AcDbLine
 10
4168.786748155504
 20
-84.105843826168
 11
4168.786748155366
 21
-88.212678356918
  0
LINE
  5
36A
100
AcDbEntity
  8
0
  6
CONTINUOUS
 62
           3
100
AcDbLine
 10
4163.013245287841
 20
-84.105843826168
 11
4163.013245287841
 21
-88.212678356994
  0
LINE
  5
369
100
AcDbEntity
  8
0
  6
CONTINUOUS
 62
           3
100
AcDbLine
 10
4171.673499589364
 20
-84.10584382612
 11
4170.230123756006
 21
-83.659256025189
  0
LINE
  5
368
100
AcDbEntity
  8
0
  6
CONTINUOUS
 62
           3
100
AcDbLine
 10
4171.673499589364
 20
-84.10584382612
 11
4171.673499589364
 21
-88.212678356918
  0
LINE
  5
367
100
AcDbEntity
  8
0
  6
CONTINUOUS
 62
           3
100
AcDbLine
 10
4168.786748155366
 20
-88.212678356918
 11
4170.230123756006
 21
-88.659266157974
  0
LINE
  5
366
100
AcDbEntity
  8
0
  6
CONTINUOUS
 62
           3
100
AcDbLine
 10
4163.013245287841
 20
-84.105843826168
 11
4161.569869687339
 21
-83.659256025189
  0
LINE
  5
365
100
AcDbEntity
  8
0
  6
CONTINUOUS
 62
           3
100
AcDbLine
 10
4160.126493853972
 20
-88.212678356918
 11
4161.569869687339
 21
-88.659266157974
  0
LINE
  5
364
100
AcDbEntity
  8
0
  6
CONTINUOUS
 62
           3
100
AcDbLine
 10
4160.126493853972
 20
-84.10584382612
 11
4160.126493853972
 21
-88.212678356918
  0
LINE
  5
363
100
AcDbEntity
  8
0
  6
CONTINUOUS
 62
           3
100
AcDbLine
 10
4165.899996721671
 20
-88.659266157974
 11
4161.569869687339
 21
-88.659266157974
  0
LINE
  5
362
100
AcDbEntity
  8
0
  6
CONTINUOUS
 62
           3
100
AcDbLine
 10
4170.230123756006
 20
-88.659266157974
 11
4165.899996721671
 21
-88.659266157974
  0
LINE
  5
361
100
AcDbEntity
  8
0
  6
CONTINUOUS
 62
           3
100
AcDbLine
 10
4161.569869687339
 20
-83.659256025189
 11
4160.899996833472
 21
-83.659256025221
  0
LINE
  5
360
100
AcDbEntity
  8
0
  6
CONTINUOUS
 62
           3
100
AcDbLine
 10
4170.899996609864
 20
-88.659266158115
 11
4170.230123756006
 21
-88.659266157974
  0
LINE
  5
35F
100
AcDbEntity
  8
0
  6
CONTINUOUS
 62
           3
100
AcDbLine
 10
4161.569869687339
 20
-88.659266157974
 11
4160.899996833472
 21
-88.659266158115
  0
LINE
  5
35E
100
AcDbEntity
  8
0
  6
CONTINUOUS
 62
           3
100
AcDbLine
 10
4115.899995976708
 20
208.74074645414
 11
4119.899996632406
 21
208.74074645414
  0
LINE
  5
35D
100
AcDbEntity
  8
0
  6
CONTINUOUS
 62
           3
100
AcDbLine
 10
4111.899995321013
 20
208.74074645414
 11
4115.899995976708
 21
208.74074645414
  0
LINE
  5
35C
100
AcDbEntity
  8
0
  6
CONTINUOUS
 62
           3
100
AcDbLine
 10
4162.899996695571
 20
181.163390950064
 11
4168.899996747765
 21
181.163390950064
  0
LINE
  5
35B
100
AcDbEntity
  8
0
  6
CONTINUOUS
 62
           3
100
AcDbLine
 10
4167.899996816566
 20
182.163392976763
 11
4163.899996626769
 21
182.163392976763
  0
LINE
  5
35A
100
AcDbEntity
  8
0
  6
CONTINUOUS
 62
           3
100
AcDbLine
 10
4173.89999710156
 20
-67.059258147233
 11
4169.399996829765
 21
-67.059258147233
  0
LINE
  5
359
100
AcDbEntity
  8
0
  6
CONTINUOUS
 62
           3
100
AcDbLine
 10
4162.399996613571
 20
-61.466412766739
 11
4169.399996829765
 21
-61.466412766739
  0
LINE
  5
358
100
AcDbEntity
  8
0
  6
CONTINUOUS
 62
           3
100
AcDbLine
 10
4162.399996613571
 20
-67.059258147233
 11
4157.899996341774
 21
-67.059258147233
  0
LINE
  5
357
100
AcDbEntity
  8
0
  6
CONTINUOUS
 62
           3
100
AcDbLine
 10
4169.399996829765
 20
-61.459260209335
 11
4169.399996829765
 21
-67.059258147233
  0
LINE
  5
356
100
AcDbEntity
  8
0
  6
CONTINUOUS
 62
           3
100
AcDbLine
 10
4162.399996613571
 20
-67.059258147233
 11
4162.399996613571
 21
-61.459260209335
  0
LINE
  5
355
100
AcDbEntity
  8
0
  6
CONTINUOUS
 62
           3
100
AcDbLine
 10
4157.899996341774
 20
-61.459260209335
 11
4157.899996341774
 21
-67.059258147233
  0
LINE
  5
354
100
AcDbEntity
  8
0
  6
CONTINUOUS
 62
           3
100
AcDbLine
 10
4173.89999710156
 20
-61.459260209335
 11
4173.89999710156
 21
-67.059258147233
  0
LINE
  5
353
100
AcDbEntity
  8
0
  6
CONTINUOUS
 62
           3
100
AcDbLine
 10
4169.399996829765
 20
-64.012790246935
 11
4168.899996747765
 21
-64.012790246935
  0
LINE
  5
352
100
AcDbEntity
  8
0
  6
CONTINUOUS
 62
           3
100
AcDbLine
 10
4162.899996695571
 20
-64.012790246935
 11
4162.399996613571
 21
-64.012790246935
  0
LINE
  5
351
100
AcDbEntity
  8
0
  6
CONTINUOUS
 62
           3
100
AcDbLine
 10
4169.399996829765
 20
-62.269115968738
 11
4162.399996613571
 21
-62.269115968738
  0
LINE
  5
350
100
AcDbEntity
  8
0
  6
CONTINUOUS
 62
           3
100
AcDbLine
 10
4162.399996613571
 20
-66.259259506133
 11
4169.399996829765
 21
-66.259259506133
  0
LINE
  5
34F
100
AcDbEntity
  8
0
  6
CONTINUOUS
 62
           3
100
AcDbLine
 10
4162.399996613571
 20
-67.059258147233
 11
4169.399996829765
 21
-67.059258147233
  0
LINE
  5
34E
100
AcDbEntity
  8
0
  6
CONTINUOUS
 62
           3
100
AcDbLine
 10
4165.899996721671
 20
-71.612680478934
 11
4168.399996665765
 21
-72.05926082933
  0
LINE
  5
34D
100
AcDbEntity
  8
0
  6
CONTINUOUS
 62
           3
100
AcDbLine
 10
4163.399996777554
 20
-72.05926082933
 11
4168.399996665765
 21
-72.05926082933
  0
LINE
  5
34C
100
AcDbEntity
  8
0
  6
CONTINUOUS
 62
           3
100
AcDbLine
 10
4165.899996721671
 20
-71.612680478934
 11
4165.899996721668
 21
-67.159259840035
  0
LINE
  5
34B
100
AcDbEntity
  8
0
  6
CONTINUOUS
 62
           3
100
AcDbLine
 10
4160.899996833472
 20
-71.612680478928
 11
4163.399996777554
 21
-72.05926082933
  0
LINE
  5
34A
100
AcDbEntity
  8
0
  6
CONTINUOUS
 62
           3
100
AcDbLine
 10
4160.899996833472
 20
-71.612680478928
 11
4160.899996833472
 21
-67.159259840035
  0
LINE
  5
349
100
AcDbEntity
  8
0
  6
CONTINUOUS
 62
           3
100
AcDbLine
 10
4170.899996609864
 20
-71.612680478928
 11
4170.899996609864
 21
-67.159259840035
  0
LINE
  5
348
100
AcDbEntity
  8
0
  6
CONTINUOUS
 62
           3
100
AcDbLine
 10
4160.899996833436
 20
-72.05926082933
 11
4163.399996777554
 21
-72.05926082933
  0
LINE
  5
347
100
AcDbEntity
  8
0
  6
CONTINUOUS
 62
           3
100
AcDbLine
 10
4168.399996665765
 20
-72.05926082933
 11
4170.899996609909
 21
-72.05926082933
  0
LINE
  5
346
100
AcDbEntity
  8
0
  6
CONTINUOUS
 62
           3
100
AcDbLine
 10
4173.89999710156
 20
-67.983018382433
 11
4170.899996609864
 21
-67.983018382433
  0
LINE
  5
345
100
AcDbEntity
  8
0
  6
CONTINUOUS
 62
           3
100
AcDbLine
 10
4160.899996833472
 20
-67.983018382433
 11
4157.899996341774
 21
-67.983018382433
  0
LINE
  5
344
100
AcDbEntity
  8
0
  6
CONTINUOUS
 62
           3
100
AcDbLine
 10
4157.899996341774
 20
-67.059258147233
 11
4157.899996341774
 21
-67.983018382433
  0
LINE
  5
343
100
AcDbEntity
  8
0
  6
CONTINUOUS
 62
           3
100
AcDbLine
 10
4173.89999710156
 20
-67.059258147233
 11
4173.89999710156
 21
-67.983018382433
  0
LINE
  5
342
100
AcDbEntity
  8
0
  6
CONTINUOUS
 62
           3
100
AcDbLine
 10
4135.899997392193
 20
93.740740642734
 11
4145.899997168584
 21
93.740740642734
  0
LINE
  5
341
100
AcDbEntity
  8
0
  6
CONTINUOUS
 62
           3
100
AcDbLine
 10
4145.899997168584
 20
92.540738955835
 11
4145.899997168584
 21
93.740740642734
  0
LINE
  5
340
100
AcDbEntity
  8
0
  6
CONTINUOUS
 62
           3
100
AcDbLine
 10
4135.899997392193
 20
92.540738955835
 11
4145.899997168584
 21
92.540738955835
  0
LINE
  5
33F
100
AcDbEntity
  8
0
  6
CONTINUOUS
 62
           3
100
AcDbLine
 10
4135.899997392193
 20
92.540738955835
 11
4135.899997392193
 21
93.740740642734
  0
LINE
  5
33E
100
AcDbEntity
  8
0
  6
CONTINUOUS
 62
           3
100
AcDbLine
 10
4185.899996274751
 20
92.540738955835
 11
4185.899996274751
 21
93.740740642734
  0
LINE
  5
33D
100
AcDbEntity
  8
0
  6
CONTINUOUS
 62
           3
100
AcDbLine
 10
4171.149996650864
 20
92.540738955835
 11
4185.899996274751
 21
92.540738955835
  0
LINE
  5
33C
100
AcDbEntity
  8
0
  6
CONTINUOUS
 62
           3
100
AcDbLine
 10
4171.149996650864
 20
93.740740642734
 11
4185.899996274751
 21
93.740740642734
  0
LINE
  5
33B
100
AcDbEntity
  8
0
  6
CONTINUOUS
 62
           3
100
AcDbLine
 10
4145.899997168584
 20
92.540738955835
 11
4160.649996792472
 21
92.540738955835
  0
LINE
  5
33A
100
AcDbEntity
  8
0
  6
CONTINUOUS
 62
           3
100
AcDbLine
 10
4145.899997168584
 20
93.740740642734
 11
4160.649996792472
 21
93.740740642734
  0
LINE
  5
339
100
AcDbEntity
  8
0
  6
CONTINUOUS
 62
           3
100
AcDbLine
 10
4145.899997168584
 20
-65.059261544636
 11
4145.899997168584
 21
-66.259259506133
  0
LINE
  5
338
100
AcDbEntity
  8
0
  6
CONTINUOUS
 62
           3
100
AcDbLine
 10
4145.899997168584
 20
-66.259259506133
 11
4157.899996341774
 21
-66.259259506133
  0
LINE
  5
337
100
AcDbEntity
  8
0
  6
CONTINUOUS
 62
           3
100
AcDbLine
 10
4145.899997168584
 20
-65.059261544636
 11
4157.899996341774
 21
-65.059261544636
  0
LINE
  5
336
100
AcDbEntity
  8
0
  6
CONTINUOUS
 62
           3
100
AcDbLine
 10
4169.149996788765
 20
-66.259259506133
 11
4169.149996788765
 21
-65.059261544636
  0
LINE
  5
335
100
AcDbEntity
  8
0
  6
CONTINUOUS
 62
           3
100
AcDbLine
 10
4169.149996788765
 20
-65.059261544636
 11
4169.399996829765
 21
-65.059261544636
  0
LINE
  5
334
100
AcDbEntity
  8
0
  6
CONTINUOUS
 62
           3
100
AcDbLine
 10
4195.899996051143
 20
92.540738955835
 11
4195.899996051143
 21
93.740740642734
  0
LINE
  5
333
100
AcDbEntity
  8
0
  6
CONTINUOUS
 62
           3
100
AcDbLine
 10
4195.899996051143
 20
92.540738955835
 11
4185.899996274751
 21
92.540738955835
  0
LINE
  5
332
100
AcDbEntity
  8
0
  6
CONTINUOUS
 62
           3
100
AcDbLine
 10
4195.899996051143
 20
93.740740642734
 11
4185.899996274751
 21
93.740740642734
  0
LINE
  5
331
100
AcDbEntity
  8
0
  6
CONTINUOUS
 62
           3
100
AcDbLine
 10
4169.149996788765
 20
92.540738955835
 11
4169.149996788765
 21
93.740740642734
  0
LINE
  5
330
100
AcDbEntity
  8
0
  6
CONTINUOUS
 62
           3
100
AcDbLine
 10
4171.149996650864
 20
92.540738955835
 11
4169.149996788765
 21
92.540738955835
  0
LINE
  5
32F
100
AcDbEntity
  8
0
  6
CONTINUOUS
 62
           3
100
AcDbLine
 10
4169.149996788765
 20
93.740740642734
 11
4171.149996650864
 21
93.740740642734
  0
LINE
  5
32E
100
AcDbEntity
  8
0
  6
CONTINUOUS
 62
           3
100
AcDbLine
 10
4135.899997392193
 20
-65.059261544636
 11
4135.899997392193
 21
-66.259259506133
  0
LINE
  5
32D
100
AcDbEntity
  8
0
  6
CONTINUOUS
 62
           3
100
AcDbLine
 10
4135.899997392193
 20
-66.259259506133
 11
4145.899997168584
 21
-66.259259506133
  0
LINE
  5
32C
100
AcDbEntity
  8
0
  6
CONTINUOUS
 62
           3
100
AcDbLine
 10
4135.899997392193
 20
-65.059261544636
 11
4145.899997168584
 21
-65.059261544636
  0
LINE
  5
32B
100
AcDbEntity
  8
0
  6
CONTINUOUS
 62
           3
100
AcDbLine
 10
4185.899996274751
 20
-65.059261544636
 11
4185.899996274751
 21
-66.259259506133
  0
LINE
  5
32A
100
AcDbEntity
  8
0
  6
CONTINUOUS
 62
           3
100
AcDbLine
 10
4173.89999710156
 20
-66.259259506133
 11
4185.899996274751
 21
-66.259259506133
  0
LINE
  5
329
100
AcDbEntity
  8
0
  6
CONTINUOUS
 62
           3
100
AcDbLine
 10
4173.89999710156
 20
-65.059261544636
 11
4185.899996274751
 21
-65.059261544636
  0
LINE
  5
328
100
AcDbEntity
  8
0
  6
CONTINUOUS
 62
           3
100
AcDbLine
 10
4162.649996654571
 20
93.740740642734
 11
4162.649996654571
 21
92.540738955835
  0
LINE
  5
327
100
AcDbEntity
  8
0
  6
CONTINUOUS
 62
           3
100
AcDbLine
 10
4162.649996654571
 20
92.540738955835
 11
4160.649996792472
 21
92.540738955835
  0
LINE
  5
326
100
AcDbEntity
  8
0
  6
CONTINUOUS
 62
           3
100
AcDbLine
 10
4160.649996792472
 20
93.740740642734
 11
4162.649996654571
 21
93.740740642734
  0
LINE
  5
325
100
AcDbEntity
  8
0
  6
CONTINUOUS
 62
           3
100
AcDbLine
 10
4195.899996051143
 20
-65.059261544636
 11
4195.899996051143
 21
-66.259259506133
  0
LINE
  5
324
100
AcDbEntity
  8
0
  6
CONTINUOUS
 62
           3
100
AcDbLine
 10
4195.899996051143
 20
-66.259259506133
 11
4185.899996274751
 21
-66.259259506133
  0
LINE
  5
323
100
AcDbEntity
  8
0
  6
CONTINUOUS
 62
           3
100
AcDbLine
 10
4195.899996051143
 20
-65.059261544636
 11
4185.899996274751
 21
-65.059261544636
  0
LINE
  5
322
100
AcDbEntity
  8
0
  6
CONTINUOUS
 62
           3
100
AcDbLine
 10
4162.649996654571
 20
-65.059261544636
 11
4162.649996654571
 21
-66.259259506133
  0
LINE
  5
321
100
AcDbEntity
  8
0
  6
CONTINUOUS
 62
           3
100
AcDbLine
 10
4162.399996613571
 20
-65.059261544636
 11
4162.649996654571
 21
-65.059261544636
  0
LINE
  5
320
100
AcDbEntity
  8
0
  6
CONTINUOUS
 62
           3
100
AcDbLine
 10
4112.899997347711
 20
-66.259259506133
 11
4112.899997347711
 21
-65.059261544636
  0
LINE
  5
31F
100
AcDbEntity
  8
0
  6
CONTINUOUS
 62
           3
100
AcDbLine
 10
4110.899997019713
 20
-66.259259506133
 11
4112.899997347711
 21
-66.259259506133
  0
LINE
  5
31E
100
AcDbEntity
  8
0
  6
CONTINUOUS
 62
           3
100
AcDbLine
 10
4112.899997347711
 20
-65.059261544636
 11
4110.899997019713
 21
-65.059261544636
  0
LINE
  5
31D
100
AcDbEntity
  8
0
  6
CONTINUOUS
 62
           3
100
AcDbLine
 10
4118.899998331106
 20
-65.059261544636
 11
4118.899998331106
 21
-66.259259506133
  0
LINE
  5
31C
100
AcDbEntity
  8
0
  6
CONTINUOUS
 62
           3
100
AcDbLine
 10
4118.899998331106
 20
-66.259259506133
 11
4120.899994933705
 21
-66.259259506133
  0
LINE
  5
31B
100
AcDbEntity
  8
0
  6
CONTINUOUS
 62
           3
100
AcDbLine
 10
4120.899994933705
 20
-65.059261544636
 11
4118.899998331106
 21
-65.059261544636
  0
LINE
  5
31A
100
AcDbEntity
  8
0
  6
CONTINUOUS
 62
           3
100
AcDbLine
 10
4218.899996095925
 20
93.740740642734
 11
4218.899996095925
 21
92.540738955835
  0
LINE
  5
319
100
AcDbEntity
  8
0
  6
CONTINUOUS
 62
           3
100
AcDbLine
 10
4218.899996095925
 20
92.540738955835
 11
4220.899996423623
 21
92.540738955835
  0
LINE
  5
318
100
AcDbEntity
  8
0
  6
CONTINUOUS
 62
           3
100
AcDbLine
 10
4220.899996423623
 20
93.740740642734
 11
4218.899996095925
 21
93.740740642734
  0
LINE
  5
317
100
AcDbEntity
  8
0
  6
CONTINUOUS
 62
           3
100
AcDbLine
 10
4212.89999511223
 20
92.540738955835
 11
4212.89999511223
 21
93.740740642734
  0
LINE
  5
316
100
AcDbEntity
  8
0
  6
CONTINUOUS
 62
           3
100
AcDbLine
 10
4210.899998509631
 20
92.540738955835
 11
4212.89999511223
 21
92.540738955835
  0
LINE
  5
315
100
AcDbEntity
  8
0
  6
CONTINUOUS
 62
           3
100
AcDbLine
 10
4212.89999511223
 20
93.740740642734
 11
4210.899998509631
 21
93.740740642734
  0
LINE
  5
314
100
AcDbEntity
  8
0
  6
CONTINUOUS
 62
           3
100
AcDbLine
 10
4218.899996095925
 20
-66.259259506133
 11
4218.899996095925
 21
-65.059261544636
  0
LINE
  5
313
100
AcDbEntity
  8
0
  6
CONTINUOUS
 62
           3
100
AcDbLine
 10
4220.899996423623
 20
-66.259259506133
 11
4218.899996095925
 21
-66.259259506133
  0
LINE
  5
312
100
AcDbEntity
  8
0
  6
CONTINUOUS
 62
           3
100
AcDbLine
 10
4218.899996095925
 20
-65.059261544636
 11
4220.899996423623
 21
-65.059261544636
  0
LINE
  5
311
100
AcDbEntity
  8
0
  6
CONTINUOUS
 62
           3
100
AcDbLine
 10
4212.89999511223
 20
-65.059261544636
 11
4212.89999511223
 21
-66.259259506133
  0
LINE
  5
310
100
AcDbEntity
  8
0
  6
CONTINUOUS
 62
           3
100
AcDbLine
 10
4212.89999511223
 20
-66.259259506133
 11
4210.899998509631
 21
-66.259259506133
  0
LINE
  5
30F
100
AcDbEntity
  8
0
  6
CONTINUOUS
 62
           3
100
AcDbLine
 10
4210.899998509631
 20
-65.059261544636
 11
4212.89999511223
 21
-65.059261544636
  0
LINE
  5
30E
100
AcDbEntity
  8
0
  6
CONTINUOUS
 62
           3
100
AcDbLine
 10
4112.899997347711
 20
93.740740642734
 11
4112.899997347711
 21
92.540738955835
  0
LINE
  5
30D
100
AcDbEntity
  8
0
  6
CONTINUOUS
 62
           3
100
AcDbLine
 10
4112.899997347711
 20
92.540738955835
 11
4110.899997019713
 21
92.540738955835
  0
LINE
  5
30C
100
AcDbEntity
  8
0
  6
CONTINUOUS
 62
           3
100
AcDbLine
 10
4110.899997019713
 20
93.740740642734
 11
4112.899997347711
 21
93.740740642734
  0
LINE
  5
30B
100
AcDbEntity
  8
0
  6
CONTINUOUS
 62
           3
100
AcDbLine
 10
4118.899998331106
 20
92.540738955835
 11
4118.899998331106
 21
93.740740642734
  0
LINE
  5
30A
100
AcDbEntity
  8
0
  6
CONTINUOUS
 62
           3
100
AcDbLine
 10
4120.899994933705
 20
92.540738955835
 11
4118.899998331106
 21
92.540738955835
  0
LINE
  5
309
100
AcDbEntity
  8
0
  6
CONTINUOUS
 62
           3
100
AcDbLine
 10
4118.899998331106
 20
93.740740642734
 11
4120.899994933705
 21
93.740740642734
  0
LINE
  5
308
100
AcDbEntity
  8
0
  6
CONTINUOUS
 62
           3
100
AcDbLine
 10
4120.899994933705
 20
-66.259259506133
 11
4135.899997392193
 21
-66.259259506133
  0
LINE
  5
307
100
AcDbEntity
  8
0
  6
CONTINUOUS
 62
           3
100
AcDbLine
 10
4120.899994933705
 20
-65.059261544636
 11
4135.899997392193
 21
-65.059261544636
  0
LINE
  5
306
100
AcDbEntity
  8
0
  6
CONTINUOUS
 62
           3
100
AcDbLine
 10
4225.89999538062
 20
-65.059261544636
 11
4225.89999538062
 21
-66.259259506133
  0
LINE
  5
305
100
AcDbEntity
  8
0
  6
CONTINUOUS
 62
           3
100
AcDbLine
 10
4225.89999538062
 20
-66.259259506133
 11
4220.899996423623
 21
-66.259259506133
  0
LINE
  5
304
100
AcDbEntity
  8
0
  6
CONTINUOUS
 62
           3
100
AcDbLine
 10
4220.899996423623
 20
-65.059261544636
 11
4225.89999538062
 21
-65.059261544636
  0
LINE
  5
303
100
AcDbEntity
  8
0
  6
CONTINUOUS
 62
           3
100
AcDbLine
 10
4120.899994933705
 20
92.540738955835
 11
4135.899997392193
 21
92.540738955835
  0
LINE
  5
302
100
AcDbEntity
  8
0
  6
CONTINUOUS
 62
           3
100
AcDbLine
 10
4120.899994933705
 20
93.740740642734
 11
4135.899997392193
 21
93.740740642734
  0
LINE
  5
301
100
AcDbEntity
  8
0
  6
CONTINUOUS
 62
           3
100
AcDbLine
 10
4210.899998509631
 20
-66.259259506133
 11
4195.899996051143
 21
-66.259259506133
  0
LINE
  5
300
100
AcDbEntity
  8
0
  6
CONTINUOUS
 62
           3
100
AcDbLine
 10
4210.899998509631
 20
-65.059261544636
 11
4195.899996051143
 21
-65.059261544636
  0
LINE
  5
2FF
100
AcDbEntity
  8
0
  6
CONTINUOUS
 62
           3
100
AcDbLine
 10
4225.89999538062
 20
92.540738955835
 11
4225.89999538062
 21
93.740740642734
  0
LINE
  5
2FE
100
AcDbEntity
  8
0
  6
CONTINUOUS
 62
           3
100
AcDbLine
 10
4220.899996423623
 20
92.540738955835
 11
4225.89999538062
 21
92.540738955835
  0
LINE
  5
2FD
100
AcDbEntity
  8
0
  6
CONTINUOUS
 62
           3
100
AcDbLine
 10
4225.89999538062
 20
93.740740642734
 11
4220.899996423623
 21
93.740740642734
  0
LINE
  5
2FC
100
AcDbEntity
  8
0
  6
CONTINUOUS
 62
           3
100
AcDbLine
 10
4210.899998509631
 20
92.540738955835
 11
4195.899996051143
 21
92.540738955835
  0
LINE
  5
2FB
100
AcDbEntity
  8
0
  6
CONTINUOUS
 62
           3
100
AcDbLine
 10
4210.899998509631
 20
93.740740642734
 11
4195.899996051143
 21
93.740740642734
  0
LINE
  5
2FA
100
AcDbEntity
  8
0
  6
CONTINUOUS
 62
           3
100
AcDbLine
 10
4105.899998062716
 20
92.540738955835
 11
4105.899998062716
 21
93.740740642734
  0
LINE
  5
2F9
100
AcDbEntity
  8
0
  6
CONTINUOUS
 62
           3
100
AcDbLine
 10
4110.899997019713
 20
92.540738955835
 11
4105.899998062716
 21
92.540738955835
  0
LINE
  5
2F8
100
AcDbEntity
  8
0
  6
CONTINUOUS
 62
           3
100
AcDbLine
 10
4105.899998062716
 20
93.740740642734
 11
4110.899997019713
 21
93.740740642734
  0
LINE
  5
2F7
100
AcDbEntity
  8
0
  6
CONTINUOUS
 62
           3
100
AcDbLine
 10
4105.899998062716
 20
-65.059261544636
 11
4105.899998062716
 21
-66.259259506133
  0
LINE
  5
2F6
100
AcDbEntity
  8
0
  6
CONTINUOUS
 62
           3
100
AcDbLine
 10
4105.899998062716
 20
-66.259259506133
 11
4110.899997019713
 21
-66.259259506133
  0
LINE
  5
2F5
100
AcDbEntity
  8
0
  6
CONTINUOUS
 62
           3
100
AcDbLine
 10
4110.899997019713
 20
-65.059261544636
 11
4105.899998062716
 21
-65.059261544636
  0
LINE
  5
2F4
100
AcDbEntity
  8
0
  6
CONTINUOUS
 62
           3
100
AcDbLine
 10
4169.149996788765
 20
-65.059261544636
 11
4168.899996747765
 21
-65.059261544636
  0
LINE
  5
2F3
100
AcDbEntity
  8
0
  6
CONTINUOUS
 62
           3
100
AcDbLine
 10
4162.899996695571
 20
-65.059261544636
 11
4162.649996654571
 21
-65.059261544636
  0
LINE
  5
2F2
100
AcDbEntity
  8
0
  6
CONTINUOUS
 62
           3
100
AcDbLine
 10
4162.649996654571
 20
92.540738955835
 11
4162.899996695571
 21
92.540738955835
  0
LINE
  5
2F1
100
AcDbEntity
  8
0
  6
CONTINUOUS
 62
           3
100
AcDbLine
 10
4168.899996747765
 20
92.540738955835
 11
4169.149996788765
 21
92.540738955835
  0
LINE
  5
2F0
100
AcDbEntity
  8
0
  6
CONTINUOUS
 62
           3
100
AcDbLine
 10
4162.649996654571
 20
93.740740642734
 11
4162.899996695571
 21
93.740740642734
  0
LINE
  5
2EF
100
AcDbEntity
  8
0
  6
CONTINUOUS
 62
           3
100
AcDbLine
 10
4168.899996747765
 20
93.740740642734
 11
4169.149996788765
 21
93.740740642734
  0
LINE
  5
2EE
100
AcDbEntity
  8
0
  6
CONTINUOUS
 62
           3
100
AcDbLine
 10
4225.89999538062
 20
-65.059261544636
 11
4225.89999538062
 21
-64.559260531437
  0
LINE
  5
2ED
100
AcDbEntity
  8
0
  6
CONTINUOUS
 62
           3
100
AcDbLine
 10
4105.899998062716
 20
-65.059261544636
 11
4105.899998062716
 21
-64.559260531437
  0
LINE
  5
2EC
100
AcDbEntity
  8
0
  6
CONTINUOUS
 62
           3
100
AcDbLine
 10
4105.899998062716
 20
92.540738955835
 11
4105.899998062716
 21
92.040741668035
  0
LINE
  5
2EB
100
AcDbEntity
  8
0
  6
CONTINUOUS
 62
           3
100
AcDbLine
 10
4225.89999538062
 20
92.540738955835
 11
4225.89999538062
 21
92.040741668035
  0
LINE
  5
2EA
100
AcDbEntity
  8
0
  6
CONTINUOUS
 62
           3
100
AcDbLine
 10
4225.89999538062
 20
73.740739227251
 11
4224.19999640562
 21
73.740739227251
  0
LINE
  5
2E9
100
AcDbEntity
  8
0
  6
CONTINUOUS
 62
           3
100
AcDbLine
 10
4225.89999538062
 20
53.740739674165
 11
4225.89999538062
 21
73.740739227251
  0
LINE
  5
2E8
100
AcDbEntity
  8
0
  6
CONTINUOUS
 62
           3
100
AcDbLine
 10
4224.19999640562
 20
53.740739674165
 11
4225.824804121019
 21
53.740739674165
  0
LINE
  5
2E7
100
AcDbEntity
  8
0
  6
CONTINUOUS
 62
           3
100
AcDbLine
 10
4107.899998390716
 20
75.740741417649
 11
4105.899998062716
 21
75.740741417649
  0
LINE
  5
2E6
100
AcDbEntity
  8
0
  6
CONTINUOUS
 62
           3
100
AcDbLine
 10
4105.899998062716
 20
92.040741668035
 11
4105.899998062716
 21
75.740741417649
  0
LINE
  5
2E5
100
AcDbEntity
  8
0
  6
CONTINUOUS
 62
           3
100
AcDbLine
 10
4225.89999538062
 20
92.040741668035
 11
4225.89999538062
 21
75.740741417649
  0
LINE
  5
2E4
100
AcDbEntity
  8
0
  6
CONTINUOUS
 62
           3
100
AcDbLine
 10
4223.899995052621
 20
75.740741417649
 11
4225.89999538062
 21
75.740741417649
  0
LINE
  5
2E3
100
AcDbEntity
  8
0
  6
CONTINUOUS
 62
           3
100
AcDbLine
 10
4224.19999640562
 20
73.740739227251
 11
4223.899995052621
 21
73.740739227251
  0
LINE
  5
2E2
100
AcDbEntity
  8
0
  6
CONTINUOUS
 62
           3
100
AcDbLine
 10
4223.899995052621
 20
53.740739674165
 11
4224.19999640562
 21
53.740739674165
  0
LINE
  5
2E1
100
AcDbEntity
  8
0
  6
CONTINUOUS
 62
           3
100
AcDbLine
 10
4225.89999538062
 20
51.74074027767
 11
4223.899995052621
 21
51.74074027767
  0
LINE
  5
2E0
100
AcDbEntity
  8
0
  6
CONTINUOUS
 62
           3
100
AcDbLine
 10
4225.89999538062
 20
51.74074027767
 11
4225.89999538062
 21
-24.259263797671
  0
LINE
  5
2DF
100
AcDbEntity
  8
0
  6
CONTINUOUS
 62
           3
100
AcDbLine
 10
4225.89999538062
 20
-24.259263797671
 11
4223.899995052621
 21
-24.259263797671
  0
LINE
  5
2DE
100
AcDbEntity
  8
0
  6
CONTINUOUS
 62
           3
100
AcDbLine
 10
4223.899995052621
 20
-26.259260400267
 11
4224.19999640562
 21
-26.259260400267
  0
LINE
  5
2DD
100
AcDbEntity
  8
0
  6
CONTINUOUS
 62
           3
100
AcDbLine
 10
4224.19999640562
 20
-46.259263678449
 11
4223.899995052621
 21
-46.259263678449
  0
LINE
  5
2DC
100
AcDbEntity
  8
0
  6
CONTINUOUS
 62
           3
100
AcDbLine
 10
4223.899995052621
 20
-48.259260281047
 11
4225.89999538062
 21
-48.259260281047
  0
LINE
  5
2DB
100
AcDbEntity
  8
0
  6
CONTINUOUS
 62
           3
100
AcDbLine
 10
4225.89999538062
 20
-64.559260531437
 11
4225.89999538062
 21
-48.259260281047
  0
LINE
  5
2DA
100
AcDbEntity
  8
0
  6
CONTINUOUS
 62
           3
100
AcDbLine
 10
4105.899998062716
 20
-64.559260531437
 11
4105.899998062716
 21
-48.259260281047
  0
LINE
  5
2D9
100
AcDbEntity
  8
0
  6
CONTINUOUS
 62
           3
100
AcDbLine
 10
4107.899998390716
 20
-48.259260281047
 11
4105.899998062716
 21
-48.259260281047
  0
LINE
  5
2D8
100
AcDbEntity
  8
0
  6
CONTINUOUS
 62
           3
100
AcDbLine
 10
4107.599997037716
 20
-46.259263678449
 11
4107.899998390716
 21
-46.259263678449
  0
LINE
  5
2D7
100
AcDbEntity
  8
0
  6
CONTINUOUS
 62
           3
100
AcDbLine
 10
4107.899998390716
 20
-26.259260400267
 11
4107.599997037716
 21
-26.259260400267
  0
LINE
  5
2D6
100
AcDbEntity
  8
0
  6
CONTINUOUS
 62
           3
100
AcDbLine
 10
4105.899998062716
 20
-24.259263797671
 11
4107.899998390716
 21
-24.259263797671
  0
LINE
  5
2D5
100
AcDbEntity
  8
0
  6
CONTINUOUS
 62
           3
100
AcDbLine
 10
4105.899998062716
 20
51.74074027767
 11
4105.899998062716
 21
-24.259263797671
  0
LINE
  5
2D4
100
AcDbEntity
  8
0
  6
CONTINUOUS
 62
           3
100
AcDbLine
 10
4105.899998062716
 20
51.74074027767
 11
4107.899998390716
 21
51.74074027767
  0
LINE
  5
2D3
100
AcDbEntity
  8
0
  6
CONTINUOUS
 62
           3
100
AcDbLine
 10
4107.899998390716
 20
53.740739674165
 11
4107.599997037716
 21
53.740739674165
  0
LINE
  5
2D2
100
AcDbEntity
  8
0
  6
CONTINUOUS
 62
           3
100
AcDbLine
 10
4107.599997037716
 20
73.740739227251
 11
4107.899998390716
 21
73.740739227251
  0
LINE
  5
2D1
100
AcDbEntity
  8
0
  6
CONTINUOUS
 62
           3
100
AcDbLine
 10
4105.899998062716
 20
-26.259260400267
 11
4105.899998062716
 21
-46.259263678449
  0
LINE
  5
2D0
100
AcDbEntity
  8
0
  6
CONTINUOUS
 62
           3
100
AcDbLine
 10
4107.599997037716
 20
-26.259260400267
 11
4105.899998062716
 21
-26.259260400267
  0
LINE
  5
2CF
100
AcDbEntity
  8
0
  6
CONTINUOUS
 62
           3
100
AcDbLine
 10
4105.975189322318
 20
-46.259263678449
 11
4107.599997037716
 21
-46.259263678449
  0
LINE
  5
2CE
100
AcDbEntity
  8
0
  6
CONTINUOUS
 62
           3
100
AcDbLine
 10
4107.599997037716
 20
53.740739674165
 11
4105.975189322318
 21
53.740739674165
  0
LINE
  5
2CD
100
AcDbEntity
  8
0
  6
CONTINUOUS
 62
           3
100
AcDbLine
 10
4105.899998062716
 20
53.740739674165
 11
4105.899998062716
 21
73.740739227251
  0
LINE
  5
2CC
100
AcDbEntity
  8
0
  6
CONTINUOUS
 62
           3
100
AcDbLine
 10
4105.899998062716
 20
73.740739227251
 11
4107.599997037716
 21
73.740739227251
  0
LINE
  5
2CB
100
AcDbEntity
  8
0
  6
CONTINUOUS
 62
           3
100
AcDbLine
 10
4225.89999538062
 20
-26.259260400267
 11
4225.89999538062
 21
-46.259263678449
  0
LINE
  5
2CA
100
AcDbEntity
  8
0
  6
CONTINUOUS
 62
           3
100
AcDbLine
 10
4224.19999640562
 20
-26.259260400267
 11
4225.89999538062
 21
-26.259260400267
  0
LINE
  5
2C9
100
AcDbEntity
  8
0
  6
CONTINUOUS
 62
           3
100
AcDbLine
 10
4225.824804121019
 20
-46.259263678449
 11
4224.19999640562
 21
-46.259263678449
  0
LINE
  5
2C8
100
AcDbEntity
  8
0
  6
CONTINUOUS
 62
           3
100
AcDbLine
 10
4112.899997347711
 20
-91.259265466415
 11
4112.899997347711
 21
-89.659253283516
  0
LINE
  5
2C7
100
AcDbEntity
  8
0
  6
CONTINUOUS
 62
           3
100
AcDbLine
 10
4110.899997019713
 20
-91.259265466415
 11
4112.899997347711
 21
-91.259265466415
  0
LINE
  5
2C6
100
AcDbEntity
  8
0
  6
CONTINUOUS
 62
           3
100
AcDbLine
 10
4112.899997347711
 20
-89.659253283516
 11
4110.899997019713
 21
-89.659253283516
  0
LINE
  5
2C5
100
AcDbEntity
  8
0
  6
CONTINUOUS
 62
           3
100
AcDbLine
 10
4110.899997019713
 20
178.740745261967
 11
4112.899997347711
 21
178.740745261967
  0
LINE
  5
2C4
100
AcDbEntity
  8
0
  6
CONTINUOUS
 62
           3
100
AcDbLine
 10
4112.899997347711
 20
178.740745261967
 11
4112.899997347711
 21
177.140733078766
  0
LINE
  5
2C3
100
AcDbEntity
  8
0
  6
CONTINUOUS
 62
           3
100
AcDbLine
 10
4112.899997347711
 20
177.140733078766
 11
4110.899997019713
 21
177.140733078766
  0
LINE
  5
2C2
100
AcDbEntity
  8
0
  6
CONTINUOUS
 62
           3
100
AcDbLine
 10
4118.899998331106
 20
177.140733078766
 11
4118.899998331106
 21
178.740745261967
  0
LINE
  5
2C1
100
AcDbEntity
  8
0
  6
CONTINUOUS
 62
           3
100
AcDbLine
 10
4118.899998331106
 20
178.740745261967
 11
4120.899994933705
 21
178.740745261967
  0
LINE
  5
2C0
100
AcDbEntity
  8
0
  6
CONTINUOUS
 62
           3
100
AcDbLine
 10
4120.899994933705
 20
177.140733078766
 11
4118.899998331106
 21
177.140733078766
  0
LINE
  5
2BF
100
AcDbEntity
  8
0
  6
CONTINUOUS
 62
           3
100
AcDbLine
 10
4118.899998331106
 20
-91.259265466415
 11
4120.899994933705
 21
-91.259265466415
  0
LINE
  5
2BE
100
AcDbEntity
  8
0
  6
CONTINUOUS
 62
           3
100
AcDbLine
 10
4118.899998331106
 20
-89.659253283516
 11
4118.899998331106
 21
-91.259265466415
  0
LINE
  5
2BD
100
AcDbEntity
  8
0
  6
CONTINUOUS
 62
           3
100
AcDbLine
 10
4120.899994933705
 20
-89.659253283516
 11
4118.899998331106
 21
-89.659253283516
  0
LINE
  5
2BC
100
AcDbEntity
  8
0
  6
CONTINUOUS
 62
           3
100
AcDbLine
 10
4120.899994933705
 20
-91.259265466415
 11
4210.899998509631
 21
-91.259265466415
  0
LINE
  5
2BB
100
AcDbEntity
  8
0
  6
CONTINUOUS
 62
           3
100
AcDbLine
 10
4120.899994933705
 20
-89.659253283516
 11
4210.899998509631
 21
-89.659253283516
  0
LINE
  5
2BA
100
AcDbEntity
  8
0
  6
CONTINUOUS
 62
           3
100
AcDbLine
 10
4120.899994933705
 20
178.740745261967
 11
4210.899998509631
 21
178.740745261967
  0
LINE
  5
2B9
100
AcDbEntity
  8
0
  6
CONTINUOUS
 62
           3
100
AcDbLine
 10
4120.899994933705
 20
177.140733078766
 11
4210.899998509631
 21
177.140733078766
  0
LINE
  5
2B8
100
AcDbEntity
  8
0
  6
CONTINUOUS
 62
           3
100
AcDbLine
 10
4105.899998062716
 20
-89.659253283516
 11
4105.899998062716
 21
-91.259265466415
  0
LINE
  5
2B7
100
AcDbEntity
  8
0
  6
CONTINUOUS
 62
           3
100
AcDbLine
 10
4105.899998062716
 20
-91.259265466415
 11
4110.899997019713
 21
-91.259265466415
  0
LINE
  5
2B6
100
AcDbEntity
  8
0
  6
CONTINUOUS
 62
           3
100
AcDbLine
 10
4110.899997019713
 20
-89.659253283516
 11
4105.899998062716
 21
-89.659253283516
  0
LINE
  5
2B5
100
AcDbEntity
  8
0
  6
CONTINUOUS
 62
           3
100
AcDbLine
 10
4105.899998062716
 20
177.140733078766
 11
4105.899998062716
 21
178.740745261967
  0
LINE
  5
2B4
100
AcDbEntity
  8
0
  6
CONTINUOUS
 62
           3
100
AcDbLine
 10
4105.899998062716
 20
178.740745261967
 11
4110.899997019713
 21
178.740745261967
  0
LINE
  5
2B3
100
AcDbEntity
  8
0
  6
CONTINUOUS
 62
           3
100
AcDbLine
 10
4110.899997019713
 20
177.140733078766
 11
4105.899998062716
 21
177.140733078766
  0
LINE
  5
2B2
100
AcDbEntity
  8
0
  6
CONTINUOUS
 62
           3
100
AcDbLine
 10
4218.899996095925
 20
178.740745261967
 11
4218.899996095925
 21
177.140733078766
  0
LINE
  5
2B1
100
AcDbEntity
  8
0
  6
CONTINUOUS
 62
           3
100
AcDbLine
 10
4220.899996423623
 20
178.740745261967
 11
4218.899996095925
 21
178.740745261967
  0
LINE
  5
2B0
100
AcDbEntity
  8
0
  6
CONTINUOUS
 62
           3
100
AcDbLine
 10
4218.899996095925
 20
177.140733078766
 11
4220.899996423623
 21
177.140733078766
  0
LINE
  5
2AF
100
AcDbEntity
  8
0
  6
CONTINUOUS
 62
           3
100
AcDbLine
 10
4218.899996095925
 20
-91.259265466415
 11
4218.899996095925
 21
-89.659253283516
  0
LINE
  5
2AE
100
AcDbEntity
  8
0
  6
CONTINUOUS
 62
           3
100
AcDbLine
 10
4220.899996423623
 20
-91.259265466415
 11
4218.899996095925
 21
-91.259265466415
  0
LINE
  5
2AD
100
AcDbEntity
  8
0
  6
CONTINUOUS
 62
           3
100
AcDbLine
 10
4218.899996095925
 20
-89.659253283516
 11
4220.899996423623
 21
-89.659253283516
  0
LINE
  5
2AC
100
AcDbEntity
  8
0
  6
CONTINUOUS
 62
           3
100
AcDbLine
 10
4212.89999511223
 20
177.140733078766
 11
4212.89999511223
 21
178.740745261967
  0
LINE
  5
2AB
100
AcDbEntity
  8
0
  6
CONTINUOUS
 62
           3
100
AcDbLine
 10
4212.89999511223
 20
178.740745261967
 11
4210.899998509631
 21
178.740745261967
  0
LINE
  5
2AA
100
AcDbEntity
  8
0
  6
CONTINUOUS
 62
           3
100
AcDbLine
 10
4210.899998509631
 20
177.140733078766
 11
4212.89999511223
 21
177.140733078766
  0
LINE
  5
2A9
100
AcDbEntity
  8
0
  6
CONTINUOUS
 62
           3
100
AcDbLine
 10
4212.89999511223
 20
-89.659253283516
 11
4212.89999511223
 21
-91.259265466415
  0
LINE
  5
2A8
100
AcDbEntity
  8
0
  6
CONTINUOUS
 62
           3
100
AcDbLine
 10
4212.89999511223
 20
-91.259265466415
 11
4210.899998509631
 21
-91.259265466415
  0
LINE
  5
2A7
100
AcDbEntity
  8
0
  6
CONTINUOUS
 62
           3
100
AcDbLine
 10
4210.899998509631
 20
-89.659253283516
 11
4212.89999511223
 21
-89.659253283516
  0
LINE
  5
2A6
100
AcDbEntity
  8
0
  6
CONTINUOUS
 62
           3
100
AcDbLine
 10
4225.89999538062
 20
-89.659253283516
 11
4225.89999538062
 21
-91.259265466415
  0
LINE
  5
2A5
100
AcDbEntity
  8
0
  6
CONTINUOUS
 62
           3
100
AcDbLine
 10
4225.89999538062
 20
-91.259265466415
 11
4220.899996423623
 21
-91.259265466415
  0
LINE
  5
2A4
100
AcDbEntity
  8
0
  6
CONTINUOUS
 62
           3
100
AcDbLine
 10
4220.899996423623
 20
-89.659253283516
 11
4225.89999538062
 21
-89.659253283516
  0
LINE
  5
2A3
100
AcDbEntity
  8
0
  6
CONTINUOUS
 62
           3
100
AcDbLine
 10
4225.89999538062
 20
177.140733078766
 11
4225.89999538062
 21
178.740745261967
  0
LINE
  5
2A2
100
AcDbEntity
  8
0
  6
CONTINUOUS
 62
           3
100
AcDbLine
 10
4225.89999538062
 20
178.740745261967
 11
4220.899996423623
 21
178.740745261967
  0
LINE
  5
2A1
100
AcDbEntity
  8
0
  6
CONTINUOUS
 62
           3
100
AcDbLine
 10
4220.899996423623
 20
177.140733078766
 11
4225.89999538062
 21
177.140733078766
  0
LINE
  5
2A0
100
AcDbEntity
  8
0
  6
CONTINUOUS
 62
           3
100
AcDbLine
 10
4225.89999538062
 20
177.140733078766
 11
4225.89999538062
 21
176.440736130764
  0
LINE
  5
29F
100
AcDbEntity
  8
0
  6
CONTINUOUS
 62
           3
100
AcDbLine
 10
4105.899998062716
 20
177.140733078766
 11
4105.899998062716
 21
176.440736130764
  0
LINE
  5
29E
100
AcDbEntity
  8
0
  6
CONTINUOUS
 62
           3
100
AcDbLine
 10
4225.89999538062
 20
-89.659253283516
 11
4225.89999538062
 21
-88.959256335216
  0
LINE
  5
29D
100
AcDbEntity
  8
0
  6
CONTINUOUS
 62
           3
100
AcDbLine
 10
4105.899998062716
 20
-89.659253283516
 11
4105.899998062716
 21
-88.959256335216
  0
LINE
  5
29C
100
AcDbEntity
  8
0
  6
CONTINUOUS
 62
           3
100
AcDbLine
 10
4085.499999189233
 20
-91.259265466415
 11
4083.399993443336
 21
-91.259265466415
  0
LINE
  5
29B
100
AcDbEntity
  8
0
  6
CONTINUOUS
 62
           3
100
AcDbLine
 10
4083.399993443336
 20
178.740745261967
 11
4083.399993443336
 21
-91.259265466415
  0
LINE
  5
29A
100
AcDbEntity
  8
0
  6
CONTINUOUS
 62
           3
100
AcDbLine
 10
4085.499999189233
 20
178.740745261967
 11
4083.399993443336
 21
178.740745261967
  0
LINE
  5
299
100
AcDbEntity
  8
0
  6
CONTINUOUS
 62
           3
100
AcDbLine
 10
4227.399998420216
 20
33.740740121383
 11
4225.89999538062
 21
33.740740121383
  0
LINE
  5
298
100
AcDbEntity
  8
0
  6
CONTINUOUS
 62
           3
100
AcDbLine
 10
4224.39999606612
 20
-24.259263797671
 11
4224.39999606612
 21
-26.259260400267
  0
LINE
  5
297
100
AcDbEntity
  8
0
  6
CONTINUOUS
 62
           3
100
AcDbLine
 10
4225.824804121019
 20
-46.259263678449
 11
4227.399998420216
 21
-46.259263678449
  0
LINE
  5
296
100
AcDbEntity
  8
0
  6
CONTINUOUS
 62
           3
100
AcDbLine
 10
4227.399998420216
 20
-46.259263678449
 11
4227.399998420216
 21
33.740740121383
  0
LINE
  5
295
100
AcDbEntity
  8
0
  6
CONTINUOUS
 62
           3
100
AcDbLine
 10
4224.39999606612
 20
133.740743474001
 11
4227.399998420216
 21
133.740743474001
  0
LINE
  5
294
100
AcDbEntity
  8
0
  6
CONTINUOUS
 62
           3
100
AcDbLine
 10
4224.39999606612
 20
73.740739227251
 11
4224.39999606612
 21
75.740741417649
  0
LINE
  5
293
100
AcDbEntity
  8
0
  6
CONTINUOUS
 62
           3
100
AcDbLine
 10
4224.39999606612
 20
93.740740642734
 11
4224.39999606612
 21
133.740743474001
  0
LINE
  5
292
100
AcDbEntity
  8
0
  6
CONTINUOUS
 62
           3
100
AcDbLine
 10
4227.399998420216
 20
53.740739674165
 11
4225.824804121019
 21
53.740739674165
  0
LINE
  5
291
100
AcDbEntity
  8
0
  6
CONTINUOUS
 62
           3
100
AcDbLine
 10
4227.399998420216
 20
133.740743474001
 11
4227.399998420216
 21
53.740739674165
  0
LINE
  5
290
100
AcDbEntity
  8
0
  6
CONTINUOUS
 62
           3
100
AcDbLine
 10
4105.975189322318
 20
-46.259263678449
 11
4104.399995023117
 21
-46.259263678449
  0
LINE
  5
28F
100
AcDbEntity
  8
0
  6
CONTINUOUS
 62
           3
100
AcDbLine
 10
4107.399997377515
 20
-24.259263797671
 11
4107.399997377515
 21
-26.259260400267
  0
LINE
  5
28E
100
AcDbEntity
  8
0
  6
CONTINUOUS
 62
           3
100
AcDbLine
 10
4104.399995023117
 20
33.740740121383
 11
4105.899998062716
 21
33.740740121383
  0
LINE
  5
28D
100
AcDbEntity
  8
0
  6
CONTINUOUS
 62
           3
100
AcDbLine
 10
4104.399995023117
 20
-46.259263678449
 11
4104.399995023117
 21
33.740740121383
  0
LINE
  5
28C
100
AcDbEntity
  8
0
  6
CONTINUOUS
 62
           3
100
AcDbLine
 10
4105.899998062716
 20
-88.259259386916
 11
4105.899998062716
 21
-88.959256335216
  0
LINE
  5
28B
100
AcDbEntity
  8
0
  6
CONTINUOUS
 62
           3
100
AcDbLine
 10
4100.899999106021
 20
-91.259265466415
 11
4100.899999106021
 21
-88.259259386916
  0
LINE
  5
28A
100
AcDbEntity
  8
0
  6
CONTINUOUS
 62
           3
100
AcDbLine
 10
4100.899999106021
 20
178.740745261967
 11
4085.499999189233
 21
178.740745261967
  0
LINE
  5
289
100
AcDbEntity
  8
0
  6
CONTINUOUS
 62
           3
100
AcDbLine
 10
4100.899999106021
 20
178.740745261967
 11
4100.899999106021
 21
175.740739182468
  0
LINE
  5
288
100
AcDbEntity
  8
0
  6
CONTINUOUS
 62
           3
100
AcDbLine
 10
4105.899998062716
 20
175.740739182468
 11
4105.899998062716
 21
176.440736130764
  0
LINE
  5
287
100
AcDbEntity
  8
0
  6
CONTINUOUS
 62
           3
100
AcDbLine
 10
4225.89999538062
 20
175.740739182468
 11
4225.89999538062
 21
176.440736130764
  0
LINE
  5
286
100
AcDbEntity
  8
0
  6
CONTINUOUS
 62
           3
100
AcDbLine
 10
4230.899994337315
 20
178.740745261967
 11
4230.899994337315
 21
175.740739182468
  0
LINE
  5
285
100
AcDbEntity
  8
0
  6
CONTINUOUS
 62
           3
100
AcDbLine
 10
4230.899994337315
 20
-91.259265466415
 11
4230.899994337315
 21
-88.259259386916
  0
LINE
  5
284
100
AcDbEntity
  8
0
  6
CONTINUOUS
 62
           3
100
AcDbLine
 10
4225.89999538062
 20
-88.259259386916
 11
4225.89999538062
 21
-88.959256335216
  0
LINE
  5
283
100
AcDbEntity
  8
0
  6
CONTINUOUS
 62
           3
100
AcDbLine
 10
4104.399995023117
 20
53.740739674165
 11
4105.975189322318
 21
53.740739674165
  0
LINE
  5
282
100
AcDbEntity
  8
0
  6
CONTINUOUS
 62
           3
100
AcDbLine
 10
4107.399997377515
 20
73.740739227251
 11
4107.399997377515
 21
75.740741417649
  0
LINE
  5
281
100
AcDbEntity
  8
0
  6
CONTINUOUS
 62
           3
100
AcDbLine
 10
4107.399997377515
 20
93.740740642734
 11
4107.399997377515
 21
133.740743474001
  0
LINE
  5
280
100
AcDbEntity
  8
0
  6
CONTINUOUS
 62
           3
100
AcDbLine
 10
4107.399997377515
 20
133.740743474001
 11
4104.399995023117
 21
133.740743474001
  0
LINE
  5
27F
100
AcDbEntity
  8
0
  6
CONTINUOUS
 62
           3
100
AcDbLine
 10
4104.399995023117
 20
133.740743474001
 11
4104.399995023117
 21
53.740739674165
  0
LINE
  5
27E
100
AcDbEntity
  8
0
  6
CONTINUOUS
 62
           3
100
AcDbLine
 10
4100.899999106021
 20
-91.259265466415
 11
4085.499999189233
 21
-91.259265466415
  0
LINE
  5
27D
100
AcDbEntity
  8
FORMAT
  6
DOT_CENTER
 62
           3
100
AcDbLine
 10
4090.99999672163
 20
168.740739897771
 11
4077.399996721741
 21
168.740739897771
  0
LINE
  5
27C
100
AcDbEntity
  8
FORMAT
  6
DOT_CENTER
 62
           3
100
AcDbLine
 10
4090.99999672163
 20
-81.259260102223
 11
4077.399996721741
 21
-81.259260102223
  0
LINE
  5
27B
100
AcDbEntity
  8
FORMAT
  6
CONTINUOUS
 62
           3
100
AcDbLine
 10
4179.899996721757
 20
-63.662414999336
 11
4169.399996721764
 21
-63.662414999336
  0
LINE
  5
27A
100
AcDbEntity
  8
FORMAT
  6
CONTINUOUS
 62
           3
100
AcDbLine
 10
4169.399996721764
 20
-63.662414999336
 11
4162.399996721571
 21
-63.662414999336
  0
LINE
  5
279
100
AcDbEntity
  8
FORMAT
  6
DOT_CENTER
 62
           3
100
AcDbLine
 10
4165.899996721668
 20
-206.499862849974
 11
4165.899996721668
 21
269.135130666339
  0
LINE
  5
278
100
AcDbEntity
  8
FORMAT
  6
CONTINUOUS
 62
           3
100
AcDbLine
 10
4162.399996721571
 20
-63.662414999336
 11
4151.899996721579
 21
-63.662414999336
  0
LINE
  5
277
100
AcDbEntity
  8
0
  6
CONTINUOUS
 62
           3
100
AcDbLine
 10
4165.899996721668
 20
-63.127519710837
 11
4166.955269949167
 21
-63.142867907037
  0
LINE
  5
276
100
AcDbEntity
  8
0
  6
CONTINUOUS
 62
           3
100
AcDbLine
 10
4166.955269949167
 20
-63.142867907037
 11
4167.896187940067
 21
-63.187243565036
  0
LINE
  5
275
100
AcDbEntity
  8
0
  6
CONTINUOUS
 62
           3
100
AcDbLine
 10
4167.896187940067
 20
-63.187243565036
 11
4168.620787869766
 21
-63.255848511238
  0
LINE
  5
274
100
AcDbEntity
  8
0
  6
CONTINUOUS
 62
           3
100
AcDbLine
 10
4168.620787869766
 20
-63.255848511238
 11
4169.050547602965
 21
-63.341239615438
  0
LINE
  5
273
100
AcDbEntity
  8
0
  6
CONTINUOUS
 62
           3
100
AcDbLine
 10
4169.050547602965
 20
-63.341239615438
 11
4169.138896354965
 21
-63.434170707238
  0
LINE
  5
272
100
AcDbEntity
  8
0
  6
CONTINUOUS
 62
           3
100
AcDbLine
 10
4169.138896354965
 20
-63.434170707238
 11
4168.899996747765
 21
-63.519718273437
  0
LINE
  5
271
100
AcDbEntity
  8
0
  6
CONTINUOUS
 62
           3
100
AcDbLine
 10
4162.899996695571
 20
-63.519718273437
 11
4162.66109708837
 21
-63.434170707238
  0
LINE
  5
270
100
AcDbEntity
  8
0
  6
CONTINUOUS
 62
           3
100
AcDbLine
 10
4162.66109708837
 20
-63.434170707238
 11
4162.749445840371
 21
-63.341239615438
  0
LINE
  5
26F
100
AcDbEntity
  8
0
  6
CONTINUOUS
 62
           3
100
AcDbLine
 10
4162.749445840371
 20
-63.341239615438
 11
4163.179205573571
 21
-63.255848511238
  0
LINE
  5
26E
100
AcDbEntity
  8
0
  6
CONTINUOUS
 62
           3
100
AcDbLine
 10
4163.179205573571
 20
-63.255848511238
 11
4163.903805503269
 21
-63.187243565036
  0
LINE
  5
26D
100
AcDbEntity
  8
0
  6
CONTINUOUS
 62
           3
100
AcDbLine
 10
4163.903805503269
 20
-63.187243565036
 11
4164.844723494169
 21
-63.142867907037
  0
LINE
  5
26C
100
AcDbEntity
  8
0
  6
CONTINUOUS
 62
           3
100
AcDbLine
 10
4164.844723494169
 20
-63.142867907037
 11
4165.899996721668
 21
-63.127519710837
  0
LINE
  5
26B
100
AcDbEntity
  8
1
  6
CONTINUOUS
 62
           3
100
AcDbLine
 10
4670.163567691037
 20
462.868904902705
 11
4665.254330418627
 21
462.868904902705
  0
LINE
  5
26A
100
AcDbEntity
  8
1
  6
DOT_CENTER
 62
           3
100
AcDbLine
 10
4670.163567691037
 20
482.384295702644
 11
4670.163567691037
 21
451.248748152895
  0
LINE
  5
269
100
AcDbEntity
  8
1
  6
CONTINUOUS
 62
           3
100
AcDbLine
 10
4665.254330418627
 20
474.61257489284
 11
4670.163567691037
 21
474.61257489284
  0
LINE
  5
268
100
AcDbEntity
  8
1
  6
CONTINUOUS
 62
           3
100
AcDbLine
 10
4665.254330418627
 20
476.43448647781
 11
4659.389214871939
 21
476.43448647781
  0
LINE
  5
267
100
AcDbEntity
  8
1
  6
CONTINUOUS
 62
           3
100
AcDbLine
 10
4665.254330418627
 20
461.04699331773
 11
4659.389214871939
 21
461.04699331773
  0
LINE
  5
266
100
AcDbEntity
  8
1
  6
CONTINUOUS
 62
           3
100
AcDbLine
 10
4665.254330418627
 20
461.04699331773
 11
4665.254330418627
 21
476.43448647781
  0
LINE
  5
265
100
AcDbEntity
  8
1
  6
CONTINUOUS
 62
           3
100
AcDbLine
 10
4659.389214871939
 20
461.04699331773
 11
4659.389214871939
 21
476.43448647781
  0
LINE
  5
264
100
AcDbEntity
  8
1
  6
CONTINUOUS
 62
           3
100
AcDbLine
 10
4659.389214871939
 20
476.43448647781
 11
4659.389214871939
 21
476.990739897771
  0
LINE
  5
263
100
AcDbEntity
  8
1
  6
CONTINUOUS
 62
           3
100
AcDbLine
 10
4649.714603906641
 20
468.740739897771
 11
4649.714603906641
 21
476.990739897771
  0
LINE
  5
262
100
AcDbEntity
  8
1
  6
CONTINUOUS
 62
           3
100
AcDbLine
 10
4649.714603906641
 20
476.990739897771
 11
4659.389214871939
 21
476.990739897771
  0
LINE
  5
261
100
AcDbEntity
  8
1
  6
CONTINUOUS
 62
           3
100
AcDbLine
 10
4648.868798384461
 20
474.740739897771
 11
4649.714603906641
 21
474.740739897771
  0
LINE
  5
260
100
AcDbEntity
  8
1
  6
CONTINUOUS
 62
           3
100
AcDbLine
 10
4648.868798384461
 20
468.740739897771
 11
4648.868798384461
 21
476.43448647781
  0
LINE
  5
25F
100
AcDbEntity
  8
1
  6
CONTINUOUS
 62
           3
100
AcDbLine
 10
4648.163567691037
 20
476.43448647781
 11
4648.868798384461
 21
476.43448647781
  0
LINE
  5
25E
100
AcDbEntity
  8
1
  6
CONTINUOUS
 62
           3
100
AcDbLine
 10
4647.663567691037
 20
475.93448647781
 11
4647.663567691037
 21
468.740739897771
  0
LINE
  5
25D
100
AcDbEntity
  8
1
  6
CONTINUOUS
 62
           3
100
AcDbLine
 10
4647.663567691037
 20
468.740739897771
 11
4647.663567691037
 21
461.54699331773
  0
LINE
  5
25C
100
AcDbEntity
  8
1
  6
CONTINUOUS
 62
           3
100
AcDbLine
 10
4648.868798384461
 20
461.04699331773
 11
4648.163567691037
 21
461.04699331773
  0
LINE
  5
25B
100
AcDbEntity
  8
1
  6
CONTINUOUS
 62
           3
100
AcDbLine
 10
4648.868798384461
 20
461.04699331773
 11
4648.868798384461
 21
468.740739897771
  0
LINE
  5
25A
100
AcDbEntity
  8
1
  6
CONTINUOUS
 62
           3
100
AcDbLine
 10
4649.714603906641
 20
462.740739897771
 11
4648.868798384461
 21
462.740739897771
  0
LINE
  5
259
100
AcDbEntity
  8
1
  6
CONTINUOUS
 62
           3
100
AcDbLine
 10
4649.714603906641
 20
460.490739897771
 11
4649.714603906641
 21
468.740739897771
  0
LINE
  5
258
100
AcDbEntity
  8
1
  6
CONTINUOUS
 62
           3
100
AcDbLine
 10
4659.389214871939
 20
460.490739897771
 11
4649.714603906641
 21
460.490739897771
  0
LINE
  5
257
100
AcDbEntity
  8
1
  6
CONTINUOUS
 62
           3
100
AcDbLine
 10
4659.389214871939
 20
460.490739897771
 11
4659.389214871939
 21
461.04699331773
  0
LINE
  5
256
100
AcDbEntity
  8
1
  6
DOT_CENTER
 62
           3
100
AcDbLine
 10
4646.218519558619
 20
468.740739897771
 11
4687.667695262446
 21
468.740739897771
  0
LINE
  5
255
100
AcDbEntity
  8
1
  6
CONTINUOUS
 62
           3
100
AcDbLine
 10
4664.489527668227
 20
461.04699331773
 11
4670.163567691037
 21
457.771084783168
  0
LINE
  5
254
100
AcDbEntity
  8
1
  6
CONTINUOUS
 62
           3
100
AcDbLine
 10
4670.163567691037
 20
457.771084783168
 11
4679.663567691037
 21
463.255912340469
  0
LINE
  5
253
100
AcDbEntity
  8
1
  6
CONTINUOUS
 62
           3
100
AcDbLine
 10
4679.663567691037
 20
463.255912340469
 11
4679.663567691037
 21
474.225567455072
  0
LINE
  5
252
100
AcDbEntity
  8
1
  6
CONTINUOUS
 62
           3
100
AcDbLine
 10
4679.663567691037
 20
474.225567455072
 11
4670.163567691037
 21
479.710395012374
  0
LINE
  5
251
100
AcDbEntity
  8
1
  6
CONTINUOUS
 62
           3
100
AcDbLine
 10
4670.163567691037
 20
479.710395012374
 11
4664.489527668227
 21
476.43448647781
  0
LINE
  5
250
100
AcDbEntity
  8
1
  6
CONTINUOUS
 62
           7
100
AcDbLine
 10
410.99206566863
 20
693.74073989777
 11
410.99206566863
 21
709.24073989777
  0
LINE
  5
24F
100
AcDbEntity
  8
1
  6
CONTINUOUS
 62
           7
100
AcDbLine
 10
-40.38731682328
 20
709.240739897775
 11
-40.38731682328
 21
693.74073989777
  0
LINE
  5
24E
100
AcDbEntity
  8
1
  6
CONTINUOUS
 62
           4
100
AcDbLine
 10
-587.61873088804
 20
709.24073989777
 11
-611.0
 21
709.24073989777
  0
LINE
  5
24D
100
AcDbEntity
  8
1
  6
CONTINUOUS
 62
           4
100
AcDbLine
 10
-587.61873088804
 20
704.74073989777
 11
-611.0
 21
704.74073989777
  0
LINE
  5
24C
100
AcDbEntity
  8
1
  6
CONTINUOUS
 62
           4
100
AcDbLine
 10
-587.61873088804
 20
1098.74073989777
 11
-611.0
 21
1098.74073989777
  0
LINE
  5
24B
100
AcDbEntity
  8
1
  6
CONTINUOUS
 62
           4
100
AcDbLine
 10
-587.61873088804
 20
1094.24073989777
 11
-611.0
 21
1094.24073989777
  0
LINE
  5
24A
100
AcDbEntity
  8
1
  6
CONTINUOUS
 62
           7
100
AcDbLine
 10
-611.0
 20
1134.24073989777
 11
-577.413444419391
 21
1134.24073989777
  0
LINE
  5
249
100
AcDbEntity
  8
1
  6
CONTINUOUS
 62
           7
100
AcDbLine
 10
-611.0
 20
1134.24073989777
 11
-611.0
 21
693.74073989777
  0
LINE
  5
248
100
AcDbEntity
  8
1
  6
CONTINUOUS
 62
           7
100
AcDbLine
 10
-570.0
 20
1095.040739897771
 11
-570.0
 21
708.440739897772
  0
LINE
  5
247
100
AcDbEntity
  8
1
  6
CONTINUOUS
 62
           7
100
AcDbLine
 10
-40.38731682328
 20
1132.24073989777
 11
-40.38731682328
 21
1094.24073989777
  0
LINE
  5
246
100
AcDbEntity
  8
1
  6
CONTINUOUS
 62
           7
100
AcDbLine
 10
156.5
 20
1215.040739897773
 11
118.613663999999
 21
1215.040739897773
  0
LINE
  5
245
100
AcDbEntity
  8
1
  6
CONTINUOUS
 62
           7
100
AcDbLine
 10
118.613663999999
 20
1295.040739897772
 11
156.5
 21
1295.040739897772
  0
LINE
  5
244
100
AcDbEntity
  8
1
  6
CONTINUOUS
 62
           7
100
AcDbLine
 10
108.613663999999
 20
1225.040739897773
 11
108.613663999999
 21
1285.040739897772
  0
LINE
  5
243
100
AcDbEntity
  8
1
  6
CONTINUOUS
 62
           7
100
AcDbLine
 10
166.5
 20
1285.040739897772
 11
166.5
 21
1225.040739897773
  0
LINE
  5
242
100
AcDbEntity
  8
1
  6
CONTINUOUS
 62
           7
100
AcDbLine
 10
415.0
 20
709.24073989777
 11
-386.0494676696
 21
709.240739897771
  0
LINE
  5
241
100
AcDbEntity
  8
1
  6
CONTINUOUS
 62
           7
100
AcDbLine
 10
405.0
 20
709.24073989777
 11
405.0
 21
1094.24073989777
  0
LINE
  5
240
100
AcDbEntity
  8
2
  6
CONTINUOUS
 62
           4
100
AcDbLine
 10
93.25
 20
1138.240739897772
 11
93.25
 21
1140.240739897771
  0
LINE
  5
23F
100
AcDbEntity
  8
7
  6
CONTINUOUS
 62
           7
100
AcDbLine
 10
115.0
 20
1386.278278271138
 11
115.0
 21
1358.74073989777
  0
LINE
  5
23E
100
AcDbEntity
  8
7
  6
CONTINUOUS
 62
           7
100
AcDbLine
 10
-115.0
 20
1386.278278271138
 11
-112.0
 21
1420.852096897768
  0
LINE
  5
23D
100
AcDbEntity
  8
1
  6
CONTINUOUS
 62
           4
100
AcDbLine
 10
115.0
 20
1386.278278271138
 11
-115.0
 21
1386.278278271138
  0
LINE
  5
23C
100
AcDbEntity
  8
2
  6
CONTINUOUS
 62
           7
100
AcDbLine
 10
-97.568642
 20
1140.240739897771
 11
-108.613664
 21
1166.740739897771
  0
LINE
  5
23B
100
AcDbEntity
  8
2
  6
CONTINUOUS
 62
           4
100
AcDbLine
 10
97.568642
 20
1140.240739897771
 11
-97.568642
 21
1140.240739897771
  0
LINE
  5
23A
100
AcDbEntity
  8
2
  6
CONTINUOUS
 62
           7
100
AcDbLine
 10
-103.820541000001
 20
1358.74073989777
 11
-108.613664
 21
1347.24073989777
  0
LINE
  5
239
100
AcDbEntity
  8
2
  6
CONTINUOUS
 62
           7
100
AcDbLine
 10
-108.613664
 20
1166.740739897771
 11
-108.613664
 21
1347.24073989777
  0
LINE
  5
238
100
AcDbEntity
  8
2
  6
CONTINUOUS
 62
           4
100
AcDbLine
 10
-93.25
 20
1140.240739897771
 11
-93.25
 21
1138.240739897772
  0
LINE
  5
237
100
AcDbEntity
  8
2
  6
CONTINUOUS
 62
           7
100
AcDbLine
 10
108.613663999999
 20
1347.24073989777
 11
103.820540999999
 21
1358.74073989777
  0
LINE
  5
236
100
AcDbEntity
  8
2
  6
CONTINUOUS
 62
           7
100
AcDbLine
 10
108.613663999999
 20
1166.740739897771
 11
108.613663999999
 21
1347.24073989777
  0
LINE
  5
235
100
AcDbEntity
  8
2
  6
CONTINUOUS
 62
           7
100
AcDbLine
 10
108.613663999999
 20
1166.740739897771
 11
97.568642
 21
1140.240739897771
  0
LINE
  5
234
100
AcDbEntity
  8
7
  6
CONTINUOUS
 62
           7
100
AcDbLine
 10
0.0
 20
1445.74073989777
 11
82.099999999999
 21
1445.74073989777
  0
LINE
  5
233
100
AcDbEntity
  8
7
  6
CONTINUOUS
 62
           7
100
AcDbLine
 10
86.152846999999
 20
1441.143569897769
 11
106.776033999999
 21
1424.602435897769
  0
LINE
  5
232
100
AcDbEntity
  8
7
  6
CONTINUOUS
 62
           4
100
AcDbLine
 10
-110.992023000001
 20
1424.24073989777
 11
108.799999999999
 21
1424.24073989777
  0
LINE
  5
231
100
AcDbEntity
  8
7
  6
CONTINUOUS
 62
           7
100
AcDbLine
 10
112.0
 20
1421.040739897768
 11
115.0
 21
1386.278278271138
  0
LINE
  5
230
100
AcDbEntity
  8
7
  6
CONTINUOUS
 62
           7
100
AcDbLine
 10
115.0
 20
1358.74073989777
 11
0.0
 21
1358.74073989777
  0
LINE
  5
22F
100
AcDbEntity
  8
7
  6
CONTINUOUS
 62
           7
100
AcDbLine
 10
-115.0
 20
1358.74073989777
 11
-115.0
 21
1386.278278271138
  0
LINE
  5
22E
100
AcDbEntity
  8
7
  6
CONTINUOUS
 62
           7
100
AcDbLine
 10
0.0
 20
1445.74073989777
 11
-84.6
 21
1445.74073989777
  0
LINE
  5
22D
100
AcDbEntity
  8
7
  6
CONTINUOUS
 62
           7
100
AcDbLine
 10
-88.652848000002
 20
1441.143569897769
 11
-109.147843000001
 21
1426.070520897769
  0
LINE
  5
22C
100
AcDbEntity
  8
7
  6
CONTINUOUS
 62
           7
100
AcDbLine
 10
0.0
 20
1358.74073989777
 11
-115.0
 21
1358.74073989777
  0
LINE
  5
22B
100
AcDbEntity
  8
1
  6
DOT_CENTER
 62
           2
100
AcDbLine
 10
473.997537221199
 20
901.74073989777
 11
-664.64040068939
 21
901.74073989777
  0
LINE
  5
22A
100
AcDbEntity
  8
1
  6
CONTINUOUS
 62
           4
100
AcDbLine
 10
210.0
 20
1132.24073989777
 11
210.0
 21
1133.240739897771
  0
LINE
  5
229
100
AcDbEntity
  8
1
  6
CONTINUOUS
 62
           7
100
AcDbLine
 10
415.0
 20
1094.24073989777
 11
-579.999999999991
 21
1094.240739897771
  0
LINE
  5
228
100
AcDbEntity
  8
1
  6
CONTINUOUS
 62
           7
100
AcDbLine
 10
410.99206566863
 20
1094.24073989777
 11
410.99206566863
 21
1132.24073989777
  0
LINE
  5
227
100
AcDbEntity
  8
1
  6
CONTINUOUS
 62
           7
100
AcDbLine
 10
410.99206566863
 20
1132.24073989777
 11
-566.455357142861
 21
1132.24073989777
  0
LINE
  5
226
100
AcDbEntity
  8
1
  6
CONTINUOUS
 62
           7
100
AcDbLine
 10
-570.0
 20
709.240739897771
 11
-570.0
 21
693.74073989777
  0
LINE
  5
225
100
AcDbEntity
  8
1
  6
CONTINUOUS
 62
           7
100
AcDbLine
 10
-570.0
 20
1127.24073989777
 11
-566.455357142861
 21
1132.24073989777
  0
LINE
  5
224
100
AcDbEntity
  8
1
  6
CONTINUOUS
 62
           7
100
AcDbLine
 10
-570.0
 20
1127.24073989777
 11
-570.0
 21
1094.24073989777
  0
LINE
  5
223
100
AcDbEntity
  8
1
  6
CONTINUOUS
 62
           4
100
AcDbLine
 10
205.0
 20
1138.240739897772
 11
-204.993063735601
 21
1138.240739897772
  0
LINE
  5
222
100
AcDbEntity
  8
1
  6
CONTINUOUS
 62
           4
100
AcDbLine
 10
210.0
 20
1133.240739897771
 11
205.0
 21
1138.240739897772
  0
LINE
  5
221
100
AcDbEntity
  8
1
  6
CONTINUOUS
 62
           4
100
AcDbLine
 10
-204.993063735601
 20
1138.240739897772
 11
-210.0
 21
1133.240739897771
  0
LINE
  5
220
100
AcDbEntity
  8
1
  6
CONTINUOUS
 62
           4
100
AcDbLine
 10
-210.0
 20
1133.240739897771
 11
-210.0
 21
1132.24073989777
  0
LINE
  5
21F
100
AcDbEntity
  8
1
  6
CONTINUOUS
 62
           2
100
AcDbLine
 10
-528.316278697901
 20
720.74073989777
 11
-494.416198487101
 21
720.74073989777
  0
LINE
  5
21E
100
AcDbEntity
  8
1
  6
CONTINUOUS
 62
           2
100
AcDbLine
 10
-232.333637661241
 20
720.74073989777
 11
-232.333637661241
 21
1080.74073989777
  0
LINE
  5
21D
100
AcDbEntity
  8
1
  6
CONTINUOUS
 62
           2
100
AcDbLine
 10
-232.333637661241
 20
1080.74073989777
 11
-528.316278697901
 21
1080.74073989777
  0
LINE
  5
21C
100
AcDbEntity
  8
1
  6
CONTINUOUS
 62
           2
100
AcDbLine
 10
-528.316278697901
 20
1080.74073989777
 11
-528.316278697901
 21
720.74073989777
  0
LINE
  5
21B
100
AcDbEntity
  8
1
  6
CONTINUOUS
 62
           2
100
AcDbLine
 10
362.336090221739
 20
720.74073989777
 11
405.0
 21
720.74073989777
  0
LINE
  5
21A
100
AcDbEntity
  8
1
  6
CONTINUOUS
 62
           2
100
AcDbLine
 10
405.0
 20
1080.74073989777
 11
362.336090221739
 21
1080.74073989777
  0
LINE
  5
219
100
AcDbEntity
  8
1
  6
CONTINUOUS
 62
           2
100
AcDbLine
 10
362.336090221739
 20
1080.74073989777
 11
362.336090221739
 21
720.74073989777
  0
LINE
  5
218
100
AcDbEntity
  8
1
  6
CONTINUOUS
 62
           2
100
AcDbLine
 10
-404.133269182521
 20
720.74073989777
 11
-232.333637661241
 21
720.74073989777
  0
LINE
  5
217
100
AcDbEntity
  8
1
  6
CONTINUOUS
 62
           7
100
AcDbLine
 10
-512.5
 20
709.240739897771
 11
-579.999999999991
 21
709.240739897771
  0
LINE
  5
216
100
AcDbEntity
  8
1
  6
DOT_CENTER
 62
           2
100
AcDbLine
 10
-285.0
 20
4311.007823902588
 11
-285.0
 21
3968.201188913607
  0
LINE
  5
215
100
AcDbEntity
  8
1
  6
CONTINUOUS
 62
           4
100
AcDbLine
 10
40.0
 20
4210.24073989777
 11
-610.0
 21
4210.24073989777
  0
LINE
  5
214
100
AcDbEntity
  8
1
  6
CONTINUOUS
 62
           7
100
AcDbLine
 10
-610.0
 20
4205.74073989777
 11
40.0
 21
4205.74073989777
  0
LINE
  5
213
100
AcDbEntity
  8
1
  6
CONTINUOUS
 62
           4
100
AcDbLine
 10
-610.0
 20
4201.24073989777
 11
40.0
 21
4201.24073989777
  0
LINE
  5
212
100
AcDbEntity
  8
1
  6
CONTINUOUS
 62
           7
100
AcDbLine
 10
-610.0
 20
4205.74073989777
 11
-610.0
 21
4240.74073989777
  0
LINE
  5
211
100
AcDbEntity
  8
1
  6
CONTINUOUS
 62
           7
100
AcDbLine
 10
-610.0
 20
4240.74073989777
 11
-605.0
 21
4245.74073989777
  0
LINE
  5
210
100
AcDbEntity
  8
1
  6
CONTINUOUS
 62
           7
100
AcDbLine
 10
-605.0
 20
4245.74073989777
 11
35.0
 21
4245.74073989777
  0
LINE
  5
20F
100
AcDbEntity
  8
1
  6
CONTINUOUS
 62
           7
100
AcDbLine
 10
40.0
 20
4240.74073989777
 11
35.0
 21
4245.74073989777
  0
LINE
  5
20E
100
AcDbEntity
  8
1
  6
CONTINUOUS
 62
           7
100
AcDbLine
 10
40.0
 20
4240.74073989777
 11
40.0
 21
4205.74073989777
  0
LINE
  5
20D
100
AcDbEntity
  8
1
  6
CONTINUOUS
 62
           7
100
AcDbLine
 10
35.0
 20
4165.74073989777
 11
-605.0
 21
4165.74073989777
  0
LINE
  5
20C
100
AcDbEntity
  8
1
  6
CONTINUOUS
 62
           7
100
AcDbLine
 10
40.0
 20
4205.74073989777
 11
40.0
 21
4170.74073989777
  0
LINE
  5
20B
100
AcDbEntity
  8
1
  6
CONTINUOUS
 62
           7
100
AcDbLine
 10
-610.0
 20
4170.74073989777
 11
-610.0
 21
4205.74073989777
  0
LINE
  5
20A
100
AcDbEntity
  8
1
  6
CONTINUOUS
 62
           7
100
AcDbLine
 10
-605.0
 20
4165.74073989777
 11
-610.0
 21
4170.74073989777
  0
LINE
  5
209
100
AcDbEntity
  8
1
  6
CONTINUOUS
 62
           7
100
AcDbLine
 10
35.0
 20
4165.74073989777
 11
40.0
 21
4170.74073989777
  0
LINE
  5
208
100
AcDbEntity
  8
1
  6
CONTINUOUS
 62
           7
100
AcDbLine
 10
390.0
 20
3857.740739897768
 11
160.0
 21
4087.740739897768
  0
LINE
  5
207
100
AcDbEntity
  8
1
  6
CONTINUOUS
 62
           4
100
AcDbLine
 10
115.286004408819
 20
3726.99073989777
 11
109.265668111719
 21
3726.99073989777
  0
LINE
  5
206
100
AcDbEntity
  8
1
  6
CONTINUOUS
 62
           4
100
AcDbLine
 10
115.286004408819
 20
3804.49073989777
 11
109.265668111719
 21
3804.49073989777
  0
LINE
  5
205
100
AcDbEntity
  8
1
  6
CONTINUOUS
 62
           7
100
AcDbLine
 10
156.5
 20
3721.99073989777
 11
123.94625844666
 21
3721.99073989777
  0
LINE
  5
204
100
AcDbEntity
  8
1
  6
CONTINUOUS
 62
           7
100
AcDbLine
 10
123.94625844666
 20
3809.49073989777
 11
156.5
 21
3809.49073989777
  0
LINE
  5
203
100
AcDbEntity
  8
1
  6
CONTINUOUS
 62
           7
100
AcDbLine
 10
113.94625844666
 20
3731.99073989777
 11
113.94625844666
 21
3799.49073989777
  0
LINE
  5
202
100
AcDbEntity
  8
1
  6
CONTINUOUS
 62
           7
100
AcDbLine
 10
166.5
 20
3799.49073989777
 11
166.5
 21
3731.99073989777
  0
LINE
  5
201
100
AcDbEntity
  8
1
  6
CONTINUOUS
 62
           7
100
AcDbLine
 10
410.99206566863
 20
3692.610652609781
 11
-40.38731682328
 21
3238.896366895497
  0
LINE
  5
200
100
AcDbEntity
  8
1
  6
CONTINUOUS
 62
           7
100
AcDbLine
 10
-569.956959680421
 20
3765.740739897772
 11
-175.0
 21
4165.740739897772
  0
LINE
  5
1FF
100
AcDbEntity
  8
1
  6
CONTINUOUS
 62
           7
100
AcDbLine
 10
-40.38731682328
 20
3238.896366895497
 11
-569.956959680421
 21
3765.740739897772
  0
LINE
  5
1FE
100
AcDbEntity
  8
1
  6
CONTINUOUS
 62
           7
100
AcDbLine
 10
-570.0
 20
4165.74073989777
 11
-570.0
 21
4152.74073989777
  0
LINE
  5
1FD
100
AcDbEntity
  8
1
  6
CONTINUOUS
 62
           7
100
AcDbLine
 10
-580.0
 20
4142.74073989777
 11
-570.0
 21
4152.74073989777
  0
LINE
  5
1FC
100
AcDbEntity
  8
1
  6
CONTINUOUS
 62
           7
100
AcDbLine
 10
-580.0
 20
4142.74073989777
 11
-580.0
 21
3815.740739897768
  0
LINE
  5
1FB
100
AcDbEntity
  8
1
  6
CONTINUOUS
 62
           7
100
AcDbLine
 10
30.50394303083
 20
4109.906360737185
 11
0.0
 21
4165.74073989777
  0
LINE
  5
1FA
100
AcDbEntity
  8
1
  6
CONTINUOUS
 62
           7
100
AcDbLine
 10
-186.0
 20
3579.74073989777
 11
210.0
 21
3579.74073989777
  0
LINE
  5
1F9
100
AcDbEntity
  8
1
  6
CONTINUOUS
 62
           7
100
AcDbLine
 10
185.999999999989
 20
3579.74073989777
 11
185.999999999989
 21
3975.74073989777
  0
LINE
  5
1F8
100
AcDbEntity
  8
1
  6
CONTINUOUS
 62
           7
100
AcDbLine
 10
185.999999999989
 20
3951.740739897763
 11
-210.0
 21
3951.740739897763
  0
LINE
  5
1F7
100
AcDbEntity
  8
1
  6
CONTINUOUS
 62
           7
100
AcDbLine
 10
-186.0
 20
3951.740739897763
 11
-186.0
 21
3555.74073989777
  0
LINE
  5
1F6
100
AcDbEntity
  8
1
  6
CONTINUOUS
 62
           7
100
AcDbLine
 10
5197.999999999996
 20
1093.74525805259
 11
5197.999999999996
 21
709.24073989777
  0
LINE
  5
1F5
100
AcDbEntity
  8
1
  6
CONTINUOUS
 62
           2
100
AcDbLine
 10
5036.090589533993
 20
1080.74073989777
 11
4631.153949290643
 21
1080.74073989777
  0
LINE
  5
1F4
100
AcDbEntity
  8
1
  6
CONTINUOUS
 62
           2
100
AcDbLine
 10
5036.090589533993
 20
720.740739897766
 11
5036.090589533993
 21
1080.74073989777
  0
LINE
  5
1F3
100
AcDbEntity
  8
1
  6
CONTINUOUS
 62
           2
100
AcDbLine
 10
4631.153949290643
 20
720.740739897766
 11
5036.090589533993
 21
720.740739897766
  0
LINE
  5
1F2
100
AcDbEntity
  8
1
  6
CONTINUOUS
 62
           2
100
AcDbLine
 10
4631.153949290643
 20
1080.74073989777
 11
4631.153949290643
 21
720.740739897766
  0
LINE
  5
1F1
100
AcDbEntity
  8
1
  6
CONTINUOUS
 62
           4
100
AcDbLine
 10
5069.999999999996
 20
1131.74525805259
 11
5069.999999999996
 21
1132.74525805259
  0
LINE
  5
1F0
100
AcDbEntity
  8
1
  6
CONTINUOUS
 62
           4
100
AcDbLine
 10
5069.999999999996
 20
1132.74525805259
 11
5064.993063735602
 21
1137.74525805259
  0
LINE
  5
1EF
100
AcDbEntity
  8
1
  6
CONTINUOUS
 62
           4
100
AcDbLine
 10
4654.999999999996
 20
1137.74525805259
 11
4649.999999999996
 21
1132.74525805259
  0
LINE
  5
1EE
100
AcDbEntity
  8
1
  6
CONTINUOUS
 62
           4
100
AcDbLine
 10
5064.993063735602
 20
1137.74525805259
 11
4654.999999999996
 21
1137.74525805259
  0
LINE
  5
1ED
100
AcDbEntity
  8
1
  6
DOT_CENTER
 62
           2
100
AcDbLine
 10
4859.999999999996
 20
593.120424013348
 11
4859.999999999996
 21
1479.224619022415
  0
LINE
  5
1EC
100
AcDbEntity
  8
1
  6
CONTINUOUS
 62
           7
100
AcDbLine
 10
5259.999999999996
 20
676.240739897773
 11
5256.455357142856
 21
671.240739897773
  0
LINE
  5
1EB
100
AcDbEntity
  8
1
  6
CONTINUOUS
 62
           7
100
AcDbLine
 10
5259.999999999996
 20
1093.440739897771
 11
5259.999999999996
 21
1126.74525805259
  0
LINE
  5
1EA
100
AcDbEntity
  8
1
  6
CONTINUOUS
 62
           7
100
AcDbLine
 10
5256.455357142853
 20
1131.74525805259
 11
5259.999999999996
 21
1126.74525805259
  0
LINE
  5
1E9
100
AcDbEntity
  8
1
  6
CONTINUOUS
 62
           7
100
AcDbLine
 10
5259.999999999996
 20
676.240739897773
 11
5259.999999999996
 21
710.040739897769
  0
LINE
  5
1E8
100
AcDbEntity
  8
1
  6
CONTINUOUS
 62
           7
100
AcDbLine
 10
4333.155626997723
 20
709.24073989777
 11
4333.155626997725
 21
671.240739897773
  0
LINE
  5
1E7
100
AcDbEntity
  8
1
  6
CONTINUOUS
 62
           7
100
AcDbLine
 10
5256.455357142853
 20
1131.74525805259
 11
4951.999999999996
 21
1131.74525805259
  0
LINE
  5
1E6
100
AcDbEntity
  8
1
  6
CONTINUOUS
 62
           7
100
AcDbLine
 10
4333.155626997725
 20
1131.74525805259
 11
4333.155626997721
 21
1094.24073989777
  0
LINE
  5
1E5
100
AcDbEntity
  8
1
  6
CONTINUOUS
 62
           7
100
AcDbLine
 10
5259.999999999993
 20
1094.245258052594
 11
4333.155626997721
 21
1094.24073989777
  0
LINE
  5
1E4
100
AcDbEntity
  8
1
  6
CONTINUOUS
 62
           4
100
AcDbLine
 10
4649.999999999996
 20
1132.74525805259
 11
4649.999999999996
 21
1131.74525805259
  0
LINE
  5
1E3
100
AcDbEntity
  8
1
  6
DOT_CENTER
 62
           2
100
AcDbLine
 10
5395.456827495054
 20
901.74073989777
 11
4302.780498763485
 21
901.74073989777
  0
LINE
  5
1E2
100
AcDbEntity
  8
7
  6
CONTINUOUS
 62
           7
100
AcDbLine
 10
4974.999999999996
 20
1358.74073989777
 11
4859.999999999996
 21
1358.74073989777
  0
LINE
  5
1E1
100
AcDbEntity
  8
7
  6
CONTINUOUS
 62
           7
100
AcDbLine
 10
4969.147842999999
 20
1426.070520897767
 11
4948.652847999998
 21
1441.143569897769
  0
LINE
  5
1E0
100
AcDbEntity
  8
7
  6
CONTINUOUS
 62
           7
100
AcDbLine
 10
4944.599999999997
 20
1445.74073989777
 11
4859.999999999996
 21
1445.74073989777
  0
LINE
  5
1DF
100
AcDbEntity
  8
7
  6
CONTINUOUS
 62
           7
100
AcDbLine
 10
4974.999999999996
 20
1386.278278271135
 11
4974.999999999996
 21
1358.74073989777
  0
LINE
  5
1DE
100
AcDbEntity
  8
7
  6
CONTINUOUS
 62
           7
100
AcDbLine
 10
4859.999999999996
 20
1358.74073989777
 11
4744.999999999996
 21
1358.74073989777
  0
LINE
  5
1DD
100
AcDbEntity
  8
7
  6
CONTINUOUS
 62
           7
100
AcDbLine
 10
4744.999999999996
 20
1386.278278271135
 11
4747.999999999996
 21
1421.040739897767
  0
LINE
  5
1DC
100
AcDbEntity
  8
7
  6
CONTINUOUS
 62
           7
100
AcDbLine
 10
4753.223965999996
 20
1424.602435897769
 11
4773.847152999997
 21
1441.143569897769
  0
LINE
  5
1DB
100
AcDbEntity
  8
7
  6
CONTINUOUS
 62
           7
100
AcDbLine
 10
4777.899999999996
 20
1445.74073989777
 11
4859.999999999996
 21
1445.74073989777
  0
LINE
  5
1DA
100
AcDbEntity
  8
2
  6
CONTINUOUS
 62
           7
100
AcDbLine
 10
4762.431357999996
 20
1139.74525805259
 11
4751.386335999996
 21
1166.24525805259
  0
LINE
  5
1D9
100
AcDbEntity
  8
2
  6
CONTINUOUS
 62
           7
100
AcDbLine
 10
4751.386335999996
 20
1347.24073989777
 11
4751.386335999996
 21
1166.24525805259
  0
LINE
  5
1D8
100
AcDbEntity
  8
2
  6
CONTINUOUS
 62
           7
100
AcDbLine
 10
4756.179458999995
 20
1358.74073989777
 11
4751.386335999996
 21
1347.24073989777
  0
LINE
  5
1D7
100
AcDbEntity
  8
2
  6
CONTINUOUS
 62
           4
100
AcDbLine
 10
4953.249999999996
 20
1137.74525805259
 11
4953.249999999996
 21
1139.74525805259
  0
LINE
  5
1D6
100
AcDbEntity
  8
2
  6
CONTINUOUS
 62
           7
100
AcDbLine
 10
4968.613663999997
 20
1347.24073989777
 11
4968.613663999997
 21
1166.24525805259
  0
LINE
  5
1D5
100
AcDbEntity
  8
2
  6
CONTINUOUS
 62
           7
100
AcDbLine
 10
4968.613663999997
 20
1347.24073989777
 11
4963.820540999996
 21
1358.74073989777
  0
LINE
  5
1D4
100
AcDbEntity
  8
2
  6
CONTINUOUS
 62
           4
100
AcDbLine
 10
4957.568641999998
 20
1139.74525805259
 11
4762.431357999996
 21
1139.74525805259
  0
LINE
  5
1D3
100
AcDbEntity
  8
2
  6
CONTINUOUS
 62
           7
100
AcDbLine
 10
4968.613663999997
 20
1166.24525805259
 11
4957.568641999998
 21
1139.74525805259
  0
LINE
  5
1D2
100
AcDbEntity
  8
7
  6
CONTINUOUS
 62
           7
100
AcDbLine
 10
4971.999999999996
 20
1420.852096897767
 11
4974.999999999996
 21
1386.278278271135
  0
LINE
  5
1D1
100
AcDbEntity
  8
7
  6
CONTINUOUS
 62
           7
100
AcDbLine
 10
4744.999999999996
 20
1358.74073989777
 11
4744.999999999996
 21
1386.278278271135
  0
LINE
  5
1D0
100
AcDbEntity
  8
2
  6
CONTINUOUS
 62
           4
100
AcDbLine
 10
4766.749999999996
 20
1139.74525805259
 11
4766.749999999996
 21
1137.74525805259
  0
LINE
  5
1CF
100
AcDbEntity
  8
1
  6
CONTINUOUS
 62
           7
100
AcDbLine
 10
4601.799999999998
 20
671.240739897773
 11
4601.799999999998
 21
624.74073989777
  0
LINE
  5
1CE
100
AcDbEntity
  8
1
  6
CONTINUOUS
 62
           7
100
AcDbLine
 10
4333.155626997725
 20
671.240739897773
 11
4786.869912712007
 21
671.240739897777
  0
LINE
  5
1CD
100
AcDbEntity
  8
1
  6
CONTINUOUS
 62
           7
100
AcDbLine
 10
4379.999999999989
 20
1094.240739897771
 11
4379.999999999989
 21
709.24073989777
  0
LINE
  5
1CC
100
AcDbEntity
  8
1
  6
CONTINUOUS
 62
           7
100
AcDbLine
 10
5118.199999999997
 20
624.74073989777
 11
5118.199999999997
 21
671.240739897773
  0
LINE
  5
1CB
100
AcDbEntity
  8
1
  6
CONTINUOUS
 62
           7
100
AcDbLine
 10
5259.999999999996
 20
709.24073989777
 11
5259.999999999996
 21
1094.24073989777
  0
LINE
  5
1CA
100
AcDbEntity
  8
1
  6
CONTINUOUS
 62
           7
100
AcDbLine
 10
5339.999999999998
 20
1098.74073989777
 11
5339.999999999998
 21
704.74073989777
  0
LINE
  5
1C9
100
AcDbEntity
  8
1
  6
CONTINUOUS
 62
           4
100
AcDbLine
 10
5339.999999999998
 20
1098.74073989777
 11
5305.499999999996
 21
1098.74073989777
  0
LINE
  5
1C8
100
AcDbEntity
  8
1
  6
CONTINUOUS
 62
           4
100
AcDbLine
 10
5304.499999999996
 20
1134.24073989777
 11
5304.499999999996
 21
1099.740739897771
  0
LINE
  5
1C7
100
AcDbEntity
  8
1
  6
CONTINUOUS
 62
           4
100
AcDbLine
 10
5304.499999999996
 20
1134.24073989777
 11
5295.499999999996
 21
1134.24073989777
  0
LINE
  5
1C6
100
AcDbEntity
  8
1
  6
CONTINUOUS
 62
           4
100
AcDbLine
 10
5295.499999999996
 20
1099.74073989777
 11
5295.499999999996
 21
1134.24073989777
  0
LINE
  5
1C5
100
AcDbEntity
  8
1
  6
CONTINUOUS
 62
           4
100
AcDbLine
 10
5294.499999999996
 20
1098.74073989777
 11
5259.999999999993
 21
1098.74073989777
  0
LINE
  5
1C4
100
AcDbEntity
  8
1
  6
CONTINUOUS
 62
           4
100
AcDbLine
 10
5305.499999999996
 20
704.74073989777
 11
5339.999999999998
 21
704.74073989777
  0
LINE
  5
1C3
100
AcDbEntity
  8
1
  6
CONTINUOUS
 62
           4
100
AcDbLine
 10
5304.499999999996
 20
703.74073989777
 11
5304.499999999996
 21
669.24073989777
  0
LINE
  5
1C2
100
AcDbEntity
  8
1
  6
CONTINUOUS
 62
           4
100
AcDbLine
 10
5259.999999999993
 20
704.74073989777
 11
5294.499999999996
 21
704.74073989777
  0
LINE
  5
1C1
100
AcDbEntity
  8
1
  6
CONTINUOUS
 62
           4
100
AcDbLine
 10
5295.499999999996
 20
669.24073989777
 11
5295.499999999996
 21
703.74073989777
  0
LINE
  5
1C0
100
AcDbEntity
  8
1
  6
CONTINUOUS
 62
           4
100
AcDbLine
 10
5295.499999999996
 20
1094.24073989777
 11
5295.499999999996
 21
709.24073989777
  0
LINE
  5
1BF
100
AcDbEntity
  8
1
  6
CONTINUOUS
 62
           4
100
AcDbLine
 10
5304.499999999996
 20
709.24073989777
 11
5304.499999999996
 21
1094.24073989777
  0
LINE
  5
1BE
100
AcDbEntity
  8
1
  6
CONTINUOUS
 62
           4
100
AcDbLine
 10
5295.499999999996
 20
669.24073989777
 11
5304.499999999996
 21
669.24073989777
  0
LINE
  5
1BD
100
AcDbEntity
  8
1
  6
CONTINUOUS
 62
           4
100
AcDbLine
 10
4562.499999999996
 20
624.74073989777
 11
4562.499999999996
 21
618.74073989777
  0
LINE
  5
1BC
100
AcDbEntity
  8
1
  6
CONTINUOUS
 62
           4
100
AcDbLine
 10
5157.499999999996
 20
624.74073989777
 11
5157.499999999996
 21
618.74073989777
  0
LINE
  5
1BB
100
AcDbEntity
  8
1
  6
CONTINUOUS
 62
           4
100
AcDbLine
 10
5157.499999999996
 20
624.74073989777
 11
4562.499999999996
 21
624.74073989777
  0
LINE
  5
1BA
100
AcDbEntity
  8
1
  6
CONTINUOUS
 62
           7
100
AcDbLine
 10
4859.999999999996
 20
618.74073989777
 11
4562.499999999996
 21
618.74073989777
  0
LINE
  5
1B9
100
AcDbEntity
  8
1
  6
CONTINUOUS
 62
           7
100
AcDbLine
 10
5157.499999999996
 20
618.74073989777
 11
4859.999999999996
 21
618.74073989777
  0
LINE
  5
1B8
100
AcDbEntity
  8
1
  6
CONTINUOUS
 62
           7
100
AcDbLine
 10
5259.999999999996
 20
709.24073989777
 11
4333.155626997723
 21
709.24073989777
  0
LINE
  5
1B7
100
AcDbEntity
  8
1
  6
CONTINUOUS
 62
           4
100
AcDbLine
 10
4974.999999999996
 20
1386.278278271135
 11
4744.999999999996
 21
1386.278278271135
  0
LINE
  5
1B6
100
AcDbEntity
  8
7
  6
CONTINUOUS
 62
           4
100
AcDbLine
 10
4751.199999999995
 20
1424.24073989777
 11
4970.992022999999
 21
1424.24073989777
  0
LINE
  5
1B5
100
AcDbEntity
  8
1
  6
CONTINUOUS
 62
           7
100
AcDbLine
 10
5299.999999999996
 20
1134.24073989777
 11
5299.999999999996
 21
669.24073989777
  0
LINE
  5
1B4
100
AcDbEntity
  8
1
  6
CONTINUOUS
 62
           7
100
AcDbLine
 10
5259.999999999993
 20
1094.24073989777
 11
5339.999999999998
 21
1094.24073989777
  0
LINE
  5
1B3
100
AcDbEntity
  8
1
  6
CONTINUOUS
 62
           7
100
AcDbLine
 10
5339.999999999998
 20
709.24073989777
 11
5259.999999999993
 21
709.24073989777
  0
LINE
  5
1B2
100
AcDbEntity
  8
1
  6
CONTINUOUS
 62
           7
100
AcDbLine
 10
4893.749999999996
 20
1214.545258052593
 11
4826.249999999996
 21
1214.545258052593
  0
LINE
  5
1B1
100
AcDbEntity
  8
1
  6
CONTINUOUS
 62
           7
100
AcDbLine
 10
4826.249999999996
 20
1294.545258052593
 11
4893.749999999996
 21
1294.545258052593
  0
LINE
  5
1B0
100
AcDbEntity
  8
1
  6
CONTINUOUS
 62
           7
100
AcDbLine
 10
4903.749999999996
 20
1284.545258052593
 11
4903.749999999996
 21
1224.545258052593
  0
LINE
  5
1AF
100
AcDbEntity
  8
1
  6
CONTINUOUS
 62
           7
100
AcDbLine
 10
4816.249999999996
 20
1224.545258052593
 11
4816.249999999996
 21
1284.545258052593
  0
LINE
  5
1AE
100
AcDbEntity
  8
1
  6
CONTINUOUS
 62
           7
100
AcDbLine
 10
4951.999999999996
 20
1131.74525805259
 11
4951.999999999996
 21
1093.74525805259
  0
LINE
  5
1AD
100
AcDbEntity
  8
1
  6
CONTINUOUS
 62
           7
100
AcDbLine
 10
4786.869912712007
 20
1131.74525805259
 11
4786.869912712007
 21
1093.74525805259
  0
LINE
  5
1AC
100
AcDbEntity
  8
1
  6
CONTINUOUS
 62
           7
100
AcDbLine
 10
4786.869912712007
 20
1131.74525805259
 11
4333.155626997725
 21
1131.74525805259
  0
LINE
  5
1AB
100
AcDbEntity
  8
1
  6
CONTINUOUS
 62
           7
100
AcDbLine
 10
4786.869912712007
 20
709.240739897777
 11
4786.869912712007
 21
671.240739897777
  0
LINE
  5
1AA
100
AcDbEntity
  8
1
  6
CONTINUOUS
 62
           7
100
AcDbLine
 10
4951.999999999996
 20
709.240739897777
 11
4951.999999999996
 21
671.240739897777
  0
LINE
  5
1A9
100
AcDbEntity
  8
1
  6
CONTINUOUS
 62
           7
100
AcDbLine
 10
4951.999999999996
 20
671.240739897777
 11
5256.455357142856
 21
671.240739897773
  0
LINE
  5
1A8
100
AcDbEntity
  8
1
  6
CONTINUOUS
 62
           7
100
AcDbLine
 10
5184.999999999996
 20
671.240739897773
 11
5184.999999999996
 21
709.24073989777
  0
LINE
  5
1A7
100
AcDbEntity
  8
1
  6
CONTINUOUS
 62
           7
100
AcDbLine
 10
5184.999999999996
 20
1093.74525805259
 11
5184.999999999996
 21
1131.74525805259
  0
LINE
  5
1A6
100
AcDbEntity
  8
1
  6
CONTINUOUS
 62
           7
100
AcDbLine
 10
3980.000000000002
 20
163.74073989777
 11
3800.0
 21
163.74073989777
  0
LINE
  5
1A5
100
AcDbEntity
  8
1
  6
CONTINUOUS
 62
           7
100
AcDbLine
 10
3800.000000000002
 20
276.74073989777
 11
3980.000000000002
 21
276.74073989777
  0
LINE
  5
1A4
100
AcDbEntity
  8
1
  6
CONTINUOUS
 62
           7
100
AcDbLine
 10
3980.000000000002
 20
276.74073989777
 11
3980.000000000002
 21
163.74073989777
  0
LINE
  5
1A3
100
AcDbEntity
  8
1
  6
CONTINUOUS
 62
           7
100
AcDbLine
 10
3800.0
 20
163.74073989777
 11
3800.000000000002
 21
276.74073989777
  0
LINE
  5
1A2
100
AcDbEntity
  8
1
  6
CONTINUOUS
 62
           7
100
AcDbLine
 10
-569.497691536611
 20
-469.745733303862
 11
575.0
 21
-469.745733303862
  0
LINE
  5
1A1
100
AcDbEntity
  8
1
  6
CONTINUOUS
 62
           2
100
AcDbLine
 10
4270.000000000002
 20
344.571872232357
 11
4270.0
 21
-936.25926010223
  0
LINE
  5
1A0
100
AcDbEntity
  8
1
  6
CONTINUOUS
 62
           7
100
AcDbLine
 10
4250.000000000002
 20
327.897966728616
 11
4250.0
 21
543.74073989777
  0
LINE
  5
19F
100
AcDbEntity
  8
1
  6
CONTINUOUS
 62
           2
100
AcDbLine
 10
4230.000000000002
 20
285.229504053077
 11
4230.0
 21
523.74073989777
  0
LINE
  5
19E
100
AcDbEntity
  8
1
  6
CONTINUOUS
 62
           2
100
AcDbLine
 10
4270.0
 20
523.74073989777
 11
4270.000000000002
 21
358.205409114113
  0
LINE
  5
19D
100
AcDbEntity
  8
1
  6
CONTINUOUS
 62
           2
100
AcDbLine
 10
4230.0
 20
-936.25926010223
 11
4230.000000000002
 21
259.265843142045
  0
LINE
  5
19C
100
AcDbEntity
  8
1
  6
CONTINUOUS
 62
           7
100
AcDbLine
 10
4250.0
 20
-956.259260102229
 11
4250.000000000002
 21
311.034013425948
  0
LINE
  5
19B
100
AcDbEntity
  8
___S__
  6
DOT_CENTER
 62
           3
100
AcDbLine
 10
-575.0
 20
-389.195993505769
 11
-575.0
 21
-474.191703736894
  0
LINE
  5
19A
100
AcDbEntity
  8
____
  6
CONTINUOUS
 62
           3
100
AcDbLine
 10
-569.595947044882
 20
-395.79975528605
 11
-569.595947044882
 21
-397.677686034173
  0
LINE
  5
199
100
AcDbEntity
  8
____
  6
CONTINUOUS
 62
           3
100
AcDbLine
 10
-579.91277541375
 20
-395.330272599019
 11
-570.087224586261
 21
-395.330272599019
  0
LINE
  5
198
100
AcDbEntity
  8
____
  6
CONTINUOUS
 62
           3
100
AcDbLine
 10
-580.40405295512
 20
-397.677686034173
 11
-580.40405295512
 21
-395.79975528605
  0
LINE
  5
197
100
AcDbEntity
  8
____
  6
CONTINUOUS
 62
           3
100
AcDbLine
 10
-569.497691536611
 20
-433.358370248506
 11
-580.50230846339
 21
-433.358370248505
  0
LINE
  5
196
100
AcDbEntity
  8
____
  6
CONTINUOUS
 62
           3
100
AcDbLine
 10
-569.497691536611
 20
-397.677686034173
 11
-569.497691536611
 21
-433.358370248506
  0
LINE
  5
195
100
AcDbEntity
  8
____
  6
CONTINUOUS
 62
           3
100
AcDbLine
 10
-580.502308463381
 20
-397.677686034173
 11
-569.497691536611
 21
-397.677686034173
  0
LINE
  5
194
100
AcDbEntity
  8
____
  6
CONTINUOUS
 62
           3
100
AcDbLine
 10
-580.50230846339
 20
-433.358370248505
 11
-580.502308463381
 21
-397.677686034173
  0
LINE
  5
193
100
AcDbEntity
  8
____
  6
CONTINUOUS
 62
           3
100
AcDbLine
 10
-580.40405295512
 20
-471.855950585022
 11
-580.40405295512
 21
-469.9780198369
  0
LINE
  5
192
100
AcDbEntity
  8
____
  6
CONTINUOUS
 62
           3
100
AcDbLine
 10
-570.087224586261
 20
-472.325433272054
 11
-579.91277541375
 21
-472.325433272054
  0
LINE
  5
191
100
AcDbEntity
  8
____
  6
CONTINUOUS
 62
           3
100
AcDbLine
 10
-569.595947044882
 20
-469.9780198369
 11
-569.595947044882
 21
-471.855950585022
  0
LINE
  5
190
100
AcDbEntity
  8
____
  6
CONTINUOUS
 62
           3
100
AcDbLine
 10
-580.158414184431
 20
-433.358370248505
 11
-580.158414184431
 21
-434.297335622568
  0
LINE
  5
18F
100
AcDbEntity
  8
____
  6
CONTINUOUS
 62
           3
100
AcDbLine
 10
-569.841585815571
 20
-433.358370248506
 11
-580.158414184431
 21
-433.358370248505
  0
LINE
  5
18E
100
AcDbEntity
  8
____
  6
CONTINUOUS
 62
           3
100
AcDbLine
 10
-569.841585815571
 20
-434.297335622568
 11
-569.841585815571
 21
-433.358370248506
  0
LINE
  5
18D
100
AcDbEntity
  8
____
  6
CONTINUOUS
 62
           3
100
AcDbLine
 10
-580.40405295512
 20
-395.79975528605
 11
-569.595947044882
 21
-395.79975528605
  0
LINE
  5
18C
100
AcDbEntity
  8
____
  6
CONTINUOUS
 62
           3
100
AcDbLine
 10
-580.50230846339
 20
-434.297335622568
 11
-569.497691536611
 21
-434.297335622568
  0
LINE
  5
18B
100
AcDbEntity
  8
____
  6
CONTINUOUS
 62
           3
100
AcDbLine
 10
-580.50230846339
 20
-469.9780198369
 11
-580.50230846339
 21
-434.297335622568
  0
LINE
  5
18A
100
AcDbEntity
  8
____
  6
CONTINUOUS
 62
           3
100
AcDbLine
 10
-569.497691536611
 20
-469.9780198369
 11
-580.50230846339
 21
-469.9780198369
  0
LINE
  5
189
100
AcDbEntity
  8
____
  6
CONTINUOUS
 62
           3
100
AcDbLine
 10
-569.497691536611
 20
-434.297335622568
 11
-569.497691536611
 21
-469.9780198369
  0
LINE
  5
188
100
AcDbEntity
  8
____
  6
CONTINUOUS
 62
           3
100
AcDbLine
 10
-580.40405295512
 20
-395.79975528605
 11
-579.91277541375
 21
-395.330272599019
  0
LINE
  5
187
100
AcDbEntity
  8
____
  6
CONTINUOUS
 62
           3
100
AcDbLine
 10
-570.087224586261
 20
-395.330272599019
 11
-569.595947044882
 21
-395.79975528605
  0
LINE
  5
186
100
AcDbEntity
  8
____
  6
CONTINUOUS
 62
           3
100
AcDbLine
 10
-579.91277541375
 20
-472.325433272054
 11
-580.40405295512
 21
-471.855950585022
  0
LINE
  5
185
100
AcDbEntity
  8
____
  6
CONTINUOUS
 62
           3
100
AcDbLine
 10
-569.595947044882
 20
-471.855950585022
 11
-570.087224586261
 21
-472.325433272054
  0
LINE
  5
184
100
AcDbEntity
  8
____
  6
CONTINUOUS
 62
           3
100
AcDbLine
 10
-580.40405295512
 20
-471.855950585022
 11
-569.595947044882
 21
-471.855950585022
  0
LINE
  5
183
100
AcDbEntity
  8
____
  6
CONTINUOUS
 62
           3
100
AcDbLine
 10
-580.4040529551
 20
82.13362010503
 11
-569.595947044862
 21
82.13362010503
  0
LINE
  5
182
100
AcDbEntity
  8
____
  6
CONTINUOUS
 62
           3
100
AcDbLine
 10
-569.595947044862
 20
82.13362010503
 11
-570.08722458623
 21
81.664137418002
  0
LINE
  5
181
100
AcDbEntity
  8
____
  6
CONTINUOUS
 62
           3
100
AcDbLine
 10
-579.912775413721
 20
81.664137418002
 11
-580.4040529551
 21
82.13362010503
  0
LINE
  5
180
100
AcDbEntity
  8
____
  6
CONTINUOUS
 62
           3
100
AcDbLine
 10
-570.08722458623
 20
158.659298091034
 11
-569.595947044862
 21
158.189815404002
  0
LINE
  5
17F
100
AcDbEntity
  8
____
  6
CONTINUOUS
 62
           3
100
AcDbLine
 10
-580.4040529551
 20
158.189815404002
 11
-579.912775413721
 21
158.659298091034
  0
LINE
  5
17E
100
AcDbEntity
  8
____
  6
CONTINUOUS
 62
           3
100
AcDbLine
 10
-569.497691536591
 20
119.692235067486
 11
-569.497691536591
 21
84.011550853153
  0
LINE
  5
17D
100
AcDbEntity
  8
____
  6
CONTINUOUS
 62
           3
100
AcDbLine
 10
-569.497691536591
 20
84.011550853153
 11
-580.50230846337
 21
84.011550853153
  0
LINE
  5
17C
100
AcDbEntity
  8
____
  6
CONTINUOUS
 62
           3
100
AcDbLine
 10
-580.50230846337
 20
84.011550853153
 11
-580.50230846337
 21
119.692235067486
  0
LINE
  5
17B
100
AcDbEntity
  8
____
  6
CONTINUOUS
 62
           3
100
AcDbLine
 10
-580.50230846337
 20
119.692235067486
 11
-569.497691536591
 21
119.692235067486
  0
LINE
  5
17A
100
AcDbEntity
  8
____
  6
CONTINUOUS
 62
           3
100
AcDbLine
 10
-580.4040529551
 20
158.189815404002
 11
-569.595947044862
 21
158.189815404002
  0
LINE
  5
179
100
AcDbEntity
  8
____
  6
CONTINUOUS
 62
           3
100
AcDbLine
 10
-569.841585815551
 20
119.692235067486
 11
-569.841585815551
 21
120.631200441548
  0
LINE
  5
178
100
AcDbEntity
  8
____
  6
CONTINUOUS
 62
           3
100
AcDbLine
 10
-569.841585815551
 20
120.631200441548
 11
-580.158414184411
 21
120.631200441548
  0
LINE
  5
177
100
AcDbEntity
  8
____
  6
CONTINUOUS
 62
           3
100
AcDbLine
 10
-580.158414184411
 20
120.631200441548
 11
-580.158414184411
 21
119.692235067486
  0
LINE
  5
176
100
AcDbEntity
  8
____
  6
CONTINUOUS
 62
           3
100
AcDbLine
 10
-569.595947044862
 20
84.011550853153
 11
-569.595947044862
 21
82.13362010503
  0
LINE
  5
175
100
AcDbEntity
  8
____
  6
CONTINUOUS
 62
           3
100
AcDbLine
 10
-570.08722458623
 20
81.664137418002
 11
-579.912775413721
 21
81.664137418002
  0
LINE
  5
174
100
AcDbEntity
  8
____
  6
CONTINUOUS
 62
           3
100
AcDbLine
 10
-580.4040529551
 20
82.13362010503
 11
-580.4040529551
 21
84.011550853153
  0
LINE
  5
173
100
AcDbEntity
  8
____
  6
CONTINUOUS
 62
           3
100
AcDbLine
 10
-580.50230846337
 20
120.631200441548
 11
-580.50230846337
 21
156.31188465588
  0
LINE
  5
172
100
AcDbEntity
  8
____
  6
CONTINUOUS
 62
           3
100
AcDbLine
 10
-580.50230846337
 20
156.31188465588
 11
-569.497691536591
 21
156.311884655879
  0
LINE
  5
171
100
AcDbEntity
  8
____
  6
CONTINUOUS
 62
           3
100
AcDbLine
 10
-569.497691536591
 20
156.311884655879
 11
-569.497691536591
 21
120.631200441548
  0
LINE
  5
170
100
AcDbEntity
  8
____
  6
CONTINUOUS
 62
           3
100
AcDbLine
 10
-569.497691536591
 20
120.631200441548
 11
-580.50230846337
 21
120.631200441548
  0
LINE
  5
16F
100
AcDbEntity
  8
____
  6
CONTINUOUS
 62
           3
100
AcDbLine
 10
-580.4040529551
 20
156.31188465588
 11
-580.4040529551
 21
158.189815404002
  0
LINE
  5
16E
100
AcDbEntity
  8
____
  6
CONTINUOUS
 62
           3
100
AcDbLine
 10
-579.912775413721
 20
158.659298091034
 11
-570.08722458623
 21
158.659298091034
  0
LINE
  5
16D
100
AcDbEntity
  8
____
  6
CONTINUOUS
 62
           3
100
AcDbLine
 10
-569.595947044862
 20
158.189815404002
 11
-569.595947044862
 21
156.311884655879
  0
LINE
  5
16C
100
AcDbEntity
  8
___S__
  6
DOT_CENTER
 62
           3
100
AcDbLine
 10
-574.99999999998
 20
164.793577184268
 11
-574.99999999998
 21
79.797866953161
  0
LINE
  5
16B
100
AcDbEntity
  8
1
  6
CONTINUOUS
 62
           7
100
AcDbLine
 10
-575.0
 20
-514.745733303862
 11
575.0
 21
-514.745733303862
  0
LINE
  5
16A
100
AcDbEntity
  8
1
  6
CONTINUOUS
 62
           7
100
AcDbLine
 10
575.0
 20
-514.745733303862
 11
575.0
 21
190.023732285573
  0
LINE
  5
169
100
AcDbEntity
  8
1
  6
CONTINUOUS
 62
           7
100
AcDbLine
 10
-575.0
 20
-514.745733303862
 11
-575.0
 21
190.023732285573
  0
LINE
  5
168
100
AcDbEntity
  8
1
  6
CONTINUOUS
 62
           7
100
AcDbLine
 10
575.0
 20
190.023732285573
 11
-575.0
 21
190.023732285573
  0
LINE
  5
167
100
AcDbEntity
  8
1
  6
CONTINUOUS
 62
           7
100
AcDbLine
 10
1000.0
 20
307.485309883815
 11
-1000.0
 21
307.485309883815
  0
LINE
  5
166
100
AcDbEntity
  8
1
  6
CONTINUOUS
 62
           7
100
AcDbLine
 10
1000.0
 20
543.74073989777
 11
1000.0
 21
-1456.25926010223
  0
LINE
  5
165
100
AcDbEntity
  8
1
  6
CONTINUOUS
 62
           7
100
AcDbLine
 10
1050.0
 20
693.74073989777
 11
-1050.0
 21
693.74073989777
  0
LINE
  5
164
100
AcDbEntity
  8
1
  6
DOT_CENTER
 62
           2
100
AcDbLine
 10
0.0
 20
-1531.993407818298
 11
0.0
 21
1466.353372693341
  0
LINE
  5
163
100
AcDbEntity
  8
1
  6
CONTINUOUS
 62
           7
100
AcDbLine
 10
1050.0
 20
3155.74073989777
 11
-1050.0
 21
3155.74073989777
  0
LINE
  5
162
100
AcDbEntity
  8
1
  6
CONTINUOUS
 62
           7
100
AcDbLine
 10
-985.0
 20
-981.259260102229
 11
-985.0
 21
-916.25926010223
  0
LINE
  5
161
100
AcDbEntity
  8
1
  6
CONTINUOUS
 62
           7
100
AcDbLine
 10
-1000.0
 20
-981.259260102229
 11
1000.0
 21
-981.259260102229
  0
LINE
  5
160
100
AcDbEntity
  8
1
  6
CONTINUOUS
 62
           7
100
AcDbLine
 10
-387.5
 20
2390.74073989777
 11
-407.573593128811
 21
2390.74073989777
  0
LINE
  5
15F
100
AcDbEntity
  8
1
  6
CONTINUOUS
 62
           7
100
AcDbLine
 10
-465.0
 20
2343.240739897769
 11
-465.0
 21
2363.314333026576
  0
LINE
  5
15E
100
AcDbEntity
  8
1
  6
CONTINUOUS
 62
           7
100
AcDbLine
 10
-512.5
 20
2420.74073989777
 11
-492.426406871191
 21
2420.74073989777
  0
LINE
  5
15D
100
AcDbEntity
  8
1
  6
CONTINUOUS
 62
           7
100
AcDbLine
 10
-387.5
 20
2420.74073989777
 11
-387.5
 21
2390.74073989777
  0
LINE
  5
15C
100
AcDbEntity
  8
1
  6
CONTINUOUS
 62
           7
100
AcDbLine
 10
-435.0
 20
2343.240739897769
 11
-465.0
 21
2343.240739897769
  0
LINE
  5
15B
100
AcDbEntity
  8
1
  6
CONTINUOUS
 62
           7
100
AcDbLine
 10
-512.5
 20
2390.74073989777
 11
-512.5
 21
2420.74073989777
  0
LINE
  5
15A
100
AcDbEntity
  8
1
  6
CONTINUOUS
 62
           7
100
AcDbLine
 10
-407.573593128811
 20
2420.74073989777
 11
-387.5
 21
2420.74073989777
  0
LINE
  5
159
100
AcDbEntity
  8
1
  6
CONTINUOUS
 62
           7
100
AcDbLine
 10
-435.0
 20
2363.314333026576
 11
-435.0
 21
2343.240739897769
  0
LINE
  5
158
100
AcDbEntity
  8
1
  6
CONTINUOUS
 62
           7
100
AcDbLine
 10
-492.426406871191
 20
2390.74073989777
 11
-512.5
 21
2390.74073989777
  0
LINE
  5
157
100
AcDbEntity
  8
1
  6
CONTINUOUS
 62
           7
100
AcDbLine
 10
-435.0
 20
2468.24073989777
 11
-435.0
 21
2448.167146768962
  0
LINE
  5
156
100
AcDbEntity
  8
1
  6
CONTINUOUS
 62
           7
100
AcDbLine
 10
-465.0
 20
2468.24073989777
 11
-435.0
 21
2468.24073989777
  0
LINE
  5
155
100
AcDbEntity
  8
1
  6
CONTINUOUS
 62
           7
100
AcDbLine
 10
-465.0
 20
2448.167146768962
 11
-465.0
 21
2468.24073989777
  0
LINE
  5
154
100
AcDbEntity
  8
1
  6
DOT_CENTER
 62
           2
100
AcDbLine
 10
-680.91292402484
 20
2405.74073989777
 11
704.92466989694
 21
2405.74073989777
  0
LINE
  5
153
100
AcDbEntity
  8
1
  6
CONTINUOUS
 62
           2
100
AcDbLine
 10
-980.0
 20
2175.740739897769
 11
980.0
 21
2175.740739897769
  0
LINE
  5
152
100
AcDbEntity
  8
1
  6
CONTINUOUS
 62
           7
100
AcDbLine
 10
1050.0
 20
693.74073989777
 11
1050.0
 21
-1456.25926010223
  0
LINE
  5
151
100
AcDbEntity
  8
1
  6
CONTINUOUS
 62
           7
100
AcDbLine
 10
-1050.0
 20
693.74073989777
 11
-1050.0
 21
-1456.25926010223
  0
LINE
  5
150
100
AcDbEntity
  8
1
  6
CONTINUOUS
 62
           2
100
AcDbLine
 10
980.0
 20
4135.74073989777
 11
520.0
 21
4135.74073989777
  0
LINE
  5
14F
100
AcDbEntity
  8
1
  6
CONTINUOUS
 62
           2
100
AcDbLine
 10
980.0
 20
3175.74073989777
 11
520.0
 21
3175.74073989777
  0
LINE
  5
14E
100
AcDbEntity
  8
1
  6
CONTINUOUS
 62
           2
100
AcDbLine
 10
1004.0
 20
4155.74073989777
 11
1004.0
 21
2155.740739897769
  0
LINE
  5
14D
100
AcDbEntity
  8
1
  6
CONTINUOUS
 62
           2
100
AcDbLine
 10
-1004.0
 20
4155.74073989777
 11
-1004.0
 21
2155.740739897769
  0
LINE
  5
14C
100
AcDbEntity
  8
1
  6
CONTINUOUS
 62
           2
100
AcDbLine
 10
-520.0
 20
3175.74073989777
 11
-980.0
 21
3175.74073989777
  0
LINE
  5
14B
100
AcDbEntity
  8
1
  6
CONTINUOUS
 62
           2
100
AcDbLine
 10
980.0
 20
3135.74073989777
 11
-980.0
 21
3135.74073989777
  0
LINE
  5
14A
100
AcDbEntity
  8
1
  6
CONTINUOUS
 62
           7
100
AcDbLine
 10
-570.0
 20
4155.74073989777
 11
-1050.0
 21
4155.74073989777
  0
LINE
  5
149
100
AcDbEntity
  8
1
  6
CONTINUOUS
 62
           2
100
AcDbLine
 10
980.0
 20
3135.74073989777
 11
980.0
 21
2175.740739897769
  0
LINE
  5
148
100
AcDbEntity
  8
1
  6
CONTINUOUS
 62
           2
100
AcDbLine
 10
980.0
 20
4135.74073989777
 11
980.0
 21
3175.74073989777
  0
LINE
  5
147
100
AcDbEntity
  8
1
  6
CONTINUOUS
 62
           7
100
AcDbLine
 10
1050.0
 20
2155.740739897769
 11
1050.0
 21
4155.74073989777
  0
LINE
  5
146
100
AcDbEntity
  8
1
  6
DOT_CENTER
 62
           2
100
AcDbLine
 10
0.0
 20
4360.279528479457
 11
0.0
 21
2055.178189386258
  0
LINE
  5
145
100
AcDbEntity
  8
1
  6
DOT_CENTER
 62
           2
100
AcDbLine
 10
-680.878768358021
 20
3765.740739897769
 11
608.105197189409
 21
3765.740739897769
  0
LINE
  5
144
100
AcDbEntity
  8
1
  6
CONTINUOUS
 62
           7
100
AcDbLine
 10
985.0
 20
-916.25926010223
 11
-985.0
 21
-916.25926010223
  0
LINE
  5
143
100
AcDbEntity
  8
1
  6
CONTINUOUS
 62
           7
100
AcDbLine
 10
-1000.0
 20
-956.25926010223
 11
-985.0
 21
-956.25926010223
  0
LINE
  5
142
100
AcDbEntity
  8
1
  6
CONTINUOUS
 62
           7
100
AcDbLine
 10
985.0
 20
-956.25926010223
 11
1000.0
 21
-956.25926010223
  0
LINE
  5
141
100
AcDbEntity
  8
1
  6
CONTINUOUS
 62
           7
100
AcDbLine
 10
-1000.0
 20
-656.25926010223
 11
1000.0
 21
-656.25926010223
  0
LINE
  5
140
100
AcDbEntity
  8
1
  6
CONTINUOUS
 62
           7
100
AcDbLine
 10
985.0
 20
-916.25926010223
 11
985.0
 21
-981.259260102229
  0
LINE
  5
13F
100
AcDbEntity
  8
1
  6
CONTINUOUS
 62
           7
100
AcDbLine
 10
-1000.0
 20
-1056.25926010223
 11
1000.0
 21
-1056.25926010223
  0
LINE
  5
13E
100
AcDbEntity
  8
1
  6
CONTINUOUS
 62
           7
100
AcDbLine
 10
1000.0
 20
-1406.25926010223
 11
-1000.0
 21
-1406.25926010223
  0
LINE
  5
13D
100
AcDbEntity
  8
1
  6
CONTINUOUS
 62
           7
100
AcDbLine
 10
1000.0
 20
443.74073989777
 11
-1000.0
 21
443.74073989777
  0
LINE
  5
13C
100
AcDbEntity
  8
1
  6
CONTINUOUS
 62
           7
100
AcDbLine
 10
-1000.0
 20
-1456.25926010223
 11
-1000.0
 21
543.74073989777
  0
LINE
  5
13B
100
AcDbEntity
  8
1
  6
CONTINUOUS
 62
           2
100
AcDbLine
 10
-580.0
 20
4135.74073989777
 11
-980.0
 21
4135.74073989777
  0
LINE
  5
13A
100
AcDbEntity
  8
1
  6
CONTINUOUS
 62
           7
100
AcDbLine
 10
1050.0
 20
543.74073989777
 11
-1050.0
 21
543.74073989777
  0
LINE
  5
139
100
AcDbEntity
  8
1
  6
CONTINUOUS
 62
           7
100
AcDbLine
 10
1300.0
 20
-1456.25926010223
 11
-1300.0
 21
-1456.25926010223
  0
LINE
  5
138
100
AcDbEntity
  8
1
  6
CONTINUOUS
 62
           7
100
AcDbLine
 10
1050.0
 20
4155.74073989777
 11
6.74222950313
 21
4155.740739897768
  0
LINE
  5
137
100
AcDbEntity
  8
1
  6
CONTINUOUS
 62
           2
100
AcDbLine
 10
-980.0
 20
3175.74073989777
 11
-980.0
 21
4135.74073989777
  0
LINE
  5
136
100
AcDbEntity
  8
1
  6
CONTINUOUS
 62
           2
100
AcDbLine
 10
-520.0
 20
3175.74073989777
 11
-520.0
 21
3568.165387430496
  0
LINE
  5
135
100
AcDbEntity
  8
1
  6
CONTINUOUS
 62
           7
100
AcDbLine
 10
-500.0
 20
3155.74073989777
 11
-500.0
 21
3532.896525483865
  0
LINE
  5
134
100
AcDbEntity
  8
1
  6
CONTINUOUS
 62
           2
100
AcDbLine
 10
520.0
 20
4135.74073989777
 11
520.0
 21
3175.74073989777
  0
LINE
  5
133
100
AcDbEntity
  8
1
  6
CONTINUOUS
 62
           7
100
AcDbLine
 10
500.0
 20
3155.74073989777
 11
500.0
 21
4155.74073989777
  0
LINE
  5
132
100
AcDbEntity
  8
1
  6
CONTINUOUS
 62
           7
100
AcDbLine
 10
1000.0
 20
2155.740739897769
 11
1000.0
 21
4155.74073989777
  0
LINE
  5
131
100
AcDbEntity
  8
1
  6
CONTINUOUS
 62
           7
100
AcDbLine
 10
-1000.0
 20
2155.740739897769
 11
-1000.0
 21
4155.74073989777
  0
LINE
  5
130
100
AcDbEntity
  8
1
  6
CONTINUOUS
 62
           2
100
AcDbLine
 10
-980.0
 20
3135.74073989777
 11
-980.0
 21
2175.740739897769
  0
LINE
  5
12F
100
AcDbEntity
  8
1
  6
CONTINUOUS
 62
           7
100
AcDbLine
 10
-1050.0
 20
4155.74073989777
 11
-1050.0
 21
2155.740739897769
  0
LINE
  5
12E
100
AcDbEntity
  8
1
  6
CONTINUOUS
 62
           7
100
AcDbLine
 10
-1050.0
 20
2155.740739897769
 11
1050.0
 21
2155.740739897769
  0
LINE
  5
12D
100
AcDbEntity
  8
1
  6
CONTINUOUS
 62
           7
100
AcDbLine
 10
3490.0
 20
405.74073989777
 11
3490.0
 21
493.74073989777
  0
LINE
  5
12C
100
AcDbEntity
  8
1
  6
CONTINUOUS
 62
           7
100
AcDbLine
 10
3300.0
 20
405.74073989777
 11
3490.0
 21
405.74073989777
  0
LINE
  5
12B
100
AcDbEntity
  8
1
  6
CONTINUOUS
 62
           7
100
AcDbLine
 10
3300.0
 20
493.74073989777
 11
3300.0
 21
405.74073989777
  0
LINE
  5
12A
100
AcDbEntity
  8
1
  6
CONTINUOUS
 62
           7
100
AcDbLine
 10
3490.0
 20
493.74073989777
 11
3300.0
 21
493.74073989777
  0
LINE
  5
129
100
AcDbEntity
  8
1
  6
CONTINUOUS
 62
           7
100
AcDbLine
 10
3980.0
 20
-126.25926010223
 11
3800.0
 21
-126.25926010223
  0
LINE
  5
128
100
AcDbEntity
  8
1
  6
CONTINUOUS
 62
           7
100
AcDbLine
 10
3800.0
 20
113.74073989777
 11
3980.0
 21
113.74073989777
  0
LINE
  5
127
100
AcDbEntity
  8
1
  6
CONTINUOUS
 62
           7
100
AcDbLine
 10
3800.0
 20
-126.25926010223
 11
3800.0
 21
113.74073989777
  0
LINE
  5
126
100
AcDbEntity
  8
1
  6
CONTINUOUS
 62
           7
100
AcDbLine
 10
3980.0
 20
113.74073989777
 11
3980.0
 21
-126.25926010223
  0
LINE
  5
125
100
AcDbEntity
  8
1
  6
CONTINUOUS
 62
           7
100
AcDbLine
 10
5749.999999999997
 20
-1456.25926010223
 11
2750.0
 21
-1456.25926010223
  0
LINE
  5
124
100
AcDbEntity
  8
1
  6
CONTINUOUS
 62
           2
100
AcDbLine
 10
5229.999999999999
 20
523.74073989777
 11
4270.0
 21
523.74073989777
  0
LINE
  5
123
100
AcDbEntity
  8
1
  6
CONTINUOUS
 62
           2
100
AcDbLine
 10
5229.999999999999
 20
-936.25926010223
 11
5229.999999999999
 21
523.74073989777
  0
LINE
  5
122
100
AcDbEntity
  8
1
  6
CONTINUOUS
 62
           2
100
AcDbLine
 10
4270.0
 20
-936.25926010223
 11
5229.999999999999
 21
-936.25926010223
  0
LINE
  5
121
100
AcDbEntity
  8
1
  6
CONTINUOUS
 62
           2
100
AcDbLine
 10
3770.0
 20
-936.25926010223
 11
4230.0
 21
-936.25926010223
  0
LINE
  5
120
100
AcDbEntity
  8
1
  6
CONTINUOUS
 62
           2
100
AcDbLine
 10
3770.0
 20
523.74073989777
 11
3770.0
 21
-936.25926010223
  0
LINE
  5
11F
100
AcDbEntity
  8
1
  6
CONTINUOUS
 62
           2
100
AcDbLine
 10
4230.0
 20
523.74073989777
 11
3770.0
 21
523.74073989777
  0
LINE
  5
11E
100
AcDbEntity
  8
1
  6
CONTINUOUS
 62
           7
100
AcDbLine
 10
4250.0
 20
543.74073989777
 11
4250.0
 21
618.74073989777
  0
LINE
  5
11D
100
AcDbEntity
  8
1
  6
CONTINUOUS
 62
           2
100
AcDbLine
 10
5229.433325304562
 20
-1436.25926010223
 11
5229.433325304562
 21
-976.874198572348
  0
LINE
  5
11C
100
AcDbEntity
  8
1
  6
CONTINUOUS
 62
           2
100
AcDbLine
 10
3770.0
 20
-1436.25926010223
 11
5229.433325304562
 21
-1436.25926010223
  0
LINE
  5
11B
100
AcDbEntity
  8
1
  6
CONTINUOUS
 62
           2
100
AcDbLine
 10
3770.0
 20
-976.874198572348
 11
3770.0
 21
-1436.25926010223
  0
LINE
  5
11A
100
AcDbEntity
  8
1
  6
CONTINUOUS
 62
           2
100
AcDbLine
 10
5229.433325304562
 20
-976.874198572348
 11
3770.0
 21
-976.874198572348
  0
LINE
  5
119
100
AcDbEntity
  8
1
  6
CONTINUOUS
 62
           7
100
AcDbLine
 10
3750.0
 20
-956.25926010223
 11
5249.999999999999
 21
-956.25926010223
  0
LINE
  5
118
100
AcDbEntity
  8
1
  6
CONTINUOUS
 62
           7
100
AcDbLine
 10
3750.0
 20
-1456.25926010223
 11
3750.0
 21
543.74073989777
  0
LINE
  5
117
100
AcDbEntity
  8
1
  6
CONTINUOUS
 62
           2
100
AcDbLine
 10
3270.0
 20
523.74073989777
 11
3270.0
 21
213.74073989777
  0
LINE
  5
116
100
AcDbEntity
  8
1
  6
CONTINUOUS
 62
           2
100
AcDbLine
 10
3730.0
 20
523.74073989777
 11
3270.0
 21
523.74073989777
  0
LINE
  5
115
100
AcDbEntity
  8
1
  6
CONTINUOUS
 62
           2
100
AcDbLine
 10
3730.0
 20
-1436.25926010223
 11
3730.0
 21
-126.25926010223
  0
LINE
  5
114
100
AcDbEntity
  8
1
  6
CONTINUOUS
 62
           2
100
AcDbLine
 10
3270.0
 20
-1436.25926010223
 11
3730.0
 21
-1436.25926010223
  0
LINE
  5
113
100
AcDbEntity
  8
1
  6
CONTINUOUS
 62
           7
100
AcDbLine
 10
3250.0
 20
-1456.25926010223
 11
3250.0
 21
593.74073989777
  0
LINE
  5
112
100
AcDbEntity
  8
1
  6
CONTINUOUS
 62
           7
100
AcDbLine
 10
5249.999999999999
 20
-1456.25926010223
 11
5249.999999999999
 21
618.74073989777
  0
LINE
  5
111
100
AcDbEntity
  8
1
  6
CONTINUOUS
 62
           7
100
AcDbLine
 10
5249.999999999999
 20
543.74073989777
 11
3250.0
 21
543.74073989777
  0
LINE
  5
110
100
AcDbEntity
  8
1
  6
CONTINUOUS
 62
           2
100
AcDbLine
 10
3250.0
 20
547.74073989777
 11
4250.0
 21
547.74073989777
  0
LINE
  5
10F
100
AcDbEntity
  8
1
  6
CONTINUOUS
 62
           7
100
AcDbLine
 10
3250.0
 20
593.74073989777
 11
5249.999999999999
 21
593.74073989777
  0
LINE
  5
10E
100
AcDbEntity
  8
1
  6
CONTINUOUS
 62
           7
100
AcDbLine
 10
4250.0
 20
618.74073989777
 11
5249.999999999999
 21
618.74073989777
  0
LINE
  5
10D
100
AcDbEntity
  8
1
  6
DOT_CENTER
 62
           2
100
AcDbLine
 10
4475.0
 20
-856.25926010223
 11
4625.0
 21
-856.25926010223
  0
LINE
  5
10C
100
AcDbEntity
  8
1
  6
DOT_CENTER
 62
           2
100
AcDbLine
 10
4550.0
 20
-781.25926010223
 11
4550.0
 21
-931.25926010223
  0
LINE
  5
10B
100
AcDbEntity
  8
1
  6
CONTINUOUS
 62
           2
100
AcDbLine
 10
3730.0
 20
213.74073989777
 11
3730.0
 21
523.74073989777
  0
LINE
  5
10A
100
AcDbEntity
  8
1
  6
CONTINUOUS
 62
           2
100
AcDbLine
 10
3270.0
 20
-126.25926010223
 11
3270.0
 21
-1436.25926010223
  0
LINE
  5
109
100
AcDbEntity
  8
1
  6
CONTINUOUS
 62
           7
100
AcDbLine
 10
3564.223057556696
 20
-126.259260102241
 11
3750.0
 21
-126.259260102241
  0
LINE
  5
108
100
AcDbEntity
  8
1
  6
CONTINUOUS
 62
           4
100
AcDbLine
 10
3345.0
 20
-88.759260102241
 11
3345.0
 21
-26.25926010223
  0
LINE
  5
107
100
AcDbEntity
  8
1
  6
CONTINUOUS
 62
           4
100
AcDbLine
 10
3452.314185654645
 20
-118.759260102241
 11
3375.0
 21
-118.759260102241
  0
LINE
  5
106
100
AcDbEntity
  8
1
  6
CONTINUOUS
 62
           4
100
AcDbLine
 10
3452.314185654645
 20
-138.759260102241
 11
3452.314185654645
 21
-118.759260102241
  0
LINE
  5
105
100
AcDbEntity
  8
1
  6
CONTINUOUS
 62
           4
100
AcDbLine
 10
3375.0
 20
-138.75926010223
 11
3452.314185654645
 21
-138.759260102241
  0
LINE
  5
104
100
AcDbEntity
  8
1
  6
CONTINUOUS
 62
           4
100
AcDbLine
 10
3325.0
 20
-26.25926010223
 11
3325.0
 21
-88.759260102241
  0
LINE
  5
103
100
AcDbEntity
  8
1
  6
CONTINUOUS
 62
           4
100
AcDbLine
 10
3345.0
 20
-26.25926010223
 11
3325.0
 21
-26.25926010223
  0
LINE
  5
102
100
AcDbEntity
  8
1
  6
CONTINUOUS
 62
           7
100
AcDbLine
 10
3250.0
 20
213.740739897759
 11
3750.0
 21
213.740739897759
  0
LINE
  5
101
100
AcDbEntity
  8
1
  6
CONTINUOUS
 62
           7
100
AcDbLine
 10
3250.0
 20
-126.259260102241
 11
3339.288577918023
 21
-126.259260102241
  0
LINE
  5
100
100
AcDbEntity
  8
1
  6
CONTINUOUS
 62
           2
100
AcDbLine
 10
3500.0
 20
-191.259260102241
 11
3500.0
 21
-171.185666973419
  0
LINE
  5
FF
100
AcDbEntity
  8
1
  6
CONTINUOUS
 62
           2
100
AcDbLine
 10
3530.0
 20
-171.185666973419
 11
3530.0
 21
-191.259260102241
  0
LINE
  5
FE
100
AcDbEntity
  8
1
  6
CONTINUOUS
 62
           2
100
AcDbLine
 10
3530.0
 20
-191.259260102241
 11
3500.0
 21
-191.259260102241
  0
LINE
  5
FD
100
AcDbEntity
  8
1
  6
CONTINUOUS
 62
           2
100
AcDbLine
 10
3530.0
 20
-66.259260102241
 11
3530.0
 21
-86.332853231041
  0
LINE
  5
FC
100
AcDbEntity
  8
1
  6
CONTINUOUS
 62
           2
100
AcDbLine
 10
3500.0
 20
-66.259260102241
 11
3530.0
 21
-66.259260102241
  0
LINE
  5
FB
100
AcDbEntity
  8
1
  6
CONTINUOUS
 62
           2
100
AcDbLine
 10
3500.0
 20
-86.332853231041
 11
3500.0
 21
-66.259260102241
  0
LINE
  5
FA
100
AcDbEntity
  8
1
  6
CONTINUOUS
 62
           2
100
AcDbLine
 10
3472.573593128805
 20
-143.759260102241
 11
3452.499999999998
 21
-143.759260102241
  0
LINE
  5
F9
100
AcDbEntity
  8
1
  6
CONTINUOUS
 62
           2
100
AcDbLine
 10
3505.0
 20
-66.259260102241
 11
3505.0
 21
-46.259260102241
  0
LINE
  5
F8
100
AcDbEntity
  8
1
  6
CONTINUOUS
 62
           2
100
AcDbLine
 10
3525.0
 20
-66.259260102241
 11
3525.0
 21
-46.259260102241
  0
LINE
  5
F7
100
AcDbEntity
  8
1
  6
CONTINUOUS
 62
           2
100
AcDbLine
 10
3452.314185654645
 20
-143.759260102241
 11
3452.314185654645
 21
-113.759260102241
  0
LINE
  5
F6
100
AcDbEntity
  8
1
  6
CONTINUOUS
 62
           2
100
AcDbLine
 10
3452.499999999998
 20
-113.759260102241
 11
3472.573593128805
 21
-113.759260102241
  0
LINE
  5
F5
100
AcDbEntity
  8
1
  6
CONTINUOUS
 62
           4
100
AcDbLine
 10
3332.411809548978
 20
53.399998160661
 11
3320.85786437627
 21
57.8828755215
  0
LINE
  5
F4
100
AcDbEntity
  8
1
  6
CONTINUOUS
 62
           4
100
AcDbLine
 10
3325.340741737111
 20
46.328930348791
 11
3320.85786437627
 21
57.8828755215
  0
LINE
  5
F3
100
AcDbEntity
  8
1
  6
CONTINUOUS
 62
           4
100
AcDbLine
 10
3337.588190451024
 20
34.081481634879
 11
3359.526896494872
 21
12.142775591041
  0
LINE
  5
F2
100
AcDbEntity
  8
1
  6
CONTINUOUS
 62
           4
100
AcDbLine
 10
3344.659258262891
 20
41.152549446749
 11
3366.597964306739
 21
19.2138434029
  0
LINE
  5
F1
100
AcDbEntity
  8
1
  6
CONTINUOUS
 62
           4
100
AcDbLine
 10
3295.0
 20
96.608236895368
 11
3295.0
 21
113.74073989777
  0
LINE
  5
F0
100
AcDbEntity
  8
1
  6
CONTINUOUS
 62
           4
100
AcDbLine
 10
3284.428932188135
 20
80.169672085911
 11
3300.542804312876
 21
64.05579996117
  0
LINE
  5
EF
100
AcDbEntity
  8
1
  6
CONTINUOUS
 62
           4
100
AcDbLine
 10
3371.428932188135
 20
94.31180770964
 11
3355.315060063394
 21
78.197935584889
  0
LINE
  5
EE
100
AcDbEntity
  8
1
  6
CONTINUOUS
 62
           4
100
AcDbLine
 10
3385.571067811865
 20
7.31180770964
 11
3369.457195687124
 21
23.425679834381
  0
LINE
  5
ED
100
AcDbEntity
  8
1
  6
CONTINUOUS
 62
           4
100
AcDbLine
 10
3314.684939936607
 20
78.197935584889
 11
3298.571067811865
 21
94.31180770964
  0
LINE
  5
EC
100
AcDbEntity
  8
1
  6
CONTINUOUS
 62
           4
100
AcDbLine
 10
3369.457195687124
 20
64.05579996117
 11
3385.571067811865
 21
80.169672085911
  0
LINE
  5
EB
100
AcDbEntity
  8
1
  6
CONTINUOUS
 62
           4
100
AcDbLine
 10
3355.315060063394
 20
9.283544210651
 11
3371.428932188135
 21
-6.830327914089
  0
LINE
  5
EA
100
AcDbEntity
  8
1
  6
CONTINUOUS
 62
           4
100
AcDbLine
 10
3298.571067811865
 20
-6.830327914089
 11
3314.684939936607
 21
9.283544210651
  0
LINE
  5
E9
100
AcDbEntity
  8
1
  6
CONTINUOUS
 62
           4
100
AcDbLine
 10
3300.542804312876
 20
23.425679834381
 11
3284.428932188135
 21
7.31180770964
  0
LINE
  5
E8
100
AcDbEntity
  8
1
  6
CONTINUOUS
 62
           4
100
AcDbLine
 10
3295.0
 20
113.74073989777
 11
3355.0
 21
113.74073989777
  0
LINE
  5
E7
100
AcDbEntity
  8
1
  6
CONTINUOUS
 62
           4
100
AcDbLine
 10
3355.0
 20
113.74073989777
 11
3355.0
 21
89.566496847328
  0
LINE
  5
E6
100
AcDbEntity
  8
1
  6
CONTINUOUS
 62
           4
100
AcDbLine
 10
3315.0
 20
-2.085017051781
 11
3315.0
 21
-26.25926010223
  0
LINE
  5
E5
100
AcDbEntity
  8
1
  6
CONTINUOUS
 62
           4
100
AcDbLine
 10
3315.0
 20
-26.25926010223
 11
3375.0
 21
-26.25926010223
  0
LINE
  5
E4
100
AcDbEntity
  8
1
  6
CONTINUOUS
 62
           4
100
AcDbLine
 10
3375.0
 20
-26.25926010223
 11
3375.0
 21
-9.126757099832
  0
LINE
  5
E3
100
AcDbEntity
  8
1
  6
CONTINUOUS
 62
           4
100
AcDbLine
 10
3355.0
 20
-2.085017051781
 11
3355.0
 21
-26.25926010223
  0
LINE
  5
E2
100
AcDbEntity
  8
1
  6
CONTINUOUS
 62
           4
100
AcDbLine
 10
3315.0
 20
113.74073989777
 11
3315.0
 21
89.566496847328
  0
LINE
  5
E1
100
AcDbEntity
  8
1
  6
CONTINUOUS
 62
           4
100
AcDbLine
 10
3470.0
 20
133.740739897759
 11
3640.0
 21
133.740739897759
  0
LINE
  5
E0
100
AcDbEntity
  8
1
  6
CONTINUOUS
 62
           4
100
AcDbLine
 10
3470.0
 20
-46.259260102241
 11
3470.0
 21
133.740739897759
  0
LINE
  5
DF
100
AcDbEntity
  8
1
  6
CONTINUOUS
 62
           4
100
AcDbLine
 10
3640.0
 20
-46.259260102241
 11
3470.0
 21
-46.259260102241
  0
LINE
  5
DE
100
AcDbEntity
  8
1
  6
CONTINUOUS
 62
           4
100
AcDbLine
 10
3640.0
 20
133.740739897759
 11
3640.0
 21
-46.259260102241
  0
LINE
  5
DD
100
AcDbEntity
  8
1
  6
CONTINUOUS
 62
           4
100
AcDbLine
 10
3470.0
 20
88.740739897759
 11
3455.0
 21
88.740739897759
  0
LINE
  5
DC
100
AcDbEntity
  8
1
  6
CONTINUOUS
 62
           4
100
AcDbLine
 10
3455.0
 20
88.740739897759
 11
3455.0
 21
73.740739897759
  0
LINE
  5
DB
100
AcDbEntity
  8
1
  6
CONTINUOUS
 62
           4
100
AcDbLine
 10
3455.0
 20
73.740739897759
 11
3470.0
 21
73.740739897759
  0
LINE
  5
DA
100
AcDbEntity
  8
1
  6
CONTINUOUS
 62
           4
100
AcDbLine
 10
3470.0
 20
13.740739897759
 11
3455.0
 21
13.740739897759
  0
LINE
  5
D9
100
AcDbEntity
  8
1
  6
CONTINUOUS
 62
           4
100
AcDbLine
 10
3455.0
 20
13.740739897759
 11
3455.0
 21
-1.259260102241
  0
LINE
  5
D8
100
AcDbEntity
  8
1
  6
CONTINUOUS
 62
           4
100
AcDbLine
 10
3455.0
 20
-1.259260102241
 11
3470.0
 21
-1.259260102241
  0
LINE
  5
D7
100
AcDbEntity
  8
1
  6
CONTINUOUS
 62
           4
100
AcDbLine
 10
3597.5
 20
-46.259260102241
 11
3597.5
 21
-76.259260102241
  0
LINE
  5
D6
100
AcDbEntity
  8
1
  6
CONTINUOUS
 62
           4
100
AcDbLine
 10
3597.5
 20
-76.259260102241
 11
3617.5
 21
-76.259260102241
  0
LINE
  5
D5
100
AcDbEntity
  8
1
  6
CONTINUOUS
 62
           4
100
AcDbLine
 10
3617.5
 20
-76.259260102241
 11
3617.5
 21
-46.259260102241
  0
LINE
  5
D4
100
AcDbEntity
  8
1
  6
CONTINUOUS
 62
           4
100
AcDbLine
 10
3492.5
 20
-76.259260102241
 11
3498.904554286894
 21
-76.259260102241
  0
LINE
  5
D3
100
AcDbEntity
  8
1
  6
CONTINUOUS
 62
           4
100
AcDbLine
 10
3492.5
 20
-46.259260102241
 11
3492.5
 21
-76.259260102241
  0
LINE
  5
D2
100
AcDbEntity
  8
1
  6
CONTINUOUS
 62
           4
100
AcDbLine
 10
3617.5
 20
163.740739897759
 11
3597.5
 21
163.740739897759
  0
LINE
  5
D1
100
AcDbEntity
  8
1
  6
CONTINUOUS
 62
           4
100
AcDbLine
 10
3597.5
 20
163.740739897759
 11
3597.5
 21
133.740739897759
  0
LINE
  5
D0
100
AcDbEntity
  8
1
  6
CONTINUOUS
 62
           4
100
AcDbLine
 10
3617.5
 20
133.740739897759
 11
3617.5
 21
163.740739897759
  0
LINE
  5
CF
100
AcDbEntity
  8
1
  6
CONTINUOUS
 62
           4
100
AcDbLine
 10
3492.5
 20
163.740739897759
 11
3492.5
 21
133.740739897759
  0
LINE
  5
CE
100
AcDbEntity
  8
1
  6
CONTINUOUS
 62
           4
100
AcDbLine
 10
3512.5
 20
163.740739897759
 11
3492.5
 21
163.740739897759
  0
LINE
  5
CD
100
AcDbEntity
  8
1
  6
CONTINUOUS
 62
           4
100
AcDbLine
 10
3512.5
 20
133.740739897759
 11
3512.5
 21
163.740739897759
  0
LINE
  5
CC
100
AcDbEntity
  8
1
  6
CONTINUOUS
 62
           2
100
AcDbLine
 10
1125.683280999348
 20
-91.259260102252
 11
1093.0
 21
-91.259260102252
  0
LINE
  5
CB
100
AcDbEntity
  8
1
  6
CONTINUOUS
 62
           2
100
AcDbLine
 10
1125.683280999348
 20
-166.259260102252
 11
1093.0
 21
-166.259260102252
  0
LINE
  5
CA
100
AcDbEntity
  8
1
  6
CONTINUOUS
 62
           2
100
AcDbLine
 10
1141.0
 20
-66.259260102252
 11
1141.0
 21
-83.759260102252
  0
LINE
  5
C9
100
AcDbEntity
  8
1
  6
CONTINUOUS
 62
           2
100
AcDbLine
 10
1093.0
 20
-66.259260102252
 11
1141.0
 21
-66.259260102252
  0
LINE
  5
C8
100
AcDbEntity
  8
1
  6
CONTINUOUS
 62
           2
100
AcDbLine
 10
1141.0
 20
-191.259260102252
 11
1141.0
 21
-173.759260102252
  0
LINE
  5
C7
100
AcDbEntity
  8
1
  6
CONTINUOUS
 62
           2
100
AcDbLine
 10
1093.0
 20
-191.259260102252
 11
1141.0
 21
-191.259260102252
  0
LINE
  5
C6
100
AcDbEntity
  8
1
  6
CONTINUOUS
 62
           2
100
AcDbLine
 10
1141.0
 20
-173.759260102252
 11
1158.0
 21
-173.759260102252
  0
LINE
  5
C5
100
AcDbEntity
  8
1
  6
CONTINUOUS
 62
           2
100
AcDbLine
 10
1141.0
 20
-83.759260102252
 11
1158.0
 21
-83.759260102252
  0
LINE
  5
C4
100
AcDbEntity
  8
1
  6
CONTINUOUS
 62
           2
100
AcDbLine
 10
1093.0
 20
-143.759260102252
 11
1126.0
 21
-143.759260102252
  0
LINE
  5
C3
100
AcDbEntity
  8
1
  6
CONTINUOUS
 62
           2
100
AcDbLine
 10
1093.0
 20
-113.759260102252
 11
1126.0
 21
-113.759260102252
  0
LINE
  5
C2
100
AcDbEntity
  8
1
  6
CONTINUOUS
 62
           2
100
AcDbLine
 10
1103.0
 20
-66.259260102252
 11
1103.0
 21
-46.259260102252
  0
LINE
  5
C1
100
AcDbEntity
  8
1
  6
CONTINUOUS
 62
           2
100
AcDbLine
 10
1123.0
 20
-66.259260102252
 11
1123.0
 21
-46.259260102252
  0
LINE
  5
C0
100
AcDbEntity
  8
1
  6
CONTINUOUS
 62
           2
100
AcDbLine
 10
1093.0
 20
-101.009260102252
 11
1093.0
 21
-161.509260102252
  0
LINE
  5
BF
100
AcDbEntity
  8
1
  6
CONTINUOUS
 62
           2
100
AcDbLine
 10
1149.0
 20
-101.009260102252
 11
1149.0
 21
-161.509260102252
  0
LINE
  5
BE
100
AcDbEntity
  8
1
  6
CONTINUOUS
 62
           2
100
AcDbLine
 10
1149.0
 20
-101.009260102252
 11
1149.0
 21
-83.759260102252
  0
LINE
  5
BD
100
AcDbEntity
  8
1
  6
CONTINUOUS
 62
           2
100
AcDbLine
 10
1149.0
 20
-161.509260102252
 11
1149.0
 21
-173.759260102252
  0
LINE
  5
BC
100
AcDbEntity
  8
1
  6
CONTINUOUS
 62
           2
100
AcDbLine
 10
1093.0
 20
-161.509260102252
 11
1093.0
 21
-191.259260102252
  0
LINE
  5
BB
100
AcDbEntity
  8
1
  6
CONTINUOUS
 62
           2
100
AcDbLine
 10
1093.0
 20
-101.009260102252
 11
1093.0
 21
-66.259260102252
  0
LINE
  5
BA
100
AcDbEntity
  8
1
  6
CONTINUOUS
 62
           2
100
AcDbLine
 10
1166.0
 20
-161.509260102252
 11
1166.0
 21
-101.009260102252
  0
LINE
  5
B9
100
AcDbEntity
  8
1
  6
CONTINUOUS
 62
           2
100
AcDbLine
 10
1166.0
 20
-161.509260102252
 11
1166.0
 21
-165.759260102252
  0
LINE
  5
B8
100
AcDbEntity
  8
1
  6
CONTINUOUS
 62
           2
100
AcDbLine
 10
1166.0
 20
-101.009260102252
 11
1166.0
 21
-91.759260102252
  0
LINE
  5
B7
100
AcDbEntity
  8
1
  6
CONTINUOUS
 62
           4
100
AcDbLine
 10
1055.0
 20
213.740739897781
 11
1055.0
 21
-126.25926010223
  0
LINE
  5
B6
100
AcDbEntity
  8
1
  6
CONTINUOUS
 62
           4
100
AcDbLine
 10
1050.0
 20
213.740739897781
 11
1055.0
 21
213.740739897781
  0
LINE
  5
B5
100
AcDbEntity
  8
1
  6
CONTINUOUS
 62
           4
100
AcDbLine
 10
1055.0
 20
-126.25926010223
 11
1050.0
 21
-126.25926010223
  0
LINE
  5
B4
100
AcDbEntity
  8
1
  6
CONTINUOUS
 62
           4
100
AcDbLine
 10
1125.0
 20
67.74073989777
 11
1065.0
 21
67.74073989777
  0
LINE
  5
B3
100
AcDbEntity
  8
1
  6
CONTINUOUS
 62
           4
100
AcDbLine
 10
1065.0
 20
19.74073989777
 11
1125.0
 21
19.74073989777
  0
LINE
  5
B2
100
AcDbEntity
  8
1
  6
CONTINUOUS
 62
           4
100
AcDbLine
 10
1140.0
 20
97.24073989777
 11
1125.0
 21
97.24073989777
  0
LINE
  5
B1
100
AcDbEntity
  8
1
  6
CONTINUOUS
 62
           4
100
AcDbLine
 10
1140.0
 20
-9.75926010223
 11
1140.0
 21
23.425679834381
  0
LINE
  5
B0
100
AcDbEntity
  8
1
  6
CONTINUOUS
 62
           4
100
AcDbLine
 10
1065.0
 20
-6.25926010223
 11
1125.0
 21
-6.25926010223
  0
LINE
  5
AF
100
AcDbEntity
  8
1
  6
CONTINUOUS
 62
           4
100
AcDbLine
 10
1125.0
 20
64.05579996117
 11
1140.0
 21
64.05579996117
  0
LINE
  5
AE
100
AcDbEntity
  8
1
  6
CONTINUOUS
 62
           4
100
AcDbLine
 10
1125.0
 20
-9.75926010223
 11
1125.0
 21
97.24073989777
  0
LINE
  5
AD
100
AcDbEntity
  8
1
  6
CONTINUOUS
 62
           4
100
AcDbLine
 10
1125.0
 20
23.425679834381
 11
1140.0
 21
23.425679834381
  0
LINE
  5
AC
100
AcDbEntity
  8
1
  6
CONTINUOUS
 62
           4
100
AcDbLine
 10
1055.0
 20
113.74073989777
 11
1055.0
 21
-26.25926010223
  0
LINE
  5
AB
100
AcDbEntity
  8
1
  6
CONTINUOUS
 62
           4
100
AcDbLine
 10
1125.0
 20
93.74073989777
 11
1065.0
 21
93.74073989777
  0
LINE
  5
AA
100
AcDbEntity
  8
1
  6
CONTINUOUS
 62
           4
100
AcDbLine
 10
1140.0
 20
64.05579996117
 11
1140.0
 21
97.24073989777
  0
LINE
  5
A9
100
AcDbEntity
  8
1
  6
CONTINUOUS
 62
           4
100
AcDbLine
 10
1125.0
 20
-9.75926010223
 11
1140.0
 21
-9.75926010223
  0
LINE
  5
A8
100
AcDbEntity
  8
1
  6
CONTINUOUS
 62
           4
100
AcDbLine
 10
1170.0
 20
83.74073989777
 11
1140.0
 21
83.74073989777
  0
LINE
  5
A7
100
AcDbEntity
  8
1
  6
CONTINUOUS
 62
           4
100
AcDbLine
 10
1170.0
 20
3.74073989777
 11
1170.0
 21
83.74073989777
  0
LINE
  5
A6
100
AcDbEntity
  8
1
  6
CONTINUOUS
 62
           4
100
AcDbLine
 10
1140.0
 20
3.74073989777
 11
1170.0
 21
3.74073989777
  0
LINE
  5
A5
100
AcDbEntity
  8
1
  6
CONTINUOUS
 62
           4
100
AcDbLine
 10
1170.0
 20
13.74073989777
 11
1185.0
 21
13.74073989777
  0
LINE
  5
A4
100
AcDbEntity
  8
1
  6
CONTINUOUS
 62
           4
100
AcDbLine
 10
1185.0
 20
13.74073989777
 11
1185.0
 21
58.74073989777
  0
LINE
  5
A3
100
AcDbEntity
  8
1
  6
CONTINUOUS
 62
           4
100
AcDbLine
 10
1185.0
 20
58.74073989777
 11
1170.0
 21
58.74073989777
  0
LINE
  5
A2
100
AcDbEntity
  8
1
  6
CONTINUOUS
 62
           4
100
AcDbLine
 10
1185.0
 20
53.74073989777
 11
1170.0
 21
53.74073989777
  0
LINE
  5
A1
100
AcDbEntity
  8
1
  6
CONTINUOUS
 62
           4
100
AcDbLine
 10
1170.0
 20
33.74073989777
 11
1185.0
 21
33.74073989777
  0
LINE
  5
A0
100
AcDbEntity
  8
1
  6
CONTINUOUS
 62
           4
100
AcDbLine
 10
1065.0
 20
113.74073989777
 11
1065.0
 21
-26.25926010223
  0
LINE
  5
9F
100
AcDbEntity
  8
1
  6
CONTINUOUS
 62
           4
100
AcDbLine
 10
1103.0
 20
113.74073989777
 11
1055.0
 21
113.74073989777
  0
LINE
  5
9E
100
AcDbEntity
  8
1
  6
CONTINUOUS
 62
           4
100
AcDbLine
 10
1103.0
 20
93.74073989777
 11
1103.0
 21
113.74073989777
  0
LINE
  5
9D
100
AcDbEntity
  8
1
  6
CONTINUOUS
 62
           4
100
AcDbLine
 10
1103.0
 20
-26.25926010223
 11
1055.0
 21
-26.25926010223
  0
LINE
  5
9C
100
AcDbEntity
  8
1
  6
CONTINUOUS
 62
           4
100
AcDbLine
 10
1103.0
 20
-6.25926010223
 11
1103.0
 21
-26.25926010223
  0
LINE
  5
9B
100
AcDbEntity
  8
1
  6
CONTINUOUS
 62
           4
100
AcDbLine
 10
1263.0
 20
-46.259260102241
 11
1263.0
 21
133.740739897759
  0
LINE
  5
9A
100
AcDbEntity
  8
1
  6
CONTINUOUS
 62
           4
100
AcDbLine
 10
1068.0
 20
133.740739897759
 11
1068.0
 21
113.74073989777
  0
LINE
  5
99
100
AcDbEntity
  8
1
  6
CONTINUOUS
 62
           4
100
AcDbLine
 10
1280.0
 20
-3.759260102241
 11
1263.0
 21
-3.759260102241
  0
LINE
  5
98
100
AcDbEntity
  8
1
  6
CONTINUOUS
 62
           4
100
AcDbLine
 10
1280.0
 20
-28.759260102241
 11
1280.0
 21
-3.759260102241
  0
LINE
  5
97
100
AcDbEntity
  8
1
  6
CONTINUOUS
 62
           4
100
AcDbLine
 10
1263.0
 20
-28.759260102241
 11
1280.0
 21
-28.759260102241
  0
LINE
  5
96
100
AcDbEntity
  8
1
  6
CONTINUOUS
 62
           4
100
AcDbLine
 10
1180.5
 20
-46.259260102241
 11
1180.5
 21
13.74073989777
  0
LINE
  5
95
100
AcDbEntity
  8
1
  6
CONTINUOUS
 62
           4
100
AcDbLine
 10
1263.0
 20
133.740739897759
 11
1068.0
 21
133.740739897759
  0
LINE
  5
94
100
AcDbEntity
  8
1
  6
CONTINUOUS
 62
           4
100
AcDbLine
 10
1263.0
 20
-46.259260102241
 11
1068.0
 21
-46.259260102241
  0
LINE
  5
93
100
AcDbEntity
  8
1
  6
CONTINUOUS
 62
           4
100
AcDbLine
 10
1263.0
 20
6.240739897759
 11
1280.0
 21
6.240739897759
  0
LINE
  5
92
100
AcDbEntity
  8
1
  6
CONTINUOUS
 62
           4
100
AcDbLine
 10
1280.0
 20
6.240739897759
 11
1280.0
 21
31.240739897759
  0
LINE
  5
91
100
AcDbEntity
  8
1
  6
CONTINUOUS
 62
           4
100
AcDbLine
 10
1280.0
 20
31.240739897759
 11
1263.0
 21
31.240739897759
  0
LINE
  5
90
100
AcDbEntity
  8
1
  6
CONTINUOUS
 62
           4
100
AcDbLine
 10
1055.0
 20
163.740739897759
 11
1058.0
 21
163.740739897759
  0
LINE
  5
8F
100
AcDbEntity
  8
1
  6
CONTINUOUS
 62
           4
100
AcDbLine
 10
1058.0
 20
163.740739897759
 11
1058.0
 21
138.740739897759
  0
LINE
  5
8E
100
AcDbEntity
  8
1
  6
CONTINUOUS
 62
           4
100
AcDbLine
 10
1058.0
 20
138.740739897759
 11
1068.0
 21
133.740739897759
  0
LINE
  5
8D
100
AcDbEntity
  8
1
  6
CONTINUOUS
 62
           4
100
AcDbLine
 10
1065.0
 20
-29.79526574794
 11
1065.0
 21
-44.405158135982
  0
LINE
  5
8C
100
AcDbEntity
  8
1
  6
CONTINUOUS
 62
           4
100
AcDbLine
 10
1065.0
 20
-44.405158135982
 11
1055.0
 21
-49.405158135982
  0
LINE
  5
8B
100
AcDbEntity
  8
1
  6
CONTINUOUS
 62
           4
100
AcDbLine
 10
1068.0
 20
-46.25926010223
 11
1058.0
 21
-51.25926010223
  0
LINE
  5
8A
100
AcDbEntity
  8
1
  6
CONTINUOUS
 62
           4
100
AcDbLine
 10
1058.0
 20
-51.25926010223
 11
1058.0
 21
-76.25926010223
  0
LINE
  5
89
100
AcDbEntity
  8
1
  6
CONTINUOUS
 62
           4
100
AcDbLine
 10
1058.0
 20
-76.25926010223
 11
1055.0
 21
-76.25926010223
  0
LINE
  5
88
100
AcDbEntity
  8
1
  6
CONTINUOUS
 62
           4
100
AcDbLine
 10
1068.0
 20
-26.25926010223
 11
1068.0
 21
-46.259260102241
  0
LINE
  5
87
100
AcDbEntity
  8
1
  6
CONTINUOUS
 62
           4
100
AcDbLine
 10
1055.0
 20
136.886637931511
 11
1065.0
 21
131.886637931511
  0
LINE
  5
86
100
AcDbEntity
  8
1
  6
CONTINUOUS
 62
           4
100
AcDbLine
 10
1065.0
 20
131.886637931511
 11
1065.0
 21
117.276745543469
  0
LINE
  5
85
100
AcDbEntity
  8
1
  6
CONTINUOUS
 62
           4
100
AcDbLine
 10
1150.5
 20
-46.259260102241
 11
1150.5
 21
3.74073989777
  0
LINE
  5
84
100
AcDbEntity
  8
1
  6
CONTINUOUS
 62
           4
100
AcDbLine
 10
1150.5
 20
83.74073989777
 11
1150.5
 21
133.740739897759
  0
LINE
  5
83
100
AcDbEntity
  8
1
  6
CONTINUOUS
 62
           4
100
AcDbLine
 10
1180.5
 20
58.74073989777
 11
1180.5
 21
133.740739897759
  0
LINE
  5
82
100
AcDbEntity
  8
1
  6
CONTINUOUS
 62
           4
100
AcDbLine
 10
1050.0
 20
2155.740739897769
 11
1055.0
 21
2155.740739897769
  0
LINE
  5
81
100
AcDbEntity
  8
1
  6
CONTINUOUS
 62
           4
100
AcDbLine
 10
1055.0
 20
2155.740739897769
 11
1055.0
 21
2655.74073989777
  0
LINE
  5
80
100
AcDbEntity
  8
1
  6
CONTINUOUS
 62
           4
100
AcDbLine
 10
1055.0
 20
2655.74073989777
 11
1050.0
 21
2655.740739897772
  0
LINE
  5
7F
100
AcDbEntity
  8
1
  6
CONTINUOUS
 62
           4
100
AcDbLine
 10
1170.0
 20
2230.740739897769
 11
1185.0
 21
2230.740739897769
  0
LINE
  5
7E
100
AcDbEntity
  8
1
  6
CONTINUOUS
 62
           4
100
AcDbLine
 10
1185.0
 20
2250.740739897769
 11
1170.0
 21
2250.740739897769
  0
LINE
  5
7D
100
AcDbEntity
  8
1
  6
CONTINUOUS
 62
           4
100
AcDbLine
 10
1185.0
 20
2255.740739897769
 11
1170.0
 21
2255.740739897769
  0
LINE
  5
7C
100
AcDbEntity
  8
1
  6
CONTINUOUS
 62
           4
100
AcDbLine
 10
1185.0
 20
2210.740739897769
 11
1185.0
 21
2255.740739897769
  0
LINE
  5
7B
100
AcDbEntity
  8
1
  6
CONTINUOUS
 62
           4
100
AcDbLine
 10
1170.0
 20
2210.740739897769
 11
1185.0
 21
2210.740739897769
  0
LINE
  5
7A
100
AcDbEntity
  8
1
  6
CONTINUOUS
 62
           4
100
AcDbLine
 10
1170.0
 20
2280.740739897769
 11
1140.0
 21
2280.740739897769
  0
LINE
  5
79
100
AcDbEntity
  8
1
  6
CONTINUOUS
 62
           4
100
AcDbLine
 10
1170.0
 20
2200.740739897769
 11
1170.0
 21
2280.740739897769
  0
LINE
  5
78
100
AcDbEntity
  8
1
  6
CONTINUOUS
 62
           4
100
AcDbLine
 10
1140.0
 20
2200.740739897769
 11
1170.0
 21
2200.740739897769
  0
LINE
  5
77
100
AcDbEntity
  8
1
  6
CONTINUOUS
 62
           4
100
AcDbLine
 10
1140.0
 20
2294.240739897769
 11
1125.0
 21
2294.240739897769
  0
LINE
  5
76
100
AcDbEntity
  8
1
  6
CONTINUOUS
 62
           4
100
AcDbLine
 10
1140.0
 20
2187.240739897769
 11
1140.0
 21
2220.42567983438
  0
LINE
  5
75
100
AcDbEntity
  8
1
  6
CONTINUOUS
 62
           4
100
AcDbLine
 10
1055.0
 20
2190.740739897769
 11
1125.0
 21
2190.740739897769
  0
LINE
  5
74
100
AcDbEntity
  8
1
  6
CONTINUOUS
 62
           4
100
AcDbLine
 10
1055.0
 20
2290.740739897769
 11
1055.0
 21
2190.740739897769
  0
LINE
  5
73
100
AcDbEntity
  8
1
  6
CONTINUOUS
 62
           4
100
AcDbLine
 10
1140.0
 20
2261.055799961158
 11
1125.0
 21
2261.055799961158
  0
LINE
  5
72
100
AcDbEntity
  8
1
  6
CONTINUOUS
 62
           4
100
AcDbLine
 10
1125.0
 20
2187.240739897769
 11
1125.0
 21
2294.240739897769
  0
LINE
  5
71
100
AcDbEntity
  8
1
  6
CONTINUOUS
 62
           4
100
AcDbLine
 10
1140.0
 20
2220.42567983438
 11
1125.0
 21
2220.42567983438
  0
LINE
  5
70
100
AcDbEntity
  8
1
  6
CONTINUOUS
 62
           4
100
AcDbLine
 10
1125.0
 20
2290.740739897769
 11
1055.0
 21
2290.740739897769
  0
LINE
  5
6F
100
AcDbEntity
  8
1
  6
CONTINUOUS
 62
           4
100
AcDbLine
 10
1140.0
 20
2261.055799961158
 11
1140.0
 21
2294.240739897769
  0
LINE
  5
6E
100
AcDbEntity
  8
1
  6
CONTINUOUS
 62
           4
100
AcDbLine
 10
1125.0
 20
2187.240739897769
 11
1140.0
 21
2187.240739897769
  0
LINE
  5
6D
100
AcDbEntity
  8
1
  6
CONTINUOUS
 62
           4
100
AcDbLine
 10
1125.0
 20
2264.740739897769
 11
1055.0
 21
2264.740739897769
  0
LINE
  5
6C
100
AcDbEntity
  8
1
  6
CONTINUOUS
 62
           4
100
AcDbLine
 10
1055.0
 20
2216.740739897769
 11
1125.0
 21
2216.740739897769
  0
LINE
  5
6B
100
AcDbEntity
  8
1
  6
CONTINUOUS
 62
           4
100
AcDbLine
 10
1068.0
 20
2545.74073989777
 11
1068.0
 21
2375.740739897769
  0
LINE
  5
6A
100
AcDbEntity
  8
1
  6
CONTINUOUS
 62
           4
100
AcDbLine
 10
1263.0
 20
2545.74073989777
 11
1068.0
 21
2545.74073989777
  0
LINE
  5
69
100
AcDbEntity
  8
1
  6
CONTINUOUS
 62
           4
100
AcDbLine
 10
1263.0
 20
2375.740739897769
 11
1263.0
 21
2545.74073989777
  0
LINE
  5
68
100
AcDbEntity
  8
1
  6
CONTINUOUS
 62
           4
100
AcDbLine
 10
1068.0
 20
2375.740739897769
 11
1263.0
 21
2375.740739897769
  0
LINE
  5
67
100
AcDbEntity
  8
1
  6
CONTINUOUS
 62
           4
100
AcDbLine
 10
1280.0
 20
2413.24073989777
 11
1263.0
 21
2413.24073989777
  0
LINE
  5
66
100
AcDbEntity
  8
1
  6
CONTINUOUS
 62
           4
100
AcDbLine
 10
1280.0
 20
2388.24073989777
 11
1280.0
 21
2413.24073989777
  0
LINE
  5
65
100
AcDbEntity
  8
1
  6
CONTINUOUS
 62
           4
100
AcDbLine
 10
1263.0
 20
2388.24073989777
 11
1280.0
 21
2388.24073989777
  0
LINE
  5
64
100
AcDbEntity
  8
1
  6
CONTINUOUS
 62
           4
100
AcDbLine
 10
1180.5
 20
2375.740739897769
 11
1180.5
 21
2545.74073989777
  0
LINE
  5
63
100
AcDbEntity
  8
1
  6
CONTINUOUS
 62
           4
100
AcDbLine
 10
1263.0
 20
2423.24073989777
 11
1280.0
 21
2423.24073989777
  0
LINE
  5
62
100
AcDbEntity
  8
1
  6
CONTINUOUS
 62
           4
100
AcDbLine
 10
1280.0
 20
2423.24073989777
 11
1280.0
 21
2448.24073989777
  0
LINE
  5
61
100
AcDbEntity
  8
1
  6
CONTINUOUS
 62
           4
100
AcDbLine
 10
1280.0
 20
2448.24073989777
 11
1263.0
 21
2448.24073989777
  0
LINE
  5
60
100
AcDbEntity
  8
1
  6
CONTINUOUS
 62
           4
100
AcDbLine
 10
1280.0
 20
2490.74073989777
 11
1263.0
 21
2490.74073989777
  0
LINE
  5
5F
100
AcDbEntity
  8
1
  6
CONTINUOUS
 62
           4
100
AcDbLine
 10
1280.0
 20
2465.74073989777
 11
1280.0
 21
2490.74073989777
  0
LINE
  5
5E
100
AcDbEntity
  8
1
  6
CONTINUOUS
 62
           4
100
AcDbLine
 10
1263.0
 20
2465.74073989777
 11
1280.0
 21
2465.74073989777
  0
LINE
  5
5D
100
AcDbEntity
  8
1
  6
CONTINUOUS
 62
           4
100
AcDbLine
 10
1055.0
 20
2523.24073989777
 11
1068.0
 21
2523.24073989777
  0
LINE
  5
5C
100
AcDbEntity
  8
1
  6
CONTINUOUS
 62
           4
100
AcDbLine
 10
1055.0
 20
2503.24073989777
 11
1068.0
 21
2503.24073989777
  0
LINE
  5
5B
100
AcDbEntity
  8
1
  6
CONTINUOUS
 62
           4
100
AcDbLine
 10
1065.0
 20
2523.24073989777
 11
1065.0
 21
2503.24073989777
  0
LINE
  5
5A
100
AcDbEntity
  8
1
  6
CONTINUOUS
 62
           4
100
AcDbLine
 10
1058.0
 20
2523.24073989777
 11
1058.0
 21
2503.24073989777
  0
LINE
  5
59
100
AcDbEntity
  8
1
  6
CONTINUOUS
 62
           4
100
AcDbLine
 10
1058.0
 20
2418.24073989777
 11
1058.0
 21
2398.24073989777
  0
LINE
  5
58
100
AcDbEntity
  8
1
  6
CONTINUOUS
 62
           4
100
AcDbLine
 10
1065.0
 20
2418.24073989777
 11
1065.0
 21
2398.24073989777
  0
LINE
  5
57
100
AcDbEntity
  8
1
  6
CONTINUOUS
 62
           4
100
AcDbLine
 10
1068.0
 20
2418.24073989777
 11
1055.0
 21
2418.24073989777
  0
LINE
  5
56
100
AcDbEntity
  8
1
  6
CONTINUOUS
 62
           4
100
AcDbLine
 10
1068.0
 20
2398.24073989777
 11
1055.0
 21
2398.24073989777
  0
LINE
  5
55
100
AcDbEntity
  8
1
  6
CONTINUOUS
 62
           4
100
AcDbLine
 10
1150.5
 20
2375.740739897769
 11
1150.5
 21
2545.74073989777
  0
LINE
  5
54
100
AcDbEntity
  8
1
  6
CONTINUOUS
 62
           7
100
AcDbLine
 10
3270.0
 20
693.74073989777
 11
3250.0
 21
693.74073989777
  0
LINE
  5
53
100
AcDbEntity
  8
1
  6
CONTINUOUS
 62
           7
100
AcDbLine
 10
3250.0
 20
593.74073989777
 11
3250.0
 21
693.74073989777
  0
LINE
  5
52
100
AcDbEntity
  8
1
  6
CONTINUOUS
 62
           7
100
AcDbLine
 10
-487.5
 20
693.740739897771
 11
-487.5
 21
699.424020897118
  0
LINE
  5
51
100
AcDbEntity
  8
1
  6
CONTINUOUS
 62
           7
100
AcDbLine
 10
-412.5
 20
693.740739897771
 11
-412.5
 21
699.424020897118
  0
LINE
  5
50
100
AcDbEntity
  8
1
  6
CONTINUOUS
 62
           7
100
AcDbLine
 10
-387.5
 20
714.740739897771
 11
-387.5
 21
693.740739897771
  0
LINE
  5
4F
100
AcDbEntity
  8
1
  6
CONTINUOUS
 62
           7
100
AcDbLine
 10
-616.0
 20
2279.74073989777
 11
-616.0
 21
2531.740739897772
  0
LINE
  5
4E
100
AcDbEntity
  8
1
  6
CONTINUOUS
 62
           7
100
AcDbLine
 10
616.0
 20
2279.74073989777
 11
-616.0
 21
2279.74073989777
  0
LINE
  5
4D
100
AcDbEntity
  8
1
  6
CONTINUOUS
 62
           7
100
AcDbLine
 10
616.0
 20
2531.740739897772
 11
616.0
 21
2279.74073989777
  0
LINE
  5
4C
100
AcDbEntity
  8
1
  6
CONTINUOUS
 62
           7
100
AcDbLine
 10
-616.0
 20
2531.740739897772
 11
616.0
 21
2531.740739897772
  0
LINE
  5
4B
100
AcDbEntity
  8
1
  6
CONTINUOUS
 62
           7
100
AcDbLine
 10
-666.0
 20
2229.74073989777
 11
-666.0
 21
2581.740739897772
  0
LINE
  5
4A
100
AcDbEntity
  8
1
  6
CONTINUOUS
 62
           7
100
AcDbLine
 10
666.0
 20
2229.74073989777
 11
-666.0
 21
2229.74073989777
  0
LINE
  5
49
100
AcDbEntity
  8
1
  6
CONTINUOUS
 62
           7
100
AcDbLine
 10
666.0
 20
2581.740739897772
 11
666.0
 21
2229.74073989777
  0
LINE
  5
48
100
AcDbEntity
  8
1
  6
CONTINUOUS
 62
           7
100
AcDbLine
 10
-666.0
 20
2581.740739897772
 11
666.0
 21
2581.740739897772
  0
LINE
  5
47
100
AcDbEntity
  8
1
  6
DOT_CENTER
 62
           2
100
AcDbLine
 10
3480.000000000007
 20
762.137348394497
 11
3480.000000000007
 21
478.376651332432
  0
LINE
  5
46
100
AcDbEntity
  8
1
  6
CONTINUOUS
 62
           7
100
AcDbLine
 10
3354.000000000007
 20
593.740739897771
 11
3354.000000000007
 21
679.740739897771
  0
LINE
  5
45
100
AcDbEntity
  8
1
  6
CONTINUOUS
 62
           7
100
AcDbLine
 10
-495.0
 20
727.740739897771
 11
-405.0
 21
727.740739897771
  0
LINE
  5
44
100
AcDbEntity
  8
1
  6
CONTINUOUS
 62
           7
100
AcDbLine
 10
-405.0
 20
714.740739897771
 11
-387.5
 21
714.740739897771
  0
LINE
  5
43
100
AcDbEntity
  8
1
  6
CONTINUOUS
 62
           7
100
AcDbLine
 10
-495.0
 20
714.740739897771
 11
-512.5
 21
714.740739897771
  0
LINE
  5
42
100
AcDbEntity
  8
1
  6
CONTINUOUS
 62
           7
100
AcDbLine
 10
-512.5
 20
714.740739897771
 11
-512.5
 21
693.740739897771
  0
LINE
  5
41
100
AcDbEntity
  8
1
  6
CONTINUOUS
 62
           7
100
AcDbLine
 10
-495.0
 20
731.740739897771
 11
-495.0
 21
714.740739897771
  0
LINE
  5
40
100
AcDbEntity
  8
1
  6
CONTINUOUS
 62
           7
100
AcDbLine
 10
-413.0
 20
739.740739897771
 11
-487.0
 21
739.740739897771
  0
LINE
  5
3F
100
AcDbEntity
  8
1
  6
CONTINUOUS
 62
           7
100
AcDbLine
 10
-405.0
 20
731.740739897771
 11
-405.0
 21
714.740739897771
  0
LINE
  5
3E
100
AcDbEntity
  8
1
  6
CONTINUOUS
 62
           7
100
AcDbLine
 10
-465.0
 20
699.740739897771
 11
-465.0
 21
693.740739897771
  0
LINE
  5
3D
100
AcDbEntity
  8
1
  6
CONTINUOUS
 62
           7
100
AcDbLine
 10
-435.0
 20
699.740739897771
 11
-435.0
 21
693.740739897771
  0
LINE
  5
3C
100
AcDbEntity
  8
1
  6
CONTINUOUS
 62
           7
100
AcDbLine
 10
3354.000000000007
 20
679.740739897771
 11
3606.000000000007
 21
679.740739897771
  0
LINE
  5
3B
100
AcDbEntity
  8
1
  6
CONTINUOUS
 62
           7
100
AcDbLine
 10
3606.000000000007
 20
679.740739897771
 11
3606.000000000007
 21
593.740739897771
  0
LINE
  5
3A
100
AcDbEntity
  8
1
  6
CONTINUOUS
 62
           7
100
AcDbLine
 10
3435.000000000007
 20
727.740739897771
 11
3525.000000000007
 21
727.740739897771
  0
LINE
  5
39
100
AcDbEntity
  8
1
  6
CONTINUOUS
 62
           7
100
AcDbLine
 10
3442.500000000007
 20
699.424020897118
 11
3442.500000000007
 21
679.740739897771
  0
LINE
  5
38
100
AcDbEntity
  8
1
  6
CONTINUOUS
 62
           7
100
AcDbLine
 10
3517.500000000007
 20
699.424020897118
 11
3517.500000000007
 21
679.740739897771
  0
LINE
  5
37
100
AcDbEntity
  8
1
  6
CONTINUOUS
 62
           7
100
AcDbLine
 10
3417.500000000007
 20
714.740739897771
 11
3435.000000000007
 21
714.740739897771
  0
LINE
  5
36
100
AcDbEntity
  8
1
  6
CONTINUOUS
 62
           7
100
AcDbLine
 10
3417.500000000007
 20
679.740739897771
 11
3417.500000000007
 21
714.740739897771
  0
LINE
  5
35
100
AcDbEntity
  8
1
  6
CONTINUOUS
 62
           7
100
AcDbLine
 10
3542.500000000007
 20
714.740739897771
 11
3525.000000000007
 21
714.740739897771
  0
LINE
  5
34
100
AcDbEntity
  8
1
  6
CONTINUOUS
 62
           7
100
AcDbLine
 10
3542.500000000007
 20
679.740739897771
 11
3542.500000000007
 21
714.740739897771
  0
LINE
  5
33
100
AcDbEntity
  8
1
  6
CONTINUOUS
 62
           7
100
AcDbLine
 10
3525.000000000007
 20
714.740739897771
 11
3525.000000000007
 21
731.740739897771
  0
LINE
  5
32
100
AcDbEntity
  8
1
  6
CONTINUOUS
 62
           7
100
AcDbLine
 10
3517.000000000007
 20
739.740739897771
 11
3443.000000000007
 21
739.740739897771
  0
LINE
  5
31
100
AcDbEntity
  8
1
  6
CONTINUOUS
 62
           7
100
AcDbLine
 10
3435.000000000007
 20
714.740739897771
 11
3435.000000000007
 21
731.740739897771
  0
LINE
  5
30
100
AcDbEntity
  8
1
  6
CONTINUOUS
 62
           7
100
AcDbLine
 10
3495.000000000007
 20
679.740739897771
 11
3495.000000000007
 21
699.740739897771
  0
LINE
  5
2F
100
AcDbEntity
  8
1
  6
CONTINUOUS
 62
           7
100
AcDbLine
 10
3465.000000000007
 20
679.740739897771
 11
3465.000000000007
 21
699.740739897771
  0
LINE
  5
2E
100
AcDbEntity
  8
1
  6
DOT_CENTER
 62
           2
100
AcDbLine
 10
-450.0
 20
746.427617932257
 11
-450.0
 21
650.747743631602
  0
POINT
  5
2D
100
AcDbEntity
  8
0
 62
           3
100
AcDbPoint
 10
4083.399996721735
 20
-91.259260102113
  0
ENDSEC
  0
SECTION
  2
OBJECTS
  0
DICTIONARY
  5
19
100
AcDbDictionary
  3
ACAD_GROUP
350
1A
  3
ACAD_MLINESTYLE
350
1B
  0
DICTIONARY
  5
1A
102
{ACAD_REACTORS
330
19
102
}
100
AcDbDictionary
  0
DICTIONARY
  5
1B
102
{ACAD_REACTORS
330
19
102
}
100
AcDbDictionary
  3
STANDARD
350
1C
  0
MLINESTYLE
  5
1C
102
{ACAD_REACTORS
330
1B
102
}
100
AcDbMlineStyle
  2
STANDARD
 70
           0
  3

 62
           0
 51
90.0
 52
90.0
 71
           2
 49
0.5
 62
         256
  6
BYLAYER
 49
-0.5
 62
         256
  6
BYLAYER
  0
ENDSEC
  0
EOF
