  0
SECTION
  2
HEADER
  9
$ACADVER
  1
AC1014
  9
$ACADMAINTVER
 70
           0
  9
$DWGCODEPAGE
  3
DOS932
  9
$INSBASE
 10
0.0
 20
0.0
 30
0.0
  9
$EXTMIN
 10
1.000000000000E+20
 20
1.000000000000E+20
 30
1.000000000000E+20
  9
$EXTMAX
 10
-1.000000000000E+20
 20
-1.000000000000E+20
 30
-1.000000000000E+20
  9
$LIMMIN
 10
0.0
 20
0.0
  9
$LIMMAX
 10
0.0
 20
0.0
  9
$ORTHOMODE
 70
           0
  9
$REGENMODE
 70
           1
  9
$FILLMODE
 70
           1
  9
$QTEXTMODE
 70
           0
  9
$MIRRTEXT
 70
           1
  9
$DRAGMODE
 70
           2
  9
$LTSCALE
 40
1.0
  9
$OSMODE
 70
           0
  9
$ATTMODE
 70
           1
  9
$TEXTSIZE
 40
0.2
  9
$TRACEWID
 40
0.05
  9
$TEXTSTYLE
  7
STANDARD
  9
$CLAYER
  8
0
  9
$CELTYPE
  6
CONTINUOUS
  9
$CECOLOR
 62
         256
  9
$CELTSCALE
 40
1.0
  9
$DELOBJ
 70
           1
  9
$DISPSILH
 70
           0
  9
$DIMSCALE
 40
1.0
  9
$DIMASZ
 40
0.18
  9
$DIMEXO
 40
0.0625
  9
$DIMDLI
 40
0.38
  9
$DIMRND
 40
0.0
  9
$DIMDLE
 40
0.0
  9
$DIMEXE
 40
0.18
  9
$DIMTP
 40
0.0
  9
$DIMTM
 40
0.0
  9
$DIMTXT
 40
0.18
  9
$DIMCEN
 40
0.09
  9
$DIMTSZ
 40
0.0
  9
$DIMTOL
 70
           0
  9
$DIMLIM
 70
           0
  9
$DIMTIH
 70
           1
  9
$DIMTOH
 70
           1
  9
$DIMSE1
 70
           0
  9
$DIMSE2
 70
           0
  9
$DIMTAD
 70
           0
  9
$DIMZIN
 70
           0
  9
$DIMBLK
  1

  9
$DIMASO
 70
           1
  9
$DIMSHO
 70
           1
  9
$DIMPOST
  1

  9
$DIMAPOST
  1

  9
$DIMALT
 70
           0
  9
$DIMALTD
 70
           2
  9
$DIMALTF
 40
25.4
  9
$DIMLFAC
 40
1.0
  9
$DIMTOFL
 70
           0
  9
$DIMTVP
 40
0.0
  9
$DIMTIX
 70
           0
  9
$DIMSOXD
 70
           0
  9
$DIMSAH
 70
           0
  9
$DIMBLK1
  1

  9
$DIMBLK2
  1

  9
$DIMSTYLE
  2
STANDARD
  9
$DIMCLRD
 70
           0
  9
$DIMCLRE
 70
           0
  9
$DIMCLRT
 70
           0
  9
$DIMTFAC
 40
1.0
  9
$DIMGAP
 40
0.09
  9
$DIMJUST
 70
           0
  9
$DIMSD1
 70
           0
  9
$DIMSD2
 70
           0
  9
$DIMTOLJ
 70
           1
  9
$DIMTZIN
 70
           0
  9
$DIMALTZ
 70
           0
  9
$DIMALTTZ
 70
           0
  9
$DIMFIT
 70
           3
  9
$DIMUPT
 70
           0
  9
$DIMUNIT
 70
           2
  9
$DIMDEC
 70
           4
  9
$DIMTDEC
 70
           4
  9
$DIMALTU
 70
           2
  9
$DIMALTTD
 70
           2
  9
$DIMTXSTY
  7
STANDARD
  9
$DIMAUNIT
 70
           0
  9
$LUNITS
 70
           2
  9
$LUPREC
 70
           4
  9
$SKETCHINC
 40
0.1
  9
$FILLETRAD
 40
0.0
  9
$AUNITS
 70
           0
  9
$AUPREC
 70
           0
  9
$MENU
  1
acad
  9
$ELEVATION
 40
0.0
  9
$PELEVATION
 40
0.0
  9
$THICKNESS
 40
0.0
  9
$LIMCHECK
 70
           0
  9
$BLIPMODE
 70
           1
  9
$CHAMFERA
 40
0.0
  9
$CHAMFERB
 40
0.0
  9
$CHAMFERC
 40
0.0
  9
$CHAMFERD
 40
0.0
  9
$SKPOLY
 70
           0
  9
$TDCREATE
 40
0.000000000
  9
$TDUPDATE
 40
0.000000000
  9
$TDINDWG
 40
0.0000000000
  9
$TDUSRTIMER
 40
0.0000000000
  9
$USRTIMER
 70
           1
  9
$ANGBASE
 50
0.0
  9
$ANGDIR
 70
           0
  9
$PDMODE
 70
           0
  9
$PDSIZE
 40
0.0
  9
$PLINEWID
 40
0.0
  9
$COORDS
 70
           0
  9
$SPLFRAME
 70
           0
  9
$SPLINETYPE
 70
           6
  9
$SPLINESEGS
 70
           8
  9
$ATTDIA
 70
           0
  9
$ATTREQ
 70
           1
  9
$HANDLING
 70
           1
  9
$HANDSEED
  5
496
  9
$SURFTAB1
 70
           6
  9
$SURFTAB2
 70
           6
  9
$SURFTYPE
 70
           6
  9
$SURFU
 70
           6
  9
$SURFV
 70
           6
  9
$UCSNAME
  2

  9
$UCSORG
 10
0.0
 20
0.0
 30
0.0
  9
$UCSXDIR
 10
1.0
 20
0.0
 30
0.0
  9
$UCSYDIR
 10
0.0
 20
1.0
 30
0.0
  9
$PUCSNAME
  2

  9
$PUCSORG
 10
0.0
 20
0.0
 30
0.0
  9
$PUCSXDIR
 10
1.0
 20
0.0
 30
0.0
  9
$PUCSYDIR
 10
0.0
 20
1.0
 30
0.0
  9
$USERI1
 70
           0
  9
$USERI2
 70
           0
  9
$USERI3
 70
           0
  9
$USERI4
 70
           0
  9
$USERI5
 70
           0
  9
$USERR1
 40
0.0
  9
$USERR2
 40
0.0
  9
$USERR3
 40
0.0
  9
$USERR4
 40
0.0
  9
$USERR5
 40
0.0
  9
$WORLDVIEW
 70
           1
  9
$SHADEDGE
 70
           3
  9
$SHADEDIF
 70
          70
  9
$TILEMODE
 70
           1
  9
$MAXACTVP
 70
          16
  9
$PINSBASE
 10
0.0
 20
0.0
 30
0.0
  9
$PLIMCHECK
 70
           0
  9
$PEXTMIN
 10
1.000000000000E+20
 20
1.000000000000E+20
 30
1.000000000000E+20
  9
$PEXTMAX
 10
-1.000000000000E+20
 20
-1.000000000000E+20
 30
-1.000000000000E+20
  9
$PLIMMIN
 10
0.0
 20
0.0
  9
$PLIMMAX
 10
12.0
 20
9.0
  9
$UNITMODE
 70
           0
  9
$VISRETAIN
 70
           0
  9
$PLINEGEN
 70
           1
  9
$PSLTSCALE
 70
           0
  9
$TREEDEPTH
 70
        3020
  9
$PICKSTYLE
 70
           1
  9
$CMLSTYLE
  2
STANDARD
  9
$CMLJUST
 70
           0
  9
$CMLSCALE
 40
1.0
  9
$PROXYGRAPHICS
 70
           0
  9
$MEASUREMENT
 70
           0
  0
ENDSEC
  0
SECTION
  2
CLASSES
  0
CLASS
  1
LWPOLYLINE
  2
AcDbPolyline
  3
"AutoCAD"
 90
        0
280
           0
281
           1
  0
CLASS
  1
IMAGE
  2
AcDbRasterImage
  3
ISM
 90
      127
280
           0
281
           1
  0
CLASS
  1
OLE2FRAME
  2
AcDbOle2Frame
  3
""
 90
        0
280
           0
281
           1
  0
CLASS
  1
HATCH
  2
AcDbHatch
  3
"ACAD_SEDONA"
 90
        0
280
           0
281
           1
  0
CLASS
  1
DICTIONARYVAR
  2
AcDbDictionaryVar
  3
"AutoCAD"
 90
        0
280
           0
281
           0
  0
CLASS
  1
RASTERVARIABLES
  2
AcDbRasterVariables
  3
ISM
 90
        0
280
           0
281
           0
  0
CLASS
  1
IMAGEDEF
  2
AcDbRasterImageDef
  3
ISM
 90
        0
280
           0
281
           0
  0
CLASS
  1
IMAGEDEF_REACTOR
  2
AcDbRasterImageDefReactor
  3
ISM
 90
        1
280
           0
281
           0
  0
CLASS
  1
IDBUFFER
  2
AcDbIdBuffer
  3
"Acad"
 90
        0
280
           0
281
           0
  0
CLASS
  1
SPATIAL_FILTER
  2
AcDbSpatialFilter
  3
"Acad"
 90
        0
280
           0
281
           0
  0
CLASS
  1
XRECORD
  2
AcDbXrecord
  3
"<Built In>"
 90
        0
280
           0
281
           0
  0
CLASS
  1
SORTENTSTABLE
  2
AcDbSortentsTable
  3
"AutoCAD"
 90
        0
280
           0
281
           0
  0
CLASS
  1
LAYER_INDEX
  2
AcDbLayerIndex
  3
"Acad"
 90
        0
280
           0
281
           0
  0
CLASS
  1
SPATIAL_INDEX
  2
AcDbSpatialIndex
  3
"Acad"
 90
        0
280
           0
281
           0
  0
CLASS
  1
OBJECT_PTR
  2
CAseDLPNTableRecord
  3
"ASE-LPNTableRecord"
 90
        1
280
           0
281
           0
  0
CLASS
  1
LAYOUT
  2
AcDbLayout
  3
"AutoCAD 2000"
 90
        1
280
           0
281
           0
  0
CLASS
  1
PLOTSETTINGS
  2
AcDbPlotSettings
  3
"AutoCAD 2000"
 90
        1
280
           0
281
           0
  0
CLASS
  1
ACDBDICTIONARYWDFLT
  2
AcDbDictionaryWithDefault
  3
"AutoCAD 2000"
 90
        1
280
           0
281
           0
  0
CLASS
  1
ACDBPLACEHOLDER
  2
AcDbPlaceHolder
  3
"AutoCAD 2000"
 90
        1
280
           0
281
           0
  0
CLASS
  1
VBA_PROJECT
  2
AcDbVbaProject
  3
"acadvba"
 90
        1
280
           0
281
           0
  0
CLASS
  1
WIPEOUT
  2
AcDbWipeout
  3
WipeOut|AutoCAD Express Tool|expresstools@autodesk.com
 90
      127
280
           0
281
           1
  0
CLASS
  1
WIPEOUTVARIABLES
  2
AcDbWipeoutVariables
  3
WipeOut|AutoCAD Express Tool|expresstools@autodesk.com
 90
        0
280
           0
281
           0
  0
CLASS
  1
RTEXT
  2
RText
  3
RText|AutoCAD Express Tool|expresstools@autodesk.com
 90
        0
280
           0
281
           1
  0
CLASS
  1
ARCALIGNEDTEXT
  2
AcDbArcAlignedText
  3
ATEXT|AutoCAD Express Tool|expresstools@autodesk.com
 90
        0
280
           0
281
           1
  0
ENDSEC
  0
SECTION
  2
TABLES
  0
TABLE
  2
VPORT
  5
7
100
AcDbSymbolTable
 70
           1
  0
VPORT
  5
15
100
AcDbSymbolTableRecord
100
AcDbViewportTableRecord
  2
*ACTIVE
 70
           0
 10
0.0
 20
0.0
 11
1.0
 21
1.0
 12
6.591288
 22
4.579184
 13
0.0
 23
0.0
 14
1.0
 24
1.0
 15
0.0
 25
0.0
 16
0.0
 26
0.0
 36
1.0
 17
0.0
 27
0.0
 37
0.0
 40
9.158369
 41
0.688564
 42
50.0
 43
0.0
 44
0.0
 50
0.0
 51
0.0
 71
           0
 72
         100
 73
           1
 74
           1
 75
           0
 76
           0
 77
           0
 78
           0
  0
ENDTAB
  0
TABLE
  2
LTYPE
  5
4
100
AcDbSymbolTable
 70
          10
  0
LTYPE
  5
11
100
AcDbSymbolTableRecord
100
AcDbLinetypeTableRecord
  2
BYBLOCK
 70
          64
  3

 72
          65
 73
           0
 40
0.0
  0
LTYPE
  5
12
100
AcDbSymbolTableRecord
100
AcDbLinetypeTableRecord
  2
BYLAYER
 70
          64
  3

 72
          65
 73
           0
 40
0.0
  0
LTYPE
  5
13
100
AcDbSymbolTableRecord
100
AcDbLinetypeTableRecord
  2
CONTINUOUS
 70
          64
  3
Solid line
 72
          65
 73
           0
 40
0.0
  0
LTYPE
  5
1D
100
AcDbSymbolTableRecord
100
AcDbLinetypeTableRecord
  2
DASHED
 70
          64
  3
Dashed
 72
          65
 73
           2
 40
15.0
 49
12.0
 74
           0
 49
-3.0
 74
           0
  0
LTYPE
  5
1E
100
AcDbSymbolTableRecord
100
AcDbLinetypeTableRecord
  2
DOTTED
 70
          64
  3
Dotted
 72
          65
 73
           2
 40
3.5
 49
0.5
 74
           0
 49
-3.0
 74
           0
  0
LTYPE
  5
1F
100
AcDbSymbolTableRecord
100
AcDbLinetypeTableRecord
  2
DOT_CENTER
 70
          64
  3
Dot_Center
 72
          65
 73
           4
 40
2.0
 49
1.25
 74
           0
 49
-0.25
 74
           0
 49
0.25
 74
           0
 49
-0.25
 74
           0
  0
LTYPE
  5
20
100
AcDbSymbolTableRecord
100
AcDbLinetypeTableRecord
  2
LONG_DASHED
 70
          64
  3
Long_Dashed
 72
          65
 73
           2
 40
2.0
 49
1.5
 74
           0
 49
-0.5
 74
           0
  0
LTYPE
  5
21
100
AcDbSymbolTableRecord
100
AcDbLinetypeTableRecord
  2
DASH_CENTER
 70
          64
  3
Dash_Center
 72
          65
 73
           4
 40
36.0
 49
24.0
 74
           0
 49
-3.0
 74
           0
 49
6.0
 74
           0
 49
-3.0
 74
           0
  0
LTYPE
  5
22
100
AcDbSymbolTableRecord
100
AcDbLinetypeTableRecord
  2
PHANTOM
 70
          64
  3
Phantom
 72
          65
 73
           6
 40
2.5
 49
1.25
 74
           0
 49
-0.25
 74
           0
 49
0.25
 74
           0
 49
-0.25
 74
           0
 49
0.25
 74
           0
 49
-0.25
 74
           0
  0
LTYPE
  5
23
100
AcDbSymbolTableRecord
100
AcDbLinetypeTableRecord
  2
CENTER_DASH_DASH
 70
          64
  3
Center_Dash_Dash
 72
          65
 73
           6
 40
22.0
 49
12.0
 74
           0
 49
-3.0
 74
           0
 49
0.5
 74
           0
 49
-3.0
 74
           0
 49
0.5
 74
           0
 49
-3.0
 74
           0
  0
ENDTAB
  0
TABLE
  2
LAYER
  5
2
100
AcDbSymbolTable
 70
           7
  0
LAYER
  5
14
100
AcDbSymbolTableRecord
100
AcDbLayerTableRecord
  2
0
 70
           0
 62
           7
  6
CONTINUOUS
  0
LAYER
  5
24
100
AcDbSymbolTableRecord
100
AcDbLayerTableRecord
  2
___S__
 70
           0
 62
           7
  6
CONTINUOUS
  0
LAYER
  5
25
100
AcDbSymbolTableRecord
100
AcDbLayerTableRecord
  2
FORMAT
 70
           0
 62
           7
  6
CONTINUOUS
  0
LAYER
  5
26
100
AcDbSymbolTableRecord
100
AcDbLayerTableRecord
  2
1
 70
           0
 62
           7
  6
CONTINUOUS
  0
LAYER
  5
27
100
AcDbSymbolTableRecord
100
AcDbLayerTableRecord
  2
2
 70
           0
 62
           7
  6
CONTINUOUS
  0
LAYER
  5
28
100
AcDbSymbolTableRecord
100
AcDbLayerTableRecord
  2
7
 70
           0
 62
           7
  6
CONTINUOUS
  0
LAYER
  5
29
100
AcDbSymbolTableRecord
100
AcDbLayerTableRecord
  2
____
 70
           0
 62
           7
  6
CONTINUOUS
  0
ENDTAB
  0
TABLE
  2
STYLE
  5
3
100
AcDbSymbolTable
 70
           1
  0
STYLE
  5
17
100
AcDbSymbolTableRecord
100
AcDbTextStyleTableRecord
  2
STANDARD
 70
           0
 40
0.0
 41
1.0
 50
0.0
 71
           0
 42
0.0
  3
txt
  4

  0
ENDTAB
  0
TABLE
  2
VIEW
  5
5
100
AcDbSymbolTable
 70
           0
  0
ENDTAB
  0
TABLE
  2
UCS
  5
6
100
AcDbSymbolTable
 70
           0
  0
ENDTAB
  0
TABLE
  2
APPID
  5
8
100
AcDbSymbolTable
 70
           1
  0
APPID
  5
16
100
AcDbSymbolTableRecord
100
AcDbRegAppTableRecord
  2
ACAD
 70
           0
  0
ENDTAB
  0
TABLE
  2
DIMSTYLE
  5
9
100
AcDbSymbolTable
 70
           1
  0
DIMSTYLE
105
18
100
AcDbSymbolTableRecord
100
AcDbDimStyleTableRecord
  2
STANDARD
 70
           0
  3

  4

  5

  6

  7

 40
1.0
 41
0.18
 42
0.0625
 43
0.38
 44
0.18
 45
0.0
 46
0.0
 47
0.0
 48
0.0
 71
           0
 72
           0
 73
           1
 74
           1
 75
           0
 76
           0
 77
           0
 78
           0
140
0.18
141
0.09
142
0.0
143
25.4
144
1.0
145
0.0
146
1.0
147
0.09
170
           0
171
           2
172
           0
173
           0
174
           0
175
           0
176
           0
177
           0
178
           0
270
           2
271
           4
272
           4
273
           2
274
           2
275
           0
280
           0
281
           0
282
           0
283
           1
284
           0
285
           0
286
           0
287
           0
288
           0
340
17
  0
ENDTAB
  0
TABLE
  2
BLOCK_RECORD
  5
1
100
AcDbSymbolTable
 70
           0
  0
BLOCK_RECORD
  5
A
100
AcDbSymbolTableRecord
100
AcDbBlockTableRecord
  2
*MODEL_SPACE
  0
BLOCK_RECORD
  5
B
100
AcDbSymbolTableRecord
100
AcDbBlockTableRecord
  2
*PAPER_SPACE
  0
ENDTAB
  0
ENDSEC
  0
SECTION
  2
BLOCKS
  0
BLOCK
  5
D
100
AcDbEntity
  8
0
100
AcDbBlockBegin
  2
*MODEL_SPACE
 70
           0
 10
0.0
 20
0.0
 30
0.0
  3
*MODEL_SPACE
  1

  0
ENDBLK
  5
E
100
AcDbEntity
  8
0
100
AcDbBlockEnd
  0
BLOCK
  5
F
100
AcDbEntity
 67
           1
  8
0
100
AcDbBlockBegin
  2
*PAPER_SPACE
 70
           0
 10
0.0
 20
0.0
 30
0.0
  3
*PAPER_SPACE
  1

  0
ENDBLK
  5
10
100
AcDbEntity
 67
           1
  8
0
100
AcDbBlockEnd
  0
ENDSEC
  0
SECTION
  2
ENTITIES
  0
HATCH
  5
494
100
AcDbEntity
  8
0
  6
CONTINUOUS
 62
           3
100
AcDbHatch
 10
0.0
 20
0.0
 30
0.0
210
0.0
220
0.0
230
1.0
  2
USER
 70
           0
 71
           1
 91
        1
 92
        1
 93
        8
 72
           1
 10
3812.314185654644
 20
1069.435182228533
 11
3812.314185654644
 21
1089.435182228533
 72
           1
 10
3695.0000000000009
 20
1069.435182228533
 11
3812.314185654644
 21
1069.435182228533
 72
           2
 10
3695.0000000000009
 20
1119.435182228533
 40
50.0
 50
180.0
 51
-90.0
 73
           1
 72
           1
 10
3645.0000000000009
 20
1430.000000000002
 11
3645.0000000000009
 21
1119.435182228533
 72
           1
 10
3665.0000000000009
 20
1430.000000000002
 11
3645.0000000000009
 21
1430.000000000002
 72
           1
 10
3665.0000000000009
 20
1119.435182228533
 11
3665.0000000000009
 21
1430.000000000002
 72
           2
 10
3695.0000000000009
 20
1119.435182228533
 40
30.0
 50
180.0
 51
-90.0
 73
           1
 72
           1
 10
3812.314185654644
 20
1089.435182228533
 11
3695.0000000000009
 21
1089.435182228533
 97
        8
330
F1
330
F0
330
47D
330
EF
330
EE
330
F3
330
47C
330
F2
 75
           1
 76
           0
 52
45.0
 41
10.0
 77
           0
 78
           1
 53
45.0
 43
0.0
 44
0.0
 45
-7.0710678118654746
 46
7.0710678118654755
 79
           0
 98
        1
 10
0.0
 20
0.0
  0
ARC
  5
493
100
AcDbEntity
  8
1
  6
CONTINUOUS
 62
           4
100
AcDbCircle
 10
117.908702762044
 20
5357.499999999997
 40
12.0
100
AcDbArc
 50
90.0
 51
120.430594205709
  0
ARC
  5
492
100
AcDbEntity
  8
1
  6
CONTINUOUS
 62
           4
100
AcDbCircle
 10
117.908702762044
 20
5266.499999999997
 40
12.000000000002
100
AcDbArc
 50
-120.4305942057
 51
-90.0
  0
ARC
  5
491
100
AcDbEntity
  8
1
  6
CONTINUOUS
 62
           7
100
AcDbCircle
 10
144.824966598195
 20
5260.499999999997
 40
12.0
100
AcDbArc
 50
180.0
 51
-90.0
  0
ARC
  5
490
100
AcDbEntity
  8
1
  6
CONTINUOUS
 62
           7
100
AcDbCircle
 10
144.824966598195
 20
5363.499999999997
 40
12.0
100
AcDbArc
 50
90.0
 51
180.0
  0
ARC
  5
48F
100
AcDbEntity
  8
1
  6
CONTINUOUS
 62
           7
100
AcDbCircle
 10
184.999999999998
 20
5260.499999999997
 40
12.0
100
AcDbArc
 50
-90.0
 51
0.0
  0
ARC
  5
48E
100
AcDbEntity
  8
1
  6
CONTINUOUS
 62
           7
100
AcDbCircle
 10
184.999999999998
 20
5363.499999999997
 40
12.0
100
AcDbArc
 50
0.0
 51
90.0
  0
ARC
  5
48D
100
AcDbEntity
  8
1
  6
CONTINUOUS
 62
           7
100
AcDbCircle
 10
185.000000000002
 20
2804.299999999998
 40
12.0
100
AcDbArc
 50
0.0
 51
90.0
  0
ARC
  5
48C
100
AcDbEntity
  8
1
  6
CONTINUOUS
 62
           7
100
AcDbCircle
 10
185.000000000002
 20
2728.299999999997
 40
12.0
100
AcDbArc
 50
-90.0
 51
0.0
  0
ARC
  5
48B
100
AcDbEntity
  8
1
  6
CONTINUOUS
 62
           7
100
AcDbCircle
 10
134.496396800001
 20
2804.299999999998
 40
11.999999999999
100
AcDbArc
 50
90.0
 51
180.0
  0
ARC
  5
48A
100
AcDbEntity
  8
1
  6
CONTINUOUS
 62
           7
100
AcDbCircle
 10
134.496396800001
 20
2728.299999999997
 40
12.0
100
AcDbArc
 50
180.0
 51
-90.0
  0
ARC
  5
489
100
AcDbEntity
  8
1
  6
CONTINUOUS
 62
           7
100
AcDbCircle
 10
5058.5
 20
2728.299999999999
 40
12.0
100
AcDbArc
 50
180.0
 51
-90.0
  0
ARC
  5
488
100
AcDbEntity
  8
1
  6
CONTINUOUS
 62
           7
100
AcDbCircle
 10
5058.5
 20
2804.299999999999
 40
12.0
100
AcDbArc
 50
90.0
 51
180.0
  0
ARC
  5
487
100
AcDbEntity
  8
1
  6
CONTINUOUS
 62
           7
100
AcDbCircle
 10
5161.5
 20
2728.299999999999
 40
12.0
100
AcDbArc
 50
-90.0
 51
0.0
  0
ARC
  5
486
100
AcDbEntity
  8
1
  6
CONTINUOUS
 62
           7
100
AcDbCircle
 10
5161.5
 20
2804.299999999999
 40
12.0
100
AcDbArc
 50
0.0
 51
90.0
  0
ARC
  5
485
100
AcDbEntity
  8
1
  6
CONTINUOUS
 62
           4
100
AcDbCircle
 10
5625.5
 20
2610.500000000003
 40
1.0
100
AcDbArc
 50
180.0
 51
-90.0
  0
ARC
  5
484
100
AcDbEntity
  8
1
  6
CONTINUOUS
 62
           4
100
AcDbCircle
 10
5614.5
 20
2610.500000000003
 40
1.0
100
AcDbArc
 50
-90.0
 51
0.0
  0
ARC
  5
483
100
AcDbEntity
  8
1
  6
CONTINUOUS
 62
           4
100
AcDbCircle
 10
5625.5
 20
2159.500000000002
 40
1.0
100
AcDbArc
 50
90.0
 51
180.0
  0
ARC
  5
482
100
AcDbEntity
  8
1
  6
CONTINUOUS
 62
           4
100
AcDbCircle
 10
5614.5
 20
2159.500000000002
 40
1.0
100
AcDbArc
 50
0.0
 51
90.0
  0
ARC
  5
481
100
AcDbEntity
  8
1
  6
CONTINUOUS
 62
           3
100
AcDbCircle
 10
4968.163567691042
 20
1917.806253419961
 40
0.5
100
AcDbArc
 50
180.0
 51
-90.0
  0
ARC
  5
480
100
AcDbEntity
  8
1
  6
CONTINUOUS
 62
           3
100
AcDbCircle
 10
4968.163567691042
 20
1932.193746580041
 40
0.5
100
AcDbArc
 50
90.0
 51
180.0
  0
ARC
  5
47F
100
AcDbEntity
  8
1
  6
CONTINUOUS
 62
           3
100
AcDbCircle
 10
4819.899998122324
 20
1641.000000000001
 40
280.000000000001
100
AcDbArc
 50
90.0
 51
180.0
  0
ARC
  5
47E
100
AcDbEntity
  8
1
  6
CONTINUOUS
 62
           3
100
AcDbCircle
 10
4819.899996810931
 20
1641.000000000001
 40
288.0
100
AcDbArc
 50
90.0
 51
180.0
  0
ARC
  5
47D
100
AcDbEntity
  8
1
  6
CONTINUOUS
 62
           4
100
AcDbCircle
 10
3695.000000000001
 20
1119.435182228533
 40
50.0
100
AcDbArc
 50
180.0
 51
-90.0
  0
ARC
  5
47C
100
AcDbEntity
  8
1
  6
CONTINUOUS
 62
           4
100
AcDbCircle
 10
3695.000000000001
 20
1119.435182228533
 40
30.0
100
AcDbArc
 50
180.0
 51
-90.0
  0
ARC
  5
47B
100
AcDbEntity
  8
1
  6
CONTINUOUS
 62
           2
100
AcDbCircle
 10
1450.0
 20
1116.499999999983
 40
8.0
100
AcDbArc
 50
0.0
 51
90.0
  0
ARC
  5
47A
100
AcDbEntity
  8
1
  6
CONTINUOUS
 62
           2
100
AcDbCircle
 10
1450.0
 20
1042.499999999983
 40
8.0
100
AcDbArc
 50
-90.0
 51
0.0
  0
ARC
  5
479
100
AcDbEntity
  8
1
  6
CONTINUOUS
 62
           2
100
AcDbCircle
 10
1418.0
 20
1079.499999999983
 40
15.0
100
AcDbArc
 50
-90.0
 51
90.0
  0
ARC
  5
478
100
AcDbEntity
  8
1
  6
CONTINUOUS
 62
           7
100
AcDbCircle
 10
-413.0
 20
2188.000000000001
 40
8.0
100
AcDbArc
 50
0.0
 51
90.0
  0
ARC
  5
477
100
AcDbEntity
  8
1
  6
CONTINUOUS
 62
           7
100
AcDbCircle
 10
-487.0
 20
2188.000000000001
 40
8.0
100
AcDbArc
 50
90.0
 51
180.0
  0
ARC
  5
476
100
AcDbEntity
  8
1
  6
CONTINUOUS
 62
           7
100
AcDbCircle
 10
-450.0
 20
2156.000000000001
 40
15.0
100
AcDbArc
 50
147.769047364498
 51
180.0
  0
ARC
  5
475
100
AcDbEntity
  8
1
  6
CONTINUOUS
 62
           7
100
AcDbCircle
 10
3783.000000000001
 20
2188.000000000001
 40
8.0
100
AcDbArc
 50
90.0
 51
180.0
  0
ARC
  5
474
100
AcDbEntity
  8
1
  6
CONTINUOUS
 62
           7
100
AcDbCircle
 10
3857.000000000001
 20
2188.000000000001
 40
8.0
100
AcDbArc
 50
0.0
 51
90.0
  0
ARC
  5
473
100
AcDbEntity
  8
1
  6
CONTINUOUS
 62
           7
100
AcDbCircle
 10
3820.000000000001
 20
2156.000000000001
 40
15.0
100
AcDbArc
 50
0.0
 51
180.0
  0
ARC
  5
472
100
AcDbEntity
  8
1
  6
CONTINUOUS
 62
           7
100
AcDbCircle
 10
-450.0
 20
2156.000000000001
 40
15.0
100
AcDbArc
 50
32.230952635502
 51
147.769047364498
  0
ARC
  5
471
100
AcDbEntity
  8
1
  6
CONTINUOUS
 62
           7
100
AcDbCircle
 10
-450.0
 20
2156.000000000001
 40
15.0
100
AcDbArc
 50
0.0
 51
32.230952635502
  0
SPLINE
  5
470
100
AcDbEntity
  8
0
  6
CONTINUOUS
 62
           3
100
AcDbSpline
210
0.0
220
0.0
230
1.0
 70
           0
 71
           3
 72
           8
 73
           5
 74
           7
 42
0.00000000001
 43
0.00000000001
 44
0.00000000001
 40
0.0
 40
0.0
 40
0.0
 40
0.298965195031542
 40
0.4296296276535259
 40
0.4465803504010637
 40
0.4465803504010637
 40
0.4465803504010637
 10
4490.8999966098627
 20
1384.6465796233031
 30
0.0
 10
4490.89999660991
 20
1384.466936563427
 30
0.0
 10
4490.89999660991
 20
1384.2282922931161
 30
0.0
 10
4490.89999660991
 20
1384.205607698183
 30
0.0
 10
4490.89999660991
 20
1384.199999272902
 30
0.0
 11
4490.8999966098627
 21
1384.6465796233031
 31
0.0
 11
4490.8999966098982
 21
1384.4703311443247
 31
0.0
 11
4490.89999660991
 21
1384.3008718271417
 31
0.0
 11
4490.89999660991
 21
1384.2414172487586
 31
0.0
 11
4490.89999660991
 21
1384.208212581661
 31
0.0
 11
4490.89999660991
 21
1384.2048568127325
 31
0.0
 11
4490.89999660991
 21
1384.199999272902
 31
0.0
  0
SPLINE
  5
46F
100
AcDbEntity
  8
0
  6
CONTINUOUS
 62
           3
100
AcDbSpline
210
0.0
220
0.0
230
1.0
 70
           0
 71
           3
 72
           8
 73
           5
 74
           7
 42
0.00000000001
 43
0.00000000001
 44
0.00000000001
 40
0.0
 40
0.0
 40
0.0
 40
0.0169507227475378
 40
0.1476151553695217
 40
0.4465803504010637
 40
0.4465803504010637
 40
0.4465803504010637
 10
4480.8999968334319
 20
1384.199999272902
 30
0.0
 10
4480.8999968334319
 20
1384.205607698183
 30
0.0
 10
4480.8999968334319
 20
1384.2282922931161
 30
0.0
 10
4480.8999968334319
 20
1384.466936563427
 30
0.0
 10
4480.899996833472
 20
1384.6465796233031
 30
0.0
 11
4480.8999968334319
 21
1384.199999272902
 31
0.0
 11
4480.8999968334329
 21
1384.2048568127323
 31
0.0
 11
4480.8999968334319
 21
1384.2082125816612
 31
0.0
 11
4480.8999968334319
 21
1384.2414172487588
 31
0.0
 11
4480.8999968334319
 21
1384.3008718271417
 31
0.0
 11
4480.8999968334419
 21
1384.4703311443247
 31
0.0
 11
4480.899996833472
 21
1384.6465796233031
 31
0.0
  0
SPLINE
  5
46E
100
AcDbEntity
  8
0
  6
CONTINUOUS
 62
           3
100
AcDbSpline
210
0.0
220
0.0
230
1.0
 70
           0
 71
           3
 72
           8
 73
           5
 74
           7
 42
0.00000000001
 43
0.00000000001
 44
0.00000000001
 40
0.0
 40
0.0
 40
0.0
 40
0.4813883392833031
 40
1.3325653926421763
 40
2.5594910488295834
 40
2.5594910488295834
 40
2.5594910488295834
 10
4488.3999966657611
 20
1384.199999272902
 30
0.0
 10
4488.459261471944
 20
1384.2004449713099
 30
0.0
 10
4489.3034813132899
 20
1384.2067938900659
 30
0.0
 10
4490.130777332779
 20
1384.4346858415561
 30
0.0
 10
4490.8999966098627
 20
1384.6465796233031
 30
0.0
 11
4488.3999966657611
 21
1384.199999272902
 31
0.0
 11
4488.5206887308796
 21
1384.2009069323503
 31
0.0
 11
4488.7642353138726
 21
1384.2027385138806
 31
0.0
 11
4489.253383550742
 21
1384.2291158030616
 31
0.0
 11
4489.6423362625137
 21
1384.3001369182343
 31
0.0
 11
4490.2009718844838
 21
1384.4540220561626
 31
0.0
 11
4490.8999966098627
 21
1384.6465796233031
 31
0.0
  0
SPLINE
  5
46D
100
AcDbEntity
  8
0
  6
CONTINUOUS
 62
           3
100
AcDbSpline
210
0.0
220
0.0
230
1.0
 70
           0
 71
           3
 72
           8
 73
           5
 74
           7
 42
0.00000000001
 43
0.00000000001
 44
0.00000000001
 40
0.0
 40
0.0
 40
0.0
 40
0.4813884775065231
 40
1.3325655942402799
 40
2.559491057254967
 40
2.559491057254967
 40
2.559491057254967
 10
4483.3999967775517
 20
1384.199999272902
 30
0.0
 10
4483.459261584394
 20
1384.2004449715539
 30
0.0
 10
4484.3034817008302
 20
1384.2067938958289
 30
0.0
 10
4485.1307775679588
 20
1384.4346858417271
 30
0.0
 10
4485.8999967216741
 20
1384.646579623296
 30
0.0
 11
4483.3999967775517
 21
1384.199999272902
 31
0.0
 11
4483.5206888783678
 21
1384.20090693311
 31
0.0
 11
4483.7642355671296
 21
1384.2027385164299
 31
0.0
 11
4484.2533839007083
 21
1384.2291158106436
 31
0.0
 11
4484.6423366340423
 21
1384.3001369344868
 31
0.0
 11
4485.2009721229078
 21
1384.4540220603092
 31
0.0
 11
4485.8999967216741
 21
1384.646579623296
 31
0.0
  0
SPLINE
  5
46C
100
AcDbEntity
  8
0
  6
CONTINUOUS
 62
           3
100
AcDbSpline
210
0.0
220
0.0
230
1.0
 70
           0
 71
           3
 72
           8
 73
           5
 74
           7
 42
0.00000000001
 43
0.00000000001
 44
0.00000000001
 40
0.0
 40
0.0
 40
0.0
 40
0.2779454797457392
 40
0.7862825386892675
 40
1.5429638907214747
 40
1.5429638907214747
 40
1.5429638907214747
 10
4481.5698696873451
 20
1367.599993944257
 30
0.0
 10
4481.6040862319214
 20
1367.600439636514
 30
0.0
 10
4482.09149695003
 20
1367.6067884711749
 30
0.0
 10
4482.5691364171944
 20
1367.8346843256779
 30
0.0
 10
4483.0132452878424
 20
1368.0465817452359
 30
0.0
 11
4481.5698696873451
 21
1367.599993944257
 31
0.0
 11
4481.6386061814947
 21
1367.6008892808168
 31
0.0
 11
4481.7763825747897
 21
1367.602683905983
 31
0.0
 11
4482.0607022116064
 21
1367.6286568402293
 31
0.0
 11
4482.2834323715761
 21
1367.698366512584
 31
0.0
 11
4482.6087376234518
 21
1367.8535792272937
 31
0.0
 11
4483.0132452878424
 21
1368.0465817452359
 31
0.0
  0
SPLINE
  5
46B
100
AcDbEntity
  8
0
  6
CONTINUOUS
 62
           3
100
AcDbSpline
210
0.0
220
0.0
230
1.0
 70
           0
 71
           3
 72
           8
 73
           5
 74
           7
 42
0.00000000001
 43
0.00000000001
 44
0.00000000001
 40
0.0
 40
0.0
 40
0.0
 40
0.2779464854381352
 40
0.7862840843779329
 40
1.5429642658585601
 40
1.5429642658585601
 40
1.5429642658585601
 10
4481.5698696873451
 20
1372.6000040770421
 30
0.0
 10
4481.5356531379812
 20
1372.59955838167
 30
0.0
 10
4481.0482404188797
 20
1372.593209477441
 30
0.0
 10
4480.5706019393401
 20
1372.365313693474
 30
0.0
 10
4480.1264938539707
 20
1372.15341627611
 30
0.0
 11
4481.5698696873451
 21
1372.6000040770421
 31
0.0
 11
4481.5011329415911
 21
1372.5991087310706
 31
0.0
 11
4481.363355803056
 21
1372.5973140839005
 31
0.0
 11
4481.0790354338642
 21
1372.5713410900573
 31
0.0
 11
4480.8563050946432
 21
1372.5016313214471
 31
0.0
 11
4480.5310007068238
 21
1372.3464187461263
 31
0.0
 11
4480.1264938539707
 21
1372.15341627611
 31
0.0
  0
SPLINE
  5
46A
100
AcDbEntity
  8
0
  6
CONTINUOUS
 62
           3
100
AcDbSpline
210
0.0
220
0.0
230
1.0
 70
           0
 71
           3
 72
           8
 73
           5
 74
           7
 42
0.00000000001
 43
0.00000000001
 44
0.00000000001
 40
0.0
 40
0.0
 40
0.0
 40
0.2779464854268638
 40
0.7862840843627721
 40
1.5429642658950784
 40
1.5429642658950784
 40
1.5429642658950784
 10
4490.2301237560032
 20
1367.599993944257
 30
0.0
 10
4490.2643403053617
 20
1367.600439639637
 30
0.0
 10
4490.7517530244513
 20
1367.6067885438649
 30
0.0
 10
4491.2293915039991
 20
1367.8346843278241
 30
0.0
 10
4491.6734995893639
 20
1368.046581745313
 30
0.0
 11
4490.2301237560032
 21
1367.599993944257
 31
0.0
 11
4490.2988605017508
 21
1367.6008892902344
 31
0.0
 11
4490.4366376402786
 21
1367.602683937406
 31
0.0
 11
4490.7209580094659
 21
1367.628656931247
 31
0.0
 11
4490.9436883486833
 21
1367.6983666998512
 31
0.0
 11
4491.2689927365118
 21
1367.8535792752032
 31
0.0
 11
4491.6734995893639
 21
1368.046581745313
 31
0.0
  0
SPLINE
  5
469
100
AcDbEntity
  8
0
  6
CONTINUOUS
 62
           3
100
AcDbSpline
210
0.0
220
0.0
230
1.0
 70
           0
 71
           3
 72
           8
 73
           5
 74
           7
 42
0.00000000001
 43
0.00000000001
 44
0.00000000001
 40
0.0
 40
0.0
 40
0.0
 40
0.2779454797516385
 40
0.7862825386956059
 40
1.5429638907289092
 40
1.5429638907289092
 40
1.5429638907289092
 10
4490.2301237560032
 20
1372.6000040770421
 30
0.0
 10
4490.1959072114232
 20
1372.599558384783
 30
0.0
 10
4489.7084964933101
 20
1372.593209550128
 30
0.0
 10
4489.2308570261521
 20
1372.36531369562
 30
0.0
 10
4488.7867481555004
 20
1372.1534162760629
 30
0.0
 11
4490.2301237560032
 21
1372.6000040770421
 31
0.0
 11
4490.16138726185
 21
1372.5991087404809
 31
0.0
 11
4490.0236108685503
 21
1372.5973141153161
 31
0.0
 11
4489.7392912317346
 21
1372.5713411810723
 31
0.0
 11
4489.5165610717668
 21
1372.5016315087171
 31
0.0
 11
4489.1912558198928
 21
1372.3464187940049
 31
0.0
 11
4488.7867481555004
 21
1372.1534162760629
 31
0.0
  0
SPLINE
  5
468
100
AcDbEntity
  8
0
  6
CONTINUOUS
 62
           3
100
AcDbSpline
210
0.0
220
0.0
230
1.0
 70
           0
 71
           3
 72
           8
 73
           5
 74
           7
 42
0.00000000001
 43
0.00000000001
 44
0.00000000001
 40
0.0
 40
0.0
 40
0.0
 40
0.7097107189136058
 40
1.6878556121189958
 40
2.9354150974126467
 40
2.9354150974126467
 40
2.9354150974126467
 10
4483.0132452878424
 20
1368.0465817452359
 30
0.0
 10
4483.2266018694927
 20
1367.986940602696
 30
0.0
 10
4484.1669045504614
 20
1367.724090842953
 30
0.0
 10
4485.1443418916824
 20
1367.654102099867
 30
0.0
 10
4485.8999967216741
 20
1367.599993944257
 30
0.0
 11
4483.0132452878424
 21
1368.0465817452359
 31
0.0
 11
4483.272107507798
 21
1367.9742200752132
 31
0.0
 11
4483.6219810043631
 21
1367.8764173502245
 31
0.0
 11
4484.1380638628525
 21
1367.754482866842
 31
0.0
 11
4484.5964653461269
 21
1367.6933324312372
 31
0.0
 11
4485.1962864627912
 21
1367.650382643807
 31
0.0
 11
4485.8999967216741
 21
1367.599993944257
 31
0.0
  0
SPLINE
  5
467
100
AcDbEntity
  8
0
  6
CONTINUOUS
 62
           3
100
AcDbSpline
210
0.0
220
0.0
230
1.0
 70
           0
 71
           3
 72
           8
 73
           5
 74
           7
 42
0.00000000001
 43
0.00000000001
 44
0.00000000001
 40
0.0
 40
0.0
 40
0.0
 40
0.7273681394902144
 40
1.7065914567873881
 40
2.9387223240295519
 40
2.9387223240295519
 40
2.9387223240295519
 10
4485.8999967216741
 20
1367.599993944257
 30
0.0
 10
4486.138719501032
 20
1367.6054734833269
 30
0.0
 10
4487.1156271469799
 20
1367.6278969974519
 30
0.0
 10
4488.0674888562417
 20
1367.866377620722
 30
0.0
 10
4488.7867481553621
 20
1368.046581745313
 30
0.0
 11
4485.8999967216741
 21
1367.599993944257
 31
0.0
 11
4486.1831310149728
 21
1367.6064928859437
 31
0.0
 11
4486.5550883361511
 21
1367.6150306328632
 31
0.0
 11
4487.0808673755109
 21
1367.6510811733849
 31
0.0
 11
4487.5371268719309
 21
1367.7335000657718
 31
0.0
 11
4488.1147131849448
 21
1367.8782092631322
 31
0.0
 11
4488.7867481553621
 21
1368.046581745313
 31
0.0
  0
SPLINE
  5
466
100
AcDbEntity
  8
0
  6
CONTINUOUS
 62
           3
100
AcDbSpline
210
0.0
220
0.0
230
1.0
 70
           0
 71
           3
 72
           8
 73
           5
 74
           7
 42
0.00000000001
 43
0.00000000001
 44
0.00000000001
 40
0.0
 40
0.0
 40
0.0
 40
1.2321308673581652
 40
2.2113541846551565
 40
2.9387223241453735
 40
2.9387223241453735
 40
2.9387223241453735
 10
4488.7867481555004
 20
1372.1534162760629
 30
0.0
 10
4488.0674888562417
 20
1372.33362040058
 30
0.0
 10
4487.1156271469799
 20
1372.572101023849
 30
0.0
 10
4486.138719501032
 20
1372.5945245379701
 30
0.0
 10
4485.8999967216741
 20
1372.6000040770421
 30
0.0
 11
4488.7867481555004
 21
1372.1534162760629
 31
0.0
 11
4488.114713184973
 21
1372.3217887581895
 31
0.0
 11
4487.5371268719082
 21
1372.466497955535
 31
0.0
 11
4487.0808673755055
 21
1372.5489168479171
 31
0.0
 11
4486.555088336152
 21
1372.5849673884354
 31
0.0
 11
4486.1831310149719
 21
1372.5935051353545
 31
0.0
 11
4485.8999967216741
 21
1372.6000040770421
 31
0.0
  0
SPLINE
  5
465
100
AcDbEntity
  8
0
  6
CONTINUOUS
 62
           3
100
AcDbSpline
210
0.0
220
0.0
230
1.0
 70
           0
 71
           3
 72
           8
 73
           5
 74
           7
 42
0.00000000001
 43
0.00000000001
 44
0.00000000001
 40
0.0
 40
0.0
 40
0.0
 40
1.2475616964940404
 40
2.2257084622431464
 40
2.9354211178805834
 40
2.9354211178805834
 40
2.9354211178805834
 10
4485.8999967216741
 20
1372.6000040770421
 30
0.0
 10
4485.144340064252
 20
1372.5459088094731
 30
0.0
 10
4484.1668989125819
 20
1372.4759366334699
 30
0.0
 10
4483.2266017037609
 20
1372.213063111162
 30
0.0
 10
4483.0132452878424
 20
1372.1534162760629
 30
0.0
 11
4485.8999967216741
 21
1372.6000040770421
 31
0.0
 11
4485.1962845668022
 21
1372.5496273656938
 31
0.0
 11
4484.5964614170316
 21
1372.506687766788
 31
0.0
 11
4484.13805949163
 21
1372.4455393603089
 31
0.0
 11
4483.6219787243263
 21
1372.3235964075075
 31
0.0
 11
4483.2721068549226
 21
1372.2257847264734
 31
0.0
 11
4483.0132452878424
 21
1372.1534162760629
 31
0.0
  0
SPLINE
  5
464
100
AcDbEntity
  8
0
  6
CONTINUOUS
 62
           3
100
AcDbSpline
210
0.0
220
0.0
230
1.0
 70
           0
 71
           3
 72
           8
 73
           5
 74
           7
 42
0.00000000001
 43
0.00000000001
 44
0.00000000001
 40
0.0
 40
0.0
 40
0.0
 40
0.2779452695537046
 40
0.7862805426562334
 40
1.5429573554964162
 40
1.5429573554964162
 40
1.5429573554964162
 10
4481.5698696873451
 20
1372.6000040770421
 30
0.0
 10
4481.6040862308719
 20
1372.600449781811
 30
0.0
 10
4482.0914965280817
 20
1372.606798789368
 30
0.0
 10
4482.5691362283624
 20
1372.834686833085
 30
0.0
 10
4483.0132452878424
 20
1373.0465769768609
 30
0.0
 11
4481.5698696873451
 21
1372.6000040770421
 31
0.0
 11
4481.6386062202846
 21
1372.6008994392655
 31
0.0
 11
4481.7763827320459
 21
1372.6026941163977
 31
0.0
 11
4482.0607020292236
 21
1372.6286663808428
 31
0.0
 11
4482.2834323286843
 21
1372.6983738282368
 31
0.0
 11
4482.6087375183124
 21
1372.8535811178169
 31
0.0
 11
4483.0132452878424
 21
1373.0465769768609
 31
0.0
  0
SPLINE
  5
463
100
AcDbEntity
  8
0
  6
CONTINUOUS
 62
           3
100
AcDbSpline
210
0.0
220
0.0
230
1.0
 70
           0
 71
           3
 72
           8
 73
           5
 74
           7
 42
0.00000000001
 43
0.00000000001
 44
0.00000000001
 40
0.0
 40
0.0
 40
0.0
 40
0.2779463803332843
 40
0.7862830863403907
 40
1.5429609982613979
 40
1.5429609982613979
 40
1.5429609982613979
 10
4481.5698696873451
 20
1377.5999993086671
 30
0.0
 10
4481.5356531385041
 20
1377.5995536070379
 30
0.0
 10
4481.0482406298734
 20
1377.593204616358
 30
0.0
 10
4480.5706020337611
 20
1377.3653127377879
 30
0.0
 10
4480.1264938539707
 20
1377.153418958206
 30
0.0
 11
4481.5698696873451
 21
1377.5999993086671
 31
0.0
 11
4481.501132922197
 21
1377.5991039498631
 31
0.0
 11
4481.3633557244348
 21
1377.5973092767085
 31
0.0
 11
4481.0790355250729
 21
1377.5713366177663
 31
0.0
 11
4480.8563051161109
 21
1377.5016279616407
 31
0.0
 11
4480.5310007594007
 21
1377.3464180988556
 31
0.0
 11
4480.1264938539707
 21
1377.153418958206
 31
0.0
  0
SPLINE
  5
462
100
AcDbEntity
  8
0
  6
CONTINUOUS
 62
           3
100
AcDbSpline
210
0.0
220
0.0
230
1.0
 70
           0
 71
           3
 72
           8
 73
           5
 74
           7
 42
0.00000000001
 43
0.00000000001
 44
0.00000000001
 40
0.0
 40
0.0
 40
0.0
 40
0.2779462752402296
 40
0.7862820883280135
 40
1.5429577306520152
 40
1.5429577306520152
 40
1.5429577306520152
 10
4490.2301237560032
 20
1372.6000040770421
 30
0.0
 10
4490.2643403043221
 20
1372.600449784929
 30
0.0
 10
4490.751752602504
 20
1372.606798862053
 30
0.0
 10
4491.2293913151634
 20
1372.8346868352351
 30
0.0
 10
4491.6734995893639
 20
1373.046576976913
 30
0.0
 11
4490.2301237560032
 21
1372.6000040770421
 31
0.0
 11
4490.298860540548
 21
1372.600899448679
 31
0.0
 11
4490.4366377975457
 21
1372.602694147816
 31
0.0
 11
4490.7209578270867
 21
1372.6286664718552
 31
0.0
 11
4490.9436883057915
 21
1372.6983740154992
 31
0.0
 11
4491.2689926313706
 21
1372.8535811657207
 31
0.0
 11
4491.6734995893639
 21
1373.046576976913
 31
0.0
  0
SPLINE
  5
461
100
AcDbEntity
  8
0
  6
CONTINUOUS
 62
           3
100
AcDbSpline
210
0.0
220
0.0
230
1.0
 70
           0
 71
           3
 72
           8
 73
           5
 74
           7
 42
0.00000000001
 43
0.00000000001
 44
0.00000000001
 40
0.0
 40
0.0
 40
0.0
 40
0.2779453746522337
 40
0.7862815406660644
 40
1.542960623091163
 40
1.542960623091163
 40
1.542960623091163
 10
4490.2301237560032
 20
1377.5999993086671
 30
0.0
 10
4490.1959072119489
 20
1377.5995536101509
 30
0.0
 10
4489.7084967042902
 20
1377.5932046890459
 30
0.0
 10
4489.2308571205731
 20
1377.365312739938
 30
0.0
 10
4488.7867481555004
 20
1377.153418958268
 30
0.0
 11
4490.2301237560032
 21
1377.5999993086671
 31
0.0
 11
4490.1613872424568
 21
1377.5991039592734
 31
0.0
 11
4490.0236107899245
 21
1377.5973093081243
 31
0.0
 11
4489.7392913229314
 21
1377.5713367087808
 31
0.0
 11
4489.516561093219
 21
1377.501628148907
 31
0.0
 11
4489.1912558724662
 21
1377.3464181467627
 31
0.0
 11
4488.7867481555004
 21
1377.153418958268
 31
0.0
  0
SPLINE
  5
460
100
AcDbEntity
  8
0
  6
CONTINUOUS
 62
           3
100
AcDbSpline
210
0.0
220
0.0
230
1.0
 70
           0
 71
           3
 72
           8
 73
           5
 74
           7
 42
0.00000000001
 43
0.00000000001
 44
0.00000000001
 40
0.0
 40
0.0
 40
0.0
 40
0.7097104926823025
 40
1.6878550560200076
 40
2.9354142011759956
 40
2.9354142011759956
 40
2.9354142011759956
 10
4483.0132452878424
 20
1373.0465769768609
 30
0.0
 10
4483.2266018489527
 20
1372.9869356693489
 30
0.0
 10
4484.166903851652
 20
1372.7240853468579
 30
0.0
 10
4485.1443416651709
 20
1372.654105412621
 30
0.0
 10
4485.8999967216741
 20
1372.6000040770421
 30
0.0
 11
4483.0132452878424
 21
1373.0465769768609
 31
0.0
 11
4483.2721074221508
 21
1372.9742151236569
 31
0.0
 11
4483.6219807028574
 21
1372.8764121790696
 31
0.0
 11
4484.1380633113722
 21
1372.7544784200809
 31
0.0
 11
4484.5964648393274
 21
1372.6933308075384
 31
0.0
 11
4485.1962862228365
 21
1372.6503864274557
 31
0.0
 11
4485.8999967216741
 21
1372.6000040770421
 31
0.0
  0
SPLINE
  5
45F
100
AcDbEntity
  8
0
  6
CONTINUOUS
 62
           3
100
AcDbSpline
210
0.0
220
0.0
230
1.0
 70
           0
 71
           3
 72
           8
 73
           5
 74
           7
 42
0.00000000001
 43
0.00000000001
 44
0.00000000001
 40
0.0
 40
0.0
 40
0.0
 40
0.7273675739550281
 40
1.7065896374621783
 40
2.9387184666012982
 40
2.9387184666012982
 40
2.9387184666012982
 10
4485.8999967216741
 20
1372.6000040770421
 30
0.0
 10
4486.1387194651552
 20
1372.6054838012651
 30
0.0
 10
4487.1156260260914
 20
1372.6279080515201
 30
0.0
 10
4488.0674885010521
 20
1372.866379694286
 30
0.0
 10
4488.7867481553621
 20
1373.046576976913
 30
0.0
 11
4485.8999967216741
 21
1372.6000040770421
 31
0.0
 11
4486.1831309024892
 21
1372.6065032367194
 31
0.0
 11
4486.5550879579732
 21
1372.615041267306
 31
0.0
 11
4487.0808665470086
 21
1372.651091133866
 31
0.0
 11
4487.5371261778791
 21
1372.7335071651178
 31
0.0
 11
4488.1147128338362
 21
1372.8782108826506
 31
0.0
 11
4488.7867481553621
 21
1373.046576976913
 31
0.0
  0
SPLINE
  5
45E
100
AcDbEntity
  8
0
  6
CONTINUOUS
 62
           3
100
AcDbSpline
210
0.0
220
0.0
230
1.0
 70
           0
 71
           3
 72
           8
 73
           5
 74
           7
 42
0.00000000001
 43
0.00000000001
 44
0.00000000001
 40
0.0
 40
0.0
 40
0.0
 40
1.2321298483011158
 40
2.2113525386976161
 40
2.9387203954167047
 40
2.9387203954167047
 40
2.9387203954167047
 10
4488.7867481555004
 20
1377.153418958268
 30
0.0
 10
4488.0674886786428
 20
1377.333619661817
 30
0.0
 10
4487.115626586532
 20
1377.572095794834
 30
0.0
 10
4486.1387194830904
 20
1377.5945196770231
 30
0.0
 10
4485.8999967216741
 20
1377.5999993086671
 30
0.0
 11
4488.7867481555004
 21
1377.153418958268
 31
0.0
 11
4488.1147130094159
 21
1377.3217882464455
 31
0.0
 11
4487.5371265248787
 21
1377.4664947038809
 31
0.0
 11
4487.0808669612497
 21
1377.5489121656958
 31
0.0
 11
4486.555088147059
 21
1377.5849623692347
 31
0.0
 11
4486.1831309587287
 21
1377.593500257987
 31
0.0
 11
4485.8999967216741
 21
1377.5999993086671
 31
0.0
  0
SPLINE
  5
45D
100
AcDbEntity
  8
0
  6
CONTINUOUS
 62
           3
100
AcDbSpline
210
0.0
220
0.0
230
1.0
 70
           0
 71
           3
 72
           8
 73
           5
 74
           7
 42
0.00000000001
 43
0.00000000001
 44
0.00000000001
 40
0.0
 40
0.0
 40
0.0
 40
1.2475604207866644
 40
2.2257060852960207
 40
2.9354176594314008
 40
2.9354176594314008
 40
2.9354176594314008
 10
4485.8999967216741
 20
1377.5999993086671
 30
0.0
 10
4485.144340864721
 20
1377.545901007107
 30
0.0
 10
4484.1669013821602
 20
1377.4759249520071
 30
0.0
 10
4483.2266017763613
 20
1377.213063029573
 30
0.0
 10
4483.0132452878424
 20
1377.153418958268
 30
0.0
 11
4485.8999967216741
 21
1377.5999993086671
 31
0.0
 11
4485.1962853948307
 21
1377.5496197777993
 31
0.0
 11
4484.5964631282068
 21
1377.5066777883171
 31
0.0
 11
4484.1380614015352
 21
1377.4455297788074
 31
0.0
 11
4483.6219797136127
 21
1377.323591422899
 31
0.0
 11
4483.2721071385449
 21
1377.2257841100784
 31
0.0
 11
4483.0132452878424
 21
1377.153418958268
 31
0.0
  0
SPLINE
  5
45C
100
AcDbEntity
  8
0
  6
CONTINUOUS
 62
           3
100
AcDbSpline
210
0.0
220
0.0
230
1.0
 70
           0
 71
           3
 72
           8
 73
           5
 74
           7
 42
0.00000000001
 43
0.00000000001
 44
0.00000000001
 40
0.0
 40
0.0
 40
0.0
 40
0.2779454797457199
 40
0.7862825386900493
 40
1.5429638907218159
 40
1.5429638907218159
 40
1.5429638907218159
 10
4481.5698696873451
 20
1359.999999404049
 30
0.0
 10
4481.6040862319214
 20
1360.000445096307
 30
0.0
 10
4482.09149695003
 20
1360.0067939309631
 30
0.0
 10
4482.5691364171944
 20
1360.23468978547
 30
0.0
 10
4483.0132452878424
 20
1360.446587205025
 30
0.0
 11
4481.5698696873451
 21
1359.999999404049
 31
0.0
 11
4481.6386061814947
 21
1360.0008947406095
 31
0.0
 11
4481.7763825747897
 21
1360.0026893657744
 31
0.0
 11
4482.0607022116064
 21
1360.0286623000186
 31
0.0
 11
4482.2834323715761
 21
1360.0983719723738
 31
0.0
 11
4482.6087376234518
 21
1360.2535846870846
 31
0.0
 11
4483.0132452878424
 21
1360.446587205025
 31
0.0
  0
SPLINE
  5
45B
100
AcDbEntity
  8
0
  6
CONTINUOUS
 62
           3
100
AcDbSpline
210
0.0
220
0.0
230
1.0
 70
           0
 71
           3
 72
           8
 73
           5
 74
           7
 42
0.00000000001
 43
0.00000000001
 44
0.00000000001
 40
0.0
 40
0.0
 40
0.0
 40
0.2779462752383783
 40
0.7862820883298676
 40
1.542957730615254
 40
1.542957730615254
 40
1.542957730615254
 10
4481.5698696873451
 20
1364.9999946356729
 30
0.0
 10
4481.5356531390307
 20
1364.9995489277901
 30
0.0
 10
4481.0482408408434
 20
1364.9931998506629
 30
0.0
 10
4480.5706021281803
 20
1364.765311877484
 30
0.0
 10
4480.1264938539707
 20
1364.553421735917
 30
0.0
 11
4481.5698696873451
 21
1364.9999946356729
 31
0.0
 11
4481.501132902803
 21
1364.9990992640387
 31
0.0
 11
4481.3633556458062
 21
1364.9973045649019
 31
0.0
 11
4481.0790356162606
 21
1364.9713322408606
 31
0.0
 11
4480.8563051375477
 21
1364.9016246972149
 31
0.0
 11
4480.5310008119704
 21
1364.746417547025
 31
0.0
 11
4480.1264938539707
 21
1364.553421735917
 31
0.0
  0
SPLINE
  5
45A
100
AcDbEntity
  8
0
  6
CONTINUOUS
 62
           3
100
AcDbSpline
210
0.0
220
0.0
230
1.0
 70
           0
 71
           3
 72
           8
 73
           5
 74
           7
 42
0.00000000001
 43
0.00000000001
 44
0.00000000001
 40
0.0
 40
0.0
 40
0.0
 40
0.2779464854684877
 40
0.7862840844049908
 40
1.5429642659457175
 40
1.5429642659457175
 40
1.5429642659457175
 10
4490.2301237559632
 20
1359.9999994039219
 30
0.0
 10
4490.2643403053617
 20
1360.000445099425
 30
0.0
 10
4490.7517530244513
 20
1360.006794003654
 30
0.0
 10
4491.2293915039991
 20
1360.2346897876159
 30
0.0
 10
4491.6734995893639
 20
1360.446587205123
 30
0.0
 11
4490.2301237559632
 21
1359.9999994039219
 31
0.0
 11
4490.2988605017454
 21
1360.0008947499919
 31
0.0
 11
4490.436637640295
 21
1360.0026893971947
 31
0.0
 11
4490.7209580094695
 21
1360.0286623910358
 31
0.0
 11
4490.9436883486815
 21
1360.0983721596413
 31
0.0
 11
4491.2689927365109
 21
1360.2535847349991
 31
0.0
 11
4491.6734995893639
 21
1360.446587205123
 31
0.0
  0
SPLINE
  5
459
100
AcDbEntity
  8
0
  6
CONTINUOUS
 62
           3
100
AcDbSpline
210
0.0
220
0.0
230
1.0
 70
           0
 71
           3
 72
           8
 73
           5
 74
           7
 42
0.00000000001
 43
0.00000000001
 44
0.00000000001
 40
0.0
 40
0.0
 40
0.0
 40
0.2779452695532114
 40
0.7862805426561053
 40
1.5429573555012133
 40
1.5429573555012133
 40
1.5429573555012133
 10
4490.2301237560032
 20
1364.9999946356729
 30
0.0
 10
4490.1959072124728
 20
1364.999548930904
 30
0.0
 10
4489.7084969152711
 20
1364.9931999233529
 30
0.0
 10
4489.2308572149814
 20
1364.7653118796341
 30
0.0
 10
4488.7867481555004
 20
1364.553421735859
 30
0.0
 11
4490.2301237560032
 21
1364.9999946356729
 31
0.0
 11
4490.1613872230628
 21
1364.9990992734499
 31
0.0
 11
4490.0236107113014
 21
1364.9973045963193
 31
0.0
 11
4489.7392914141274
 21
1364.971332331877
 31
0.0
 11
4489.5165611146658
 21
1364.9016248844837
 31
0.0
 11
4489.1912559250322
 21
1364.7464175949026
 31
0.0
 11
4488.7867481555004
 21
1364.553421735859
 31
0.0
  0
SPLINE
  5
458
100
AcDbEntity
  8
0
  6
CONTINUOUS
 62
           3
100
AcDbSpline
210
0.0
220
0.0
230
1.0
 70
           0
 71
           3
 72
           8
 73
           5
 74
           7
 42
0.00000000001
 43
0.00000000001
 44
0.00000000001
 40
0.0
 40
0.0
 40
0.0
 40
0.7097126556366102
 40
1.6878594213857387
 40
2.9354211178797707
 40
2.9354211178797707
 40
2.9354211178797707
 10
4483.0132452878424
 20
1360.446587205025
 30
0.0
 10
4483.2266017037609
 20
1360.3869403699291
 30
0.0
 10
4484.1668989125819
 20
1360.124066847621
 30
0.0
 10
4485.144340064252
 20
1360.054094671618
 30
0.0
 10
4485.8999967216741
 20
1359.999999404049
 30
0.0
 11
4483.0132452878424
 21
1360.446587205025
 31
0.0
 11
4483.2721068549226
 21
1360.3742187546168
 31
0.0
 11
4483.6219787243263
 21
1360.2764070735834
 31
0.0
 11
4484.1380594916309
 21
1360.154464120782
 31
0.0
 11
4484.5964614170316
 21
1360.0933157143027
 31
0.0
 11
4485.1962845668022
 21
1360.0503761153968
 31
0.0
 11
4485.8999967216741
 21
1359.999999404049
 31
0.0
  0
SPLINE
  5
457
100
AcDbEntity
  8
0
  6
CONTINUOUS
 62
           3
100
AcDbSpline
210
0.0
220
0.0
230
1.0
 70
           0
 71
           3
 72
           8
 73
           5
 74
           7
 42
0.00000000001
 43
0.00000000001
 44
0.00000000001
 40
0.0
 40
0.0
 40
0.0
 40
0.7273681394901673
 40
1.706591456787341
 40
2.9387223240343676
 40
2.9387223240343676
 40
2.9387223240343676
 10
4485.8999967216741
 20
1359.999999404049
 30
0.0
 10
4486.138719501032
 20
1360.0054789431169
 30
0.0
 10
4487.1156271469799
 20
1360.0279024572419
 30
0.0
 10
4488.0674888562417
 20
1360.266383080512
 30
0.0
 10
4488.7867481553621
 20
1360.446587205123
 30
0.0
 11
4485.8999967216741
 21
1359.999999404049
 31
0.0
 11
4486.1831310149719
 21
1360.0064983457339
 31
0.0
 11
4486.5550883361511
 21
1360.0150360926532
 31
0.0
 11
4487.0808673755109
 21
1360.0510866331747
 31
0.0
 11
4487.53712687193
 21
1360.1335055255618
 31
0.0
 11
4488.1147131849439
 21
1360.2782147229273
 31
0.0
 11
4488.7867481553621
 21
1360.446587205123
 31
0.0
  0
SPLINE
  5
456
100
AcDbEntity
  8
0
  6
CONTINUOUS
 62
           3
100
AcDbSpline
210
0.0
220
0.0
230
1.0
 70
           0
 71
           3
 72
           8
 73
           5
 74
           7
 42
0.00000000001
 43
0.00000000001
 44
0.00000000001
 40
0.0
 40
0.0
 40
0.0
 40
1.2321288292600956
 40
2.2113508927675181
 40
2.9387184667224284
 40
2.9387184667224284
 40
2.9387184667224284
 10
4488.7867481555004
 20
1364.553421735859
 30
0.0
 10
4488.0674885010521
 20
1364.733619018431
 30
0.0
 10
4487.1156260260914
 20
1364.972090661199
 30
0.0
 10
4486.1387194651552
 20
1364.994514911456
 30
0.0
 10
4485.8999967216741
 20
1364.9999946356729
 30
0.0
 11
4488.7867481555004
 21
1364.553421735859
 31
0.0
 11
4488.1147128338653
 21
1364.7217878300819
 31
0.0
 11
4487.5371261778564
 21
1364.8664915476061
 31
0.0
 11
4487.0808665470031
 21
1364.9489075788547
 31
0.0
 11
4486.5550879579732
 21
1364.9849574454142
 31
0.0
 11
4486.1831309024892
 21
1364.9934954759997
 31
0.0
 11
4485.8999967216741
 21
1364.9999946356729
 31
0.0
  0
SPLINE
  5
455
100
AcDbEntity
  8
0
  6
CONTINUOUS
 62
           3
100
AcDbSpline
210
0.0
220
0.0
230
1.0
 70
           0
 71
           3
 72
           8
 73
           5
 74
           7
 42
0.00000000001
 43
0.00000000001
 44
0.00000000001
 40
0.0
 40
0.0
 40
0.0
 40
1.2475591451559556
 40
2.2257037084936284
 40
2.9354142011748285
 40
2.9354142011748285
 40
2.9354142011748285
 10
4485.8999967216741
 20
1364.9999946356729
 30
0.0
 10
4485.1443416651709
 20
1364.945893300094
 30
0.0
 10
4484.166903851652
 20
1364.875913365858
 30
0.0
 10
4483.2266018489527
 20
1364.613063043367
 30
0.0
 10
4483.0132452878424
 20
1364.553421735859
 30
0.0
 11
4485.8999967216741
 21
1364.9999946356729
 31
0.0
 11
4485.1962862228356
 21
1364.9496122852597
 31
0.0
 11
4484.5964648393274
 21
1364.9066679051771
 31
0.0
 11
4484.1380633113722
 21
1364.8455202926348
 31
0.0
 11
4483.6219807028565
 21
1364.7235865336461
 31
0.0
 11
4483.2721074221508
 21
1364.6257835890597
 31
0.0
 11
4483.0132452878424
 21
1364.553421735859
 31
0.0
  0
SPLINE
  5
454
100
AcDbEntity
  8
0
  6
CONTINUOUS
 62
           3
100
AcDbSpline
210
0.0
220
0.0
230
1.0
 70
           0
 71
           3
 72
           8
 73
           5
 74
           7
 42
0.00000000001
 43
0.00000000001
 44
0.00000000001
 40
0.0
 40
0.0
 40
0.0
 40
0.277946485465159
 40
0.7862840844016947
 40
1.5429642659217619
 40
1.5429642659217619
 40
1.5429642659217619
 10
4490.2301237559632
 20
1359.9999994039219
 30
0.0
 10
4490.2643403053617
 20
1359.999553708677
 30
0.0
 10
4490.7517530244513
 20
1359.9932048044429
 30
0.0
 10
4491.2293915039991
 20
1359.765309020481
 30
0.0
 10
4491.6734995893639
 20
1359.5534116030219
 30
0.0
 11
4490.2301237559632
 21
1359.9999994039219
 31
0.0
 11
4490.2988605017454
 21
1359.9991040580455
 31
0.0
 11
4490.4366376402941
 21
1359.9973094109055
 31
0.0
 11
4490.7209580094705
 21
1359.9713364170616
 31
0.0
 11
4490.9436883486851
 21
1359.9016266484543
 31
0.0
 11
4491.2689927365118
 21
1359.7464140731095
 31
0.0
 11
4491.6734995893639
 21
1359.5534116030219
 31
0.0
  0
SPLINE
  5
453
100
AcDbEntity
  8
0
  6
CONTINUOUS
 62
           3
100
AcDbSpline
210
0.0
220
0.0
230
1.0
 70
           0
 71
           3
 72
           8
 73
           5
 74
           7
 42
0.00000000001
 43
0.00000000001
 44
0.00000000001
 40
0.0
 40
0.0
 40
0.0
 40
0.3778155284981008
 40
0.8942062233974729
 40
1.5357514174685534
 40
1.5357514174685534
 40
1.5357514174685534
 10
4480.1264938539707
 20
1359.5534116030219
 30
0.0
 10
4480.2210118970324
 20
1359.6064716909059
 30
0.0
 10
4480.6908817948997
 20
1359.8702450113749
 30
0.0
 10
4481.1795227343018
 20
1359.9423771862
 30
0.0
 10
4481.5698696873451
 20
1359.999999404049
 30
0.0
 11
4480.1264938539707
 21
1359.5534116030219
 31
0.0
 11
4480.2470141544045
 21
1359.6210687140283
 31
0.0
 11
4480.4195389695833
 21
1359.7179198712797
 31
0.0
 11
4480.6775244143264
 21
1359.8402057052372
 31
0.0
 11
4480.9087950979228
 21
1359.9024129269196
 31
0.0
 11
4481.2094275634672
 21
1359.9467916758422
 31
0.0
 11
4481.5698696873451
 21
1359.999999404049
 31
0.0
  0
SPLINE
  5
452
100
AcDbEntity
  8
0
  6
CONTINUOUS
 62
           3
100
AcDbSpline
210
0.0
220
0.0
230
1.0
 70
           0
 71
           3
 72
           8
 73
           5
 74
           7
 42
0.00000000001
 43
0.00000000001
 44
0.00000000001
 40
0.0
 40
0.0
 40
0.0
 40
0.6415450374775127
 40
1.1579303686104754
 40
1.53573817490679
 40
1.53573817490679
 40
1.53573817490679
 10
4481.5698696873451
 20
1355.000004172422
 30
0.0
 10
4481.1795237086108
 20
1355.057633693878
 30
0.0
 10
4480.6908846293591
 20
1355.129774916885
 30
0.0
 10
4480.2210119621132
 20
1355.393522448258
 30
0.0
 10
4480.1264938539707
 20
1355.446577072224
 30
0.0
 11
4481.5698696873451
 21
1355.000004172422
 31
0.0
 11
4481.2094282457019
 21
1355.0532186768012
 31
0.0
 11
4480.908795878242
 21
1355.0976031470268
 31
0.0
 11
4480.6775260473187
 21
1355.1598096979631
 31
0.0
 11
4480.4195390523137
 21
1355.282085811056
 31
0.0
 11
4480.2470142076272
 21
1355.3789269449489
 31
0.0
 11
4480.1264938539707
 21
1355.446577072224
 31
0.0
  0
SPLINE
  5
451
100
AcDbEntity
  8
0
  6
CONTINUOUS
 62
           3
100
AcDbSpline
210
0.0
220
0.0
230
1.0
 70
           0
 71
           3
 72
           8
 73
           5
 74
           7
 42
0.00000000001
 43
0.00000000001
 44
0.00000000001
 40
0.0
 40
0.0
 40
0.0
 40
0.3539460334937832
 40
0.8643414136589578
 40
1.5431068113987774
 40
1.5431068113987774
 40
1.5431068113987774
 10
4481.5698696873451
 20
1359.999999404049
 30
0.0
 10
4481.6793238424207
 20
1359.9953935078311
 30
0.0
 10
4482.1676816710424
 20
1359.97484311874
 30
0.0
 10
4482.6438213484444
 20
1359.7375336343539
 30
0.0
 10
4483.0132452879689
 20
1359.5534116030219
 30
0.0
 11
4481.5698696873451
 21
1359.999999404049
 31
0.0
 11
4481.7019556855794
 21
1359.9944411463553
 31
0.0
 11
4481.8793053701302
 21
1359.9869781657098
 31
0.0
 11
4482.1466781413856
 21
1359.9524131949256
 31
0.0
 11
4482.3720438533264
 21
1359.8729883765129
 31
0.0
 11
4482.668232959546
 21
1359.7253668120607
 31
0.0
 11
4483.0132452879689
 21
1359.5534116030219
 31
0.0
  0
SPLINE
  5
450
100
AcDbEntity
  8
0
  6
CONTINUOUS
 62
           3
100
AcDbSpline
210
0.0
220
0.0
230
1.0
 70
           0
 71
           3
 72
           8
 73
           5
 74
           7
 42
0.00000000001
 43
0.00000000001
 44
0.00000000001
 40
0.0
 40
0.0
 40
0.0
 40
0.6787700534931441
 40
1.1891668948827703
 40
1.5431123743450406
 40
1.5431123743450406
 40
1.5431123743450406
 10
4483.0132452878424
 20
1355.4465770722429
 30
0.0
 10
4482.6438214744021
 20
1355.262448371607
 30
0.0
 10
4482.1676820506209
 20
1355.025130336785
 30
0.0
 10
4481.6793238525834
 20
1355.0046045512611
 30
0.0
 10
4481.5698696873451
 20
1355.000004172422
 30
0.0
 11
4483.0132452878424
 21
1355.4465770722429
 31
0.0
 11
4482.6682329736359
 21
1355.2746155830077
 31
0.0
 11
4482.3720436578978
 21
1355.1269885165739
 31
0.0
 11
4482.1466781919453
 21
1355.0475647466094
 31
0.0
 11
4481.8793050086406
 21
1355.0130097962933
 31
0.0
 11
4481.7019556002879
 21
1355.0055557678093
 31
0.0
 11
4481.5698696873451
 21
1355.000004172422
 31
0.0
  0
SPLINE
  5
44F
100
AcDbEntity
  8
0
  6
CONTINUOUS
 62
           3
100
AcDbSpline
210
0.0
220
0.0
230
1.0
 70
           0
 71
           3
 72
           8
 73
           5
 74
           7
 42
0.00000000001
 43
0.00000000001
 44
0.00000000001
 40
0.0
 40
0.0
 40
0.0
 40
0.2779452695532307
 40
0.786280542656829
 40
1.542957355619657
 40
1.542957355619657
 40
1.542957355619657
 10
4490.2301237560032
 20
1355.000004172422
 30
0.0
 10
4490.1959072124728
 20
1355.0004498771909
 30
0.0
 10
4489.7084969152711
 20
1355.006798884745
 30
0.0
 10
4489.2308572149814
 20
1355.234686928467
 30
0.0
 10
4488.7867481553621
 20
1355.446577072224
 30
0.0
 11
4490.2301237560032
 21
1355.000004172422
 31
0.0
 11
4490.1613872230628
 21
1355.0008995346452
 31
0.0
 11
4490.0236107113014
 21
1355.0026942117768
 31
0.0
 11
4489.739291414131
 21
1355.0286664762184
 31
0.0
 11
4489.5165611146831
 21
1355.0983739236069
 31
0.0
 11
4489.1912559250031
 21
1355.2535812131914
 31
0.0
 11
4488.7867481553621
 21
1355.446577072224
 31
0.0
  0
SPLINE
  5
44E
100
AcDbEntity
  8
0
  6
CONTINUOUS
 62
           3
100
AcDbSpline
210
0.0
220
0.0
230
1.0
 70
           0
 71
           3
 72
           8
 73
           5
 74
           7
 42
0.00000000001
 43
0.00000000001
 44
0.00000000001
 40
0.0
 40
0.0
 40
0.0
 40
0.555855849069223
 40
1.5343195422050351
 40
2.9385037456645526
 40
2.9385037456645526
 40
2.9385037456645526
 10
4485.8999967216741
 20
1355.000004172322
 30
0.0
 10
4485.8315636362904
 20
1355.0004498783021
 30
0.0
 10
4484.8567416872402
 20
1355.006798910669
 30
0.0
 10
4483.901462916263
 20
1355.234686929231
 30
0.0
 10
4483.0132452878424
 20
1355.4465770722429
 30
0.0
 11
4485.8999967216741
 21
1355.000004172322
 31
0.0
 11
4485.7603818762454
 21
1355.0009134863221
 31
0.0
 11
4485.4784035107259
 21
1355.0027500163633
 31
0.0
 11
4484.9140828960144
 21
1355.0291829422192
 31
0.0
 11
4484.4644446988514
 21
1355.1003839311757
 31
0.0
 11
4483.8201539548045
 21
1355.2540837154702
 31
0.0
 11
4483.0132452878424
 21
1355.4465770722429
 31
0.0
  0
SPLINE
  5
44D
100
AcDbEntity
  8
0
  6
CONTINUOUS
 62
           3
100
AcDbSpline
210
0.0
220
0.0
230
1.0
 70
           0
 71
           3
 72
           8
 73
           5
 74
           7
 42
0.00000000001
 43
0.00000000001
 44
0.00000000001
 40
0.0
 40
0.0
 40
0.0
 40
0.5558562714147144
 40
1.5343210643708129
 40
2.9385072682919553
 40
2.9385072682919553
 40
2.9385072682919553
 10
4485.8999967216741
 20
1359.999999404049
 30
0.0
 10
4485.9684298091424
 20
1359.999553710677
 30
0.0
 10
4486.9432526000228
 20
1359.9932048512139
 30
0.0
 10
4487.8985309047421
 20
1359.7653090218639
 30
0.0
 10
4488.7867481555004
 20
1359.553411603069
 30
0.0
 11
4485.8999967216741
 21
1359.999999404049
 31
0.0
 11
4486.0396116244046
 21
1359.9990901152983
 31
0.0
 11
4486.3215901576586
 21
1359.99725363579
 31
0.0
 11
4486.8859111712845
 21
1359.9708199944771
 31
0.0
 11
4487.3355493274357
 21
1359.8996166396912
 31
0.0
 11
4487.9798398231051
 21
1359.7459115716219
 31
0.0
 11
4488.7867481555004
 21
1359.553411603069
 31
0.0
  0
CIRCLE
  5
44C
100
AcDbEntity
  8
1
  6
CONTINUOUS
 62
           4
100
AcDbCircle
 10
3655.000000000001
 20
1500.000000000002
 40
40.0
  0
CIRCLE
  5
44B
100
AcDbEntity
  8
1
  6
CONTINUOUS
 62
           4
100
AcDbCircle
 10
3655.000000000001
 20
1500.000000000002
 40
10.0
  0
CIRCLE
  5
44A
100
AcDbEntity
  8
1
  6
CONTINUOUS
 62
           4
100
AcDbCircle
 10
3875.000000000001
 20
1459.999999999992
 40
15.0
  0
CIRCLE
  5
449
100
AcDbEntity
  8
1
  6
CONTINUOUS
 62
           4
100
AcDbCircle
 10
3935.000000000001
 20
1404.999999999992
 40
15.0
  0
CIRCLE
  5
448
100
AcDbEntity
  8
1
  6
CONTINUOUS
 62
           4
100
AcDbCircle
 10
3935.000000000001
 20
1444.999999999992
 40
15.0
  0
CIRCLE
  5
447
100
AcDbEntity
  8
1
  6
CONTINUOUS
 62
           4
100
AcDbCircle
 10
-0.000000000002
 20
5311.999999999997
 40
100.947599999999
  0
CIRCLE
  5
446
100
AcDbEntity
  8
1
  6
CONTINUOUS
 62
           4
100
AcDbCircle
 10
-0.000000000002
 20
5311.999999999997
 40
125.0
  0
CIRCLE
  5
445
100
AcDbEntity
  8
1
  6
CONTINUOUS
 62
           7
100
AcDbCircle
 10
-0.000000000002
 20
5311.999999999997
 40
360.000000000001
  0
CIRCLE
  5
444
100
AcDbEntity
  8
1
  6
CONTINUOUS
 62
           3
100
AcDbCircle
 10
8.472255321878
 20
1295.200848327051
 40
40.0
  0
CIRCLE
  5
443
100
AcDbEntity
  8
1
  6
CONTINUOUS
 62
           7
100
AcDbCircle
 10
-450.0
 20
4021.999999999998
 40
45.0
  0
CIRCLE
  5
442
100
AcDbEntity
  8
1
  6
CONTINUOUS
 62
           2
100
AcDbCircle
 10
4869.999999999999
 20
600.0
 40
8.350000000002
  0
CIRCLE
  5
441
100
AcDbEntity
  8
1
  6
CONTINUOUS
 62
           7
100
AcDbCircle
 10
4869.999999999999
 20
600.0
 40
15.0
  0
CIRCLE
  5
440
100
AcDbEntity
  8
1
  6
CONTINUOUS
 62
           2
100
AcDbCircle
 10
3875.000000000001
 20
1079.499999999993
 40
45.000000000001
  0
ARC
  5
43F
100
AcDbEntity
  8
1
  6
CONTINUOUS
 62
           4
100
AcDbCircle
 10
3611.500000000001
 20
1456.500000000002
 40
10.000000000001
100
AcDbArc
 50
134.999999999991
 51
-44.999999999999
  0
ARC
  5
43E
100
AcDbEntity
  8
1
  6
CONTINUOUS
 62
           4
100
AcDbCircle
 10
3698.500000000001
 20
1456.500000000002
 40
9.999999999999
100
AcDbArc
 50
-134.999999999999
 51
45.000000000006
  0
ARC
  5
43D
100
AcDbEntity
  8
1
  6
CONTINUOUS
 62
           4
100
AcDbCircle
 10
3698.500000000001
 20
1543.500000000002
 40
10.0
100
AcDbArc
 50
-44.999999999999
 51
134.999999999991
  0
ARC
  5
43C
100
AcDbEntity
  8
1
  6
CONTINUOUS
 62
           4
100
AcDbCircle
 10
3611.500000000001
 20
1543.500000000002
 40
10.000000000001
100
AcDbArc
 50
45.000000000006
 51
-134.999999999999
  0
ARC
  5
43B
100
AcDbEntity
  8
1
  6
CONTINUOUS
 62
           4
100
AcDbCircle
 10
3655.000000000001
 20
1500.000000000002
 40
50.0
100
AcDbArc
 50
146.536959032815
 51
-146.536959032815
  0
ARC
  5
43A
100
AcDbEntity
  8
1
  6
CONTINUOUS
 62
           4
100
AcDbCircle
 10
3655.000000000001
 20
1500.000000000002
 40
50.0
100
AcDbArc
 50
-33.463040967184
 51
33.463040967184
  0
ARC
  5
439
100
AcDbEntity
  8
1
  6
CONTINUOUS
 62
           4
100
AcDbCircle
 10
3655.000000000001
 20
1500.000000000002
 40
50.0
100
AcDbArc
 50
-123.463040967184
 51
-56.536959032815
  0
ARC
  5
438
100
AcDbEntity
  8
1
  6
CONTINUOUS
 62
           4
100
AcDbCircle
 10
3655.000000000001
 20
1500.000000000002
 40
50.000000000001
100
AcDbArc
 50
56.536959032816
 51
123.463040967184
  0
ARC
  5
437
100
AcDbEntity
  8
1
  6
CONTINUOUS
 62
           7
100
AcDbCircle
 10
-0.000000000002
 20
5311.999999999997
 40
150.0
100
AcDbArc
 50
23.882765003116
 51
-90.0
  0
ARC
  5
436
100
AcDbEntity
  8
1
  6
CONTINUOUS
 62
           7
100
AcDbCircle
 10
-0.000000000002
 20
5311.999999999997
 40
150.000000000001
100
AcDbArc
 50
-90.0
 51
-23.882765003117
  0
ARC
  5
435
100
AcDbEntity
  8
1
  6
CONTINUOUS
 62
           7
100
AcDbCircle
 10
18.000000000002
 20
5256.999785420926
 40
459.999999999998
100
AcDbArc
 50
71.463109290188
 51
88.271493544498
  0
ARC
  5
434
100
AcDbEntity
  8
1
  6
CONTINUOUS
 62
           7
100
AcDbCircle
 10
-47.0
 20
5266.999999999997
 40
525.000000000001
100
AcDbArc
 50
-2.792103456718
 51
-0.563719865862
  0
ARC
  5
433
100
AcDbEntity
  8
1
  6
CONTINUOUS
 62
           7
100
AcDbCircle
 10
-40.0
 20
5361.999999999997
 40
620.000000000001
100
AcDbArc
 50
-174.912285430339
 51
-90.336887134984
  0
ARC
  5
432
100
AcDbEntity
  8
1
  6
CONTINUOUS
 62
           7
100
AcDbCircle
 10
452.450424338094
 20
5408.171306523444
 40
5.0
100
AcDbArc
 50
109.497261771684
 51
-90.0
  0
ARC
  5
431
100
AcDbEntity
  8
1
  6
CONTINUOUS
 62
           7
100
AcDbCircle
 10
18.000000000002
 20
5256.999785420926
 40
460.0
100
AcDbArc
 50
0.602232686388
 51
18.563086854737
  0
ARC
  5
430
100
AcDbEntity
  8
1
  6
CONTINUOUS
 62
           7
100
AcDbCircle
 10
452.450424338094
 20
5408.171306523444
 40
5.0
100
AcDbArc
 50
-90.0
 51
-71.125521506268
  0
ARC
  5
42F
100
AcDbEntity
  8
1
  6
CONTINUOUS
 62
           7
100
AcDbCircle
 10
477.109412628019
 20
5236.433292707338
 40
5.000000000002
100
AcDbArc
 50
86.935058466848
 51
-93.610617686068
  0
ARC
  5
42E
100
AcDbEntity
  8
1
  6
CONTINUOUS
 62
           7
100
AcDbCircle
 10
-47.0
 20
5266.999999999997
 40
525.000000000001
100
AcDbArc
 50
-89.633899153762
 51
-3.883455762483
  0
ARC
  5
42D
100
AcDbEntity
  8
1
  6
CONTINUOUS
 62
           7
100
AcDbCircle
 10
18.000000000002
 20
5256.999785420926
 40
459.999999999998
100
AcDbArc
 50
19.808653410673
 51
70.217542734251
  0
ARC
  5
42C
100
AcDbEntity
  8
1
  6
CONTINUOUS
 62
           7
100
AcDbCircle
 10
168.972870673506
 20
5691.519281324851
 40
5.0
100
AcDbArc
 50
161.151717651222
 51
-19.47106562678
  0
ARC
  5
42B
100
AcDbEntity
  8
1
  6
CONTINUOUS
 62
           7
100
AcDbCircle
 10
-40.0
 20
5361.999999999997
 40
620.0
100
AcDbArc
 50
-179.999999999999
 51
-175.836413410616
  0
ARC
  5
42A
100
AcDbEntity
  8
1
  6
CONTINUOUS
 62
           7
100
AcDbCircle
 10
-657.980582219214
 20
5311.999999999997
 40
4.999999999996
100
AcDbArc
 50
-85.143317425437
 51
94.394618584461
  0
ARC
  5
429
100
AcDbEntity
  8
7
  6
CONTINUOUS
 62
           7
100
AcDbCircle
 10
117.560000000001
 20
2948.360000000001
 40
3.839999999998
100
AcDbArc
 50
0.0
 51
90.0
  0
ARC
  5
428
100
AcDbEntity
  8
7
  6
CONTINUOUS
 62
           7
100
AcDbCircle
 10
116.5078244
 20
2954.600000000002
 40
2.400000000001
100
AcDbArc
 50
-124.999999999959
 51
-90.0
  0
ARC
  5
427
100
AcDbEntity
  8
7
  6
CONTINUOUS
 62
           7
100
AcDbCircle
 10
91.76
 20
2974.449360800001
 40
2.4
100
AcDbArc
 50
180.0
 51
-124.999999999972
  0
ARC
  5
426
100
AcDbEntity
  8
7
  6
CONTINUOUS
 62
           7
100
AcDbCircle
 10
85.52
 20
2974.16
 40
3.84
100
AcDbArc
 50
0.0
 51
90.0
  0
ARC
  5
425
100
AcDbEntity
  8
7
  6
CONTINUOUS
 62
           7
100
AcDbCircle
 10
-94.76
 20
2974.449360800001
 40
2.400000000001
100
AcDbArc
 50
-54.999999999992
 51
0.0
  0
ARC
  5
424
100
AcDbEntity
  8
7
  6
CONTINUOUS
 62
           7
100
AcDbCircle
 10
-88.52
 20
2974.16
 40
3.84
100
AcDbArc
 50
90.0
 51
180.0
  0
ARC
  5
423
100
AcDbEntity
  8
7
  6
CONTINUOUS
 62
           7
100
AcDbCircle
 10
-113.959999999999
 20
2948.133628400001
 40
7.44
100
AcDbArc
 50
122.681915000006
 51
180.0
  0
ARC
  5
422
100
AcDbEntity
  8
7
  6
CONTINUOUS
 62
           7
100
AcDbCircle
 10
4996.039999999997
 20
2948.133628400001
 40
7.440000000001
100
AcDbArc
 50
122.681915000002
 51
180.0
  0
ARC
  5
421
100
AcDbEntity
  8
7
  6
CONTINUOUS
 62
           7
100
AcDbCircle
 10
5021.479999999996
 20
2974.16
 40
3.84
100
AcDbArc
 50
90.0
 51
180.0
  0
ARC
  5
420
100
AcDbEntity
  8
7
  6
CONTINUOUS
 62
           7
100
AcDbCircle
 10
5015.239999999998
 20
2974.449360800002
 40
2.400000000002
100
AcDbArc
 50
-55.000000000005
 51
0.0
  0
ARC
  5
41F
100
AcDbEntity
  8
7
  6
CONTINUOUS
 62
           7
100
AcDbCircle
 10
5195.519999999997
 20
2974.16
 40
3.84
100
AcDbArc
 50
0.0
 51
90.0
  0
ARC
  5
41E
100
AcDbEntity
  8
7
  6
CONTINUOUS
 62
           7
100
AcDbCircle
 10
5201.759999999995
 20
2974.449360800002
 40
2.399999999998
100
AcDbArc
 50
180.0
 51
-124.999999999924
  0
ARC
  5
41D
100
AcDbEntity
  8
7
  6
CONTINUOUS
 62
           7
100
AcDbCircle
 10
5226.5078244
 20
2954.600000000003
 40
2.400000000005
100
AcDbArc
 50
-125.000000000054
 51
-90.0
  0
ARC
  5
41C
100
AcDbEntity
  8
7
  6
CONTINUOUS
 62
           7
100
AcDbCircle
 10
5227.559999999998
 20
2948.360000000001
 40
3.839999999997
100
AcDbArc
 50
0.0
 51
90.0
  0
ARC
  5
41B
100
AcDbEntity
  8
1
  6
CONTINUOUS
 62
           3
100
AcDbCircle
 10
4990.163567691042
 20
1925.000000000001
 40
9.499999999998
100
AcDbArc
 50
-124.797812779173
 51
0.0
  0
ARC
  5
41A
100
AcDbEntity
  8
1
  6
CONTINUOUS
 62
           3
100
AcDbCircle
 10
4990.163567691042
 20
1925.000000000001
 40
9.5
100
AcDbArc
 50
0.0
 51
125.91695737144
  0
ARC
  5
419
100
AcDbEntity
  8
1
  6
CONTINUOUS
 62
           3
100
AcDbCircle
 10
4990.163567691042
 20
1925.000000000001
 40
5.87183499506
100
AcDbArc
 50
0.0
 51
38.59971391793
  0
ARC
  5
418
100
AcDbEntity
  8
1
  6
CONTINUOUS
 62
           3
100
AcDbCircle
 10
4990.163567691042
 20
1925.000000000001
 40
5.871834995068
100
AcDbArc
 50
38.59971391793
 51
90.0
  0
ARC
  5
417
100
AcDbEntity
  8
1
  6
CONTINUOUS
 62
           3
100
AcDbCircle
 10
4990.163567691042
 20
1925.000000000001
 40
5.871834995066
100
AcDbArc
 50
-90.0
 51
0.0
  0
ARC
  5
416
100
AcDbEntity
  8
0
  6
CONTINUOUS
 62
           3
100
AcDbCircle
 10
4548.399996721513
 20
1368.000000000114
 40
2.5
100
AcDbArc
 50
0.0
 51
180.0
  0
ARC
  5
415
100
AcDbEntity
  8
0
  6
CONTINUOUS
 62
           3
100
AcDbCircle
 10
4548.399996721513
 20
1631.999999999899
 40
2.499999999992
100
AcDbArc
 50
180.0
 51
0.0
  0
ARC
  5
414
100
AcDbEntity
  8
0
  6
CONTINUOUS
 62
           3
100
AcDbCircle
 10
4423.399996721822
 20
1631.999999999899
 40
2.5
100
AcDbArc
 50
180.0
 51
0.0
  0
ARC
  5
413
100
AcDbEntity
  8
0
  6
CONTINUOUS
 62
           3
100
AcDbCircle
 10
4423.399996721822
 20
1368.000000000114
 40
2.49999999999
100
AcDbArc
 50
0.0
 51
180.0
  0
ARC
  5
412
100
AcDbEntity
  8
0
  6
CONTINUOUS
 62
           3
100
AcDbCircle
 10
4427.899996721812
 20
1508.999999999997
 40
0.999999999996
100
AcDbArc
 50
-90.0
 51
90.0
  0
ARC
  5
411
100
AcDbEntity
  8
0
  6
CONTINUOUS
 62
           3
100
AcDbCircle
 10
4427.899996721812
 20
1431.000000000062
 40
1.0
100
AcDbArc
 50
-90.0
 51
90.0
  0
ARC
  5
410
100
AcDbEntity
  8
0
  6
CONTINUOUS
 62
           3
100
AcDbCircle
 10
4427.899996721812
 20
1409.000000000179
 40
0.999999999997
100
AcDbArc
 50
-90.0
 51
90.0
  0
ARC
  5
40F
100
AcDbEntity
  8
0
  6
CONTINUOUS
 62
           3
100
AcDbCircle
 10
4543.899996721521
 20
1409.000000000179
 40
1.0
100
AcDbArc
 50
90.0
 51
-90.0
  0
ARC
  5
40E
100
AcDbEntity
  8
0
  6
CONTINUOUS
 62
           3
100
AcDbCircle
 10
4543.899996721521
 20
1431.000000000062
 40
0.999999999997
100
AcDbArc
 50
90.0
 51
-90.0
  0
ARC
  5
40D
100
AcDbEntity
  8
0
  6
CONTINUOUS
 62
           3
100
AcDbCircle
 10
4543.899996721521
 20
1508.999999999997
 40
1.0
100
AcDbArc
 50
90.0
 51
-90.0
  0
ARC
  5
40C
100
AcDbEntity
  8
0
  6
CONTINUOUS
 62
           3
100
AcDbCircle
 10
4543.899996721521
 20
1530.99999999988
 40
1.0
100
AcDbArc
 50
90.0
 51
-90.0
  0
ARC
  5
40B
100
AcDbEntity
  8
0
  6
CONTINUOUS
 62
           3
100
AcDbCircle
 10
4427.899996721812
 20
1530.99999999988
 40
0.999999999996
100
AcDbArc
 50
-90.0
 51
90.0
  0
ARC
  5
40A
100
AcDbEntity
  8
0
  6
CONTINUOUS
 62
           3
100
AcDbCircle
 10
4492.373499413461
 20
1389.999999999997
 40
0.900000000002
100
AcDbArc
 50
-90.0
 51
-62.733955549591
  0
ARC
  5
409
100
AcDbEntity
  8
0
  6
CONTINUOUS
 62
           3
100
AcDbCircle
 10
4479.42649402987
 20
1389.999999999997
 40
0.9
100
AcDbArc
 50
-117.266044450357
 51
-90.0
  0
ARC
  5
408
100
AcDbEntity
  8
0
  6
CONTINUOUS
 62
           3
100
AcDbCircle
 10
4485.899996721674
 20
1315.000000000059
 40
53.999999999965
100
AcDbArc
 50
180.0
 51
0.0
  0
ARC
  5
407
100
AcDbEntity
  8
0
  6
CONTINUOUS
 62
           3
100
AcDbCircle
 10
4485.899996721674
 20
1315.000000000059
 40
45.999999999972
100
AcDbArc
 50
180.0
 51
0.0
  0
ARC
  5
406
100
AcDbEntity
  8
0
  6
CONTINUOUS
 62
           3
100
AcDbCircle
 10
4485.899996721674
 20
1355.000000000222
 40
4.0
100
AcDbArc
 50
180.0
 51
0.0
  0
ARC
  5
405
100
AcDbEntity
  8
1
  6
CONTINUOUS
 62
           3
100
AcDbCircle
 10
8.472255321878
 20
1295.200848327051
 40
28.750000000008
100
AcDbArc
 50
83.827497999998
 51
96.17250199999
  0
ARC
  5
404
100
AcDbEntity
  8
1
  6
CONTINUOUS
 62
           3
100
AcDbCircle
 10
8.472255321878
 20
1295.200848327051
 40
28.749999999988
100
AcDbArc
 50
-96.172501999994
 51
-83.827497999994
  0
ARC
  5
403
100
AcDbEntity
  8
1
  6
CONTINUOUS
 62
           3
100
AcDbCircle
 10
8.472255321878
 20
1295.200848327051
 40
10.75
100
AcDbArc
 50
0.0
 51
61.226493000003
  0
ARC
  5
402
100
AcDbEntity
  8
1
  6
CONTINUOUS
 62
           3
100
AcDbCircle
 10
8.472255321878
 20
1295.200848327051
 40
10.750000000001
100
AcDbArc
 50
-61.226493000024
 51
0.0
  0
ARC
  5
401
100
AcDbEntity
  8
1
  6
CONTINUOUS
 62
           3
100
AcDbCircle
 10
8.472255321878
 20
1295.200848327051
 40
10.749999999991
100
AcDbArc
 50
118.773506999969
 51
-118.773506999948
  0
ARC
  5
400
100
AcDbEntity
  8
1
  6
CONTINUOUS
 62
           3
100
AcDbCircle
 10
12.510557321878
 20
1295.200848327051
 40
10.0
100
AcDbArc
 50
174.993206999977
 51
-174.993207000021
  0
ARC
  5
3FF
100
AcDbEntity
  8
1
  6
CONTINUOUS
 62
           3
100
AcDbCircle
 10
4.433952321884
 20
1295.200848327051
 40
9.999999999999
100
AcDbArc
 50
-5.006792999978
 51
5.006793000023
  0
ARC
  5
3FE
100
AcDbEntity
  8
1
  6
CONTINUOUS
 62
           3
100
AcDbCircle
 10
5.434752321878
 20
1323.287074327051
 40
0.5
100
AcDbArc
 50
96.172501999309
 51
174.993206998558
  0
ARC
  5
3FD
100
AcDbEntity
  8
1
  6
CONTINUOUS
 62
           3
100
AcDbCircle
 10
11.509758321877
 20
1323.287074327051
 40
0.500000000005
100
AcDbArc
 50
5.006793001362
 51
83.827497998178
  0
ARC
  5
3FC
100
AcDbEntity
  8
1
  6
CONTINUOUS
 62
           3
100
AcDbCircle
 10
5.434752321878
 20
1267.114622327059
 40
0.499999999996
100
AcDbArc
 50
-174.99320699983
 51
-96.172501999309
  0
ARC
  5
3FB
100
AcDbEntity
  8
1
  6
CONTINUOUS
 62
           3
100
AcDbCircle
 10
11.509758321877
 20
1267.114622327059
 40
0.500000000002
100
AcDbArc
 50
-83.827497998178
 51
-5.00679300009
  0
LINE
  5
3FA
100
AcDbEntity
  8
1
  6
CONTINUOUS
 62
           4
100
AcDbLine
 10
3635.000000000001
 20
1570.000000000002
 11
3635.000000000001
 21
1545.82575694956
  0
LINE
  5
3F9
100
AcDbEntity
  8
1
  6
CONTINUOUS
 62
           4
100
AcDbLine
 10
3675.000000000001
 20
1454.174243050444
 11
3675.000000000001
 21
1430.000000000002
  0
LINE
  5
3F8
100
AcDbEntity
  8
1
  6
CONTINUOUS
 62
           4
100
AcDbLine
 10
3695.000000000001
 20
1430.000000000002
 11
3695.000000000001
 21
1447.132503002405
  0
LINE
  5
3F7
100
AcDbEntity
  8
1
  6
CONTINUOUS
 62
           4
100
AcDbLine
 10
3635.000000000001
 20
1430.000000000002
 11
3695.000000000001
 21
1430.000000000002
  0
LINE
  5
3F6
100
AcDbEntity
  8
1
  6
CONTINUOUS
 62
           4
100
AcDbLine
 10
3635.000000000001
 20
1454.174243050444
 11
3635.000000000001
 21
1430.000000000002
  0
LINE
  5
3F5
100
AcDbEntity
  8
1
  6
CONTINUOUS
 62
           4
100
AcDbLine
 10
3675.000000000001
 20
1570.000000000002
 11
3675.000000000001
 21
1545.82575694956
  0
LINE
  5
3F4
100
AcDbEntity
  8
1
  6
CONTINUOUS
 62
           4
100
AcDbLine
 10
3615.000000000001
 20
1570.000000000002
 11
3675.000000000001
 21
1570.000000000002
  0
LINE
  5
3F3
100
AcDbEntity
  8
1
  6
CONTINUOUS
 62
           4
100
AcDbLine
 10
3620.542804312877
 20
1479.684939936609
 11
3604.428932188136
 21
1463.571067811869
  0
LINE
  5
3F2
100
AcDbEntity
  8
1
  6
CONTINUOUS
 62
           4
100
AcDbLine
 10
3618.571067811866
 20
1449.428932188137
 11
3634.684939936607
 21
1465.542804312878
  0
LINE
  5
3F1
100
AcDbEntity
  8
1
  6
CONTINUOUS
 62
           4
100
AcDbLine
 10
3675.315060063394
 20
1465.542804312878
 11
3691.428932188136
 21
1449.428932188137
  0
LINE
  5
3F0
100
AcDbEntity
  8
1
  6
CONTINUOUS
 62
           4
100
AcDbLine
 10
3689.457195687125
 20
1520.315060063396
 11
3705.571067811866
 21
1536.428932188137
  0
LINE
  5
3EF
100
AcDbEntity
  8
1
  6
CONTINUOUS
 62
           4
100
AcDbLine
 10
3634.684939936607
 20
1534.457195687126
 11
3618.571067811866
 21
1550.571067811869
  0
LINE
  5
3EE
100
AcDbEntity
  8
1
  6
CONTINUOUS
 62
           4
100
AcDbLine
 10
3705.571067811866
 20
1463.571067811869
 11
3689.457195687125
 21
1479.684939936609
  0
LINE
  5
3ED
100
AcDbEntity
  8
1
  6
CONTINUOUS
 62
           4
100
AcDbLine
 10
3691.428932188136
 20
1550.571067811869
 11
3675.315060063394
 21
1534.457195687126
  0
LINE
  5
3EC
100
AcDbEntity
  8
1
  6
CONTINUOUS
 62
           4
100
AcDbLine
 10
3604.428932188136
 20
1536.428932188137
 11
3620.542804312877
 21
1520.315060063396
  0
LINE
  5
3EB
100
AcDbEntity
  8
1
  6
CONTINUOUS
 62
           4
100
AcDbLine
 10
3615.000000000001
 20
1552.8674969976
 11
3615.000000000001
 21
1570.000000000002
  0
LINE
  5
3EA
100
AcDbEntity
  8
1
  6
CONTINUOUS
 62
           4
100
AcDbLine
 10
3664.659258262892
 20
1497.411809548978
 11
3686.597964306738
 21
1475.47310350513
  0
LINE
  5
3E9
100
AcDbEntity
  8
1
  6
CONTINUOUS
 62
           4
100
AcDbLine
 10
3657.588190451026
 20
1490.340741737111
 11
3679.526896494873
 21
1468.402035693265
  0
LINE
  5
3E8
100
AcDbEntity
  8
1
  6
CONTINUOUS
 62
           4
100
AcDbLine
 10
3645.340741737111
 20
1502.588190451027
 11
3640.857864376269
 21
1514.142135623733
  0
LINE
  5
3E7
100
AcDbEntity
  8
1
  6
CONTINUOUS
 62
           4
100
AcDbLine
 10
3652.411809548976
 20
1509.659258262893
 11
3640.857864376269
 21
1514.142135623733
  0
LINE
  5
3E6
100
AcDbEntity
  8
1
  6
CONTINUOUS
 62
           4
100
AcDbLine
 10
1353.0
 20
1450.000000000002
 11
1353.0
 21
1430.000000000002
  0
LINE
  5
3E5
100
AcDbEntity
  8
1
  6
CONTINUOUS
 62
           4
100
AcDbLine
 10
1353.0
 20
1430.000000000002
 11
1305.0
 21
1430.000000000002
  0
LINE
  5
3E4
100
AcDbEntity
  8
1
  6
CONTINUOUS
 62
           4
100
AcDbLine
 10
1353.0
 20
1550.000000000002
 11
1353.0
 21
1570.000000000002
  0
LINE
  5
3E3
100
AcDbEntity
  8
1
  6
CONTINUOUS
 62
           4
100
AcDbLine
 10
1353.0
 20
1570.000000000002
 11
1305.0
 21
1570.000000000002
  0
LINE
  5
3E2
100
AcDbEntity
  8
1
  6
CONTINUOUS
 62
           4
100
AcDbLine
 10
1315.0
 20
1570.000000000002
 11
1315.0
 21
1430.000000000002
  0
LINE
  5
3E1
100
AcDbEntity
  8
1
  6
CONTINUOUS
 62
           4
100
AcDbLine
 10
1420.0
 20
1490.000000000002
 11
1435.0
 21
1490.000000000002
  0
LINE
  5
3E0
100
AcDbEntity
  8
1
  6
CONTINUOUS
 62
           4
100
AcDbLine
 10
1435.0
 20
1510.000000000002
 11
1420.0
 21
1510.000000000002
  0
LINE
  5
3DF
100
AcDbEntity
  8
1
  6
CONTINUOUS
 62
           4
100
AcDbLine
 10
1435.0
 20
1515.000000000002
 11
1420.0
 21
1515.000000000002
  0
LINE
  5
3DE
100
AcDbEntity
  8
1
  6
CONTINUOUS
 62
           4
100
AcDbLine
 10
1435.0
 20
1470.000000000002
 11
1435.0
 21
1515.000000000002
  0
LINE
  5
3DD
100
AcDbEntity
  8
1
  6
CONTINUOUS
 62
           4
100
AcDbLine
 10
1420.0
 20
1470.000000000002
 11
1435.0
 21
1470.000000000002
  0
LINE
  5
3DC
100
AcDbEntity
  8
1
  6
CONTINUOUS
 62
           4
100
AcDbLine
 10
1390.0
 20
1460.000000000002
 11
1420.0
 21
1460.000000000002
  0
LINE
  5
3DB
100
AcDbEntity
  8
1
  6
CONTINUOUS
 62
           4
100
AcDbLine
 10
1420.0
 20
1460.000000000002
 11
1420.0
 21
1540.000000000002
  0
LINE
  5
3DA
100
AcDbEntity
  8
1
  6
CONTINUOUS
 62
           4
100
AcDbLine
 10
1420.0
 20
1540.000000000002
 11
1390.0
 21
1540.000000000002
  0
LINE
  5
3D9
100
AcDbEntity
  8
1
  6
CONTINUOUS
 62
           4
100
AcDbLine
 10
1375.0
 20
1446.500000000002
 11
1390.0
 21
1446.500000000002
  0
LINE
  5
3D8
100
AcDbEntity
  8
1
  6
CONTINUOUS
 62
           4
100
AcDbLine
 10
1390.0
 20
1520.315060063396
 11
1390.0
 21
1553.500000000002
  0
LINE
  5
3D7
100
AcDbEntity
  8
1
  6
CONTINUOUS
 62
           4
100
AcDbLine
 10
1375.0
 20
1550.000000000002
 11
1315.0
 21
1550.000000000002
  0
LINE
  5
3D6
100
AcDbEntity
  8
1
  6
CONTINUOUS
 62
           4
100
AcDbLine
 10
1305.0
 20
1570.000000000002
 11
1305.0
 21
1430.000000000002
  0
LINE
  5
3D5
100
AcDbEntity
  8
1
  6
CONTINUOUS
 62
           4
100
AcDbLine
 10
1375.0
 20
1479.684939936609
 11
1390.0
 21
1479.684939936609
  0
LINE
  5
3D4
100
AcDbEntity
  8
1
  6
CONTINUOUS
 62
           4
100
AcDbLine
 10
1375.0
 20
1446.500000000002
 11
1375.0
 21
1553.500000000002
  0
LINE
  5
3D3
100
AcDbEntity
  8
1
  6
CONTINUOUS
 62
           4
100
AcDbLine
 10
1375.0
 20
1520.315060063396
 11
1390.0
 21
1520.315060063396
  0
LINE
  5
3D2
100
AcDbEntity
  8
1
  6
CONTINUOUS
 62
           4
100
AcDbLine
 10
1315.0
 20
1450.000000000002
 11
1375.0
 21
1450.000000000002
  0
LINE
  5
3D1
100
AcDbEntity
  8
1
  6
CONTINUOUS
 62
           4
100
AcDbLine
 10
1390.0
 20
1446.500000000002
 11
1390.0
 21
1479.684939936609
  0
LINE
  5
3D0
100
AcDbEntity
  8
1
  6
CONTINUOUS
 62
           4
100
AcDbLine
 10
1390.0
 20
1553.500000000002
 11
1375.0
 21
1553.500000000002
  0
LINE
  5
3CF
100
AcDbEntity
  8
1
  6
CONTINUOUS
 62
           4
100
AcDbLine
 10
1315.0
 20
1476.000000000002
 11
1375.0
 21
1476.000000000002
  0
LINE
  5
3CE
100
AcDbEntity
  8
1
  6
CONTINUOUS
 62
           4
100
AcDbLine
 10
1375.0
 20
1524.000000000002
 11
1315.0
 21
1524.000000000002
  0
LINE
  5
3CD
100
AcDbEntity
  8
1
  6
CONTINUOUS
 62
           4
100
AcDbLine
 10
1305.0
 20
3832.999999999998
 11
1375.0
 21
3832.999999999998
  0
LINE
  5
3CC
100
AcDbEntity
  8
1
  6
CONTINUOUS
 62
           4
100
AcDbLine
 10
1375.0
 20
3880.999999999998
 11
1305.0
 21
3880.999999999998
  0
LINE
  5
3CB
100
AcDbEntity
  8
1
  6
CONTINUOUS
 62
           4
100
AcDbLine
 10
1375.0
 20
3803.499999999998
 11
1390.0
 21
3803.499999999998
  0
LINE
  5
3CA
100
AcDbEntity
  8
1
  6
CONTINUOUS
 62
           4
100
AcDbLine
 10
1390.0
 20
3877.315060063391
 11
1390.0
 21
3910.499999999998
  0
LINE
  5
3C9
100
AcDbEntity
  8
1
  6
CONTINUOUS
 62
           4
100
AcDbLine
 10
1375.0
 20
3906.999999999998
 11
1305.0
 21
3906.999999999998
  0
LINE
  5
3C8
100
AcDbEntity
  8
1
  6
CONTINUOUS
 62
           4
100
AcDbLine
 10
1390.0
 20
3836.684939936605
 11
1375.0
 21
3836.684939936605
  0
LINE
  5
3C7
100
AcDbEntity
  8
1
  6
CONTINUOUS
 62
           4
100
AcDbLine
 10
1375.0
 20
3803.499999999998
 11
1375.0
 21
3910.499999999998
  0
LINE
  5
3C6
100
AcDbEntity
  8
1
  6
CONTINUOUS
 62
           4
100
AcDbLine
 10
1390.0
 20
3877.315060063391
 11
1375.0
 21
3877.315060063391
  0
LINE
  5
3C5
100
AcDbEntity
  8
1
  6
CONTINUOUS
 62
           4
100
AcDbLine
 10
1305.0
 20
3906.999999999998
 11
1305.0
 21
3806.999999999998
  0
LINE
  5
3C4
100
AcDbEntity
  8
1
  6
CONTINUOUS
 62
           4
100
AcDbLine
 10
1305.0
 20
3806.999999999998
 11
1375.0
 21
3806.999999999998
  0
LINE
  5
3C3
100
AcDbEntity
  8
1
  6
CONTINUOUS
 62
           4
100
AcDbLine
 10
1390.0
 20
3803.499999999998
 11
1390.0
 21
3836.684939936605
  0
LINE
  5
3C2
100
AcDbEntity
  8
1
  6
CONTINUOUS
 62
           4
100
AcDbLine
 10
1390.0
 20
3910.499999999998
 11
1375.0
 21
3910.499999999998
  0
LINE
  5
3C1
100
AcDbEntity
  8
1
  6
CONTINUOUS
 62
           4
100
AcDbLine
 10
1390.0
 20
3816.999999999998
 11
1420.0
 21
3816.999999999998
  0
LINE
  5
3C0
100
AcDbEntity
  8
1
  6
CONTINUOUS
 62
           4
100
AcDbLine
 10
1420.0
 20
3816.999999999998
 11
1420.0
 21
3896.999999999998
  0
LINE
  5
3BF
100
AcDbEntity
  8
1
  6
CONTINUOUS
 62
           4
100
AcDbLine
 10
1420.0
 20
3896.999999999998
 11
1390.0
 21
3896.999999999998
  0
LINE
  5
3BE
100
AcDbEntity
  8
1
  6
CONTINUOUS
 62
           4
100
AcDbLine
 10
1420.0
 20
3826.999999999998
 11
1435.0
 21
3826.999999999998
  0
LINE
  5
3BD
100
AcDbEntity
  8
1
  6
CONTINUOUS
 62
           4
100
AcDbLine
 10
1435.0
 20
3826.999999999998
 11
1435.0
 21
3871.999999999999
  0
LINE
  5
3BC
100
AcDbEntity
  8
1
  6
CONTINUOUS
 62
           4
100
AcDbLine
 10
1435.0
 20
3871.999999999999
 11
1420.0
 21
3871.999999999999
  0
LINE
  5
3BB
100
AcDbEntity
  8
1
  6
CONTINUOUS
 62
           4
100
AcDbLine
 10
1435.0
 20
3866.999999999998
 11
1420.0
 21
3866.999999999998
  0
LINE
  5
3BA
100
AcDbEntity
  8
1
  6
CONTINUOUS
 62
           4
100
AcDbLine
 10
1420.0
 20
3846.999999999998
 11
1435.0
 21
3846.999999999998
  0
LINE
  5
3B9
100
AcDbEntity
  8
1
  6
CONTINUOUS
 62
           4
100
AcDbLine
 10
1440.0
 20
3924.499999999998
 11
1500.0
 21
3924.499999999998
  0
LINE
  5
3B8
100
AcDbEntity
  8
1
  6
CONTINUOUS
 62
           4
100
AcDbLine
 10
1440.0
 20
3924.499999999998
 11
1440.0
 21
3951.999999999998
  0
LINE
  5
3B7
100
AcDbEntity
  8
1
  6
CONTINUOUS
 62
           4
100
AcDbLine
 10
1470.0
 20
3951.999999999998
 11
1470.0
 21
4201.999999999998
  0
LINE
  5
3B6
100
AcDbEntity
  8
1
  6
CONTINUOUS
 62
           4
100
AcDbLine
 10
1320.0
 20
3951.999999999998
 11
1320.0
 21
3924.499999999998
  0
LINE
  5
3B5
100
AcDbEntity
  8
1
  6
CONTINUOUS
 62
           4
100
AcDbLine
 10
1320.0
 20
3924.499999999998
 11
1305.0
 21
3924.499999999998
  0
LINE
  5
3B4
100
AcDbEntity
  8
1
  6
CONTINUOUS
 62
           4
100
AcDbLine
 10
1305.0
 20
4229.499999999998
 11
1320.0
 21
4229.499999999998
  0
LINE
  5
3B3
100
AcDbEntity
  8
1
  6
CONTINUOUS
 62
           4
100
AcDbLine
 10
1320.0
 20
4229.499999999998
 11
1320.0
 21
4201.999999999998
  0
LINE
  5
3B2
100
AcDbEntity
  8
1
  6
CONTINUOUS
 62
           4
100
AcDbLine
 10
1500.0
 20
3981.999999999998
 11
1530.0
 21
3981.999999999998
  0
LINE
  5
3B1
100
AcDbEntity
  8
1
  6
CONTINUOUS
 62
           4
100
AcDbLine
 10
1530.0
 20
3981.999999999998
 11
1530.0
 21
4171.999999999998
  0
LINE
  5
3B0
100
AcDbEntity
  8
1
  6
CONTINUOUS
 62
           4
100
AcDbLine
 10
1530.0
 20
4171.999999999998
 11
1500.0
 21
4171.999999999998
  0
LINE
  5
3AF
100
AcDbEntity
  8
1
  6
CONTINUOUS
 62
           4
100
AcDbLine
 10
1305.0
 20
3951.999999999998
 11
1500.0
 21
3951.999999999998
  0
LINE
  5
3AE
100
AcDbEntity
  8
1
  6
CONTINUOUS
 62
           4
100
AcDbLine
 10
1500.0
 20
3924.499999999998
 11
1500.0
 21
4201.999999999998
  0
LINE
  5
3AD
100
AcDbEntity
  8
1
  6
CONTINUOUS
 62
           4
100
AcDbLine
 10
1500.0
 20
4201.999999999998
 11
1305.0
 21
4201.999999999998
  0
LINE
  5
3AC
100
AcDbEntity
  8
1
  6
CONTINUOUS
 62
           4
100
AcDbLine
 10
1305.0
 20
4229.499999999998
 11
1305.0
 21
3924.499999999998
  0
LINE
  5
3AB
100
AcDbEntity
  8
1
  6
CONTINUOUS
 62
           4
100
AcDbLine
 10
3722.500000000001
 20
1642.499999999992
 11
3750.000000000001
 21
1642.499999999992
  0
LINE
  5
3AA
100
AcDbEntity
  8
1
  6
CONTINUOUS
 62
           4
100
AcDbLine
 10
3722.500000000001
 20
1607.499999999992
 11
3722.500000000001
 21
1642.499999999992
  0
LINE
  5
3A9
100
AcDbEntity
  8
1
  6
CONTINUOUS
 62
           4
100
AcDbLine
 10
3750.000000000001
 20
1607.499999999992
 11
3722.500000000001
 21
1607.499999999992
  0
LINE
  5
3A8
100
AcDbEntity
  8
1
  6
CONTINUOUS
 62
           4
100
AcDbLine
 10
3722.500000000001
 20
1392.499999999992
 11
3750.000000000001
 21
1392.499999999992
  0
LINE
  5
3A7
100
AcDbEntity
  8
1
  6
CONTINUOUS
 62
           4
100
AcDbLine
 10
3722.500000000001
 20
1357.499999999992
 11
3722.500000000001
 21
1392.499999999992
  0
LINE
  5
3A6
100
AcDbEntity
  8
1
  6
CONTINUOUS
 62
           4
100
AcDbLine
 10
3750.000000000001
 20
1357.499999999992
 11
3722.500000000001
 21
1357.499999999992
  0
LINE
  5
3A5
100
AcDbEntity
  8
1
  6
CONTINUOUS
 62
           4
100
AcDbLine
 10
4027.500000000001
 20
1357.499999999992
 11
4000.000000000001
 21
1357.499999999992
  0
LINE
  5
3A4
100
AcDbEntity
  8
1
  6
CONTINUOUS
 62
           4
100
AcDbLine
 10
4027.500000000001
 20
1392.499999999992
 11
4027.500000000001
 21
1357.499999999992
  0
LINE
  5
3A3
100
AcDbEntity
  8
1
  6
CONTINUOUS
 62
           4
100
AcDbLine
 10
4000.000000000001
 20
1392.499999999992
 11
4027.500000000001
 21
1392.499999999992
  0
LINE
  5
3A2
100
AcDbEntity
  8
1
  6
CONTINUOUS
 62
           4
100
AcDbLine
 10
4027.500000000001
 20
1607.499999999992
 11
4000.000000000001
 21
1607.499999999992
  0
LINE
  5
3A1
100
AcDbEntity
  8
1
  6
CONTINUOUS
 62
           4
100
AcDbLine
 10
4027.500000000001
 20
1642.499999999992
 11
4027.500000000001
 21
1607.499999999992
  0
LINE
  5
3A0
100
AcDbEntity
  8
1
  6
CONTINUOUS
 62
           4
100
AcDbLine
 10
4000.000000000001
 20
1642.499999999992
 11
4027.500000000001
 21
1642.499999999992
  0
LINE
  5
39F
100
AcDbEntity
  8
1
  6
CONTINUOUS
 62
           4
100
AcDbLine
 10
3750.000000000001
 20
1321.999999999992
 11
4000.000000000001
 21
1321.999999999992
  0
LINE
  5
39E
100
AcDbEntity
  8
1
  6
CONTINUOUS
 62
           4
100
AcDbLine
 10
4000.000000000001
 20
1677.999999999992
 11
3750.000000000001
 21
1677.999999999992
  0
LINE
  5
39D
100
AcDbEntity
  8
1
  6
CONTINUOUS
 62
           4
100
AcDbLine
 10
3750.000000000001
 20
1837.999999999992
 11
3750.000000000001
 21
1544.999999999992
  0
LINE
  5
39C
100
AcDbEntity
  8
1
  6
CONTINUOUS
 62
           4
100
AcDbLine
 10
4000.000000000001
 20
1837.999999999992
 11
3750.000000000001
 21
1837.999999999992
  0
LINE
  5
39B
100
AcDbEntity
  8
1
  6
CONTINUOUS
 62
           4
100
AcDbLine
 10
4000.000000000001
 20
1161.999999999992
 11
4000.000000000001
 21
1837.999999999992
  0
LINE
  5
39A
100
AcDbEntity
  8
1
  6
CONTINUOUS
 62
           4
100
AcDbLine
 10
3750.000000000001
 20
1161.999999999992
 11
4000.000000000001
 21
1161.999999999992
  0
LINE
  5
399
100
AcDbEntity
  8
1
  6
CONTINUOUS
 62
           4
100
AcDbLine
 10
3780.000000000001
 20
1807.999999999992
 11
3970.000000000001
 21
1807.999999999992
  0
LINE
  5
398
100
AcDbEntity
  8
1
  6
CONTINUOUS
 62
           4
100
AcDbLine
 10
3970.000000000001
 20
1807.999999999992
 11
3970.000000000001
 21
1707.999999999992
  0
LINE
  5
397
100
AcDbEntity
  8
1
  6
CONTINUOUS
 62
           4
100
AcDbLine
 10
3970.000000000001
 20
1707.999999999992
 11
3780.000000000001
 21
1707.999999999992
  0
LINE
  5
396
100
AcDbEntity
  8
1
  6
CONTINUOUS
 62
           4
100
AcDbLine
 10
3780.000000000001
 20
1707.999999999992
 11
3780.000000000001
 21
1807.999999999992
  0
LINE
  5
395
100
AcDbEntity
  8
1
  6
CONTINUOUS
 62
           4
100
AcDbLine
 10
3780.000000000001
 20
1647.999999999992
 11
3970.000000000001
 21
1647.999999999992
  0
LINE
  5
394
100
AcDbEntity
  8
1
  6
CONTINUOUS
 62
           4
100
AcDbLine
 10
3970.000000000001
 20
1647.999999999992
 11
3970.000000000001
 21
1351.999999999992
  0
LINE
  5
393
100
AcDbEntity
  8
1
  6
CONTINUOUS
 62
           4
100
AcDbLine
 10
3970.000000000001
 20
1351.999999999992
 11
3780.000000000001
 21
1351.999999999992
  0
LINE
  5
392
100
AcDbEntity
  8
1
  6
CONTINUOUS
 62
           4
100
AcDbLine
 10
3780.000000000001
 20
1351.999999999992
 11
3780.000000000001
 21
1647.999999999992
  0
LINE
  5
391
100
AcDbEntity
  8
1
  6
CONTINUOUS
 62
           4
100
AcDbLine
 10
3780.000000000001
 20
1291.999999999992
 11
3970.000000000001
 21
1291.999999999992
  0
LINE
  5
390
100
AcDbEntity
  8
1
  6
CONTINUOUS
 62
           4
100
AcDbLine
 10
3970.000000000001
 20
1291.999999999992
 11
3970.000000000001
 21
1191.999999999992
  0
LINE
  5
38F
100
AcDbEntity
  8
1
  6
CONTINUOUS
 62
           4
100
AcDbLine
 10
3970.000000000001
 20
1191.999999999992
 11
3780.000000000001
 21
1191.999999999992
  0
LINE
  5
38E
100
AcDbEntity
  8
1
  6
CONTINUOUS
 62
           4
100
AcDbLine
 10
3780.000000000001
 20
1191.999999999992
 11
3780.000000000001
 21
1291.999999999992
  0
LINE
  5
38D
100
AcDbEntity
  8
1
  6
CONTINUOUS
 62
           4
100
AcDbLine
 10
3780.000000000001
 20
1544.999999999992
 11
3722.500000000001
 21
1544.999999999992
  0
LINE
  5
38C
100
AcDbEntity
  8
1
  6
CONTINUOUS
 62
           4
100
AcDbLine
 10
3722.500000000001
 20
1544.999999999992
 11
3722.500000000001
 21
1514.999999999992
  0
LINE
  5
38B
100
AcDbEntity
  8
1
  6
CONTINUOUS
 62
           4
100
AcDbLine
 10
3722.500000000001
 20
1514.999999999992
 11
3780.000000000001
 21
1514.999999999992
  0
LINE
  5
38A
100
AcDbEntity
  8
1
  6
CONTINUOUS
 62
           4
100
AcDbLine
 10
3780.000000000001
 20
1484.999999999992
 11
3722.500000000001
 21
1484.999999999992
  0
LINE
  5
389
100
AcDbEntity
  8
1
  6
CONTINUOUS
 62
           4
100
AcDbLine
 10
3722.500000000001
 20
1484.999999999992
 11
3722.500000000001
 21
1454.999999999992
  0
LINE
  5
388
100
AcDbEntity
  8
1
  6
CONTINUOUS
 62
           4
100
AcDbLine
 10
3722.500000000001
 20
1454.999999999992
 11
3780.000000000001
 21
1454.999999999992
  0
LINE
  5
387
100
AcDbEntity
  8
1
  6
CONTINUOUS
 62
           4
100
AcDbLine
 10
3750.000000000001
 20
1514.999999999992
 11
3750.000000000001
 21
1484.999999999992
  0
LINE
  5
386
100
AcDbEntity
  8
1
  6
CONTINUOUS
 62
           4
100
AcDbLine
 10
3750.000000000001
 20
1454.999999999992
 11
3750.000000000001
 21
1161.999999999992
  0
LINE
  5
385
100
AcDbEntity
  8
1
  6
CONTINUOUS
 62
           4
100
AcDbLine
 10
1500.0
 20
1838.000000000002
 11
1305.0
 21
1838.000000000002
  0
LINE
  5
384
100
AcDbEntity
  8
1
  6
CONTINUOUS
 62
           4
100
AcDbLine
 10
1500.0
 20
1162.000000000002
 11
1500.0
 21
1838.000000000002
  0
LINE
  5
383
100
AcDbEntity
  8
1
  6
CONTINUOUS
 62
           4
100
AcDbLine
 10
1305.0
 20
1162.000000000002
 11
1500.0
 21
1162.000000000002
  0
LINE
  5
382
100
AcDbEntity
  8
1
  6
CONTINUOUS
 62
           4
100
AcDbLine
 10
1305.0
 20
1838.000000000002
 11
1305.0
 21
1162.000000000002
  0
LINE
  5
381
100
AcDbEntity
  8
1
  6
CONTINUOUS
 62
           4
100
AcDbLine
 10
1320.0
 20
1642.500000000002
 11
1305.0
 21
1642.500000000002
  0
LINE
  5
380
100
AcDbEntity
  8
1
  6
CONTINUOUS
 62
           4
100
AcDbLine
 10
1320.0
 20
1607.500000000002
 11
1320.0
 21
1642.500000000002
  0
LINE
  5
37F
100
AcDbEntity
  8
1
  6
CONTINUOUS
 62
           4
100
AcDbLine
 10
1305.0
 20
1607.500000000002
 11
1320.0
 21
1607.500000000002
  0
LINE
  5
37E
100
AcDbEntity
  8
1
  6
CONTINUOUS
 62
           4
100
AcDbLine
 10
1320.0
 20
1392.500000000002
 11
1305.0
 21
1392.500000000002
  0
LINE
  5
37D
100
AcDbEntity
  8
1
  6
CONTINUOUS
 62
           4
100
AcDbLine
 10
1320.0
 20
1357.500000000002
 11
1320.0
 21
1392.500000000002
  0
LINE
  5
37C
100
AcDbEntity
  8
1
  6
CONTINUOUS
 62
           4
100
AcDbLine
 10
1305.0
 20
1357.500000000002
 11
1320.0
 21
1357.500000000002
  0
LINE
  5
37B
100
AcDbEntity
  8
1
  6
CONTINUOUS
 62
           4
100
AcDbLine
 10
1530.0
 20
1648.000000000002
 11
1500.0
 21
1648.000000000002
  0
LINE
  5
37A
100
AcDbEntity
  8
1
  6
CONTINUOUS
 62
           4
100
AcDbLine
 10
1530.0
 20
1352.000000000002
 11
1530.0
 21
1648.000000000002
  0
LINE
  5
379
100
AcDbEntity
  8
1
  6
CONTINUOUS
 62
           4
100
AcDbLine
 10
1500.0
 20
1352.000000000002
 11
1530.0
 21
1352.000000000002
  0
LINE
  5
378
100
AcDbEntity
  8
1
  6
CONTINUOUS
 62
           4
100
AcDbLine
 10
1470.0
 20
1162.000000000002
 11
1470.0
 21
1838.000000000002
  0
LINE
  5
377
100
AcDbEntity
  8
1
  6
CONTINUOUS
 62
           4
100
AcDbLine
 10
1500.0
 20
1678.000000000002
 11
1305.0
 21
1678.000000000002
  0
LINE
  5
376
100
AcDbEntity
  8
1
  6
CONTINUOUS
 62
           4
100
AcDbLine
 10
1500.0
 20
1322.000000000002
 11
1305.0
 21
1322.000000000002
  0
LINE
  5
375
100
AcDbEntity
  8
1
  6
CONTINUOUS
 62
           4
100
AcDbLine
 10
134.432661752782
 20
5254.499999999997
 11
117.908702762044
 21
5254.499999999997
  0
LINE
  5
374
100
AcDbEntity
  8
1
  6
CONTINUOUS
 62
           4
100
AcDbLine
 10
134.432661752782
 20
5369.499999999997
 11
117.908702762044
 21
5369.499999999997
  0
LINE
  5
373
100
AcDbEntity
  8
1
  6
CONTINUOUS
 62
           7
100
AcDbLine
 10
184.999999999998
 20
5248.499999999997
 11
144.824966598195
 21
5248.499999999997
  0
LINE
  5
372
100
AcDbEntity
  8
1
  6
CONTINUOUS
 62
           7
100
AcDbLine
 10
144.824966598195
 20
5375.499999999997
 11
184.999999999998
 21
5375.499999999997
  0
LINE
  5
371
100
AcDbEntity
  8
1
  6
CONTINUOUS
 62
           7
100
AcDbLine
 10
132.824966598195
 20
5260.499999999997
 11
132.824966598195
 21
5363.499999999997
  0
LINE
  5
370
100
AcDbEntity
  8
1
  6
CONTINUOUS
 62
           7
100
AcDbLine
 10
196.999999999998
 20
5363.499999999997
 11
196.999999999998
 21
5260.499999999997
  0
LINE
  5
36F
100
AcDbEntity
  8
1
  6
CONTINUOUS
 62
           4
100
AcDbLine
 10
-690.0
 20
5817.499999999997
 11
40.000000000002
 21
5817.499999999997
  0
LINE
  5
36E
100
AcDbEntity
  8
1
  6
CONTINUOUS
 62
           7
100
AcDbLine
 10
40.0
 20
5821.999999999997
 11
-690.0
 21
5821.999999999997
  0
LINE
  5
36D
100
AcDbEntity
  8
1
  6
CONTINUOUS
 62
           4
100
AcDbLine
 10
40.0
 20
5826.499999999997
 11
-690.0
 21
5826.499999999997
  0
LINE
  5
36C
100
AcDbEntity
  8
1
  6
DOT_CENTER
 62
           2
100
AcDbLine
 10
-325.0
 20
5930.888968922946
 11
-325.0
 21
5498.651872456057
  0
LINE
  5
36B
100
AcDbEntity
  8
1
  6
CONTINUOUS
 62
           7
100
AcDbLine
 10
0.0
 20
5771.999999999997
 11
0.0
 21
5781.999999999997
  0
LINE
  5
36A
100
AcDbEntity
  8
1
  6
CONTINUOUS
 62
           7
100
AcDbLine
 10
-650.0
 20
5781.999999999997
 11
-650.0
 21
5771.999999999997
  0
LINE
  5
369
100
AcDbEntity
  8
1
  6
CONTINUOUS
 62
           7
100
AcDbLine
 10
-660.0
 20
5761.999999999997
 11
-650.0
 21
5771.999999999997
  0
LINE
  5
368
100
AcDbEntity
  8
1
  6
CONTINUOUS
 62
           7
100
AcDbLine
 10
31.875234341345
 20
5716.790474617622
 11
0.0
 21
5771.999999999997
  0
LINE
  5
367
100
AcDbEntity
  8
1
  6
CONTINUOUS
 62
           7
100
AcDbLine
 10
-660.0
 20
5761.999999999997
 11
-660.0
 21
5361.999999999994
  0
LINE
  5
366
100
AcDbEntity
  8
1
  6
CONTINUOUS
 62
           7
100
AcDbLine
 10
-690.0
 20
5856.999999999997
 11
-690.0
 21
5821.999999999997
  0
LINE
  5
365
100
AcDbEntity
  8
1
  6
CONTINUOUS
 62
           7
100
AcDbLine
 10
-690.0
 20
5856.999999999997
 11
-685.0
 21
5861.999999999997
  0
LINE
  5
364
100
AcDbEntity
  8
1
  6
CONTINUOUS
 62
           7
100
AcDbLine
 10
35.0
 20
5861.999999999997
 11
-685.0
 21
5861.999999999997
  0
LINE
  5
363
100
AcDbEntity
  8
1
  6
CONTINUOUS
 62
           7
100
AcDbLine
 10
35.0
 20
5861.999999999997
 11
40.0
 21
5856.999999999997
  0
LINE
  5
362
100
AcDbEntity
  8
1
  6
CONTINUOUS
 62
           7
100
AcDbLine
 10
40.0
 20
5821.999999999997
 11
40.0
 21
5856.999999999997
  0
LINE
  5
361
100
AcDbEntity
  8
1
  6
CONTINUOUS
 62
           7
100
AcDbLine
 10
40.0
 20
5786.999999999997
 11
40.0
 21
5821.999999999997
  0
LINE
  5
360
100
AcDbEntity
  8
1
  6
CONTINUOUS
 62
           7
100
AcDbLine
 10
40.0
 20
5786.999999999997
 11
35.0
 21
5781.999999999997
  0
LINE
  5
35F
100
AcDbEntity
  8
1
  6
CONTINUOUS
 62
           7
100
AcDbLine
 10
-685.0
 20
5781.999999999997
 11
35.0
 21
5781.999999999997
  0
LINE
  5
35E
100
AcDbEntity
  8
1
  6
CONTINUOUS
 62
           7
100
AcDbLine
 10
-685.0
 20
5781.999999999997
 11
-690.0
 21
5786.999999999997
  0
LINE
  5
35D
100
AcDbEntity
  8
1
  6
CONTINUOUS
 62
           7
100
AcDbLine
 10
-690.0
 20
5821.999999999997
 11
-690.0
 21
5786.999999999997
  0
LINE
  5
35C
100
AcDbEntity
  8
1
  6
CONTINUOUS
 62
           7
100
AcDbLine
 10
445.000000000002
 20
5411.999999999997
 11
170.000000200062
 21
5686.999999999997
  0
LINE
  5
35B
100
AcDbEntity
  8
1
  6
CONTINUOUS
 62
           7
100
AcDbLine
 10
-645.983368801935
 20
5307.531349823826
 11
-56.963420073542
 21
4718.51140109543
  0
LINE
  5
35A
100
AcDbEntity
  8
1
  6
CONTINUOUS
 62
           7
100
AcDbLine
 10
-180.0
 20
5781.999999999997
 11
-650.0
 21
5311.999999999997
  0
LINE
  5
359
100
AcDbEntity
  8
1
  6
CONTINUOUS
 62
           7
100
AcDbLine
 10
-650.226009489055
 20
5311.773990510946
 11
-645.983368801935
 21
5307.531349823826
  0
LINE
  5
358
100
AcDbEntity
  8
1
  6
CONTINUOUS
 62
           7
100
AcDbLine
 10
-52.72077938642
 20
4714.26876040831
 11
470.538238691624
 21
5237.527778486355
  0
LINE
  5
357
100
AcDbEntity
  8
1
  6
CONTINUOUS
 62
           7
100
AcDbLine
 10
-56.963420073542
 20
4718.51140109543
 11
-52.72077938642
 21
4714.26876040831
  0
LINE
  5
356
100
AcDbEntity
  8
1
  6
CONTINUOUS
 62
           7
100
AcDbLine
 10
-650.0
 20
5311.999999999997
 11
-650.226009489055
 21
5311.773990510946
  0
LINE
  5
355
100
AcDbEntity
  8
1
  6
CONTINUOUS
 62
           7
100
AcDbLine
 10
215.999999999998
 20
5095.999999999999
 11
216.000000000002
 21
5581.999999999997
  0
LINE
  5
354
100
AcDbEntity
  8
1
  6
CONTINUOUS
 62
           7
100
AcDbLine
 10
-216.0
 20
5095.999999999999
 11
270.000000000002
 21
5095.999999999999
  0
LINE
  5
353
100
AcDbEntity
  8
1
  6
CONTINUOUS
 62
           7
100
AcDbLine
 10
-216.000000000002
 20
5527.999999999999
 11
-216.0
 21
5041.999999999997
  0
LINE
  5
352
100
AcDbEntity
  8
1
  6
CONTINUOUS
 62
           7
100
AcDbLine
 10
216.000000000002
 20
5527.999999999999
 11
-270.0
 21
5527.999999999999
  0
LINE
  5
351
100
AcDbEntity
  8
1
  6
CONTINUOUS
 62
           7
100
AcDbLine
 10
-52.72077938642
 20
2150.0
 11
-52.720779386418
 21
2165.0
  0
LINE
  5
350
100
AcDbEntity
  8
1
  6
CONTINUOUS
 62
           7
100
AcDbLine
 10
197.000000000002
 20
2804.299999999998
 11
197.000000000002
 21
2728.299999999997
  0
LINE
  5
34F
100
AcDbEntity
  8
1
  6
CONTINUOUS
 62
           7
100
AcDbLine
 10
122.496396800001
 20
2728.299999999997
 11
122.496396800001
 21
2804.299999999998
  0
LINE
  5
34E
100
AcDbEntity
  8
1
  6
CONTINUOUS
 62
           7
100
AcDbLine
 10
134.496396800001
 20
2816.299999999997
 11
185.000000000002
 21
2816.299999999997
  0
LINE
  5
34D
100
AcDbEntity
  8
1
  6
CONTINUOUS
 62
           7
100
AcDbLine
 10
185.000000000002
 20
2716.299999999997
 11
134.496396800001
 21
2716.299999999997
  0
LINE
  5
34C
100
AcDbEntity
  8
2
  6
CONTINUOUS
 62
           4
100
AcDbLine
 10
109.242370400001
 20
2659.099999999999
 11
-112.242370399999
 21
2659.099999999999
  0
LINE
  5
34B
100
AcDbEntity
  8
7
  6
CONTINUOUS
 62
           7
100
AcDbLine
 10
125.0
 20
2915.231865248043
 11
125.0
 21
2882.1868192
  0
LINE
  5
34A
100
AcDbEntity
  8
7
  6
CONTINUOUS
 62
           7
100
AcDbLine
 10
-125.0
 20
2915.231865248043
 11
-121.4
 21
2948.133628400001
  0
LINE
  5
349
100
AcDbEntity
  8
1
  6
CONTINUOUS
 62
           4
100
AcDbLine
 10
125.0
 20
2915.231865248043
 11
-125.0
 21
2915.231865248043
  0
LINE
  5
348
100
AcDbEntity
  8
2
  6
CONTINUOUS
 62
           7
100
AcDbLine
 10
-112.242370399999
 20
2659.099999999999
 11
-125.496396800001
 21
2690.900000000001
  0
LINE
  5
347
100
AcDbEntity
  8
2
  6
CONTINUOUS
 62
           7
100
AcDbLine
 10
-125.496396800001
 20
2782.149999999999
 11
-125.496396800001
 21
2690.900000000001
  0
LINE
  5
346
100
AcDbEntity
  8
2
  6
CONTINUOUS
 62
           7
100
AcDbLine
 10
-119.7446492
 20
2882.1868192
 11
-125.496396800001
 21
2868.3868192
  0
LINE
  5
345
100
AcDbEntity
  8
2
  6
CONTINUOUS
 62
           7
100
AcDbLine
 10
-125.496396800001
 20
2782.149999999999
 11
-125.496396800001
 21
2868.3868192
  0
LINE
  5
344
100
AcDbEntity
  8
2
  6
CONTINUOUS
 62
           4
100
AcDbLine
 10
-107.06
 20
2659.099999999999
 11
-107.06
 21
2649.0
  0
LINE
  5
343
100
AcDbEntity
  8
2
  6
CONTINUOUS
 62
           4
100
AcDbLine
 10
104.060000000001
 20
2649.0
 11
104.060000000001
 21
2659.099999999999
  0
LINE
  5
342
100
AcDbEntity
  8
2
  6
CONTINUOUS
 62
           7
100
AcDbLine
 10
122.496396800001
 20
2868.3868192
 11
122.496396800001
 21
2782.149999999999
  0
LINE
  5
341
100
AcDbEntity
  8
2
  6
CONTINUOUS
 62
           7
100
AcDbLine
 10
122.496396800001
 20
2868.3868192
 11
116.7446492
 21
2882.1868192
  0
LINE
  5
340
100
AcDbEntity
  8
2
  6
CONTINUOUS
 62
           7
100
AcDbLine
 10
122.496396800001
 20
2690.900000000001
 11
122.496396800001
 21
2782.149999999999
  0
LINE
  5
33F
100
AcDbEntity
  8
2
  6
CONTINUOUS
 62
           7
100
AcDbLine
 10
122.496396800001
 20
2690.900000000001
 11
109.242370400001
 21
2659.099999999999
  0
LINE
  5
33E
100
AcDbEntity
  8
7
  6
CONTINUOUS
 62
           7
100
AcDbLine
 10
0.0
 20
2978.0
 11
85.52
 21
2978.0
  0
LINE
  5
33D
100
AcDbEntity
  8
7
  6
CONTINUOUS
 62
           7
100
AcDbLine
 10
90.3834164
 20
2972.483396
 11
115.131240799999
 21
2952.634035200001
  0
LINE
  5
33C
100
AcDbEntity
  8
7
  6
CONTINUOUS
 62
           4
100
AcDbLine
 10
-120.190427599999
 20
2952.200000000001
 11
117.560000000001
 21
2952.200000000001
  0
LINE
  5
33B
100
AcDbEntity
  8
7
  6
CONTINUOUS
 62
           7
100
AcDbLine
 10
121.4
 20
2948.360000000001
 11
125.0
 21
2915.231865248043
  0
LINE
  5
33A
100
AcDbEntity
  8
7
  6
CONTINUOUS
 62
           7
100
AcDbLine
 10
125.0
 20
2882.1868192
 11
-125.0
 21
2882.1868192
  0
LINE
  5
339
100
AcDbEntity
  8
7
  6
CONTINUOUS
 62
           7
100
AcDbLine
 10
-125.0
 20
2882.1868192
 11
-125.0
 21
2915.231865248043
  0
LINE
  5
338
100
AcDbEntity
  8
7
  6
CONTINUOUS
 62
           7
100
AcDbLine
 10
0.0
 20
2978.0
 11
-88.52
 21
2978.0
  0
LINE
  5
337
100
AcDbEntity
  8
7
  6
CONTINUOUS
 62
           7
100
AcDbLine
 10
-93.383417599998
 20
2972.483396
 11
-117.977411600001
 21
2954.3957372
  0
LINE
  5
336
100
AcDbEntity
  8
1
  6
DOT_CENTER
 62
           2
100
AcDbLine
 10
533.829689541417
 20
2385.000000000003
 11
-732.147676803783
 21
2385.000000000001
  0
LINE
  5
335
100
AcDbEntity
  8
1
  6
CONTINUOUS
 62
           2
100
AcDbLine
 10
467.974062000609
 20
2565.000000000003
 11
425.133110726258
 21
2565.000000000003
  0
LINE
  5
334
100
AcDbEntity
  8
1
  6
CONTINUOUS
 62
           2
100
AcDbLine
 10
425.133110726258
 20
2205.000000000002
 11
467.974062000609
 21
2205.000000000003
  0
LINE
  5
333
100
AcDbEntity
  8
1
  6
CONTINUOUS
 62
           2
100
AcDbLine
 10
425.133110726258
 20
2565.000000000003
 11
425.133110726258
 21
2205.000000000002
  0
LINE
  5
332
100
AcDbEntity
  8
1
  6
CONTINUOUS
 62
           7
100
AcDbLine
 10
-649.226009489052
 20
2164.999999999996
 11
-649.226009489052
 21
2150.0
  0
LINE
  5
331
100
AcDbEntity
  8
1
  6
CONTINUOUS
 62
           7
100
AcDbLine
 10
-648.999999999993
 20
2605.0
 11
-648.999999999993
 21
2164.999999999996
  0
LINE
  5
330
100
AcDbEntity
  8
1
  6
CONTINUOUS
 62
           7
100
AcDbLine
 10
-649.226009489052
 20
2605.0
 11
-649.226009489052
 21
2642.999999999999
  0
LINE
  5
32F
100
AcDbEntity
  8
1
  6
CONTINUOUS
 62
           7
100
AcDbLine
 10
-667.432750797187
 20
2605.0
 11
-689.999999999996
 21
2605.0
  0
LINE
  5
32E
100
AcDbEntity
  8
1
  6
CONTINUOUS
 62
           7
100
AcDbLine
 10
-658.999999999996
 20
2645.0
 11
-689.999999999996
 21
2645.0
  0
LINE
  5
32D
100
AcDbEntity
  8
1
  6
CONTINUOUS
 62
           7
100
AcDbLine
 10
467.974062000609
 20
2605.0
 11
467.974062000609
 21
2165.0
  0
LINE
  5
32C
100
AcDbEntity
  8
1
  6
CONTINUOUS
 62
           4
100
AcDbLine
 10
270.0
 20
2643.0
 11
270.0
 21
2643.999999999998
  0
LINE
  5
32B
100
AcDbEntity
  8
1
  6
CONTINUOUS
 62
           4
100
AcDbLine
 10
265.0
 20
2649.0
 11
-264.993063735608
 21
2649.0
  0
LINE
  5
32A
100
AcDbEntity
  8
1
  6
CONTINUOUS
 62
           4
100
AcDbLine
 10
270.0
 20
2643.999999999998
 11
265.0
 21
2649.0
  0
LINE
  5
329
100
AcDbEntity
  8
1
  6
CONTINUOUS
 62
           7
100
AcDbLine
 10
470.538238691624
 20
2165.0
 11
470.538238691624
 21
2150.0
  0
LINE
  5
328
100
AcDbEntity
  8
1
  6
CONTINUOUS
 62
           7
100
AcDbLine
 10
470.538238691624
 20
2643.0
 11
470.538238691624
 21
2605.0
  0
LINE
  5
327
100
AcDbEntity
  8
1
  6
CONTINUOUS
 62
           7
100
AcDbLine
 10
-649.226009489052
 20
2642.999999999999
 11
470.538238691624
 21
2643.0
  0
LINE
  5
326
100
AcDbEntity
  8
1
  6
CONTINUOUS
 62
           2
100
AcDbLine
 10
-576.934895578941
 20
2565.000000000003
 11
-576.934895578941
 21
2205.000000000002
  0
LINE
  5
325
100
AcDbEntity
  8
1
  6
CONTINUOUS
 62
           2
100
AcDbLine
 10
-268.542359119501
 20
2565.000000000003
 11
-576.934895578941
 21
2565.000000000003
  0
LINE
  5
324
100
AcDbEntity
  8
1
  6
CONTINUOUS
 62
           2
100
AcDbLine
 10
-268.542359119501
 20
2205.000000000002
 11
-268.542359119501
 21
2565.000000000003
  0
LINE
  5
323
100
AcDbEntity
  8
1
  6
CONTINUOUS
 62
           2
100
AcDbLine
 10
-576.934895578941
 20
2205.000000000002
 11
-268.542359119501
 21
2205.000000000002
  0
LINE
  5
322
100
AcDbEntity
  8
1
  6
CONTINUOUS
 62
           7
100
AcDbLine
 10
477.97458985055
 20
2165.0
 11
-387.5
 21
2164.999999999997
  0
LINE
  5
321
100
AcDbEntity
  8
1
  6
CONTINUOUS
 62
           7
100
AcDbLine
 10
477.97458985055
 20
2605.0
 11
-658.999999999996
 21
2605.0
  0
LINE
  5
320
100
AcDbEntity
  8
1
  6
CONTINUOUS
 62
           7
100
AcDbLine
 10
-689.999999999996
 20
2165.0
 11
-667.188191940733
 21
2165.0
  0
LINE
  5
31F
100
AcDbEntity
  8
1
  6
CONTINUOUS
 62
           7
100
AcDbLine
 10
-689.999999999996
 20
2645.0
 11
-689.999999999996
 21
2150.0
  0
LINE
  5
31E
100
AcDbEntity
  8
1
  6
CONTINUOUS
 62
           4
100
AcDbLine
 10
-264.993063735608
 20
2649.0
 11
-268.19750294482
 21
2645.8
  0
LINE
  5
31D
100
AcDbEntity
  8
1
  6
CONTINUOUS
 62
           7
100
AcDbLine
 10
-52.720779386418
 20
2605.0
 11
-52.720779386418
 21
2642.999999999999
  0
LINE
  5
31C
100
AcDbEntity
  8
1
  6
CONTINUOUS
 62
           7
100
AcDbLine
 10
-512.5
 20
2164.999999999996
 11
-658.999999999996
 21
2164.999999999996
  0
LINE
  5
31B
100
AcDbEntity
  8
1
  6
DOT_CENTER
 62
           2
100
AcDbLine
 10
5720.588082276605
 20
2385.000000000001
 11
4485.991794870064
 21
2385.000000000001
  0
LINE
  5
31A
100
AcDbEntity
  8
2
  6
CONTINUOUS
 62
           4
100
AcDbLine
 10
5214.059999999998
 20
2649.000000000001
 11
5214.059999999998
 21
2659.1
  0
LINE
  5
319
100
AcDbEntity
  8
7
  6
CONTINUOUS
 62
           7
100
AcDbLine
 10
5016.616582399998
 20
2972.483396
 11
4992.022588399996
 21
2954.395737200001
  0
LINE
  5
318
100
AcDbEntity
  8
7
  6
CONTINUOUS
 62
           7
100
AcDbLine
 10
5110.0
 20
2978.0
 11
5021.479999999996
 21
2978.0
  0
LINE
  5
317
100
AcDbEntity
  8
7
  6
CONTINUOUS
 62
           7
100
AcDbLine
 10
4985.0
 20
2882.186819200001
 11
4985.0
 21
2915.231865248043
  0
LINE
  5
316
100
AcDbEntity
  8
7
  6
CONTINUOUS
 62
           7
100
AcDbLine
 10
5235.0
 20
2882.186819200001
 11
4985.0
 21
2882.186819200001
  0
LINE
  5
315
100
AcDbEntity
  8
7
  6
CONTINUOUS
 62
           7
100
AcDbLine
 10
5231.399999999994
 20
2948.360000000001
 11
5235.0
 21
2915.231865248043
  0
LINE
  5
314
100
AcDbEntity
  8
7
  6
CONTINUOUS
 62
           4
100
AcDbLine
 10
4989.809572399998
 20
2952.200000000001
 11
5227.559999999998
 21
2952.200000000001
  0
LINE
  5
313
100
AcDbEntity
  8
7
  6
CONTINUOUS
 62
           7
100
AcDbLine
 10
5200.3834164
 20
2972.483396
 11
5225.131240799998
 21
2952.634035200001
  0
LINE
  5
312
100
AcDbEntity
  8
7
  6
CONTINUOUS
 62
           7
100
AcDbLine
 10
5110.0
 20
2978.0
 11
5195.519999999997
 21
2978.0
  0
LINE
  5
311
100
AcDbEntity
  8
2
  6
CONTINUOUS
 62
           7
100
AcDbLine
 10
5232.496396799998
 20
2706.900000000002
 11
5219.242370399996
 21
2659.1
  0
LINE
  5
310
100
AcDbEntity
  8
2
  6
CONTINUOUS
 62
           7
100
AcDbLine
 10
5232.496396799998
 20
2706.900000000002
 11
5232.496396799998
 21
2782.150000000002
  0
LINE
  5
30F
100
AcDbEntity
  8
2
  6
CONTINUOUS
 62
           7
100
AcDbLine
 10
5232.496396799998
 20
2868.386819200001
 11
5226.744649199995
 21
2882.186819200001
  0
LINE
  5
30E
100
AcDbEntity
  8
2
  6
CONTINUOUS
 62
           7
100
AcDbLine
 10
5232.496396799998
 20
2868.386819200001
 11
5232.496396799998
 21
2782.150000000002
  0
LINE
  5
30D
100
AcDbEntity
  8
2
  6
CONTINUOUS
 62
           4
100
AcDbLine
 10
5002.939999999999
 20
2659.1
 11
5002.939999999999
 21
2649.000000000001
  0
LINE
  5
30C
100
AcDbEntity
  8
2
  6
CONTINUOUS
 62
           7
100
AcDbLine
 10
4984.503603199999
 20
2782.150000000002
 11
4984.503603199999
 21
2868.386819200001
  0
LINE
  5
30B
100
AcDbEntity
  8
2
  6
CONTINUOUS
 62
           7
100
AcDbLine
 10
4990.255350799998
 20
2882.186819200001
 11
4984.503603199999
 21
2868.386819200001
  0
LINE
  5
30A
100
AcDbEntity
  8
2
  6
CONTINUOUS
 62
           7
100
AcDbLine
 10
4984.503603199999
 20
2782.150000000002
 11
4984.503603199999
 21
2706.900000000002
  0
LINE
  5
309
100
AcDbEntity
  8
2
  6
CONTINUOUS
 62
           7
100
AcDbLine
 10
4997.757629599997
 20
2659.1
 11
4984.503603199999
 21
2706.900000000002
  0
LINE
  5
308
100
AcDbEntity
  8
1
  6
CONTINUOUS
 62
           4
100
AcDbLine
 10
5235.0
 20
2915.231865248043
 11
4985.0
 21
2915.231865248043
  0
LINE
  5
307
100
AcDbEntity
  8
7
  6
CONTINUOUS
 62
           7
100
AcDbLine
 10
4985.0
 20
2915.231865248043
 11
4988.6
 21
2948.133628400001
  0
LINE
  5
306
100
AcDbEntity
  8
7
  6
CONTINUOUS
 62
           7
100
AcDbLine
 10
5235.0
 20
2915.231865248043
 11
5235.0
 21
2882.186819200001
  0
LINE
  5
305
100
AcDbEntity
  8
2
  6
CONTINUOUS
 62
           4
100
AcDbLine
 10
5219.242370399996
 20
2659.1
 11
4997.757629599997
 21
2659.1
  0
LINE
  5
304
100
AcDbEntity
  8
1
  6
CONTINUOUS
 62
           7
100
AcDbLine
 10
5161.5
 20
2716.299999999999
 11
5058.5
 21
2716.299999999999
  0
LINE
  5
303
100
AcDbEntity
  8
1
  6
CONTINUOUS
 62
           7
100
AcDbLine
 10
5058.5
 20
2816.299999999999
 11
5161.5
 21
2816.299999999999
  0
LINE
  5
302
100
AcDbEntity
  8
1
  6
CONTINUOUS
 62
           7
100
AcDbLine
 10
5046.5
 20
2728.299999999999
 11
5046.5
 21
2804.299999999999
  0
LINE
  5
301
100
AcDbEntity
  8
1
  6
CONTINUOUS
 62
           7
100
AcDbLine
 10
5173.5
 20
2804.299999999999
 11
5173.5
 21
2728.299999999999
  0
LINE
  5
300
100
AcDbEntity
  8
1
  6
CONTINUOUS
 62
           7
100
AcDbLine
 10
5035.527778486357
 20
2127.000000000001
 11
4512.268760408315
 21
2127.000000000001
  0
LINE
  5
2FF
100
AcDbEntity
  8
1
  6
CONTINUOUS
 62
           7
100
AcDbLine
 10
5035.527778486357
 20
2165.000000000001
 11
5035.527778486357
 21
2127.000000000001
  0
LINE
  5
2FE
100
AcDbEntity
  8
1
  6
CONTINUOUS
 62
           7
100
AcDbLine
 10
5210.0
 20
2165.000000000001
 11
5210.0
 21
2127.000000000001
  0
LINE
  5
2FD
100
AcDbEntity
  8
1
  6
CONTINUOUS
 62
           7
100
AcDbLine
 10
5485.0
 20
2165.000000000001
 11
5485.0
 21
2127.000000000001
  0
LINE
  5
2FC
100
AcDbEntity
  8
1
  6
CONTINUOUS
 62
           7
100
AcDbLine
 10
5485.0
 20
2642.700000000002
 11
5485.0
 21
2605.000000000001
  0
LINE
  5
2FB
100
AcDbEntity
  8
1
  6
CONTINUOUS
 62
           7
100
AcDbLine
 10
5210.0
 20
2643.000000000001
 11
5576.464466094069
 21
2643.000000000002
  0
LINE
  5
2FA
100
AcDbEntity
  8
1
  6
CONTINUOUS
 62
           7
100
AcDbLine
 10
5035.527778486357
 20
2643.000000000001
 11
5035.527778486357
 21
2605.000000000001
  0
LINE
  5
2F9
100
AcDbEntity
  8
1
  6
CONTINUOUS
 62
           7
100
AcDbLine
 10
5210.0
 20
2643.000000000001
 11
5210.0
 21
2605.000000000001
  0
LINE
  5
2F8
100
AcDbEntity
  8
1
  6
DOT_CENTER
 62
           2
100
AcDbLine
 10
5110.0
 20
2041.288302183322
 11
5110.0
 21
3077.996004786782
  0
LINE
  5
2F7
100
AcDbEntity
  8
1
  6
CONTINUOUS
 62
           7
100
AcDbLine
 10
4550.010908476354
 20
2165.000000000001
 11
4550.010908476354
 21
2605.000000000001
  0
LINE
  5
2F6
100
AcDbEntity
  8
1
  6
CONTINUOUS
 62
           4
100
AcDbLine
 10
5450.0
 20
2075.000000000001
 11
5450.0
 21
2081.000000000001
  0
LINE
  5
2F5
100
AcDbEntity
  8
1
  6
CONTINUOUS
 62
           4
100
AcDbLine
 10
4770.0
 20
2081.000000000001
 11
4770.0
 21
2075.000000000001
  0
LINE
  5
2F4
100
AcDbEntity
  8
1
  6
CONTINUOUS
 62
           7
100
AcDbLine
 10
4770.0
 20
2075.000000000001
 11
5450.0
 21
2075.000000000001
  0
LINE
  5
2F3
100
AcDbEntity
  8
1
  6
CONTINUOUS
 62
           4
100
AcDbLine
 10
5450.0
 20
2081.000000000001
 11
4770.0
 21
2081.000000000001
  0
LINE
  5
2F2
100
AcDbEntity
  8
0
  6
CONTINUOUS
 62
           7
100
AcDbLine
 10
5430.0
 20
2164.999999999999
 11
5364.211716344315
 21
2164.999999999999
  0
LINE
  5
2F1
100
AcDbEntity
  8
0
  6
CONTINUOUS
 62
           7
100
AcDbLine
 10
4811.799999999999
 20
2127.000000000001
 11
4811.799999999999
 21
2081.000000000001
  0
LINE
  5
2F0
100
AcDbEntity
  8
0
  6
CONTINUOUS
 62
           7
100
AcDbLine
 10
5408.199999999997
 20
2081.000000000001
 11
5408.199999999997
 21
2127.000000000001
  0
LINE
  5
2EF
100
AcDbEntity
  8
1
  6
CONTINUOUS
 62
           4
100
AcDbLine
 10
4840.0
 20
2643.999999999999
 11
4840.0
 21
2643.000000000001
  0
LINE
  5
2EE
100
AcDbEntity
  8
1
  6
CONTINUOUS
 62
           4
100
AcDbLine
 10
5374.993063735608
 20
2649.000000000001
 11
4845.0
 21
2649.000000000001
  0
LINE
  5
2ED
100
AcDbEntity
  8
1
  6
CONTINUOUS
 62
           4
100
AcDbLine
 10
4845.0
 20
2649.000000000001
 11
4840.0
 21
2643.999999999999
  0
LINE
  5
2EC
100
AcDbEntity
  8
1
  6
CONTINUOUS
 62
           4
100
AcDbLine
 10
5380.0
 20
2643.999999999999
 11
5374.993063735608
 21
2649.000000000001
  0
LINE
  5
2EB
100
AcDbEntity
  8
1
  6
CONTINUOUS
 62
           4
100
AcDbLine
 10
5380.0
 20
2643.000000000001
 11
5380.0
 21
2643.999999999999
  0
LINE
  5
2EA
100
AcDbEntity
  8
1
  6
CONTINUOUS
 62
           7
100
AcDbLine
 10
5580.0
 20
2165.000000000002
 11
4512.268760408315
 21
2165.000000000001
  0
LINE
  5
2E9
100
AcDbEntity
  8
1
  6
CONTINUOUS
 62
           7
100
AcDbLine
 10
5580.0
 20
2605.000000000001
 11
4512.268760408315
 21
2605.000000000001
  0
LINE
  5
2E8
100
AcDbEntity
  8
1
  6
CONTINUOUS
 62
           7
100
AcDbLine
 10
4512.268760408315
 20
2127.000000000001
 11
4512.268760408315
 21
2165.000000000001
  0
LINE
  5
2E7
100
AcDbEntity
  8
1
  6
CONTINUOUS
 62
           7
100
AcDbLine
 10
5580.0
 20
2132.000000000001
 11
5576.464466094069
 21
2127.000000000001
  0
LINE
  5
2E6
100
AcDbEntity
  8
1
  6
CONTINUOUS
 62
           7
100
AcDbLine
 10
5576.464466094069
 20
2643.000000000002
 11
5580.0
 21
2638.000000000001
  0
LINE
  5
2E5
100
AcDbEntity
  8
1
  6
CONTINUOUS
 62
           7
100
AcDbLine
 10
4512.268760408315
 20
2605.000000000001
 11
4512.268760408315
 21
2643.000000000001
  0
LINE
  5
2E4
100
AcDbEntity
  8
1
  6
CONTINUOUS
 62
           7
100
AcDbLine
 10
4512.268760408315
 20
2643.000000000001
 11
5035.527778486357
 21
2643.000000000001
  0
LINE
  5
2E3
100
AcDbEntity
  8
1
  6
CONTINUOUS
 62
           7
100
AcDbLine
 10
5580.0
 20
2638.000000000001
 11
5580.0
 21
2605.000000000001
  0
LINE
  5
2E2
100
AcDbEntity
  8
1
  6
CONTINUOUS
 62
           7
100
AcDbLine
 10
5580.0
 20
2165.000000000002
 11
5580.0
 21
2132.000000000001
  0
LINE
  5
2E1
100
AcDbEntity
  8
1
  6
CONTINUOUS
 62
           7
100
AcDbLine
 10
5576.464466094069
 20
2127.000000000001
 11
5210.0
 21
2127.000000000001
  0
LINE
  5
2E0
100
AcDbEntity
  8
1
  6
CONTINUOUS
 62
           7
100
AcDbLine
 10
5580.0
 20
2165.000000000002
 11
5614.499999999996
 21
2165.000000000001
  0
LINE
  5
2DF
100
AcDbEntity
  8
1
  6
CONTINUOUS
 62
           7
100
AcDbLine
 10
5580.0
 20
2605.000000000001
 11
5580.0
 21
2165.000000000002
  0
LINE
  5
2DE
100
AcDbEntity
  8
1
  6
CONTINUOUS
 62
           4
100
AcDbLine
 10
5615.5
 20
2605.000000000003
 11
5615.5
 21
2165.000000000001
  0
LINE
  5
2DD
100
AcDbEntity
  8
1
  6
CONTINUOUS
 62
           4
100
AcDbLine
 10
5615.5
 20
2125.000000000001
 11
5615.5
 21
2159.500000000002
  0
LINE
  5
2DC
100
AcDbEntity
  8
1
  6
CONTINUOUS
 62
           4
100
AcDbLine
 10
5615.5
 20
2610.500000000003
 11
5615.5
 21
2645.000000000003
  0
LINE
  5
2DB
100
AcDbEntity
  8
1
  6
CONTINUOUS
 62
           7
100
AcDbLine
 10
5614.500000000015
 20
2605.000000000003
 11
5580.0
 21
2605.000000000001
  0
LINE
  5
2DA
100
AcDbEntity
  8
1
  6
CONTINUOUS
 62
           7
100
AcDbLine
 10
5660.0
 20
2605.000000000001
 11
5625.5
 21
2605.000000000003
  0
LINE
  5
2D9
100
AcDbEntity
  8
1
  6
CONTINUOUS
 62
           4
100
AcDbLine
 10
5624.5
 20
2645.000000000003
 11
5624.5
 21
2610.500000000003
  0
LINE
  5
2D8
100
AcDbEntity
  8
1
  6
CONTINUOUS
 62
           4
100
AcDbLine
 10
5624.5
 20
2159.500000000002
 11
5624.5
 21
2125.000000000001
  0
LINE
  5
2D7
100
AcDbEntity
  8
1
  6
CONTINUOUS
 62
           4
100
AcDbLine
 10
5624.5
 20
2165.000000000001
 11
5624.5
 21
2605.000000000003
  0
LINE
  5
2D6
100
AcDbEntity
  8
1
  6
CONTINUOUS
 62
           7
100
AcDbLine
 10
5660.0
 20
2165.000000000002
 11
5660.0
 21
2605.000000000001
  0
LINE
  5
2D5
100
AcDbEntity
  8
1
  6
CONTINUOUS
 62
           7
100
AcDbLine
 10
5625.499999999996
 20
2165.000000000001
 11
5660.0
 21
2165.000000000002
  0
LINE
  5
2D4
100
AcDbEntity
  8
1
  6
CONTINUOUS
 62
           7
100
AcDbLine
 10
5620.0
 20
2125.000000000002
 11
5620.0
 21
2645.000000000003
  0
LINE
  5
2D3
100
AcDbEntity
  8
1
  6
CONTINUOUS
 62
           4
100
AcDbLine
 10
5580.0
 20
2609.500000000001
 11
5614.5
 21
2609.500000000003
  0
LINE
  5
2D2
100
AcDbEntity
  8
1
  6
CONTINUOUS
 62
           7
100
AcDbLine
 10
5580.0
 20
2605.000000000001
 11
5580.0
 21
2609.500000000001
  0
LINE
  5
2D1
100
AcDbEntity
  8
1
  6
CONTINUOUS
 62
           4
100
AcDbLine
 10
5660.0
 20
2609.500000000006
 11
5625.5
 21
2609.500000000003
  0
LINE
  5
2D0
100
AcDbEntity
  8
1
  6
CONTINUOUS
 62
           7
100
AcDbLine
 10
5660.0
 20
2605.000000000001
 11
5660.0
 21
2609.500000000006
  0
LINE
  5
2CF
100
AcDbEntity
  8
1
  6
CONTINUOUS
 62
           4
100
AcDbLine
 10
5615.5
 20
2645.000000000003
 11
5624.5
 21
2645.000000000003
  0
LINE
  5
2CE
100
AcDbEntity
  8
1
  6
CONTINUOUS
 62
           7
100
AcDbLine
 10
5625.5
 20
2605.000000000003
 11
5614.500000000015
 21
2605.000000000003
  0
LINE
  5
2CD
100
AcDbEntity
  8
1
  6
CONTINUOUS
 62
           4
100
AcDbLine
 10
5615.5
 20
2125.000000000001
 11
5624.5
 21
2125.000000000001
  0
LINE
  5
2CC
100
AcDbEntity
  8
1
  6
CONTINUOUS
 62
           7
100
AcDbLine
 10
5579.999999999996
 20
2160.500000000001
 11
5580.0
 21
2165.000000000002
  0
LINE
  5
2CB
100
AcDbEntity
  8
1
  6
CONTINUOUS
 62
           4
100
AcDbLine
 10
5660.0
 20
2160.500000000002
 11
5625.5
 21
2160.500000000002
  0
LINE
  5
2CA
100
AcDbEntity
  8
1
  6
CONTINUOUS
 62
           7
100
AcDbLine
 10
5660.0
 20
2165.000000000002
 11
5660.0
 21
2160.500000000002
  0
LINE
  5
2C9
100
AcDbEntity
  8
1
  6
CONTINUOUS
 62
           4
100
AcDbLine
 10
5614.5
 20
2160.500000000002
 11
5579.999999999996
 21
2160.500000000001
  0
LINE
  5
2C8
100
AcDbEntity
  8
1
  6
CONTINUOUS
 62
           7
100
AcDbLine
 10
5625.499999999996
 20
2165.000000000001
 11
5614.499999999996
 21
2165.000000000001
  0
LINE
  5
2C7
100
AcDbEntity
  8
1
  6
CONTINUOUS
 62
           2
100
AcDbLine
 10
5262.532262743702
 20
2205.000000000001
 11
5262.532262743702
 21
2565.000000000001
  0
LINE
  5
2C6
100
AcDbEntity
  8
1
  6
CONTINUOUS
 62
           2
100
AcDbLine
 10
5262.532262743702
 20
2565.000000000001
 11
4855.319562772416
 21
2565.000000000001
  0
LINE
  5
2C5
100
AcDbEntity
  8
1
  6
CONTINUOUS
 62
           2
100
AcDbLine
 10
4855.319562772416
 20
2565.000000000001
 11
4855.319562772416
 21
2205.000000000001
  0
LINE
  5
2C4
100
AcDbEntity
  8
1
  6
CONTINUOUS
 62
           2
100
AcDbLine
 10
4855.319562772416
 20
2205.000000000001
 11
5262.532262743702
 21
2205.000000000001
  0
LINE
  5
2C3
100
AcDbEntity
  8
1
  6
CONTINUOUS
 62
           3
100
AcDbLine
 10
4990.163567691042
 20
1935.969655114603
 11
4984.489527668222
 21
1932.693746580041
  0
LINE
  5
2C2
100
AcDbEntity
  8
1
  6
CONTINUOUS
 62
           3
100
AcDbLine
 10
4999.663567691042
 20
1930.484827557303
 11
4990.163567691042
 21
1935.969655114603
  0
LINE
  5
2C1
100
AcDbEntity
  8
1
  6
CONTINUOUS
 62
           3
100
AcDbLine
 10
4999.663567691042
 20
1919.5151724427
 11
4999.663567691042
 21
1930.484827557303
  0
LINE
  5
2C0
100
AcDbEntity
  8
1
  6
CONTINUOUS
 62
           3
100
AcDbLine
 10
4990.163567691042
 20
1914.030344885399
 11
4999.663567691042
 21
1919.5151724427
  0
LINE
  5
2BF
100
AcDbEntity
  8
1
  6
CONTINUOUS
 62
           3
100
AcDbLine
 10
4984.489527668229
 20
1917.306253419961
 11
4990.163567691042
 21
1914.030344885399
  0
LINE
  5
2BE
100
AcDbEntity
  8
1
  6
DOT_CENTER
 62
           3
100
AcDbLine
 10
4966.218519558621
 20
1925.000000000001
 11
5007.66769526244
 21
1925.000000000001
  0
LINE
  5
2BD
100
AcDbEntity
  8
1
  6
CONTINUOUS
 62
           3
100
AcDbLine
 10
4979.389214871942
 20
1916.750000000001
 11
4979.389214871942
 21
1917.306253419961
  0
LINE
  5
2BC
100
AcDbEntity
  8
1
  6
CONTINUOUS
 62
           3
100
AcDbLine
 10
4979.389214871942
 20
1916.750000000001
 11
4969.714603906643
 21
1916.750000000001
  0
LINE
  5
2BB
100
AcDbEntity
  8
1
  6
CONTINUOUS
 62
           3
100
AcDbLine
 10
4969.714603906643
 20
1916.750000000001
 11
4969.714603906643
 21
1925.000000000001
  0
LINE
  5
2BA
100
AcDbEntity
  8
1
  6
CONTINUOUS
 62
           3
100
AcDbLine
 10
4969.714603906643
 20
1919.000000000001
 11
4968.868798384461
 21
1919.000000000001
  0
LINE
  5
2B9
100
AcDbEntity
  8
1
  6
CONTINUOUS
 62
           3
100
AcDbLine
 10
4968.868798384461
 20
1917.306253419961
 11
4968.868798384461
 21
1925.000000000001
  0
LINE
  5
2B8
100
AcDbEntity
  8
1
  6
CONTINUOUS
 62
           3
100
AcDbLine
 10
4968.868798384461
 20
1917.306253419961
 11
4968.163567691042
 21
1917.306253419961
  0
LINE
  5
2B7
100
AcDbEntity
  8
1
  6
CONTINUOUS
 62
           3
100
AcDbLine
 10
4967.663567691042
 20
1925.000000000001
 11
4967.663567691042
 21
1917.806253419961
  0
LINE
  5
2B6
100
AcDbEntity
  8
1
  6
CONTINUOUS
 62
           3
100
AcDbLine
 10
4967.663567691042
 20
1932.193746580041
 11
4967.663567691042
 21
1925.000000000001
  0
LINE
  5
2B5
100
AcDbEntity
  8
1
  6
CONTINUOUS
 62
           3
100
AcDbLine
 10
4968.163567691042
 20
1932.693746580041
 11
4968.868798384461
 21
1932.693746580041
  0
LINE
  5
2B4
100
AcDbEntity
  8
1
  6
CONTINUOUS
 62
           3
100
AcDbLine
 10
4968.868798384461
 20
1925.000000000001
 11
4968.868798384461
 21
1932.693746580041
  0
LINE
  5
2B3
100
AcDbEntity
  8
1
  6
CONTINUOUS
 62
           3
100
AcDbLine
 10
4968.868798384461
 20
1931.000000000001
 11
4969.714603906643
 21
1931.000000000001
  0
LINE
  5
2B2
100
AcDbEntity
  8
1
  6
CONTINUOUS
 62
           3
100
AcDbLine
 10
4969.714603906643
 20
1933.250000000001
 11
4979.389214871942
 21
1933.250000000001
  0
LINE
  5
2B1
100
AcDbEntity
  8
1
  6
CONTINUOUS
 62
           3
100
AcDbLine
 10
4969.714603906643
 20
1925.000000000001
 11
4969.714603906643
 21
1933.250000000001
  0
LINE
  5
2B0
100
AcDbEntity
  8
1
  6
CONTINUOUS
 62
           3
100
AcDbLine
 10
4979.389214871942
 20
1932.693746580041
 11
4979.389214871942
 21
1933.250000000001
  0
LINE
  5
2AF
100
AcDbEntity
  8
1
  6
CONTINUOUS
 62
           3
100
AcDbLine
 10
4979.389214871942
 20
1917.306253419961
 11
4979.389214871942
 21
1932.693746580041
  0
LINE
  5
2AE
100
AcDbEntity
  8
1
  6
CONTINUOUS
 62
           3
100
AcDbLine
 10
4985.254330418633
 20
1917.306253419961
 11
4985.254330418633
 21
1932.693746580041
  0
LINE
  5
2AD
100
AcDbEntity
  8
1
  6
CONTINUOUS
 62
           3
100
AcDbLine
 10
4985.254330418633
 20
1917.306253419961
 11
4979.389214871942
 21
1917.306253419961
  0
LINE
  5
2AC
100
AcDbEntity
  8
1
  6
CONTINUOUS
 62
           3
100
AcDbLine
 10
4985.254330418633
 20
1932.693746580041
 11
4979.389214871942
 21
1932.693746580041
  0
LINE
  5
2AB
100
AcDbEntity
  8
1
  6
CONTINUOUS
 62
           3
100
AcDbLine
 10
4985.254330418633
 20
1930.871834995071
 11
4990.163567691042
 21
1930.871834995071
  0
LINE
  5
2AA
100
AcDbEntity
  8
1
  6
DOT_CENTER
 62
           3
100
AcDbLine
 10
4990.163567691042
 20
1938.643555804875
 11
4990.163567691042
 21
1907.508008255126
  0
LINE
  5
2A9
100
AcDbEntity
  8
1
  6
CONTINUOUS
 62
           3
100
AcDbLine
 10
4990.163567691042
 20
1919.128165004935
 11
4985.254330418633
 21
1919.128165004935
  0
LINE
  5
2A8
100
AcDbEntity
  8
0
  6
CONTINUOUS
 62
           3
100
AcDbLine
 10
4484.844723494171
 20
1393.116392195193
 11
4485.899996721674
 21
1393.131740391395
  0
LINE
  5
2A7
100
AcDbEntity
  8
0
  6
CONTINUOUS
 62
           3
100
AcDbLine
 10
4483.903805503273
 20
1393.072016537194
 11
4484.844723494171
 21
1393.116392195193
  0
LINE
  5
2A6
100
AcDbEntity
  8
0
  6
CONTINUOUS
 62
           3
100
AcDbLine
 10
4483.179205573571
 20
1393.003411590992
 11
4483.903805503273
 21
1393.072016537194
  0
LINE
  5
2A5
100
AcDbEntity
  8
0
  6
CONTINUOUS
 62
           3
100
AcDbLine
 10
4482.749445840374
 20
1392.918020486794
 11
4483.179205573571
 21
1393.003411590992
  0
LINE
  5
2A4
100
AcDbEntity
  8
0
  6
CONTINUOUS
 62
           3
100
AcDbLine
 10
4482.661097088371
 20
1392.825089394994
 11
4482.749445840374
 21
1392.918020486794
  0
LINE
  5
2A3
100
AcDbEntity
  8
0
  6
CONTINUOUS
 62
           3
100
AcDbLine
 10
4482.899996695574
 20
1392.739541828794
 11
4482.661097088371
 21
1392.825089394994
  0
LINE
  5
2A2
100
AcDbEntity
  8
0
  6
CONTINUOUS
 62
           3
100
AcDbLine
 10
4489.138896354961
 20
1392.825089394994
 11
4488.899996747762
 21
1392.739541828794
  0
LINE
  5
2A1
100
AcDbEntity
  8
0
  6
CONTINUOUS
 62
           3
100
AcDbLine
 10
4489.050547602961
 20
1392.918020486794
 11
4489.138896354961
 21
1392.825089394994
  0
LINE
  5
2A0
100
AcDbEntity
  8
0
  6
CONTINUOUS
 62
           3
100
AcDbLine
 10
4488.620787869761
 20
1393.003411590992
 11
4489.050547602961
 21
1392.918020486794
  0
LINE
  5
29F
100
AcDbEntity
  8
0
  6
CONTINUOUS
 62
           3
100
AcDbLine
 10
4487.89618794006
 20
1393.072016537194
 11
4488.620787869761
 21
1393.003411590992
  0
LINE
  5
29E
100
AcDbEntity
  8
0
  6
CONTINUOUS
 62
           3
100
AcDbLine
 10
4486.955269949172
 20
1393.116392195193
 11
4487.89618794006
 21
1393.072016537194
  0
LINE
  5
29D
100
AcDbEntity
  8
0
  6
CONTINUOUS
 62
           3
100
AcDbLine
 10
4485.899996721674
 20
1393.131740391395
 11
4486.955269949172
 21
1393.116392195193
  0
LINE
  5
29C
100
AcDbEntity
  8
FORMAT
  6
CONTINUOUS
 62
           3
100
AcDbLine
 10
4482.399996721571
 20
1392.596845102893
 11
4471.899996721583
 21
1392.596845102893
  0
LINE
  5
29B
100
AcDbEntity
  8
FORMAT
  6
DOT_CENTER
 62
           3
100
AcDbLine
 10
4485.899996721674
 20
1249.759397252255
 11
4485.899996721674
 21
1725.394390768569
  0
LINE
  5
29A
100
AcDbEntity
  8
FORMAT
  6
CONTINUOUS
 62
           3
100
AcDbLine
 10
4489.399996721762
 20
1392.596845102893
 11
4482.399996721571
 21
1392.596845102893
  0
LINE
  5
299
100
AcDbEntity
  8
FORMAT
  6
CONTINUOUS
 62
           3
100
AcDbLine
 10
4499.899996721754
 20
1392.596845102893
 11
4489.399996721762
 21
1392.596845102893
  0
LINE
  5
298
100
AcDbEntity
  8
FORMAT
  6
DOT_CENTER
 62
           3
100
AcDbLine
 10
4410.999996721631
 20
1375.000000000008
 11
4397.399996721742
 21
1375.000000000008
  0
LINE
  5
297
100
AcDbEntity
  8
FORMAT
  6
DOT_CENTER
 62
           3
100
AcDbLine
 10
4410.999996721631
 20
1625.000000000001
 11
4397.399996721742
 21
1625.000000000001
  0
LINE
  5
296
100
AcDbEntity
  8
0
  6
CONTINUOUS
 62
           3
100
AcDbLine
 10
4420.899999106019
 20
1364.999994635816
 11
4405.499999189232
 21
1364.999994635816
  0
LINE
  5
295
100
AcDbEntity
  8
0
  6
CONTINUOUS
 62
           3
100
AcDbLine
 10
4424.399995023122
 20
1590.000003576232
 11
4424.399995023122
 21
1509.999999776396
  0
LINE
  5
294
100
AcDbEntity
  8
0
  6
CONTINUOUS
 62
           3
100
AcDbLine
 10
4427.399997377514
 20
1590.000003576232
 11
4424.399995023122
 21
1590.000003576232
  0
LINE
  5
293
100
AcDbEntity
  8
0
  6
CONTINUOUS
 62
           3
100
AcDbLine
 10
4427.399997377514
 20
1550.000000744964
 11
4427.399997377514
 21
1590.000003576232
  0
LINE
  5
292
100
AcDbEntity
  8
0
  6
CONTINUOUS
 62
           3
100
AcDbLine
 10
4427.399997377514
 20
1529.999999329481
 11
4427.399997377514
 21
1532.00000151988
  0
LINE
  5
291
100
AcDbEntity
  8
0
  6
CONTINUOUS
 62
           3
100
AcDbLine
 10
4424.399995023122
 20
1509.999999776396
 11
4425.975189322322
 21
1509.999999776396
  0
LINE
  5
290
100
AcDbEntity
  8
0
  6
CONTINUOUS
 62
           3
100
AcDbLine
 10
4545.89999538062
 20
1368.000000715314
 11
4545.89999538062
 21
1367.300003767014
  0
LINE
  5
28F
100
AcDbEntity
  8
0
  6
CONTINUOUS
 62
           3
100
AcDbLine
 10
4550.899994337312
 20
1364.999994635816
 11
4550.899994337312
 21
1368.000000715314
  0
LINE
  5
28E
100
AcDbEntity
  8
0
  6
CONTINUOUS
 62
           3
100
AcDbLine
 10
4550.899994337312
 20
1635.000005364197
 11
4550.899994337312
 21
1631.999999284697
  0
LINE
  5
28D
100
AcDbEntity
  8
0
  6
CONTINUOUS
 62
           3
100
AcDbLine
 10
4545.89999538062
 20
1631.999999284697
 11
4545.89999538062
 21
1632.699996232996
  0
LINE
  5
28C
100
AcDbEntity
  8
0
  6
CONTINUOUS
 62
           3
100
AcDbLine
 10
4425.899998062713
 20
1631.999999284697
 11
4425.899998062713
 21
1632.699996232996
  0
LINE
  5
28B
100
AcDbEntity
  8
0
  6
CONTINUOUS
 62
           3
100
AcDbLine
 10
4420.899999106019
 20
1635.000005364197
 11
4420.899999106019
 21
1631.999999284697
  0
LINE
  5
28A
100
AcDbEntity
  8
0
  6
CONTINUOUS
 62
           3
100
AcDbLine
 10
4420.899999106019
 20
1635.000005364197
 11
4405.499999189232
 21
1635.000005364197
  0
LINE
  5
289
100
AcDbEntity
  8
0
  6
CONTINUOUS
 62
           3
100
AcDbLine
 10
4420.899999106019
 20
1364.999994635816
 11
4420.899999106019
 21
1368.000000715314
  0
LINE
  5
288
100
AcDbEntity
  8
0
  6
CONTINUOUS
 62
           3
100
AcDbLine
 10
4425.899998062713
 20
1368.000000715314
 11
4425.899998062713
 21
1367.300003767014
  0
LINE
  5
287
100
AcDbEntity
  8
0
  6
CONTINUOUS
 62
           3
100
AcDbLine
 10
4424.399995023122
 20
1409.99999642378
 11
4424.399995023122
 21
1490.000000223613
  0
LINE
  5
286
100
AcDbEntity
  8
0
  6
CONTINUOUS
 62
           3
100
AcDbLine
 10
4424.399995023122
 20
1490.000000223613
 11
4425.899998062713
 21
1490.000000223613
  0
LINE
  5
285
100
AcDbEntity
  8
0
  6
CONTINUOUS
 62
           3
100
AcDbLine
 10
4427.399997377514
 20
1431.99999630456
 11
4427.399997377514
 21
1429.999999701963
  0
LINE
  5
284
100
AcDbEntity
  8
0
  6
CONTINUOUS
 62
           3
100
AcDbLine
 10
4425.975189322322
 20
1409.99999642378
 11
4424.399995023122
 21
1409.99999642378
  0
LINE
  5
283
100
AcDbEntity
  8
0
  6
CONTINUOUS
 62
           3
100
AcDbLine
 10
4547.399998420223
 20
1590.000003576232
 11
4547.399998420223
 21
1509.999999776396
  0
LINE
  5
282
100
AcDbEntity
  8
0
  6
CONTINUOUS
 62
           3
100
AcDbLine
 10
4547.399998420223
 20
1509.999999776396
 11
4545.82480412102
 21
1509.999999776396
  0
LINE
  5
281
100
AcDbEntity
  8
0
  6
CONTINUOUS
 62
           3
100
AcDbLine
 10
4544.399996066124
 20
1550.000000744964
 11
4544.399996066124
 21
1590.000003576232
  0
LINE
  5
280
100
AcDbEntity
  8
0
  6
CONTINUOUS
 62
           3
100
AcDbLine
 10
4544.399996066124
 20
1529.999999329481
 11
4544.399996066124
 21
1532.00000151988
  0
LINE
  5
27F
100
AcDbEntity
  8
0
  6
CONTINUOUS
 62
           3
100
AcDbLine
 10
4544.399996066124
 20
1590.000003576232
 11
4547.399998420223
 21
1590.000003576232
  0
LINE
  5
27E
100
AcDbEntity
  8
0
  6
CONTINUOUS
 62
           3
100
AcDbLine
 10
4547.399998420223
 20
1409.99999642378
 11
4547.399998420223
 21
1490.000000223613
  0
LINE
  5
27D
100
AcDbEntity
  8
0
  6
CONTINUOUS
 62
           3
100
AcDbLine
 10
4545.82480412102
 20
1409.99999642378
 11
4547.399998420223
 21
1409.99999642378
  0
LINE
  5
27C
100
AcDbEntity
  8
0
  6
CONTINUOUS
 62
           3
100
AcDbLine
 10
4544.399996066124
 20
1431.99999630456
 11
4544.399996066124
 21
1429.999999701963
  0
LINE
  5
27B
100
AcDbEntity
  8
0
  6
CONTINUOUS
 62
           3
100
AcDbLine
 10
4547.399998420223
 20
1490.000000223613
 11
4545.89999538062
 21
1490.000000223613
  0
LINE
  5
27A
100
AcDbEntity
  8
0
  6
CONTINUOUS
 62
           3
100
AcDbLine
 10
4405.499999189232
 20
1635.000005364197
 11
4403.399993443331
 21
1635.000005364197
  0
LINE
  5
279
100
AcDbEntity
  8
0
  6
CONTINUOUS
 62
           3
100
AcDbLine
 10
4403.399993443331
 20
1635.000005364197
 11
4403.399993443331
 21
1364.999994635816
  0
LINE
  5
278
100
AcDbEntity
  8
0
  6
CONTINUOUS
 62
           3
100
AcDbLine
 10
4405.499999189232
 20
1364.999994635816
 11
4403.399993443331
 21
1364.999994635816
  0
LINE
  5
277
100
AcDbEntity
  8
0
  6
CONTINUOUS
 62
           3
100
AcDbLine
 10
4425.899998062713
 20
1366.600006818714
 11
4425.899998062713
 21
1367.300003767014
  0
LINE
  5
276
100
AcDbEntity
  8
0
  6
CONTINUOUS
 62
           3
100
AcDbLine
 10
4545.89999538062
 20
1366.600006818714
 11
4545.89999538062
 21
1367.300003767014
  0
LINE
  5
275
100
AcDbEntity
  8
0
  6
CONTINUOUS
 62
           3
100
AcDbLine
 10
4425.899998062713
 20
1633.399993180997
 11
4425.899998062713
 21
1632.699996232996
  0
LINE
  5
274
100
AcDbEntity
  8
0
  6
CONTINUOUS
 62
           3
100
AcDbLine
 10
4545.89999538062
 20
1633.399993180997
 11
4545.89999538062
 21
1632.699996232996
  0
LINE
  5
273
100
AcDbEntity
  8
0
  6
CONTINUOUS
 62
           3
100
AcDbLine
 10
4540.899996423621
 20
1633.399993180997
 11
4545.89999538062
 21
1633.399993180997
  0
LINE
  5
272
100
AcDbEntity
  8
0
  6
CONTINUOUS
 62
           3
100
AcDbLine
 10
4545.89999538062
 20
1635.000005364197
 11
4540.899996423621
 21
1635.000005364197
  0
LINE
  5
271
100
AcDbEntity
  8
0
  6
CONTINUOUS
 62
           3
100
AcDbLine
 10
4545.89999538062
 20
1633.399993180997
 11
4545.89999538062
 21
1635.000005364197
  0
LINE
  5
270
100
AcDbEntity
  8
0
  6
CONTINUOUS
 62
           3
100
AcDbLine
 10
4540.899996423621
 20
1366.600006818714
 11
4545.89999538062
 21
1366.600006818714
  0
LINE
  5
26F
100
AcDbEntity
  8
0
  6
CONTINUOUS
 62
           3
100
AcDbLine
 10
4545.89999538062
 20
1364.999994635816
 11
4540.899996423621
 21
1364.999994635816
  0
LINE
  5
26E
100
AcDbEntity
  8
0
  6
CONTINUOUS
 62
           3
100
AcDbLine
 10
4545.89999538062
 20
1366.600006818714
 11
4545.89999538062
 21
1364.999994635816
  0
LINE
  5
26D
100
AcDbEntity
  8
0
  6
CONTINUOUS
 62
           3
100
AcDbLine
 10
4530.89999850963
 20
1366.600006818714
 11
4532.899995112231
 21
1366.600006818714
  0
LINE
  5
26C
100
AcDbEntity
  8
0
  6
CONTINUOUS
 62
           3
100
AcDbLine
 10
4532.899995112231
 20
1364.999994635816
 11
4530.89999850963
 21
1364.999994635816
  0
LINE
  5
26B
100
AcDbEntity
  8
0
  6
CONTINUOUS
 62
           3
100
AcDbLine
 10
4532.899995112231
 20
1366.600006818714
 11
4532.899995112231
 21
1364.999994635816
  0
LINE
  5
26A
100
AcDbEntity
  8
0
  6
CONTINUOUS
 62
           3
100
AcDbLine
 10
4530.89999850963
 20
1633.399993180997
 11
4532.899995112231
 21
1633.399993180997
  0
LINE
  5
269
100
AcDbEntity
  8
0
  6
CONTINUOUS
 62
           3
100
AcDbLine
 10
4532.899995112231
 20
1635.000005364197
 11
4530.89999850963
 21
1635.000005364197
  0
LINE
  5
268
100
AcDbEntity
  8
0
  6
CONTINUOUS
 62
           3
100
AcDbLine
 10
4532.899995112231
 20
1633.399993180997
 11
4532.899995112231
 21
1635.000005364197
  0
LINE
  5
267
100
AcDbEntity
  8
0
  6
CONTINUOUS
 62
           3
100
AcDbLine
 10
4538.899996095919
 20
1366.600006818714
 11
4540.899996423621
 21
1366.600006818714
  0
LINE
  5
266
100
AcDbEntity
  8
0
  6
CONTINUOUS
 62
           3
100
AcDbLine
 10
4540.899996423621
 20
1364.999994635816
 11
4538.899996095919
 21
1364.999994635816
  0
LINE
  5
265
100
AcDbEntity
  8
0
  6
CONTINUOUS
 62
           3
100
AcDbLine
 10
4538.899996095919
 20
1364.999994635816
 11
4538.899996095919
 21
1366.600006818714
  0
LINE
  5
264
100
AcDbEntity
  8
0
  6
CONTINUOUS
 62
           3
100
AcDbLine
 10
4538.899996095919
 20
1633.399993180997
 11
4540.899996423621
 21
1633.399993180997
  0
LINE
  5
263
100
AcDbEntity
  8
0
  6
CONTINUOUS
 62
           3
100
AcDbLine
 10
4540.899996423621
 20
1635.000005364197
 11
4538.899996095919
 21
1635.000005364197
  0
LINE
  5
262
100
AcDbEntity
  8
0
  6
CONTINUOUS
 62
           3
100
AcDbLine
 10
4538.899996095919
 20
1635.000005364197
 11
4538.899996095919
 21
1633.399993180997
  0
LINE
  5
261
100
AcDbEntity
  8
0
  6
CONTINUOUS
 62
           3
100
AcDbLine
 10
4430.899997019711
 20
1633.399993180997
 11
4425.899998062713
 21
1633.399993180997
  0
LINE
  5
260
100
AcDbEntity
  8
0
  6
CONTINUOUS
 62
           3
100
AcDbLine
 10
4425.899998062713
 20
1635.000005364197
 11
4430.899997019711
 21
1635.000005364197
  0
LINE
  5
25F
100
AcDbEntity
  8
0
  6
CONTINUOUS
 62
           3
100
AcDbLine
 10
4425.899998062713
 20
1633.399993180997
 11
4425.899998062713
 21
1635.000005364197
  0
LINE
  5
25E
100
AcDbEntity
  8
0
  6
CONTINUOUS
 62
           3
100
AcDbLine
 10
4430.899997019711
 20
1366.600006818714
 11
4425.899998062713
 21
1366.600006818714
  0
LINE
  5
25D
100
AcDbEntity
  8
0
  6
CONTINUOUS
 62
           3
100
AcDbLine
 10
4425.899998062713
 20
1364.999994635816
 11
4430.899997019711
 21
1364.999994635816
  0
LINE
  5
25C
100
AcDbEntity
  8
0
  6
CONTINUOUS
 62
           3
100
AcDbLine
 10
4425.899998062713
 20
1366.600006818714
 11
4425.899998062713
 21
1364.999994635816
  0
LINE
  5
25B
100
AcDbEntity
  8
0
  6
CONTINUOUS
 62
           3
100
AcDbLine
 10
4440.899994933702
 20
1633.399993180997
 11
4530.89999850963
 21
1633.399993180997
  0
LINE
  5
25A
100
AcDbEntity
  8
0
  6
CONTINUOUS
 62
           3
100
AcDbLine
 10
4440.899994933702
 20
1635.000005364197
 11
4530.89999850963
 21
1635.000005364197
  0
LINE
  5
259
100
AcDbEntity
  8
0
  6
CONTINUOUS
 62
           3
100
AcDbLine
 10
4440.899994933702
 20
1366.600006818714
 11
4530.89999850963
 21
1366.600006818714
  0
LINE
  5
258
100
AcDbEntity
  8
0
  6
CONTINUOUS
 62
           3
100
AcDbLine
 10
4440.899994933702
 20
1364.999994635816
 11
4530.89999850963
 21
1364.999994635816
  0
LINE
  5
257
100
AcDbEntity
  8
0
  6
CONTINUOUS
 62
           3
100
AcDbLine
 10
4440.899994933702
 20
1366.600006818714
 11
4438.899998331101
 21
1366.600006818714
  0
LINE
  5
256
100
AcDbEntity
  8
0
  6
CONTINUOUS
 62
           3
100
AcDbLine
 10
4438.899998331101
 20
1366.600006818714
 11
4438.899998331101
 21
1364.999994635816
  0
LINE
  5
255
100
AcDbEntity
  8
0
  6
CONTINUOUS
 62
           3
100
AcDbLine
 10
4438.899998331101
 20
1364.999994635816
 11
4440.899994933702
 21
1364.999994635816
  0
LINE
  5
254
100
AcDbEntity
  8
0
  6
CONTINUOUS
 62
           3
100
AcDbLine
 10
4440.899994933702
 20
1633.399993180997
 11
4438.899998331101
 21
1633.399993180997
  0
LINE
  5
253
100
AcDbEntity
  8
0
  6
CONTINUOUS
 62
           3
100
AcDbLine
 10
4438.899998331101
 20
1635.000005364197
 11
4440.899994933702
 21
1635.000005364197
  0
LINE
  5
252
100
AcDbEntity
  8
0
  6
CONTINUOUS
 62
           3
100
AcDbLine
 10
4438.899998331101
 20
1633.399993180997
 11
4438.899998331101
 21
1635.000005364197
  0
LINE
  5
251
100
AcDbEntity
  8
0
  6
CONTINUOUS
 62
           3
100
AcDbLine
 10
4432.899997347712
 20
1633.399993180997
 11
4430.899997019711
 21
1633.399993180997
  0
LINE
  5
250
100
AcDbEntity
  8
0
  6
CONTINUOUS
 62
           3
100
AcDbLine
 10
4432.899997347712
 20
1635.000005364197
 11
4432.899997347712
 21
1633.399993180997
  0
LINE
  5
24F
100
AcDbEntity
  8
0
  6
CONTINUOUS
 62
           3
100
AcDbLine
 10
4430.899997019711
 20
1635.000005364197
 11
4432.899997347712
 21
1635.000005364197
  0
LINE
  5
24E
100
AcDbEntity
  8
0
  6
CONTINUOUS
 62
           3
100
AcDbLine
 10
4432.899997347712
 20
1366.600006818714
 11
4430.899997019711
 21
1366.600006818714
  0
LINE
  5
24D
100
AcDbEntity
  8
0
  6
CONTINUOUS
 62
           3
100
AcDbLine
 10
4430.899997019711
 20
1364.999994635816
 11
4432.899997347712
 21
1364.999994635816
  0
LINE
  5
24C
100
AcDbEntity
  8
0
  6
CONTINUOUS
 62
           3
100
AcDbLine
 10
4432.899997347712
 20
1364.999994635816
 11
4432.899997347712
 21
1366.600006818714
  0
LINE
  5
24B
100
AcDbEntity
  8
0
  6
CONTINUOUS
 62
           3
100
AcDbLine
 10
4545.82480412102
 20
1409.99999642378
 11
4544.199996405623
 21
1409.99999642378
  0
LINE
  5
24A
100
AcDbEntity
  8
0
  6
CONTINUOUS
 62
           3
100
AcDbLine
 10
4544.199996405623
 20
1429.999999701963
 11
4545.89999538062
 21
1429.999999701963
  0
LINE
  5
249
100
AcDbEntity
  8
0
  6
CONTINUOUS
 62
           3
100
AcDbLine
 10
4545.89999538062
 20
1429.999999701963
 11
4545.89999538062
 21
1409.99999642378
  0
LINE
  5
248
100
AcDbEntity
  8
0
  6
CONTINUOUS
 62
           3
100
AcDbLine
 10
4425.899998062713
 20
1529.999999329481
 11
4427.599997037713
 21
1529.999999329481
  0
LINE
  5
247
100
AcDbEntity
  8
0
  6
CONTINUOUS
 62
           3
100
AcDbLine
 10
4425.899998062713
 20
1509.999999776396
 11
4425.899998062713
 21
1529.999999329481
  0
LINE
  5
246
100
AcDbEntity
  8
0
  6
CONTINUOUS
 62
           3
100
AcDbLine
 10
4427.599997037713
 20
1509.999999776396
 11
4425.975189322322
 21
1509.999999776396
  0
LINE
  5
245
100
AcDbEntity
  8
0
  6
CONTINUOUS
 62
           3
100
AcDbLine
 10
4425.975189322322
 20
1409.99999642378
 11
4427.599997037713
 21
1409.99999642378
  0
LINE
  5
244
100
AcDbEntity
  8
0
  6
CONTINUOUS
 62
           3
100
AcDbLine
 10
4427.599997037713
 20
1429.999999701963
 11
4425.899998062713
 21
1429.999999701963
  0
LINE
  5
243
100
AcDbEntity
  8
0
  6
CONTINUOUS
 62
           3
100
AcDbLine
 10
4425.899998062713
 20
1429.999999701963
 11
4425.899998062713
 21
1409.99999642378
  0
LINE
  5
242
100
AcDbEntity
  8
0
  6
CONTINUOUS
 62
           3
100
AcDbLine
 10
4427.599997037713
 20
1529.999999329481
 11
4427.899998390712
 21
1529.999999329481
  0
LINE
  5
241
100
AcDbEntity
  8
0
  6
CONTINUOUS
 62
           3
100
AcDbLine
 10
4427.899998390712
 20
1509.999999776396
 11
4427.599997037713
 21
1509.999999776396
  0
LINE
  5
240
100
AcDbEntity
  8
0
  6
CONTINUOUS
 62
           3
100
AcDbLine
 10
4425.899998062713
 20
1508.0000003799
 11
4427.899998390712
 21
1508.0000003799
  0
LINE
  5
23F
100
AcDbEntity
  8
0
  6
CONTINUOUS
 62
           3
100
AcDbLine
 10
4425.899998062713
 20
1508.0000003799
 11
4425.899998062713
 21
1431.99999630456
  0
LINE
  5
23E
100
AcDbEntity
  8
0
  6
CONTINUOUS
 62
           3
100
AcDbLine
 10
4425.899998062713
 20
1431.99999630456
 11
4427.899998390712
 21
1431.99999630456
  0
LINE
  5
23D
100
AcDbEntity
  8
0
  6
CONTINUOUS
 62
           3
100
AcDbLine
 10
4427.899998390712
 20
1429.999999701963
 11
4427.599997037713
 21
1429.999999701963
  0
LINE
  5
23C
100
AcDbEntity
  8
0
  6
CONTINUOUS
 62
           3
100
AcDbLine
 10
4427.599997037713
 20
1409.99999642378
 11
4427.899998390712
 21
1409.99999642378
  0
LINE
  5
23B
100
AcDbEntity
  8
0
  6
CONTINUOUS
 62
           3
100
AcDbLine
 10
4427.899998390712
 20
1407.999999821184
 11
4425.899998062713
 21
1407.999999821184
  0
LINE
  5
23A
100
AcDbEntity
  8
0
  6
CONTINUOUS
 62
           3
100
AcDbLine
 10
4425.899998062713
 20
1391.699999570792
 11
4425.899998062713
 21
1407.999999821184
  0
LINE
  5
239
100
AcDbEntity
  8
0
  6
CONTINUOUS
 62
           3
100
AcDbLine
 10
4545.89999538062
 20
1391.699999570792
 11
4545.89999538062
 21
1407.999999821184
  0
LINE
  5
238
100
AcDbEntity
  8
0
  6
CONTINUOUS
 62
           3
100
AcDbLine
 10
4543.899995052621
 20
1407.999999821184
 11
4545.89999538062
 21
1407.999999821184
  0
LINE
  5
237
100
AcDbEntity
  8
0
  6
CONTINUOUS
 62
           3
100
AcDbLine
 10
4544.199996405623
 20
1409.99999642378
 11
4543.899995052621
 21
1409.99999642378
  0
LINE
  5
236
100
AcDbEntity
  8
0
  6
CONTINUOUS
 62
           3
100
AcDbLine
 10
4543.899995052621
 20
1429.999999701963
 11
4544.199996405623
 21
1429.999999701963
  0
LINE
  5
235
100
AcDbEntity
  8
0
  6
CONTINUOUS
 62
           3
100
AcDbLine
 10
4545.89999538062
 20
1431.99999630456
 11
4543.899995052621
 21
1431.99999630456
  0
LINE
  5
234
100
AcDbEntity
  8
0
  6
CONTINUOUS
 62
           3
100
AcDbLine
 10
4545.89999538062
 20
1508.0000003799
 11
4545.89999538062
 21
1431.99999630456
  0
LINE
  5
233
100
AcDbEntity
  8
0
  6
CONTINUOUS
 62
           3
100
AcDbLine
 10
4545.89999538062
 20
1508.0000003799
 11
4543.899995052621
 21
1508.0000003799
  0
LINE
  5
232
100
AcDbEntity
  8
0
  6
CONTINUOUS
 62
           3
100
AcDbLine
 10
4543.899995052621
 20
1509.999999776396
 11
4544.199996405623
 21
1509.999999776396
  0
LINE
  5
231
100
AcDbEntity
  8
0
  6
CONTINUOUS
 62
           3
100
AcDbLine
 10
4544.199996405623
 20
1529.999999329481
 11
4543.899995052621
 21
1529.999999329481
  0
LINE
  5
230
100
AcDbEntity
  8
0
  6
CONTINUOUS
 62
           3
100
AcDbLine
 10
4543.899995052621
 20
1532.00000151988
 11
4545.89999538062
 21
1532.00000151988
  0
LINE
  5
22F
100
AcDbEntity
  8
0
  6
CONTINUOUS
 62
           3
100
AcDbLine
 10
4545.89999538062
 20
1548.300001770266
 11
4545.89999538062
 21
1532.00000151988
  0
LINE
  5
22E
100
AcDbEntity
  8
0
  6
CONTINUOUS
 62
           3
100
AcDbLine
 10
4425.899998062713
 20
1548.300001770266
 11
4425.899998062713
 21
1532.00000151988
  0
LINE
  5
22D
100
AcDbEntity
  8
0
  6
CONTINUOUS
 62
           3
100
AcDbLine
 10
4427.899998390712
 20
1532.00000151988
 11
4425.899998062713
 21
1532.00000151988
  0
LINE
  5
22C
100
AcDbEntity
  8
0
  6
CONTINUOUS
 62
           3
100
AcDbLine
 10
4544.199996405623
 20
1509.999999776396
 11
4545.82480412102
 21
1509.999999776396
  0
LINE
  5
22B
100
AcDbEntity
  8
0
  6
CONTINUOUS
 62
           3
100
AcDbLine
 10
4545.89999538062
 20
1509.999999776396
 11
4545.89999538062
 21
1529.999999329481
  0
LINE
  5
22A
100
AcDbEntity
  8
0
  6
CONTINUOUS
 62
           3
100
AcDbLine
 10
4545.89999538062
 20
1529.999999329481
 11
4544.199996405623
 21
1529.999999329481
  0
LINE
  5
229
100
AcDbEntity
  8
0
  6
CONTINUOUS
 62
           3
100
AcDbLine
 10
4545.89999538062
 20
1548.799999058067
 11
4545.89999538062
 21
1548.300001770266
  0
LINE
  5
228
100
AcDbEntity
  8
0
  6
CONTINUOUS
 62
           3
100
AcDbLine
 10
4425.899998062713
 20
1548.799999058067
 11
4425.899998062713
 21
1548.300001770266
  0
LINE
  5
227
100
AcDbEntity
  8
0
  6
CONTINUOUS
 62
           3
100
AcDbLine
 10
4425.899998062713
 20
1391.199998557594
 11
4425.899998062713
 21
1391.699999570792
  0
LINE
  5
226
100
AcDbEntity
  8
0
  6
CONTINUOUS
 62
           3
100
AcDbLine
 10
4545.89999538062
 20
1391.199998557594
 11
4545.89999538062
 21
1391.699999570792
  0
LINE
  5
225
100
AcDbEntity
  8
0
  6
CONTINUOUS
 62
           3
100
AcDbLine
 10
4488.899996747762
 20
1550.000000744964
 11
4489.149996788762
 21
1550.000000744964
  0
LINE
  5
224
100
AcDbEntity
  8
0
  6
CONTINUOUS
 62
           3
100
AcDbLine
 10
4482.649996654574
 20
1550.000000744964
 11
4482.899996695574
 21
1550.000000744964
  0
LINE
  5
223
100
AcDbEntity
  8
0
  6
CONTINUOUS
 62
           3
100
AcDbLine
 10
4488.899996747762
 20
1548.799999058067
 11
4489.149996788762
 21
1548.799999058067
  0
LINE
  5
222
100
AcDbEntity
  8
0
  6
CONTINUOUS
 62
           3
100
AcDbLine
 10
4482.649996654574
 20
1548.799999058067
 11
4482.899996695574
 21
1548.799999058067
  0
LINE
  5
221
100
AcDbEntity
  8
0
  6
CONTINUOUS
 62
           3
100
AcDbLine
 10
4482.899996695574
 20
1391.199998557594
 11
4482.649996654574
 21
1391.199998557594
  0
LINE
  5
220
100
AcDbEntity
  8
0
  6
CONTINUOUS
 62
           3
100
AcDbLine
 10
4489.149996788762
 20
1391.199998557594
 11
4488.899996747762
 21
1391.199998557594
  0
LINE
  5
21F
100
AcDbEntity
  8
0
  6
CONTINUOUS
 62
           3
100
AcDbLine
 10
4430.899997019711
 20
1391.199998557594
 11
4425.899998062713
 21
1391.199998557594
  0
LINE
  5
21E
100
AcDbEntity
  8
0
  6
CONTINUOUS
 62
           3
100
AcDbLine
 10
4425.899998062713
 20
1390.000000596098
 11
4430.899997019711
 21
1390.000000596098
  0
LINE
  5
21D
100
AcDbEntity
  8
0
  6
CONTINUOUS
 62
           3
100
AcDbLine
 10
4425.899998062713
 20
1391.199998557594
 11
4425.899998062713
 21
1390.000000596098
  0
LINE
  5
21C
100
AcDbEntity
  8
0
  6
CONTINUOUS
 62
           3
100
AcDbLine
 10
4425.899998062713
 20
1550.000000744964
 11
4430.899997019711
 21
1550.000000744964
  0
LINE
  5
21B
100
AcDbEntity
  8
0
  6
CONTINUOUS
 62
           3
100
AcDbLine
 10
4430.899997019711
 20
1548.799999058067
 11
4425.899998062713
 21
1548.799999058067
  0
LINE
  5
21A
100
AcDbEntity
  8
0
  6
CONTINUOUS
 62
           3
100
AcDbLine
 10
4425.899998062713
 20
1548.799999058067
 11
4425.899998062713
 21
1550.000000744964
  0
LINE
  5
219
100
AcDbEntity
  8
0
  6
CONTINUOUS
 62
           3
100
AcDbLine
 10
4530.89999850963
 20
1550.000000744964
 11
4515.899996051142
 21
1550.000000744964
  0
LINE
  5
218
100
AcDbEntity
  8
0
  6
CONTINUOUS
 62
           3
100
AcDbLine
 10
4530.89999850963
 20
1548.799999058067
 11
4515.899996051142
 21
1548.799999058067
  0
LINE
  5
217
100
AcDbEntity
  8
0
  6
CONTINUOUS
 62
           3
100
AcDbLine
 10
4545.89999538062
 20
1550.000000744964
 11
4540.899996423621
 21
1550.000000744964
  0
LINE
  5
216
100
AcDbEntity
  8
0
  6
CONTINUOUS
 62
           3
100
AcDbLine
 10
4540.899996423621
 20
1548.799999058067
 11
4545.89999538062
 21
1548.799999058067
  0
LINE
  5
215
100
AcDbEntity
  8
0
  6
CONTINUOUS
 62
           3
100
AcDbLine
 10
4545.89999538062
 20
1548.799999058067
 11
4545.89999538062
 21
1550.000000744964
  0
LINE
  5
214
100
AcDbEntity
  8
0
  6
CONTINUOUS
 62
           3
100
AcDbLine
 10
4530.89999850963
 20
1391.199998557594
 11
4515.899996051142
 21
1391.199998557594
  0
LINE
  5
213
100
AcDbEntity
  8
0
  6
CONTINUOUS
 62
           3
100
AcDbLine
 10
4530.89999850963
 20
1390.000000596098
 11
4515.899996051142
 21
1390.000000596098
  0
LINE
  5
212
100
AcDbEntity
  8
0
  6
CONTINUOUS
 62
           3
100
AcDbLine
 10
4440.899994933702
 20
1550.000000744964
 11
4455.899997392189
 21
1550.000000744964
  0
LINE
  5
211
100
AcDbEntity
  8
0
  6
CONTINUOUS
 62
           3
100
AcDbLine
 10
4440.899994933702
 20
1548.799999058067
 11
4455.899997392189
 21
1548.799999058067
  0
LINE
  5
210
100
AcDbEntity
  8
0
  6
CONTINUOUS
 62
           3
100
AcDbLine
 10
4540.899996423621
 20
1391.199998557594
 11
4545.89999538062
 21
1391.199998557594
  0
LINE
  5
20F
100
AcDbEntity
  8
0
  6
CONTINUOUS
 62
           3
100
AcDbLine
 10
4545.89999538062
 20
1390.000000596098
 11
4540.899996423621
 21
1390.000000596098
  0
LINE
  5
20E
100
AcDbEntity
  8
0
  6
CONTINUOUS
 62
           3
100
AcDbLine
 10
4545.89999538062
 20
1391.199998557594
 11
4545.89999538062
 21
1390.000000596098
  0
LINE
  5
20D
100
AcDbEntity
  8
0
  6
CONTINUOUS
 62
           3
100
AcDbLine
 10
4440.899994933702
 20
1391.199998557594
 11
4455.899997392189
 21
1391.199998557594
  0
LINE
  5
20C
100
AcDbEntity
  8
0
  6
CONTINUOUS
 62
           3
100
AcDbLine
 10
4440.899994933702
 20
1390.000000596098
 11
4455.899997392189
 21
1390.000000596098
  0
LINE
  5
20B
100
AcDbEntity
  8
0
  6
CONTINUOUS
 62
           3
100
AcDbLine
 10
4438.899998331101
 20
1550.000000744964
 11
4440.899994933702
 21
1550.000000744964
  0
LINE
  5
20A
100
AcDbEntity
  8
0
  6
CONTINUOUS
 62
           3
100
AcDbLine
 10
4440.899994933702
 20
1548.799999058067
 11
4438.899998331101
 21
1548.799999058067
  0
LINE
  5
209
100
AcDbEntity
  8
0
  6
CONTINUOUS
 62
           3
100
AcDbLine
 10
4438.899998331101
 20
1548.799999058067
 11
4438.899998331101
 21
1550.000000744964
  0
LINE
  5
208
100
AcDbEntity
  8
0
  6
CONTINUOUS
 62
           3
100
AcDbLine
 10
4430.899997019711
 20
1550.000000744964
 11
4432.899997347712
 21
1550.000000744964
  0
LINE
  5
207
100
AcDbEntity
  8
0
  6
CONTINUOUS
 62
           3
100
AcDbLine
 10
4432.899997347712
 20
1548.799999058067
 11
4430.899997019711
 21
1548.799999058067
  0
LINE
  5
206
100
AcDbEntity
  8
0
  6
CONTINUOUS
 62
           3
100
AcDbLine
 10
4432.899997347712
 20
1550.000000744964
 11
4432.899997347712
 21
1548.799999058067
  0
LINE
  5
205
100
AcDbEntity
  8
0
  6
CONTINUOUS
 62
           3
100
AcDbLine
 10
4530.89999850963
 20
1391.199998557594
 11
4532.899995112231
 21
1391.199998557594
  0
LINE
  5
204
100
AcDbEntity
  8
0
  6
CONTINUOUS
 62
           3
100
AcDbLine
 10
4532.899995112231
 20
1390.000000596098
 11
4530.89999850963
 21
1390.000000596098
  0
LINE
  5
203
100
AcDbEntity
  8
0
  6
CONTINUOUS
 62
           3
100
AcDbLine
 10
4532.899995112231
 20
1391.199998557594
 11
4532.899995112231
 21
1390.000000596098
  0
LINE
  5
202
100
AcDbEntity
  8
0
  6
CONTINUOUS
 62
           3
100
AcDbLine
 10
4538.899996095919
 20
1391.199998557594
 11
4540.899996423621
 21
1391.199998557594
  0
LINE
  5
201
100
AcDbEntity
  8
0
  6
CONTINUOUS
 62
           3
100
AcDbLine
 10
4540.899996423621
 20
1390.000000596098
 11
4538.899996095919
 21
1390.000000596098
  0
LINE
  5
200
100
AcDbEntity
  8
0
  6
CONTINUOUS
 62
           3
100
AcDbLine
 10
4538.899996095919
 20
1390.000000596098
 11
4538.899996095919
 21
1391.199998557594
  0
LINE
  5
1FF
100
AcDbEntity
  8
0
  6
CONTINUOUS
 62
           3
100
AcDbLine
 10
4532.899995112231
 20
1550.000000744964
 11
4530.89999850963
 21
1550.000000744964
  0
LINE
  5
1FE
100
AcDbEntity
  8
0
  6
CONTINUOUS
 62
           3
100
AcDbLine
 10
4530.89999850963
 20
1548.799999058067
 11
4532.899995112231
 21
1548.799999058067
  0
LINE
  5
1FD
100
AcDbEntity
  8
0
  6
CONTINUOUS
 62
           3
100
AcDbLine
 10
4532.899995112231
 20
1548.799999058067
 11
4532.899995112231
 21
1550.000000744964
  0
LINE
  5
1FC
100
AcDbEntity
  8
0
  6
CONTINUOUS
 62
           3
100
AcDbLine
 10
4540.899996423621
 20
1550.000000744964
 11
4538.899996095919
 21
1550.000000744964
  0
LINE
  5
1FB
100
AcDbEntity
  8
0
  6
CONTINUOUS
 62
           3
100
AcDbLine
 10
4538.899996095919
 20
1548.799999058067
 11
4540.899996423621
 21
1548.799999058067
  0
LINE
  5
1FA
100
AcDbEntity
  8
0
  6
CONTINUOUS
 62
           3
100
AcDbLine
 10
4538.899996095919
 20
1550.000000744964
 11
4538.899996095919
 21
1548.799999058067
  0
LINE
  5
1F9
100
AcDbEntity
  8
0
  6
CONTINUOUS
 62
           3
100
AcDbLine
 10
4440.899994933702
 20
1391.199998557594
 11
4438.899998331101
 21
1391.199998557594
  0
LINE
  5
1F8
100
AcDbEntity
  8
0
  6
CONTINUOUS
 62
           3
100
AcDbLine
 10
4438.899998331101
 20
1390.000000596098
 11
4440.899994933702
 21
1390.000000596098
  0
LINE
  5
1F7
100
AcDbEntity
  8
0
  6
CONTINUOUS
 62
           3
100
AcDbLine
 10
4438.899998331101
 20
1391.199998557594
 11
4438.899998331101
 21
1390.000000596098
  0
LINE
  5
1F6
100
AcDbEntity
  8
0
  6
CONTINUOUS
 62
           3
100
AcDbLine
 10
4432.899997347712
 20
1391.199998557594
 11
4430.899997019711
 21
1391.199998557594
  0
LINE
  5
1F5
100
AcDbEntity
  8
0
  6
CONTINUOUS
 62
           3
100
AcDbLine
 10
4430.899997019711
 20
1390.000000596098
 11
4432.899997347712
 21
1390.000000596098
  0
LINE
  5
1F4
100
AcDbEntity
  8
0
  6
CONTINUOUS
 62
           3
100
AcDbLine
 10
4432.899997347712
 20
1390.000000596098
 11
4432.899997347712
 21
1391.199998557594
  0
LINE
  5
1F3
100
AcDbEntity
  8
0
  6
CONTINUOUS
 62
           3
100
AcDbLine
 10
4482.399996613574
 20
1391.199998557594
 11
4482.649996654574
 21
1391.199998557594
  0
LINE
  5
1F2
100
AcDbEntity
  8
0
  6
CONTINUOUS
 62
           3
100
AcDbLine
 10
4482.649996654574
 20
1391.199998557594
 11
4482.649996654574
 21
1390.000000596098
  0
LINE
  5
1F1
100
AcDbEntity
  8
0
  6
CONTINUOUS
 62
           3
100
AcDbLine
 10
4515.899996051142
 20
1391.199998557594
 11
4505.899996274751
 21
1391.199998557594
  0
LINE
  5
1F0
100
AcDbEntity
  8
0
  6
CONTINUOUS
 62
           3
100
AcDbLine
 10
4515.899996051142
 20
1390.000000596098
 11
4505.899996274751
 21
1390.000000596098
  0
LINE
  5
1EF
100
AcDbEntity
  8
0
  6
CONTINUOUS
 62
           3
100
AcDbLine
 10
4515.899996051142
 20
1391.199998557594
 11
4515.899996051142
 21
1390.000000596098
  0
LINE
  5
1EE
100
AcDbEntity
  8
0
  6
CONTINUOUS
 62
           3
100
AcDbLine
 10
4480.649996792472
 20
1550.000000744964
 11
4482.649996654574
 21
1550.000000744964
  0
LINE
  5
1ED
100
AcDbEntity
  8
0
  6
CONTINUOUS
 62
           3
100
AcDbLine
 10
4482.649996654574
 20
1548.799999058067
 11
4480.649996792472
 21
1548.799999058067
  0
LINE
  5
1EC
100
AcDbEntity
  8
0
  6
CONTINUOUS
 62
           3
100
AcDbLine
 10
4482.649996654574
 20
1550.000000744964
 11
4482.649996654574
 21
1548.799999058067
  0
LINE
  5
1EB
100
AcDbEntity
  8
0
  6
CONTINUOUS
 62
           3
100
AcDbLine
 10
4493.899997101561
 20
1391.199998557594
 11
4505.899996274751
 21
1391.199998557594
  0
LINE
  5
1EA
100
AcDbEntity
  8
0
  6
CONTINUOUS
 62
           3
100
AcDbLine
 10
4493.899997101561
 20
1390.000000596098
 11
4505.899996274751
 21
1390.000000596098
  0
LINE
  5
1E9
100
AcDbEntity
  8
0
  6
CONTINUOUS
 62
           3
100
AcDbLine
 10
4505.899996274751
 20
1391.199998557594
 11
4505.899996274751
 21
1390.000000596098
  0
LINE
  5
1E8
100
AcDbEntity
  8
0
  6
CONTINUOUS
 62
           3
100
AcDbLine
 10
4455.899997392189
 20
1391.199998557594
 11
4465.899997168584
 21
1391.199998557594
  0
LINE
  5
1E7
100
AcDbEntity
  8
0
  6
CONTINUOUS
 62
           3
100
AcDbLine
 10
4455.899997392189
 20
1390.000000596098
 11
4465.899997168584
 21
1390.000000596098
  0
LINE
  5
1E6
100
AcDbEntity
  8
0
  6
CONTINUOUS
 62
           3
100
AcDbLine
 10
4455.899997392189
 20
1391.199998557594
 11
4455.899997392189
 21
1390.000000596098
  0
LINE
  5
1E5
100
AcDbEntity
  8
0
  6
CONTINUOUS
 62
           3
100
AcDbLine
 10
4489.149996788762
 20
1550.000000744964
 11
4491.149996650863
 21
1550.000000744964
  0
LINE
  5
1E4
100
AcDbEntity
  8
0
  6
CONTINUOUS
 62
           3
100
AcDbLine
 10
4491.149996650863
 20
1548.799999058067
 11
4489.149996788762
 21
1548.799999058067
  0
LINE
  5
1E3
100
AcDbEntity
  8
0
  6
CONTINUOUS
 62
           3
100
AcDbLine
 10
4489.149996788762
 20
1548.799999058067
 11
4489.149996788762
 21
1550.000000744964
  0
LINE
  5
1E2
100
AcDbEntity
  8
0
  6
CONTINUOUS
 62
           3
100
AcDbLine
 10
4515.899996051142
 20
1550.000000744964
 11
4505.899996274751
 21
1550.000000744964
  0
LINE
  5
1E1
100
AcDbEntity
  8
0
  6
CONTINUOUS
 62
           3
100
AcDbLine
 10
4515.899996051142
 20
1548.799999058067
 11
4505.899996274751
 21
1548.799999058067
  0
LINE
  5
1E0
100
AcDbEntity
  8
0
  6
CONTINUOUS
 62
           3
100
AcDbLine
 10
4515.899996051142
 20
1548.799999058067
 11
4515.899996051142
 21
1550.000000744964
  0
LINE
  5
1DF
100
AcDbEntity
  8
0
  6
CONTINUOUS
 62
           3
100
AcDbLine
 10
4489.149996788762
 20
1391.199998557594
 11
4489.399996829762
 21
1391.199998557594
  0
LINE
  5
1DE
100
AcDbEntity
  8
0
  6
CONTINUOUS
 62
           3
100
AcDbLine
 10
4489.149996788762
 20
1390.000000596098
 11
4489.149996788762
 21
1391.199998557594
  0
LINE
  5
1DD
100
AcDbEntity
  8
0
  6
CONTINUOUS
 62
           3
100
AcDbLine
 10
4465.899997168584
 20
1391.199998557594
 11
4477.899996341773
 21
1391.199998557594
  0
LINE
  5
1DC
100
AcDbEntity
  8
0
  6
CONTINUOUS
 62
           3
100
AcDbLine
 10
4465.899997168584
 20
1390.000000596098
 11
4477.899996341773
 21
1390.000000596098
  0
LINE
  5
1DB
100
AcDbEntity
  8
0
  6
CONTINUOUS
 62
           3
100
AcDbLine
 10
4465.899997168584
 20
1391.199998557594
 11
4465.899997168584
 21
1390.000000596098
  0
LINE
  5
1DA
100
AcDbEntity
  8
0
  6
CONTINUOUS
 62
           3
100
AcDbLine
 10
4465.899997168584
 20
1550.000000744964
 11
4480.649996792472
 21
1550.000000744964
  0
LINE
  5
1D9
100
AcDbEntity
  8
0
  6
CONTINUOUS
 62
           3
100
AcDbLine
 10
4465.899997168584
 20
1548.799999058067
 11
4480.649996792472
 21
1548.799999058067
  0
LINE
  5
1D8
100
AcDbEntity
  8
0
  6
CONTINUOUS
 62
           3
100
AcDbLine
 10
4491.149996650863
 20
1550.000000744964
 11
4505.899996274751
 21
1550.000000744964
  0
LINE
  5
1D7
100
AcDbEntity
  8
0
  6
CONTINUOUS
 62
           3
100
AcDbLine
 10
4491.149996650863
 20
1548.799999058067
 11
4505.899996274751
 21
1548.799999058067
  0
LINE
  5
1D6
100
AcDbEntity
  8
0
  6
CONTINUOUS
 62
           3
100
AcDbLine
 10
4505.899996274751
 20
1548.799999058067
 11
4505.899996274751
 21
1550.000000744964
  0
LINE
  5
1D5
100
AcDbEntity
  8
0
  6
CONTINUOUS
 62
           3
100
AcDbLine
 10
4455.899997392189
 20
1548.799999058067
 11
4455.899997392189
 21
1550.000000744964
  0
LINE
  5
1D4
100
AcDbEntity
  8
0
  6
CONTINUOUS
 62
           3
100
AcDbLine
 10
4455.899997392189
 20
1548.799999058067
 11
4465.899997168584
 21
1548.799999058067
  0
LINE
  5
1D3
100
AcDbEntity
  8
0
  6
CONTINUOUS
 62
           3
100
AcDbLine
 10
4465.899997168584
 20
1548.799999058067
 11
4465.899997168584
 21
1550.000000744964
  0
LINE
  5
1D2
100
AcDbEntity
  8
0
  6
CONTINUOUS
 62
           3
100
AcDbLine
 10
4455.899997392189
 20
1550.000000744964
 11
4465.899997168584
 21
1550.000000744964
  0
LINE
  5
1D1
100
AcDbEntity
  8
0
  6
CONTINUOUS
 62
           3
100
AcDbLine
 10
4493.899997101561
 20
1389.200001954996
 11
4493.899997101561
 21
1388.276241719796
  0
LINE
  5
1D0
100
AcDbEntity
  8
0
  6
CONTINUOUS
 62
           3
100
AcDbLine
 10
4477.899996341773
 20
1389.200001954996
 11
4477.899996341773
 21
1388.276241719796
  0
LINE
  5
1CF
100
AcDbEntity
  8
0
  6
CONTINUOUS
 62
           3
100
AcDbLine
 10
4480.899996833472
 20
1388.276241719796
 11
4477.899996341773
 21
1388.276241719796
  0
LINE
  5
1CE
100
AcDbEntity
  8
0
  6
CONTINUOUS
 62
           3
100
AcDbLine
 10
4493.899997101561
 20
1388.276241719796
 11
4490.899996609863
 21
1388.276241719796
  0
LINE
  5
1CD
100
AcDbEntity
  8
0
  6
CONTINUOUS
 62
           3
100
AcDbLine
 10
4488.399996665761
 20
1384.199999272902
 11
4490.89999660991
 21
1384.199999272902
  0
LINE
  5
1CC
100
AcDbEntity
  8
0
  6
CONTINUOUS
 62
           3
100
AcDbLine
 10
4480.899996833432
 20
1384.199999272902
 11
4483.399996777552
 21
1384.199999272902
  0
LINE
  5
1CB
100
AcDbEntity
  8
0
  6
CONTINUOUS
 62
           3
100
AcDbLine
 10
4490.899996609863
 20
1384.646579623303
 11
4490.899996609863
 21
1389.100000262195
  0
LINE
  5
1CA
100
AcDbEntity
  8
0
  6
CONTINUOUS
 62
           3
100
AcDbLine
 10
4480.899996833472
 20
1384.646579623303
 11
4480.899996833472
 21
1389.100000262195
  0
LINE
  5
1C9
100
AcDbEntity
  8
0
  6
CONTINUOUS
 62
           3
100
AcDbLine
 10
4480.899996833472
 20
1384.646579623303
 11
4483.399996777552
 21
1384.199999272902
  0
LINE
  5
1C8
100
AcDbEntity
  8
0
  6
CONTINUOUS
 62
           3
100
AcDbLine
 10
4485.899996721674
 20
1384.646579623296
 11
4485.899996721674
 21
1389.100000262195
  0
LINE
  5
1C7
100
AcDbEntity
  8
0
  6
CONTINUOUS
 62
           3
100
AcDbLine
 10
4483.399996777552
 20
1384.199999272902
 11
4488.399996665761
 21
1384.199999272902
  0
LINE
  5
1C6
100
AcDbEntity
  8
0
  6
CONTINUOUS
 62
           3
100
AcDbLine
 10
4485.899996721674
 20
1384.646579623296
 11
4488.399996665761
 21
1384.199999272902
  0
LINE
  5
1C5
100
AcDbEntity
  8
0
  6
CONTINUOUS
 62
           3
100
AcDbLine
 10
4482.399996613574
 20
1389.200001954996
 11
4489.399996829762
 21
1389.200001954996
  0
LINE
  5
1C4
100
AcDbEntity
  8
0
  6
CONTINUOUS
 62
           3
100
AcDbLine
 10
4482.399996613574
 20
1390.000000596098
 11
4489.399996829762
 21
1390.000000596098
  0
LINE
  5
1C3
100
AcDbEntity
  8
0
  6
CONTINUOUS
 62
           3
100
AcDbLine
 10
4489.399996829762
 20
1393.990144133493
 11
4482.399996613574
 21
1393.990144133493
  0
LINE
  5
1C2
100
AcDbEntity
  8
0
  6
CONTINUOUS
 62
           3
100
AcDbLine
 10
4482.899996695574
 20
1392.246469855294
 11
4482.399996613574
 21
1392.246469855294
  0
LINE
  5
1C1
100
AcDbEntity
  8
0
  6
CONTINUOUS
 62
           3
100
AcDbLine
 10
4489.399996829762
 20
1392.246469855294
 11
4488.899996747762
 21
1392.246469855294
  0
LINE
  5
1C0
100
AcDbEntity
  8
0
  6
CONTINUOUS
 62
           3
100
AcDbLine
 10
4493.899997101561
 20
1394.799999892894
 11
4493.899997101561
 21
1389.200001954996
  0
LINE
  5
1BF
100
AcDbEntity
  8
0
  6
CONTINUOUS
 62
           3
100
AcDbLine
 10
4477.899996341773
 20
1394.799999892894
 11
4477.899996341773
 21
1389.200001954996
  0
LINE
  5
1BE
100
AcDbEntity
  8
0
  6
CONTINUOUS
 62
           3
100
AcDbLine
 10
4482.399996613574
 20
1389.200001954996
 11
4482.399996613574
 21
1394.799999892894
  0
LINE
  5
1BD
100
AcDbEntity
  8
0
  6
CONTINUOUS
 62
           3
100
AcDbLine
 10
4489.399996829762
 20
1394.799999892894
 11
4489.399996829762
 21
1389.200001954996
  0
LINE
  5
1BC
100
AcDbEntity
  8
0
  6
CONTINUOUS
 62
           3
100
AcDbLine
 10
4482.399996613574
 20
1389.200001954996
 11
4477.899996341773
 21
1389.200001954996
  0
LINE
  5
1BB
100
AcDbEntity
  8
0
  6
CONTINUOUS
 62
           3
100
AcDbLine
 10
4482.399996613574
 20
1394.792847335492
 11
4489.399996829762
 21
1394.792847335492
  0
LINE
  5
1BA
100
AcDbEntity
  8
0
  6
CONTINUOUS
 62
           3
100
AcDbLine
 10
4493.899997101561
 20
1389.200001954996
 11
4489.399996829762
 21
1389.200001954996
  0
LINE
  5
1B9
100
AcDbEntity
  8
0
  6
CONTINUOUS
 62
           3
100
AcDbLine
 10
4487.899996816559
 20
1638.422653078993
 11
4483.899996626773
 21
1638.422653078993
  0
LINE
  5
1B8
100
AcDbEntity
  8
0
  6
CONTINUOUS
 62
           3
100
AcDbLine
 10
4482.899996695574
 20
1637.422651052294
 11
4488.899996747762
 21
1637.422651052294
  0
LINE
  5
1B7
100
AcDbEntity
  8
0
  6
CONTINUOUS
 62
           3
100
AcDbLine
 10
4431.899995321011
 20
1665.00000655637
 11
4435.899995976709
 21
1665.00000655637
  0
LINE
  5
1B6
100
AcDbEntity
  8
0
  6
CONTINUOUS
 62
           3
100
AcDbLine
 10
4435.899995976709
 20
1665.00000655637
 11
4439.899996632411
 21
1665.00000655637
  0
LINE
  5
1B5
100
AcDbEntity
  8
0
  6
CONTINUOUS
 62
           3
100
AcDbLine
 10
4481.569869687345
 20
1367.599993944257
 11
4480.899996833472
 21
1367.599993944114
  0
LINE
  5
1B4
100
AcDbEntity
  8
0
  6
CONTINUOUS
 62
           3
100
AcDbLine
 10
4490.899996609863
 20
1367.599993944114
 11
4490.230123756003
 21
1367.599993944257
  0
LINE
  5
1B3
100
AcDbEntity
  8
0
  6
CONTINUOUS
 62
           3
100
AcDbLine
 10
4481.569869687345
 20
1372.600004077042
 11
4480.899996833472
 21
1372.600004077011
  0
LINE
  5
1B2
100
AcDbEntity
  8
0
  6
CONTINUOUS
 62
           3
100
AcDbLine
 10
4490.230123756003
 20
1367.599993944257
 11
4485.899996721674
 21
1367.599993944257
  0
LINE
  5
1B1
100
AcDbEntity
  8
0
  6
CONTINUOUS
 62
           3
100
AcDbLine
 10
4485.899996721674
 20
1367.599993944257
 11
4481.569869687345
 21
1367.599993944257
  0
LINE
  5
1B0
100
AcDbEntity
  8
0
  6
CONTINUOUS
 62
           3
100
AcDbLine
 10
4480.126493853971
 20
1372.15341627611
 11
4480.126493853971
 21
1368.046581745313
  0
LINE
  5
1AF
100
AcDbEntity
  8
0
  6
CONTINUOUS
 62
           3
100
AcDbLine
 10
4480.126493853971
 20
1368.046581745313
 11
4481.569869687345
 21
1367.599993944257
  0
LINE
  5
1AE
100
AcDbEntity
  8
0
  6
CONTINUOUS
 62
           3
100
AcDbLine
 10
4483.013245287842
 20
1372.153416276063
 11
4481.569869687345
 21
1372.600004077042
  0
LINE
  5
1AD
100
AcDbEntity
  8
0
  6
CONTINUOUS
 62
           3
100
AcDbLine
 10
4488.786748155362
 20
1368.046581745313
 11
4490.230123756003
 21
1367.599993944257
  0
LINE
  5
1AC
100
AcDbEntity
  8
0
  6
CONTINUOUS
 62
           3
100
AcDbLine
 10
4491.673499589364
 20
1372.15341627611
 11
4491.673499589364
 21
1368.046581745313
  0
LINE
  5
1AB
100
AcDbEntity
  8
0
  6
CONTINUOUS
 62
           3
100
AcDbLine
 10
4491.673499589364
 20
1372.15341627611
 11
4490.230123756003
 21
1372.600004077042
  0
LINE
  5
1AA
100
AcDbEntity
  8
0
  6
CONTINUOUS
 62
           3
100
AcDbLine
 10
4483.013245287842
 20
1372.153416276063
 11
4483.013245287842
 21
1368.046581745236
  0
LINE
  5
1A9
100
AcDbEntity
  8
0
  6
CONTINUOUS
 62
           3
100
AcDbLine
 10
4488.7867481555
 20
1372.153416276063
 11
4488.786748155362
 21
1368.046581745313
  0
LINE
  5
1A8
100
AcDbEntity
  8
0
  6
CONTINUOUS
 62
           3
100
AcDbLine
 10
4490.899996609863
 20
1372.600004077011
 11
4490.230123756003
 21
1372.600004077042
  0
LINE
  5
1A7
100
AcDbEntity
  8
0
  6
CONTINUOUS
 62
           3
100
AcDbLine
 10
4490.899996609863
 20
1377.599999308605
 11
4490.230123756003
 21
1377.599999308667
  0
LINE
  5
1A6
100
AcDbEntity
  8
0
  6
CONTINUOUS
 62
           3
100
AcDbLine
 10
4481.569869687345
 20
1377.599999308667
 11
4480.899996833472
 21
1377.599999308605
  0
LINE
  5
1A5
100
AcDbEntity
  8
0
  6
CONTINUOUS
 62
           3
100
AcDbLine
 10
4485.899996721674
 20
1372.600004077042
 11
4481.569869687345
 21
1372.600004077042
  0
LINE
  5
1A4
100
AcDbEntity
  8
0
  6
CONTINUOUS
 62
           3
100
AcDbLine
 10
4490.230123756003
 20
1372.600004077042
 11
4485.899996721674
 21
1372.600004077042
  0
LINE
  5
1A3
100
AcDbEntity
  8
0
  6
CONTINUOUS
 62
           3
100
AcDbLine
 10
4485.899996721674
 20
1377.599999308667
 11
4481.569869687345
 21
1377.599999308667
  0
LINE
  5
1A2
100
AcDbEntity
  8
0
  6
CONTINUOUS
 62
           3
100
AcDbLine
 10
4480.126493853971
 20
1377.153418958206
 11
4480.126493853971
 21
1373.046576976913
  0
LINE
  5
1A1
100
AcDbEntity
  8
0
  6
CONTINUOUS
 62
           3
100
AcDbLine
 10
4480.126493853971
 20
1373.046576976913
 11
4481.569869687345
 21
1372.600004077042
  0
LINE
  5
1A0
100
AcDbEntity
  8
0
  6
CONTINUOUS
 62
           3
100
AcDbLine
 10
4483.013245287842
 20
1377.153418958268
 11
4481.569869687345
 21
1377.599999308667
  0
LINE
  5
19F
100
AcDbEntity
  8
0
  6
CONTINUOUS
 62
           3
100
AcDbLine
 10
4490.230123756003
 20
1377.599999308667
 11
4485.899996721674
 21
1377.599999308667
  0
LINE
  5
19E
100
AcDbEntity
  8
0
  6
CONTINUOUS
 62
           3
100
AcDbLine
 10
4488.786748155362
 20
1373.046576976913
 11
4490.230123756003
 21
1372.600004077042
  0
LINE
  5
19D
100
AcDbEntity
  8
0
  6
CONTINUOUS
 62
           3
100
AcDbLine
 10
4491.673499589364
 20
1377.153418958206
 11
4491.673499589364
 21
1373.046576976913
  0
LINE
  5
19C
100
AcDbEntity
  8
0
  6
CONTINUOUS
 62
           3
100
AcDbLine
 10
4491.673499589364
 20
1377.153418958206
 11
4490.230123756003
 21
1377.599999308667
  0
LINE
  5
19B
100
AcDbEntity
  8
0
  6
CONTINUOUS
 62
           3
100
AcDbLine
 10
4483.013245287842
 20
1377.153418958268
 11
4483.013245287842
 21
1373.046576976861
  0
LINE
  5
19A
100
AcDbEntity
  8
0
  6
CONTINUOUS
 62
           3
100
AcDbLine
 10
4488.7867481555
 20
1377.153418958268
 11
4488.786748155362
 21
1373.046576976913
  0
LINE
  5
199
100
AcDbEntity
  8
0
  6
CONTINUOUS
 62
           3
100
AcDbLine
 10
4480.126493853971
 20
1364.553421735917
 11
4480.126493853971
 21
1360.446587205123
  0
LINE
  5
198
100
AcDbEntity
  8
0
  6
CONTINUOUS
 62
           3
100
AcDbLine
 10
4480.126493853971
 20
1360.446587205123
 11
4481.569869687345
 21
1359.999999404049
  0
LINE
  5
197
100
AcDbEntity
  8
0
  6
CONTINUOUS
 62
           3
100
AcDbLine
 10
4483.013245287842
 20
1364.553421735859
 11
4481.569869687345
 21
1364.999994635673
  0
LINE
  5
196
100
AcDbEntity
  8
0
  6
CONTINUOUS
 62
           3
100
AcDbLine
 10
4488.786748155362
 20
1360.446587205123
 11
4490.230123755963
 21
1359.999999403922
  0
LINE
  5
195
100
AcDbEntity
  8
0
  6
CONTINUOUS
 62
           3
100
AcDbLine
 10
4491.673499589364
 20
1364.553421735917
 11
4491.673499589364
 21
1360.446587205123
  0
LINE
  5
194
100
AcDbEntity
  8
0
  6
CONTINUOUS
 62
           3
100
AcDbLine
 10
4491.673499589364
 20
1364.553421735917
 11
4490.230123756003
 21
1364.999994635673
  0
LINE
  5
193
100
AcDbEntity
  8
0
  6
CONTINUOUS
 62
           3
100
AcDbLine
 10
4483.013245287842
 20
1364.553421735859
 11
4483.013245287842
 21
1360.446587205025
  0
LINE
  5
192
100
AcDbEntity
  8
0
  6
CONTINUOUS
 62
           3
100
AcDbLine
 10
4488.7867481555
 20
1364.553421735859
 11
4488.786748155362
 21
1360.446587205123
  0
LINE
  5
191
100
AcDbEntity
  8
0
  6
CONTINUOUS
 62
           3
100
AcDbLine
 10
4480.899996833472
 20
1359.999999403922
 11
4481.569869687345
 21
1359.999999404049
  0
LINE
  5
190
100
AcDbEntity
  8
0
  6
CONTINUOUS
 62
           3
100
AcDbLine
 10
4490.899996609863
 20
1355.000004172322
 11
4490.230123756003
 21
1355.000004172422
  0
LINE
  5
18F
100
AcDbEntity
  8
0
  6
CONTINUOUS
 62
           3
100
AcDbLine
 10
4480.899996833472
 20
1355.000004172322
 11
4481.569869687345
 21
1355.000004172422
  0
LINE
  5
18E
100
AcDbEntity
  8
0
  6
CONTINUOUS
 62
           3
100
AcDbLine
 10
4491.673499589364
 20
1355.446577072224
 11
4490.230123756003
 21
1355.000004172422
  0
LINE
  5
18D
100
AcDbEntity
  8
0
  6
CONTINUOUS
 62
           3
100
AcDbLine
 10
4491.673499589364
 20
1355.446577072224
 11
4491.673499589364
 21
1359.553411603022
  0
LINE
  5
18C
100
AcDbEntity
  8
0
  6
CONTINUOUS
 62
           3
100
AcDbLine
 10
4480.126493853971
 20
1355.446577072224
 11
4480.126493853971
 21
1359.553411603022
  0
LINE
  5
18B
100
AcDbEntity
  8
0
  6
CONTINUOUS
 62
           3
100
AcDbLine
 10
4485.899996721674
 20
1359.999999404049
 11
4490.230123755963
 21
1359.999999403922
  0
LINE
  5
18A
100
AcDbEntity
  8
0
  6
CONTINUOUS
 62
           3
100
AcDbLine
 10
4488.7867481555
 20
1359.553411603069
 11
4490.230123755963
 21
1359.999999403922
  0
LINE
  5
189
100
AcDbEntity
  8
0
  6
CONTINUOUS
 62
           3
100
AcDbLine
 10
4481.569869687345
 20
1359.999999404049
 11
4485.899996721674
 21
1359.999999404049
  0
LINE
  5
188
100
AcDbEntity
  8
0
  6
CONTINUOUS
 62
           3
100
AcDbLine
 10
4481.569869687345
 20
1355.000004172422
 11
4485.899996721674
 21
1355.000004172322
  0
LINE
  5
187
100
AcDbEntity
  8
0
  6
CONTINUOUS
 62
           3
100
AcDbLine
 10
4485.899996721674
 20
1355.000004172322
 11
4490.230123756003
 21
1355.000004172422
  0
LINE
  5
186
100
AcDbEntity
  8
0
  6
CONTINUOUS
 62
           3
100
AcDbLine
 10
4483.013245287969
 20
1359.553411603022
 11
4485.899996721674
 21
1359.999999404049
  0
LINE
  5
185
100
AcDbEntity
  8
0
  6
CONTINUOUS
 62
           3
100
AcDbLine
 10
4483.013245287842
 20
1355.446577072243
 11
4483.013245287969
 21
1359.553411603022
  0
LINE
  5
184
100
AcDbEntity
  8
0
  6
CONTINUOUS
 62
           3
100
AcDbLine
 10
4488.786748155362
 20
1355.446577072224
 11
4485.899996721674
 21
1355.000004172322
  0
LINE
  5
183
100
AcDbEntity
  8
0
  6
CONTINUOUS
 62
           3
100
AcDbLine
 10
4488.786748155362
 20
1355.446577072224
 11
4488.7867481555
 21
1359.553411603069
  0
LINE
  5
182
100
AcDbEntity
  8
0
  6
CONTINUOUS
 62
           3
100
AcDbLine
 10
4542.899996751322
 20
1393.799997866196
 11
4542.899996751322
 21
1543.800000101368
  0
LINE
  5
181
100
AcDbEntity
  8
0
  6
CONTINUOUS
 62
           3
100
AcDbLine
 10
4431.899995321011
 20
1543.800000101368
 11
4428.899996692009
 21
1543.800000101368
  0
LINE
  5
180
100
AcDbEntity
  8
0
  6
CONTINUOUS
 62
           3
100
AcDbLine
 10
4482.899996695574
 20
1543.800000101368
 11
4439.899996632411
 21
1543.800000101368
  0
LINE
  5
17F
100
AcDbEntity
  8
0
  6
CONTINUOUS
 62
           3
100
AcDbLine
 10
4531.899996810931
 20
1543.800000101368
 11
4488.899996747762
 21
1543.800000101368
  0
LINE
  5
17E
100
AcDbEntity
  8
0
  6
CONTINUOUS
 62
           3
100
AcDbLine
 10
4542.899996751322
 20
1543.800000101368
 11
4539.899998122325
 21
1543.800000101368
  0
LINE
  5
17D
100
AcDbEntity
  8
0
  6
CONTINUOUS
 62
           3
100
AcDbLine
 10
4428.899996692009
 20
1543.800000101368
 11
4428.899996692009
 21
1393.799997866196
  0
LINE
  5
17C
100
AcDbEntity
  8
0
  6
CONTINUOUS
 62
           3
100
AcDbLine
 10
4539.899998122325
 20
1393.799997866196
 11
4542.899996751322
 21
1393.799997866196
  0
LINE
  5
17B
100
AcDbEntity
  8
0
  6
CONTINUOUS
 62
           3
100
AcDbLine
 10
4493.899997101561
 20
1393.799997866196
 11
4531.899996810931
 21
1393.799997866196
  0
LINE
  5
17A
100
AcDbEntity
  8
0
  6
CONTINUOUS
 62
           3
100
AcDbLine
 10
4439.899996632411
 20
1393.799997866196
 11
4477.899996341773
 21
1393.799997866196
  0
LINE
  5
179
100
AcDbEntity
  8
0
  6
CONTINUOUS
 62
           3
100
AcDbLine
 10
4428.899996692009
 20
1393.799997866196
 11
4431.899995321011
 21
1393.799997866196
  0
LINE
  5
178
100
AcDbEntity
  8
0
  6
CONTINUOUS
 62
           3
100
AcDbLine
 10
4479.42649402987
 20
1389.099999999995
 11
4492.373499413461
 21
1389.099999999995
  0
LINE
  5
177
100
AcDbEntity
  8
0
  6
CONTINUOUS
 62
           3
100
AcDbLine
 10
4493.899997101561
 20
1394.799999892894
 11
4489.399996829762
 21
1394.799999892894
  0
LINE
  5
176
100
AcDbEntity
  8
0
  6
CONTINUOUS
 62
           3
100
AcDbLine
 10
4482.399996613574
 20
1394.799999892894
 11
4477.899996341773
 21
1394.799999892894
  0
LINE
  5
175
100
AcDbEntity
  8
0
  6
CONTINUOUS
 62
           3
100
AcDbLine
 10
4483.899996626773
 20
1638.422653078993
 11
4482.899996695574
 21
1637.422651052294
  0
LINE
  5
174
100
AcDbEntity
  8
0
  6
CONTINUOUS
 62
           3
100
AcDbLine
 10
4488.899996747762
 20
1637.422651052294
 11
4487.899996816559
 21
1638.422653078993
  0
LINE
  5
173
100
AcDbEntity
  8
0
  6
CONTINUOUS
 62
           3
100
AcDbLine
 10
4482.899996695574
 20
1367.599993944114
 11
4482.899996695574
 21
1366.600006818714
  0
LINE
  5
172
100
AcDbEntity
  8
0
  6
CONTINUOUS
 62
           3
100
AcDbLine
 10
4482.899996695574
 20
1384.199999272902
 11
4482.899996695574
 21
1377.599999308605
  0
LINE
  5
171
100
AcDbEntity
  8
0
  6
CONTINUOUS
 62
           3
100
AcDbLine
 10
4482.899996695574
 20
1392.957426607595
 11
4482.899996695574
 21
1390.000000596098
  0
LINE
  5
170
100
AcDbEntity
  8
0
  6
CONTINUOUS
 62
           3
100
AcDbLine
 10
4482.899996695574
 20
1633.399993180997
 11
4482.899996695574
 21
1394.792847335492
  0
LINE
  5
16F
100
AcDbEntity
  8
0
  6
CONTINUOUS
 62
           3
100
AcDbLine
 10
4482.899996695574
 20
1637.422651052294
 11
4482.899996695574
 21
1635.000005364197
  0
LINE
  5
16E
100
AcDbEntity
  8
0
  6
CONTINUOUS
 62
           3
100
AcDbLine
 10
4488.899996747762
 20
1635.000005364197
 11
4488.899996747762
 21
1637.422651052294
  0
LINE
  5
16D
100
AcDbEntity
  8
0
  6
CONTINUOUS
 62
           3
100
AcDbLine
 10
4488.899996747762
 20
1394.792847335492
 11
4488.899996747762
 21
1633.399993180997
  0
LINE
  5
16C
100
AcDbEntity
  8
0
  6
CONTINUOUS
 62
           3
100
AcDbLine
 10
4488.899996747762
 20
1390.000000596098
 11
4488.899996747762
 21
1392.957426607595
  0
LINE
  5
16B
100
AcDbEntity
  8
0
  6
CONTINUOUS
 62
           3
100
AcDbLine
 10
4488.899996747762
 20
1377.599999308605
 11
4488.899996747762
 21
1384.199999272902
  0
LINE
  5
16A
100
AcDbEntity
  8
0
  6
CONTINUOUS
 62
           3
100
AcDbLine
 10
4488.899996747762
 20
1366.600006818714
 11
4488.899996747762
 21
1367.599993944114
  0
LINE
  5
169
100
AcDbEntity
  8
0
  6
CONTINUOUS
 62
           3
100
AcDbLine
 10
4439.899996632411
 20
1635.000005364197
 11
4439.899996632411
 21
1665.00000655637
  0
LINE
  5
168
100
AcDbEntity
  8
0
  6
CONTINUOUS
 62
           3
100
AcDbLine
 10
4439.899996632411
 20
1550.000000744964
 11
4439.899996632411
 21
1633.399993180997
  0
LINE
  5
167
100
AcDbEntity
  8
0
  6
CONTINUOUS
 62
           3
100
AcDbLine
 10
4439.899996632411
 20
1391.199998557594
 11
4439.899996632411
 21
1548.799999058067
  0
LINE
  5
166
100
AcDbEntity
  8
0
  6
CONTINUOUS
 62
           3
100
AcDbLine
 10
4439.899996632411
 20
1366.600006818714
 11
4439.899996632411
 21
1390.000000596098
  0
LINE
  5
165
100
AcDbEntity
  8
0
  6
CONTINUOUS
 62
           3
100
AcDbLine
 10
4431.899995321011
 20
1364.999994635816
 11
4431.899995321011
 21
1314.999997615957
  0
LINE
  5
164
100
AcDbEntity
  8
0
  6
CONTINUOUS
 62
           3
100
AcDbLine
 10
4431.899995321011
 20
1390.000000596098
 11
4431.899995321011
 21
1366.600006818714
  0
LINE
  5
163
100
AcDbEntity
  8
0
  6
CONTINUOUS
 62
           3
100
AcDbLine
 10
4431.899995321011
 20
1548.799999058067
 11
4431.899995321011
 21
1391.199998557594
  0
LINE
  5
162
100
AcDbEntity
  8
0
  6
CONTINUOUS
 62
           3
100
AcDbLine
 10
4431.899995321011
 20
1633.399993180997
 11
4431.899995321011
 21
1550.000000744964
  0
LINE
  5
161
100
AcDbEntity
  8
0
  6
CONTINUOUS
 62
           3
100
AcDbLine
 10
4431.899995321011
 20
1665.00000655637
 11
4431.899995321011
 21
1635.000005364197
  0
LINE
  5
160
100
AcDbEntity
  8
0
  6
CONTINUOUS
 62
           3
100
AcDbLine
 10
4539.899998122325
 20
1635.000005364197
 11
4539.899998122325
 21
1641.000000000001
  0
LINE
  5
15F
100
AcDbEntity
  8
0
  6
CONTINUOUS
 62
           3
100
AcDbLine
 10
4539.899998122325
 20
1550.000000744964
 11
4539.899998122325
 21
1633.399993180997
  0
LINE
  5
15E
100
AcDbEntity
  8
0
  6
CONTINUOUS
 62
           3
100
AcDbLine
 10
4539.899998122325
 20
1391.199998557594
 11
4539.899998122325
 21
1548.799999058067
  0
LINE
  5
15D
100
AcDbEntity
  8
0
  6
CONTINUOUS
 62
           3
100
AcDbLine
 10
4539.899998122325
 20
1366.600006818714
 11
4539.899998122325
 21
1390.000000596098
  0
LINE
  5
15C
100
AcDbEntity
  8
0
  6
CONTINUOUS
 62
           3
100
AcDbLine
 10
4539.899998122325
 20
1314.999997615957
 11
4539.899998122325
 21
1364.999994635816
  0
LINE
  5
15B
100
AcDbEntity
  8
0
  6
CONTINUOUS
 62
           3
100
AcDbLine
 10
4531.899996810931
 20
1364.999994635816
 11
4531.899996810931
 21
1314.999997615957
  0
LINE
  5
15A
100
AcDbEntity
  8
0
  6
CONTINUOUS
 62
           3
100
AcDbLine
 10
4531.899996810931
 20
1390.000000596098
 11
4531.899996810931
 21
1366.600006818714
  0
LINE
  5
159
100
AcDbEntity
  8
0
  6
CONTINUOUS
 62
           3
100
AcDbLine
 10
4531.899996810931
 20
1548.799999058067
 11
4531.899996810931
 21
1391.199998557594
  0
LINE
  5
158
100
AcDbEntity
  8
0
  6
CONTINUOUS
 62
           3
100
AcDbLine
 10
4531.899996810931
 20
1633.399993180997
 11
4531.899996810931
 21
1550.000000744964
  0
LINE
  5
157
100
AcDbEntity
  8
0
  6
CONTINUOUS
 62
           3
100
AcDbLine
 10
4531.899996810931
 20
1641.000000000001
 11
4531.899996810931
 21
1635.000005364197
  0
LINE
  5
156
100
AcDbEntity
  8
0
  6
CONTINUOUS
 62
           3
100
AcDbLine
 10
4480.126493853971
 20
1368.046581745313
 11
4480.899996833472
 21
1367.599993944114
  0
LINE
  5
155
100
AcDbEntity
  8
0
  6
CONTINUOUS
 62
           3
100
AcDbLine
 10
4490.899996609863
 20
1367.599993944114
 11
4491.673499589364
 21
1368.046581745313
  0
LINE
  5
154
100
AcDbEntity
  8
0
  6
CONTINUOUS
 62
           3
100
AcDbLine
 10
4491.673499589364
 20
1372.15341627611
 11
4490.899996609863
 21
1372.600004077011
  0
LINE
  5
153
100
AcDbEntity
  8
0
  6
CONTINUOUS
 62
           3
100
AcDbLine
 10
4480.899996833472
 20
1372.600004077011
 11
4480.126493853971
 21
1372.15341627611
  0
LINE
  5
152
100
AcDbEntity
  8
0
  6
CONTINUOUS
 62
           3
100
AcDbLine
 10
4480.126493853971
 20
1373.046576976913
 11
4480.899996833472
 21
1372.600004077011
  0
LINE
  5
151
100
AcDbEntity
  8
0
  6
CONTINUOUS
 62
           3
100
AcDbLine
 10
4490.899996609863
 20
1372.600004077011
 11
4491.673499589364
 21
1373.046576976913
  0
LINE
  5
150
100
AcDbEntity
  8
0
  6
CONTINUOUS
 62
           3
100
AcDbLine
 10
4491.673499589364
 20
1377.153418958206
 11
4490.899996609863
 21
1377.599999308605
  0
LINE
  5
14F
100
AcDbEntity
  8
0
  6
CONTINUOUS
 62
           3
100
AcDbLine
 10
4480.899996833472
 20
1377.599999308605
 11
4480.126493853971
 21
1377.153418958206
  0
LINE
  5
14E
100
AcDbEntity
  8
0
  6
CONTINUOUS
 62
           3
100
AcDbLine
 10
4480.126493853971
 20
1360.446587205123
 11
4480.899996833472
 21
1359.999999403922
  0
LINE
  5
14D
100
AcDbEntity
  8
0
  6
CONTINUOUS
 62
           3
100
AcDbLine
 10
4490.899996609863
 20
1359.999999403922
 11
4491.673499589364
 21
1360.446587205123
  0
LINE
  5
14C
100
AcDbEntity
  8
0
  6
CONTINUOUS
 62
           3
100
AcDbLine
 10
4491.673499589364
 20
1364.553421735917
 11
4490.899996609863
 21
1364.999994635816
  0
LINE
  5
14B
100
AcDbEntity
  8
0
  6
CONTINUOUS
 62
           3
100
AcDbLine
 10
4480.899996833472
 20
1364.999994635816
 11
4480.126493853971
 21
1364.553421735917
  0
LINE
  5
14A
100
AcDbEntity
  8
0
  6
CONTINUOUS
 62
           3
100
AcDbLine
 10
4491.673499589364
 20
1359.553411603022
 11
4490.899996609863
 21
1359.999999403922
  0
LINE
  5
149
100
AcDbEntity
  8
0
  6
CONTINUOUS
 62
           3
100
AcDbLine
 10
4480.899996833472
 20
1359.999999403922
 11
4480.126493853971
 21
1359.553411603022
  0
LINE
  5
148
100
AcDbEntity
  8
0
  6
CONTINUOUS
 62
           3
100
AcDbLine
 10
4490.899996609863
 20
1355.000004172322
 11
4491.673499589364
 21
1355.446577072224
  0
LINE
  5
147
100
AcDbEntity
  8
0
  6
CONTINUOUS
 62
           3
100
AcDbLine
 10
4480.126493853971
 20
1355.446577072224
 11
4480.899996833472
 21
1355.000004172322
  0
LINE
  5
146
100
AcDbEntity
  8
0
  6
CONTINUOUS
 62
           3
100
AcDbLine
 10
4439.899996632411
 20
1314.999997615957
 11
4439.899996632411
 21
1364.999994635816
  0
LINE
  5
145
100
AcDbEntity
  8
1
  6
CONTINUOUS
 62
           3
100
AcDbLine
 10
4967.5
 20
1929.000000000001
 11
4819.899996810931
 21
1929.000000000001
  0
LINE
  5
144
100
AcDbEntity
  8
1
  6
CONTINUOUS
 62
           3
100
AcDbLine
 10
4967.5
 20
1921.000000000002
 11
4819.899998122324
 21
1921.000000000002
  0
LINE
  5
143
100
AcDbEntity
  8
1
  6
CONTINUOUS
 62
           7
100
AcDbLine
 10
4120.0
 20
1733.0
 11
4120.000000000001
 21
1620.0
  0
LINE
  5
142
100
AcDbEntity
  8
1
  6
CONTINUOUS
 62
           7
100
AcDbLine
 10
4300.0
 20
1733.000000000001
 11
4120.0
 21
1733.0
  0
LINE
  5
141
100
AcDbEntity
  8
1
  6
CONTINUOUS
 62
           7
100
AcDbLine
 10
4300.0
 20
1620.0
 11
4300.0
 21
1733.000000000001
  0
LINE
  5
140
100
AcDbEntity
  8
1
  6
CONTINUOUS
 62
           7
100
AcDbLine
 10
4120.000000000001
 20
1620.0
 11
4300.0
 21
1620.0
  0
LINE
  5
13F
100
AcDbEntity
  8
1
  6
CONTINUOUS
 62
           2
100
AcDbLine
 10
4549.999999999999
 20
1741.488764155298
 11
4549.999999999999
 21
1980.000000000002
  0
LINE
  5
13E
100
AcDbEntity
  8
1
  6
CONTINUOUS
 62
           7
100
AcDbLine
 10
4569.999999999999
 20
1784.157226830838
 11
4569.999999999998
 21
2000.000000000002
  0
LINE
  5
13D
100
AcDbEntity
  8
1
  6
CONTINUOUS
 62
           2
100
AcDbLine
 10
4589.999999999998
 20
1800.831132334581
 11
4589.999999999999
 21
520.000000000001
  0
LINE
  5
13C
100
AcDbEntity
  8
1
  6
CONTINUOUS
 62
           7
100
AcDbLine
 10
-250.0
 20
2000.0
 11
-250.0
 21
1763.744569986044
  0
LINE
  5
13B
100
AcDbEntity
  8
1
  6
CONTINUOUS
 62
           7
100
AcDbLine
 10
250.0
 20
1763.744569986044
 11
250.0
 21
800.0
  0
LINE
  5
13A
100
AcDbEntity
  8
1
  6
CONTINUOUS
 62
           7
100
AcDbLine
 10
1250.0
 20
1763.744569986044
 11
-1250.0
 21
1763.744569986044
  0
LINE
  5
139
100
AcDbEntity
  8
1
  6
DOT_CENTER
 62
           3
100
AcDbLine
 10
8.472255321878
 20
1340.200848327051
 11
8.472255321878
 21
1250.202277327051
  0
LINE
  5
138
100
AcDbEntity
  8
1
  6
DOT_CENTER
 62
           3
100
AcDbLine
 10
53.472255321878
 20
1295.200848327051
 11
-36.525199678126
 21
1295.200848327051
  0
LINE
  5
137
100
AcDbEntity
  8
1
  6
CONTINUOUS
 62
           3
100
AcDbLine
 10
4.936660321884
 20
1323.330711327061
 11
2.548714321875
 21
1296.073587327061
  0
LINE
  5
136
100
AcDbEntity
  8
1
  6
CONTINUOUS
 62
           3
100
AcDbLine
 10
2.548714321875
 20
1294.328109327061
 11
4.936660321884
 21
1267.07098532706
  0
LINE
  5
135
100
AcDbEntity
  8
1
  6
CONTINUOUS
 62
           3
100
AcDbLine
 10
12.007850321894
 20
1323.330711327061
 11
14.395796321875
 21
1296.073587327061
  0
LINE
  5
134
100
AcDbEntity
  8
1
  6
CONTINUOUS
 62
           3
100
AcDbLine
 10
14.395796321875
 20
1294.328109327061
 11
12.007850321894
 21
1267.07098532706
  0
LINE
  5
133
100
AcDbEntity
  8
1
  6
CONTINUOUS
 62
           7
100
AcDbLine
 10
75.0
 20
1646.282992387804
 11
-1075.0
 21
1646.282992387804
  0
LINE
  5
132
100
AcDbEntity
  8
1
  6
CONTINUOUS
 62
           7
100
AcDbLine
 10
-1075.0
 20
941.513526798366
 11
-1075.0
 21
1646.282992387804
  0
LINE
  5
131
100
AcDbEntity
  8
1
  6
CONTINUOUS
 62
           7
100
AcDbLine
 10
75.0
 20
941.513526798366
 11
75.0
 21
1646.282992387804
  0
LINE
  5
130
100
AcDbEntity
  8
1
  6
CONTINUOUS
 62
           7
100
AcDbLine
 10
-1075.0
 20
941.513526798366
 11
75.0
 21
941.513526798366
  0
LINE
  5
12F
100
AcDbEntity
  8
___S__
  6
DOT_CENTER
 62
           3
100
AcDbLine
 10
-1074.999999999975
 20
1621.052837286498
 11
-1074.999999999976
 21
1536.05712705539
  0
LINE
  5
12E
100
AcDbEntity
  8
____
  6
CONTINUOUS
 62
           3
100
AcDbLine
 10
-1069.595947044857
 20
1614.449075506233
 11
-1069.595947044857
 21
1612.571144758108
  0
LINE
  5
12D
100
AcDbEntity
  8
____
  6
CONTINUOUS
 62
           3
100
AcDbLine
 10
-1079.912775413719
 20
1614.918558193264
 11
-1070.087224586232
 21
1614.918558193264
  0
LINE
  5
12C
100
AcDbEntity
  8
____
  6
CONTINUOUS
 62
           3
100
AcDbLine
 10
-1080.404052955094
 20
1612.571144758109
 11
-1080.404052955094
 21
1614.449075506233
  0
LINE
  5
12B
100
AcDbEntity
  8
____
  6
CONTINUOUS
 62
           3
100
AcDbLine
 10
-1069.497691536591
 20
1576.890460543777
 11
-1080.502308463369
 21
1576.890460543777
  0
LINE
  5
12A
100
AcDbEntity
  8
____
  6
CONTINUOUS
 62
           3
100
AcDbLine
 10
-1069.497691536591
 20
1612.571144758108
 11
-1069.497691536591
 21
1576.890460543777
  0
LINE
  5
129
100
AcDbEntity
  8
____
  6
CONTINUOUS
 62
           3
100
AcDbLine
 10
-1080.502308463368
 20
1612.571144758109
 11
-1069.497691536591
 21
1612.571144758108
  0
LINE
  5
128
100
AcDbEntity
  8
____
  6
CONTINUOUS
 62
           3
100
AcDbLine
 10
-1080.502308463369
 20
1576.890460543777
 11
-1080.502308463368
 21
1612.571144758109
  0
LINE
  5
127
100
AcDbEntity
  8
____
  6
CONTINUOUS
 62
           3
100
AcDbLine
 10
-1080.404052955096
 20
1538.392880207261
 11
-1080.404052955096
 21
1540.270810955383
  0
LINE
  5
126
100
AcDbEntity
  8
____
  6
CONTINUOUS
 62
           3
100
AcDbLine
 10
-1070.087224586232
 20
1537.923397520231
 11
-1079.912775413721
 21
1537.923397520231
  0
LINE
  5
125
100
AcDbEntity
  8
____
  6
CONTINUOUS
 62
           3
100
AcDbLine
 10
-1069.595947044857
 20
1540.270810955383
 11
-1069.595947044857
 21
1538.392880207261
  0
LINE
  5
124
100
AcDbEntity
  8
____
  6
CONTINUOUS
 62
           3
100
AcDbLine
 10
-1080.158414184408
 20
1576.890460543777
 11
-1080.158414184408
 21
1575.951495169717
  0
LINE
  5
123
100
AcDbEntity
  8
____
  6
CONTINUOUS
 62
           3
100
AcDbLine
 10
-1069.841585815545
 20
1576.890460543777
 11
-1080.158414184408
 21
1576.890460543777
  0
LINE
  5
122
100
AcDbEntity
  8
____
  6
CONTINUOUS
 62
           3
100
AcDbLine
 10
-1069.841585815545
 20
1575.951495169717
 11
-1069.841585815545
 21
1576.890460543777
  0
LINE
  5
121
100
AcDbEntity
  8
____
  6
CONTINUOUS
 62
           3
100
AcDbLine
 10
-1080.404052955094
 20
1614.449075506233
 11
-1069.595947044857
 21
1614.449075506233
  0
LINE
  5
120
100
AcDbEntity
  8
____
  6
CONTINUOUS
 62
           3
100
AcDbLine
 10
-1080.502308463369
 20
1575.951495169717
 11
-1069.497691536591
 21
1575.951495169717
  0
LINE
  5
11F
100
AcDbEntity
  8
____
  6
CONTINUOUS
 62
           3
100
AcDbLine
 10
-1080.502308463369
 20
1540.270810955383
 11
-1080.502308463369
 21
1575.951495169717
  0
LINE
  5
11E
100
AcDbEntity
  8
____
  6
CONTINUOUS
 62
           3
100
AcDbLine
 10
-1069.497691536591
 20
1540.270810955383
 11
-1080.502308463369
 21
1540.270810955383
  0
LINE
  5
11D
100
AcDbEntity
  8
____
  6
CONTINUOUS
 62
           3
100
AcDbLine
 10
-1069.497691536591
 20
1575.951495169717
 11
-1069.497691536591
 21
1540.270810955383
  0
LINE
  5
11C
100
AcDbEntity
  8
____
  6
CONTINUOUS
 62
           3
100
AcDbLine
 10
-1080.404052955094
 20
1614.449075506233
 11
-1079.912775413719
 21
1614.918558193264
  0
LINE
  5
11B
100
AcDbEntity
  8
____
  6
CONTINUOUS
 62
           3
100
AcDbLine
 10
-1070.087224586232
 20
1614.918558193264
 11
-1069.595947044857
 21
1614.449075506233
  0
LINE
  5
11A
100
AcDbEntity
  8
____
  6
CONTINUOUS
 62
           3
100
AcDbLine
 10
-1079.912775413721
 20
1537.923397520231
 11
-1080.404052955096
 21
1538.392880207261
  0
LINE
  5
119
100
AcDbEntity
  8
____
  6
CONTINUOUS
 62
           3
100
AcDbLine
 10
-1069.595947044857
 20
1538.392880207261
 11
-1070.087224586232
 21
1537.923397520231
  0
LINE
  5
118
100
AcDbEntity
  8
____
  6
CONTINUOUS
 62
           3
100
AcDbLine
 10
-1080.404052955096
 20
1538.392880207261
 11
-1069.595947044857
 21
1538.392880207261
  0
LINE
  5
117
100
AcDbEntity
  8
____
  6
CONTINUOUS
 62
           3
100
AcDbLine
 10
-1080.404052955119
 20
984.403309517207
 11
-1069.595947044882
 21
984.403309517207
  0
LINE
  5
116
100
AcDbEntity
  8
____
  6
CONTINUOUS
 62
           3
100
AcDbLine
 10
-1069.595947044882
 20
984.403309517207
 11
-1070.087224586257
 21
983.933826830174
  0
LINE
  5
115
100
AcDbEntity
  8
____
  6
CONTINUOUS
 62
           3
100
AcDbLine
 10
-1079.912775413746
 20
983.933826830174
 11
-1080.404052955119
 21
984.403309517207
  0
LINE
  5
114
100
AcDbEntity
  8
____
  6
CONTINUOUS
 62
           3
100
AcDbLine
 10
-1070.087224586255
 20
1060.92898750321
 11
-1069.59594704488
 21
1060.459504816179
  0
LINE
  5
113
100
AcDbEntity
  8
____
  6
CONTINUOUS
 62
           3
100
AcDbLine
 10
-1080.404052955118
 20
1060.459504816179
 11
-1079.912775413744
 21
1060.92898750321
  0
LINE
  5
112
100
AcDbEntity
  8
____
  6
CONTINUOUS
 62
           3
100
AcDbLine
 10
-1069.497691536607
 20
1021.961924479662
 11
-1069.497691536609
 21
986.281240265329
  0
LINE
  5
111
100
AcDbEntity
  8
____
  6
CONTINUOUS
 62
           3
100
AcDbLine
 10
-1069.497691536609
 20
986.281240265329
 11
-1080.502308463385
 21
986.281240265329
  0
LINE
  5
110
100
AcDbEntity
  8
____
  6
CONTINUOUS
 62
           3
100
AcDbLine
 10
-1080.502308463385
 20
986.281240265329
 11
-1080.502308463385
 21
1021.961924479662
  0
LINE
  5
10F
100
AcDbEntity
  8
____
  6
CONTINUOUS
 62
           3
100
AcDbLine
 10
-1080.502308463385
 20
1021.961924479662
 11
-1069.497691536607
 21
1021.961924479662
  0
LINE
  5
10E
100
AcDbEntity
  8
____
  6
CONTINUOUS
 62
           3
100
AcDbLine
 10
-1080.404052955118
 20
1060.459504816179
 11
-1069.59594704488
 21
1060.459504816179
  0
LINE
  5
10D
100
AcDbEntity
  8
____
  6
CONTINUOUS
 62
           3
100
AcDbLine
 10
-1069.841585815569
 20
1021.961924479662
 11
-1069.841585815569
 21
1022.900889853723
  0
LINE
  5
10C
100
AcDbEntity
  8
____
  6
CONTINUOUS
 62
           3
100
AcDbLine
 10
-1069.841585815569
 20
1022.900889853723
 11
-1080.158414184431
 21
1022.900889853724
  0
LINE
  5
10B
100
AcDbEntity
  8
____
  6
CONTINUOUS
 62
           3
100
AcDbLine
 10
-1080.158414184431
 20
1022.900889853724
 11
-1080.158414184431
 21
1021.961924479662
  0
LINE
  5
10A
100
AcDbEntity
  8
____
  6
CONTINUOUS
 62
           3
100
AcDbLine
 10
-1069.595947044882
 20
986.281240265329
 11
-1069.595947044882
 21
984.403309517207
  0
LINE
  5
109
100
AcDbEntity
  8
____
  6
CONTINUOUS
 62
           3
100
AcDbLine
 10
-1070.087224586257
 20
983.933826830174
 11
-1079.912775413746
 21
983.933826830174
  0
LINE
  5
108
100
AcDbEntity
  8
____
  6
CONTINUOUS
 62
           3
100
AcDbLine
 10
-1080.404052955119
 20
984.403309517207
 11
-1080.404052955119
 21
986.281240265329
  0
LINE
  5
107
100
AcDbEntity
  8
____
  6
CONTINUOUS
 62
           3
100
AcDbLine
 10
-1080.502308463385
 20
1022.900889853724
 11
-1080.502308463384
 21
1058.581574068056
  0
LINE
  5
106
100
AcDbEntity
  8
____
  6
CONTINUOUS
 62
           3
100
AcDbLine
 10
-1080.502308463384
 20
1058.581574068056
 11
-1069.497691536607
 21
1058.581574068056
  0
LINE
  5
105
100
AcDbEntity
  8
____
  6
CONTINUOUS
 62
           3
100
AcDbLine
 10
-1069.497691536607
 20
1058.581574068056
 11
-1069.497691536607
 21
1022.900889853723
  0
LINE
  5
104
100
AcDbEntity
  8
____
  6
CONTINUOUS
 62
           3
100
AcDbLine
 10
-1069.497691536607
 20
1022.900889853723
 11
-1080.502308463385
 21
1022.900889853724
  0
LINE
  5
103
100
AcDbEntity
  8
____
  6
CONTINUOUS
 62
           3
100
AcDbLine
 10
-1080.404052955118
 20
1058.581574068056
 11
-1080.404052955118
 21
1060.459504816179
  0
LINE
  5
102
100
AcDbEntity
  8
____
  6
CONTINUOUS
 62
           3
100
AcDbLine
 10
-1079.912775413744
 20
1060.92898750321
 11
-1070.087224586255
 21
1060.92898750321
  0
LINE
  5
101
100
AcDbEntity
  8
____
  6
CONTINUOUS
 62
           3
100
AcDbLine
 10
-1069.59594704488
 20
1060.459504816179
 11
-1069.59594704488
 21
1058.581574068056
  0
LINE
  5
100
100
AcDbEntity
  8
___S__
  6
DOT_CENTER
 62
           3
100
AcDbLine
 10
-1075.0
 20
1067.063266596461
 11
-1075.000000000001
 21
982.067556365335
  0
LINE
  5
FF
100
AcDbEntity
  8
1
  6
CONTINUOUS
 62
           7
100
AcDbLine
 10
-1069.497691536609
 20
986.513526798369
 11
75.0
 21
986.513526798369
  0
LINE
  5
FE
100
AcDbEntity
  8
1
  6
CONTINUOUS
 62
           7
100
AcDbLine
 10
0.0
 20
500.0
 11
0.0
 21
800.0
  0
LINE
  5
FD
100
AcDbEntity
  8
1
  6
CONTINUOUS
 62
           7
100
AcDbLine
 10
4569.999999999998
 20
500.000000000001
 11
4569.999999999999
 21
1767.293273528172
  0
LINE
  5
FC
100
AcDbEntity
  8
1
  6
CONTINUOUS
 62
           2
100
AcDbLine
 10
4549.999999999999
 20
520.000000000001
 11
4549.999999999999
 21
1715.525103244268
  0
LINE
  5
FB
100
AcDbEntity
  8
1
  6
CONTINUOUS
 62
           2
100
AcDbLine
 10
4589.999999999999
 20
1980.000000000002
 11
4589.999999999998
 21
1814.464669216336
  0
LINE
  5
FA
100
AcDbEntity
  8
1
  6
DOT_CENTER
 62
           2
100
AcDbLine
 10
-807.303407120055
 20
5311.999999999997
 11
623.891101594741
 21
5311.999999999997
  0
LINE
  5
F9
100
AcDbEntity
  8
1
  6
CONTINUOUS
 62
           7
100
AcDbLine
 10
-1250.0
 20
3791.999999999998
 11
-1250.0
 21
4771.999999999998
  0
LINE
  5
F8
100
AcDbEntity
  8
1
  6
CONTINUOUS
 62
           7
100
AcDbLine
 10
1250.0
 20
3791.999999999998
 11
1250.0
 21
4771.999999999998
  0
LINE
  5
F7
100
AcDbEntity
  8
1
  6
CONTINUOUS
 62
           7
100
AcDbLine
 10
1300.0
 20
2150.0
 11
-1300.0
 21
2150.0
  0
LINE
  5
F6
100
AcDbEntity
  8
1
  6
CONTINUOUS
 62
           7
100
AcDbLine
 10
3570.0
 20
2050.000000000002
 11
3570.0
 21
2150.000000000002
  0
LINE
  5
F5
100
AcDbEntity
  8
1
  6
CONTINUOUS
 62
           7
100
AcDbLine
 10
3570.0
 20
2150.000000000002
 11
3590.0
 21
2150.000000000002
  0
LINE
  5
F4
100
AcDbEntity
  8
1
  6
CONTINUOUS
 62
           7
100
AcDbLine
 10
3665.000000000001
 20
1329.999999999996
 11
3750.000000000001
 21
1329.999999999996
  0
LINE
  5
F3
100
AcDbEntity
  8
1
  6
CONTINUOUS
 62
           4
100
AcDbLine
 10
3665.000000000001
 20
1119.435182228533
 11
3665.000000000001
 21
1430.000000000002
  0
LINE
  5
F2
100
AcDbEntity
  8
1
  6
CONTINUOUS
 62
           4
100
AcDbLine
 10
3812.314185654644
 20
1089.435182228533
 11
3695.000000000001
 21
1089.435182228533
  0
LINE
  5
F1
100
AcDbEntity
  8
1
  6
CONTINUOUS
 62
           4
100
AcDbLine
 10
3812.314185654644
 20
1069.435182228533
 11
3812.314185654644
 21
1089.435182228533
  0
LINE
  5
F0
100
AcDbEntity
  8
1
  6
CONTINUOUS
 62
           4
100
AcDbLine
 10
3695.000000000001
 20
1069.435182228533
 11
3812.314185654644
 21
1069.435182228533
  0
LINE
  5
EF
100
AcDbEntity
  8
1
  6
CONTINUOUS
 62
           4
100
AcDbLine
 10
3645.000000000001
 20
1430.000000000002
 11
3645.000000000001
 21
1119.435182228533
  0
LINE
  5
EE
100
AcDbEntity
  8
1
  6
CONTINUOUS
 62
           4
100
AcDbLine
 10
3665.000000000001
 20
1430.000000000002
 11
3645.000000000001
 21
1430.000000000002
  0
LINE
  5
ED
100
AcDbEntity
  8
1
  6
CONTINUOUS
 62
           7
100
AcDbLine
 10
127.928556845363
 20
4771.999999999998
 11
1300.0
 21
4771.999999999998
  0
LINE
  5
EC
100
AcDbEntity
  8
1
  6
CONTINUOUS
 62
           2
100
AcDbLine
 10
-150.9053650641
 20
4751.999999999998
 11
-1230.0
 21
4751.999999999998
  0
LINE
  5
EB
100
AcDbEntity
  8
1
  6
CONTINUOUS
 62
           2
100
AcDbLine
 10
-659.999999999997
 20
5751.999999999998
 11
-980.0
 21
5751.999999999998
  0
LINE
  5
EA
100
AcDbEntity
  8
1
  6
CONTINUOUS
 62
           7
100
AcDbLine
 10
-649.999999999997
 20
5771.999999999998
 11
-1300.0
 21
5771.999999999998
  0
LINE
  5
E9
100
AcDbEntity
  8
1
  6
CONTINUOUS
 62
           7
100
AcDbLine
 10
-1300.0
 20
3791.999999999998
 11
1300.0
 21
3791.999999999998
  0
LINE
  5
E8
100
AcDbEntity
  8
1
  6
CONTINUOUS
 62
           7
100
AcDbLine
 10
-387.5
 20
4006.999999999998
 11
-407.573593128807
 21
4006.999999999998
  0
LINE
  5
E7
100
AcDbEntity
  8
1
  6
CONTINUOUS
 62
           7
100
AcDbLine
 10
-465.0
 20
3959.499999999998
 11
-465.0
 21
3979.573593128805
  0
LINE
  5
E6
100
AcDbEntity
  8
1
  6
CONTINUOUS
 62
           7
100
AcDbLine
 10
-512.5
 20
4036.999999999999
 11
-492.426406871191
 21
4036.999999999998
  0
LINE
  5
E5
100
AcDbEntity
  8
1
  6
CONTINUOUS
 62
           7
100
AcDbLine
 10
-387.5
 20
4036.999999999998
 11
-387.5
 21
4006.999999999998
  0
LINE
  5
E4
100
AcDbEntity
  8
1
  6
CONTINUOUS
 62
           7
100
AcDbLine
 10
-435.0
 20
3959.499999999998
 11
-465.0
 21
3959.499999999998
  0
LINE
  5
E3
100
AcDbEntity
  8
1
  6
CONTINUOUS
 62
           7
100
AcDbLine
 10
-512.5
 20
4006.999999999998
 11
-512.5
 21
4036.999999999999
  0
LINE
  5
E2
100
AcDbEntity
  8
1
  6
CONTINUOUS
 62
           7
100
AcDbLine
 10
-407.573593128808
 20
4036.999999999999
 11
-387.5
 21
4036.999999999998
  0
LINE
  5
E1
100
AcDbEntity
  8
1
  6
CONTINUOUS
 62
           7
100
AcDbLine
 10
-435.0
 20
3979.573593128805
 11
-435.0
 21
3959.499999999998
  0
LINE
  5
E0
100
AcDbEntity
  8
1
  6
CONTINUOUS
 62
           7
100
AcDbLine
 10
-492.426406871191
 20
4006.999999999998
 11
-512.5
 21
4006.999999999998
  0
LINE
  5
DF
100
AcDbEntity
  8
1
  6
CONTINUOUS
 62
           7
100
AcDbLine
 10
-435.0
 20
4084.499999999998
 11
-435.0
 21
4064.426406871191
  0
LINE
  5
DE
100
AcDbEntity
  8
1
  6
CONTINUOUS
 62
           7
100
AcDbLine
 10
-465.0
 20
4084.499999999998
 11
-435.0
 21
4084.499999999998
  0
LINE
  5
DD
100
AcDbEntity
  8
1
  6
CONTINUOUS
 62
           7
100
AcDbLine
 10
-465.0
 20
4064.426406871191
 11
-465.0
 21
4084.499999999998
  0
LINE
  5
DC
100
AcDbEntity
  8
1
  6
DOT_CENTER
 62
           2
100
AcDbLine
 10
-680.912924024839
 20
4021.999999999998
 11
704.924669896944
 21
4021.999999999998
  0
LINE
  5
DB
100
AcDbEntity
  8
1
  6
CONTINUOUS
 62
           2
100
AcDbLine
 10
-1230.0
 20
4251.999999999998
 11
-1230.0
 21
3791.999999999998
  0
LINE
  5
DA
100
AcDbEntity
  8
1
  6
CONTINUOUS
 62
           2
100
AcDbLine
 10
1230.0
 20
4251.999999999998
 11
1230.0
 21
3791.999999999998
  0
LINE
  5
D9
100
AcDbEntity
  8
1
  6
CONTINUOUS
 62
           2
100
AcDbLine
 10
1230.0
 20
4251.999999999998
 11
-1230.0
 21
4251.999999999998
  0
LINE
  5
D8
100
AcDbEntity
  8
1
  6
CONTINUOUS
 62
           2
100
AcDbLine
 10
-1230.0
 20
4291.999999999998
 11
1230.0
 21
4291.999999999998
  0
LINE
  5
D7
100
AcDbEntity
  8
1
  6
CONTINUOUS
 62
           7
100
AcDbLine
 10
1250.0
 20
4271.999999999998
 11
-1250.0
 21
4271.999999999998
  0
LINE
  5
D6
100
AcDbEntity
  8
1
  6
CONTINUOUS
 62
           2
100
AcDbLine
 10
1020.000000000002
 20
5751.999999999998
 11
1280.0
 21
5751.999999999998
  0
LINE
  5
D5
100
AcDbEntity
  8
1
  6
CONTINUOUS
 62
           2
100
AcDbLine
 10
1020.000000000002
 20
4791.999999999998
 11
1280.0
 21
4791.999999999998
  0
LINE
  5
D4
100
AcDbEntity
  8
1
  6
CONTINUOUS
 62
           2
100
AcDbLine
 10
980.000000000002
 20
5751.999999999998
 11
980.000000000002
 21
4791.999999999998
  0
LINE
  5
D3
100
AcDbEntity
  8
1
  6
CONTINUOUS
 62
           2
100
AcDbLine
 10
1020.000000000002
 20
5751.999999999998
 11
1020.000000000002
 21
4791.999999999998
  0
LINE
  5
D2
100
AcDbEntity
  8
1
  6
CONTINUOUS
 62
           7
100
AcDbLine
 10
1000.000000000002
 20
5771.999999999998
 11
1000.000000000002
 21
4771.999999999998
  0
LINE
  5
D1
100
AcDbEntity
  8
1
  6
CONTINUOUS
 62
           2
100
AcDbLine
 10
1254.0
 20
4771.999999999998
 11
1254.0
 21
3791.999999999998
  0
LINE
  5
D0
100
AcDbEntity
  8
1
  6
CONTINUOUS
 62
           2
100
AcDbLine
 10
-1254.0
 20
4771.999999999998
 11
-1254.0
 21
3791.999999999998
  0
LINE
  5
CF
100
AcDbEntity
  8
1
  6
CONTINUOUS
 62
           2
100
AcDbLine
 10
-980.0
 20
4791.999999999999
 11
-520.0
 21
4791.999999999998
  0
LINE
  5
CE
100
AcDbEntity
  8
1
  6
CONTINUOUS
 62
           2
100
AcDbLine
 10
-1020.0
 20
5751.999999999998
 11
-1280.0
 21
5751.999999999998
  0
LINE
  5
CD
100
AcDbEntity
  8
1
  6
CONTINUOUS
 62
           2
100
AcDbLine
 10
-1020.0
 20
5751.999999999998
 11
-1020.0
 21
4791.999999999998
  0
LINE
  5
CC
100
AcDbEntity
  8
1
  6
CONTINUOUS
 62
           2
100
AcDbLine
 10
-980.0
 20
5751.999999999998
 11
-980.0
 21
4791.999999999999
  0
LINE
  5
CB
100
AcDbEntity
  8
1
  6
CONTINUOUS
 62
           7
100
AcDbLine
 10
-1000.0
 20
5771.999999999998
 11
-1000.0
 21
4771.999999999998
  0
LINE
  5
CA
100
AcDbEntity
  8
1
  6
CONTINUOUS
 62
           7
100
AcDbLine
 10
-15.0
 20
540.0
 11
-1235.0
 21
540.0
  0
LINE
  5
C9
100
AcDbEntity
  8
1
  6
CONTINUOUS
 62
           2
100
AcDbLine
 10
1230.0
 20
4751.999999999998
 11
54.98039027186
 21
4751.999999999998
  0
LINE
  5
C8
100
AcDbEntity
  8
1
  6
CONTINUOUS
 62
           2
100
AcDbLine
 10
1230.0
 20
4751.999999999998
 11
1230.0
 21
4291.999999999998
  0
LINE
  5
C7
100
AcDbEntity
  8
1
  6
CONTINUOUS
 62
           2
100
AcDbLine
 10
520.0
 20
5751.999999999999
 11
980.000000000002
 21
5751.999999999998
  0
LINE
  5
C6
100
AcDbEntity
  8
1
  6
CONTINUOUS
 62
           2
100
AcDbLine
 10
1280.0
 20
5751.999999999998
 11
1280.0
 21
4791.999999999998
  0
LINE
  5
C5
100
AcDbEntity
  8
1
  6
CONTINUOUS
 62
           7
100
AcDbLine
 10
1300.0
 20
3771.999999999998
 11
1300.0
 21
5771.999999999998
  0
LINE
  5
C4
100
AcDbEntity
  8
1
  6
DOT_CENTER
 62
           2
100
AcDbLine
 10
0.0
 20
5936.216232355003
 11
0.0
 21
3656.512654335819
  0
LINE
  5
C3
100
AcDbEntity
  8
1
  6
DOT_CENTER
 62
           2
100
AcDbLine
 10
0.0
 20
-75.734147716068
 11
0.0
 21
3054.42137244135
  0
LINE
  5
C2
100
AcDbEntity
  8
1
  6
CONTINUOUS
 62
           7
100
AcDbLine
 10
1235.0
 20
540.0
 11
15.0
 21
540.0
  0
LINE
  5
C1
100
AcDbEntity
  8
1
  6
CONTINUOUS
 62
           7
100
AcDbLine
 10
-1300.0
 20
4771.999999999998
 11
-230.525588832579
 21
4771.999999999998
  0
LINE
  5
C0
100
AcDbEntity
  8
1
  6
CONTINUOUS
 62
           7
100
AcDbLine
 10
-1250.0
 20
500.0
 11
-1235.0
 21
500.0
  0
LINE
  5
BF
100
AcDbEntity
  8
1
  6
CONTINUOUS
 62
           7
100
AcDbLine
 10
1235.0
 20
500.0
 11
1250.0
 21
500.0
  0
LINE
  5
BE
100
AcDbEntity
  8
1
  6
CONTINUOUS
 62
           7
100
AcDbLine
 10
-1250.0
 20
800.0
 11
1250.0
 21
800.0
  0
LINE
  5
BD
100
AcDbEntity
  8
1
  6
CONTINUOUS
 62
           7
100
AcDbLine
 10
-1250.0
 20
513.85332266763
 11
-1250.0
 21
572.607085651513
  0
LINE
  5
BC
100
AcDbEntity
  8
1
  6
CONTINUOUS
 62
           7
100
AcDbLine
 10
15.0
 20
540.0
 11
15.0
 21
475.000000000002
  0
LINE
  5
BB
100
AcDbEntity
  8
1
  6
CONTINUOUS
 62
           7
100
AcDbLine
 10
1235.0
 20
540.0
 11
1235.0
 21
475.000000000002
  0
LINE
  5
BA
100
AcDbEntity
  8
1
  6
CONTINUOUS
 62
           7
100
AcDbLine
 10
-1250.0
 20
400.0
 11
1250.0
 21
400.0
  0
LINE
  5
B9
100
AcDbEntity
  8
1
  6
CONTINUOUS
 62
           7
100
AcDbLine
 10
1250.0
 20
50.0
 11
-1250.0
 21
50.0
  0
LINE
  5
B8
100
AcDbEntity
  8
1
  6
CONTINUOUS
 62
           7
100
AcDbLine
 10
1250.0
 20
1900.0
 11
-1250.0
 21
1900.0
  0
LINE
  5
B7
100
AcDbEntity
  8
1
  6
CONTINUOUS
 62
           7
100
AcDbLine
 10
1250.0
 20
0.0
 11
1250.0
 21
2000.0
  0
LINE
  5
B6
100
AcDbEntity
  8
1
  6
CONTINUOUS
 62
           7
100
AcDbLine
 10
-1250.0
 20
0.0
 11
-1250.0
 21
2000.0
  0
LINE
  5
B5
100
AcDbEntity
  8
1
  6
CONTINUOUS
 62
           7
100
AcDbLine
 10
1300.0
 20
2000.0
 11
-1300.0
 21
2000.0
  0
LINE
  5
B4
100
AcDbEntity
  8
1
  6
CONTINUOUS
 62
           2
100
AcDbLine
 10
520.0
 20
4791.999999999998
 11
980.000000000002
 21
4791.999999999998
  0
LINE
  5
B3
100
AcDbEntity
  8
1
  6
CONTINUOUS
 62
           7
100
AcDbLine
 10
1300.0
 20
5771.999999999998
 11
0.0
 21
5771.999999999997
  0
LINE
  5
B2
100
AcDbEntity
  8
1
  6
CONTINUOUS
 62
           2
100
AcDbLine
 10
-1280.0
 20
4791.999999999998
 11
-1280.0
 21
5751.999999999998
  0
LINE
  5
B1
100
AcDbEntity
  8
1
  6
CONTINUOUS
 62
           2
100
AcDbLine
 10
-520.0
 20
4791.999999999998
 11
-520.0
 21
4969.571662593028
  0
LINE
  5
B0
100
AcDbEntity
  8
1
  6
CONTINUOUS
 62
           7
100
AcDbLine
 10
-500.0
 20
4771.999999999998
 11
-500.0
 21
4946.307806183469
  0
LINE
  5
AF
100
AcDbEntity
  8
1
  6
CONTINUOUS
 62
           2
100
AcDbLine
 10
-1280.0
 20
4791.999999999998
 11
-1020.0
 21
4791.999999999998
  0
LINE
  5
AE
100
AcDbEntity
  8
1
  6
CONTINUOUS
 62
           2
100
AcDbLine
 10
520.0
 20
5751.999999999999
 11
520.0
 21
4791.999999999998
  0
LINE
  5
AD
100
AcDbEntity
  8
1
  6
CONTINUOUS
 62
           7
100
AcDbLine
 10
500.0
 20
4771.999999999998
 11
500.0
 21
5771.999999999998
  0
LINE
  5
AC
100
AcDbEntity
  8
1
  6
CONTINUOUS
 62
           2
100
AcDbLine
 10
-1230.0
 20
4751.999999999998
 11
-1230.0
 21
4291.999999999998
  0
LINE
  5
AB
100
AcDbEntity
  8
1
  6
CONTINUOUS
 62
           7
100
AcDbLine
 10
-1300.0
 20
5771.999999999998
 11
-1300.0
 21
3771.999999999998
  0
LINE
  5
AA
100
AcDbEntity
  8
1
  6
CONTINUOUS
 62
           7
100
AcDbLine
 10
-1300.0
 20
3771.999999999998
 11
1300.0
 21
3771.999999999998
  0
LINE
  5
A9
100
AcDbEntity
  8
1
  6
CONTINUOUS
 62
           7
100
AcDbLine
 10
1800.0
 20
0.0
 11
-1800.0
 21
0.0
  0
LINE
  5
A8
100
AcDbEntity
  8
1
  6
CONTINUOUS
 62
           7
100
AcDbLine
 10
-1300.0
 20
0.0
 11
-1300.0
 21
2150.0
  0
LINE
  5
A7
100
AcDbEntity
  8
1
  6
CONTINUOUS
 62
           7
100
AcDbLine
 10
1300.0
 20
0.0
 11
1300.0
 21
2150.0
  0
LINE
  5
A6
100
AcDbEntity
  8
1
  6
CONTINUOUS
 62
           7
100
AcDbLine
 10
-1250.0
 20
475.000000000002
 11
1250.0
 21
475.000000000002
  0
LINE
  5
A5
100
AcDbEntity
  8
1
  6
CONTINUOUS
 62
           7
100
AcDbLine
 10
-1235.0
 20
475.000000000002
 11
-1235.0
 21
540.0
  0
LINE
  5
A4
100
AcDbEntity
  8
1
  6
CONTINUOUS
 62
           7
100
AcDbLine
 10
-15.0
 20
475.000000000002
 11
-15.0
 21
540.0
  0
LINE
  5
A3
100
AcDbEntity
  8
1
  6
CONTINUOUS
 62
           7
100
AcDbLine
 10
-15.0
 20
500.0
 11
15.0
 21
500.0
  0
LINE
  5
A2
100
AcDbEntity
  8
1
  6
CONTINUOUS
 62
           7
100
AcDbLine
 10
0.0
 20
475.000000000002
 11
0.0
 21
400.0
  0
LINE
  5
A1
100
AcDbEntity
  8
1
  6
CONTINUOUS
 62
           7
100
AcDbLine
 10
3810.000000000001
 20
1862.0
 11
3810.000000000001
 21
1950.0
  0
LINE
  5
A0
100
AcDbEntity
  8
1
  6
CONTINUOUS
 62
           7
100
AcDbLine
 10
3620.000000000001
 20
1862.0
 11
3810.000000000001
 21
1862.0
  0
LINE
  5
9F
100
AcDbEntity
  8
1
  6
CONTINUOUS
 62
           7
100
AcDbLine
 10
3620.000000000001
 20
1950.0
 11
3620.000000000001
 21
1862.0
  0
LINE
  5
9E
100
AcDbEntity
  8
1
  6
CONTINUOUS
 62
           7
100
AcDbLine
 10
3810.000000000001
 20
1950.0
 11
3620.000000000001
 21
1950.0
  0
LINE
  5
9D
100
AcDbEntity
  8
1
  6
CONTINUOUS
 62
           7
100
AcDbLine
 10
4300.000000000001
 20
1330.0
 11
4120.000000000001
 21
1330.0
  0
LINE
  5
9C
100
AcDbEntity
  8
1
  6
CONTINUOUS
 62
           7
100
AcDbLine
 10
4120.000000000001
 20
1570.0
 11
4300.000000000001
 21
1570.0
  0
LINE
  5
9B
100
AcDbEntity
  8
1
  6
CONTINUOUS
 62
           7
100
AcDbLine
 10
4120.000000000001
 20
1330.0
 11
4120.000000000001
 21
1570.0
  0
LINE
  5
9A
100
AcDbEntity
  8
1
  6
CONTINUOUS
 62
           7
100
AcDbLine
 10
4300.000000000001
 20
1570.0
 11
4300.000000000001
 21
1330.0
  0
LINE
  5
99
100
AcDbEntity
  8
1
  6
CONTINUOUS
 62
           7
100
AcDbLine
 10
6069.999999999997
 20
0.0
 11
3070.0
 21
0.0
  0
LINE
  5
98
100
AcDbEntity
  8
1
  6
CONTINUOUS
 62
           2
100
AcDbLine
 10
5549.999999999999
 20
1980.0
 11
4590.000000000001
 21
1980.0
  0
LINE
  5
97
100
AcDbEntity
  8
1
  6
CONTINUOUS
 62
           2
100
AcDbLine
 10
5549.999999999999
 20
520.0
 11
5549.999999999999
 21
1980.0
  0
LINE
  5
96
100
AcDbEntity
  8
1
  6
CONTINUOUS
 62
           2
100
AcDbLine
 10
4590.000000000001
 20
520.0
 11
5549.999999999999
 21
520.0
  0
LINE
  5
95
100
AcDbEntity
  8
1
  6
CONTINUOUS
 62
           2
100
AcDbLine
 10
4090.000000000001
 20
520.0
 11
4550.000000000001
 21
520.0
  0
LINE
  5
94
100
AcDbEntity
  8
1
  6
CONTINUOUS
 62
           2
100
AcDbLine
 10
4090.000000000001
 20
1980.0
 11
4090.000000000001
 21
520.0
  0
LINE
  5
93
100
AcDbEntity
  8
1
  6
CONTINUOUS
 62
           2
100
AcDbLine
 10
4550.000000000001
 20
1980.0
 11
4090.000000000001
 21
1980.0
  0
LINE
  5
92
100
AcDbEntity
  8
1
  6
CONTINUOUS
 62
           7
100
AcDbLine
 10
4570.000000000001
 20
2000.0
 11
4570.000000000001
 21
2075.0
  0
LINE
  5
91
100
AcDbEntity
  8
1
  6
CONTINUOUS
 62
           2
100
AcDbLine
 10
5549.433325304562
 20
20.0
 11
5549.433325304562
 21
479.385061529882
  0
LINE
  5
90
100
AcDbEntity
  8
1
  6
CONTINUOUS
 62
           2
100
AcDbLine
 10
4090.0
 20
20.0
 11
5549.433325304562
 21
20.0
  0
LINE
  5
8F
100
AcDbEntity
  8
1
  6
CONTINUOUS
 62
           2
100
AcDbLine
 10
4090.000000000001
 20
479.385061529882
 11
4090.0
 21
20.0
  0
LINE
  5
8E
100
AcDbEntity
  8
1
  6
CONTINUOUS
 62
           2
100
AcDbLine
 10
5549.433325304562
 20
479.385061529882
 11
4090.000000000001
 21
479.385061529882
  0
LINE
  5
8D
100
AcDbEntity
  8
1
  6
CONTINUOUS
 62
           7
100
AcDbLine
 10
4070.000000000001
 20
500.0
 11
5569.999999999999
 21
500.0
  0
LINE
  5
8C
100
AcDbEntity
  8
1
  6
CONTINUOUS
 62
           7
100
AcDbLine
 10
4070.000000000001
 20
0.0
 11
4070.000000000001
 21
2000.0
  0
LINE
  5
8B
100
AcDbEntity
  8
1
  6
CONTINUOUS
 62
           2
100
AcDbLine
 10
3590.000000000001
 20
1980.0
 11
3590.000000000001
 21
1670.0
  0
LINE
  5
8A
100
AcDbEntity
  8
1
  6
CONTINUOUS
 62
           2
100
AcDbLine
 10
4050.000000000001
 20
1980.0
 11
3590.000000000001
 21
1980.0
  0
LINE
  5
89
100
AcDbEntity
  8
1
  6
CONTINUOUS
 62
           2
100
AcDbLine
 10
4050.0
 20
20.0
 11
4050.000000000001
 21
1330.0
  0
LINE
  5
88
100
AcDbEntity
  8
1
  6
CONTINUOUS
 62
           2
100
AcDbLine
 10
3590.0
 20
20.0
 11
4050.0
 21
20.0
  0
LINE
  5
87
100
AcDbEntity
  8
1
  6
CONTINUOUS
 62
           7
100
AcDbLine
 10
3570.0
 20
0.0
 11
3570.000000000001
 21
2050.0
  0
LINE
  5
86
100
AcDbEntity
  8
1
  6
CONTINUOUS
 62
           7
100
AcDbLine
 10
5569.999999999999
 20
0.0
 11
5569.999999999999
 21
2075.0
  0
LINE
  5
85
100
AcDbEntity
  8
1
  6
CONTINUOUS
 62
           7
100
AcDbLine
 10
5569.999999999999
 20
2000.0
 11
3570.000000000001
 21
2000.0
  0
LINE
  5
84
100
AcDbEntity
  8
1
  6
CONTINUOUS
 62
           2
100
AcDbLine
 10
3570.000000000001
 20
2004.0
 11
4570.000000000001
 21
2004.0
  0
LINE
  5
83
100
AcDbEntity
  8
1
  6
CONTINUOUS
 62
           7
100
AcDbLine
 10
3570.000000000001
 20
2050.0
 11
5569.999999999999
 21
2050.0
  0
LINE
  5
82
100
AcDbEntity
  8
1
  6
CONTINUOUS
 62
           7
100
AcDbLine
 10
4570.000000000001
 20
2075.0
 11
5569.999999999999
 21
2075.0
  0
LINE
  5
81
100
AcDbEntity
  8
1
  6
DOT_CENTER
 62
           2
100
AcDbLine
 10
4794.999999999999
 20
600.0
 11
4944.999999999999
 21
600.0
  0
LINE
  5
80
100
AcDbEntity
  8
1
  6
DOT_CENTER
 62
           2
100
AcDbLine
 10
4869.999999999999
 20
675.0
 11
4869.999999999999
 21
525.0
  0
LINE
  5
7F
100
AcDbEntity
  8
1
  6
DOT_CENTER
 62
           2
100
AcDbLine
 10
3820.000000000001
 20
2235.185519582088
 11
3820.000000000001
 21
1960.45712617714
  0
LINE
  5
7E
100
AcDbEntity
  8
1
  6
CONTINUOUS
 62
           2
100
AcDbLine
 10
4050.000000000001
 20
1670.0
 11
4050.000000000001
 21
1980.0
  0
LINE
  5
7D
100
AcDbEntity
  8
1
  6
CONTINUOUS
 62
           2
100
AcDbLine
 10
3590.000000000001
 20
1330.0
 11
3590.0
 21
20.0
  0
LINE
  5
7C
100
AcDbEntity
  8
1
  6
CONTINUOUS
 62
           4
100
AcDbLine
 10
1300.0
 20
3771.999999999998
 11
1305.0
 21
3771.999999999998
  0
LINE
  5
7B
100
AcDbEntity
  8
1
  6
CONTINUOUS
 62
           4
100
AcDbLine
 10
1305.0
 20
3771.999999999998
 11
1305.0
 21
4271.999999999998
  0
LINE
  5
7A
100
AcDbEntity
  8
1
  6
CONTINUOUS
 62
           4
100
AcDbLine
 10
1305.0
 20
4271.999999999998
 11
1300.0
 21
4271.999999999998
  0
LINE
  5
79
100
AcDbEntity
  8
1
  6
CONTINUOUS
 62
           7
100
AcDbLine
 10
1300.0
 20
3771.999999999998
 11
1300.0
 21
4271.999999999998
  0
LINE
  5
78
100
AcDbEntity
  8
1
  6
CONTINUOUS
 62
           2
100
AcDbLine
 10
1417.68328099935
 20
1116.999999999983
 11
1385.0
 21
1116.999999999983
  0
LINE
  5
77
100
AcDbEntity
  8
1
  6
CONTINUOUS
 62
           2
100
AcDbLine
 10
1417.68328099935
 20
1041.999999999983
 11
1385.0
 21
1041.999999999983
  0
LINE
  5
76
100
AcDbEntity
  8
1
  6
CONTINUOUS
 62
           2
100
AcDbLine
 10
1433.0
 20
1141.999999999983
 11
1433.0
 21
1124.499999999983
  0
LINE
  5
75
100
AcDbEntity
  8
1
  6
CONTINUOUS
 62
           2
100
AcDbLine
 10
1385.0
 20
1141.999999999983
 11
1433.0
 21
1141.999999999983
  0
LINE
  5
74
100
AcDbEntity
  8
1
  6
CONTINUOUS
 62
           2
100
AcDbLine
 10
1433.0
 20
1016.999999999983
 11
1433.0
 21
1034.499999999983
  0
LINE
  5
73
100
AcDbEntity
  8
1
  6
CONTINUOUS
 62
           2
100
AcDbLine
 10
1385.0
 20
1016.999999999983
 11
1433.0
 21
1016.999999999983
  0
LINE
  5
72
100
AcDbEntity
  8
1
  6
CONTINUOUS
 62
           2
100
AcDbLine
 10
1433.0
 20
1034.499999999983
 11
1450.0
 21
1034.499999999983
  0
LINE
  5
71
100
AcDbEntity
  8
1
  6
CONTINUOUS
 62
           2
100
AcDbLine
 10
1433.0
 20
1124.499999999983
 11
1450.0
 21
1124.499999999983
  0
LINE
  5
70
100
AcDbEntity
  8
1
  6
CONTINUOUS
 62
           2
100
AcDbLine
 10
1385.0
 20
1064.499999999983
 11
1418.0
 21
1064.499999999983
  0
LINE
  5
6F
100
AcDbEntity
  8
1
  6
CONTINUOUS
 62
           2
100
AcDbLine
 10
1385.0
 20
1094.499999999983
 11
1418.0
 21
1094.499999999983
  0
LINE
  5
6E
100
AcDbEntity
  8
1
  6
CONTINUOUS
 62
           2
100
AcDbLine
 10
1395.0
 20
1141.999999999983
 11
1395.0
 21
1161.999999999983
  0
LINE
  5
6D
100
AcDbEntity
  8
1
  6
CONTINUOUS
 62
           2
100
AcDbLine
 10
1415.0
 20
1141.999999999983
 11
1415.0
 21
1161.999999999983
  0
LINE
  5
6C
100
AcDbEntity
  8
1
  6
CONTINUOUS
 62
           2
100
AcDbLine
 10
1385.0
 20
1107.249999999983
 11
1385.0
 21
1046.749999999983
  0
LINE
  5
6B
100
AcDbEntity
  8
1
  6
CONTINUOUS
 62
           2
100
AcDbLine
 10
1441.0
 20
1107.249999999983
 11
1441.0
 21
1046.749999999983
  0
LINE
  5
6A
100
AcDbEntity
  8
1
  6
CONTINUOUS
 62
           2
100
AcDbLine
 10
1441.0
 20
1107.249999999983
 11
1441.0
 21
1124.499999999983
  0
LINE
  5
69
100
AcDbEntity
  8
1
  6
CONTINUOUS
 62
           2
100
AcDbLine
 10
1441.0
 20
1046.749999999983
 11
1441.0
 21
1034.499999999983
  0
LINE
  5
68
100
AcDbEntity
  8
1
  6
CONTINUOUS
 62
           2
100
AcDbLine
 10
1385.0
 20
1046.749999999983
 11
1385.0
 21
1016.999999999983
  0
LINE
  5
67
100
AcDbEntity
  8
1
  6
CONTINUOUS
 62
           2
100
AcDbLine
 10
1385.0
 20
1107.249999999983
 11
1385.0
 21
1141.999999999983
  0
LINE
  5
66
100
AcDbEntity
  8
1
  6
CONTINUOUS
 62
           2
100
AcDbLine
 10
1458.0
 20
1046.749999999983
 11
1458.0
 21
1107.249999999983
  0
LINE
  5
65
100
AcDbEntity
  8
1
  6
CONTINUOUS
 62
           2
100
AcDbLine
 10
1458.0
 20
1046.749999999983
 11
1458.0
 21
1042.499999999983
  0
LINE
  5
64
100
AcDbEntity
  8
1
  6
CONTINUOUS
 62
           2
100
AcDbLine
 10
1458.0
 20
1107.249999999983
 11
1458.0
 21
1116.499999999983
  0
LINE
  5
63
100
AcDbEntity
  8
1
  6
CONTINUOUS
 62
           4
100
AcDbLine
 10
1305.0
 20
1670.000000000007
 11
1305.0
 21
1330.0
  0
LINE
  5
62
100
AcDbEntity
  8
1
  6
CONTINUOUS
 62
           4
100
AcDbLine
 10
1300.0
 20
1670.000000000007
 11
1305.0
 21
1670.000000000007
  0
LINE
  5
61
100
AcDbEntity
  8
1
  6
CONTINUOUS
 62
           4
100
AcDbLine
 10
1305.0
 20
1330.0
 11
1300.0
 21
1329.999999999997
  0
LINE
  5
60
100
AcDbEntity
  8
1
  6
CONTINUOUS
 62
           7
100
AcDbLine
 10
3570.000000000001
 20
1669.999999999991
 11
3750.000000000001
 21
1669.999999999991
  0
LINE
  5
5F
100
AcDbEntity
  8
1
  6
CONTINUOUS
 62
           7
100
AcDbLine
 10
3570.000000000001
 20
1329.999999999996
 11
3645.000000000001
 21
1329.999999999996
  0
LINE
  5
5E
100
AcDbEntity
  8
1
  6
CONTINUOUS
 62
           7
100
AcDbLine
 10
4000.000000000001
 20
1669.999999999991
 11
4070.0
 21
1669.999999999991
  0
LINE
  5
5D
100
AcDbEntity
  8
1
  6
CONTINUOUS
 62
           7
100
AcDbLine
 10
4000.000000000001
 20
1329.999999999996
 11
4070.0
 21
1329.999999999996
  0
LINE
  5
5C
100
AcDbEntity
  8
1
  6
CONTINUOUS
 62
           2
100
AcDbLine
 10
3860.000000000001
 20
1016.999999999993
 11
3860.000000000001
 21
1037.0735931288
  0
LINE
  5
5B
100
AcDbEntity
  8
1
  6
CONTINUOUS
 62
           2
100
AcDbLine
 10
3890.000000000001
 20
1037.0735931288
 11
3890.000000000001
 21
1016.999999999993
  0
LINE
  5
5A
100
AcDbEntity
  8
1
  6
CONTINUOUS
 62
           2
100
AcDbLine
 10
3890.000000000001
 20
1016.999999999993
 11
3860.000000000001
 21
1016.999999999993
  0
LINE
  5
59
100
AcDbEntity
  8
1
  6
CONTINUOUS
 62
           2
100
AcDbLine
 10
3890.000000000001
 20
1141.999999999993
 11
3890.000000000001
 21
1121.926406871186
  0
LINE
  5
58
100
AcDbEntity
  8
1
  6
CONTINUOUS
 62
           2
100
AcDbLine
 10
3860.000000000001
 20
1141.999999999993
 11
3890.000000000001
 21
1141.999999999993
  0
LINE
  5
57
100
AcDbEntity
  8
1
  6
CONTINUOUS
 62
           2
100
AcDbLine
 10
3860.000000000001
 20
1121.926406871186
 11
3860.000000000001
 21
1141.999999999993
  0
LINE
  5
56
100
AcDbEntity
  8
1
  6
CONTINUOUS
 62
           2
100
AcDbLine
 10
3832.573593128805
 20
1064.499999999993
 11
3812.499999999999
 21
1064.499999999993
  0
LINE
  5
55
100
AcDbEntity
  8
1
  6
CONTINUOUS
 62
           2
100
AcDbLine
 10
3865.000000000001
 20
1141.999999999993
 11
3865.000000000001
 21
1161.999999999993
  0
LINE
  5
54
100
AcDbEntity
  8
1
  6
CONTINUOUS
 62
           2
100
AcDbLine
 10
3885.000000000001
 20
1141.999999999993
 11
3885.000000000001
 21
1161.999999999993
  0
LINE
  5
53
100
AcDbEntity
  8
1
  6
CONTINUOUS
 62
           2
100
AcDbLine
 10
3812.314185654643
 20
1064.499999999993
 11
3812.314185654643
 21
1094.499999999993
  0
LINE
  5
52
100
AcDbEntity
  8
1
  6
CONTINUOUS
 62
           2
100
AcDbLine
 10
3812.499999999999
 20
1094.499999999993
 11
3832.573593128805
 21
1094.499999999993
  0
LINE
  5
51
100
AcDbEntity
  8
1
  6
CONTINUOUS
 62
           7
100
AcDbLine
 10
-487.5
 20
2150.000000000001
 11
-487.5
 21
2155.683280999348
  0
LINE
  5
50
100
AcDbEntity
  8
1
  6
CONTINUOUS
 62
           7
100
AcDbLine
 10
-412.5
 20
2150.000000000001
 11
-412.5
 21
2155.683280999348
  0
LINE
  5
4F
100
AcDbEntity
  8
1
  6
CONTINUOUS
 62
           7
100
AcDbLine
 10
-387.5
 20
2171.000000000001
 11
-387.5
 21
2150.000000000001
  0
LINE
  5
4E
100
AcDbEntity
  8
1
  6
CONTINUOUS
 62
           7
100
AcDbLine
 10
-616.0
 20
3895.999999999998
 11
-616.0
 21
4148.0
  0
LINE
  5
4D
100
AcDbEntity
  8
1
  6
CONTINUOUS
 62
           7
100
AcDbLine
 10
616.0
 20
3895.999999999998
 11
-616.0
 21
3895.999999999998
  0
LINE
  5
4C
100
AcDbEntity
  8
1
  6
CONTINUOUS
 62
           7
100
AcDbLine
 10
616.0
 20
4148.0
 11
616.0
 21
3895.999999999998
  0
LINE
  5
4B
100
AcDbEntity
  8
1
  6
CONTINUOUS
 62
           7
100
AcDbLine
 10
-616.0
 20
4148.0
 11
616.0
 21
4148.0
  0
LINE
  5
4A
100
AcDbEntity
  8
1
  6
CONTINUOUS
 62
           7
100
AcDbLine
 10
-666.0
 20
3845.999999999998
 11
-666.0
 21
4198.0
  0
LINE
  5
49
100
AcDbEntity
  8
1
  6
CONTINUOUS
 62
           7
100
AcDbLine
 10
666.0
 20
3845.999999999998
 11
-666.0
 21
3845.999999999998
  0
LINE
  5
48
100
AcDbEntity
  8
1
  6
CONTINUOUS
 62
           7
100
AcDbLine
 10
666.0
 20
4198.0
 11
666.0
 21
3845.999999999998
  0
LINE
  5
47
100
AcDbEntity
  8
1
  6
CONTINUOUS
 62
           7
100
AcDbLine
 10
-666.0
 20
4198.0
 11
666.0
 21
4198.0
  0
LINE
  5
46
100
AcDbEntity
  8
1
  6
CONTINUOUS
 62
           7
100
AcDbLine
 10
3694.000000000001
 20
2050.000000000001
 11
3694.000000000001
 21
2136.000000000001
  0
LINE
  5
45
100
AcDbEntity
  8
1
  6
CONTINUOUS
 62
           7
100
AcDbLine
 10
-495.0
 20
2184.000000000001
 11
-405.0
 21
2184.000000000001
  0
LINE
  5
44
100
AcDbEntity
  8
1
  6
CONTINUOUS
 62
           7
100
AcDbLine
 10
-405.0
 20
2171.000000000001
 11
-387.5
 21
2171.000000000001
  0
LINE
  5
43
100
AcDbEntity
  8
1
  6
CONTINUOUS
 62
           7
100
AcDbLine
 10
-495.0
 20
2171.000000000001
 11
-512.5
 21
2171.000000000001
  0
LINE
  5
42
100
AcDbEntity
  8
1
  6
CONTINUOUS
 62
           7
100
AcDbLine
 10
-512.5
 20
2171.000000000001
 11
-512.5
 21
2150.000000000001
  0
LINE
  5
41
100
AcDbEntity
  8
1
  6
CONTINUOUS
 62
           7
100
AcDbLine
 10
-495.0
 20
2188.000000000001
 11
-495.0
 21
2171.000000000001
  0
LINE
  5
40
100
AcDbEntity
  8
1
  6
CONTINUOUS
 62
           7
100
AcDbLine
 10
-413.0
 20
2196.000000000001
 11
-487.0
 21
2196.000000000001
  0
LINE
  5
3F
100
AcDbEntity
  8
1
  6
CONTINUOUS
 62
           7
100
AcDbLine
 10
-405.0
 20
2188.000000000001
 11
-405.0
 21
2171.000000000001
  0
LINE
  5
3E
100
AcDbEntity
  8
1
  6
CONTINUOUS
 62
           7
100
AcDbLine
 10
-465.0
 20
2156.000000000001
 11
-465.0
 21
2150.000000000001
  0
LINE
  5
3D
100
AcDbEntity
  8
1
  6
CONTINUOUS
 62
           7
100
AcDbLine
 10
-435.0
 20
2156.000000000001
 11
-435.0
 21
2150.000000000001
  0
LINE
  5
3C
100
AcDbEntity
  8
1
  6
CONTINUOUS
 62
           7
100
AcDbLine
 10
3694.000000000001
 20
2136.000000000001
 11
3946.000000000001
 21
2136.000000000001
  0
LINE
  5
3B
100
AcDbEntity
  8
1
  6
CONTINUOUS
 62
           7
100
AcDbLine
 10
3946.000000000001
 20
2136.000000000001
 11
3946.000000000001
 21
2050.000000000001
  0
LINE
  5
3A
100
AcDbEntity
  8
1
  6
CONTINUOUS
 62
           7
100
AcDbLine
 10
3775.000000000001
 20
2184.000000000001
 11
3865.000000000001
 21
2184.000000000001
  0
LINE
  5
39
100
AcDbEntity
  8
1
  6
CONTINUOUS
 62
           7
100
AcDbLine
 10
3782.500000000001
 20
2155.683280999348
 11
3782.500000000001
 21
2136.000000000001
  0
LINE
  5
38
100
AcDbEntity
  8
1
  6
CONTINUOUS
 62
           7
100
AcDbLine
 10
3857.500000000001
 20
2155.683280999348
 11
3857.500000000001
 21
2136.000000000001
  0
LINE
  5
37
100
AcDbEntity
  8
1
  6
CONTINUOUS
 62
           7
100
AcDbLine
 10
3757.500000000001
 20
2171.000000000001
 11
3775.000000000001
 21
2171.000000000001
  0
LINE
  5
36
100
AcDbEntity
  8
1
  6
CONTINUOUS
 62
           7
100
AcDbLine
 10
3757.500000000001
 20
2136.000000000001
 11
3757.500000000001
 21
2171.000000000001
  0
LINE
  5
35
100
AcDbEntity
  8
1
  6
CONTINUOUS
 62
           7
100
AcDbLine
 10
3882.500000000001
 20
2171.000000000001
 11
3865.000000000001
 21
2171.000000000001
  0
LINE
  5
34
100
AcDbEntity
  8
1
  6
CONTINUOUS
 62
           7
100
AcDbLine
 10
3882.500000000001
 20
2136.000000000001
 11
3882.500000000001
 21
2171.000000000001
  0
LINE
  5
33
100
AcDbEntity
  8
1
  6
CONTINUOUS
 62
           7
100
AcDbLine
 10
3865.000000000001
 20
2171.000000000001
 11
3865.000000000001
 21
2188.000000000001
  0
LINE
  5
32
100
AcDbEntity
  8
1
  6
CONTINUOUS
 62
           7
100
AcDbLine
 10
3857.000000000001
 20
2196.000000000001
 11
3783.000000000001
 21
2196.000000000001
  0
LINE
  5
31
100
AcDbEntity
  8
1
  6
CONTINUOUS
 62
           7
100
AcDbLine
 10
3775.000000000001
 20
2171.000000000001
 11
3775.000000000001
 21
2188.000000000001
  0
LINE
  5
30
100
AcDbEntity
  8
1
  6
CONTINUOUS
 62
           7
100
AcDbLine
 10
3835.000000000001
 20
2136.000000000001
 11
3835.000000000001
 21
2156.000000000001
  0
LINE
  5
2F
100
AcDbEntity
  8
1
  6
CONTINUOUS
 62
           7
100
AcDbLine
 10
3805.000000000001
 20
2136.000000000001
 11
3805.000000000001
 21
2156.000000000001
  0
LINE
  5
2E
100
AcDbEntity
  8
1
  6
DOT_CENTER
 62
           2
100
AcDbLine
 10
-450.0
 20
2202.686878034487
 11
-450.0
 21
2107.007003733832
  0
POINT
  5
2D
100
AcDbEntity
  8
0
 62
           3
100
AcDbPoint
 10
4403.399996721731
 20
1365.000000000118
  0
ENDSEC
  0
SECTION
  2
OBJECTS
  0
DICTIONARY
  5
19
100
AcDbDictionary
  3
ACAD_GROUP
350
1A
  3
ACAD_MLINESTYLE
350
1B
  0
DICTIONARY
  5
1A
102
{ACAD_REACTORS
330
19
102
}
100
AcDbDictionary
  0
DICTIONARY
  5
1B
102
{ACAD_REACTORS
330
19
102
}
100
AcDbDictionary
  3
STANDARD
350
1C
  0
MLINESTYLE
  5
1C
102
{ACAD_REACTORS
330
1B
102
}
100
AcDbMlineStyle
  2
STANDARD
 70
           0
  3

 62
           0
 51
90.0
 52
90.0
 71
           2
 49
0.5
 62
         256
  6
BYLAYER
 49
-0.5
 62
         256
  6
BYLAYER
  0
ENDSEC
  0
EOF
