  0
SECTION
  2
HEADER
  9
$ACADVER
  1
AC1014
  9
$ACADMAINTVER
 70
           0
  9
$DWGCODEPAGE
  3
DOS932
  9
$INSBASE
 10
0.0
 20
0.0
 30
0.0
  9
$EXTMIN
 10
1.000000000000E+20
 20
1.000000000000E+20
 30
1.000000000000E+20
  9
$EXTMAX
 10
-1.000000000000E+20
 20
-1.000000000000E+20
 30
-1.000000000000E+20
  9
$LIMMIN
 10
0.0
 20
0.0
  9
$LIMMAX
 10
0.0
 20
0.0
  9
$ORTHOMODE
 70
           0
  9
$REGENMODE
 70
           1
  9
$FILLMODE
 70
           1
  9
$QTEXTMODE
 70
           0
  9
$MIRRTEXT
 70
           1
  9
$DRAGMODE
 70
           2
  9
$LTSCALE
 40
1.0
  9
$OSMODE
 70
           0
  9
$ATTMODE
 70
           1
  9
$TEXTSIZE
 40
0.2
  9
$TRACEWID
 40
0.05
  9
$TEXTSTYLE
  7
STANDARD
  9
$CLAYER
  8
0
  9
$CELTYPE
  6
CONTINUOUS
  9
$CECOLOR
 62
         256
  9
$CELTSCALE
 40
1.0
  9
$DELOBJ
 70
           1
  9
$DISPSILH
 70
           0
  9
$DIMSCALE
 40
1.0
  9
$DIMASZ
 40
0.18
  9
$DIMEXO
 40
0.0625
  9
$DIMDLI
 40
0.38
  9
$DIMRND
 40
0.0
  9
$DIMDLE
 40
0.0
  9
$DIMEXE
 40
0.18
  9
$DIMTP
 40
0.0
  9
$DIMTM
 40
0.0
  9
$DIMTXT
 40
0.18
  9
$DIMCEN
 40
0.09
  9
$DIMTSZ
 40
0.0
  9
$DIMTOL
 70
           0
  9
$DIMLIM
 70
           0
  9
$DIMTIH
 70
           1
  9
$DIMTOH
 70
           1
  9
$DIMSE1
 70
           0
  9
$DIMSE2
 70
           0
  9
$DIMTAD
 70
           0
  9
$DIMZIN
 70
           0
  9
$DIMBLK
  1

  9
$DIMASO
 70
           1
  9
$DIMSHO
 70
           1
  9
$DIMPOST
  1

  9
$DIMAPOST
  1

  9
$DIMALT
 70
           0
  9
$DIMALTD
 70
           2
  9
$DIMALTF
 40
25.4
  9
$DIMLFAC
 40
1.0
  9
$DIMTOFL
 70
           0
  9
$DIMTVP
 40
0.0
  9
$DIMTIX
 70
           0
  9
$DIMSOXD
 70
           0
  9
$DIMSAH
 70
           0
  9
$DIMBLK1
  1

  9
$DIMBLK2
  1

  9
$DIMSTYLE
  2
STANDARD
  9
$DIMCLRD
 70
           0
  9
$DIMCLRE
 70
           0
  9
$DIMCLRT
 70
           0
  9
$DIMTFAC
 40
1.0
  9
$DIMGAP
 40
0.09
  9
$DIMJUST
 70
           0
  9
$DIMSD1
 70
           0
  9
$DIMSD2
 70
           0
  9
$DIMTOLJ
 70
           1
  9
$DIMTZIN
 70
           0
  9
$DIMALTZ
 70
           0
  9
$DIMALTTZ
 70
           0
  9
$DIMFIT
 70
           3
  9
$DIMUPT
 70
           0
  9
$DIMUNIT
 70
           2
  9
$DIMDEC
 70
           4
  9
$DIMTDEC
 70
           4
  9
$DIMALTU
 70
           2
  9
$DIMALTTD
 70
           2
  9
$DIMTXSTY
  7
STANDARD
  9
$DIMAUNIT
 70
           0
  9
$LUNITS
 70
           2
  9
$LUPREC
 70
           4
  9
$SKETCHINC
 40
0.1
  9
$FILLETRAD
 40
0.0
  9
$AUNITS
 70
           0
  9
$AUPREC
 70
           0
  9
$MENU
  1
acad
  9
$ELEVATION
 40
0.0
  9
$PELEVATION
 40
0.0
  9
$THICKNESS
 40
0.0
  9
$LIMCHECK
 70
           0
  9
$BLIPMODE
 70
           1
  9
$CHAMFERA
 40
0.0
  9
$CHAMFERB
 40
0.0
  9
$CHAMFERC
 40
0.0
  9
$CHAMFERD
 40
0.0
  9
$SKPOLY
 70
           0
  9
$TDCREATE
 40
0.000000000
  9
$TDUPDATE
 40
0.000000000
  9
$TDINDWG
 40
0.0000000000
  9
$TDUSRTIMER
 40
0.0000000000
  9
$USRTIMER
 70
           1
  9
$ANGBASE
 50
0.0
  9
$ANGDIR
 70
           0
  9
$PDMODE
 70
           0
  9
$PDSIZE
 40
0.0
  9
$PLINEWID
 40
0.0
  9
$COORDS
 70
           0
  9
$SPLFRAME
 70
           0
  9
$SPLINETYPE
 70
           6
  9
$SPLINESEGS
 70
           8
  9
$ATTDIA
 70
           0
  9
$ATTREQ
 70
           1
  9
$HANDLING
 70
           1
  9
$HANDSEED
  5
51F
  9
$SURFTAB1
 70
           6
  9
$SURFTAB2
 70
           6
  9
$SURFTYPE
 70
           6
  9
$SURFU
 70
           6
  9
$SURFV
 70
           6
  9
$UCSNAME
  2

  9
$UCSORG
 10
0.0
 20
0.0
 30
0.0
  9
$UCSXDIR
 10
1.0
 20
0.0
 30
0.0
  9
$UCSYDIR
 10
0.0
 20
1.0
 30
0.0
  9
$PUCSNAME
  2

  9
$PUCSORG
 10
0.0
 20
0.0
 30
0.0
  9
$PUCSXDIR
 10
1.0
 20
0.0
 30
0.0
  9
$PUCSYDIR
 10
0.0
 20
1.0
 30
0.0
  9
$USERI1
 70
           0
  9
$USERI2
 70
           0
  9
$USERI3
 70
           0
  9
$USERI4
 70
           0
  9
$USERI5
 70
           0
  9
$USERR1
 40
0.0
  9
$USERR2
 40
0.0
  9
$USERR3
 40
0.0
  9
$USERR4
 40
0.0
  9
$USERR5
 40
0.0
  9
$WORLDVIEW
 70
           1
  9
$SHADEDGE
 70
           3
  9
$SHADEDIF
 70
          70
  9
$TILEMODE
 70
           1
  9
$MAXACTVP
 70
          16
  9
$PINSBASE
 10
0.0
 20
0.0
 30
0.0
  9
$PLIMCHECK
 70
           0
  9
$PEXTMIN
 10
1.000000000000E+20
 20
1.000000000000E+20
 30
1.000000000000E+20
  9
$PEXTMAX
 10
-1.000000000000E+20
 20
-1.000000000000E+20
 30
-1.000000000000E+20
  9
$PLIMMIN
 10
0.0
 20
0.0
  9
$PLIMMAX
 10
12.0
 20
9.0
  9
$UNITMODE
 70
           0
  9
$VISRETAIN
 70
           0
  9
$PLINEGEN
 70
           1
  9
$PSLTSCALE
 70
           0
  9
$TREEDEPTH
 70
        3020
  9
$PICKSTYLE
 70
           1
  9
$CMLSTYLE
  2
STANDARD
  9
$CMLJUST
 70
           0
  9
$CMLSCALE
 40
1.0
  9
$PROXYGRAPHICS
 70
           0
  9
$MEASUREMENT
 70
           0
  0
ENDSEC
  0
SECTION
  2
CLASSES
  0
CLASS
  1
LWPOLYLINE
  2
AcDbPolyline
  3
"AutoCAD"
 90
        0
280
           0
281
           1
  0
CLASS
  1
IMAGE
  2
AcDbRasterImage
  3
ISM
 90
      127
280
           0
281
           1
  0
CLASS
  1
OLE2FRAME
  2
AcDbOle2Frame
  3
""
 90
        0
280
           0
281
           1
  0
CLASS
  1
HATCH
  2
AcDbHatch
  3
"ACAD_SEDONA"
 90
        0
280
           0
281
           1
  0
CLASS
  1
DICTIONARYVAR
  2
AcDbDictionaryVar
  3
"AutoCAD"
 90
        0
280
           0
281
           0
  0
CLASS
  1
RASTERVARIABLES
  2
AcDbRasterVariables
  3
ISM
 90
        0
280
           0
281
           0
  0
CLASS
  1
IMAGEDEF
  2
AcDbRasterImageDef
  3
ISM
 90
        0
280
           0
281
           0
  0
CLASS
  1
IMAGEDEF_REACTOR
  2
AcDbRasterImageDefReactor
  3
ISM
 90
        1
280
           0
281
           0
  0
CLASS
  1
IDBUFFER
  2
AcDbIdBuffer
  3
"Acad"
 90
        0
280
           0
281
           0
  0
CLASS
  1
SPATIAL_FILTER
  2
AcDbSpatialFilter
  3
"Acad"
 90
        0
280
           0
281
           0
  0
CLASS
  1
XRECORD
  2
AcDbXrecord
  3
"<Built In>"
 90
        0
280
           0
281
           0
  0
CLASS
  1
SORTENTSTABLE
  2
AcDbSortentsTable
  3
"AutoCAD"
 90
        0
280
           0
281
           0
  0
CLASS
  1
LAYER_INDEX
  2
AcDbLayerIndex
  3
"Acad"
 90
        0
280
           0
281
           0
  0
CLASS
  1
SPATIAL_INDEX
  2
AcDbSpatialIndex
  3
"Acad"
 90
        0
280
           0
281
           0
  0
CLASS
  1
OBJECT_PTR
  2
CAseDLPNTableRecord
  3
"ASE-LPNTableRecord"
 90
        1
280
           0
281
           0
  0
CLASS
  1
LAYOUT
  2
AcDbLayout
  3
"AutoCAD 2000"
 90
        1
280
           0
281
           0
  0
CLASS
  1
PLOTSETTINGS
  2
AcDbPlotSettings
  3
"AutoCAD 2000"
 90
        1
280
           0
281
           0
  0
CLASS
  1
ACDBDICTIONARYWDFLT
  2
AcDbDictionaryWithDefault
  3
"AutoCAD 2000"
 90
        1
280
           0
281
           0
  0
CLASS
  1
ACDBPLACEHOLDER
  2
AcDbPlaceHolder
  3
"AutoCAD 2000"
 90
        1
280
           0
281
           0
  0
CLASS
  1
VBA_PROJECT
  2
AcDbVbaProject
  3
"acadvba"
 90
        1
280
           0
281
           0
  0
CLASS
  1
WIPEOUT
  2
AcDbWipeout
  3
WipeOut|AutoCAD Express Tool|expresstools@autodesk.com
 90
      127
280
           0
281
           1
  0
CLASS
  1
WIPEOUTVARIABLES
  2
AcDbWipeoutVariables
  3
WipeOut|AutoCAD Express Tool|expresstools@autodesk.com
 90
        0
280
           0
281
           0
  0
CLASS
  1
RTEXT
  2
RText
  3
RText|AutoCAD Express Tool|expresstools@autodesk.com
 90
        0
280
           0
281
           1
  0
CLASS
  1
ARCALIGNEDTEXT
  2
AcDbArcAlignedText
  3
ATEXT|AutoCAD Express Tool|expresstools@autodesk.com
 90
        0
280
           0
281
           1
  0
ENDSEC
  0
SECTION
  2
TABLES
  0
TABLE
  2
VPORT
  5
7
100
AcDbSymbolTable
 70
           1
  0
VPORT
  5
15
100
AcDbSymbolTableRecord
100
AcDbViewportTableRecord
  2
*ACTIVE
 70
           0
 10
0.0
 20
0.0
 11
1.0
 21
1.0
 12
6.591288
 22
4.579184
 13
0.0
 23
0.0
 14
1.0
 24
1.0
 15
0.0
 25
0.0
 16
0.0
 26
0.0
 36
1.0
 17
0.0
 27
0.0
 37
0.0
 40
9.158369
 41
0.688564
 42
50.0
 43
0.0
 44
0.0
 50
0.0
 51
0.0
 71
           0
 72
         100
 73
           1
 74
           1
 75
           0
 76
           0
 77
           0
 78
           0
  0
ENDTAB
  0
TABLE
  2
LTYPE
  5
4
100
AcDbSymbolTable
 70
          10
  0
LTYPE
  5
11
100
AcDbSymbolTableRecord
100
AcDbLinetypeTableRecord
  2
BYBLOCK
 70
          64
  3

 72
          65
 73
           0
 40
0.0
  0
LTYPE
  5
12
100
AcDbSymbolTableRecord
100
AcDbLinetypeTableRecord
  2
BYLAYER
 70
          64
  3

 72
          65
 73
           0
 40
0.0
  0
LTYPE
  5
13
100
AcDbSymbolTableRecord
100
AcDbLinetypeTableRecord
  2
CONTINUOUS
 70
          64
  3
Solid line
 72
          65
 73
           0
 40
0.0
  0
LTYPE
  5
1D
100
AcDbSymbolTableRecord
100
AcDbLinetypeTableRecord
  2
DASHED
 70
          64
  3
Dashed
 72
          65
 73
           2
 40
15.0
 49
12.0
 74
           0
 49
-3.0
 74
           0
  0
LTYPE
  5
1E
100
AcDbSymbolTableRecord
100
AcDbLinetypeTableRecord
  2
DOTTED
 70
          64
  3
Dotted
 72
          65
 73
           2
 40
3.5
 49
0.5
 74
           0
 49
-3.0
 74
           0
  0
LTYPE
  5
1F
100
AcDbSymbolTableRecord
100
AcDbLinetypeTableRecord
  2
DOT_CENTER
 70
          64
  3
Dot_Center
 72
          65
 73
           4
 40
2.0
 49
1.25
 74
           0
 49
-0.25
 74
           0
 49
0.25
 74
           0
 49
-0.25
 74
           0
  0
LTYPE
  5
20
100
AcDbSymbolTableRecord
100
AcDbLinetypeTableRecord
  2
LONG_DASHED
 70
          64
  3
Long_Dashed
 72
          65
 73
           2
 40
2.0
 49
1.5
 74
           0
 49
-0.5
 74
           0
  0
LTYPE
  5
21
100
AcDbSymbolTableRecord
100
AcDbLinetypeTableRecord
  2
DASH_CENTER
 70
          64
  3
Dash_Center
 72
          65
 73
           4
 40
36.0
 49
24.0
 74
           0
 49
-3.0
 74
           0
 49
6.0
 74
           0
 49
-3.0
 74
           0
  0
LTYPE
  5
22
100
AcDbSymbolTableRecord
100
AcDbLinetypeTableRecord
  2
PHANTOM
 70
          64
  3
Phantom
 72
          65
 73
           6
 40
2.5
 49
1.25
 74
           0
 49
-0.25
 74
           0
 49
0.25
 74
           0
 49
-0.25
 74
           0
 49
0.25
 74
           0
 49
-0.25
 74
           0
  0
LTYPE
  5
23
100
AcDbSymbolTableRecord
100
AcDbLinetypeTableRecord
  2
CENTER_DASH_DASH
 70
          64
  3
Center_Dash_Dash
 72
          65
 73
           6
 40
22.0
 49
12.0
 74
           0
 49
-3.0
 74
           0
 49
0.5
 74
           0
 49
-3.0
 74
           0
 49
0.5
 74
           0
 49
-3.0
 74
           0
  0
ENDTAB
  0
TABLE
  2
LAYER
  5
2
100
AcDbSymbolTable
 70
           7
  0
LAYER
  5
14
100
AcDbSymbolTableRecord
100
AcDbLayerTableRecord
  2
0
 70
           0
 62
           7
  6
CONTINUOUS
  0
LAYER
  5
24
100
AcDbSymbolTableRecord
100
AcDbLayerTableRecord
  2
___S__
 70
           0
 62
           7
  6
CONTINUOUS
  0
LAYER
  5
25
100
AcDbSymbolTableRecord
100
AcDbLayerTableRecord
  2
FORMAT
 70
           0
 62
           7
  6
CONTINUOUS
  0
LAYER
  5
26
100
AcDbSymbolTableRecord
100
AcDbLayerTableRecord
  2
1
 70
           0
 62
           7
  6
CONTINUOUS
  0
LAYER
  5
27
100
AcDbSymbolTableRecord
100
AcDbLayerTableRecord
  2
2
 70
           0
 62
           7
  6
CONTINUOUS
  0
LAYER
  5
28
100
AcDbSymbolTableRecord
100
AcDbLayerTableRecord
  2
7
 70
           0
 62
           7
  6
CONTINUOUS
  0
LAYER
  5
29
100
AcDbSymbolTableRecord
100
AcDbLayerTableRecord
  2
____
 70
           0
 62
           7
  6
CONTINUOUS
  0
ENDTAB
  0
TABLE
  2
STYLE
  5
3
100
AcDbSymbolTable
 70
           1
  0
STYLE
  5
17
100
AcDbSymbolTableRecord
100
AcDbTextStyleTableRecord
  2
STANDARD
 70
           0
 40
0.0
 41
1.0
 50
0.0
 71
           0
 42
0.0
  3
txt
  4

  0
ENDTAB
  0
TABLE
  2
VIEW
  5
5
100
AcDbSymbolTable
 70
           0
  0
ENDTAB
  0
TABLE
  2
UCS
  5
6
100
AcDbSymbolTable
 70
           0
  0
ENDTAB
  0
TABLE
  2
APPID
  5
8
100
AcDbSymbolTable
 70
           1
  0
APPID
  5
16
100
AcDbSymbolTableRecord
100
AcDbRegAppTableRecord
  2
ACAD
 70
           0
  0
ENDTAB
  0
TABLE
  2
DIMSTYLE
  5
9
100
AcDbSymbolTable
 70
           1
  0
DIMSTYLE
105
18
100
AcDbSymbolTableRecord
100
AcDbDimStyleTableRecord
  2
STANDARD
 70
           0
  3

  4

  5

  6

  7

 40
1.0
 41
0.18
 42
0.0625
 43
0.38
 44
0.18
 45
0.0
 46
0.0
 47
0.0
 48
0.0
 71
           0
 72
           0
 73
           1
 74
           1
 75
           0
 76
           0
 77
           0
 78
           0
140
0.18
141
0.09
142
0.0
143
25.4
144
1.0
145
0.0
146
1.0
147
0.09
170
           0
171
           2
172
           0
173
           0
174
           0
175
           0
176
           0
177
           0
178
           0
270
           2
271
           4
272
           4
273
           2
274
           2
275
           0
280
           0
281
           0
282
           0
283
           1
284
           0
285
           0
286
           0
287
           0
288
           0
340
17
  0
ENDTAB
  0
TABLE
  2
BLOCK_RECORD
  5
1
100
AcDbSymbolTable
 70
           0
  0
BLOCK_RECORD
  5
A
100
AcDbSymbolTableRecord
100
AcDbBlockTableRecord
  2
*MODEL_SPACE
  0
BLOCK_RECORD
  5
B
100
AcDbSymbolTableRecord
100
AcDbBlockTableRecord
  2
*PAPER_SPACE
  0
ENDTAB
  0
ENDSEC
  0
SECTION
  2
BLOCKS
  0
BLOCK
  5
D
100
AcDbEntity
  8
0
100
AcDbBlockBegin
  2
*MODEL_SPACE
 70
           0
 10
0.0
 20
0.0
 30
0.0
  3
*MODEL_SPACE
  1

  0
ENDBLK
  5
E
100
AcDbEntity
  8
0
100
AcDbBlockEnd
  0
BLOCK
  5
F
100
AcDbEntity
 67
           1
  8
0
100
AcDbBlockBegin
  2
*PAPER_SPACE
 70
           0
 10
0.0
 20
0.0
 30
0.0
  3
*PAPER_SPACE
  1

  0
ENDBLK
  5
10
100
AcDbEntity
 67
           1
  8
0
100
AcDbBlockEnd
  0
ENDSEC
  0
SECTION
  2
ENTITIES
  0
HATCH
  5
51D
100
AcDbEntity
  8
0
  6
CONTINUOUS
 62
           4
100
AcDbHatch
 10
0.0
 20
0.0
 30
0.0
210
0.0
220
0.0
230
1.0
  2
USER
 70
           0
 71
           1
 91
        1
 92
        1
 93
        4
 72
           1
 10
1003.802178668528
 20
2033.9433816403921
 11
1003.802178668528
 21
2133.9432394513219
 72
           1
 10
957.9370203737144
 20
2033.943259305122
 11
1003.802178668528
 21
2033.9433816403921
 72
           1
 10
957.9370203737144
 20
2133.9439994204131
 11
957.9370203737144
 21
2033.943259305122
 72
           1
 10
1003.802178668528
 20
2133.9432394513219
 11
957.9370203737144
 21
2133.9439994204131
 97
        4
330
399
330
39A
330
39B
330
398
 75
           1
 76
           0
 52
45.0
 41
0.4
 77
           0
 78
           2
 53
45.0
 43
0.0
 44
0.0
 45
-0.282842712474619
 46
0.282842712474619
 79
           0
 53
135.0
 43
0.0
 44
0.0
 45
-0.282842712474619
 46
-0.2828427124746191
 79
           0
 98
        1
 10
0.0
 20
0.0
  0
HATCH
  5
51C
100
AcDbEntity
  8
0
  6
CONTINUOUS
 62
           4
100
AcDbHatch
 10
0.0
 20
0.0
 30
0.0
210
0.0
220
0.0
230
1.0
  2
USER
 70
           0
 71
           1
 91
        1
 92
        1
 93
        4
 72
           1
 10
1164.916747487199
 20
2107.042951282403
 11
1164.916747487199
 21
2115.7796885570328
 72
           1
 10
1146.3751646305029
 20
2107.0503400917928
 11
1164.916747487199
 21
2107.042951282403
 72
           1
 10
1143.5760328453739
 20
2115.7796312030418
 11
1146.3751646305029
 21
2107.0503400917928
 72
           1
 10
1164.916747487199
 20
2115.7796885570328
 11
1143.5760328453739
 21
2115.7796312030418
 97
        4
330
35E
330
361
330
360
330
35F
 75
           1
 76
           0
 52
45.0
 41
0.4
 77
           0
 78
           2
 53
45.0
 43
0.0
 44
0.0
 45
-0.282842712474619
 46
0.282842712474619
 79
           0
 53
135.0
 43
0.0
 44
0.0
 45
-0.282842712474619
 46
-0.2828427124746191
 79
           0
 98
        1
 10
0.0
 20
0.0
  0
HATCH
  5
51B
100
AcDbEntity
  8
0
  6
CONTINUOUS
 62
           3
100
AcDbHatch
 10
0.0
 20
0.0
 30
0.0
210
0.0
220
0.0
230
1.0
  2
USER
 70
           0
 71
           1
 91
        1
 92
        1
 93
        8
 72
           1
 10
3812.3141856546449
 20
1069.4351822285339
 11
3812.3141856546449
 21
1089.4351822285339
 72
           1
 10
3695.0000000000018
 20
1069.4351822285339
 11
3812.3141856546449
 21
1069.4351822285339
 72
           2
 10
3695.0000000000018
 20
1119.4351822285339
 40
50.0
 50
180.0
 51
-90.0
 73
           1
 72
           1
 10
3645.0000000000018
 20
1430.000000000003
 11
3645.0000000000018
 21
1119.4351822285339
 72
           1
 10
3665.0000000000018
 20
1430.000000000003
 11
3645.0000000000018
 21
1430.000000000003
 72
           1
 10
3665.0000000000018
 20
1119.4351822285339
 11
3665.0000000000018
 21
1430.000000000003
 72
           2
 10
3695.0000000000018
 20
1119.4351822285339
 40
30.0
 50
180.0
 51
-90.0
 73
           1
 72
           1
 10
3812.3141856546449
 20
1089.4351822285339
 11
3695.0000000000018
 21
1089.4351822285339
 97
        8
330
35
330
36
330
4F8
330
37
330
38
330
33
330
4F9
330
34
 75
           1
 76
           0
 52
45.0
 41
10.0
 77
           0
 78
           1
 53
45.0
 43
0.0
 44
0.0
 45
-7.0710678118654746
 46
7.0710678118654755
 79
           0
 98
        1
 10
0.0
 20
0.0
  0
ARC
  5
51A
100
AcDbEntity
  8
1
  6
CONTINUOUS
 62
           4
100
AcDbCircle
 10
5625.499999999999
 20
2556.000000000001
 40
1.0
100
AcDbArc
 50
180.0
 51
-90.0
  0
ARC
  5
519
100
AcDbEntity
  8
1
  6
CONTINUOUS
 62
           4
100
AcDbCircle
 10
5614.499999999999
 20
2556.000000000001
 40
1.0
100
AcDbArc
 50
-90.0
 51
0.0
  0
ARC
  5
518
100
AcDbEntity
  8
1
  6
CONTINUOUS
 62
           4
100
AcDbCircle
 10
5625.499999999999
 20
2160.000000000002
 40
1.0
100
AcDbArc
 50
90.0
 51
180.0
  0
ARC
  5
517
100
AcDbEntity
  8
1
  6
CONTINUOUS
 62
           4
100
AcDbCircle
 10
5614.499999999999
 20
2160.000000000002
 40
1.0
100
AcDbArc
 50
0.0
 51
90.0
  0
ARC
  5
516
100
AcDbEntity
  8
1
  6
CONTINUOUS
 62
           7
100
AcDbCircle
 10
5213.749999999999
 20
2680.0
 40
10.0
100
AcDbArc
 50
-90.0
 51
0.0
  0
ARC
  5
515
100
AcDbEntity
  8
1
  6
CONTINUOUS
 62
           7
100
AcDbCircle
 10
5146.249999999999
 20
2680.0
 40
10.0
100
AcDbArc
 50
180.0
 51
-90.0
  0
ARC
  5
514
100
AcDbEntity
  8
1
  6
CONTINUOUS
 62
           7
100
AcDbCircle
 10
5213.749999999999
 20
2740.0
 40
10.0
100
AcDbArc
 50
0.0
 51
90.0
  0
ARC
  5
513
100
AcDbEntity
  8
1
  6
CONTINUOUS
 62
           7
100
AcDbCircle
 10
5146.249999999999
 20
2740.0
 40
10.0
100
AcDbArc
 50
90.0
 51
180.0
  0
ARC
  5
512
100
AcDbEntity
  8
1
  6
CONTINUOUS
 62
           4
100
AcDbCircle
 10
109.265668111715
 20
5410.749999999997
 40
10.0
100
AcDbArc
 50
90.0
 51
120.430594205715
  0
ARC
  5
511
100
AcDbEntity
  8
1
  6
CONTINUOUS
 62
           4
100
AcDbCircle
 10
109.265668111715
 20
5353.249999999997
 40
10.0
100
AcDbArc
 50
-120.430594205718
 51
-90.0
  0
ARC
  5
510
100
AcDbEntity
  8
1
  6
CONTINUOUS
 62
           7
100
AcDbCircle
 10
123.946258446655
 20
5348.249999999997
 40
10.0
100
AcDbArc
 50
180.0
 51
-90.0
  0
ARC
  5
50F
100
AcDbEntity
  8
1
  6
CONTINUOUS
 62
           7
100
AcDbCircle
 10
123.946258446655
 20
5415.749999999997
 40
10.0
100
AcDbArc
 50
90.0
 51
180.0
  0
ARC
  5
50E
100
AcDbEntity
  8
1
  6
CONTINUOUS
 62
           7
100
AcDbCircle
 10
156.499999999993
 20
5348.249999999997
 40
10.0
100
AcDbArc
 50
-90.0
 51
0.0
  0
ARC
  5
50D
100
AcDbEntity
  8
1
  6
CONTINUOUS
 62
           7
100
AcDbCircle
 10
156.499999999993
 20
5415.749999999997
 40
10.0
100
AcDbArc
 50
0.0
 51
90.0
  0
ARC
  5
50C
100
AcDbEntity
  8
1
  6
CONTINUOUS
 62
           7
100
AcDbCircle
 10
156.5
 20
2741.300000000002
 40
10.0
100
AcDbArc
 50
0.0
 51
90.0
  0
ARC
  5
50B
100
AcDbEntity
  8
1
  6
CONTINUOUS
 62
           7
100
AcDbCircle
 10
156.5
 20
2681.300000000003
 40
10.0
100
AcDbArc
 50
-90.0
 51
0.0
  0
ARC
  5
50A
100
AcDbEntity
  8
1
  6
CONTINUOUS
 62
           7
100
AcDbCircle
 10
118.613664
 20
2741.300000000002
 40
10.0
100
AcDbArc
 50
90.0
 51
180.0
  0
ARC
  5
509
100
AcDbEntity
  8
1
  6
CONTINUOUS
 62
           7
100
AcDbCircle
 10
118.613664
 20
2681.300000000003
 40
10.0
100
AcDbArc
 50
180.0
 51
-90.0
  0
ARC
  5
508
100
AcDbEntity
  8
1
  6
CONTINUOUS
 62
           3
100
AcDbCircle
 10
4968.163567691042
 20
1917.806253419963
 40
0.5
100
AcDbArc
 50
180.0
 51
-90.0
  0
ARC
  5
507
100
AcDbEntity
  8
1
  6
CONTINUOUS
 62
           3
100
AcDbCircle
 10
4968.163567691042
 20
1932.193746580043
 40
0.5
100
AcDbArc
 50
90.0
 51
180.0
  0
ARC
  5
506
100
AcDbEntity
  8
1
  6
CONTINUOUS
 62
           3
100
AcDbCircle
 10
4819.899998122324
 20
1641.000000000003
 40
280.000000000001
100
AcDbArc
 50
90.0
 51
180.0
  0
ARC
  5
505
100
AcDbEntity
  8
1
  6
CONTINUOUS
 62
           3
100
AcDbCircle
 10
4819.899996810931
 20
1641.000000000003
 40
288.0
100
AcDbArc
 50
90.0
 51
180.0
  0
ARC
  5
504
100
AcDbEntity
  8
1
  6
CONTINUOUS
 62
           7
100
AcDbCircle
 10
-450.0
 20
2156.000000000001
 40
15.0
100
AcDbArc
 50
0.0
 51
32.230952635502
  0
ARC
  5
503
100
AcDbEntity
  8
1
  6
CONTINUOUS
 62
           7
100
AcDbCircle
 10
-450.0
 20
2156.000000000001
 40
15.0
100
AcDbArc
 50
32.230952635502
 51
147.769047364498
  0
ARC
  5
502
100
AcDbEntity
  8
1
  6
CONTINUOUS
 62
           7
100
AcDbCircle
 10
3820.0
 20
2156.000000000001
 40
15.0
100
AcDbArc
 50
0.0
 51
180.0
  0
ARC
  5
501
100
AcDbEntity
  8
1
  6
CONTINUOUS
 62
           7
100
AcDbCircle
 10
3857.0
 20
2188.000000000001
 40
8.0
100
AcDbArc
 50
0.0
 51
90.0
  0
ARC
  5
500
100
AcDbEntity
  8
1
  6
CONTINUOUS
 62
           7
100
AcDbCircle
 10
3783.0
 20
2188.000000000001
 40
8.0
100
AcDbArc
 50
90.0
 51
180.0
  0
ARC
  5
4FF
100
AcDbEntity
  8
1
  6
CONTINUOUS
 62
           7
100
AcDbCircle
 10
-450.0
 20
2156.000000000001
 40
15.0
100
AcDbArc
 50
147.769047364498
 51
180.0
  0
ARC
  5
4FE
100
AcDbEntity
  8
1
  6
CONTINUOUS
 62
           7
100
AcDbCircle
 10
-487.0
 20
2188.000000000001
 40
8.0
100
AcDbArc
 50
90.0
 51
180.0
  0
ARC
  5
4FD
100
AcDbEntity
  8
1
  6
CONTINUOUS
 62
           7
100
AcDbCircle
 10
-413.0
 20
2188.000000000001
 40
8.0
100
AcDbArc
 50
0.0
 51
90.0
  0
ARC
  5
4FC
100
AcDbEntity
  8
1
  6
CONTINUOUS
 62
           2
100
AcDbCircle
 10
1418.0
 20
1079.500000000004
 40
15.0
100
AcDbArc
 50
-90.0
 51
90.0
  0
ARC
  5
4FB
100
AcDbEntity
  8
1
  6
CONTINUOUS
 62
           2
100
AcDbCircle
 10
1450.0
 20
1042.500000000004
 40
8.0
100
AcDbArc
 50
-90.0
 51
0.0
  0
ARC
  5
4FA
100
AcDbEntity
  8
1
  6
CONTINUOUS
 62
           2
100
AcDbCircle
 10
1450.0
 20
1116.500000000004
 40
8.0
100
AcDbArc
 50
0.0
 51
90.0
  0
ARC
  5
4F9
100
AcDbEntity
  8
1
  6
CONTINUOUS
 62
           4
100
AcDbCircle
 10
3695.000000000002
 20
1119.435182228534
 40
30.0
100
AcDbArc
 50
180.0
 51
-90.0
  0
ARC
  5
4F8
100
AcDbEntity
  8
1
  6
CONTINUOUS
 62
           4
100
AcDbCircle
 10
3695.000000000002
 20
1119.435182228534
 40
50.0
100
AcDbArc
 50
180.0
 51
-90.0
  0
SPLINE
  5
4F7
100
AcDbEntity
  8
1
  6
CONTINUOUS
 62
           4
100
AcDbSpline
210
0.0
220
0.0
230
1.0
 70
           0
 71
           4
 72
           8
 73
           4
 74
           3
 42
0.00000000001
 43
0.00000000001
 44
0.00000000001
 40
0.0
 40
0.0
 40
0.0
 40
0.0
 40
5.4118068858594821
 40
5.4118068858594821
 40
5.4118068858594821
 40
5.4118068858594821
 10
940.97587272806777
 20
2090.1515647738029
 30
0.0
 10
939.47475764926457
 20
2089.159085931673
 30
0.0
 10
938.17640738291811
 20
2087.891288369623
 30
0.0
 10
937.14989184346268
 20
2086.4156166528019
 30
0.0
 11
940.97587272806777
 21
2090.1515647738029
 31
0.0
 11
938.88490745850982
 21
2088.4647880413117
 31
0.0
 11
937.14989184346268
 21
2086.4156166528019
 31
0.0
  0
SPLINE
  5
4F6
100
AcDbEntity
  8
1
  6
CONTINUOUS
 62
           4
100
AcDbSpline
210
0.0
220
0.0
230
1.0
 70
           0
 71
           4
 72
           8
 73
           4
 74
           3
 42
0.00000000001
 43
0.00000000001
 44
0.00000000001
 40
0.0
 40
0.0
 40
0.0
 40
0.0
 40
15.088139294325103
 40
15.088139294325103
 40
15.088139294325103
 40
15.088139294325103
 10
932.56873240192363
 20
2133.828562906042
 30
0.0
 10
927.46737617985309
 20
2132.9744745639518
 30
0.0
 10
923.0819818040527
 20
2131.1471834595632
 30
0.0
 10
918.69001300189302
 20
2128.4292797204921
 30
0.0
 11
932.56873240192363
 21
2133.828562906042
 31
0.0
 11
925.36335241944175
 21
2131.8278520871349
 31
0.0
 11
918.69001300189302
 21
2128.4292797204921
 31
0.0
  0
SPLINE
  5
4F5
100
AcDbEntity
  8
1
  6
CONTINUOUS
 62
           4
100
AcDbSpline
210
0.0
220
0.0
230
1.0
 70
           0
 71
           4
 72
           8
 73
           4
 74
           3
 42
0.00000000001
 43
0.00000000001
 44
0.00000000001
 40
0.0
 40
0.0
 40
0.0
 40
0.0
 40
22.273024242441856
 40
22.273024242441856
 40
22.273024242441856
 40
22.273024242441856
 10
918.69001300189302
 20
2128.4292797204921
 30
0.0
 10
912.89785198651043
 20
2124.2903958674228
 30
0.0
 10
907.16237335199185
 20
2119.043324138192
 30
0.0
 10
903.00519150282162
 20
2112.9449220304432
 30
0.0
 11
918.69001300189302
 21
2128.4292797204921
 31
0.0
 11
910.23448506502768
 21
2121.4219202209724
 31
0.0
 11
903.00519150282162
 21
2112.9449220304432
 31
0.0
  0
SPLINE
  5
4F4
100
AcDbEntity
  8
1
  6
CONTINUOUS
 62
           4
100
AcDbSpline
210
0.0
220
0.0
230
1.0
 70
           0
 71
           4
 72
          14
 73
          10
 74
          15
 42
0.00000000001
 43
0.00000000001
 44
0.00000000001
 40
0.0
 40
0.0
 40
0.0
 40
0.0
 40
1.4114810803522655
 40
2.8159230218120284
 40
3.5243189625007587
 40
4.9273304978464205
 40
5.6349453505087803
 40
7.036518801945248
 40
8.4441396009627834
 40
8.4441396009627834
 40
8.4441396009627834
 40
8.4441396009627834
 10
1244.026901347002
 20
2125.3725852649131
 30
0.0
 10
1244.72940198795
 20
2125.3788256369421
 30
0.0
 10
1245.4240700422779
 20
2125.520424570042
 30
0.0
 10
1246.7212462108801
 20
2126.0587471076919
 30
0.0
 10
1247.311529796943
 20
2126.4503975855532
 30
0.0
 10
1248.3104877109799
 20
2127.4355495810828
 30
0.0
 10
1248.7097479057809
 20
2128.0197670718821
 30
0.0
 10
1249.2638654333909
 20
2129.3071527582119
 30
0.0
 10
1249.4135007882519
 20
2129.998188690593
 30
0.0
 10
1249.431755664496
 20
2130.6985204139319
 30
0.0
 11
1244.026901347002
 21
2125.3725852649131
 31
0.0
 11
1244.8699496970594
 21
2125.4314672407654
 31
0.0
 11
1245.5116774625101
 21
2125.5932694943463
 31
0.0
 11
1246.1893164365827
 21
2125.8474282058187
 31
0.0
 11
1246.7905635456164
 21
2126.1264626380562
 31
0.0
 11
1247.0161050591178
 21
2126.2604972520853
 31
0.0
 11
1247.2392284418993
 21
2126.4296032756515
 31
0.0
 11
1247.8048188724015
 21
2126.9495051015224
 31
0.0
 11
1248.3324396468693
 21
2127.5077771458828
 31
0.0
 11
1248.5043643837894
 21
2127.7282742537636
 31
0.0
 11
1248.6412781372339
 21
2127.9517492949481
 31
0.0
 11
1248.9276517997412
 21
2128.5480919458669
 31
0.0
 11
1249.1899804790899
 21
2129.2209727749578
 31
0.0
 11
1249.3597255826439
 21
2129.8587300057625
 31
0.0
 11
1249.431755664496
 21
2130.6985204139319
 31
0.0
  0
SPLINE
  5
4F3
100
AcDbEntity
  8
1
  6
CONTINUOUS
 62
           4
100
AcDbSpline
210
0.0
220
0.0
230
1.0
 70
           0
 71
           4
 72
           8
 73
           4
 74
           3
 42
0.00000000001
 43
0.00000000001
 44
0.00000000001
 40
0.0
 40
0.0
 40
0.0
 40
0.0
 40
7.0147820050082146
 40
7.0147820050082146
 40
7.0147820050082146
 40
7.0147820050082146
 10
1188.3711323323171
 20
2133.9373845531022
 30
0.0
 10
1186.0347972006971
 20
2133.9726442444821
 30
0.0
 10
1183.6998418460701
 20
2133.7949479280919
 30
0.0
 10
1181.3966267150349
 20
2133.402125877883
 30
0.0
 11
1188.3711323323171
 21
2133.9373845531022
 31
0.0
 11
1184.8714595234569
 21
2133.8302858685884
 31
0.0
 11
1181.3966267150349
 21
2133.402125877883
 31
0.0
  0
SPLINE
  5
4F2
100
AcDbEntity
  8
1
  6
CONTINUOUS
 62
           4
100
AcDbSpline
210
0.0
220
0.0
230
1.0
 70
           0
 71
           4
 72
           8
 73
           4
 74
           3
 42
0.00000000001
 43
0.00000000001
 44
0.00000000001
 40
0.0
 40
0.0
 40
0.0
 40
0.0
 40
5.3065968995901169
 40
5.3065968995901169
 40
5.3065968995901169
 40
5.3065968995901169
 10
1181.3966267150349
 20
2133.402125877883
 30
0.0
 10
1179.466541559148
 20
2133.0181610878622
 30
0.0
 10
1178.293796685412
 20
2132.3059019203629
 30
0.0
 10
1176.605996541959
 20
2131.296531849262
 30
0.0
 11
1181.3966267150349
 21
2133.402125877883
 31
0.0
 11
1178.9104547488344
 21
2132.5838558439773
 31
0.0
 11
1176.605996541959
 21
2131.296531849262
 31
0.0
  0
SPLINE
  5
4F1
100
AcDbEntity
  8
1
  6
CONTINUOUS
 62
           4
100
AcDbSpline
210
0.0
220
0.0
230
1.0
 70
           0
 71
           4
 72
           8
 73
           4
 74
           3
 42
0.00000000001
 43
0.00000000001
 44
0.00000000001
 40
0.0
 40
0.0
 40
0.0
 40
0.0
 40
9.2800418429355709
 40
9.2800418429355709
 40
9.2800418429355709
 40
9.2800418429355709
 10
1177.2369194242749
 20
2110.8940308511019
 30
0.0
 10
1179.8972722082069
 20
2109.6042208645831
 30
0.0
 10
1182.787374776512
 20
2108.569534334003
 30
0.0
 10
1185.949112983863
 20
2107.8011200123519
 30
0.0
 11
1177.2369194242749
 21
2110.8940308511019
 31
0.0
 11
1181.4049966702867
 21
2109.1520520574018
 31
0.0
 11
1185.949112983863
 21
2107.8011200123519
 31
0.0
  0
SPLINE
  5
4F0
100
AcDbEntity
  8
1
  6
CONTINUOUS
 62
           4
100
AcDbSpline
210
0.0
220
0.0
230
1.0
 70
           0
 71
           4
 72
           8
 73
           4
 74
           3
 42
0.00000000001
 43
0.00000000001
 44
0.00000000001
 40
0.0
 40
0.0
 40
0.0
 40
0.0
 40
6.8299593165118395
 40
6.8299593165118395
 40
6.8299593165118395
 40
6.8299593165118395
 10
1192.5410526763901
 20
2106.0663943680429
 30
0.0
 10
1190.367753942679
 20
2106.810742143743
 30
0.0
 10
1188.2390172188279
 20
2107.3907853001019
 30
0.0
 10
1185.949112983863
 20
2107.8011200123519
 30
0.0
 11
1192.5410526763901
 21
2106.0663943680429
 31
0.0
 11
1189.2888098930966
 21
2107.059012088991
 31
0.0
 11
1185.949112983863
 21
2107.8011200123519
 31
0.0
  0
SPLINE
  5
4EF
100
AcDbEntity
  8
1
  6
CONTINUOUS
 62
           4
100
AcDbSpline
210
0.0
220
0.0
230
1.0
 70
           0
 71
           4
 72
          10
 73
           6
 74
           7
 42
0.00000000001
 43
0.00000000001
 44
0.00000000001
 40
0.0
 40
0.0
 40
0.0
 40
0.0
 40
1.2101649311009322
 40
2.5239329054648691
 40
3.7354062104060555
 40
3.7354062104060555
 40
3.7354062104060555
 40
3.7354062104060555
 10
1195.6281073449099
 20
2104.0686156930619
 30
0.0
 10
1195.2386042518301
 20
2104.5296262303718
 30
0.0
 10
1194.7870768899979
 20
2104.934760890972
 30
0.0
 10
1193.6602880441751
 20
2105.6102852705421
 30
0.0
 10
1193.115140149504
 20
2105.8774360335819
 30
0.0
 10
1192.5410526763901
 20
2106.0663943680429
 30
0.0
 11
1195.6281073449099
 21
2104.0686156930619
 31
0.0
 11
1195.1430785178666
 21
2104.5948818845318
 31
0.0
 11
1194.7343847138866
 21
2104.9299251167686
 31
0.0
 11
1194.2207148143325
 21
2105.2677301490812
 31
0.0
 11
1193.6880549816051
 21
2105.5774874245212
 31
0.0
 11
1193.2130681762058
 21
2105.8155006015736
 31
0.0
 11
1192.5410526763901
 21
2106.0663943680429
 31
0.0
  0
SPLINE
  5
4EE
100
AcDbEntity
  8
1
  6
CONTINUOUS
 62
           4
100
AcDbSpline
210
0.0
220
0.0
230
1.0
 70
           0
 71
           4
 72
           8
 73
           4
 74
           3
 42
0.00000000001
 43
0.00000000001
 44
0.00000000001
 40
0.0
 40
0.0
 40
0.0
 40
0.0
 40
4.5401118747457465
 40
4.5401118747457465
 40
4.5401118747457465
 40
4.5401118747457465
 10
1190.6000427100239
 20
2097.398445886583
 30
0.0
 10
1192.1342043070979
 20
2097.4706019687519
 30
0.0
 10
1193.5250533527119
 20
2097.8981787681528
 30
0.0
 10
1194.9068117523659
 20
2098.598648691333
 30
0.0
 11
1190.6000427100239
 21
2097.398445886583
 31
0.0
 11
1192.8105784302272
 21
2097.7629295985785
 31
0.0
 11
1194.9068117523659
 21
2098.598648691333
 31
0.0
  0
SPLINE
  5
4ED
100
AcDbEntity
  8
1
  6
CONTINUOUS
 62
           4
100
AcDbSpline
210
0.0
220
0.0
230
1.0
 70
           0
 71
           4
 72
           8
 73
           4
 74
           3
 42
0.00000000001
 43
0.00000000001
 44
0.00000000001
 40
0.0
 40
0.0
 40
0.0
 40
0.0
 40
6.4798879369466142
 40
6.4798879369466142
 40
6.4798879369466142
 40
6.4798879369466142
 10
1191.943672031714
 20
2088.508484615782
 30
0.0
 10
1194.098116390956
 20
2088.6425286402418
 30
0.0
 10
1196.235664618587
 20
2088.9735220662528
 30
0.0
 10
1198.3293987801901
 20
2089.497296726202
 30
0.0
 11
1191.943672031714
 21
2088.508484615782
 31
0.0
 11
1195.1593017300665
 21
2088.8567416826836
 31
0.0
 11
1198.3293987801901
 21
2089.497296726202
 31
0.0
  0
SPLINE
  5
4EC
100
AcDbEntity
  8
1
  6
CONTINUOUS
 62
           4
100
AcDbSpline
210
0.0
220
0.0
230
1.0
 70
           0
 71
           4
 72
           8
 73
           4
 74
           3
 42
0.00000000001
 43
0.00000000001
 44
0.00000000001
 40
0.0
 40
0.0
 40
0.0
 40
0.0
 40
7.4541408759966163
 40
7.4541408759966163
 40
7.4541408759966163
 40
7.4541408759966163
 10
1198.3293987801901
 20
2089.497296726202
 30
0.0
 10
1200.737916005739
 20
2090.0754360772421
 30
0.0
 10
1202.999377518478
 20
2091.1471407845329
 30
0.0
 10
1204.9698452868911
 20
2092.6441987360431
 30
0.0
 11
1198.3293987801901
 21
2089.497296726202
 31
0.0
 11
1201.8138905799665
 21
2090.726153255946
 31
0.0
 11
1204.9698452868911
 21
2092.6441987360431
 31
0.0
  0
SPLINE
  5
4EB
100
AcDbEntity
  8
1
  6
CONTINUOUS
 62
           4
100
AcDbSpline
210
0.0
220
0.0
230
1.0
 70
           0
 71
           4
 72
          10
 73
           6
 74
           7
 42
0.00000000001
 43
0.00000000001
 44
0.00000000001
 40
0.0
 40
0.0
 40
0.0
 40
0.0
 40
2.084805447447172
 40
4.1637992309748446
 40
6.2463808897641471
 40
6.2463808897641471
 40
6.2463808897641471
 40
6.2463808897641471
 10
1204.9698452868911
 20
2092.6441987360431
 30
0.0
 10
1205.7755882429519
 20
2093.3022256627019
 30
0.0
 10
1206.489635811256
 20
2094.0645449228518
 30
0.0
 10
1207.69650627189
 20
2095.7573765279431
 30
0.0
 10
1208.183931707943
 20
2096.6803180648621
 30
0.0
 10
1208.5424342006299
 20
2097.6553342492821
 30
0.0
 11
1204.9698452868911
 21
2092.6441987360431
 31
0.0
 11
1205.9011559863804
 21
2093.470002527682
 31
0.0
 11
1206.513306835561
 21
2094.157392597017
 31
0.0
 11
1207.086226527096
 21
2094.9162794593012
 31
0.0
 11
1207.6167901494496
 21
2095.7052707182002
 31
0.0
 11
1208.0663807622054
 21
2096.5071134361492
 31
0.0
 11
1208.5424342006299
 21
2097.6553342492821
 31
0.0
  0
SPLINE
  5
4EA
100
AcDbEntity
  8
1
  6
CONTINUOUS
 62
           4
100
AcDbSpline
210
0.0
220
0.0
230
1.0
 70
           0
 71
           4
 72
          10
 73
           6
 74
           7
 42
0.00000000001
 43
0.00000000001
 44
0.00000000001
 40
0.0
 40
0.0
 40
0.0
 40
0.0
 40
2.2832287379995848
 40
4.5623676873712053
 40
6.8453377326148885
 40
6.8453377326148885
 40
6.8453377326148885
 40
6.8453377326148885
 10
1208.5424342006299
 20
2097.6553342492821
 30
0.0
 10
1208.8690557098221
 20
2098.7473617602418
 30
0.0
 10
1209.0688445459889
 20
2099.873173400812
 30
0.0
 10
1209.2069062943631
 20
2102.1481268737821
 30
0.0
 10
1209.1447228108259
 20
2103.2897483097931
 30
0.0
 10
1208.952546700202
 20
2104.413084793583
 30
0.0
 11
1208.5424342006299
 21
2097.6553342492821
 31
0.0
 11
1208.8873440934765
 21
2098.9752126005455
 31
0.0
 11
1209.0420323925293
 21
2099.9719647360062
 31
0.0
 11
1209.1297056818969
 21
2101.0111876513465
 31
0.0
 11
1209.1683448890781
 21
2102.0533777320852
 31
0.0
 11
1209.1353227510922
 21
2103.0613852738961
 31
0.0
 11
1208.952546700202
 21
2104.413084793583
 31
0.0
  0
SPLINE
  5
4E9
100
AcDbEntity
  8
1
  6
CONTINUOUS
 62
           4
100
AcDbSpline
210
0.0
220
0.0
230
1.0
 70
           0
 71
           4
 72
          10
 73
           6
 74
           7
 42
0.00000000001
 43
0.00000000001
 44
0.00000000001
 40
0.0
 40
0.0
 40
0.0
 40
0.0
 40
3.1194473591586824
 40
6.2257849133624807
 40
9.3495635970967612
 40
9.3495635970967612
 40
9.3495635970967612
 40
9.3495635970967612
 10
1208.952546700202
 20
2104.413084793583
 30
0.0
 10
1208.7463049694111
 20
2105.9514168257319
 30
0.0
 10
1208.2389142330539
 20
2107.4343685556032
 30
0.0
 10
1206.679515070216
 20
2110.1209290428428
 30
0.0
 10
1205.642690991353
 20
2111.2983779373221
 30
0.0
 10
1204.4076756408649
 20
2112.2430691226118
 30
0.0
 11
1208.952546700202
 21
2104.413084793583
 31
0.0
 11
1208.5965280451674
 21
2106.2331264928976
 31
0.0
 11
1208.1045365889579
 21
2107.5143145625943
 31
0.0
 11
1207.4431230529572
 21
2108.7675074792191
 31
0.0
 11
1206.6829926802322
 21
2109.9635862432847
 31
0.0
 11
1205.8133005313543
 21
2111.0282256585961
 31
0.0
 11
1204.4076756408649
 21
2112.2430691226118
 31
0.0
  0
SPLINE
  5
4E8
100
AcDbEntity
  8
1
  6
CONTINUOUS
 62
           4
100
AcDbSpline
210
0.0
220
0.0
230
1.0
 70
           0
 71
           4
 72
           8
 73
           4
 74
           3
 42
0.00000000001
 43
0.00000000001
 44
0.00000000001
 40
0.0
 40
0.0
 40
0.0
 40
0.0
 40
10.152511846700042
 40
10.152511846700042
 40
10.152511846700042
 40
10.152511846700042
 10
1204.4076756408649
 20
2112.2430691226118
 30
0.0
 10
1201.587136186065
 20
2114.0905781462329
 30
0.0
 10
1198.4264008097091
 20
2115.360669791773
 30
0.0
 10
1195.1092460720249
 20
2115.9794963478321
 30
0.0
 11
1204.4076756408649
 21
2112.2430691226118
 31
0.0
 11
1199.9446915875264
 21
2114.5720386605576
 31
0.0
 11
1195.1092460720249
 21
2115.9794963478321
 31
0.0
  0
SPLINE
  5
4E7
100
AcDbEntity
  8
1
  6
CONTINUOUS
 62
           4
100
AcDbSpline
210
0.0
220
0.0
230
1.0
 70
           0
 71
           4
 72
           8
 73
           4
 74
           3
 42
0.00000000001
 43
0.00000000001
 44
0.00000000001
 40
0.0
 40
0.0
 40
0.0
 40
0.0
 40
9.444271989603255
 40
9.444271989603255
 40
9.444271989603255
 40
9.444271989603255
 10
1186.0351815228209
 20
2118.5445696465231
 30
0.0
 10
1188.874003834266
 20
2117.5119153176329
 30
0.0
 10
1191.9706996193379
 20
2116.6554597391132
 30
0.0
 10
1195.1092460720249
 20
2115.9794963478321
 30
0.0
 11
1186.0351815228209
 21
2118.5445696465231
 31
0.0
 11
1190.4598172444571
 21
2117.1282738955742
 31
0.0
 11
1195.1092460720249
 21
2115.9794963478321
 31
0.0
  0
SPLINE
  5
4E6
100
AcDbEntity
  8
1
  6
CONTINUOUS
 62
           4
100
AcDbSpline
210
0.0
220
0.0
230
1.0
 70
           0
 71
           4
 72
          10
 73
           6
 74
           7
 42
0.00000000001
 43
0.00000000001
 44
0.00000000001
 40
0.0
 40
0.0
 40
0.0
 40
0.0
 40
0.9726598136601085
 40
1.9418284852722523
 40
2.9159768886769006
 40
2.9159768886769006
 40
2.9159768886769006
 40
2.9159768886769006
 10
1183.9415867754519
 20
2120.450722906613
 30
0.0
 10
1184.1549821880469
 20
2120.0162130522531
 30
0.0
 10
1184.448506878291
 20
2119.625635923252
 30
0.0
 10
1185.165141828189
 20
2118.9731619677418
 30
0.0
 10
1185.581851835894
 20
2118.7170923726821
 30
0.0
 10
1186.0351815228209
 20
2118.5445696465231
 30
0.0
 11
1183.9415867754519
 21
2120.450722906613
 31
0.0
 11
1184.2259604885314
 21
2119.9468744568262
 31
0.0
 11
1184.4951253932759
 21
2119.6139134343721
 31
0.0
 11
1184.8104686577256
 21
2119.3037555946607
 31
0.0
 11
1185.148775263378
 21
2119.018738397112
 31
0.0
 11
1185.5060501333462
 21
2118.781368867028
 31
0.0
 11
1186.0351815228209
 21
2118.5445696465231
 31
0.0
  0
SPLINE
  5
4E5
100
AcDbEntity
  8
1
  6
CONTINUOUS
 62
           4
100
AcDbSpline
210
0.0
220
0.0
230
1.0
 70
           0
 71
           4
 72
          14
 73
          10
 74
          15
 42
0.00000000001
 43
0.00000000001
 44
0.00000000001
 40
0.0
 40
0.0
 40
0.0
 40
0.0
 40
0.7535180187810756
 40
1.5029270310338934
 40
1.8809275204591476
 40
2.6296905311988028
 40
3.007487797774683
 40
3.7561509286128878
 40
4.5086411835235305
 40
4.5086411835235305
 40
4.5086411835235305
 40
4.5086411835235305
 10
1184.9699907267509
 20
2124.364257576713
 30
0.0
 10
1184.648413270264
 20
2124.1711239079832
 30
0.0
 10
1184.3673954702749
 20
2123.9177143243919
 30
0.0
 10
1183.917535220844
 20
2123.3183483063131
 30
0.0
 10
1183.752947875779
 20
2122.9780611101828
 30
0.0
 10
1183.5626477378539
 20
2122.253884402633
 30
0.0
 10
1183.5387349416619
 20
2121.8768446795129
 30
0.0
 10
1183.6360265626411
 20
2121.1345301747619
 30
0.0
 10
1183.756310725124
 20
2120.7762767418621
 30
0.0
 10
1183.9415867754519
 20
2120.450722906613
 30
0.0
 11
1184.9699907267509
 21
2124.364257576713
 31
0.0
 11
1184.5980877391628
 21
2124.1087730013924
 31
0.0
 11
1184.3469107200774
 21
2123.8603365956351
 31
0.0
 11
1184.1045516109432
 21
2123.5597408565363
 31
0.0
 11
1183.9041469664789
 21
2123.2683834159216
 31
0.0
 11
1183.8369980638488
 21
2123.1455664193968
 31
0.0
 11
1183.7805582660078
 21
2123.0072711916332
 31
0.0
 11
1183.6624492950928
 21
2122.6147022934447
 31
0.0
 11
1183.5723263660489
 21
2122.2148040637549
 31
0.0
 11
1183.5535139299284
 21
2122.0667202069858
 31
0.0
 11
1183.5516408558283
 21
2121.9268305924188
 31
0.0
 11
1183.5830167178176
 21
2121.5749360053246
 31
0.0
 11
1183.6464129171102
 21
2121.1944445238969
 31
0.0
 11
1183.7431222263581
 21
2120.8551972572404
 31
0.0
 11
1183.9415867754519
 21
2120.450722906613
 31
0.0
  0
SPLINE
  5
4E4
100
AcDbEntity
  8
1
  6
CONTINUOUS
 62
           4
100
AcDbSpline
210
0.0
220
0.0
230
1.0
 70
           0
 71
           4
 72
          10
 73
           6
 74
           7
 42
0.00000000001
 43
0.00000000001
 44
0.00000000001
 40
0.0
 40
0.0
 40
0.0
 40
0.0
 40
1.0493512236565485
 40
2.2942260570694515
 40
3.5412094156510268
 40
3.5412094156510268
 40
3.5412094156510268
 40
3.5412094156510268
 10
1188.3427600051359
 20
2125.2791226604731
 30
0.0
 10
1187.7202177133081
 20
2125.2826996906529
 30
0.0
 10
1187.3003026597869
 20
2125.2063554697429
 30
0.0
 10
1186.0943272449599
 20
2124.8975891346322
 30
0.0
 10
1185.513780971178
 20
2124.666451161012
 30
0.0
 10
1184.9699907267509
 20
2124.364257576713
 30
0.0
 11
1188.3427600051359
 21
2125.2791226604731
 31
0.0
 11
1187.6685448323892
 21
2125.2571935615492
 31
0.0
 11
1187.2604845595743
 21
2125.1869844551702
 31
0.0
 11
1186.7260295976043
 21
2125.0556032978348
 31
0.0
 11
1186.161948865727
 21
2124.8943120895201
 31
0.0
 11
1185.6357727109773
 21
2124.7005346205383
 31
0.0
 11
1184.9699907267509
 21
2124.364257576713
 31
0.0
  0
SPLINE
  5
4E3
100
AcDbEntity
  8
1
  6
CONTINUOUS
 62
           4
100
AcDbSpline
210
0.0
220
0.0
230
1.0
 70
           0
 71
           4
 72
          12
 73
           8
 74
          11
 42
0.00000000001
 43
0.00000000001
 44
0.00000000001
 40
0.0
 40
0.0
 40
0.0
 40
0.0
 40
1.8752772297344507
 40
3.7423785120411255
 40
4.6862206679337763
 40
6.5552885032445971
 40
8.1846190715803004
 40
8.1846190715803004
 40
8.1846190715803004
 40
8.1846190715803004
 10
1060.853442690242
 20
2129.7317875776621
 30
0.0
 10
1060.497081441657
 20
2130.5935469451119
 30
0.0
 10
1059.967062747754
 20
2131.373189211803
 30
0.0
 10
1058.6253836711951
 20
2132.6716361510021
 30
0.0
 10
1057.8279982796921
 20
2133.1766258069929
 30
0.0
 10
1056.0789376861071
 20
2133.8355655712821
 30
0.0
 10
1055.1458718705251
 20
2133.9825047933418
 30
0.0
 10
1054.46270082511
 20
2133.935800723842
 30
0.0
 11
1060.853442690242
 21
2129.7317875776621
 31
0.0
 11
1060.3586400327963
 21
2130.7380728988792
 31
0.0
 11
1059.8299538550868
 21
2131.4394956243818
 31
0.0
 11
1059.1640113278063
 21
2132.1332319947128
 31
0.0
 11
1058.5048155026043
 21
2132.7176447629895
 31
0.0
 11
1058.2226088486989
 21
2132.9189236562379
 31
0.0
 11
1057.9149042440331
 21
2133.0895952068631
 31
0.0
 11
1057.0695997266521
 21
2133.4482586125046
 31
0.0
 11
1056.111385643055
 21
2133.7649453343697
 31
0.0
 11
1055.3441256381213
 21
2133.9238087625022
 31
0.0
 11
1054.46270082511
 21
2133.935800723842
 31
0.0
  0
SPLINE
  5
4E2
100
AcDbEntity
  8
1
  6
CONTINUOUS
 62
           4
100
AcDbSpline
210
0.0
220
0.0
230
1.0
 70
           0
 71
           4
 72
          14
 73
          10
 74
          15
 42
0.00000000001
 43
0.00000000001
 44
0.00000000001
 40
0.0
 40
0.0
 40
0.0
 40
0.0
 40
0.1265599352646412
 40
0.2527563081608177
 40
0.3163256679869492
 40
0.4426435542553229
 40
0.5062699524728846
 40
0.6326803602940075
 40
0.7595548125599493
 40
0.7595548125599493
 40
0.7595548125599493
 40
0.7595548125599493
 10
1048.897748081479
 20
2097.828413141533
 30
0.0
 10
1048.9163669879381
 20
2097.7681758797421
 30
0.0
 10
1048.94498072649
 20
2097.7114759875931
 30
0.0
 10
1049.019818868197
 20
2097.609865077362
 30
0.0
 10
1049.0655142358989
 20
2097.5656723530819
 30
0.0
 10
1049.1696583669329
 20
2097.4941866316931
 30
0.0
 10
1049.227370928962
 20
2097.467398971583
 30
0.0
 10
1049.3492787160139
 20
2097.433961228513
 30
0.0
 10
1049.412612167358
 20
2097.427547519042
 30
0.0
 10
1049.4756923458949
 20
2097.431705595483
 30
0.0
 11
1048.897748081479
 21
2097.828413141533
 31
0.0
 11
1048.9239716102099
 21
2097.7571937841676
 31
0.0
 11
1048.9528405281328
 21
2097.7052540264872
 31
0.0
 11
1048.9898575604393
 21
2097.6516934185165
 31
0.0
 11
1049.0269131559321
 21
2097.6049720901769
 31
0.0
 11
1049.0431210595766
 21
2097.587881911164
 31
0.0
 11
1049.062108708988
 21
2097.5714199402128
 31
0.0
 11
1049.1179730046667
 21
2097.5305160603693
 31
0.0
 11
1049.1762278144531
 21
2097.4930833373983
 31
0.0
 11
1049.1984363373272
 21
2097.4812668839072
 31
0.0
 11
1049.2202256325786
 21
2097.4722714209584
 31
0.0
 11
1049.2772239331023
 21
2097.4544301839983
 31
0.0
 11
1049.3406067022092
 21
2097.4390692830216
 31
0.0
 11
1049.3995997281179
 21
2097.4307122728555
 31
0.0
 11
1049.4756923458949
 21
2097.431705595483
 31
0.0
  0
SPLINE
  5
4E1
100
AcDbEntity
  8
1
  6
CONTINUOUS
 62
           4
100
AcDbSpline
210
0.0
220
0.0
230
1.0
 70
           0
 71
           4
 72
          14
 73
          10
 74
          15
 42
0.00000000001
 43
0.00000000001
 44
0.00000000001
 40
0.0
 40
0.0
 40
0.0
 40
0.0
 40
1.0343881941398694
 40
2.062831577095253
 40
2.5819036565725497
 40
3.6096344798550746
 40
4.1285568308926823
 40
5.1564536788006334
 40
6.1901009628483159
 40
6.1901009628483159
 40
6.1901009628483159
 40
6.1901009628483159
 10
1194.9068117523659
 20
2098.598648691333
 30
0.0
 10
1195.3189042689769
 20
2098.9071961513519
 30
0.0
 10
1195.665075692878
 20
2099.2946680522518
 30
0.0
 10
1196.184980031305
 20
2100.182021009552
 30
0.0
 10
1196.3534859676911
 20
2100.6729808583132
 30
0.0
 10
1196.487844293719
 20
2101.691891298613
 30
0.0
 10
1196.452345880949
 20
2102.2095980390532
 30
0.0
 10
1196.180156884848
 20
2103.2008018931319
 30
0.0
 10
1195.946202816353
 20
2103.6643337102628
 30
0.0
 10
1195.6281073449099
 20
2104.0686156930619
 30
0.0
 11
1194.9068117523659
 21
2098.598648691333
 31
0.0
 11
1195.3780583305045
 21
2099.0001660491448
 31
0.0
 11
1195.6834757107097
 21
2099.3766199772481
 31
0.0
 11
1195.967448143818
 21
2099.823810862496
 31
0.0
 11
1196.1946427929699
 21
2100.2524856306113
 31
0.0
 11
1196.2662894311341
 21
2100.4308269434637
 31
0.0
 11
1196.3201347844904
 21
2100.6287167740093
 31
0.0
 11
1196.4139073528909
 21
2101.1833617509542
 31
0.0
 11
1196.467104038622
 21
2101.7433392040471
 31
0.0
 11
1196.4663853439406
 21
2101.9483525840765
 31
0.0
 11
1196.4434013213559
 21
2102.1391136114021
 31
0.0
 11
1196.3350563893525
 21
2102.6117665173297
 31
0.0
 11
1196.1766611056021
 21
2103.116964203507
 31
0.0
 11
1195.9792369165777
 21
2103.5592931225997
 31
0.0
 11
1195.6281073449099
 21
2104.0686156930619
 31
0.0
  0
SPLINE
  5
4E0
100
AcDbEntity
  8
1
  6
CONTINUOUS
 62
           4
100
AcDbSpline
210
0.0
220
0.0
230
1.0
 70
           0
 71
           4
 72
          12
 73
           8
 74
          11
 42
0.00000000001
 43
0.00000000001
 44
0.00000000001
 40
0.0
 40
0.0
 40
0.0
 40
0.0
 40
1.7161809521157467
 40
3.4250067865265033
 40
4.2886613948198553
 40
5.9993364847171726
 40
7.7230760447485762
 40
7.7230760447485762
 40
7.7230760447485762
 40
7.7230760447485762
 10
1222.612039838004
 20
2075.4839313396528
 30
0.0
 10
1222.315108913386
 20
2076.2841401910018
 30
0.0
 10
1221.8581909540351
 20
2077.0158532805231
 30
0.0
 10
1220.6798611109839
 20
2078.2534414645829
 30
0.0
 10
1219.97072743131
 20
2078.7464208827928
 30
0.0
 10
1218.398627377439
 20
2079.4208915521431
 30
0.0
 10
1217.552042295225
 20
2079.6105388118322
 30
0.0
 10
1216.6963194187169
 20
2079.6382863273229
 30
0.0
 11
1222.612039838004
 21
2075.4839313396528
 31
0.0
 11
1222.1939380283345
 21
2076.4213202148344
 31
0.0
 11
1221.7356596774764
 21
2077.0818625949751
 31
0.0
 11
1221.152337641322
 21
2077.741026450306
 31
0.0
 11
1220.5715920985449
 21
2078.3004187252063
 31
0.0
 11
1220.3221538341199
 21
2078.495052189327
 31
0.0
 11
1220.052954440602
 21
2078.6610502799376
 31
0.0
 11
1219.3262285540104
 21
2079.0112830152302
 31
0.0
 11
1218.505032591627
 21
2079.332180719588
 31
0.0
 11
1217.7235392504401
 21
2079.5435183630852
 31
0.0
 11
1216.6963194187169
 21
2079.6382863273229
 31
0.0
  0
SPLINE
  5
4DF
100
AcDbEntity
  8
1
  6
CONTINUOUS
 62
           4
100
AcDbSpline
210
0.0
220
0.0
230
1.0
 70
           0
 71
           4
 72
           8
 73
           4
 74
           3
 42
0.00000000001
 43
0.00000000001
 44
0.00000000001
 40
0.0
 40
0.0
 40
0.0
 40
0.0
 40
1.5366069632924952
 40
1.5366069632924952
 40
1.5366069632924952
 40
1.5366069632924952
 10
934.09828403056599
 20
2133.9430535066731
 30
0.0
 10
933.58591168404564
 20
2133.9439490005329
 30
0.0
 10
933.07438352723693
 20
2133.9025154675119
 30
0.0
 10
932.56873240192363
 20
2133.828562906042
 30
0.0
 11
934.09828403056599
 21
2133.9430535066731
 31
0.0
 11
933.33098775829217
 21
2133.9138762271059
 31
0.0
 11
932.56873240192363
 21
2133.828562906042
 31
0.0
  0
SPLINE
  5
4DE
100
AcDbEntity
  8
1
  6
CONTINUOUS
 62
           4
100
AcDbSpline
210
0.0
220
0.0
230
1.0
 70
           0
 71
           4
 72
          10
 73
           6
 74
           7
 42
0.00000000001
 43
0.00000000001
 44
0.00000000001
 40
0.0
 40
0.0
 40
0.0
 40
0.0
 40
1.9908509396858745
 40
3.9768995203599307
 40
5.9665894337570142
 40
5.9665894337570142
 40
5.9665894337570142
 40
5.9665894337570142
 10
946.64624745323454
 20
2091.701855247813
 30
0.0
 10
945.65301575534795
 20
2091.7018716532421
 30
0.0
 10
944.66426228898308
 20
2091.5691662121731
 30
0.0
 10
942.74852285762972
 20
2091.0453996649831
 30
0.0
 10
941.8301744791479
 20
2090.6567000902628
 30
0.0
 10
940.97587272806777
 20
2090.1515647738029
 30
0.0
 11
946.64624745323454
 21
2091.701855247813
 31
0.0
 11
945.45878498307138
 21
2091.6535702418701
 31
0.0
 11
944.59085905280608
 21
2091.5147753046872
 31
0.0
 11
943.70839593316566
 21
2091.2992475713318
 31
0.0
 11
942.83907131199203
 21
2091.035813390441
 31
0.0
 11
942.02184689244939
 21
2090.7138952595055
 31
0.0
 11
940.97587272806777
 21
2090.1515647738029
 31
0.0
  0
SPLINE
  5
4DD
100
AcDbEntity
  8
1
  6
CONTINUOUS
 62
           4
100
AcDbSpline
210
0.0
220
0.0
230
1.0
 70
           0
 71
           4
 72
          14
 73
          10
 74
          15
 42
0.00000000001
 43
0.00000000001
 44
0.00000000001
 40
0.0
 40
0.0
 40
0.0
 40
0.0
 40
1.5320278564024232
 40
2.9533607013564143
 40
3.6728947725031711
 40
5.0974584505240603
 40
5.8161850702786237
 40
7.2037824645411401
 40
8.633178707354169
 40
8.633178707354169
 40
8.633178707354169
 40
8.633178707354169
 10
1191.0971268193321
 20
2070.8505069508619
 30
0.0
 10
1191.8104554636359
 20
2070.8530732822819
 30
0.0
 10
1192.617232426295
 20
2070.992255801053
 30
0.0
 10
1193.9359862761851
 20
2071.5224211899131
 30
0.0
 10
1194.5353088378999
 20
2071.920594200752
 30
0.0
 10
1195.5453909299561
 20
2072.9251417805331
 30
0.0
 10
1195.9462670401349
 20
2073.5216870832819
 30
0.0
 10
1196.3936521557009
 20
2074.8351835952431
 30
0.0
 10
1196.535052060523
 20
2075.539282575262
 30
0.0
 10
1196.535959313067
 20
2076.2505213577219
 30
0.0
 11
1191.0971268193321
 21
2070.8505069508619
 31
0.0
 11
1191.9913879686871
 21
2070.9075349989689
 31
0.0
 11
1192.7157204527884
 21
2071.0747345120653
 31
0.0
 11
1193.4072910958885
 21
2071.3204374290972
 31
0.0
 11
1194.0077738745147
 21
2071.592894777119
 31
0.0
 11
1194.2351794836475
 21
2071.7275601402966
 31
0.0
 11
1194.4614058899751
 21
2071.8996225927567
 31
0.0
 11
1195.0340267290849
 21
2072.4297778149221
 31
0.0
 11
1195.5678539668763
 21
2073.0005419934841
 31
0.0
 11
1195.7411167507814
 21
2073.2272648598623
 31
0.0
 11
1195.8735153292826
 21
2073.4583538756574
 31
0.0
 11
1196.119961211476
 21
2074.0591896229953
 31
0.0
 11
1196.3361861473213
 21
2074.7365781590715
 31
0.0
 11
1196.4834013507814
 21
2075.3938719069997
 31
0.0
 11
1196.535959313067
 21
2076.2505213577219
 31
0.0
  0
SPLINE
  5
4DC
100
AcDbEntity
  8
1
  6
CONTINUOUS
 62
           4
100
AcDbSpline
210
0.0
220
0.0
230
1.0
 70
           0
 71
           4
 72
          12
 73
           8
 74
          11
 42
0.00000000001
 43
0.00000000001
 44
0.00000000001
 40
0.0
 40
0.0
 40
0.0
 40
0.0
 40
1.718638644567049
 40
3.4298874195531477
 40
4.2947921364455937
 40
6.1337415197737917
 40
7.8563089722842143
 40
7.8563089722842143
 40
7.8563089722842143
 40
7.8563089722842143
 10
1146.4289798137929
 20
2075.240506337233
 30
0.0
 10
1146.1330058622079
 20
2076.0423598317229
 30
0.0
 10
1145.676476404702
 20
2076.7757851516631
 30
0.0
 10
1144.4978939732721
 20
2078.0164768225532
 30
0.0
 10
1143.788157079438
 20
2078.5107780574631
 30
0.0
 10
1142.214210228329
 20
2079.4617912773119
 30
0.0
 10
1141.3664478736659
 20
2079.6367491329129
 30
0.0
 10
1140.5095087971999
 20
2079.6378499986622
 30
0.0
 11
1146.4289798137929
 21
2075.240506337233
 31
0.0
 11
1146.0118174083505
 21
2076.1798961406857
 31
0.0
 11
1145.553793890462
 21
2076.8419955139098
 31
0.0
 11
1144.9711132819198
 21
2077.5023154989226
 31
0.0
 11
1144.3948495479394
 21
2078.0598553568575
 31
0.0
 11
1144.1506777421105
 21
2078.253615347613
 31
0.0
 11
1143.8908348222492
 21
2078.430193677043
 31
0.0
 11
1143.1371599073032
 21
2078.8905667443246
 31
0.0
 11
1142.2844394387153
 21
2079.329436783617
 31
0.0
 11
1141.527840589071
 21
2079.5667400760703
 31
0.0
 11
1140.5095087971999
 21
2079.6378499986622
 31
0.0
  0
SPLINE
  5
4DB
100
AcDbEntity
  8
1
  6
CONTINUOUS
 62
           4
100
AcDbSpline
210
0.0
220
0.0
230
1.0
 70
           0
 71
           4
 72
          14
 73
          10
 74
          15
 42
0.00000000001
 43
0.00000000001
 44
0.00000000001
 40
0.0
 40
0.0
 40
0.0
 40
0.0
 40
1.4534706613808137
 40
2.902365880276097
 40
3.5714126823015104
 40
5.0217275564353399
 40
5.7525793902772051
 40
7.204122465132893
 40
8.7332244649710944
 40
8.7332244649710944
 40
8.7332244649710944
 40
8.7332244649710944
 10
1111.3340661601651
 20
2074.3226149304619
 30
0.0
 10
1111.1943924615441
 20
2075.0329787627829
 30
0.0
 10
1110.9329317798399
 20
2075.7140196024429
 30
0.0
 10
1110.189417081185
 20
2076.9575963987131
 30
0.0
 10
1109.8131751526539
 20
2077.5108283884929
 30
0.0
 10
1108.6926050037621
 20
2078.4315540672628
 30
0.0
 10
1108.056909866249
 20
2078.7921592463331
 30
0.0
 10
1106.6905727812771
 20
2079.2821595202022
 30
0.0
 10
1105.9701532806939
 20
2079.6370550225929
 30
0.0
 10
1105.2441428302211
 20
2079.6379876910232
 30
0.0
 11
1111.3340661601651
 21
2074.3226149304619
 31
0.0
 11
1111.1192710904372
 21
2075.1676756721536
 31
0.0
 11
1110.846557087217
 21
2075.7977461675932
 31
0.0
 11
1110.4815739029902
 21
2076.4587115672257
 31
0.0
 11
1110.1289034955462
 21
2077.0376820208508
 31
0.0
 11
1109.9964894672728
 21
2077.2334345282329
 31
0.0
 11
1109.8347864699001
 21
2077.425180164706
 31
0.0
 11
1109.2556441863385
 21
2077.9550755910277
 31
0.0
 11
1108.6201300403368
 21
2078.4481732142171
 31
0.0
 11
1108.3756340141233
 21
2078.6059479367304
 31
0.0
 11
1108.1357526867268
 21
2078.7286360951721
 31
0.0
 11
1107.508537152042
 21
2078.9872742321922
 31
0.0
 11
1106.8085017762858
 21
2079.2627618769493
 31
0.0
 11
1106.1227890544469
 21
2079.5221105531018
 31
0.0
 11
1105.2441428302211
 21
2079.6379876910232
 31
0.0
  0
SPLINE
  5
4DA
100
AcDbEntity
  8
1
  6
CONTINUOUS
 62
           4
100
AcDbSpline
210
0.0
220
0.0
230
1.0
 70
           0
 71
           4
 72
          12
 73
           8
 74
          11
 42
0.00000000001
 43
0.00000000001
 44
0.00000000001
 40
0.0
 40
0.0
 40
0.0
 40
0.0
 40
1.9338828298626276
 40
3.8566139120036658
 40
4.8278424755332257
 40
6.7484234754147581
 40
8.6777942675638613
 40
8.6777942675638613
 40
8.6777942675638613
 40
8.6777942675638613
 10
1118.957787137402
 20
2033.9430640400619
 30
0.0
 10
1119.919565813298
 20
2033.934916296932
 30
0.0
 10
1120.872470039689
 20
2034.1269916088729
 30
0.0
 10
1122.6386130255521
 20
2034.8870138241521
 30
0.0
 10
1123.432429766737
 20
2035.446602873393
 30
0.0
 10
1124.7399911646551
 20
2036.853341856922
 30
0.0
 10
1125.2393567583199
 20
2037.685022086612
 30
0.0
 10
1125.552362305305
 20
2038.591809596642
 30
0.0
 11
1118.957787137402
 21
2033.9430640400619
 31
0.0
 11
1120.1123806068708
 21
2034.009177338683
 31
0.0
 11
1120.9903733851356
 21
2034.2319108152092
 31
0.0
 11
1121.913763477773
 21
2034.5890927909081
 31
0.0
 11
1122.7299977385242
 21
2034.9841781995976
 31
0.0
 11
1123.0318470018115
 21
2035.1724128712897
 31
0.0
 11
1123.3105863887361
 21
2035.3935249726121
 31
0.0
 11
1123.9562877750282
 21
2036.0291052583987
 31
0.0
 11
1124.6020316885915
 21
2036.7781920528591
 31
0.0
 11
1125.1049720009119
 21
2037.5287207026906
 31
0.0
 11
1125.552362305305
 21
2038.591809596642
 31
0.0
  0
SPLINE
  5
4D9
100
AcDbEntity
  8
1
  6
CONTINUOUS
 62
           4
100
AcDbSpline
210
0.0
220
0.0
230
1.0
 70
           0
 71
           4
 72
          12
 73
           8
 74
          11
 42
0.00000000001
 43
0.00000000001
 44
0.00000000001
 40
0.0
 40
0.0
 40
0.0
 40
0.0
 40
1.4375189222293949
 40
2.8681911516430585
 40
3.591979254207545
 40
5.0242989968506349
 40
6.4652511986599164
 40
6.4652511986599164
 40
6.4652511986599164
 40
6.4652511986599164
 10
1079.728802000724
 20
2076.0793801227819
 30
0.0
 10
1079.5183630258671
 20
2076.7622893301032
 30
0.0
 10
1079.164663083684
 20
2077.3927746776731
 30
0.0
 10
1078.2176990032019
 20
2078.465193466343
 30
0.0
 10
1077.635253394807
 20
2078.8948751283619
 30
0.0
 10
1076.329761400375
 20
2079.4841378012329
 30
0.0
 10
1075.621629523213
 20
2079.6369868188322
 30
0.0
 10
1074.9051180948741
 20
2079.637907284342
 30
0.0
 11
1079.728802000724
 21
2076.0793801227819
 31
0.0
 11
1079.4212361458478
 21
2076.8815139022668
 31
0.0
 11
1079.0627254060669
 21
2077.4510095349019
 31
0.0
 11
1078.5966064682796
 21
2078.0213243576818
 31
0.0
 11
1078.1275289600337
 21
2078.5064079865379
 31
0.0
 11
1077.9235964509705
 21
2078.6758391994799
 31
0.0
 11
1077.7015828506796
 21
2078.8206919213371
 31
0.0
 11
1077.0991919620465
 21
2079.1261271486178
 31
0.0
 11
1076.4160607861941
 21
2079.4037393390568
 31
0.0
 11
1075.764543137944
 21
2079.5792006475667
 31
0.0
 11
1074.9051180948741
 21
2079.637907284342
 31
0.0
  0
SPLINE
  5
4D8
100
AcDbEntity
  8
1
  6
CONTINUOUS
 62
           4
100
AcDbSpline
210
0.0
220
0.0
230
1.0
 70
           0
 71
           4
 72
          14
 73
          10
 74
          15
 42
0.00000000001
 43
0.00000000001
 44
0.00000000001
 40
0.0
 40
0.0
 40
0.0
 40
0.0
 40
1.6017776482276518
 40
3.1971850124018113
 40
4.0004913459356297
 40
5.5945451224931677
 40
6.3970712928450846
 40
7.9895628761654933
 40
9.58710506236892
 40
9.58710506236892
 40
9.58710506236892
 40
9.58710506236892
 10
1089.9173805511821
 20
2033.943543706833
 30
0.0
 10
1090.715340955403
 20
2033.940096754073
 30
0.0
 10
1091.507905754195
 20
2034.074078965202
 30
0.0
 10
1093.0123510973899
 20
2034.6050863728719
 30
0.0
 10
1093.7129376414
 20
2034.998125251162
 30
0.0
 10
1094.949056616291
 20
2036.004612867813
 30
0.0
 10
1095.475309395872
 20
2036.610505817172
 30
0.0
 10
1096.2977934620189
 20
2037.9741587803121
 30
0.0
 10
1096.5878502900671
 20
2038.7216817341921
 30
0.0
 10
1096.743932451245
 20
2039.5019406665031
 30
0.0
 11
1089.9173805511821
 21
2033.943543706833
 31
0.0
 11
1090.8766227549816
 21
2033.9915916207242
 31
0.0
 11
1091.6123398198411
 21
2034.1472349852277
 31
0.0
 11
1092.3964140772207
 21
2034.3970649713456
 31
0.0
 11
1093.0973705598667
 21
2034.673832190799
 31
0.0
 11
1093.3631113281124
 21
2034.8077901093527
 31
0.0
 11
1093.6309413313854
 21
2034.9784540797325
 31
0.0
 11
1094.3253682015056
 21
2035.5085663907309
 31
0.0
 11
1094.98511737435
 21
2036.0811265149823
 31
0.0
 11
1095.2062311380387
 21
2036.3085894576932
 31
0.0
 11
1095.3910154228831
 21
2036.5415212553878
 31
0.0
 11
1095.8030327042272
 21
2037.1710128256184
 31
0.0
 11
1096.2052675222592
 21
2037.8871972026102
 31
0.0
 11
1096.5050659531987
 21
2038.5745210720283
 31
0.0
 11
1096.743932451245
 21
2039.5019406665031
 31
0.0
  0
SPLINE
  5
4D7
100
AcDbEntity
  8
1
  6
CONTINUOUS
 62
           4
100
AcDbSpline
210
0.0
220
0.0
230
1.0
 70
           0
 71
           4
 72
          14
 73
          10
 74
          15
 42
0.00000000001
 43
0.00000000001
 44
0.00000000001
 40
0.0
 40
0.0
 40
0.0
 40
0.0
 40
1.4734914221903588
 40
2.9401630582883342
 40
3.6808262704428594
 40
5.1487961311115322
 40
5.890261255522101
 40
7.3598679006672008
 40
8.837369683382704
 40
8.837369683382704
 40
8.837369683382704
 40
8.837369683382704
 10
1062.229734417193
 20
2073.334038073162
 30
0.0
 10
1062.331742262282
 20
2074.0601447391318
 30
0.0
 10
1062.2893130515799
 20
2074.7991822071031
 30
0.0
 10
1061.9204267605221
 20
2076.218706279602
 30
0.0
 10
1061.5975791473879
 20
2076.8853031686831
 30
0.0
 10
1060.711950468942
 20
2078.0560283096729
 30
0.0
 10
1060.1578350758559
 20
2078.5487012862632
 30
0.0
 10
1058.890292948068
 20
2079.2923952056531
 30
0.0
 10
1058.1892688205589
 20
2079.536139275142
 30
0.0
 10
1057.461026931323
 20
2079.6378602952218
 30
0.0
 11
1062.229734417193
 21
2073.334038073162
 31
0.0
 11
1062.2977826326144
 21
2074.2132625879722
 31
0.0
 11
1062.2258645096006
 21
2074.9000666683946
 31
0.0
 11
1062.0618104567889
 21
2075.6376500024808
 31
0.0
 11
1061.8597281840111
 21
2076.2996142774541
 31
0.0
 11
1061.75285115269
 21
2076.5522306585813
 31
0.0
 11
1061.6087211962624
 21
2076.8069090305971
 31
0.0
 11
1061.1472228659081
 21
2077.4647301823893
 31
0.0
 11
1060.6397506723333
 21
2078.0878926926925
 31
0.0
 11
1060.4336694300896
 21
2078.2961815515282
 31
0.0
 11
1060.2195085657286
 21
2078.4680284938513
 31
0.0
 11
1059.636650902982
 21
2078.8437218824342
 31
0.0
 11
1058.9705192481752
 21
2079.2036584498078
 31
0.0
 11
1058.3276890375471
 21
2079.461469853336
 31
0.0
 11
1057.461026931323
 21
2079.6378602952218
 31
0.0
  0
SPLINE
  5
4D6
100
AcDbEntity
  8
1
  6
CONTINUOUS
 62
           4
100
AcDbSpline
210
0.0
220
0.0
230
1.0
 70
           0
 71
           4
 72
          14
 73
          10
 74
          15
 42
0.00000000001
 43
0.00000000001
 44
0.00000000001
 40
0.0
 40
0.0
 40
0.0
 40
0.0
 40
1.8121422048900098
 40
3.6163131550000172
 40
4.527512135582815
 40
6.3335733245890973
 40
7.2457957019742478
 40
9.0537126436653015
 40
10.870969104706274
 40
10.870969104706274
 40
10.870969104706274
 40
10.870969104706274
 10
1129.17923833545
 20
2095.3169458459429
 30
0.0
 10
1129.171641288598
 20
2094.415295082692
 30
0.0
 10
1129.356626524594
 20
2093.5238261551331
 30
0.0
 10
1130.0615651206169
 20
2091.8630750018719
 30
0.0
 10
1130.5746208191699
 20
2091.1100428429322
 30
0.0
 10
1131.8633040677651
 20
2089.844676293973
 30
0.0
 10
1132.6263221496281
 20
2089.3447232236231
 30
0.0
 10
1134.302559708136
 20
2088.6673818654431
 30
0.0
 10
1135.1993775871231
 20
2088.4966212065319
 30
0.0
 10
1136.10367753476
 20
2088.5035226636619
 30
0.0
 11
1129.17923833545
 21
2095.3169458459429
 31
0.0
 11
1129.242393331097
 21
2094.2351482439617
 31
0.0
 11
1129.4519710974528
 21
2093.4126205302218
 31
0.0
 11
1129.7846699382324
 21
2092.5446848783727
 31
0.0
 11
1130.1499799337644
 21
2091.775588590569
 31
0.0
 11
1130.3255990848966
 21
2091.4874159480441
 31
0.0
 11
1130.5468983934425
 21
2091.2034410168026
 31
0.0
 11
1131.2270601097291
 21
2090.4859409245219
 31
0.0
 11
1131.9568979246942
 21
2089.8188585912153
 31
0.0
 11
1132.245201235419
 21
2089.6024318746277
 31
0.0
 11
1132.5367718240173
 21
2089.4317829072697
 31
0.0
 11
1133.313682290187
 21
2089.0792885782193
 31
0.0
 11
1134.1890736303512
 21
2088.7609006358357
 31
0.0
 11
1135.0175405208802
 21
2088.5626189277541
 31
0.0
 11
1136.10367753476
 21
2088.5035226636619
 31
0.0
  0
SPLINE
  5
4D5
100
AcDbEntity
  8
1
  6
CONTINUOUS
 62
           4
100
AcDbSpline
210
0.0
220
0.0
230
1.0
 70
           0
 71
           4
 72
          14
 73
          10
 74
          15
 42
0.00000000001
 43
0.00000000001
 44
0.00000000001
 40
0.0
 40
0.0
 40
0.0
 40
0.0
 40
0.1994509866984406
 40
0.3980225443970002
 40
0.4983108195151004
 40
0.697088946389687
 40
0.7974898882022488
 40
1.0049158732407271
 40
1.2049304722646044
 40
1.2049304722646044
 40
1.2049304722646044
 40
1.2049304722646044
 10
1141.776584048954
 20
2098.1636339292322
 30
0.0
 10
1141.776457455577
 20
2098.0643913084218
 30
0.0
 10
1141.7959369654729
 20
2097.9660945683622
 30
0.0
 10
1141.8718832525281
 20
2097.7826202513329
 30
0.0
 10
1141.927606912797
 20
2097.6992379281919
 30
0.0
 10
1142.0681905399181
 20
2097.5587068372929
 30
0.0
 10
1142.1516749284201
 20
2097.5029331338719
 30
0.0
 10
1142.3354933127671
 20
2097.4068272503619
 30
0.0
 10
1142.4340286881429
 20
2097.3871532074022
 30
0.0
 10
1142.5335629175811
 20
2097.3870253409018
 30
0.0
 11
1141.776584048954
 21
2098.1636339292322
 31
0.0
 11
1141.783866710309
 21
2098.0444964826415
 31
0.0
 11
1141.8063210753812
 21
2097.9537609707577
 31
0.0
 11
1141.8420811418
 21
2097.8579096194921
 31
0.0
 11
1141.8815279935648
 21
2097.772904432481
 31
0.0
 11
1141.9005721442584
 21
2097.7410159056999
 31
0.0
 11
1141.9246480570866
 21
2097.7095444387055
 31
0.0
 11
1141.9987523158156
 21
2097.6299397031312
 31
0.0
 11
1142.0780970628866
 21
2097.5560199827464
 31
0.0
 11
1142.1092391102545
 21
2097.5319900021873
 31
0.0
 11
1142.1404947040005
 21
2097.5121239136097
 31
0.0
 11
1142.2274152755974
 21
2097.4647835701549
 31
0.0
 11
1142.325491293936
 21
2097.4203096801184
 31
0.0
 11
1142.4147639787734
 21
2097.394903565073
 31
0.0
 11
1142.5335629175811
 21
2097.3870253409018
 31
0.0
  0
SPLINE
  5
4D4
100
AcDbEntity
  8
1
  6
CONTINUOUS
 62
           4
100
AcDbSpline
210
0.0
220
0.0
230
1.0
 70
           0
 71
           4
 72
          12
 73
           8
 74
          11
 42
0.00000000001
 43
0.00000000001
 44
0.00000000001
 40
0.0
 40
0.0
 40
0.0
 40
0.0
 40
1.7629672427331862
 40
3.5193699818944335
 40
4.4060149761617264
 40
6.1641411352840487
 40
7.9308308149604407
 40
7.9308308149604407
 40
7.9308308149604407
 40
7.9308308149604407
 10
1103.1494292748271
 20
2092.4685215812619
 30
0.0
 10
1103.5216797862049
 20
2091.6741269359022
 30
0.0
 10
1104.042901581146
 20
2090.958056751062
 30
0.0
 10
1105.3270768644361
 20
2089.7597894920918
 30
0.0
 10
1106.0781846259381
 20
2089.2886456961328
 30
0.0
 10
1107.7174375910949
 20
2088.653148011153
 30
0.0
 10
1108.5904616947589
 20
2088.494656197292
 30
0.0
 10
1109.469808020782
 20
2088.5039676426218
 30
0.0
 11
1103.1494292748271
 21
2092.4685215812619
 31
0.0
 11
1103.6541596053678
 21
2091.541675576625
 31
0.0
 11
1104.1704778453291
 21
2090.8962301680581
 31
0.0
 11
1104.8107788916941
 21
2090.2563154845134
 31
0.0
 11
1105.4395804027383
 21
2089.7157332056177
 31
0.0
 11
1105.7054580179156
 21
2089.529066214307
 31
0.0
 11
1105.9891816300396
 21
2089.3709374700393
 31
0.0
 11
1106.7500746385788
 21
2089.0397404501623
 31
0.0
 11
1107.6055951846627
 21
2088.7412776883039
 31
0.0
 11
1108.4131819634586
 21
2088.5564372272434
 31
0.0
 11
1109.469808020782
 21
2088.5039676426218
 31
0.0
  0
SPLINE
  5
4D3
100
AcDbEntity
  8
1
  6
CONTINUOUS
 62
           4
100
AcDbSpline
210
0.0
220
0.0
230
1.0
 70
           0
 71
           4
 72
          12
 73
           8
 74
          11
 42
0.00000000001
 43
0.00000000001
 44
0.00000000001
 40
0.0
 40
0.0
 40
0.0
 40
0.0
 40
1.7772911578069226
 40
3.5479477360744234
 40
4.4417998918423063
 40
6.2142150176341513
 40
7.9953425783167713
 40
7.9953425783167713
 40
7.9953425783167713
 40
7.9953425783167713
 10
1097.7189330709441
 20
2129.8623631101918
 30
0.0
 10
1097.3537244127949
 20
2130.6678510610918
 30
0.0
 10
1096.8372732379721
 20
2131.3962106718332
 30
0.0
 10
1095.557640028341
 20
2132.620042182692
 30
0.0
 10
1094.806274389193
 20
2133.1042129714419
 30
0.0
 10
1093.1615597189809
 20
2133.7647953143219
 30
0.0
 10
1092.2833983207131
 20
2133.9351069154918
 30
0.0
 10
1091.3968344000409
 20
2133.9434731976121
 30
0.0
 11
1097.7189330709441
 21
2129.8623631101918
 31
0.0
 11
1097.2218212642938
 21
2130.8030194879038
 31
0.0
 11
1096.709415956354
 21
2131.46010398714
 31
0.0
 11
1096.0719242533896
 21
2132.1131148212107
 31
0.0
 11
1095.4447651617484
 21
2132.6658246837405
 31
0.0
 11
1095.1790477844465
 21
2132.8572706629338
 31
0.0
 11
1094.8949804637539
 21
2133.0201508516866
 31
0.0
 11
1094.1320141266399
 21
2133.3632963728523
 31
0.0
 11
1093.2732461572618
 21
2133.6745627776622
 31
0.0
 11
1092.461367767608
 21
2133.871572965204
 31
0.0
 11
1091.3968344000409
 21
2133.9434731976121
 31
0.0
  0
SPLINE
  5
4D2
100
AcDbEntity
  8
1
  6
CONTINUOUS
 62
           4
100
AcDbSpline
210
0.0
220
0.0
230
1.0
 70
           0
 71
           4
 72
          12
 73
           8
 74
          11
 42
0.00000000001
 43
0.00000000001
 44
0.00000000001
 40
0.0
 40
0.0
 40
0.0
 40
0.0
 40
0.0985436531494163
 40
0.1966542956940032
 40
0.246255457689901
 40
0.3444655793523744
 40
0.4432188324297254
 40
0.4432188324297254
 40
0.4432188324297254
 40
0.4432188324297254
 10
1063.2615371209899
 20
2088.7112344425818
 30
0.0
 10
1063.28194295707
 20
2088.6666852832618
 30
0.0
 10
1063.3113527391799
 20
2088.6268153415022
 30
0.0
 10
1063.384496974219
 20
2088.5614271234422
 30
0.0
 10
1063.427444587209
 20
2088.536612252703
 30
0.0
 10
1063.520712132502
 20
2088.5058487517322
 30
0.0
 10
1063.5700287508771
 20
2088.500231055963
 30
0.0
 10
1063.618940058534
 20
2088.504729189362
 30
0.0
 11
1063.2615371209899
 21
2088.7112344425818
 31
0.0
 11
1063.2895133173897
 21
2088.6593795711915
 31
0.0
 11
1063.3186998670026
 21
2088.6236270236996
 31
0.0
 11
1063.3550988415138
 21
2088.5885801923728
 31
0.0
 11
1063.3909301707561
 21
2088.5592742232839
 31
0.0
 11
1063.4061309548169
 21
2088.5493178043916
 31
0.0
 11
1063.4223449023641
 21
2088.5411199694513
 31
0.0
 11
1063.4656601622946
 21
2088.5246913237461
 31
0.0
 11
1063.5142442689551
 21
2088.5106297010711
 31
0.0
 11
1063.5598972396854
 21
2088.5031493757838
 31
0.0
 11
1063.618940058534
 21
2088.504729189362
 31
0.0
  0
SPLINE
  5
4D1
100
AcDbEntity
  8
1
  6
CONTINUOUS
 62
           4
100
AcDbSpline
210
0.0
220
0.0
230
1.0
 70
           0
 71
           4
 72
          12
 73
           8
 74
          11
 42
0.00000000001
 43
0.00000000001
 44
0.00000000001
 40
0.0
 40
0.0
 40
0.0
 40
0.0
 40
2.4207540475235527
 40
4.8326440325512721
 40
6.0487614892665533
 40
8.4626348048228834
 40
10.887744640342049
 40
10.887744640342049
 40
10.887744640342049
 40
10.887744640342049
 10
1171.3455009379099
 20
2119.3574242653831
 30
0.0
 10
1171.427727939074
 20
2118.1547903937731
 30
0.0
 10
1171.7264037035461
 20
2116.9767508891318
 30
0.0
 10
1172.728047554094
 20
2114.782685508033
 30
0.0
 10
1173.4228342260469
 20
2113.784580729463
 30
0.0
 10
1175.1337949545739
 20
2112.0818189231632
 30
0.0
 10
1176.135993905868
 20
2111.3910700319921
 30
0.0
 10
1177.2369194242749
 20
2110.8940308511019
 30
0.0
 11
1171.3455009379099
 21
2119.3574242653831
 31
0.0
 11
1171.5266890313967
 21
2117.9182753277632
 31
0.0
 11
1171.8528082829962
 21
2116.8303364009398
 31
0.0
 11
1172.3324419646283
 21
2115.6829303665249
 31
0.0
 11
1172.8449287552553
 21
2114.6656697119301
 31
0.0
 11
1173.0812824950858
 21
2114.2879540048657
 31
0.0
 11
1173.353370084875
 21
2113.9351806896116
 31
0.0
 11
1174.1297701394799
 21
2113.1007543216328
 31
0.0
 11
1175.039761017591
 21
2112.2517085134086
 31
0.0
 11
1175.9482318333228
 21
2111.5663361071856
 31
0.0
 11
1177.2369194242749
 21
2110.8940308511019
 31
0.0
  0
SPLINE
  5
4D0
100
AcDbEntity
  8
1
  6
CONTINUOUS
 62
           4
100
AcDbSpline
210
0.0
220
0.0
230
1.0
 70
           0
 71
           4
 72
           8
 73
           4
 74
           3
 42
0.00000000001
 43
0.00000000001
 44
0.00000000001
 40
0.0
 40
0.0
 40
0.0
 40
0.0
 40
6.0890673798860133
 40
6.0890673798860133
 40
6.0890673798860133
 40
6.0890673798860133
 10
1171.8704623521519
 20
2125.3536896827331
 30
0.0
 10
1171.3239910121849
 20
2123.4047468588119
 30
0.0
 10
1171.1459713128841
 20
2121.371352903423
 30
0.0
 10
1171.3455009379099
 20
2119.3574242653831
 30
0.0
 11
1171.8704623521519
 21
2125.3536896827331
 31
0.0
 11
1171.3282312831586
 21
2122.3799266543529
 31
0.0
 11
1171.3455009379099
 21
2119.3574242653831
 31
0.0
  0
SPLINE
  5
4CF
100
AcDbEntity
  8
1
  6
CONTINUOUS
 62
           4
100
AcDbSpline
210
0.0
220
0.0
230
1.0
 70
           0
 71
           4
 72
          10
 73
           6
 74
           7
 42
0.00000000001
 43
0.00000000001
 44
0.00000000001
 40
0.0
 40
0.0
 40
0.0
 40
0.0
 40
2.6402659672810742
 40
5.2633366339283851
 40
7.8998387259813541
 40
7.8998387259813541
 40
7.8998387259813541
 40
7.8998387259813541
 10
1176.605996541959
 20
2131.296531849262
 30
0.0
 10
1175.434074349505
 20
2130.704727753242
 30
0.0
 10
1174.4041810228159
 20
2129.867294982183
 30
0.0
 10
1172.769509168234
 20
2127.8158692218731
 30
0.0
 10
1172.1840164677819
 20
2126.6260789147032
 30
0.0
 10
1171.8704623521519
 20
2125.3536896827331
 30
0.0
 11
1176.605996541959
 21
2131.296531849262
 31
0.0
 11
1175.2558087324355
 21
2130.4995001842699
 31
0.0
 11
1174.3859141968621
 21
2129.7313560965194
 31
0.0
 11
1173.6002507747082
 21
2128.8301315372337
 31
0.0
 11
1172.8973579440499
 21
2127.8631357923086
 31
0.0
 11
1172.3440501152161
 21
2126.8453177492192
 31
0.0
 11
1171.8704623521519
 21
2125.3536896827331
 31
0.0
  0
SPLINE
  5
4CE
100
AcDbEntity
  8
0
  6
CONTINUOUS
 62
           3
100
AcDbSpline
210
0.0
220
0.0
230
1.0
 70
           0
 71
           3
 72
           8
 73
           5
 74
           7
 42
0.00000000001
 43
0.00000000001
 44
0.00000000001
 40
0.0
 40
0.0
 40
0.0
 40
0.2989651950313146
 40
0.4296296276538669
 40
0.4465803504019732
 40
0.4465803504019732
 40
0.4465803504019732
 10
4490.8999966098636
 20
1384.6465796233049
 30
0.0
 10
4490.89999660991
 20
1384.466936563429
 30
0.0
 10
4490.89999660991
 20
1384.2282922931181
 30
0.0
 10
4490.89999660991
 20
1384.2056076981839
 30
0.0
 10
4490.89999660991
 20
1384.1999992729029
 30
0.0
 11
4490.8999966098636
 21
1384.6465796233049
 31
0.0
 11
4490.8999966098982
 21
1384.4703311443268
 31
0.0
 11
4490.89999660991
 21
1384.300871827144
 31
0.0
 11
4490.89999660991
 21
1384.2414172487606
 31
0.0
 11
4490.8999966099109
 21
1384.2082125816626
 31
0.0
 11
4490.89999660991
 21
1384.2048568127334
 31
0.0
 11
4490.89999660991
 21
1384.1999992729029
 31
0.0
  0
SPLINE
  5
4CD
100
AcDbEntity
  8
0
  6
CONTINUOUS
 62
           3
100
AcDbSpline
210
0.0
220
0.0
230
1.0
 70
           0
 71
           3
 72
           8
 73
           5
 74
           7
 42
0.00000000001
 43
0.00000000001
 44
0.00000000001
 40
0.0
 40
0.0
 40
0.0
 40
0.0169507227481063
 40
0.1476151553706586
 40
0.4465803504019732
 40
0.4465803504019732
 40
0.4465803504019732
 10
4480.8999968334319
 20
1384.1999992729029
 30
0.0
 10
4480.8999968334319
 20
1384.2056076981839
 30
0.0
 10
4480.8999968334319
 20
1384.2282922931181
 30
0.0
 10
4480.8999968334319
 20
1384.466936563429
 30
0.0
 10
4480.899996833472
 20
1384.6465796233049
 30
0.0
 11
4480.8999968334319
 21
1384.1999992729029
 31
0.0
 11
4480.8999968334329
 21
1384.2048568127334
 31
0.0
 11
4480.8999968334319
 21
1384.2082125816623
 31
0.0
 11
4480.899996833431
 21
1384.2414172487606
 31
0.0
 11
4480.8999968334319
 21
1384.300871827144
 31
0.0
 11
4480.8999968334419
 21
1384.4703311443268
 31
0.0
 11
4480.899996833472
 21
1384.6465796233049
 31
0.0
  0
SPLINE
  5
4CC
100
AcDbEntity
  8
0
  6
CONTINUOUS
 62
           3
100
AcDbSpline
210
0.0
220
0.0
230
1.0
 70
           0
 71
           3
 72
           8
 73
           5
 74
           7
 42
0.00000000001
 43
0.00000000001
 44
0.00000000001
 40
0.0
 40
0.0
 40
0.0
 40
0.4813883392833048
 40
1.3325653926421479
 40
2.559491048830643
 40
2.559491048830643
 40
2.559491048830643
 10
4488.3999966657611
 20
1384.1999992729029
 30
0.0
 10
4488.459261471944
 20
1384.2004449713111
 30
0.0
 10
4489.3034813132899
 20
1384.206793890067
 30
0.0
 10
4490.130777332779
 20
1384.434685841557
 30
0.0
 10
4490.8999966098636
 20
1384.6465796233049
 30
0.0
 11
4488.3999966657611
 21
1384.1999992729029
 31
0.0
 11
4488.5206887308805
 21
1384.2009069323517
 31
0.0
 11
4488.7642353138726
 21
1384.2027385138817
 31
0.0
 11
4489.2533835507411
 21
1384.2291158030625
 31
0.0
 11
4489.6423362625128
 21
1384.3001369182352
 31
0.0
 11
4490.2009718844838
 21
1384.4540220561637
 31
0.0
 11
4490.8999966098636
 21
1384.6465796233049
 31
0.0
  0
SPLINE
  5
4CB
100
AcDbEntity
  8
0
  6
CONTINUOUS
 62
           3
100
AcDbSpline
210
0.0
220
0.0
230
1.0
 70
           0
 71
           3
 72
           8
 73
           5
 74
           7
 42
0.00000000001
 43
0.00000000001
 44
0.00000000001
 40
0.0
 40
0.0
 40
0.0
 40
0.4813884775056223
 40
1.332565594239228
 40
2.5594910572540659
 40
2.5594910572540659
 40
2.5594910572540659
 10
4483.3999967775526
 20
1384.1999992729029
 30
0.0
 10
4483.459261584394
 20
1384.200444971556
 30
0.0
 10
4484.3034817008302
 20
1384.206793895831
 30
0.0
 10
4485.1307775679588
 20
1384.434685841728
 30
0.0
 10
4485.8999967216741
 20
1384.6465796232981
 30
0.0
 11
4483.3999967775526
 21
1384.1999992729029
 31
0.0
 11
4483.5206888783669
 21
1384.2009069331118
 31
0.0
 11
4483.7642355671287
 21
1384.202738516432
 31
0.0
 11
4484.2533839007074
 21
1384.2291158106457
 31
0.0
 11
4484.6423366340423
 21
1384.3001369344884
 31
0.0
 11
4485.2009721229088
 21
1384.4540220603108
 31
0.0
 11
4485.8999967216741
 21
1384.6465796232981
 31
0.0
  0
SPLINE
  5
4CA
100
AcDbEntity
  8
0
  6
CONTINUOUS
 62
           3
100
AcDbSpline
210
0.0
220
0.0
230
1.0
 70
           0
 71
           3
 72
           8
 73
           5
 74
           7
 42
0.00000000001
 43
0.00000000001
 44
0.00000000001
 40
0.0
 40
0.0
 40
0.0
 40
0.2779454797461939
 40
0.7862825386896779
 40
1.5429638907222956
 40
1.5429638907222956
 40
1.5429638907222956
 10
4481.5698696873451
 20
1367.599993944259
 30
0.0
 10
4481.6040862319223
 20
1367.6004396365161
 30
0.0
 10
4482.09149695003
 20
1367.606788471177
 30
0.0
 10
4482.5691364171953
 20
1367.83468432568
 30
0.0
 10
4483.0132452878433
 20
1368.046581745238
 30
0.0
 11
4481.5698696873451
 21
1367.599993944259
 31
0.0
 11
4481.6386061814947
 21
1367.600889280819
 31
0.0
 11
4481.7763825747916
 21
1367.602683905985
 31
0.0
 11
4482.0607022116073
 21
1367.6286568402313
 31
0.0
 11
4482.2834323715761
 21
1367.6983665125858
 31
0.0
 11
4482.6087376234527
 21
1367.853579227296
 31
0.0
 11
4483.0132452878433
 21
1368.046581745238
 31
0.0
  0
SPLINE
  5
4C9
100
AcDbEntity
  8
0
  6
CONTINUOUS
 62
           3
100
AcDbSpline
210
0.0
220
0.0
230
1.0
 70
           0
 71
           3
 72
           8
 73
           5
 74
           7
 42
0.00000000001
 43
0.00000000001
 44
0.00000000001
 40
0.0
 40
0.0
 40
0.0
 40
0.2779464854376805
 40
0.7862840843776786
 40
1.5429642658576506
 40
1.5429642658576506
 40
1.5429642658576506
 10
4481.5698696873451
 20
1372.6000040770441
 30
0.0
 10
4481.5356531379812
 20
1372.5995583816721
 30
0.0
 10
4481.0482404188806
 20
1372.593209477443
 30
0.0
 10
4480.5706019393401
 20
1372.3653136934749
 30
0.0
 10
4480.1264938539716
 20
1372.153416276112
 30
0.0
 11
4481.5698696873451
 21
1372.6000040770441
 31
0.0
 11
4481.5011329415911
 21
1372.5991087310729
 31
0.0
 11
4481.3633558030569
 21
1372.5973140839026
 31
0.0
 11
4481.0790354338651
 21
1372.5713410900591
 31
0.0
 11
4480.8563050946432
 21
1372.5016313214487
 31
0.0
 11
4480.5310007068238
 21
1372.3464187461277
 31
0.0
 11
4480.1264938539716
 21
1372.153416276112
 31
0.0
  0
SPLINE
  5
4C8
100
AcDbEntity
  8
0
  6
CONTINUOUS
 62
           3
100
AcDbSpline
210
0.0
220
0.0
230
1.0
 70
           0
 71
           3
 72
           8
 73
           5
 74
           7
 42
0.00000000001
 43
0.00000000001
 44
0.00000000001
 40
0.0
 40
0.0
 40
0.0
 40
0.2779464854277658
 40
0.7862840843632222
 40
1.542964265895167
 40
1.542964265895167
 40
1.542964265895167
 10
4490.2301237560032
 20
1367.599993944259
 30
0.0
 10
4490.2643403053626
 20
1367.6004396396379
 30
0.0
 10
4490.7517530244522
 20
1367.606788543867
 30
0.0
 10
4491.2293915039991
 20
1367.8346843278259
 30
0.0
 10
4491.6734995893639
 20
1368.0465817453151
 30
0.0
 11
4490.2301237560032
 21
1367.599993944259
 31
0.0
 11
4490.2988605017517
 21
1367.6008892902355
 31
0.0
 11
4490.4366376402804
 21
1367.6026839374074
 31
0.0
 11
4490.7209580094677
 21
1367.6286569312488
 31
0.0
 11
4490.9436883486833
 21
1367.6983666998535
 31
0.0
 11
4491.2689927365109
 21
1367.853579275205
 31
0.0
 11
4491.6734995893639
 21
1368.0465817453151
 31
0.0
  0
SPLINE
  5
4C7
100
AcDbEntity
  8
0
  6
CONTINUOUS
 62
           3
100
AcDbSpline
210
0.0
220
0.0
230
1.0
 70
           0
 71
           3
 72
           8
 73
           5
 74
           7
 42
0.00000000001
 43
0.00000000001
 44
0.00000000001
 40
0.0
 40
0.0
 40
0.0
 40
0.2779454797516385
 40
0.7862825386956059
 40
1.5429638907280883
 40
1.5429638907280883
 40
1.5429638907280883
 10
4490.2301237560032
 20
1372.6000040770441
 30
0.0
 10
4490.1959072114232
 20
1372.599558384785
 30
0.0
 10
4489.7084964933101
 20
1372.59320955013
 30
0.0
 10
4489.2308570261521
 20
1372.365313695622
 30
0.0
 10
4488.7867481555013
 20
1372.1534162760649
 30
0.0
 11
4490.2301237560032
 21
1372.6000040770441
 31
0.0
 11
4490.16138726185
 21
1372.599108740483
 31
0.0
 11
4490.0236108685503
 21
1372.5973141153181
 31
0.0
 11
4489.7392912317346
 21
1372.5713411810743
 31
0.0
 11
4489.5165610717668
 21
1372.5016315087191
 31
0.0
 11
4489.1912558198928
 21
1372.3464187940067
 31
0.0
 11
4488.7867481555013
 21
1372.1534162760649
 31
0.0
  0
SPLINE
  5
4C6
100
AcDbEntity
  8
0
  6
CONTINUOUS
 62
           3
100
AcDbSpline
210
0.0
220
0.0
230
1.0
 70
           0
 71
           3
 72
           8
 73
           5
 74
           7
 42
0.00000000001
 43
0.00000000001
 44
0.00000000001
 40
0.0
 40
0.0
 40
0.0
 40
0.7097107189137588
 40
1.6878556121190365
 40
2.9354150974117394
 40
2.9354150974117394
 40
2.9354150974117394
 10
4483.0132452878433
 20
1368.046581745238
 30
0.0
 10
4483.2266018694936
 20
1367.9869406026969
 30
0.0
 10
4484.1669045504623
 20
1367.7240908429551
 30
0.0
 10
4485.1443418916833
 20
1367.6541020998679
 30
0.0
 10
4485.8999967216741
 20
1367.599993944259
 30
0.0
 11
4483.0132452878433
 21
1368.046581745238
 31
0.0
 11
4483.2721075077989
 21
1367.9742200752146
 31
0.0
 11
4483.621981004364
 21
1367.8764173502259
 31
0.0
 11
4484.1380638628543
 21
1367.7544828668438
 31
0.0
 11
4484.5964653461278
 21
1367.693332431239
 31
0.0
 11
4485.1962864627922
 21
1367.6503826438086
 31
0.0
 11
4485.8999967216741
 21
1367.599993944259
 31
0.0
  0
SPLINE
  5
4C5
100
AcDbEntity
  8
0
  6
CONTINUOUS
 62
           3
100
AcDbSpline
210
0.0
220
0.0
230
1.0
 70
           0
 71
           3
 72
           8
 73
           5
 74
           7
 42
0.00000000001
 43
0.00000000001
 44
0.00000000001
 40
0.0
 40
0.0
 40
0.0
 40
0.7273681394902144
 40
1.7065914567878291
 40
2.9387223240295519
 40
2.9387223240295519
 40
2.9387223240295519
 10
4485.8999967216741
 20
1367.599993944259
 30
0.0
 10
4486.138719501032
 20
1367.605473483329
 30
0.0
 10
4487.1156271469799
 20
1367.6278969974539
 30
0.0
 10
4488.0674888562426
 20
1367.8663776207241
 30
0.0
 10
4488.7867481553621
 20
1368.0465817453151
 30
0.0
 11
4485.8999967216741
 21
1367.599993944259
 31
0.0
 11
4486.1831310149719
 21
1367.6064928859457
 31
0.0
 11
4486.5550883361511
 21
1367.6150306328652
 31
0.0
 11
4487.08086737551
 21
1367.6510811733867
 31
0.0
 11
4487.5371268719309
 21
1367.733500065774
 31
0.0
 11
4488.1147131849448
 21
1367.8782092631343
 31
0.0
 11
4488.7867481553621
 21
1368.0465817453151
 31
0.0
  0
SPLINE
  5
4C4
100
AcDbEntity
  8
0
  6
CONTINUOUS
 62
           3
100
AcDbSpline
210
0.0
220
0.0
230
1.0
 70
           0
 71
           3
 72
           8
 73
           5
 74
           7
 42
0.00000000001
 43
0.00000000001
 44
0.00000000001
 40
0.0
 40
0.0
 40
0.0
 40
1.2321308673584959
 40
2.2113541846558253
 40
2.9387223241460556
 40
2.9387223241460556
 40
2.9387223241460556
 10
4488.7867481555013
 20
1372.1534162760649
 30
0.0
 10
4488.0674888562426
 20
1372.333620400582
 30
0.0
 10
4487.1156271469799
 20
1372.5721010238501
 30
0.0
 10
4486.138719501032
 20
1372.5945245379719
 30
0.0
 10
4485.8999967216741
 20
1372.6000040770441
 30
0.0
 11
4488.7867481555013
 21
1372.1534162760649
 31
0.0
 11
4488.1147131849739
 21
1372.3217887581914
 31
0.0
 11
4487.5371268719082
 21
1372.4664979555364
 31
0.0
 11
4487.0808673755055
 21
1372.5489168479185
 31
0.0
 11
4486.5550883361511
 21
1372.5849673884368
 31
0.0
 11
4486.1831310149719
 21
1372.5935051353561
 31
0.0
 11
4485.8999967216741
 21
1372.6000040770441
 31
0.0
  0
SPLINE
  5
4C3
100
AcDbEntity
  8
0
  6
CONTINUOUS
 62
           3
100
AcDbSpline
210
0.0
220
0.0
230
1.0
 70
           0
 71
           3
 72
           8
 73
           5
 74
           7
 42
0.00000000001
 43
0.00000000001
 44
0.00000000001
 40
0.0
 40
0.0
 40
0.0
 40
1.2475616964940484
 40
2.2257084622431464
 40
2.9354211178797072
 40
2.9354211178797072
 40
2.9354211178797072
 10
4485.8999967216741
 20
1372.6000040770441
 30
0.0
 10
4485.144340064252
 20
1372.5459088094749
 30
0.0
 10
4484.1668989125819
 20
1372.475936633472
 30
0.0
 10
4483.2266017037609
 20
1372.213063111164
 30
0.0
 10
4483.0132452878433
 20
1372.1534162760649
 30
0.0
 11
4485.8999967216741
 21
1372.6000040770441
 31
0.0
 11
4485.1962845668022
 21
1372.5496273656959
 31
0.0
 11
4484.5964614170316
 21
1372.50668776679
 31
0.0
 11
4484.13805949163
 21
1372.4455393603107
 31
0.0
 11
4483.6219787243263
 21
1372.3235964075097
 31
0.0
 11
4483.2721068549235
 21
1372.2257847264759
 31
0.0
 11
4483.0132452878433
 21
1372.1534162760649
 31
0.0
  0
SPLINE
  5
4C2
100
AcDbEntity
  8
0
  6
CONTINUOUS
 62
           3
100
AcDbSpline
210
0.0
220
0.0
230
1.0
 70
           0
 71
           3
 72
           8
 73
           5
 74
           7
 42
0.00000000001
 43
0.00000000001
 44
0.00000000001
 40
0.0
 40
0.0
 40
0.0
 40
0.2779452695541519
 40
0.786280542657128
 40
1.5429573554978004
 40
1.5429573554978004
 40
1.5429573554978004
 10
4481.5698696873451
 20
1372.6000040770441
 30
0.0
 10
4481.6040862308719
 20
1372.600449781813
 30
0.0
 10
4482.0914965280826
 20
1372.6067987893689
 30
0.0
 10
4482.5691362283633
 20
1372.8346868330859
 30
0.0
 10
4483.0132452878433
 20
1373.046576976863
 30
0.0
 11
4481.5698696873451
 21
1372.6000040770441
 31
0.0
 11
4481.6386062202837
 21
1372.6008994392673
 31
0.0
 11
4481.7763827320468
 21
1372.6026941163996
 31
0.0
 11
4482.0607020292246
 21
1372.6286663808435
 31
0.0
 11
4482.2834323286843
 21
1372.6983738282377
 31
0.0
 11
4482.6087375183133
 21
1372.8535811178181
 31
0.0
 11
4483.0132452878433
 21
1373.046576976863
 31
0.0
  0
SPLINE
  5
4C1
100
AcDbEntity
  8
0
  6
CONTINUOUS
 62
           3
100
AcDbSpline
210
0.0
220
0.0
230
1.0
 70
           0
 71
           3
 72
           8
 73
           5
 74
           7
 42
0.00000000001
 43
0.00000000001
 44
0.00000000001
 40
0.0
 40
0.0
 40
0.0
 40
0.2779463803328297
 40
0.7862830863400877
 40
1.5429609982604886
 40
1.5429609982604886
 40
1.5429609982604886
 10
4481.5698696873451
 20
1377.5999993086691
 30
0.0
 10
4481.5356531385041
 20
1377.59955360704
 30
0.0
 10
4481.0482406298743
 20
1377.59320461636
 30
0.0
 10
4480.5706020337611
 20
1377.3653127377891
 30
0.0
 10
4480.1264938539716
 20
1377.153418958208
 30
0.0
 11
4481.5698696873451
 21
1377.5999993086691
 31
0.0
 11
4481.501132922197
 21
1377.5991039498649
 31
0.0
 11
4481.3633557244357
 21
1377.5973092767103
 31
0.0
 11
4481.0790355250729
 21
1377.5713366177681
 31
0.0
 11
4480.8563051161109
 21
1377.5016279616425
 31
0.0
 11
4480.5310007594007
 21
1377.3464180988569
 31
0.0
 11
4480.1264938539716
 21
1377.153418958208
 31
0.0
  0
SPLINE
  5
4C0
100
AcDbEntity
  8
0
  6
CONTINUOUS
 62
           3
100
AcDbSpline
210
0.0
220
0.0
230
1.0
 70
           0
 71
           3
 72
           8
 73
           5
 74
           7
 42
0.00000000001
 43
0.00000000001
 44
0.00000000001
 40
0.0
 40
0.0
 40
0.0
 40
0.2779462752402223
 40
0.7862820883284093
 40
1.5429577306520006
 40
1.5429577306520006
 40
1.5429577306520006
 10
4490.2301237560032
 20
1372.6000040770441
 30
0.0
 10
4490.2643403043221
 20
1372.600449784931
 30
0.0
 10
4490.751752602504
 20
1372.6067988620539
 30
0.0
 10
4491.2293913151643
 20
1372.834686835236
 30
0.0
 10
4491.6734995893639
 20
1373.0465769769139
 30
0.0
 11
4490.2301237560032
 21
1372.6000040770441
 31
0.0
 11
4490.298860540549
 21
1372.6008994486808
 31
0.0
 11
4490.4366377975466
 21
1372.6026941478176
 31
0.0
 11
4490.7209578270867
 21
1372.6286664718564
 31
0.0
 11
4490.9436883057924
 21
1372.6983740155001
 31
0.0
 11
4491.2689926313706
 21
1372.8535811657216
 31
0.0
 11
4491.6734995893639
 21
1373.0465769769139
 31
0.0
  0
SPLINE
  5
4BF
100
AcDbEntity
  8
0
  6
CONTINUOUS
 62
           3
100
AcDbSpline
210
0.0
220
0.0
230
1.0
 70
           0
 71
           3
 72
           8
 73
           5
 74
           7
 42
0.00000000001
 43
0.00000000001
 44
0.00000000001
 40
0.0
 40
0.0
 40
0.0
 40
0.2779453746522337
 40
0.7862815406662602
 40
1.5429606230903423
 40
1.5429606230903423
 40
1.5429606230903423
 10
4490.2301237560032
 20
1377.5999993086691
 30
0.0
 10
4490.1959072119489
 20
1377.599553610153
 30
0.0
 10
4489.7084967042902
 20
1377.593204689048
 30
0.0
 10
4489.2308571205731
 20
1377.3653127399391
 30
0.0
 10
4488.7867481555013
 20
1377.1534189582701
 30
0.0
 11
4490.2301237560032
 21
1377.5999993086691
 31
0.0
 11
4490.1613872424568
 21
1377.5991039592755
 31
0.0
 11
4490.0236107899245
 21
1377.5973093081263
 31
0.0
 11
4489.7392913229305
 21
1377.5713367087828
 31
0.0
 11
4489.516561093219
 21
1377.5016281489088
 31
0.0
 11
4489.1912558724662
 21
1377.3464181467643
 31
0.0
 11
4488.7867481555013
 21
1377.1534189582701
 31
0.0
  0
SPLINE
  5
4BE
100
AcDbEntity
  8
0
  6
CONTINUOUS
 62
           3
100
AcDbSpline
210
0.0
220
0.0
230
1.0
 70
           0
 71
           3
 72
           8
 73
           5
 74
           7
 42
0.00000000001
 43
0.00000000001
 44
0.00000000001
 40
0.0
 40
0.0
 40
0.0
 40
0.7097104926819869
 40
1.6878550560193442
 40
2.9354142011753002
 40
2.9354142011753002
 40
2.9354142011753002
 10
4483.0132452878433
 20
1373.046576976863
 30
0.0
 10
4483.2266018489536
 20
1372.9869356693509
 30
0.0
 10
4484.166903851652
 20
1372.7240853468591
 30
0.0
 10
4485.1443416651709
 20
1372.654105412623
 30
0.0
 10
4485.8999967216741
 20
1372.6000040770441
 30
0.0
 11
4483.0132452878433
 21
1373.046576976863
 31
0.0
 11
4483.2721074221517
 21
1372.974215123659
 31
0.0
 11
4483.6219807028574
 21
1372.8764121790714
 31
0.0
 11
4484.1380633113731
 21
1372.7544784200825
 31
0.0
 11
4484.5964648393274
 21
1372.69333080754
 31
0.0
 11
4485.1962862228365
 21
1372.6503864274575
 31
0.0
 11
4485.8999967216741
 21
1372.6000040770441
 31
0.0
  0
SPLINE
  5
4BD
100
AcDbEntity
  8
0
  6
CONTINUOUS
 62
           3
100
AcDbSpline
210
0.0
220
0.0
230
1.0
 70
           0
 71
           3
 72
           8
 73
           5
 74
           7
 42
0.00000000001
 43
0.00000000001
 44
0.00000000001
 40
0.0
 40
0.0
 40
0.0
 40
0.7273675739554671
 40
1.7065896374626206
 40
2.9387184666012995
 40
2.9387184666012995
 40
2.9387184666012995
 10
4485.8999967216741
 20
1372.6000040770441
 30
0.0
 10
4486.1387194651552
 20
1372.6054838012669
 30
0.0
 10
4487.1156260260923
 20
1372.627908051521
 30
0.0
 10
4488.0674885010521
 20
1372.8663796942869
 30
0.0
 10
4488.7867481553621
 20
1373.0465769769139
 30
0.0
 11
4485.8999967216741
 21
1372.6000040770441
 31
0.0
 11
4486.1831309024901
 21
1372.6065032367214
 31
0.0
 11
4486.5550879579732
 21
1372.6150412673073
 31
0.0
 11
4487.0808665470095
 21
1372.6510911338671
 31
0.0
 11
4487.5371261778801
 21
1372.7335071651189
 31
0.0
 11
4488.1147128338362
 21
1372.8782108826517
 31
0.0
 11
4488.7867481553621
 21
1373.0465769769139
 31
0.0
  0
SPLINE
  5
4BC
100
AcDbEntity
  8
0
  6
CONTINUOUS
 62
           3
100
AcDbSpline
210
0.0
220
0.0
230
1.0
 70
           0
 71
           3
 72
           8
 73
           5
 74
           7
 42
0.00000000001
 43
0.00000000001
 44
0.00000000001
 40
0.0
 40
0.0
 40
0.0
 40
1.2321298483018599
 40
2.2113525386980308
 40
2.9387203954175871
 40
2.9387203954175871
 40
2.9387203954175871
 10
4488.7867481555013
 20
1377.1534189582701
 30
0.0
 10
4488.0674886786428
 20
1377.3336196618179
 30
0.0
 10
4487.115626586532
 20
1377.5720957948361
 30
0.0
 10
4486.1387194830913
 20
1377.594519677024
 30
0.0
 10
4485.8999967216741
 20
1377.5999993086691
 30
0.0
 11
4488.7867481555013
 21
1377.1534189582701
 31
0.0
 11
4488.1147130094159
 21
1377.3217882464471
 31
0.0
 11
4487.5371265248777
 21
1377.4664947038825
 31
0.0
 11
4487.0808669612497
 21
1377.5489121656979
 31
0.0
 11
4486.5550881470599
 21
1377.5849623692363
 31
0.0
 11
4486.1831309587287
 21
1377.5935002579881
 31
0.0
 11
4485.8999967216741
 21
1377.5999993086691
 31
0.0
  0
SPLINE
  5
4BB
100
AcDbEntity
  8
0
  6
CONTINUOUS
 62
           3
100
AcDbSpline
210
0.0
220
0.0
230
1.0
 70
           0
 71
           3
 72
           8
 73
           5
 74
           7
 42
0.00000000001
 43
0.00000000001
 44
0.00000000001
 40
0.0
 40
0.0
 40
0.0
 40
1.247560420786705
 40
2.2257060852955108
 40
2.9354176594302999
 40
2.9354176594302999
 40
2.9354176594302999
 10
4485.8999967216741
 20
1377.5999993086691
 30
0.0
 10
4485.144340864721
 20
1377.545901007109
 30
0.0
 10
4484.1669013821602
 20
1377.475924952008
 30
0.0
 10
4483.2266017763623
 20
1377.2130630295751
 30
0.0
 10
4483.0132452878433
 20
1377.1534189582701
 30
0.0
 11
4485.8999967216741
 21
1377.5999993086691
 31
0.0
 11
4485.1962853948307
 21
1377.5496197778014
 31
0.0
 11
4484.5964631282068
 21
1377.5066777883185
 31
0.0
 11
4484.1380614015352
 21
1377.4455297788088
 31
0.0
 11
4483.6219797136127
 21
1377.3235914229003
 31
0.0
 11
4483.2721071385458
 21
1377.2257841100802
 31
0.0
 11
4483.0132452878433
 21
1377.1534189582701
 31
0.0
  0
SPLINE
  5
4BA
100
AcDbEntity
  8
0
  6
CONTINUOUS
 62
           3
100
AcDbSpline
210
0.0
220
0.0
230
1.0
 70
           0
 71
           3
 72
           8
 73
           5
 74
           7
 42
0.00000000001
 43
0.00000000001
 44
0.00000000001
 40
0.0
 40
0.0
 40
0.0
 40
0.2779454797461732
 40
0.786282538690261
 40
1.5429638907227319
 40
1.5429638907227319
 40
1.5429638907227319
 10
4481.5698696873451
 20
1359.9999994040511
 30
0.0
 10
4481.6040862319223
 20
1360.000445096309
 30
0.0
 10
4482.09149695003
 20
1360.0067939309649
 30
0.0
 10
4482.5691364171953
 20
1360.2346897854709
 30
0.0
 10
4483.0132452878433
 20
1360.4465872050271
 30
0.0
 11
4481.5698696873451
 21
1359.9999994040511
 31
0.0
 11
4481.6386061814956
 21
1360.0008947406113
 31
0.0
 11
4481.7763825747907
 21
1360.0026893657764
 31
0.0
 11
4482.0607022116073
 21
1360.0286623000204
 31
0.0
 11
4482.2834323715761
 21
1360.0983719723752
 31
0.0
 11
4482.6087376234527
 21
1360.253584687086
 31
0.0
 11
4483.0132452878433
 21
1360.4465872050271
 31
0.0
  0
SPLINE
  5
4B9
100
AcDbEntity
  8
0
  6
CONTINUOUS
 62
           3
100
AcDbSpline
210
0.0
220
0.0
230
1.0
 70
           0
 71
           3
 72
           8
 73
           5
 74
           7
 42
0.00000000001
 43
0.00000000001
 44
0.00000000001
 40
0.0
 40
0.0
 40
0.0
 40
0.2779462752374703
 40
0.7862820883289581
 40
1.5429577306143445
 40
1.5429577306143445
 40
1.5429577306143445
 10
4481.5698696873451
 20
1364.999994635675
 30
0.0
 10
4481.5356531390316
 20
1364.9995489277919
 30
0.0
 10
4481.0482408408443
 20
1364.993199850665
 30
0.0
 10
4480.5706021281812
 20
1364.7653118774861
 30
0.0
 10
4480.1264938539716
 20
1364.5534217359191
 30
0.0
 11
4481.5698696873451
 21
1364.999994635675
 31
0.0
 11
4481.5011329028039
 21
1364.9990992640408
 31
0.0
 11
4481.363355645808
 21
1364.997304564904
 31
0.0
 11
4481.0790356162615
 21
1364.9713322408627
 31
0.0
 11
4480.8563051375477
 21
1364.9016246972169
 31
0.0
 11
4480.5310008119704
 21
1364.746417547027
 31
0.0
 11
4480.1264938539716
 21
1364.5534217359191
 31
0.0
  0
SPLINE
  5
4B8
100
AcDbEntity
  8
0
  6
CONTINUOUS
 62
           3
100
AcDbSpline
210
0.0
220
0.0
230
1.0
 70
           0
 71
           3
 72
           8
 73
           5
 74
           7
 42
0.00000000001
 43
0.00000000001
 44
0.00000000001
 40
0.0
 40
0.0
 40
0.0
 40
0.2779464854693972
 40
0.7862840844054899
 40
1.5429642659458063
 40
1.5429642659458063
 40
1.5429642659458063
 10
4490.2301237559632
 20
1359.999999403924
 30
0.0
 10
4490.2643403053626
 20
1360.000445099427
 30
0.0
 10
4490.7517530244522
 20
1360.0067940036561
 30
0.0
 10
4491.2293915039991
 20
1360.234689787618
 30
0.0
 10
4491.6734995893639
 20
1360.4465872051251
 30
0.0
 11
4490.2301237559632
 21
1359.999999403924
 31
0.0
 11
4490.2988605017463
 21
1360.0008947499937
 31
0.0
 11
4490.4366376402968
 21
1360.0026893971967
 31
0.0
 11
4490.7209580094714
 21
1360.0286623910381
 31
0.0
 11
4490.9436883486815
 21
1360.0983721596431
 31
0.0
 11
4491.2689927365109
 21
1360.2535847350009
 31
0.0
 11
4491.6734995893639
 21
1360.4465872051251
 31
0.0
  0
SPLINE
  5
4B7
100
AcDbEntity
  8
0
  6
CONTINUOUS
 62
           3
100
AcDbSpline
210
0.0
220
0.0
230
1.0
 70
           0
 71
           3
 72
           8
 73
           5
 74
           7
 42
0.00000000001
 43
0.00000000001
 44
0.00000000001
 40
0.0
 40
0.0
 40
0.0
 40
0.2779452695532114
 40
0.7862805426556947
 40
1.5429573555003924
 40
1.5429573555003924
 40
1.5429573555003924
 10
4490.2301237560032
 20
1364.999994635675
 30
0.0
 10
4490.1959072124728
 20
1364.999548930906
 30
0.0
 10
4489.7084969152711
 20
1364.993199923355
 30
0.0
 10
4489.2308572149823
 20
1364.7653118796361
 30
0.0
 10
4488.7867481555013
 20
1364.5534217358611
 30
0.0
 11
4490.2301237560032
 21
1364.999994635675
 31
0.0
 11
4490.1613872230628
 21
1364.999099273452
 31
0.0
 11
4490.0236107113014
 21
1364.9973045963213
 31
0.0
 11
4489.7392914141274
 21
1364.9713323318792
 31
0.0
 11
4489.5165611146667
 21
1364.901624884486
 31
0.0
 11
4489.1912559250331
 21
1364.7464175949049
 31
0.0
 11
4488.7867481555013
 21
1364.5534217358611
 31
0.0
  0
SPLINE
  5
4B6
100
AcDbEntity
  8
0
  6
CONTINUOUS
 62
           3
100
AcDbSpline
210
0.0
220
0.0
230
1.0
 70
           0
 71
           3
 72
           8
 73
           5
 74
           7
 42
0.00000000001
 43
0.00000000001
 44
0.00000000001
 40
0.0
 40
0.0
 40
0.0
 40
0.7097126556357649
 40
1.6878594213848628
 40
2.9354211178788949
 40
2.9354211178788949
 40
2.9354211178788949
 10
4483.0132452878433
 20
1360.4465872050271
 30
0.0
 10
4483.2266017037609
 20
1360.3869403699309
 30
0.0
 10
4484.1668989125819
 20
1360.124066847623
 30
0.0
 10
4485.144340064252
 20
1360.0540946716201
 30
0.0
 10
4485.8999967216741
 20
1359.9999994040511
 30
0.0
 11
4483.0132452878433
 21
1360.4465872050271
 31
0.0
 11
4483.2721068549226
 21
1360.3742187546186
 31
0.0
 11
4483.6219787243253
 21
1360.2764070735855
 31
0.0
 11
4484.13805949163
 21
1360.154464120784
 31
0.0
 11
4484.5964614170316
 21
1360.0933157143049
 31
0.0
 11
4485.1962845668022
 21
1360.0503761153991
 31
0.0
 11
4485.8999967216741
 21
1359.9999994040511
 31
0.0
  0
SPLINE
  5
4B5
100
AcDbEntity
  8
0
  6
CONTINUOUS
 62
           3
100
AcDbSpline
210
0.0
220
0.0
230
1.0
 70
           0
 71
           3
 72
           8
 73
           5
 74
           7
 42
0.00000000001
 43
0.00000000001
 44
0.00000000001
 40
0.0
 40
0.0
 40
0.0
 40
0.7273681394901673
 40
1.706591456787782
 40
2.9387223240343676
 40
2.9387223240343676
 40
2.9387223240343676
 10
4485.8999967216741
 20
1359.9999994040511
 30
0.0
 10
4486.138719501032
 20
1360.005478943119
 30
0.0
 10
4487.1156271469799
 20
1360.027902457244
 30
0.0
 10
4488.0674888562426
 20
1360.2663830805141
 30
0.0
 10
4488.7867481553621
 20
1360.4465872051251
 30
0.0
 11
4485.8999967216741
 21
1359.9999994040511
 31
0.0
 11
4486.1831310149719
 21
1360.0064983457362
 31
0.0
 11
4486.5550883361511
 21
1360.0150360926552
 31
0.0
 11
4487.08086737551
 21
1360.0510866331767
 31
0.0
 11
4487.53712687193
 21
1360.1335055255638
 31
0.0
 11
4488.1147131849439
 21
1360.2782147229291
 31
0.0
 11
4488.7867481553621
 21
1360.4465872051251
 31
0.0
  0
SPLINE
  5
4B4
100
AcDbEntity
  8
0
  6
CONTINUOUS
 62
           3
100
AcDbSpline
210
0.0
220
0.0
230
1.0
 70
           0
 71
           3
 72
           8
 73
           5
 74
           7
 42
0.00000000001
 43
0.00000000001
 44
0.00000000001
 40
0.0
 40
0.0
 40
0.0
 40
1.2321288292603985
 40
2.2113508927679595
 40
2.9387184667233379
 40
2.9387184667233379
 40
2.9387184667233379
 10
4488.7867481555013
 20
1364.5534217358611
 30
0.0
 10
4488.0674885010521
 20
1364.7336190184319
 30
0.0
 10
4487.1156260260923
 20
1364.972090661201
 30
0.0
 10
4486.1387194651552
 20
1364.9945149114569
 30
0.0
 10
4485.8999967216741
 20
1364.999994635675
 30
0.0
 11
4488.7867481555013
 21
1364.5534217358611
 31
0.0
 11
4488.1147128338653
 21
1364.721787830083
 31
0.0
 11
4487.5371261778564
 21
1364.8664915476074
 31
0.0
 11
4487.0808665470031
 21
1364.9489075788563
 31
0.0
 11
4486.5550879579732
 21
1364.9849574454156
 31
0.0
 11
4486.1831309024892
 21
1364.993495476001
 31
0.0
 11
4485.8999967216741
 21
1364.999994635675
 31
0.0
  0
SPLINE
  5
4B3
100
AcDbEntity
  8
0
  6
CONTINUOUS
 62
           3
100
AcDbSpline
210
0.0
220
0.0
230
1.0
 70
           0
 71
           3
 72
           8
 73
           5
 74
           7
 42
0.00000000001
 43
0.00000000001
 44
0.00000000001
 40
0.0
 40
0.0
 40
0.0
 40
1.2475591451559556
 40
2.2257037084931905
 40
2.9354142011739528
 40
2.9354142011739528
 40
2.9354142011739528
 10
4485.8999967216741
 20
1364.999994635675
 30
0.0
 10
4485.1443416651709
 20
1364.945893300096
 30
0.0
 10
4484.166903851652
 20
1364.87591336586
 30
0.0
 10
4483.2266018489536
 20
1364.613063043369
 30
0.0
 10
4483.0132452878433
 20
1364.5534217358611
 30
0.0
 11
4485.8999967216741
 21
1364.999994635675
 31
0.0
 11
4485.1962862228356
 21
1364.9496122852615
 31
0.0
 11
4484.5964648393274
 21
1364.9066679051791
 31
0.0
 11
4484.1380633113722
 21
1364.8455202926368
 31
0.0
 11
4483.6219807028574
 21
1364.7235865336484
 31
0.0
 11
4483.2721074221527
 21
1364.6257835890619
 31
0.0
 11
4483.0132452878433
 21
1364.5534217358611
 31
0.0
  0
SPLINE
  5
4B2
100
AcDbEntity
  8
0
  6
CONTINUOUS
 62
           3
100
AcDbSpline
210
0.0
220
0.0
230
1.0
 70
           0
 71
           3
 72
           8
 73
           5
 74
           7
 42
0.00000000001
 43
0.00000000001
 44
0.00000000001
 40
0.0
 40
0.0
 40
0.0
 40
0.2779464854660684
 40
0.7862840844021938
 40
1.5429642659218505
 40
1.5429642659218505
 40
1.5429642659218505
 10
4490.2301237559632
 20
1359.999999403924
 30
0.0
 10
4490.2643403053626
 20
1359.9995537086791
 30
0.0
 10
4490.7517530244522
 20
1359.993204804445
 30
0.0
 10
4491.2293915039991
 20
1359.7653090204831
 30
0.0
 10
4491.6734995893639
 20
1359.553411603024
 30
0.0
 11
4490.2301237559632
 21
1359.999999403924
 31
0.0
 11
4490.2988605017454
 21
1359.9991040580476
 31
0.0
 11
4490.4366376402959
 21
1359.9973094109075
 31
0.0
 11
4490.7209580094714
 21
1359.9713364170634
 31
0.0
 11
4490.9436883486851
 21
1359.9016266484564
 31
0.0
 11
4491.2689927365118
 21
1359.7464140731117
 31
0.0
 11
4491.6734995893639
 21
1359.553411603024
 31
0.0
  0
SPLINE
  5
4B1
100
AcDbEntity
  8
0
  6
CONTINUOUS
 62
           3
100
AcDbSpline
210
0.0
220
0.0
230
1.0
 70
           0
 71
           3
 72
           8
 73
           5
 74
           7
 42
0.00000000001
 43
0.00000000001
 44
0.00000000001
 40
0.0
 40
0.0
 40
0.0
 40
0.3778155284981008
 40
0.8942062233970229
 40
1.5357514174676532
 40
1.5357514174676532
 40
1.5357514174676532
 10
4480.1264938539716
 20
1359.553411603024
 30
0.0
 10
4480.2210118970333
 20
1359.6064716909079
 30
0.0
 10
4480.6908817949006
 20
1359.8702450113769
 30
0.0
 10
4481.1795227343018
 20
1359.9423771862021
 30
0.0
 10
4481.5698696873451
 20
1359.9999994040511
 30
0.0
 11
4480.1264938539716
 21
1359.553411603024
 31
0.0
 11
4480.2470141544054
 21
1359.6210687140303
 31
0.0
 11
4480.4195389695851
 21
1359.717919871282
 31
0.0
 11
4480.6775244143273
 21
1359.8402057052394
 31
0.0
 11
4480.9087950979228
 21
1359.9024129269214
 31
0.0
 11
4481.2094275634681
 21
1359.9467916758442
 31
0.0
 11
4481.5698696873451
 21
1359.9999994040511
 31
0.0
  0
SPLINE
  5
4B0
100
AcDbEntity
  8
0
  6
CONTINUOUS
 62
           3
100
AcDbSpline
210
0.0
220
0.0
230
1.0
 70
           0
 71
           3
 72
           8
 73
           5
 74
           7
 42
0.00000000001
 43
0.00000000001
 44
0.00000000001
 40
0.0
 40
0.0
 40
0.0
 40
0.6415450374771625
 40
1.157930368610419
 40
1.5357381749056065
 40
1.5357381749056065
 40
1.5357381749056065
 10
4481.5698696873451
 20
1355.0000041724229
 30
0.0
 10
4481.1795237086117
 20
1355.0576336938791
 30
0.0
 10
4480.6908846293591
 20
1355.1297749168871
 30
0.0
 10
4480.2210119621132
 20
1355.3935224482591
 30
0.0
 10
4480.1264938539716
 20
1355.446577072225
 30
0.0
 11
4481.5698696873451
 21
1355.0000041724229
 31
0.0
 11
4481.2094282457028
 21
1355.0532186768023
 31
0.0
 11
4480.9087958782429
 21
1355.0976031470284
 31
0.0
 11
4480.6775260473187
 21
1355.1598096979651
 31
0.0
 11
4480.4195390523128
 21
1355.2820858110579
 31
0.0
 11
4480.2470142076272
 21
1355.3789269449501
 31
0.0
 11
4480.1264938539716
 21
1355.446577072225
 31
0.0
  0
SPLINE
  5
4AF
100
AcDbEntity
  8
0
  6
CONTINUOUS
 62
           3
100
AcDbSpline
210
0.0
220
0.0
230
1.0
 70
           0
 71
           3
 72
           8
 73
           5
 74
           7
 42
0.00000000001
 43
0.00000000001
 44
0.00000000001
 40
0.0
 40
0.0
 40
0.0
 40
0.3539460334946967
 40
0.8643414136598664
 40
1.543106811398872
 40
1.543106811398872
 40
1.543106811398872
 10
4481.5698696873451
 20
1359.9999994040511
 30
0.0
 10
4481.6793238424216
 20
1359.9953935078329
 30
0.0
 10
4482.1676816710433
 20
1359.974843118742
 30
0.0
 10
4482.6438213484453
 20
1359.7375336343559
 30
0.0
 10
4483.0132452879689
 20
1359.553411603024
 30
0.0
 11
4481.5698696873451
 21
1359.9999994040511
 31
0.0
 11
4481.7019556855794
 21
1359.9944411463571
 31
0.0
 11
4481.879305370132
 21
1359.9869781657117
 31
0.0
 11
4482.1466781413865
 21
1359.9524131949277
 31
0.0
 11
4482.3720438533273
 21
1359.872988376515
 31
0.0
 11
4482.6682329595469
 21
1359.7253668120625
 31
0.0
 11
4483.0132452879689
 21
1359.553411603024
 31
0.0
  0
SPLINE
  5
4AE
100
AcDbEntity
  8
0
  6
CONTINUOUS
 62
           3
100
AcDbSpline
210
0.0
220
0.0
230
1.0
 70
           0
 71
           3
 72
           8
 73
           5
 74
           7
 42
0.00000000001
 43
0.00000000001
 44
0.00000000001
 40
0.0
 40
0.0
 40
0.0
 40
0.6787700534939581
 40
1.1891668948831349
 40
1.5431123743459025
 40
1.5431123743459025
 40
1.5431123743459025
 10
4483.0132452878433
 20
1355.446577072245
 30
0.0
 10
4482.6438214744021
 20
1355.262448371609
 30
0.0
 10
4482.1676820506209
 20
1355.025130336787
 30
0.0
 10
4481.6793238525843
 20
1355.0046045512629
 30
0.0
 10
4481.5698696873451
 20
1355.0000041724229
 30
0.0
 11
4483.0132452878433
 21
1355.446577072245
 31
0.0
 11
4482.6682329736359
 21
1355.2746155830098
 31
0.0
 11
4482.3720436578978
 21
1355.1269885165757
 31
0.0
 11
4482.1466781919444
 21
1355.0475647466112
 31
0.0
 11
4481.8793050086424
 21
1355.0130097962951
 31
0.0
 11
4481.7019556002888
 21
1355.0055557678111
 31
0.0
 11
4481.5698696873451
 21
1355.0000041724229
 31
0.0
  0
SPLINE
  5
4AD
100
AcDbEntity
  8
0
  6
CONTINUOUS
 62
           3
100
AcDbSpline
210
0.0
220
0.0
230
1.0
 70
           0
 71
           3
 72
           8
 73
           5
 74
           7
 42
0.00000000001
 43
0.00000000001
 44
0.00000000001
 40
0.0
 40
0.0
 40
0.0
 40
0.2779452695532395
 40
0.7862805426561887
 40
1.5429573556191825
 40
1.5429573556191825
 40
1.5429573556191825
 10
4490.2301237560032
 20
1355.0000041724229
 30
0.0
 10
4490.1959072124728
 20
1355.0004498771921
 30
0.0
 10
4489.7084969152711
 20
1355.006798884747
 30
0.0
 10
4489.2308572149823
 20
1355.2346869284679
 30
0.0
 10
4488.7867481553621
 20
1355.446577072225
 30
0.0
 11
4490.2301237560032
 21
1355.0000041724229
 31
0.0
 11
4490.1613872230628
 21
1355.0008995346461
 31
0.0
 11
4490.0236107113014
 21
1355.0026942117781
 31
0.0
 11
4489.7392914141319
 21
1355.0286664762202
 31
0.0
 11
4489.516561114684
 21
1355.0983739236085
 31
0.0
 11
4489.1912559250031
 21
1355.2535812131923
 31
0.0
 11
4488.7867481553621
 21
1355.446577072225
 31
0.0
  0
SPLINE
  5
4AC
100
AcDbEntity
  8
0
  6
CONTINUOUS
 62
           3
100
AcDbSpline
210
0.0
220
0.0
230
1.0
 70
           0
 71
           3
 72
           8
 73
           5
 74
           7
 42
0.00000000001
 43
0.00000000001
 44
0.00000000001
 40
0.0
 40
0.0
 40
0.0
 40
0.5558558490687735
 40
1.5343195422049356
 40
2.9385037456636738
 40
2.9385037456636738
 40
2.9385037456636738
 10
4485.8999967216741
 20
1355.0000041723231
 30
0.0
 10
4485.8315636362913
 20
1355.0004498783039
 30
0.0
 10
4484.8567416872402
 20
1355.006798910671
 30
0.0
 10
4483.901462916263
 20
1355.2346869292321
 30
0.0
 10
4483.0132452878433
 20
1355.446577072245
 30
0.0
 11
4485.8999967216741
 21
1355.0000041723231
 31
0.0
 11
4485.7603818762464
 21
1355.0009134863242
 31
0.0
 11
4485.4784035107268
 21
1355.0027500163651
 31
0.0
 11
4484.9140828960144
 21
1355.029182942221
 31
0.0
 11
4484.4644446988514
 21
1355.1003839311775
 31
0.0
 11
4483.8201539548045
 21
1355.2540837154716
 31
0.0
 11
4483.0132452878433
 21
1355.446577072245
 31
0.0
  0
SPLINE
  5
4AB
100
AcDbEntity
  8
0
  6
CONTINUOUS
 62
           3
100
AcDbSpline
210
0.0
220
0.0
230
1.0
 70
           0
 71
           3
 72
           8
 73
           5
 74
           7
 42
0.00000000001
 43
0.00000000001
 44
0.00000000001
 40
0.0
 40
0.0
 40
0.0
 40
0.5558562714151691
 40
1.5343210643708129
 40
2.9385072682931037
 40
2.9385072682931037
 40
2.9385072682931037
 10
4485.8999967216741
 20
1359.9999994040511
 30
0.0
 10
4485.9684298091433
 20
1359.999553710679
 30
0.0
 10
4486.9432526000228
 20
1359.993204851216
 30
0.0
 10
4487.8985309047421
 20
1359.765309021866
 30
0.0
 10
4488.7867481555013
 20
1359.5534116030699
 30
0.0
 11
4485.8999967216741
 21
1359.9999994040511
 31
0.0
 11
4486.0396116244046
 21
1359.9990901153003
 31
0.0
 11
4486.3215901576596
 21
1359.9972536357918
 31
0.0
 11
4486.8859111712845
 21
1359.9708199944791
 31
0.0
 11
4487.3355493274357
 21
1359.8996166396932
 31
0.0
 11
4487.9798398231051
 21
1359.7459115716238
 31
0.0
 11
4488.7867481555013
 21
1359.5534116030699
 31
0.0
  0
CIRCLE
  5
4AA
100
AcDbEntity
  8
1
  6
CONTINUOUS
 62
           7
100
AcDbCircle
 10
-0.000000000005
 20
5381.999999999997
 40
317.5
  0
CIRCLE
  5
4A9
100
AcDbEntity
  8
1
  6
CONTINUOUS
 62
           4
100
AcDbCircle
 10
-0.000000000007
 20
5381.999999999997
 40
84.123
  0
CIRCLE
  5
4A8
100
AcDbEntity
  8
1
  6
CONTINUOUS
 62
           4
100
AcDbCircle
 10
-0.000000000007
 20
5381.999999999997
 40
110.700000000001
  0
CIRCLE
  5
4A7
100
AcDbEntity
  8
1
  6
CONTINUOUS
 62
           4
100
AcDbCircle
 10
3655.000000000002
 20
1500.000000000003
 40
40.0
  0
CIRCLE
  5
4A6
100
AcDbEntity
  8
1
  6
CONTINUOUS
 62
           4
100
AcDbCircle
 10
3655.000000000002
 20
1500.000000000003
 40
10.0
  0
CIRCLE
  5
4A5
100
AcDbEntity
  8
1
  6
CONTINUOUS
 62
           4
100
AcDbCircle
 10
3875.000000000002
 20
1459.999999999993
 40
15.0
  0
CIRCLE
  5
4A4
100
AcDbEntity
  8
1
  6
CONTINUOUS
 62
           4
100
AcDbCircle
 10
3935.000000000002
 20
1404.999999999993
 40
15.0
  0
CIRCLE
  5
4A3
100
AcDbEntity
  8
1
  6
CONTINUOUS
 62
           4
100
AcDbCircle
 10
3935.000000000002
 20
1444.999999999993
 40
15.0
  0
CIRCLE
  5
4A2
100
AcDbEntity
  8
1
  6
CONTINUOUS
 62
           3
100
AcDbCircle
 10
8.472255321879
 20
1295.200848327052
 40
40.0
  0
CIRCLE
  5
4A1
100
AcDbEntity
  8
1
  6
CONTINUOUS
 62
           7
100
AcDbCircle
 10
-450.0
 20
4021.999999999998
 40
45.0
  0
CIRCLE
  5
4A0
100
AcDbEntity
  8
1
  6
CONTINUOUS
 62
           2
100
AcDbCircle
 10
4869.999999999999
 20
600.0
 40
8.350000000002
  0
CIRCLE
  5
49F
100
AcDbEntity
  8
1
  6
CONTINUOUS
 62
           7
100
AcDbCircle
 10
4869.999999999999
 20
600.0
 40
15.0
  0
CIRCLE
  5
49E
100
AcDbEntity
  8
1
  6
CONTINUOUS
 62
           2
100
AcDbCircle
 10
3875.000000000002
 20
1079.499999999994
 40
45.000000000001
  0
ARC
  5
49D
100
AcDbEntity
  8
7
  6
CONTINUOUS
 62
           7
100
AcDbCircle
 10
5285.799999999998
 20
2898.111357
 40
6.200000000001
100
AcDbArc
 50
0.0
 51
57.318084999993
  0
ARC
  5
49C
100
AcDbEntity
  8
7
  6
CONTINUOUS
 62
           7
100
AcDbCircle
 10
5264.600000000001
 20
2919.799999999998
 40
3.199999999997
100
AcDbArc
 50
0.0
 51
90.0
  0
ARC
  5
49B
100
AcDbEntity
  8
7
  6
CONTINUOUS
 62
           7
100
AcDbCircle
 10
5269.799999999998
 20
2920.041133999998
 40
2.0
100
AcDbArc
 50
180.0
 51
-125.000000000024
  0
ARC
  5
49A
100
AcDbEntity
  8
7
  6
CONTINUOUS
 62
           7
100
AcDbCircle
 10
5097.900000000001
 20
2919.799999999998
 40
3.200000000002
100
AcDbArc
 50
90.0
 51
180.0
  0
ARC
  5
499
100
AcDbEntity
  8
7
  6
CONTINUOUS
 62
           7
100
AcDbCircle
 10
5092.699999999996
 20
2920.041133999998
 40
2.0
100
AcDbArc
 50
-54.99999999989
 51
0.0
  0
ARC
  5
498
100
AcDbEntity
  8
7
  6
CONTINUOUS
 62
           7
100
AcDbCircle
 10
5072.076812999999
 20
2903.500000000002
 40
2.0
100
AcDbArc
 50
-90.0
 51
-55.000000000058
  0
ARC
  5
497
100
AcDbEntity
  8
7
  6
CONTINUOUS
 62
           7
100
AcDbCircle
 10
5071.199999999996
 20
2898.299999999998
 40
3.200000000004
100
AcDbArc
 50
90.0
 51
180.0
  0
ARC
  5
496
100
AcDbEntity
  8
1
  6
CONTINUOUS
 62
           7
100
AcDbCircle
 10
-0.000000000007
 20
5381.999999999997
 40
125.0
100
AcDbArc
 50
19.47546158221
 51
90.0
  0
ARC
  5
495
100
AcDbEntity
  8
1
  6
CONTINUOUS
 62
           7
100
AcDbCircle
 10
-0.000000000007
 20
5381.999999999997
 40
125.0
100
AcDbArc
 50
90.0
 51
-19.47546158221
  0
ARC
  5
494
100
AcDbEntity
  8
1
  6
CONTINUOUS
 62
           7
100
AcDbCircle
 10
54.999999999995
 20
5366.999999999996
 40
359.999999999999
100
AcDbArc
 50
-1.498629881627
 51
0.0
  0
ARC
  5
493
100
AcDbEntity
  8
1
  6
CONTINUOUS
 62
           7
100
AcDbCircle
 10
160.551161566782
 20
5711.178663330397
 40
5.000000000001
100
AcDbArc
 50
163.348397297207
 51
-17.447383814422
  0
ARC
  5
492
100
AcDbEntity
  8
1
  6
CONTINUOUS
 62
           7
100
AcDbCircle
 10
54.999999999995
 20
5366.999999999996
 40
360.0
100
AcDbArc
 50
18.095065654746
 51
72.15472562971
  0
ARC
  5
491
100
AcDbEntity
  8
1
  6
CONTINUOUS
 62
           7
100
AcDbCircle
 10
54.999999999995
 20
5366.999999999996
 40
360.0
100
AcDbArc
 50
0.0
 51
16.503503431389
  0
ARC
  5
490
100
AcDbEntity
  8
1
  6
CONTINUOUS
 62
           7
100
AcDbCircle
 10
398.715224597894
 20
5474.050662677138
 40
4.999999999999
100
AcDbArc
 50
107.697175098898
 51
-73.098606012773
  0
ARC
  5
48F
100
AcDbEntity
  8
1
  6
CONTINUOUS
 62
           7
100
AcDbCircle
 10
413.419036500105
 20
5309.10306952653
 40
5.0
100
AcDbArc
 50
90.0
 51
-95.092511460495
  0
ARC
  5
48E
100
AcDbEntity
  8
1
  6
CONTINUOUS
 62
           7
100
AcDbCircle
 10
413.419036500105
 20
5309.10306952653
 40
5.000000000002
100
AcDbArc
 50
85.537115658274
 51
90.0
  0
ARC
  5
48D
100
AcDbEntity
  8
1
  6
CONTINUOUS
 62
           7
100
AcDbCircle
 10
-42.747816968462
 20
5344.499999999997
 40
457.508251836065
100
AcDbArc
 50
-89.655876673074
 51
-5.063201692938
  0
ARC
  5
48C
100
AcDbEntity
  8
1
  6
CONTINUOUS
 62
           7
100
AcDbCircle
 10
-40.000000000005
 20
5431.999999999996
 40
540.0
100
AcDbArc
 50
180.0
 51
-175.217743666854
  0
ARC
  5
48B
100
AcDbEntity
  8
1
  6
CONTINUOUS
 62
           7
100
AcDbCircle
 10
-577.680202350808
 20
5381.999999999997
 40
5.0
100
AcDbArc
 50
-84.421966108666
 51
90.0
  0
ARC
  5
48A
100
AcDbEntity
  8
1
  6
CONTINUOUS
 62
           7
100
AcDbCircle
 10
-577.680202350808
 20
5381.999999999997
 40
5.0
100
AcDbArc
 50
90.0
 51
95.047515519199
  0
ARC
  5
489
100
AcDbEntity
  8
1
  6
CONTINUOUS
 62
           7
100
AcDbCircle
 10
-37.23109292452
 20
5429.499999999996
 40
542.507066171854
100
AcDbArc
 50
-174.449140676885
 51
-90.292433754283
  0
ARC
  5
488
100
AcDbEntity
  8
1
  6
CONTINUOUS
 62
           7
100
AcDbCircle
 10
54.999999999995
 20
5366.999999999996
 40
360.000000000001
100
AcDbArc
 50
73.746287853067
 51
93.901683355293
  0
ARC
  5
487
100
AcDbEntity
  8
1
  6
CONTINUOUS
 62
           7
100
AcDbCircle
 10
-40.000000000005
 20
5346.999999999996
 40
454.999999999998
100
AcDbArc
 50
-4.148070782362
 51
1.333022116547
  0
ARC
  5
486
100
AcDbEntity
  8
7
  6
CONTINUOUS
 62
           7
100
AcDbCircle
 10
-105.799999999999
 20
2898.411357
 40
6.200000000001
100
AcDbArc
 50
122.681914999995
 51
180.0
  0
ARC
  5
485
100
AcDbEntity
  8
7
  6
CONTINUOUS
 62
           7
100
AcDbCircle
 10
-84.75
 20
2919.949999999999
 40
3.053686296922
100
AcDbArc
 50
87.184443315762
 51
177.184443315769
  0
ARC
  5
484
100
AcDbEntity
  8
7
  6
CONTINUOUS
 62
           7
100
AcDbCircle
 10
-89.799999999999
 20
2920.341134000002
 40
2.0
100
AcDbArc
 50
-55.000000000028
 51
0.0
  0
ARC
  5
483
100
AcDbEntity
  8
7
  6
CONTINUOUS
 62
           7
100
AcDbCircle
 10
82.250000000004
 20
2919.949999999999
 40
3.053686296918
100
AcDbArc
 50
2.815556684232
 51
92.815556684237
  0
ARC
  5
482
100
AcDbEntity
  8
7
  6
CONTINUOUS
 62
           7
100
AcDbCircle
 10
87.300000000001
 20
2920.341134000002
 40
2.0
100
AcDbArc
 50
180.0
 51
-124.999999999971
  0
ARC
  5
481
100
AcDbEntity
  8
7
  6
CONTINUOUS
 62
           7
100
AcDbCircle
 10
107.923187
 20
2903.800000000002
 40
2.0
100
AcDbArc
 50
-124.999999999985
 51
-90.0
  0
ARC
  5
480
100
AcDbEntity
  8
7
  6
CONTINUOUS
 62
           7
100
AcDbCircle
 10
108.800000000001
 20
2898.6
 40
3.199999999999
100
AcDbArc
 50
0.0
 51
90.0
  0
ARC
  5
47F
100
AcDbEntity
  8
1
  6
CONTINUOUS
 62
           4
100
AcDbCircle
 10
3611.500000000002
 20
1456.500000000003
 40
10.000000000001
100
AcDbArc
 50
134.99999999999
 51
-44.999999999998
  0
ARC
  5
47E
100
AcDbEntity
  8
1
  6
CONTINUOUS
 62
           4
100
AcDbCircle
 10
3698.500000000002
 20
1456.500000000003
 40
9.999999999999
100
AcDbArc
 50
-135.0
 51
45.000000000007
  0
ARC
  5
47D
100
AcDbEntity
  8
1
  6
CONTINUOUS
 62
           4
100
AcDbCircle
 10
3698.500000000002
 20
1543.500000000003
 40
9.999999999999
100
AcDbArc
 50
-44.999999999998
 51
134.99999999999
  0
ARC
  5
47C
100
AcDbEntity
  8
1
  6
CONTINUOUS
 62
           4
100
AcDbCircle
 10
3611.500000000002
 20
1543.500000000003
 40
10.000000000001
100
AcDbArc
 50
45.000000000007
 51
-135.0
  0
ARC
  5
47B
100
AcDbEntity
  8
1
  6
CONTINUOUS
 62
           4
100
AcDbCircle
 10
3655.000000000002
 20
1500.000000000003
 40
50.000000000001
100
AcDbArc
 50
146.536959032816
 51
-146.536959032816
  0
ARC
  5
47A
100
AcDbEntity
  8
1
  6
CONTINUOUS
 62
           4
100
AcDbCircle
 10
3655.000000000002
 20
1500.000000000003
 40
49.999999999999
100
AcDbArc
 50
-33.463040967185
 51
33.463040967185
  0
ARC
  5
479
100
AcDbEntity
  8
1
  6
CONTINUOUS
 62
           4
100
AcDbCircle
 10
3655.000000000002
 20
1500.000000000003
 40
50.0
100
AcDbArc
 50
-123.463040967184
 51
-56.536959032815
  0
ARC
  5
478
100
AcDbEntity
  8
1
  6
CONTINUOUS
 62
           4
100
AcDbCircle
 10
3655.000000000002
 20
1500.000000000003
 40
50.000000000001
100
AcDbArc
 50
56.536959032816
 51
123.463040967183
  0
ARC
  5
477
100
AcDbEntity
  8
1
  6
CONTINUOUS
 62
           3
100
AcDbCircle
 10
4990.163567691042
 20
1925.000000000003
 40
9.499999999998
100
AcDbArc
 50
-124.797812779173
 51
0.0
  0
ARC
  5
476
100
AcDbEntity
  8
1
  6
CONTINUOUS
 62
           3
100
AcDbCircle
 10
4990.163567691042
 20
1925.000000000003
 40
9.5
100
AcDbArc
 50
0.0
 51
125.916957371441
  0
ARC
  5
475
100
AcDbEntity
  8
1
  6
CONTINUOUS
 62
           3
100
AcDbCircle
 10
4990.163567691042
 20
1925.000000000003
 40
5.87183499506
100
AcDbArc
 50
0.0
 51
38.59971391793
  0
ARC
  5
474
100
AcDbEntity
  8
1
  6
CONTINUOUS
 62
           3
100
AcDbCircle
 10
4990.163567691042
 20
1925.000000000003
 40
5.871834995068
100
AcDbArc
 50
38.59971391793
 51
90.0
  0
ARC
  5
473
100
AcDbEntity
  8
1
  6
CONTINUOUS
 62
           3
100
AcDbCircle
 10
4990.163567691042
 20
1925.000000000003
 40
5.871834995066
100
AcDbArc
 50
-90.0
 51
0.0
  0
ARC
  5
472
100
AcDbEntity
  8
0
  6
CONTINUOUS
 62
           3
100
AcDbCircle
 10
4548.399996721513
 20
1368.000000000116
 40
2.5
100
AcDbArc
 50
0.0
 51
180.0
  0
ARC
  5
471
100
AcDbEntity
  8
0
  6
CONTINUOUS
 62
           3
100
AcDbCircle
 10
4548.399996721513
 20
1631.999999999901
 40
2.499999999992
100
AcDbArc
 50
180.0
 51
0.0
  0
ARC
  5
470
100
AcDbEntity
  8
0
  6
CONTINUOUS
 62
           3
100
AcDbCircle
 10
4423.399996721823
 20
1631.999999999901
 40
2.5
100
AcDbArc
 50
180.0
 51
0.0
  0
ARC
  5
46F
100
AcDbEntity
  8
0
  6
CONTINUOUS
 62
           3
100
AcDbCircle
 10
4423.399996721823
 20
1368.000000000116
 40
2.49999999999
100
AcDbArc
 50
0.0
 51
180.0
  0
ARC
  5
46E
100
AcDbEntity
  8
0
  6
CONTINUOUS
 62
           3
100
AcDbCircle
 10
4427.899996721813
 20
1508.999999999999
 40
0.999999999996
100
AcDbArc
 50
-90.0
 51
90.0
  0
ARC
  5
46D
100
AcDbEntity
  8
0
  6
CONTINUOUS
 62
           3
100
AcDbCircle
 10
4427.899996721813
 20
1431.000000000064
 40
1.0
100
AcDbArc
 50
-90.0
 51
90.0
  0
ARC
  5
46C
100
AcDbEntity
  8
0
  6
CONTINUOUS
 62
           3
100
AcDbCircle
 10
4427.899996721813
 20
1409.000000000181
 40
0.999999999997
100
AcDbArc
 50
-90.0
 51
90.0
  0
ARC
  5
46B
100
AcDbEntity
  8
0
  6
CONTINUOUS
 62
           3
100
AcDbCircle
 10
4543.899996721521
 20
1409.000000000181
 40
1.0
100
AcDbArc
 50
90.0
 51
-90.0
  0
ARC
  5
46A
100
AcDbEntity
  8
0
  6
CONTINUOUS
 62
           3
100
AcDbCircle
 10
4543.899996721521
 20
1431.000000000064
 40
0.999999999997
100
AcDbArc
 50
90.0
 51
-90.0
  0
ARC
  5
469
100
AcDbEntity
  8
0
  6
CONTINUOUS
 62
           3
100
AcDbCircle
 10
4543.899996721521
 20
1508.999999999999
 40
1.0
100
AcDbArc
 50
90.0
 51
-90.0
  0
ARC
  5
468
100
AcDbEntity
  8
0
  6
CONTINUOUS
 62
           3
100
AcDbCircle
 10
4543.899996721521
 20
1530.999999999882
 40
1.0
100
AcDbArc
 50
90.0
 51
-90.0
  0
ARC
  5
467
100
AcDbEntity
  8
0
  6
CONTINUOUS
 62
           3
100
AcDbCircle
 10
4427.899996721813
 20
1530.999999999882
 40
0.999999999997
100
AcDbArc
 50
-90.0
 51
90.0
  0
ARC
  5
466
100
AcDbEntity
  8
0
  6
CONTINUOUS
 62
           3
100
AcDbCircle
 10
4492.373499413461
 20
1389.999999999999
 40
0.900000000002
100
AcDbArc
 50
-90.0
 51
-62.733955549567
  0
ARC
  5
465
100
AcDbEntity
  8
0
  6
CONTINUOUS
 62
           3
100
AcDbCircle
 10
4479.42649402987
 20
1389.999999999999
 40
0.900000000001
100
AcDbArc
 50
-117.26604445033
 51
-90.0
  0
ARC
  5
464
100
AcDbEntity
  8
0
  6
CONTINUOUS
 62
           3
100
AcDbCircle
 10
4485.899996721674
 20
1315.000000000061
 40
53.999999999965
100
AcDbArc
 50
180.0
 51
0.0
  0
ARC
  5
463
100
AcDbEntity
  8
0
  6
CONTINUOUS
 62
           3
100
AcDbCircle
 10
4485.899996721674
 20
1315.000000000061
 40
45.999999999971
100
AcDbArc
 50
180.0
 51
0.0
  0
ARC
  5
462
100
AcDbEntity
  8
0
  6
CONTINUOUS
 62
           3
100
AcDbCircle
 10
4485.899996721674
 20
1355.000000000224
 40
4.0
100
AcDbArc
 50
180.0
 51
0.0
  0
ARC
  5
461
100
AcDbEntity
  8
1
  6
CONTINUOUS
 62
           3
100
AcDbCircle
 10
8.472255321879
 20
1295.200848327052
 40
28.750000000008
100
AcDbArc
 50
83.827497999998
 51
96.17250199999
  0
ARC
  5
460
100
AcDbEntity
  8
1
  6
CONTINUOUS
 62
           3
100
AcDbCircle
 10
8.472255321879
 20
1295.200848327052
 40
28.749999999988
100
AcDbArc
 50
-96.172501999994
 51
-83.827497999994
  0
ARC
  5
45F
100
AcDbEntity
  8
1
  6
CONTINUOUS
 62
           3
100
AcDbCircle
 10
8.472255321879
 20
1295.200848327052
 40
10.75
100
AcDbArc
 50
0.0
 51
61.226493000003
  0
ARC
  5
45E
100
AcDbEntity
  8
1
  6
CONTINUOUS
 62
           3
100
AcDbCircle
 10
8.472255321879
 20
1295.200848327052
 40
10.750000000002
100
AcDbArc
 50
-61.226493000026
 51
0.0
  0
ARC
  5
45D
100
AcDbEntity
  8
1
  6
CONTINUOUS
 62
           3
100
AcDbCircle
 10
8.472255321879
 20
1295.200848327052
 40
10.749999999991
100
AcDbArc
 50
118.773506999969
 51
-118.773506999946
  0
ARC
  5
45C
100
AcDbEntity
  8
1
  6
CONTINUOUS
 62
           3
100
AcDbCircle
 10
12.510557321878
 20
1295.200848327052
 40
10.0
100
AcDbArc
 50
174.993206999976
 51
-174.993207000022
  0
ARC
  5
45B
100
AcDbEntity
  8
1
  6
CONTINUOUS
 62
           3
100
AcDbCircle
 10
4.433952321884
 20
1295.200848327052
 40
9.999999999999
100
AcDbArc
 50
-5.006792999977
 51
5.006793000024
  0
ARC
  5
45A
100
AcDbEntity
  8
1
  6
CONTINUOUS
 62
           3
100
AcDbCircle
 10
5.434752321879
 20
1323.287074327051
 40
0.500000000001
100
AcDbArc
 50
96.172501999321
 51
174.99320699843
  0
ARC
  5
459
100
AcDbEntity
  8
1
  6
CONTINUOUS
 62
           3
100
AcDbCircle
 10
11.509758321877
 20
1323.287074327051
 40
0.500000000005
100
AcDbArc
 50
5.006793001492
 51
83.827497998191
  0
ARC
  5
458
100
AcDbEntity
  8
1
  6
CONTINUOUS
 62
           3
100
AcDbCircle
 10
5.434752321879
 20
1267.11462232706
 40
0.499999999996
100
AcDbArc
 50
-174.993206999806
 51
-96.172501999321
  0
ARC
  5
457
100
AcDbEntity
  8
1
  6
CONTINUOUS
 62
           3
100
AcDbCircle
 10
11.509758321877
 20
1267.11462232706
 40
0.500000000003
100
AcDbArc
 50
-83.827497998191
 51
-5.006793000116
  0
LINE
  5
456
100
AcDbEntity
  8
1
  6
CONTINUOUS
 62
           7
100
AcDbLine
 10
5514.999999999999
 20
2550.5
 11
5514.999999999999
 21
2165.5
  0
LINE
  5
455
100
AcDbEntity
  8
1
  6
CONTINUOUS
 62
           2
100
AcDbLine
 10
5356.090589533996
 20
2537.0
 11
4951.153949290644
 21
2537.0
  0
LINE
  5
454
100
AcDbEntity
  8
1
  6
CONTINUOUS
 62
           2
100
AcDbLine
 10
5356.090589533996
 20
2177.0
 11
5356.090589533996
 21
2537.0
  0
LINE
  5
453
100
AcDbEntity
  8
1
  6
CONTINUOUS
 62
           2
100
AcDbLine
 10
4951.153949290644
 20
2177.0
 11
5356.090589533996
 21
2177.0
  0
LINE
  5
452
100
AcDbEntity
  8
1
  6
CONTINUOUS
 62
           2
100
AcDbLine
 10
4951.153949290644
 20
2537.0
 11
4951.153949290644
 21
2177.0
  0
LINE
  5
451
100
AcDbEntity
  8
1
  6
CONTINUOUS
 62
           4
100
AcDbLine
 10
5389.999999999999
 20
2587.199999999997
 11
5389.999999999999
 21
2589.500000000002
  0
LINE
  5
450
100
AcDbEntity
  8
1
  6
CONTINUOUS
 62
           4
100
AcDbLine
 10
5389.999999999999
 20
2589.500000000002
 11
5384.993063735607
 21
2594.500000000002
  0
LINE
  5
44F
100
AcDbEntity
  8
1
  6
CONTINUOUS
 62
           4
100
AcDbLine
 10
4974.999999999999
 20
2594.500000000002
 11
4969.999999999999
 21
2589.500000000002
  0
LINE
  5
44E
100
AcDbEntity
  8
1
  6
CONTINUOUS
 62
           4
100
AcDbLine
 10
5384.993063735607
 20
2594.500000000002
 11
4974.999999999999
 21
2594.500000000002
  0
LINE
  5
44D
100
AcDbEntity
  8
1
  6
DOT_CENTER
 62
           2
100
AcDbLine
 10
5179.999999999999
 20
2049.379684115578
 11
5179.999999999999
 21
2974.483879124648
  0
LINE
  5
44C
100
AcDbEntity
  8
1
  6
CONTINUOUS
 62
           7
100
AcDbLine
 10
5579.999999999999
 20
2132.500000000002
 11
5576.455357142858
 21
2127.500000000002
  0
LINE
  5
44B
100
AcDbEntity
  8
1
  6
CONTINUOUS
 62
           7
100
AcDbLine
 10
5576.455357142858
 20
2587.199999999997
 11
5579.999999999999
 21
2582.199999999997
  0
LINE
  5
44A
100
AcDbEntity
  8
1
  6
CONTINUOUS
 62
           7
100
AcDbLine
 10
5579.999999999999
 20
2132.500000000002
 11
5579.999999999999
 21
2165.5
  0
LINE
  5
449
100
AcDbEntity
  8
1
  6
CONTINUOUS
 62
           7
100
AcDbLine
 10
4653.155626997725
 20
2165.5
 11
4653.155626997727
 21
2127.500000000002
  0
LINE
  5
448
100
AcDbEntity
  8
1
  6
CONTINUOUS
 62
           7
100
AcDbLine
 10
5576.455357142858
 20
2587.199999999997
 11
5271.999999999999
 21
2587.199999999997
  0
LINE
  5
447
100
AcDbEntity
  8
1
  6
CONTINUOUS
 62
           7
100
AcDbLine
 10
4653.155626997727
 20
2587.199999999997
 11
4653.155626997727
 21
2550.5
  0
LINE
  5
446
100
AcDbEntity
  8
1
  6
CONTINUOUS
 62
           7
100
AcDbLine
 10
5579.999999999996
 20
2550.5
 11
4653.155626997727
 21
2550.5
  0
LINE
  5
445
100
AcDbEntity
  8
1
  6
CONTINUOUS
 62
           4
100
AcDbLine
 10
4969.999999999999
 20
2589.500000000002
 11
4969.999999999999
 21
2587.199999999997
  0
LINE
  5
444
100
AcDbEntity
  8
1
  6
DOT_CENTER
 62
           2
100
AcDbLine
 10
5715.456827495057
 20
2358.0
 11
4622.780498763487
 21
2358.0
  0
LINE
  5
443
100
AcDbEntity
  8
7
  6
CONTINUOUS
 62
           7
100
AcDbLine
 10
5294.999999999999
 20
2836.000000000002
 11
5179.999999999999
 21
2836.000000000002
  0
LINE
  5
442
100
AcDbEntity
  8
7
  6
CONTINUOUS
 62
           7
100
AcDbLine
 10
5289.147843000002
 20
2903.329780999999
 11
5268.652847999997
 21
2918.402830000001
  0
LINE
  5
441
100
AcDbEntity
  8
7
  6
CONTINUOUS
 62
           7
100
AcDbLine
 10
5264.600000000001
 20
2923.0
 11
5179.999999999999
 21
2923.0
  0
LINE
  5
440
100
AcDbEntity
  8
7
  6
CONTINUOUS
 62
           7
100
AcDbLine
 10
5294.999999999999
 20
2863.53753837337
 11
5294.999999999999
 21
2836.000000000002
  0
LINE
  5
43F
100
AcDbEntity
  8
7
  6
CONTINUOUS
 62
           7
100
AcDbLine
 10
5179.999999999999
 20
2836.000000000002
 11
5064.999999999999
 21
2836.000000000002
  0
LINE
  5
43E
100
AcDbEntity
  8
7
  6
CONTINUOUS
 62
           7
100
AcDbLine
 10
5064.999999999999
 20
2863.53753837337
 11
5067.999999999999
 21
2898.299999999998
  0
LINE
  5
43D
100
AcDbEntity
  8
7
  6
CONTINUOUS
 62
           7
100
AcDbLine
 10
5073.223966000001
 20
2901.861696
 11
5093.847153000002
 21
2918.402830000001
  0
LINE
  5
43C
100
AcDbEntity
  8
7
  6
CONTINUOUS
 62
           7
100
AcDbLine
 10
5097.900000000001
 20
2923.0
 11
5179.999999999999
 21
2923.0
  0
LINE
  5
43B
100
AcDbEntity
  8
2
  6
CONTINUOUS
 62
           7
100
AcDbLine
 10
5082.431358000001
 20
2596.500000000002
 11
5071.386335999999
 21
2621.699999999999
  0
LINE
  5
43A
100
AcDbEntity
  8
2
  6
CONTINUOUS
 62
           7
100
AcDbLine
 10
5071.386335999999
 20
2824.500000000002
 11
5071.386335999999
 21
2621.699999999999
  0
LINE
  5
439
100
AcDbEntity
  8
2
  6
CONTINUOUS
 62
           7
100
AcDbLine
 10
5076.179458999998
 20
2836.000000000002
 11
5071.386335999999
 21
2824.500000000002
  0
LINE
  5
438
100
AcDbEntity
  8
2
  6
CONTINUOUS
 62
           4
100
AcDbLine
 10
5273.249999999999
 20
2594.500000000002
 11
5273.249999999999
 21
2596.500000000002
  0
LINE
  5
437
100
AcDbEntity
  8
2
  6
CONTINUOUS
 62
           7
100
AcDbLine
 10
5288.613664
 20
2824.500000000002
 11
5288.613664
 21
2621.699999999999
  0
LINE
  5
436
100
AcDbEntity
  8
2
  6
CONTINUOUS
 62
           7
100
AcDbLine
 10
5288.613664
 20
2824.500000000002
 11
5283.820541
 21
2836.000000000002
  0
LINE
  5
435
100
AcDbEntity
  8
2
  6
CONTINUOUS
 62
           4
100
AcDbLine
 10
5277.568641999998
 20
2596.500000000002
 11
5082.431358000001
 21
2596.500000000002
  0
LINE
  5
434
100
AcDbEntity
  8
2
  6
CONTINUOUS
 62
           7
100
AcDbLine
 10
5288.613664
 20
2621.699999999999
 11
5277.568641999998
 21
2596.500000000002
  0
LINE
  5
433
100
AcDbEntity
  8
7
  6
CONTINUOUS
 62
           7
100
AcDbLine
 10
5291.999999999999
 20
2898.111357
 11
5294.999999999999
 21
2863.53753837337
  0
LINE
  5
432
100
AcDbEntity
  8
7
  6
CONTINUOUS
 62
           7
100
AcDbLine
 10
5064.999999999999
 20
2836.000000000002
 11
5064.999999999999
 21
2863.53753837337
  0
LINE
  5
431
100
AcDbEntity
  8
2
  6
CONTINUOUS
 62
           4
100
AcDbLine
 10
5086.749999999999
 20
2596.500000000002
 11
5086.749999999999
 21
2594.500000000002
  0
LINE
  5
430
100
AcDbEntity
  8
1
  6
CONTINUOUS
 62
           7
100
AcDbLine
 10
4921.800000000002
 20
2127.500000000002
 11
4921.800000000002
 21
2081.0
  0
LINE
  5
42F
100
AcDbEntity
  8
1
  6
CONTINUOUS
 62
           7
100
AcDbLine
 10
4653.155626997727
 20
2127.500000000002
 11
5106.869912712012
 21
2127.500000000005
  0
LINE
  5
42E
100
AcDbEntity
  8
1
  6
CONTINUOUS
 62
           7
100
AcDbLine
 10
4699.999999999992
 20
2550.5
 11
4699.999999999992
 21
2165.5
  0
LINE
  5
42D
100
AcDbEntity
  8
1
  6
CONTINUOUS
 62
           7
100
AcDbLine
 10
5438.2
 20
2081.0
 11
5438.2
 21
2127.500000000002
  0
LINE
  5
42C
100
AcDbEntity
  8
1
  6
CONTINUOUS
 62
           7
100
AcDbLine
 10
5579.999999999999
 20
2165.5
 11
5579.999999999999
 21
2582.199999999997
  0
LINE
  5
42B
100
AcDbEntity
  8
1
  6
CONTINUOUS
 62
           7
100
AcDbLine
 10
5660.000000000003
 20
2555.000000000001
 11
5660.000000000003
 21
2161.000000000002
  0
LINE
  5
42A
100
AcDbEntity
  8
1
  6
CONTINUOUS
 62
           4
100
AcDbLine
 10
5660.000000000003
 20
2555.000000000001
 11
5625.499999999999
 21
2555.000000000001
  0
LINE
  5
429
100
AcDbEntity
  8
1
  6
CONTINUOUS
 62
           4
100
AcDbLine
 10
5624.499999999999
 20
2590.500000000001
 11
5624.499999999999
 21
2556.000000000001
  0
LINE
  5
428
100
AcDbEntity
  8
1
  6
CONTINUOUS
 62
           4
100
AcDbLine
 10
5624.499999999999
 20
2590.500000000001
 11
5615.499999999999
 21
2590.500000000001
  0
LINE
  5
427
100
AcDbEntity
  8
1
  6
CONTINUOUS
 62
           4
100
AcDbLine
 10
5615.499999999999
 20
2556.000000000001
 11
5615.499999999999
 21
2590.500000000001
  0
LINE
  5
426
100
AcDbEntity
  8
1
  6
CONTINUOUS
 62
           4
100
AcDbLine
 10
5614.499999999999
 20
2555.000000000001
 11
5579.999999999996
 21
2555.000000000001
  0
LINE
  5
425
100
AcDbEntity
  8
1
  6
CONTINUOUS
 62
           4
100
AcDbLine
 10
5625.499999999999
 20
2161.000000000002
 11
5660.000000000003
 21
2161.000000000002
  0
LINE
  5
424
100
AcDbEntity
  8
1
  6
CONTINUOUS
 62
           4
100
AcDbLine
 10
5624.499999999999
 20
2160.000000000002
 11
5624.499999999999
 21
2125.500000000002
  0
LINE
  5
423
100
AcDbEntity
  8
1
  6
CONTINUOUS
 62
           4
100
AcDbLine
 10
5579.999999999996
 20
2161.000000000002
 11
5614.499999999999
 21
2161.000000000002
  0
LINE
  5
422
100
AcDbEntity
  8
1
  6
CONTINUOUS
 62
           4
100
AcDbLine
 10
5615.499999999999
 20
2125.500000000002
 11
5615.499999999999
 21
2160.000000000002
  0
LINE
  5
421
100
AcDbEntity
  8
1
  6
CONTINUOUS
 62
           4
100
AcDbLine
 10
5615.499999999999
 20
2550.500000000005
 11
5615.500000000003
 21
2165.500000000001
  0
LINE
  5
420
100
AcDbEntity
  8
1
  6
CONTINUOUS
 62
           4
100
AcDbLine
 10
5624.500000000003
 20
2165.5
 11
5624.499999999999
 21
2550.500000000005
  0
LINE
  5
41F
100
AcDbEntity
  8
1
  6
CONTINUOUS
 62
           4
100
AcDbLine
 10
5615.499999999999
 20
2125.500000000002
 11
5624.499999999999
 21
2125.500000000002
  0
LINE
  5
41E
100
AcDbEntity
  8
1
  6
CONTINUOUS
 62
           4
100
AcDbLine
 10
4882.499999999999
 20
2081.0
 11
4882.499999999999
 21
2075.0
  0
LINE
  5
41D
100
AcDbEntity
  8
1
  6
CONTINUOUS
 62
           4
100
AcDbLine
 10
5477.499999999999
 20
2081.0
 11
5477.499999999999
 21
2075.0
  0
LINE
  5
41C
100
AcDbEntity
  8
1
  6
CONTINUOUS
 62
           4
100
AcDbLine
 10
5477.499999999999
 20
2081.0
 11
4882.499999999999
 21
2081.0
  0
LINE
  5
41B
100
AcDbEntity
  8
1
  6
CONTINUOUS
 62
           7
100
AcDbLine
 10
5179.999999999999
 20
2075.0
 11
4882.499999999999
 21
2075.0
  0
LINE
  5
41A
100
AcDbEntity
  8
1
  6
CONTINUOUS
 62
           7
100
AcDbLine
 10
5477.499999999999
 20
2075.0
 11
5179.999999999999
 21
2075.0
  0
LINE
  5
419
100
AcDbEntity
  8
1
  6
CONTINUOUS
 62
           7
100
AcDbLine
 10
5579.999999999999
 20
2165.5
 11
4653.155626997725
 21
2165.5
  0
LINE
  5
418
100
AcDbEntity
  8
1
  6
CONTINUOUS
 62
           4
100
AcDbLine
 10
5294.999999999999
 20
2863.53753837337
 11
5064.999999999999
 21
2863.53753837337
  0
LINE
  5
417
100
AcDbEntity
  8
7
  6
CONTINUOUS
 62
           4
100
AcDbLine
 10
5071.199999999996
 20
2901.500000000002
 11
5290.992022999998
 21
2901.500000000002
  0
LINE
  5
416
100
AcDbEntity
  8
1
  6
CONTINUOUS
 62
           7
100
AcDbLine
 10
5619.999999999999
 20
2590.500000000001
 11
5619.999999999999
 21
2125.500000000002
  0
LINE
  5
415
100
AcDbEntity
  8
1
  6
CONTINUOUS
 62
           7
100
AcDbLine
 10
5579.999999999996
 20
2550.5
 11
5660.000000000003
 21
2550.500000000001
  0
LINE
  5
414
100
AcDbEntity
  8
1
  6
CONTINUOUS
 62
           7
100
AcDbLine
 10
5660.000000000003
 20
2165.500000000002
 11
5579.999999999996
 21
2165.500000000002
  0
LINE
  5
413
100
AcDbEntity
  8
1
  6
CONTINUOUS
 62
           7
100
AcDbLine
 10
5213.749999999999
 20
2670.0
 11
5146.249999999999
 21
2670.0
  0
LINE
  5
412
100
AcDbEntity
  8
1
  6
CONTINUOUS
 62
           7
100
AcDbLine
 10
5146.249999999999
 20
2750.0
 11
5213.749999999999
 21
2750.0
  0
LINE
  5
411
100
AcDbEntity
  8
1
  6
CONTINUOUS
 62
           7
100
AcDbLine
 10
5223.749999999999
 20
2740.0
 11
5223.749999999999
 21
2680.0
  0
LINE
  5
410
100
AcDbEntity
  8
1
  6
CONTINUOUS
 62
           7
100
AcDbLine
 10
5136.249999999999
 20
2680.0
 11
5136.249999999999
 21
2740.0
  0
LINE
  5
40F
100
AcDbEntity
  8
1
  6
CONTINUOUS
 62
           7
100
AcDbLine
 10
5271.999999999999
 20
2587.199999999997
 11
5271.999999999999
 21
2550.5
  0
LINE
  5
40E
100
AcDbEntity
  8
1
  6
CONTINUOUS
 62
           7
100
AcDbLine
 10
5106.869912712012
 20
2587.199999999997
 11
5106.869912712012
 21
2550.5
  0
LINE
  5
40D
100
AcDbEntity
  8
1
  6
CONTINUOUS
 62
           7
100
AcDbLine
 10
5106.869912712012
 20
2587.199999999997
 11
4653.155626997727
 21
2587.199999999997
  0
LINE
  5
40C
100
AcDbEntity
  8
1
  6
CONTINUOUS
 62
           7
100
AcDbLine
 10
5106.869912712012
 20
2165.500000000005
 11
5106.869912712012
 21
2127.500000000005
  0
LINE
  5
40B
100
AcDbEntity
  8
1
  6
CONTINUOUS
 62
           7
100
AcDbLine
 10
5271.999999999999
 20
2165.500000000005
 11
5271.999999999999
 21
2127.500000000005
  0
LINE
  5
40A
100
AcDbEntity
  8
1
  6
CONTINUOUS
 62
           7
100
AcDbLine
 10
5271.999999999999
 20
2127.500000000005
 11
5576.455357142858
 21
2127.500000000002
  0
LINE
  5
409
100
AcDbEntity
  8
1
  6
CONTINUOUS
 62
           7
100
AcDbLine
 10
5501.999999999999
 20
2127.500000000002
 11
5501.999999999999
 21
2165.5
  0
LINE
  5
408
100
AcDbEntity
  8
1
  6
CONTINUOUS
 62
           7
100
AcDbLine
 10
5501.999999999999
 20
2550.5
 11
5501.999999999999
 21
2587.199999999997
  0
LINE
  5
407
100
AcDbEntity
  8
1
  6
DOT_CENTER
 62
           2
100
AcDbLine
 10
-285.000000000011
 20
5927.267084004815
 11
-285.000000000011
 21
5584.460449015834
  0
LINE
  5
406
100
AcDbEntity
  8
1
  6
CONTINUOUS
 62
           4
100
AcDbLine
 10
39.999999999991
 20
5826.499999999997
 11
-610.000000000011
 21
5826.499999999997
  0
LINE
  5
405
100
AcDbEntity
  8
1
  6
CONTINUOUS
 62
           7
100
AcDbLine
 10
-610.000000000011
 20
5821.999999999997
 11
39.999999999991
 21
5821.999999999997
  0
LINE
  5
404
100
AcDbEntity
  8
1
  6
CONTINUOUS
 62
           4
100
AcDbLine
 10
-610.000000000011
 20
5817.499999999997
 11
39.999999999991
 21
5817.499999999997
  0
LINE
  5
403
100
AcDbEntity
  8
1
  6
CONTINUOUS
 62
           7
100
AcDbLine
 10
-610.000000000011
 20
5821.999999999997
 11
-610.000000000011
 21
5856.999999999997
  0
LINE
  5
402
100
AcDbEntity
  8
1
  6
CONTINUOUS
 62
           7
100
AcDbLine
 10
-610.000000000011
 20
5856.999999999997
 11
-605.000000000011
 21
5861.999999999997
  0
LINE
  5
401
100
AcDbEntity
  8
1
  6
CONTINUOUS
 62
           7
100
AcDbLine
 10
-605.000000000011
 20
5861.999999999997
 11
34.999999999991
 21
5861.999999999997
  0
LINE
  5
400
100
AcDbEntity
  8
1
  6
CONTINUOUS
 62
           7
100
AcDbLine
 10
39.999999999991
 20
5856.999999999997
 11
34.999999999991
 21
5861.999999999997
  0
LINE
  5
3FF
100
AcDbEntity
  8
1
  6
CONTINUOUS
 62
           7
100
AcDbLine
 10
39.999999999991
 20
5856.999999999997
 11
39.999999999991
 21
5821.999999999997
  0
LINE
  5
3FE
100
AcDbEntity
  8
1
  6
CONTINUOUS
 62
           7
100
AcDbLine
 10
34.999999999991
 20
5781.999999999997
 11
-605.000000000011
 21
5781.999999999997
  0
LINE
  5
3FD
100
AcDbEntity
  8
1
  6
CONTINUOUS
 62
           7
100
AcDbLine
 10
39.999999999991
 20
5821.999999999997
 11
39.999999999991
 21
5786.999999999997
  0
LINE
  5
3FC
100
AcDbEntity
  8
1
  6
CONTINUOUS
 62
           7
100
AcDbLine
 10
-610.000000000011
 20
5786.999999999997
 11
-610.000000000011
 21
5821.999999999997
  0
LINE
  5
3FB
100
AcDbEntity
  8
1
  6
CONTINUOUS
 62
           7
100
AcDbLine
 10
-605.000000000011
 20
5781.999999999997
 11
-610.000000000011
 21
5786.999999999997
  0
LINE
  5
3FA
100
AcDbEntity
  8
1
  6
CONTINUOUS
 62
           7
100
AcDbLine
 10
34.999999999991
 20
5781.999999999997
 11
39.999999999991
 21
5786.999999999997
  0
LINE
  5
3F9
100
AcDbEntity
  8
1
  6
CONTINUOUS
 62
           7
100
AcDbLine
 10
389.999999999994
 20
5473.999999999996
 11
159.999999999994
 21
5703.999999999996
  0
LINE
  5
3F8
100
AcDbEntity
  8
1
  6
CONTINUOUS
 62
           4
100
AcDbLine
 10
115.28600440881
 20
5343.249999999997
 11
109.265668111715
 21
5343.249999999997
  0
LINE
  5
3F7
100
AcDbEntity
  8
1
  6
CONTINUOUS
 62
           4
100
AcDbLine
 10
115.28600440881
 20
5420.749999999997
 11
109.265668111715
 21
5420.749999999997
  0
LINE
  5
3F6
100
AcDbEntity
  8
1
  6
CONTINUOUS
 62
           7
100
AcDbLine
 10
156.499999999993
 20
5338.249999999997
 11
123.946258446655
 21
5338.249999999997
  0
LINE
  5
3F5
100
AcDbEntity
  8
1
  6
CONTINUOUS
 62
           7
100
AcDbLine
 10
123.946258446655
 20
5425.749999999997
 11
156.499999999993
 21
5425.749999999997
  0
LINE
  5
3F4
100
AcDbEntity
  8
1
  6
CONTINUOUS
 62
           7
100
AcDbLine
 10
113.946258446655
 20
5348.249999999997
 11
113.946258446655
 21
5415.749999999997
  0
LINE
  5
3F3
100
AcDbEntity
  8
1
  6
CONTINUOUS
 62
           7
100
AcDbLine
 10
166.499999999993
 20
5415.749999999997
 11
166.499999999993
 21
5348.249999999997
  0
LINE
  5
3F2
100
AcDbEntity
  8
1
  6
CONTINUOUS
 62
           7
100
AcDbLine
 10
410.992065668624
 20
5308.869912712008
 11
-40.387316823284
 21
4855.155626997724
  0
LINE
  5
3F1
100
AcDbEntity
  8
1
  6
CONTINUOUS
 62
           7
100
AcDbLine
 10
-569.956959680425
 20
5381.999999999999
 11
-175.000000000006
 21
5781.999999999999
  0
LINE
  5
3F0
100
AcDbEntity
  8
1
  6
CONTINUOUS
 62
           7
100
AcDbLine
 10
-40.387316823284
 20
4855.155626997724
 11
-569.956959680425
 21
5381.999999999999
  0
LINE
  5
3EF
100
AcDbEntity
  8
1
  6
CONTINUOUS
 62
           7
100
AcDbLine
 10
-570.000000000005
 20
5781.999999999997
 11
-570.000000000005
 21
5771.999999999998
  0
LINE
  5
3EE
100
AcDbEntity
  8
1
  6
CONTINUOUS
 62
           7
100
AcDbLine
 10
-580.000000000007
 20
5758.999999999997
 11
-570.000000000005
 21
5771.999999999998
  0
LINE
  5
3ED
100
AcDbEntity
  8
1
  6
CONTINUOUS
 62
           7
100
AcDbLine
 10
-580.000000000007
 20
5758.999999999997
 11
-580.000000000005
 21
5431.999999999996
  0
LINE
  5
3EC
100
AcDbEntity
  8
1
  6
CONTINUOUS
 62
           7
100
AcDbLine
 10
30.503943030824
 20
5726.165620839412
 11
-0.000000000005
 21
5781.999999999997
  0
LINE
  5
3EB
100
AcDbEntity
  8
1
  6
CONTINUOUS
 62
           7
100
AcDbLine
 10
-186.000000000006
 20
5195.999999999997
 11
209.999999999994
 21
5195.999999999997
  0
LINE
  5
3EA
100
AcDbEntity
  8
1
  6
CONTINUOUS
 62
           7
100
AcDbLine
 10
185.999999999987
 20
5195.999999999997
 11
185.999999999987
 21
5591.999999999997
  0
LINE
  5
3E9
100
AcDbEntity
  8
1
  6
CONTINUOUS
 62
           7
100
AcDbLine
 10
185.999999999987
 20
5567.99999999999
 11
-210.000000000006
 21
5567.99999999999
  0
LINE
  5
3E8
100
AcDbEntity
  8
1
  6
CONTINUOUS
 62
           7
100
AcDbLine
 10
-186.000000000006
 20
5567.99999999999
 11
-186.000000000006
 21
5171.999999999997
  0
LINE
  5
3E7
100
AcDbEntity
  8
1
  6
CONTINUOUS
 62
           7
100
AcDbLine
 10
410.992065668632
 20
2150.0
 11
410.992065668632
 21
2165.5
  0
LINE
  5
3E6
100
AcDbEntity
  8
1
  6
CONTINUOUS
 62
           2
100
AcDbLine
 10
362.336090221745
 20
2537.0
 11
362.336090221745
 21
2177.0
  0
LINE
  5
3E5
100
AcDbEntity
  8
1
  6
CONTINUOUS
 62
           2
100
AcDbLine
 10
405.0
 20
2538.0
 11
362.336090221745
 21
2538.0
  0
LINE
  5
3E4
100
AcDbEntity
  8
1
  6
CONTINUOUS
 62
           2
100
AcDbLine
 10
362.336090221745
 20
2177.0
 11
405.0
 21
2177.0
  0
LINE
  5
3E3
100
AcDbEntity
  8
1
  6
CONTINUOUS
 62
           2
100
AcDbLine
 10
-528.316278697896
 20
2537.0
 11
-528.316278697896
 21
2177.0
  0
LINE
  5
3E2
100
AcDbEntity
  8
1
  6
CONTINUOUS
 62
           2
100
AcDbLine
 10
-232.333637661241
 20
2538.0
 11
-528.316278697896
 21
2538.0
  0
LINE
  5
3E1
100
AcDbEntity
  8
1
  6
CONTINUOUS
 62
           2
100
AcDbLine
 10
-232.333637661241
 20
2177.0
 11
-232.333637661241
 21
2537.0
  0
LINE
  5
3E0
100
AcDbEntity
  8
1
  6
CONTINUOUS
 62
           2
100
AcDbLine
 10
-528.316278697896
 20
2177.0
 11
-494.416198487096
 21
2177.0
  0
LINE
  5
3DF
100
AcDbEntity
  8
1
  6
CONTINUOUS
 62
           4
100
AcDbLine
 10
-210.0
 20
2588.199999999998
 11
-210.0
 21
2587.199999999998
  0
LINE
  5
3DE
100
AcDbEntity
  8
1
  6
CONTINUOUS
 62
           4
100
AcDbLine
 10
-204.993063735605
 20
2594.500000000002
 11
-210.0
 21
2588.199999999998
  0
LINE
  5
3DD
100
AcDbEntity
  8
1
  6
CONTINUOUS
 62
           4
100
AcDbLine
 10
210.0
 20
2588.199999999998
 11
205.0
 21
2594.500000000002
  0
LINE
  5
3DC
100
AcDbEntity
  8
1
  6
CONTINUOUS
 62
           4
100
AcDbLine
 10
205.0
 20
2594.500000000002
 11
-204.993063735605
 21
2594.500000000002
  0
LINE
  5
3DB
100
AcDbEntity
  8
1
  6
CONTINUOUS
 62
           7
100
AcDbLine
 10
-570.000000000004
 20
2582.199999999997
 11
-570.000000000004
 21
2550.5
  0
LINE
  5
3DA
100
AcDbEntity
  8
1
  6
CONTINUOUS
 62
           7
100
AcDbLine
 10
-570.000000000004
 20
2582.199999999997
 11
-566.455357142862
 21
2587.199999999997
  0
LINE
  5
3D9
100
AcDbEntity
  8
1
  6
CONTINUOUS
 62
           7
100
AcDbLine
 10
-570.000000000004
 20
2165.500000000001
 11
-570.000000000004
 21
2149.200000000005
  0
LINE
  5
3D8
100
AcDbEntity
  8
1
  6
CONTINUOUS
 62
           7
100
AcDbLine
 10
410.992065668632
 20
2587.199999999997
 11
-566.455357142862
 21
2587.199999999997
  0
LINE
  5
3D7
100
AcDbEntity
  8
1
  6
CONTINUOUS
 62
           7
100
AcDbLine
 10
410.992065668632
 20
2550.5
 11
410.992065668632
 21
2587.199999999997
  0
LINE
  5
3D6
100
AcDbEntity
  8
1
  6
CONTINUOUS
 62
           7
100
AcDbLine
 10
415.0
 20
2550.5
 11
-579.999999999989
 21
2550.5
  0
LINE
  5
3D5
100
AcDbEntity
  8
1
  6
CONTINUOUS
 62
           4
100
AcDbLine
 10
210.0
 20
2587.199999999998
 11
210.0
 21
2588.199999999998
  0
LINE
  5
3D4
100
AcDbEntity
  8
1
  6
DOT_CENTER
 62
           2
100
AcDbLine
 10
473.997537221203
 20
2358.0
 11
-664.640400689392
 21
2358.0
  0
LINE
  5
3D3
100
AcDbEntity
  8
7
  6
CONTINUOUS
 62
           7
100
AcDbLine
 10
0.000000000002
 20
2836.300000000002
 11
-115.0
 21
2836.300000000002
  0
LINE
  5
3D2
100
AcDbEntity
  8
7
  6
CONTINUOUS
 62
           7
100
AcDbLine
 10
-88.652847999998
 20
2918.702830000002
 11
-109.147842999999
 21
2903.629781000002
  0
LINE
  5
3D1
100
AcDbEntity
  8
7
  6
CONTINUOUS
 62
           7
100
AcDbLine
 10
0.000000000002
 20
2923.0
 11
-84.599999999999
 21
2923.0
  0
LINE
  5
3D0
100
AcDbEntity
  8
7
  6
CONTINUOUS
 62
           7
100
AcDbLine
 10
-115.0
 20
2836.300000000002
 11
-115.0
 21
2863.83753837337
  0
LINE
  5
3CF
100
AcDbEntity
  8
7
  6
CONTINUOUS
 62
           7
100
AcDbLine
 10
115.0
 20
2836.300000000002
 11
0.000000000002
 21
2836.300000000002
  0
LINE
  5
3CE
100
AcDbEntity
  8
7
  6
CONTINUOUS
 62
           7
100
AcDbLine
 10
112.0
 20
2898.6
 11
115.0
 21
2863.83753837337
  0
LINE
  5
3CD
100
AcDbEntity
  8
7
  6
CONTINUOUS
 62
           4
100
AcDbLine
 10
-110.992022999999
 20
2901.800000000002
 11
108.800000000001
 21
2901.800000000002
  0
LINE
  5
3CC
100
AcDbEntity
  8
7
  6
CONTINUOUS
 62
           7
100
AcDbLine
 10
86.152847000001
 20
2918.702830000002
 11
106.776034
 21
2902.161696000002
  0
LINE
  5
3CB
100
AcDbEntity
  8
7
  6
CONTINUOUS
 62
           7
100
AcDbLine
 10
0.000000000002
 20
2923.0
 11
82.100000000002
 21
2923.0
  0
LINE
  5
3CA
100
AcDbEntity
  8
2
  6
CONTINUOUS
 62
           7
100
AcDbLine
 10
108.613664
 20
2623.000000000001
 11
97.568642000002
 21
2596.500000000001
  0
LINE
  5
3C9
100
AcDbEntity
  8
2
  6
CONTINUOUS
 62
           7
100
AcDbLine
 10
108.613664
 20
2623.000000000001
 11
108.613664
 21
2824.800000000002
  0
LINE
  5
3C8
100
AcDbEntity
  8
2
  6
CONTINUOUS
 62
           7
100
AcDbLine
 10
108.613664
 20
2824.800000000002
 11
103.820541000001
 21
2836.300000000002
  0
LINE
  5
3C7
100
AcDbEntity
  8
2
  6
CONTINUOUS
 62
           4
100
AcDbLine
 10
-93.25
 20
2596.500000000001
 11
-93.25
 21
2594.500000000002
  0
LINE
  5
3C6
100
AcDbEntity
  8
2
  6
CONTINUOUS
 62
           7
100
AcDbLine
 10
-108.613663999999
 20
2623.000000000001
 11
-108.613663999999
 21
2824.800000000002
  0
LINE
  5
3C5
100
AcDbEntity
  8
2
  6
CONTINUOUS
 62
           7
100
AcDbLine
 10
-103.820540999999
 20
2836.300000000002
 11
-108.613663999999
 21
2824.800000000002
  0
LINE
  5
3C4
100
AcDbEntity
  8
2
  6
CONTINUOUS
 62
           4
100
AcDbLine
 10
97.568642000002
 20
2596.500000000001
 11
-97.568641999998
 21
2596.500000000001
  0
LINE
  5
3C3
100
AcDbEntity
  8
2
  6
CONTINUOUS
 62
           7
100
AcDbLine
 10
-97.568641999998
 20
2596.500000000001
 11
-108.613663999999
 21
2623.000000000001
  0
LINE
  5
3C2
100
AcDbEntity
  8
1
  6
CONTINUOUS
 62
           4
100
AcDbLine
 10
115.0
 20
2863.83753837337
 11
-115.0
 21
2863.83753837337
  0
LINE
  5
3C1
100
AcDbEntity
  8
7
  6
CONTINUOUS
 62
           7
100
AcDbLine
 10
-115.0
 20
2863.83753837337
 11
-112.0
 21
2898.411357
  0
LINE
  5
3C0
100
AcDbEntity
  8
7
  6
CONTINUOUS
 62
           7
100
AcDbLine
 10
115.0
 20
2863.83753837337
 11
115.0
 21
2836.300000000002
  0
LINE
  5
3BF
100
AcDbEntity
  8
2
  6
CONTINUOUS
 62
           4
100
AcDbLine
 10
93.250000000002
 20
2594.500000000002
 11
93.250000000002
 21
2596.500000000001
  0
LINE
  5
3BE
100
AcDbEntity
  8
1
  6
CONTINUOUS
 62
           7
100
AcDbLine
 10
405.0
 20
2165.5
 11
405.0
 21
2549.5
  0
LINE
  5
3BD
100
AcDbEntity
  8
1
  6
CONTINUOUS
 62
           7
100
AcDbLine
 10
415.0
 20
2165.5
 11
-405.0
 21
2165.5
  0
LINE
  5
3BC
100
AcDbEntity
  8
1
  6
CONTINUOUS
 62
           7
100
AcDbLine
 10
166.5
 20
2741.300000000002
 11
166.5
 21
2681.300000000003
  0
LINE
  5
3BB
100
AcDbEntity
  8
1
  6
CONTINUOUS
 62
           7
100
AcDbLine
 10
108.613664
 20
2681.300000000003
 11
108.613664
 21
2741.300000000002
  0
LINE
  5
3BA
100
AcDbEntity
  8
1
  6
CONTINUOUS
 62
           7
100
AcDbLine
 10
118.613664
 20
2751.300000000002
 11
156.5
 21
2751.300000000002
  0
LINE
  5
3B9
100
AcDbEntity
  8
1
  6
CONTINUOUS
 62
           7
100
AcDbLine
 10
156.5
 20
2671.300000000003
 11
118.613664
 21
2671.300000000003
  0
LINE
  5
3B8
100
AcDbEntity
  8
1
  6
CONTINUOUS
 62
           7
100
AcDbLine
 10
-40.387316823279
 20
2587.199999999997
 11
-40.387316823279
 21
2550.199999999997
  0
LINE
  5
3B7
100
AcDbEntity
  8
1
  6
CONTINUOUS
 62
           7
100
AcDbLine
 10
-570.000000000004
 20
2550.300000000001
 11
-570.000000000004
 21
2164.700000000002
  0
LINE
  5
3B6
100
AcDbEntity
  8
1
  6
CONTINUOUS
 62
           7
100
AcDbLine
 10
-611.000000000004
 20
2589.199999999998
 11
-611.000000000004
 21
2150.0
  0
LINE
  5
3B5
100
AcDbEntity
  8
1
  6
CONTINUOUS
 62
           7
100
AcDbLine
 10
-611.000000000004
 20
2589.199999999998
 11
-577.413444419395
 21
2589.199999999998
  0
LINE
  5
3B4
100
AcDbEntity
  8
1
  6
CONTINUOUS
 62
           4
100
AcDbLine
 10
-587.618730888042
 20
2550.500000000001
 11
-611.000000000004
 21
2550.500000000001
  0
LINE
  5
3B3
100
AcDbEntity
  8
1
  6
CONTINUOUS
 62
           4
100
AcDbLine
 10
-587.618730888042
 20
2555.000000000001
 11
-611.000000000004
 21
2555.000000000001
  0
LINE
  5
3B2
100
AcDbEntity
  8
1
  6
CONTINUOUS
 62
           4
100
AcDbLine
 10
-587.618730888042
 20
2161.0
 11
-611.000000000004
 21
2161.0
  0
LINE
  5
3B1
100
AcDbEntity
  8
1
  6
CONTINUOUS
 62
           4
100
AcDbLine
 10
-587.618730888042
 20
2165.5
 11
-611.000000000004
 21
2165.5
  0
LINE
  5
3B0
100
AcDbEntity
  8
1
  6
CONTINUOUS
 62
           7
100
AcDbLine
 10
-40.387316823279
 20
2165.5
 11
-40.387316823279
 21
2150.099999999992
  0
LINE
  5
3AF
100
AcDbEntity
  8
1
  6
CONTINUOUS
 62
           7
100
AcDbLine
 10
-495.0
 20
2165.5
 11
-579.999999999987
 21
2165.5
  0
LINE
  5
3AE
100
AcDbEntity
  8
1
  6
CONTINUOUS
 62
           2
100
AcDbLine
 10
-405.583801512904
 20
2177.0
 11
-232.333637661241
 21
2177.0
  0
LINE
  5
3AD
100
AcDbEntity
  8
1
  6
CONTINUOUS
 62
           4
100
AcDbLine
 10
1057.110256828692
 20
2106.149274945282
 11
1051.108113794988
 21
2125.481707463883
  0
LINE
  5
3AC
100
AcDbEntity
  8
1
  6
CONTINUOUS
 62
           4
100
AcDbLine
 10
1212.750277406589
 20
2070.857953741453
 11
1200.211308935524
 21
2033.943907383332
  0
LINE
  5
3AB
100
AcDbEntity
  8
1
  6
CONTINUOUS
 62
           4
100
AcDbLine
 10
1218.710372822638
 20
2051.823950345313
 11
1212.750277406589
 21
2070.857953741453
  0
LINE
  5
3AA
100
AcDbEntity
  8
1
  6
CONTINUOUS
 62
           4
100
AcDbLine
 10
1207.838461898185
 20
2051.837916932252
 11
1218.710372822638
 21
2051.823950345313
  0
LINE
  5
3A9
100
AcDbEntity
  8
1
  6
CONTINUOUS
 62
           4
100
AcDbLine
 10
1207.838461898185
 20
2051.837916932252
 11
1210.675882186566
 21
2042.880417319493
  0
LINE
  5
3A8
100
AcDbEntity
  8
1
  6
CONTINUOUS
 62
           4
100
AcDbLine
 10
1210.675882186566
 20
2042.880417319493
 11
1221.786569697348
 21
2042.882882341162
  0
LINE
  5
3A7
100
AcDbEntity
  8
1
  6
CONTINUOUS
 62
           4
100
AcDbLine
 10
1221.786569697348
 20
2042.882882341162
 11
1224.826413646004
 21
2033.944225982772
  0
LINE
  5
3A6
100
AcDbEntity
  8
1
  6
CONTINUOUS
 62
           4
100
AcDbLine
 10
1224.826413646004
 20
2033.944225982772
 11
1238.025637900704
 21
2033.944007968273
  0
LINE
  5
3A5
100
AcDbEntity
  8
1
  6
CONTINUOUS
 62
           4
100
AcDbLine
 10
1238.025637900704
 20
2033.944007968273
 11
1222.612039838004
 21
2075.483931339653
  0
LINE
  5
3A4
100
AcDbEntity
  8
1
  6
CONTINUOUS
 62
           4
100
AcDbLine
 10
1216.696319418717
 20
2079.638286327323
 11
1204.901171434651
 21
2079.638254952593
  0
LINE
  5
3A3
100
AcDbEntity
  8
1
  6
CONTINUOUS
 62
           4
100
AcDbLine
 10
1204.901171434651
 20
2079.638254952593
 11
1187.90061346023
 21
2033.943874637252
  0
LINE
  5
3A2
100
AcDbEntity
  8
1
  6
CONTINUOUS
 62
           4
100
AcDbLine
 10
1187.90061346023
 20
2033.943874637252
 11
1200.211308935524
 21
2033.943907383332
  0
LINE
  5
3A1
100
AcDbEntity
  8
1
  6
CONTINUOUS
 62
           4
100
AcDbLine
 10
847.431755664498
 20
2033.944010862893
 11
900.84985251332
 21
2033.944155895233
  0
LINE
  5
3A0
100
AcDbEntity
  8
1
  6
CONTINUOUS
 62
           4
100
AcDbLine
 10
900.84985251332
 20
2033.944155895233
 11
937.149891843463
 21
2086.415616652802
  0
LINE
  5
39F
100
AcDbEntity
  8
1
  6
CONTINUOUS
 62
           4
100
AcDbLine
 10
946.646247453235
 20
2091.701855247813
 11
956.437606397321
 21
2091.701693521763
  0
LINE
  5
39E
100
AcDbEntity
  8
1
  6
CONTINUOUS
 62
           4
100
AcDbLine
 10
956.437606397321
 20
2091.701693521763
 11
942.967941932518
 21
2133.943077298752
  0
LINE
  5
39D
100
AcDbEntity
  8
1
  6
CONTINUOUS
 62
           4
100
AcDbLine
 10
847.431755664498
 20
2033.944010862893
 11
903.005191502822
 21
2112.944922030443
  0
LINE
  5
39C
100
AcDbEntity
  8
1
  6
CONTINUOUS
 62
           4
100
AcDbLine
 10
934.098284030566
 20
2133.943053506673
 11
942.967941932518
 21
2133.943077298752
  0
LINE
  5
39B
100
AcDbEntity
  8
1
  6
CONTINUOUS
 62
           4
100
AcDbLine
 10
957.937020373714
 20
2133.943999420413
 11
957.937020373714
 21
2033.943259305122
  0
LINE
  5
39A
100
AcDbEntity
  8
1
  6
CONTINUOUS
 62
           4
100
AcDbLine
 10
957.937020373714
 20
2033.943259305122
 11
1003.802178668528
 21
2033.943381640392
  0
LINE
  5
399
100
AcDbEntity
  8
1
  6
CONTINUOUS
 62
           4
100
AcDbLine
 10
1003.802178668528
 20
2033.943381640392
 11
1003.802178668528
 21
2133.943239451322
  0
LINE
  5
398
100
AcDbEntity
  8
1
  6
CONTINUOUS
 62
           4
100
AcDbLine
 10
1003.802178668528
 20
2133.943239451322
 11
957.937020373714
 21
2133.943999420413
  0
LINE
  5
397
100
AcDbEntity
  8
1
  6
CONTINUOUS
 62
           4
100
AcDbLine
 10
1168.194064782721
 20
2033.944063806882
 11
1180.660536625621
 21
2033.943854790503
  0
LINE
  5
396
100
AcDbEntity
  8
1
  6
CONTINUOUS
 62
           4
100
AcDbLine
 10
1168.194064782721
 20
2070.883480263322
 11
1168.194064782721
 21
2033.944063806882
  0
LINE
  5
395
100
AcDbEntity
  8
1
  6
CONTINUOUS
 62
           4
100
AcDbLine
 10
1154.132132324636
 20
2070.883442859003
 11
1168.194064782721
 21
2070.883480263322
  0
LINE
  5
394
100
AcDbEntity
  8
1
  6
CONTINUOUS
 62
           4
100
AcDbLine
 10
1154.132132324636
 20
2079.638218526053
 11
1154.132132324636
 21
2070.883442859003
  0
LINE
  5
393
100
AcDbEntity
  8
1
  6
CONTINUOUS
 62
           4
100
AcDbLine
 10
1196.535959313067
 20
2079.638231770082
 11
1154.132132324636
 21
2079.638218526053
  0
LINE
  5
392
100
AcDbEntity
  8
1
  6
CONTINUOUS
 62
           4
100
AcDbLine
 10
1196.535959313067
 20
2076.250521357722
 11
1196.535959313067
 21
2079.638231770082
  0
LINE
  5
391
100
AcDbEntity
  8
1
  6
CONTINUOUS
 62
           4
100
AcDbLine
 10
1180.660536625621
 20
2070.850479542883
 11
1191.097126819332
 21
2070.850506950862
  0
LINE
  5
390
100
AcDbEntity
  8
1
  6
CONTINUOUS
 62
           4
100
AcDbLine
 10
1180.660536625621
 20
2033.943854790503
 11
1180.660536625621
 21
2070.850479542883
  0
LINE
  5
38F
100
AcDbEntity
  8
1
  6
CONTINUOUS
 62
           4
100
AcDbLine
 10
1145.698177810786
 20
2042.898020781993
 11
1134.690026151156
 21
2042.895746079162
  0
LINE
  5
38E
100
AcDbEntity
  8
1
  6
CONTINUOUS
 62
           4
100
AcDbLine
 10
1148.765547416715
 20
2033.944019330922
 11
1145.698177810786
 21
2042.898020781993
  0
LINE
  5
38D
100
AcDbEntity
  8
1
  6
CONTINUOUS
 62
           4
100
AcDbLine
 10
1161.686666846679
 20
2033.943803379223
 11
1148.765547416715
 21
2033.944019330922
  0
LINE
  5
38C
100
AcDbEntity
  8
1
  6
CONTINUOUS
 62
           4
100
AcDbLine
 10
1146.428979813793
 20
2075.240506337233
 11
1161.686666846679
 21
2033.943803379223
  0
LINE
  5
38B
100
AcDbEntity
  8
1
  6
CONTINUOUS
 62
           4
100
AcDbLine
 10
1128.554648745823
 20
2079.638049990442
 11
1140.5095087972
 21
2079.637849998662
  0
LINE
  5
38A
100
AcDbEntity
  8
1
  6
CONTINUOUS
 62
           4
100
AcDbLine
 10
1116.624527175976
 20
2047.300994776042
 11
1111.334066160165
 21
2074.322614930462
  0
LINE
  5
389
100
AcDbEntity
  8
1
  6
CONTINUOUS
 62
           4
100
AcDbLine
 10
1128.554648745823
 20
2079.638049990442
 11
1116.624527175976
 21
2047.300994776042
  0
LINE
  5
388
100
AcDbEntity
  8
1
  6
CONTINUOUS
 62
           4
100
AcDbLine
 10
1118.957787137402
 20
2033.943064040062
 11
1109.26030303195
 21
2033.943228433412
  0
LINE
  5
387
100
AcDbEntity
  8
1
  6
CONTINUOUS
 62
           4
100
AcDbLine
 10
1136.575206270272
 20
2071.289366760253
 11
1125.552362305305
 21
2038.591809596642
  0
LINE
  5
386
100
AcDbEntity
  8
1
  6
CONTINUOUS
 62
           4
100
AcDbLine
 10
1142.582034846746
 20
2051.793158898423
 11
1136.575206270272
 21
2071.289366760253
  0
LINE
  5
385
100
AcDbEntity
  8
1
  6
CONTINUOUS
 62
           4
100
AcDbLine
 10
1131.864062220244
 20
2051.790511417422
 11
1142.582034846746
 21
2051.793158898423
  0
LINE
  5
384
100
AcDbEntity
  8
1
  6
CONTINUOUS
 62
           4
100
AcDbLine
 10
1134.690026151156
 20
2042.895746079162
 11
1131.864062220244
 21
2051.790511417422
  0
LINE
  5
383
100
AcDbEntity
  8
1
  6
CONTINUOUS
 62
           4
100
AcDbLine
 10
1102.812609314307
 20
2068.800623646942
 11
1109.26030303195
 21
2033.943228433412
  0
LINE
  5
382
100
AcDbEntity
  8
1
  6
CONTINUOUS
 62
           4
100
AcDbLine
 10
1096.743932451245
 20
2039.501940666503
 11
1102.812609314307
 21
2068.800623646942
  0
LINE
  5
381
100
AcDbEntity
  8
1
  6
CONTINUOUS
 62
           4
100
AcDbLine
 10
1081.642628511187
 20
2033.943684600622
 11
1089.917380551182
 21
2033.943543706833
  0
LINE
  5
380
100
AcDbEntity
  8
1
  6
CONTINUOUS
 62
           4
100
AcDbLine
 10
1066.127746819953
 20
2079.637883348443
 11
1081.642628511187
 21
2033.943684600622
  0
LINE
  5
37F
100
AcDbEntity
  8
1
  6
CONTINUOUS
 62
           4
100
AcDbLine
 10
1074.905118094874
 20
2079.637907284342
 11
1066.127746819953
 21
2079.637883348443
  0
LINE
  5
37E
100
AcDbEntity
  8
1
  6
CONTINUOUS
 62
           4
100
AcDbLine
 10
1088.820249006403
 20
2047.211676443252
 11
1079.728802000724
 21
2076.079380122782
  0
LINE
  5
37D
100
AcDbEntity
  8
1
  6
CONTINUOUS
 62
           4
100
AcDbLine
 10
1094.559426828699
 20
2079.637958975812
 11
1088.820249006403
 21
2047.211676443252
  0
LINE
  5
37C
100
AcDbEntity
  8
1
  6
CONTINUOUS
 62
           4
100
AcDbLine
 10
1105.244142830221
 20
2079.637987691023
 11
1094.559426828699
 21
2079.637958975812
  0
LINE
  5
37B
100
AcDbEntity
  8
1
  6
CONTINUOUS
 62
           4
100
AcDbLine
 10
1062.229734417193
 20
2033.943537885463
 11
1049.666906161709
 21
2033.943501527823
  0
LINE
  5
37A
100
AcDbEntity
  8
1
  6
CONTINUOUS
 62
           4
100
AcDbLine
 10
1062.229734417193
 20
2073.334038073162
 11
1062.229734417193
 21
2033.943537885463
  0
LINE
  5
379
100
AcDbEntity
  8
1
  6
CONTINUOUS
 62
           4
100
AcDbLine
 10
1049.666906161709
 20
2079.637839581983
 11
1057.461026931323
 21
2079.637860295222
  0
LINE
  5
378
100
AcDbEntity
  8
1
  6
CONTINUOUS
 62
           4
100
AcDbLine
 10
1049.666906161709
 20
2033.943501527823
 11
1049.666906161709
 21
2079.637839581983
  0
LINE
  5
377
100
AcDbEntity
  8
1
  6
CONTINUOUS
 62
           4
100
AcDbLine
 10
1249.431755664496
 20
2133.943896601593
 11
1209.483436987397
 21
2133.943789575403
  0
LINE
  5
376
100
AcDbEntity
  8
1
  6
CONTINUOUS
 62
           4
100
AcDbLine
 10
1249.431755664496
 20
2133.943896601593
 11
1249.431755664496
 21
2130.698520413932
  0
LINE
  5
375
100
AcDbEntity
  8
1
  6
CONTINUOUS
 62
           4
100
AcDbLine
 10
1234.542851356569
 20
2125.384768938003
 11
1244.026901347002
 21
2125.372585264913
  0
LINE
  5
374
100
AcDbEntity
  8
1
  6
CONTINUOUS
 62
           4
100
AcDbLine
 10
1209.483436987397
 20
2125.401092021553
 11
1209.483436987397
 21
2133.943789575403
  0
LINE
  5
373
100
AcDbEntity
  8
1
  6
CONTINUOUS
 62
           4
100
AcDbLine
 10
1222.136280475712
 20
2125.401125677743
 11
1209.483436987397
 21
2125.401092021553
  0
LINE
  5
372
100
AcDbEntity
  8
1
  6
CONTINUOUS
 62
           4
100
AcDbLine
 10
1222.136280475712
 20
2088.502090424683
 11
1222.136280475712
 21
2125.401125677743
  0
LINE
  5
371
100
AcDbEntity
  8
1
  6
CONTINUOUS
 62
           4
100
AcDbLine
 10
1234.542851356569
 20
2088.501880019363
 11
1222.136280475712
 21
2088.502090424683
  0
LINE
  5
370
100
AcDbEntity
  8
1
  6
CONTINUOUS
 62
           4
100
AcDbLine
 10
1234.542851356569
 20
2125.384768938003
 11
1234.542851356569
 21
2088.501880019363
  0
LINE
  5
36F
100
AcDbEntity
  8
1
  6
CONTINUOUS
 62
           4
100
AcDbLine
 10
1203.511021340883
 20
2133.941305415262
 11
1188.371132332317
 21
2133.937384553102
  0
LINE
  5
36E
100
AcDbEntity
  8
1
  6
CONTINUOUS
 62
           4
100
AcDbLine
 10
1171.80421960397
 20
2097.398440016082
 11
1190.600042710024
 21
2097.398445886583
  0
LINE
  5
36D
100
AcDbEntity
  8
1
  6
CONTINUOUS
 62
           4
100
AcDbLine
 10
1171.804219603968
 20
2088.518244769953
 11
1191.943672031714
 21
2088.508484615782
  0
LINE
  5
36C
100
AcDbEntity
  8
1
  6
CONTINUOUS
 62
           4
100
AcDbLine
 10
1203.511021340883
 20
2125.278875713882
 11
1188.342760005136
 21
2125.279122660473
  0
LINE
  5
36B
100
AcDbEntity
  8
1
  6
CONTINUOUS
 62
           4
100
AcDbLine
 10
1171.80421960397
 20
2097.398440016082
 11
1171.804219603968
 21
2088.518244769953
  0
LINE
  5
36A
100
AcDbEntity
  8
1
  6
CONTINUOUS
 62
           4
100
AcDbLine
 10
1203.511021340883
 20
2133.941305415262
 11
1203.511021340883
 21
2125.278875713882
  0
LINE
  5
369
100
AcDbEntity
  8
1
  6
CONTINUOUS
 62
           4
100
AcDbLine
 10
1142.533562917581
 20
2097.387025340902
 11
1166.556888321782
 21
2097.387089830563
  0
LINE
  5
368
100
AcDbEntity
  8
1
  6
CONTINUOUS
 62
           4
100
AcDbLine
 10
1141.776584048954
 20
2125.306775083043
 11
1141.776584048954
 21
2098.163633929232
  0
LINE
  5
367
100
AcDbEntity
  8
1
  6
CONTINUOUS
 62
           4
100
AcDbLine
 10
1166.592518671703
 20
2125.308094613503
 11
1141.776584048954
 21
2125.306775083043
  0
LINE
  5
366
100
AcDbEntity
  8
1
  6
CONTINUOUS
 62
           4
100
AcDbLine
 10
1166.603400553047
 20
2133.943674539163
 11
1166.592518671703
 21
2125.308094613503
  0
LINE
  5
365
100
AcDbEntity
  8
1
  6
CONTINUOUS
 62
           4
100
AcDbLine
 10
1129.17923833545
 20
2133.943574403672
 11
1166.603400553047
 21
2133.943674539163
  0
LINE
  5
364
100
AcDbEntity
  8
1
  6
CONTINUOUS
 62
           4
100
AcDbLine
 10
1129.17923833545
 20
2095.316945845943
 11
1129.17923833545
 21
2133.943574403672
  0
LINE
  5
363
100
AcDbEntity
  8
1
  6
CONTINUOUS
 62
           4
100
AcDbLine
 10
1166.556888321782
 20
2088.503015664422
 11
1136.10367753476
 21
2088.503522663662
  0
LINE
  5
362
100
AcDbEntity
  8
1
  6
CONTINUOUS
 62
           4
100
AcDbLine
 10
1166.556888321782
 20
2097.387089830563
 11
1166.556888321782
 21
2088.503015664422
  0
LINE
  5
361
100
AcDbEntity
  8
1
  6
CONTINUOUS
 62
           4
100
AcDbLine
 10
1146.375164630503
 20
2107.050340091793
 11
1164.916747487199
 21
2107.042951282403
  0
LINE
  5
360
100
AcDbEntity
  8
1
  6
CONTINUOUS
 62
           4
100
AcDbLine
 10
1143.576032845374
 20
2115.779631203042
 11
1146.375164630503
 21
2107.050340091793
  0
LINE
  5
35F
100
AcDbEntity
  8
1
  6
CONTINUOUS
 62
           4
100
AcDbLine
 10
1164.916747487199
 20
2115.779688557033
 11
1143.576032845374
 21
2115.779631203042
  0
LINE
  5
35E
100
AcDbEntity
  8
1
  6
CONTINUOUS
 62
           4
100
AcDbLine
 10
1164.916747487199
 20
2107.042951282403
 11
1164.916747487199
 21
2115.779688557033
  0
LINE
  5
35D
100
AcDbEntity
  8
1
  6
CONTINUOUS
 62
           4
100
AcDbLine
 10
1089.296756617971
 20
2088.504301958322
 11
1077.98547331127
 21
2088.504488789263
  0
LINE
  5
35C
100
AcDbEntity
  8
1
  6
CONTINUOUS
 62
           4
100
AcDbLine
 10
1089.296756617971
 20
2123.019951963562
 11
1089.296756617971
 21
2088.504301958322
  0
LINE
  5
35B
100
AcDbEntity
  8
1
  6
CONTINUOUS
 62
           4
100
AcDbLine
 10
1103.149429274827
 20
2092.468521581262
 11
1089.296756617971
 21
2123.019951963562
  0
LINE
  5
35A
100
AcDbEntity
  8
1
  6
CONTINUOUS
 62
           4
100
AcDbLine
 10
1122.407067452759
 20
2088.503752959082
 11
1109.469808020782
 21
2088.503967642622
  0
LINE
  5
359
100
AcDbEntity
  8
1
  6
CONTINUOUS
 62
           4
100
AcDbLine
 10
1122.407067452759
 20
2133.943555978052
 11
1122.407067452759
 21
2088.503752959082
  0
LINE
  5
358
100
AcDbEntity
  8
1
  6
CONTINUOUS
 62
           4
100
AcDbLine
 10
1111.221095866758
 20
2133.943525929533
 11
1122.407067452759
 21
2133.943555978052
  0
LINE
  5
357
100
AcDbEntity
  8
1
  6
CONTINUOUS
 62
           4
100
AcDbLine
 10
1111.221095866758
 20
2100.177499398802
 11
1111.221095866758
 21
2133.943525929533
  0
LINE
  5
356
100
AcDbEntity
  8
1
  6
CONTINUOUS
 62
           4
100
AcDbLine
 10
1097.718933070944
 20
2129.862363110192
 11
1111.221095866758
 21
2100.177499398802
  0
LINE
  5
355
100
AcDbEntity
  8
1
  6
CONTINUOUS
 62
           4
100
AcDbLine
 10
1077.98547331127
 20
2133.943437523803
 11
1091.396834400041
 21
2133.943473197612
  0
LINE
  5
354
100
AcDbEntity
  8
1
  6
CONTINUOUS
 62
           4
100
AcDbLine
 10
1077.98547331127
 20
2088.504488789263
 11
1077.98547331127
 21
2133.943437523803
  0
LINE
  5
353
100
AcDbEntity
  8
1
  6
CONTINUOUS
 62
           4
100
AcDbLine
 10
1060.220111591299
 20
2097.434641143203
 11
1049.475692345895
 21
2097.431705595483
  0
LINE
  5
352
100
AcDbEntity
  8
1
  6
CONTINUOUS
 62
           4
100
AcDbLine
 10
1063.26153712099
 20
2088.711234442582
 11
1060.220111591299
 21
2097.434641143203
  0
LINE
  5
351
100
AcDbEntity
  8
1
  6
CONTINUOUS
 62
           4
100
AcDbLine
 10
1076.201631260832
 20
2088.504517140403
 11
1063.618940058534
 21
2088.504729189362
  0
LINE
  5
350
100
AcDbEntity
  8
1
  6
CONTINUOUS
 62
           4
100
AcDbLine
 10
1060.853442690242
 20
2129.731787577662
 11
1061.00138961152
 21
2129.333933214793
  0
LINE
  5
34F
100
AcDbEntity
  8
1
  6
CONTINUOUS
 62
           4
100
AcDbLine
 10
1054.46270082511
 20
2133.935800723842
 11
1043.366495362097
 21
2133.943344850033
  0
LINE
  5
34E
100
AcDbEntity
  8
1
  6
CONTINUOUS
 62
           4
100
AcDbLine
 10
1026.496862827531
 20
2088.505342342892
 11
1043.366495362097
 21
2133.943344850033
  0
LINE
  5
34D
100
AcDbEntity
  8
1
  6
CONTINUOUS
 62
           4
100
AcDbLine
 10
1038.67203964785
 20
2088.506439869672
 11
1026.496862827531
 21
2088.505342342892
  0
LINE
  5
34C
100
AcDbEntity
  8
1
  6
CONTINUOUS
 62
           4
100
AcDbLine
 10
1051.108113794988
 20
2125.481707463883
 11
1038.67203964785
 21
2088.506439869672
  0
LINE
  5
34B
100
AcDbEntity
  8
1
  6
CONTINUOUS
 62
           4
100
AcDbLine
 10
1046.207958039271
 20
2106.149271540192
 11
1057.110256828692
 21
2106.149274945282
  0
LINE
  5
34A
100
AcDbEntity
  8
1
  6
CONTINUOUS
 62
           4
100
AcDbLine
 10
1048.897748081479
 20
2097.828413141533
 11
1046.207958039271
 21
2106.149271540192
  0
LINE
  5
349
100
AcDbEntity
  8
1
  6
CONTINUOUS
 62
           4
100
AcDbLine
 10
1061.00138961152
 20
2129.333933214793
 11
1076.201631260832
 21
2088.504517140403
  0
LINE
  5
348
100
AcDbEntity
  8
1
  6
CONTINUOUS
 62
           4
100
AcDbLine
 10
3635.000000000002
 20
1570.000000000003
 11
3635.000000000002
 21
1545.825756949561
  0
LINE
  5
347
100
AcDbEntity
  8
1
  6
CONTINUOUS
 62
           4
100
AcDbLine
 10
3675.000000000002
 20
1454.174243050445
 11
3675.000000000002
 21
1430.000000000003
  0
LINE
  5
346
100
AcDbEntity
  8
1
  6
CONTINUOUS
 62
           4
100
AcDbLine
 10
3695.000000000002
 20
1430.000000000003
 11
3695.000000000002
 21
1447.132503002406
  0
LINE
  5
345
100
AcDbEntity
  8
1
  6
CONTINUOUS
 62
           4
100
AcDbLine
 10
3635.000000000002
 20
1430.000000000003
 11
3695.000000000002
 21
1430.000000000003
  0
LINE
  5
344
100
AcDbEntity
  8
1
  6
CONTINUOUS
 62
           4
100
AcDbLine
 10
3635.000000000002
 20
1454.174243050445
 11
3635.000000000002
 21
1430.000000000003
  0
LINE
  5
343
100
AcDbEntity
  8
1
  6
CONTINUOUS
 62
           4
100
AcDbLine
 10
3675.000000000002
 20
1570.000000000003
 11
3675.000000000002
 21
1545.825756949561
  0
LINE
  5
342
100
AcDbEntity
  8
1
  6
CONTINUOUS
 62
           4
100
AcDbLine
 10
3615.000000000002
 20
1570.000000000003
 11
3675.000000000002
 21
1570.000000000003
  0
LINE
  5
341
100
AcDbEntity
  8
1
  6
CONTINUOUS
 62
           4
100
AcDbLine
 10
3620.542804312878
 20
1479.68493993661
 11
3604.428932188137
 21
1463.57106781187
  0
LINE
  5
340
100
AcDbEntity
  8
1
  6
CONTINUOUS
 62
           4
100
AcDbLine
 10
3618.571067811867
 20
1449.428932188138
 11
3634.684939936607
 21
1465.542804312879
  0
LINE
  5
33F
100
AcDbEntity
  8
1
  6
CONTINUOUS
 62
           4
100
AcDbLine
 10
3675.315060063394
 20
1465.542804312879
 11
3691.428932188137
 21
1449.428932188138
  0
LINE
  5
33E
100
AcDbEntity
  8
1
  6
CONTINUOUS
 62
           4
100
AcDbLine
 10
3689.457195687126
 20
1520.315060063397
 11
3705.571067811867
 21
1536.428932188138
  0
LINE
  5
33D
100
AcDbEntity
  8
1
  6
CONTINUOUS
 62
           4
100
AcDbLine
 10
3634.684939936607
 20
1534.457195687127
 11
3618.571067811867
 21
1550.57106781187
  0
LINE
  5
33C
100
AcDbEntity
  8
1
  6
CONTINUOUS
 62
           4
100
AcDbLine
 10
3705.571067811867
 20
1463.57106781187
 11
3689.457195687126
 21
1479.68493993661
  0
LINE
  5
33B
100
AcDbEntity
  8
1
  6
CONTINUOUS
 62
           4
100
AcDbLine
 10
3691.428932188137
 20
1550.57106781187
 11
3675.315060063394
 21
1534.457195687127
  0
LINE
  5
33A
100
AcDbEntity
  8
1
  6
CONTINUOUS
 62
           4
100
AcDbLine
 10
3604.428932188137
 20
1536.428932188138
 11
3620.542804312878
 21
1520.315060063397
  0
LINE
  5
339
100
AcDbEntity
  8
1
  6
CONTINUOUS
 62
           4
100
AcDbLine
 10
3615.000000000002
 20
1552.867496997601
 11
3615.000000000002
 21
1570.000000000003
  0
LINE
  5
338
100
AcDbEntity
  8
1
  6
CONTINUOUS
 62
           4
100
AcDbLine
 10
3664.659258262893
 20
1497.411809548979
 11
3686.597964306739
 21
1475.473103505131
  0
LINE
  5
337
100
AcDbEntity
  8
1
  6
CONTINUOUS
 62
           4
100
AcDbLine
 10
3657.588190451027
 20
1490.340741737112
 11
3679.526896494874
 21
1468.402035693266
  0
LINE
  5
336
100
AcDbEntity
  8
1
  6
CONTINUOUS
 62
           4
100
AcDbLine
 10
3645.340741737112
 20
1502.588190451028
 11
3640.857864376269
 21
1514.142135623734
  0
LINE
  5
335
100
AcDbEntity
  8
1
  6
CONTINUOUS
 62
           4
100
AcDbLine
 10
3652.411809548977
 20
1509.659258262894
 11
3640.857864376269
 21
1514.142135623734
  0
LINE
  5
334
100
AcDbEntity
  8
1
  6
CONTINUOUS
 62
           4
100
AcDbLine
 10
1353.0
 20
1450.000000000004
 11
1353.0
 21
1430.000000000004
  0
LINE
  5
333
100
AcDbEntity
  8
1
  6
CONTINUOUS
 62
           4
100
AcDbLine
 10
1353.0
 20
1430.000000000004
 11
1305.0
 21
1430.000000000004
  0
LINE
  5
332
100
AcDbEntity
  8
1
  6
CONTINUOUS
 62
           4
100
AcDbLine
 10
1353.0
 20
1550.000000000004
 11
1353.0
 21
1570.000000000004
  0
LINE
  5
331
100
AcDbEntity
  8
1
  6
CONTINUOUS
 62
           4
100
AcDbLine
 10
1353.0
 20
1570.000000000004
 11
1305.0
 21
1570.000000000004
  0
LINE
  5
330
100
AcDbEntity
  8
1
  6
CONTINUOUS
 62
           4
100
AcDbLine
 10
1315.0
 20
1570.000000000004
 11
1315.0
 21
1430.000000000004
  0
LINE
  5
32F
100
AcDbEntity
  8
1
  6
CONTINUOUS
 62
           4
100
AcDbLine
 10
1420.0
 20
1490.000000000004
 11
1435.0
 21
1490.000000000004
  0
LINE
  5
32E
100
AcDbEntity
  8
1
  6
CONTINUOUS
 62
           4
100
AcDbLine
 10
1435.0
 20
1510.000000000004
 11
1420.0
 21
1510.000000000004
  0
LINE
  5
32D
100
AcDbEntity
  8
1
  6
CONTINUOUS
 62
           4
100
AcDbLine
 10
1435.0
 20
1515.000000000004
 11
1420.0
 21
1515.000000000004
  0
LINE
  5
32C
100
AcDbEntity
  8
1
  6
CONTINUOUS
 62
           4
100
AcDbLine
 10
1435.0
 20
1470.000000000004
 11
1435.0
 21
1515.000000000004
  0
LINE
  5
32B
100
AcDbEntity
  8
1
  6
CONTINUOUS
 62
           4
100
AcDbLine
 10
1420.0
 20
1470.000000000004
 11
1435.0
 21
1470.000000000004
  0
LINE
  5
32A
100
AcDbEntity
  8
1
  6
CONTINUOUS
 62
           4
100
AcDbLine
 10
1390.0
 20
1460.000000000004
 11
1420.0
 21
1460.000000000004
  0
LINE
  5
329
100
AcDbEntity
  8
1
  6
CONTINUOUS
 62
           4
100
AcDbLine
 10
1420.0
 20
1460.000000000004
 11
1420.0
 21
1540.000000000004
  0
LINE
  5
328
100
AcDbEntity
  8
1
  6
CONTINUOUS
 62
           4
100
AcDbLine
 10
1420.0
 20
1540.000000000004
 11
1390.0
 21
1540.000000000004
  0
LINE
  5
327
100
AcDbEntity
  8
1
  6
CONTINUOUS
 62
           4
100
AcDbLine
 10
1375.0
 20
1446.500000000004
 11
1390.0
 21
1446.500000000004
  0
LINE
  5
326
100
AcDbEntity
  8
1
  6
CONTINUOUS
 62
           4
100
AcDbLine
 10
1390.0
 20
1520.315060063398
 11
1390.0
 21
1553.500000000004
  0
LINE
  5
325
100
AcDbEntity
  8
1
  6
CONTINUOUS
 62
           4
100
AcDbLine
 10
1375.0
 20
1550.000000000004
 11
1315.0
 21
1550.000000000004
  0
LINE
  5
324
100
AcDbEntity
  8
1
  6
CONTINUOUS
 62
           4
100
AcDbLine
 10
1305.0
 20
1570.000000000004
 11
1305.0
 21
1430.000000000004
  0
LINE
  5
323
100
AcDbEntity
  8
1
  6
CONTINUOUS
 62
           4
100
AcDbLine
 10
1375.0
 20
1479.684939936611
 11
1390.0
 21
1479.684939936611
  0
LINE
  5
322
100
AcDbEntity
  8
1
  6
CONTINUOUS
 62
           4
100
AcDbLine
 10
1375.0
 20
1446.500000000004
 11
1375.0
 21
1553.500000000004
  0
LINE
  5
321
100
AcDbEntity
  8
1
  6
CONTINUOUS
 62
           4
100
AcDbLine
 10
1375.0
 20
1520.315060063398
 11
1390.0
 21
1520.315060063398
  0
LINE
  5
320
100
AcDbEntity
  8
1
  6
CONTINUOUS
 62
           4
100
AcDbLine
 10
1315.0
 20
1450.000000000004
 11
1375.0
 21
1450.000000000004
  0
LINE
  5
31F
100
AcDbEntity
  8
1
  6
CONTINUOUS
 62
           4
100
AcDbLine
 10
1390.0
 20
1446.500000000004
 11
1390.0
 21
1479.684939936611
  0
LINE
  5
31E
100
AcDbEntity
  8
1
  6
CONTINUOUS
 62
           4
100
AcDbLine
 10
1390.0
 20
1553.500000000004
 11
1375.0
 21
1553.500000000004
  0
LINE
  5
31D
100
AcDbEntity
  8
1
  6
CONTINUOUS
 62
           4
100
AcDbLine
 10
1315.0
 20
1476.000000000004
 11
1375.0
 21
1476.000000000004
  0
LINE
  5
31C
100
AcDbEntity
  8
1
  6
CONTINUOUS
 62
           4
100
AcDbLine
 10
1375.0
 20
1524.000000000004
 11
1315.0
 21
1524.000000000004
  0
LINE
  5
31B
100
AcDbEntity
  8
1
  6
CONTINUOUS
 62
           4
100
AcDbLine
 10
3722.500000000002
 20
1642.499999999993
 11
3750.000000000002
 21
1642.499999999993
  0
LINE
  5
31A
100
AcDbEntity
  8
1
  6
CONTINUOUS
 62
           4
100
AcDbLine
 10
3722.500000000002
 20
1607.499999999993
 11
3722.500000000002
 21
1642.499999999993
  0
LINE
  5
319
100
AcDbEntity
  8
1
  6
CONTINUOUS
 62
           4
100
AcDbLine
 10
3750.000000000002
 20
1607.499999999993
 11
3722.500000000002
 21
1607.499999999993
  0
LINE
  5
318
100
AcDbEntity
  8
1
  6
CONTINUOUS
 62
           4
100
AcDbLine
 10
3722.500000000002
 20
1392.499999999993
 11
3750.000000000002
 21
1392.499999999993
  0
LINE
  5
317
100
AcDbEntity
  8
1
  6
CONTINUOUS
 62
           4
100
AcDbLine
 10
3722.500000000002
 20
1357.499999999993
 11
3722.500000000002
 21
1392.499999999993
  0
LINE
  5
316
100
AcDbEntity
  8
1
  6
CONTINUOUS
 62
           4
100
AcDbLine
 10
3750.000000000002
 20
1357.499999999993
 11
3722.500000000002
 21
1357.499999999993
  0
LINE
  5
315
100
AcDbEntity
  8
1
  6
CONTINUOUS
 62
           4
100
AcDbLine
 10
4027.500000000002
 20
1357.499999999993
 11
4000.000000000002
 21
1357.499999999993
  0
LINE
  5
314
100
AcDbEntity
  8
1
  6
CONTINUOUS
 62
           4
100
AcDbLine
 10
4027.500000000002
 20
1392.499999999993
 11
4027.500000000002
 21
1357.499999999993
  0
LINE
  5
313
100
AcDbEntity
  8
1
  6
CONTINUOUS
 62
           4
100
AcDbLine
 10
4000.000000000002
 20
1392.499999999993
 11
4027.500000000002
 21
1392.499999999993
  0
LINE
  5
312
100
AcDbEntity
  8
1
  6
CONTINUOUS
 62
           4
100
AcDbLine
 10
4027.500000000002
 20
1607.499999999993
 11
4000.000000000002
 21
1607.499999999993
  0
LINE
  5
311
100
AcDbEntity
  8
1
  6
CONTINUOUS
 62
           4
100
AcDbLine
 10
4027.500000000002
 20
1642.499999999993
 11
4027.500000000002
 21
1607.499999999993
  0
LINE
  5
310
100
AcDbEntity
  8
1
  6
CONTINUOUS
 62
           4
100
AcDbLine
 10
4000.000000000002
 20
1642.499999999993
 11
4027.500000000002
 21
1642.499999999993
  0
LINE
  5
30F
100
AcDbEntity
  8
1
  6
CONTINUOUS
 62
           4
100
AcDbLine
 10
3750.000000000002
 20
1321.999999999993
 11
4000.000000000002
 21
1321.999999999993
  0
LINE
  5
30E
100
AcDbEntity
  8
1
  6
CONTINUOUS
 62
           4
100
AcDbLine
 10
4000.000000000002
 20
1677.999999999993
 11
3750.000000000002
 21
1677.999999999993
  0
LINE
  5
30D
100
AcDbEntity
  8
1
  6
CONTINUOUS
 62
           4
100
AcDbLine
 10
3750.000000000002
 20
1837.999999999993
 11
3750.000000000002
 21
1544.999999999993
  0
LINE
  5
30C
100
AcDbEntity
  8
1
  6
CONTINUOUS
 62
           4
100
AcDbLine
 10
4000.000000000002
 20
1837.999999999993
 11
3750.000000000002
 21
1837.999999999993
  0
LINE
  5
30B
100
AcDbEntity
  8
1
  6
CONTINUOUS
 62
           4
100
AcDbLine
 10
4000.000000000002
 20
1161.999999999993
 11
4000.000000000002
 21
1837.999999999993
  0
LINE
  5
30A
100
AcDbEntity
  8
1
  6
CONTINUOUS
 62
           4
100
AcDbLine
 10
3750.000000000002
 20
1161.999999999993
 11
4000.000000000002
 21
1161.999999999993
  0
LINE
  5
309
100
AcDbEntity
  8
1
  6
CONTINUOUS
 62
           4
100
AcDbLine
 10
3780.000000000002
 20
1807.999999999993
 11
3970.000000000002
 21
1807.999999999993
  0
LINE
  5
308
100
AcDbEntity
  8
1
  6
CONTINUOUS
 62
           4
100
AcDbLine
 10
3970.000000000002
 20
1807.999999999993
 11
3970.000000000002
 21
1707.999999999993
  0
LINE
  5
307
100
AcDbEntity
  8
1
  6
CONTINUOUS
 62
           4
100
AcDbLine
 10
3970.000000000002
 20
1707.999999999993
 11
3780.000000000002
 21
1707.999999999993
  0
LINE
  5
306
100
AcDbEntity
  8
1
  6
CONTINUOUS
 62
           4
100
AcDbLine
 10
3780.000000000002
 20
1707.999999999993
 11
3780.000000000002
 21
1807.999999999993
  0
LINE
  5
305
100
AcDbEntity
  8
1
  6
CONTINUOUS
 62
           4
100
AcDbLine
 10
3780.000000000002
 20
1647.999999999993
 11
3970.000000000002
 21
1647.999999999993
  0
LINE
  5
304
100
AcDbEntity
  8
1
  6
CONTINUOUS
 62
           4
100
AcDbLine
 10
3970.000000000002
 20
1647.999999999993
 11
3970.000000000002
 21
1351.999999999993
  0
LINE
  5
303
100
AcDbEntity
  8
1
  6
CONTINUOUS
 62
           4
100
AcDbLine
 10
3970.000000000002
 20
1351.999999999993
 11
3780.000000000002
 21
1351.999999999993
  0
LINE
  5
302
100
AcDbEntity
  8
1
  6
CONTINUOUS
 62
           4
100
AcDbLine
 10
3780.000000000002
 20
1351.999999999993
 11
3780.000000000002
 21
1647.999999999993
  0
LINE
  5
301
100
AcDbEntity
  8
1
  6
CONTINUOUS
 62
           4
100
AcDbLine
 10
3780.000000000002
 20
1291.999999999993
 11
3970.000000000002
 21
1291.999999999993
  0
LINE
  5
300
100
AcDbEntity
  8
1
  6
CONTINUOUS
 62
           4
100
AcDbLine
 10
3970.000000000002
 20
1291.999999999993
 11
3970.000000000002
 21
1191.999999999993
  0
LINE
  5
2FF
100
AcDbEntity
  8
1
  6
CONTINUOUS
 62
           4
100
AcDbLine
 10
3970.000000000002
 20
1191.999999999993
 11
3780.000000000002
 21
1191.999999999993
  0
LINE
  5
2FE
100
AcDbEntity
  8
1
  6
CONTINUOUS
 62
           4
100
AcDbLine
 10
3780.000000000002
 20
1191.999999999993
 11
3780.000000000002
 21
1291.999999999993
  0
LINE
  5
2FD
100
AcDbEntity
  8
1
  6
CONTINUOUS
 62
           4
100
AcDbLine
 10
3780.000000000002
 20
1544.999999999993
 11
3722.500000000002
 21
1544.999999999993
  0
LINE
  5
2FC
100
AcDbEntity
  8
1
  6
CONTINUOUS
 62
           4
100
AcDbLine
 10
3722.500000000002
 20
1544.999999999993
 11
3722.500000000002
 21
1514.999999999993
  0
LINE
  5
2FB
100
AcDbEntity
  8
1
  6
CONTINUOUS
 62
           4
100
AcDbLine
 10
3722.500000000002
 20
1514.999999999993
 11
3780.000000000002
 21
1514.999999999993
  0
LINE
  5
2FA
100
AcDbEntity
  8
1
  6
CONTINUOUS
 62
           4
100
AcDbLine
 10
3780.000000000002
 20
1484.999999999993
 11
3722.500000000002
 21
1484.999999999993
  0
LINE
  5
2F9
100
AcDbEntity
  8
1
  6
CONTINUOUS
 62
           4
100
AcDbLine
 10
3722.500000000002
 20
1484.999999999993
 11
3722.500000000002
 21
1454.999999999993
  0
LINE
  5
2F8
100
AcDbEntity
  8
1
  6
CONTINUOUS
 62
           4
100
AcDbLine
 10
3722.500000000002
 20
1454.999999999993
 11
3780.000000000002
 21
1454.999999999993
  0
LINE
  5
2F7
100
AcDbEntity
  8
1
  6
CONTINUOUS
 62
           4
100
AcDbLine
 10
3750.000000000002
 20
1514.999999999993
 11
3750.000000000002
 21
1484.999999999993
  0
LINE
  5
2F6
100
AcDbEntity
  8
1
  6
CONTINUOUS
 62
           4
100
AcDbLine
 10
3750.000000000002
 20
1454.999999999993
 11
3750.000000000002
 21
1161.999999999993
  0
LINE
  5
2F5
100
AcDbEntity
  8
1
  6
CONTINUOUS
 62
           4
100
AcDbLine
 10
1500.0
 20
1838.000000000004
 11
1305.0
 21
1838.000000000004
  0
LINE
  5
2F4
100
AcDbEntity
  8
1
  6
CONTINUOUS
 62
           4
100
AcDbLine
 10
1500.0
 20
1162.000000000004
 11
1500.0
 21
1838.000000000004
  0
LINE
  5
2F3
100
AcDbEntity
  8
1
  6
CONTINUOUS
 62
           4
100
AcDbLine
 10
1305.0
 20
1162.000000000004
 11
1500.0
 21
1162.000000000004
  0
LINE
  5
2F2
100
AcDbEntity
  8
1
  6
CONTINUOUS
 62
           4
100
AcDbLine
 10
1305.0
 20
1838.000000000004
 11
1305.0
 21
1162.000000000004
  0
LINE
  5
2F1
100
AcDbEntity
  8
1
  6
CONTINUOUS
 62
           4
100
AcDbLine
 10
1320.0
 20
1642.500000000004
 11
1305.0
 21
1642.500000000004
  0
LINE
  5
2F0
100
AcDbEntity
  8
1
  6
CONTINUOUS
 62
           4
100
AcDbLine
 10
1320.0
 20
1607.500000000004
 11
1320.0
 21
1642.500000000004
  0
LINE
  5
2EF
100
AcDbEntity
  8
1
  6
CONTINUOUS
 62
           4
100
AcDbLine
 10
1305.0
 20
1607.500000000004
 11
1320.0
 21
1607.500000000004
  0
LINE
  5
2EE
100
AcDbEntity
  8
1
  6
CONTINUOUS
 62
           4
100
AcDbLine
 10
1320.0
 20
1392.500000000004
 11
1305.0
 21
1392.500000000004
  0
LINE
  5
2ED
100
AcDbEntity
  8
1
  6
CONTINUOUS
 62
           4
100
AcDbLine
 10
1320.0
 20
1357.500000000004
 11
1320.0
 21
1392.500000000004
  0
LINE
  5
2EC
100
AcDbEntity
  8
1
  6
CONTINUOUS
 62
           4
100
AcDbLine
 10
1305.0
 20
1357.500000000004
 11
1320.0
 21
1357.500000000004
  0
LINE
  5
2EB
100
AcDbEntity
  8
1
  6
CONTINUOUS
 62
           4
100
AcDbLine
 10
1530.0
 20
1648.000000000004
 11
1500.0
 21
1648.000000000004
  0
LINE
  5
2EA
100
AcDbEntity
  8
1
  6
CONTINUOUS
 62
           4
100
AcDbLine
 10
1530.0
 20
1352.000000000004
 11
1530.0
 21
1648.000000000004
  0
LINE
  5
2E9
100
AcDbEntity
  8
1
  6
CONTINUOUS
 62
           4
100
AcDbLine
 10
1500.0
 20
1352.000000000004
 11
1530.0
 21
1352.000000000004
  0
LINE
  5
2E8
100
AcDbEntity
  8
1
  6
CONTINUOUS
 62
           4
100
AcDbLine
 10
1470.0
 20
1162.000000000004
 11
1470.0
 21
1838.000000000004
  0
LINE
  5
2E7
100
AcDbEntity
  8
1
  6
CONTINUOUS
 62
           4
100
AcDbLine
 10
1500.0
 20
1678.000000000004
 11
1305.0
 21
1678.000000000004
  0
LINE
  5
2E6
100
AcDbEntity
  8
1
  6
CONTINUOUS
 62
           4
100
AcDbLine
 10
1500.0
 20
1322.000000000004
 11
1305.0
 21
1322.000000000004
  0
LINE
  5
2E5
100
AcDbEntity
  8
1
  6
CONTINUOUS
 62
           4
100
AcDbLine
 10
1305.0
 20
4229.499999999999
 11
1305.0
 21
3924.499999999999
  0
LINE
  5
2E4
100
AcDbEntity
  8
1
  6
CONTINUOUS
 62
           4
100
AcDbLine
 10
1500.0
 20
4201.999999999999
 11
1305.0
 21
4201.999999999999
  0
LINE
  5
2E3
100
AcDbEntity
  8
1
  6
CONTINUOUS
 62
           4
100
AcDbLine
 10
1500.0
 20
3924.499999999999
 11
1500.0
 21
4201.999999999999
  0
LINE
  5
2E2
100
AcDbEntity
  8
1
  6
CONTINUOUS
 62
           4
100
AcDbLine
 10
1305.0
 20
3951.999999999999
 11
1500.0
 21
3951.999999999999
  0
LINE
  5
2E1
100
AcDbEntity
  8
1
  6
CONTINUOUS
 62
           4
100
AcDbLine
 10
1530.0
 20
4171.999999999999
 11
1500.0
 21
4171.999999999999
  0
LINE
  5
2E0
100
AcDbEntity
  8
1
  6
CONTINUOUS
 62
           4
100
AcDbLine
 10
1530.0
 20
3981.999999999999
 11
1530.0
 21
4171.999999999999
  0
LINE
  5
2DF
100
AcDbEntity
  8
1
  6
CONTINUOUS
 62
           4
100
AcDbLine
 10
1500.0
 20
3981.999999999999
 11
1530.0
 21
3981.999999999999
  0
LINE
  5
2DE
100
AcDbEntity
  8
1
  6
CONTINUOUS
 62
           4
100
AcDbLine
 10
1320.0
 20
4229.499999999999
 11
1320.0
 21
4201.999999999999
  0
LINE
  5
2DD
100
AcDbEntity
  8
1
  6
CONTINUOUS
 62
           4
100
AcDbLine
 10
1305.0
 20
4229.499999999999
 11
1320.0
 21
4229.499999999999
  0
LINE
  5
2DC
100
AcDbEntity
  8
1
  6
CONTINUOUS
 62
           4
100
AcDbLine
 10
1320.0
 20
3924.499999999999
 11
1305.0
 21
3924.499999999999
  0
LINE
  5
2DB
100
AcDbEntity
  8
1
  6
CONTINUOUS
 62
           4
100
AcDbLine
 10
1320.0
 20
3951.999999999999
 11
1320.0
 21
3924.499999999999
  0
LINE
  5
2DA
100
AcDbEntity
  8
1
  6
CONTINUOUS
 62
           4
100
AcDbLine
 10
1470.0
 20
3951.999999999999
 11
1470.0
 21
4201.999999999999
  0
LINE
  5
2D9
100
AcDbEntity
  8
1
  6
CONTINUOUS
 62
           4
100
AcDbLine
 10
1440.0
 20
3924.499999999999
 11
1440.0
 21
3951.999999999999
  0
LINE
  5
2D8
100
AcDbEntity
  8
1
  6
CONTINUOUS
 62
           4
100
AcDbLine
 10
1440.0
 20
3924.499999999999
 11
1500.0
 21
3924.499999999999
  0
LINE
  5
2D7
100
AcDbEntity
  8
1
  6
CONTINUOUS
 62
           4
100
AcDbLine
 10
1420.0
 20
3846.999999999999
 11
1435.0
 21
3846.999999999999
  0
LINE
  5
2D6
100
AcDbEntity
  8
1
  6
CONTINUOUS
 62
           4
100
AcDbLine
 10
1435.0
 20
3866.999999999999
 11
1420.0
 21
3866.999999999999
  0
LINE
  5
2D5
100
AcDbEntity
  8
1
  6
CONTINUOUS
 62
           4
100
AcDbLine
 10
1435.0
 20
3872.0
 11
1420.0
 21
3872.0
  0
LINE
  5
2D4
100
AcDbEntity
  8
1
  6
CONTINUOUS
 62
           4
100
AcDbLine
 10
1435.0
 20
3826.999999999999
 11
1435.0
 21
3872.0
  0
LINE
  5
2D3
100
AcDbEntity
  8
1
  6
CONTINUOUS
 62
           4
100
AcDbLine
 10
1420.0
 20
3826.999999999999
 11
1435.0
 21
3826.999999999999
  0
LINE
  5
2D2
100
AcDbEntity
  8
1
  6
CONTINUOUS
 62
           4
100
AcDbLine
 10
1420.0
 20
3896.999999999999
 11
1390.0
 21
3896.999999999999
  0
LINE
  5
2D1
100
AcDbEntity
  8
1
  6
CONTINUOUS
 62
           4
100
AcDbLine
 10
1420.0
 20
3816.999999999999
 11
1420.0
 21
3896.999999999999
  0
LINE
  5
2D0
100
AcDbEntity
  8
1
  6
CONTINUOUS
 62
           4
100
AcDbLine
 10
1390.0
 20
3816.999999999999
 11
1420.0
 21
3816.999999999999
  0
LINE
  5
2CF
100
AcDbEntity
  8
1
  6
CONTINUOUS
 62
           4
100
AcDbLine
 10
1390.0
 20
3910.499999999999
 11
1375.0
 21
3910.499999999999
  0
LINE
  5
2CE
100
AcDbEntity
  8
1
  6
CONTINUOUS
 62
           4
100
AcDbLine
 10
1390.0
 20
3803.499999999999
 11
1390.0
 21
3836.684939936606
  0
LINE
  5
2CD
100
AcDbEntity
  8
1
  6
CONTINUOUS
 62
           4
100
AcDbLine
 10
1305.0
 20
3806.999999999999
 11
1375.0
 21
3806.999999999999
  0
LINE
  5
2CC
100
AcDbEntity
  8
1
  6
CONTINUOUS
 62
           4
100
AcDbLine
 10
1305.0
 20
3906.999999999999
 11
1305.0
 21
3806.999999999999
  0
LINE
  5
2CB
100
AcDbEntity
  8
1
  6
CONTINUOUS
 62
           4
100
AcDbLine
 10
1390.0
 20
3877.315060063392
 11
1375.0
 21
3877.315060063392
  0
LINE
  5
2CA
100
AcDbEntity
  8
1
  6
CONTINUOUS
 62
           4
100
AcDbLine
 10
1375.0
 20
3803.499999999999
 11
1375.0
 21
3910.499999999999
  0
LINE
  5
2C9
100
AcDbEntity
  8
1
  6
CONTINUOUS
 62
           4
100
AcDbLine
 10
1390.0
 20
3836.684939936606
 11
1375.0
 21
3836.684939936606
  0
LINE
  5
2C8
100
AcDbEntity
  8
1
  6
CONTINUOUS
 62
           4
100
AcDbLine
 10
1375.0
 20
3906.999999999999
 11
1305.0
 21
3906.999999999999
  0
LINE
  5
2C7
100
AcDbEntity
  8
1
  6
CONTINUOUS
 62
           4
100
AcDbLine
 10
1390.0
 20
3877.315060063392
 11
1390.0
 21
3910.499999999999
  0
LINE
  5
2C6
100
AcDbEntity
  8
1
  6
CONTINUOUS
 62
           4
100
AcDbLine
 10
1375.0
 20
3803.499999999999
 11
1390.0
 21
3803.499999999999
  0
LINE
  5
2C5
100
AcDbEntity
  8
1
  6
CONTINUOUS
 62
           4
100
AcDbLine
 10
1375.0
 20
3880.999999999999
 11
1305.0
 21
3880.999999999999
  0
LINE
  5
2C4
100
AcDbEntity
  8
1
  6
CONTINUOUS
 62
           4
100
AcDbLine
 10
1305.0
 20
3832.999999999999
 11
1375.0
 21
3832.999999999999
  0
LINE
  5
2C3
100
AcDbEntity
  8
1
  6
CONTINUOUS
 62
           3
100
AcDbLine
 10
4990.163567691042
 20
1935.969655114604
 11
4984.489527668222
 21
1932.693746580043
  0
LINE
  5
2C2
100
AcDbEntity
  8
1
  6
CONTINUOUS
 62
           3
100
AcDbLine
 10
4999.663567691042
 20
1930.484827557305
 11
4990.163567691042
 21
1935.969655114604
  0
LINE
  5
2C1
100
AcDbEntity
  8
1
  6
CONTINUOUS
 62
           3
100
AcDbLine
 10
4999.663567691042
 20
1919.515172442701
 11
4999.663567691042
 21
1930.484827557305
  0
LINE
  5
2C0
100
AcDbEntity
  8
1
  6
CONTINUOUS
 62
           3
100
AcDbLine
 10
4990.163567691042
 20
1914.030344885401
 11
4999.663567691042
 21
1919.515172442701
  0
LINE
  5
2BF
100
AcDbEntity
  8
1
  6
CONTINUOUS
 62
           3
100
AcDbLine
 10
4984.489527668229
 20
1917.306253419963
 11
4990.163567691042
 21
1914.030344885401
  0
LINE
  5
2BE
100
AcDbEntity
  8
1
  6
DOT_CENTER
 62
           3
100
AcDbLine
 10
4966.218519558621
 20
1925.000000000003
 11
5007.66769526244
 21
1925.000000000003
  0
LINE
  5
2BD
100
AcDbEntity
  8
1
  6
CONTINUOUS
 62
           3
100
AcDbLine
 10
4979.389214871942
 20
1916.750000000003
 11
4979.389214871942
 21
1917.306253419963
  0
LINE
  5
2BC
100
AcDbEntity
  8
1
  6
CONTINUOUS
 62
           3
100
AcDbLine
 10
4979.389214871942
 20
1916.750000000003
 11
4969.714603906643
 21
1916.750000000003
  0
LINE
  5
2BB
100
AcDbEntity
  8
1
  6
CONTINUOUS
 62
           3
100
AcDbLine
 10
4969.714603906643
 20
1916.750000000003
 11
4969.714603906643
 21
1925.000000000003
  0
LINE
  5
2BA
100
AcDbEntity
  8
1
  6
CONTINUOUS
 62
           3
100
AcDbLine
 10
4969.714603906643
 20
1919.000000000003
 11
4968.868798384461
 21
1919.000000000003
  0
LINE
  5
2B9
100
AcDbEntity
  8
1
  6
CONTINUOUS
 62
           3
100
AcDbLine
 10
4968.868798384461
 20
1917.306253419963
 11
4968.868798384461
 21
1925.000000000003
  0
LINE
  5
2B8
100
AcDbEntity
  8
1
  6
CONTINUOUS
 62
           3
100
AcDbLine
 10
4968.868798384461
 20
1917.306253419963
 11
4968.163567691042
 21
1917.306253419963
  0
LINE
  5
2B7
100
AcDbEntity
  8
1
  6
CONTINUOUS
 62
           3
100
AcDbLine
 10
4967.663567691042
 20
1925.000000000003
 11
4967.663567691042
 21
1917.806253419963
  0
LINE
  5
2B6
100
AcDbEntity
  8
1
  6
CONTINUOUS
 62
           3
100
AcDbLine
 10
4967.663567691042
 20
1932.193746580043
 11
4967.663567691042
 21
1925.000000000003
  0
LINE
  5
2B5
100
AcDbEntity
  8
1
  6
CONTINUOUS
 62
           3
100
AcDbLine
 10
4968.163567691042
 20
1932.693746580043
 11
4968.868798384461
 21
1932.693746580043
  0
LINE
  5
2B4
100
AcDbEntity
  8
1
  6
CONTINUOUS
 62
           3
100
AcDbLine
 10
4968.868798384461
 20
1925.000000000003
 11
4968.868798384461
 21
1932.693746580043
  0
LINE
  5
2B3
100
AcDbEntity
  8
1
  6
CONTINUOUS
 62
           3
100
AcDbLine
 10
4968.868798384461
 20
1931.000000000003
 11
4969.714603906643
 21
1931.000000000003
  0
LINE
  5
2B2
100
AcDbEntity
  8
1
  6
CONTINUOUS
 62
           3
100
AcDbLine
 10
4969.714603906643
 20
1933.250000000003
 11
4979.389214871942
 21
1933.250000000003
  0
LINE
  5
2B1
100
AcDbEntity
  8
1
  6
CONTINUOUS
 62
           3
100
AcDbLine
 10
4969.714603906643
 20
1925.000000000003
 11
4969.714603906643
 21
1933.250000000003
  0
LINE
  5
2B0
100
AcDbEntity
  8
1
  6
CONTINUOUS
 62
           3
100
AcDbLine
 10
4979.389214871942
 20
1932.693746580043
 11
4979.389214871942
 21
1933.250000000003
  0
LINE
  5
2AF
100
AcDbEntity
  8
1
  6
CONTINUOUS
 62
           3
100
AcDbLine
 10
4979.389214871942
 20
1917.306253419963
 11
4979.389214871942
 21
1932.693746580043
  0
LINE
  5
2AE
100
AcDbEntity
  8
1
  6
CONTINUOUS
 62
           3
100
AcDbLine
 10
4985.254330418633
 20
1917.306253419963
 11
4985.254330418633
 21
1932.693746580043
  0
LINE
  5
2AD
100
AcDbEntity
  8
1
  6
CONTINUOUS
 62
           3
100
AcDbLine
 10
4985.254330418633
 20
1917.306253419963
 11
4979.389214871942
 21
1917.306253419963
  0
LINE
  5
2AC
100
AcDbEntity
  8
1
  6
CONTINUOUS
 62
           3
100
AcDbLine
 10
4985.254330418633
 20
1932.693746580043
 11
4979.389214871942
 21
1932.693746580043
  0
LINE
  5
2AB
100
AcDbEntity
  8
1
  6
CONTINUOUS
 62
           3
100
AcDbLine
 10
4985.254330418633
 20
1930.871834995072
 11
4990.163567691042
 21
1930.871834995072
  0
LINE
  5
2AA
100
AcDbEntity
  8
1
  6
DOT_CENTER
 62
           3
100
AcDbLine
 10
4990.163567691042
 20
1938.643555804877
 11
4990.163567691042
 21
1907.508008255128
  0
LINE
  5
2A9
100
AcDbEntity
  8
1
  6
CONTINUOUS
 62
           3
100
AcDbLine
 10
4990.163567691042
 20
1919.128165004937
 11
4985.254330418633
 21
1919.128165004937
  0
LINE
  5
2A8
100
AcDbEntity
  8
0
  6
CONTINUOUS
 62
           3
100
AcDbLine
 10
4484.844723494172
 20
1393.116392195195
 11
4485.899996721674
 21
1393.131740391396
  0
LINE
  5
2A7
100
AcDbEntity
  8
0
  6
CONTINUOUS
 62
           3
100
AcDbLine
 10
4483.903805503274
 20
1393.072016537196
 11
4484.844723494172
 21
1393.116392195195
  0
LINE
  5
2A6
100
AcDbEntity
  8
0
  6
CONTINUOUS
 62
           3
100
AcDbLine
 10
4483.179205573572
 20
1393.003411590994
 11
4483.903805503274
 21
1393.072016537196
  0
LINE
  5
2A5
100
AcDbEntity
  8
0
  6
CONTINUOUS
 62
           3
100
AcDbLine
 10
4482.749445840375
 20
1392.918020486795
 11
4483.179205573572
 21
1393.003411590994
  0
LINE
  5
2A4
100
AcDbEntity
  8
0
  6
CONTINUOUS
 62
           3
100
AcDbLine
 10
4482.661097088371
 20
1392.825089394995
 11
4482.749445840375
 21
1392.918020486795
  0
LINE
  5
2A3
100
AcDbEntity
  8
0
  6
CONTINUOUS
 62
           3
100
AcDbLine
 10
4482.899996695575
 20
1392.739541828796
 11
4482.661097088371
 21
1392.825089394995
  0
LINE
  5
2A2
100
AcDbEntity
  8
0
  6
CONTINUOUS
 62
           3
100
AcDbLine
 10
4489.138896354962
 20
1392.825089394995
 11
4488.899996747762
 21
1392.739541828796
  0
LINE
  5
2A1
100
AcDbEntity
  8
0
  6
CONTINUOUS
 62
           3
100
AcDbLine
 10
4489.050547602961
 20
1392.918020486795
 11
4489.138896354962
 21
1392.825089394995
  0
LINE
  5
2A0
100
AcDbEntity
  8
0
  6
CONTINUOUS
 62
           3
100
AcDbLine
 10
4488.620787869762
 20
1393.003411590994
 11
4489.050547602961
 21
1392.918020486795
  0
LINE
  5
29F
100
AcDbEntity
  8
0
  6
CONTINUOUS
 62
           3
100
AcDbLine
 10
4487.896187940061
 20
1393.072016537196
 11
4488.620787869762
 21
1393.003411590994
  0
LINE
  5
29E
100
AcDbEntity
  8
0
  6
CONTINUOUS
 62
           3
100
AcDbLine
 10
4486.955269949173
 20
1393.116392195195
 11
4487.896187940061
 21
1393.072016537196
  0
LINE
  5
29D
100
AcDbEntity
  8
0
  6
CONTINUOUS
 62
           3
100
AcDbLine
 10
4485.899996721674
 20
1393.131740391396
 11
4486.955269949173
 21
1393.116392195195
  0
LINE
  5
29C
100
AcDbEntity
  8
FORMAT
  6
CONTINUOUS
 62
           3
100
AcDbLine
 10
4482.399996721572
 20
1392.596845102895
 11
4471.899996721583
 21
1392.596845102895
  0
LINE
  5
29B
100
AcDbEntity
  8
FORMAT
  6
DOT_CENTER
 62
           3
100
AcDbLine
 10
4485.899996721674
 20
1249.759397252257
 11
4485.899996721674
 21
1725.394390768571
  0
LINE
  5
29A
100
AcDbEntity
  8
FORMAT
  6
CONTINUOUS
 62
           3
100
AcDbLine
 10
4489.399996721763
 20
1392.596845102895
 11
4482.399996721572
 21
1392.596845102895
  0
LINE
  5
299
100
AcDbEntity
  8
FORMAT
  6
CONTINUOUS
 62
           3
100
AcDbLine
 10
4499.899996721754
 20
1392.596845102895
 11
4489.399996721763
 21
1392.596845102895
  0
LINE
  5
298
100
AcDbEntity
  8
FORMAT
  6
DOT_CENTER
 62
           3
100
AcDbLine
 10
4410.999996721631
 20
1375.00000000001
 11
4397.399996721743
 21
1375.00000000001
  0
LINE
  5
297
100
AcDbEntity
  8
FORMAT
  6
DOT_CENTER
 62
           3
100
AcDbLine
 10
4410.999996721631
 20
1625.000000000003
 11
4397.399996721743
 21
1625.000000000003
  0
LINE
  5
296
100
AcDbEntity
  8
0
  6
CONTINUOUS
 62
           3
100
AcDbLine
 10
4420.899999106019
 20
1364.999994635818
 11
4405.499999189232
 21
1364.999994635818
  0
LINE
  5
295
100
AcDbEntity
  8
0
  6
CONTINUOUS
 62
           3
100
AcDbLine
 10
4424.399995023122
 20
1590.000003576234
 11
4424.399995023122
 21
1509.999999776398
  0
LINE
  5
294
100
AcDbEntity
  8
0
  6
CONTINUOUS
 62
           3
100
AcDbLine
 10
4427.399997377515
 20
1590.000003576234
 11
4424.399995023122
 21
1590.000003576234
  0
LINE
  5
293
100
AcDbEntity
  8
0
  6
CONTINUOUS
 62
           3
100
AcDbLine
 10
4427.399997377515
 20
1550.000000744965
 11
4427.399997377515
 21
1590.000003576234
  0
LINE
  5
292
100
AcDbEntity
  8
0
  6
CONTINUOUS
 62
           3
100
AcDbLine
 10
4427.399997377515
 20
1529.999999329482
 11
4427.399997377515
 21
1532.000001519882
  0
LINE
  5
291
100
AcDbEntity
  8
0
  6
CONTINUOUS
 62
           3
100
AcDbLine
 10
4424.399995023122
 20
1509.999999776398
 11
4425.975189322322
 21
1509.999999776398
  0
LINE
  5
290
100
AcDbEntity
  8
0
  6
CONTINUOUS
 62
           3
100
AcDbLine
 10
4545.89999538062
 20
1368.000000715316
 11
4545.89999538062
 21
1367.300003767015
  0
LINE
  5
28F
100
AcDbEntity
  8
0
  6
CONTINUOUS
 62
           3
100
AcDbLine
 10
4550.899994337312
 20
1364.999994635818
 11
4550.899994337312
 21
1368.000000715316
  0
LINE
  5
28E
100
AcDbEntity
  8
0
  6
CONTINUOUS
 62
           3
100
AcDbLine
 10
4550.899994337312
 20
1635.000005364199
 11
4550.899994337312
 21
1631.999999284699
  0
LINE
  5
28D
100
AcDbEntity
  8
0
  6
CONTINUOUS
 62
           3
100
AcDbLine
 10
4545.89999538062
 20
1631.999999284699
 11
4545.89999538062
 21
1632.699996232997
  0
LINE
  5
28C
100
AcDbEntity
  8
0
  6
CONTINUOUS
 62
           3
100
AcDbLine
 10
4425.899998062713
 20
1631.999999284699
 11
4425.899998062713
 21
1632.699996232997
  0
LINE
  5
28B
100
AcDbEntity
  8
0
  6
CONTINUOUS
 62
           3
100
AcDbLine
 10
4420.899999106019
 20
1635.000005364199
 11
4420.899999106019
 21
1631.999999284699
  0
LINE
  5
28A
100
AcDbEntity
  8
0
  6
CONTINUOUS
 62
           3
100
AcDbLine
 10
4420.899999106019
 20
1635.000005364199
 11
4405.499999189232
 21
1635.000005364199
  0
LINE
  5
289
100
AcDbEntity
  8
0
  6
CONTINUOUS
 62
           3
100
AcDbLine
 10
4420.899999106019
 20
1364.999994635818
 11
4420.899999106019
 21
1368.000000715316
  0
LINE
  5
288
100
AcDbEntity
  8
0
  6
CONTINUOUS
 62
           3
100
AcDbLine
 10
4425.899998062713
 20
1368.000000715316
 11
4425.899998062713
 21
1367.300003767015
  0
LINE
  5
287
100
AcDbEntity
  8
0
  6
CONTINUOUS
 62
           3
100
AcDbLine
 10
4424.399995023122
 20
1409.999996423781
 11
4424.399995023122
 21
1490.000000223615
  0
LINE
  5
286
100
AcDbEntity
  8
0
  6
CONTINUOUS
 62
           3
100
AcDbLine
 10
4424.399995023122
 20
1490.000000223615
 11
4425.899998062713
 21
1490.000000223615
  0
LINE
  5
285
100
AcDbEntity
  8
0
  6
CONTINUOUS
 62
           3
100
AcDbLine
 10
4427.399997377515
 20
1431.999996304562
 11
4427.399997377515
 21
1429.999999701965
  0
LINE
  5
284
100
AcDbEntity
  8
0
  6
CONTINUOUS
 62
           3
100
AcDbLine
 10
4425.975189322322
 20
1409.999996423781
 11
4424.399995023122
 21
1409.999996423781
  0
LINE
  5
283
100
AcDbEntity
  8
0
  6
CONTINUOUS
 62
           3
100
AcDbLine
 10
4547.399998420223
 20
1590.000003576234
 11
4547.399998420223
 21
1509.999999776398
  0
LINE
  5
282
100
AcDbEntity
  8
0
  6
CONTINUOUS
 62
           3
100
AcDbLine
 10
4547.399998420223
 20
1509.999999776398
 11
4545.82480412102
 21
1509.999999776398
  0
LINE
  5
281
100
AcDbEntity
  8
0
  6
CONTINUOUS
 62
           3
100
AcDbLine
 10
4544.399996066124
 20
1550.000000744965
 11
4544.399996066124
 21
1590.000003576234
  0
LINE
  5
280
100
AcDbEntity
  8
0
  6
CONTINUOUS
 62
           3
100
AcDbLine
 10
4544.399996066124
 20
1529.999999329482
 11
4544.399996066124
 21
1532.000001519882
  0
LINE
  5
27F
100
AcDbEntity
  8
0
  6
CONTINUOUS
 62
           3
100
AcDbLine
 10
4544.399996066124
 20
1590.000003576234
 11
4547.399998420223
 21
1590.000003576234
  0
LINE
  5
27E
100
AcDbEntity
  8
0
  6
CONTINUOUS
 62
           3
100
AcDbLine
 10
4547.399998420223
 20
1409.999996423781
 11
4547.399998420223
 21
1490.000000223615
  0
LINE
  5
27D
100
AcDbEntity
  8
0
  6
CONTINUOUS
 62
           3
100
AcDbLine
 10
4545.82480412102
 20
1409.999996423781
 11
4547.399998420223
 21
1409.999996423781
  0
LINE
  5
27C
100
AcDbEntity
  8
0
  6
CONTINUOUS
 62
           3
100
AcDbLine
 10
4544.399996066124
 20
1431.999996304562
 11
4544.399996066124
 21
1429.999999701965
  0
LINE
  5
27B
100
AcDbEntity
  8
0
  6
CONTINUOUS
 62
           3
100
AcDbLine
 10
4547.399998420223
 20
1490.000000223615
 11
4545.89999538062
 21
1490.000000223615
  0
LINE
  5
27A
100
AcDbEntity
  8
0
  6
CONTINUOUS
 62
           3
100
AcDbLine
 10
4405.499999189232
 20
1635.000005364199
 11
4403.399993443332
 21
1635.000005364199
  0
LINE
  5
279
100
AcDbEntity
  8
0
  6
CONTINUOUS
 62
           3
100
AcDbLine
 10
4403.399993443332
 20
1635.000005364199
 11
4403.399993443332
 21
1364.999994635818
  0
LINE
  5
278
100
AcDbEntity
  8
0
  6
CONTINUOUS
 62
           3
100
AcDbLine
 10
4405.499999189232
 20
1364.999994635818
 11
4403.399993443332
 21
1364.999994635818
  0
LINE
  5
277
100
AcDbEntity
  8
0
  6
CONTINUOUS
 62
           3
100
AcDbLine
 10
4425.899998062713
 20
1366.600006818716
 11
4425.899998062713
 21
1367.300003767015
  0
LINE
  5
276
100
AcDbEntity
  8
0
  6
CONTINUOUS
 62
           3
100
AcDbLine
 10
4545.89999538062
 20
1366.600006818716
 11
4545.89999538062
 21
1367.300003767015
  0
LINE
  5
275
100
AcDbEntity
  8
0
  6
CONTINUOUS
 62
           3
100
AcDbLine
 10
4425.899998062713
 20
1633.399993180999
 11
4425.899998062713
 21
1632.699996232997
  0
LINE
  5
274
100
AcDbEntity
  8
0
  6
CONTINUOUS
 62
           3
100
AcDbLine
 10
4545.89999538062
 20
1633.399993180999
 11
4545.89999538062
 21
1632.699996232997
  0
LINE
  5
273
100
AcDbEntity
  8
0
  6
CONTINUOUS
 62
           3
100
AcDbLine
 10
4540.899996423621
 20
1633.399993180999
 11
4545.89999538062
 21
1633.399993180999
  0
LINE
  5
272
100
AcDbEntity
  8
0
  6
CONTINUOUS
 62
           3
100
AcDbLine
 10
4545.89999538062
 20
1635.000005364199
 11
4540.899996423621
 21
1635.000005364199
  0
LINE
  5
271
100
AcDbEntity
  8
0
  6
CONTINUOUS
 62
           3
100
AcDbLine
 10
4545.89999538062
 20
1633.399993180999
 11
4545.89999538062
 21
1635.000005364199
  0
LINE
  5
270
100
AcDbEntity
  8
0
  6
CONTINUOUS
 62
           3
100
AcDbLine
 10
4540.899996423621
 20
1366.600006818716
 11
4545.89999538062
 21
1366.600006818716
  0
LINE
  5
26F
100
AcDbEntity
  8
0
  6
CONTINUOUS
 62
           3
100
AcDbLine
 10
4545.89999538062
 20
1364.999994635818
 11
4540.899996423621
 21
1364.999994635818
  0
LINE
  5
26E
100
AcDbEntity
  8
0
  6
CONTINUOUS
 62
           3
100
AcDbLine
 10
4545.89999538062
 20
1366.600006818716
 11
4545.89999538062
 21
1364.999994635818
  0
LINE
  5
26D
100
AcDbEntity
  8
0
  6
CONTINUOUS
 62
           3
100
AcDbLine
 10
4530.899998509631
 20
1366.600006818716
 11
4532.899995112232
 21
1366.600006818716
  0
LINE
  5
26C
100
AcDbEntity
  8
0
  6
CONTINUOUS
 62
           3
100
AcDbLine
 10
4532.899995112232
 20
1364.999994635818
 11
4530.899998509631
 21
1364.999994635818
  0
LINE
  5
26B
100
AcDbEntity
  8
0
  6
CONTINUOUS
 62
           3
100
AcDbLine
 10
4532.899995112232
 20
1366.600006818716
 11
4532.899995112232
 21
1364.999994635818
  0
LINE
  5
26A
100
AcDbEntity
  8
0
  6
CONTINUOUS
 62
           3
100
AcDbLine
 10
4530.899998509631
 20
1633.399993180999
 11
4532.899995112232
 21
1633.399993180999
  0
LINE
  5
269
100
AcDbEntity
  8
0
  6
CONTINUOUS
 62
           3
100
AcDbLine
 10
4532.899995112232
 20
1635.000005364199
 11
4530.899998509631
 21
1635.000005364199
  0
LINE
  5
268
100
AcDbEntity
  8
0
  6
CONTINUOUS
 62
           3
100
AcDbLine
 10
4532.899995112232
 20
1633.399993180999
 11
4532.899995112232
 21
1635.000005364199
  0
LINE
  5
267
100
AcDbEntity
  8
0
  6
CONTINUOUS
 62
           3
100
AcDbLine
 10
4538.899996095919
 20
1366.600006818716
 11
4540.899996423621
 21
1366.600006818716
  0
LINE
  5
266
100
AcDbEntity
  8
0
  6
CONTINUOUS
 62
           3
100
AcDbLine
 10
4540.899996423621
 20
1364.999994635818
 11
4538.899996095919
 21
1364.999994635818
  0
LINE
  5
265
100
AcDbEntity
  8
0
  6
CONTINUOUS
 62
           3
100
AcDbLine
 10
4538.899996095919
 20
1364.999994635818
 11
4538.899996095919
 21
1366.600006818716
  0
LINE
  5
264
100
AcDbEntity
  8
0
  6
CONTINUOUS
 62
           3
100
AcDbLine
 10
4538.899996095919
 20
1633.399993180999
 11
4540.899996423621
 21
1633.399993180999
  0
LINE
  5
263
100
AcDbEntity
  8
0
  6
CONTINUOUS
 62
           3
100
AcDbLine
 10
4540.899996423621
 20
1635.000005364199
 11
4538.899996095919
 21
1635.000005364199
  0
LINE
  5
262
100
AcDbEntity
  8
0
  6
CONTINUOUS
 62
           3
100
AcDbLine
 10
4538.899996095919
 20
1635.000005364199
 11
4538.899996095919
 21
1633.399993180999
  0
LINE
  5
261
100
AcDbEntity
  8
0
  6
CONTINUOUS
 62
           3
100
AcDbLine
 10
4430.899997019711
 20
1633.399993180999
 11
4425.899998062713
 21
1633.399993180999
  0
LINE
  5
260
100
AcDbEntity
  8
0
  6
CONTINUOUS
 62
           3
100
AcDbLine
 10
4425.899998062713
 20
1635.000005364199
 11
4430.899997019711
 21
1635.000005364199
  0
LINE
  5
25F
100
AcDbEntity
  8
0
  6
CONTINUOUS
 62
           3
100
AcDbLine
 10
4425.899998062713
 20
1633.399993180999
 11
4425.899998062713
 21
1635.000005364199
  0
LINE
  5
25E
100
AcDbEntity
  8
0
  6
CONTINUOUS
 62
           3
100
AcDbLine
 10
4430.899997019711
 20
1366.600006818716
 11
4425.899998062713
 21
1366.600006818716
  0
LINE
  5
25D
100
AcDbEntity
  8
0
  6
CONTINUOUS
 62
           3
100
AcDbLine
 10
4425.899998062713
 20
1364.999994635818
 11
4430.899997019711
 21
1364.999994635818
  0
LINE
  5
25C
100
AcDbEntity
  8
0
  6
CONTINUOUS
 62
           3
100
AcDbLine
 10
4425.899998062713
 20
1366.600006818716
 11
4425.899998062713
 21
1364.999994635818
  0
LINE
  5
25B
100
AcDbEntity
  8
0
  6
CONTINUOUS
 62
           3
100
AcDbLine
 10
4440.899994933702
 20
1633.399993180999
 11
4530.899998509631
 21
1633.399993180999
  0
LINE
  5
25A
100
AcDbEntity
  8
0
  6
CONTINUOUS
 62
           3
100
AcDbLine
 10
4440.899994933702
 20
1635.000005364199
 11
4530.899998509631
 21
1635.000005364199
  0
LINE
  5
259
100
AcDbEntity
  8
0
  6
CONTINUOUS
 62
           3
100
AcDbLine
 10
4440.899994933702
 20
1366.600006818716
 11
4530.899998509631
 21
1366.600006818716
  0
LINE
  5
258
100
AcDbEntity
  8
0
  6
CONTINUOUS
 62
           3
100
AcDbLine
 10
4440.899994933702
 20
1364.999994635818
 11
4530.899998509631
 21
1364.999994635818
  0
LINE
  5
257
100
AcDbEntity
  8
0
  6
CONTINUOUS
 62
           3
100
AcDbLine
 10
4440.899994933702
 20
1366.600006818716
 11
4438.899998331102
 21
1366.600006818716
  0
LINE
  5
256
100
AcDbEntity
  8
0
  6
CONTINUOUS
 62
           3
100
AcDbLine
 10
4438.899998331102
 20
1366.600006818716
 11
4438.899998331102
 21
1364.999994635818
  0
LINE
  5
255
100
AcDbEntity
  8
0
  6
CONTINUOUS
 62
           3
100
AcDbLine
 10
4438.899998331102
 20
1364.999994635818
 11
4440.899994933702
 21
1364.999994635818
  0
LINE
  5
254
100
AcDbEntity
  8
0
  6
CONTINUOUS
 62
           3
100
AcDbLine
 10
4440.899994933702
 20
1633.399993180999
 11
4438.899998331102
 21
1633.399993180999
  0
LINE
  5
253
100
AcDbEntity
  8
0
  6
CONTINUOUS
 62
           3
100
AcDbLine
 10
4438.899998331102
 20
1635.000005364199
 11
4440.899994933702
 21
1635.000005364199
  0
LINE
  5
252
100
AcDbEntity
  8
0
  6
CONTINUOUS
 62
           3
100
AcDbLine
 10
4438.899998331102
 20
1633.399993180999
 11
4438.899998331102
 21
1635.000005364199
  0
LINE
  5
251
100
AcDbEntity
  8
0
  6
CONTINUOUS
 62
           3
100
AcDbLine
 10
4432.899997347712
 20
1633.399993180999
 11
4430.899997019711
 21
1633.399993180999
  0
LINE
  5
250
100
AcDbEntity
  8
0
  6
CONTINUOUS
 62
           3
100
AcDbLine
 10
4432.899997347712
 20
1635.000005364199
 11
4432.899997347712
 21
1633.399993180999
  0
LINE
  5
24F
100
AcDbEntity
  8
0
  6
CONTINUOUS
 62
           3
100
AcDbLine
 10
4430.899997019711
 20
1635.000005364199
 11
4432.899997347712
 21
1635.000005364199
  0
LINE
  5
24E
100
AcDbEntity
  8
0
  6
CONTINUOUS
 62
           3
100
AcDbLine
 10
4432.899997347712
 20
1366.600006818716
 11
4430.899997019711
 21
1366.600006818716
  0
LINE
  5
24D
100
AcDbEntity
  8
0
  6
CONTINUOUS
 62
           3
100
AcDbLine
 10
4430.899997019711
 20
1364.999994635818
 11
4432.899997347712
 21
1364.999994635818
  0
LINE
  5
24C
100
AcDbEntity
  8
0
  6
CONTINUOUS
 62
           3
100
AcDbLine
 10
4432.899997347712
 20
1364.999994635818
 11
4432.899997347712
 21
1366.600006818716
  0
LINE
  5
24B
100
AcDbEntity
  8
0
  6
CONTINUOUS
 62
           3
100
AcDbLine
 10
4545.82480412102
 20
1409.999996423781
 11
4544.199996405623
 21
1409.999996423781
  0
LINE
  5
24A
100
AcDbEntity
  8
0
  6
CONTINUOUS
 62
           3
100
AcDbLine
 10
4544.199996405623
 20
1429.999999701965
 11
4545.89999538062
 21
1429.999999701965
  0
LINE
  5
249
100
AcDbEntity
  8
0
  6
CONTINUOUS
 62
           3
100
AcDbLine
 10
4545.89999538062
 20
1429.999999701965
 11
4545.89999538062
 21
1409.999996423781
  0
LINE
  5
248
100
AcDbEntity
  8
0
  6
CONTINUOUS
 62
           3
100
AcDbLine
 10
4425.899998062713
 20
1529.999999329482
 11
4427.599997037714
 21
1529.999999329482
  0
LINE
  5
247
100
AcDbEntity
  8
0
  6
CONTINUOUS
 62
           3
100
AcDbLine
 10
4425.899998062713
 20
1509.999999776398
 11
4425.899998062713
 21
1529.999999329482
  0
LINE
  5
246
100
AcDbEntity
  8
0
  6
CONTINUOUS
 62
           3
100
AcDbLine
 10
4427.599997037714
 20
1509.999999776398
 11
4425.975189322322
 21
1509.999999776398
  0
LINE
  5
245
100
AcDbEntity
  8
0
  6
CONTINUOUS
 62
           3
100
AcDbLine
 10
4425.975189322322
 20
1409.999996423781
 11
4427.599997037714
 21
1409.999996423781
  0
LINE
  5
244
100
AcDbEntity
  8
0
  6
CONTINUOUS
 62
           3
100
AcDbLine
 10
4427.599997037714
 20
1429.999999701965
 11
4425.899998062713
 21
1429.999999701965
  0
LINE
  5
243
100
AcDbEntity
  8
0
  6
CONTINUOUS
 62
           3
100
AcDbLine
 10
4425.899998062713
 20
1429.999999701965
 11
4425.899998062713
 21
1409.999996423781
  0
LINE
  5
242
100
AcDbEntity
  8
0
  6
CONTINUOUS
 62
           3
100
AcDbLine
 10
4427.599997037714
 20
1529.999999329482
 11
4427.899998390713
 21
1529.999999329482
  0
LINE
  5
241
100
AcDbEntity
  8
0
  6
CONTINUOUS
 62
           3
100
AcDbLine
 10
4427.899998390713
 20
1509.999999776398
 11
4427.599997037714
 21
1509.999999776398
  0
LINE
  5
240
100
AcDbEntity
  8
0
  6
CONTINUOUS
 62
           3
100
AcDbLine
 10
4425.899998062713
 20
1508.000000379901
 11
4427.899998390713
 21
1508.000000379901
  0
LINE
  5
23F
100
AcDbEntity
  8
0
  6
CONTINUOUS
 62
           3
100
AcDbLine
 10
4425.899998062713
 20
1508.000000379901
 11
4425.899998062713
 21
1431.999996304562
  0
LINE
  5
23E
100
AcDbEntity
  8
0
  6
CONTINUOUS
 62
           3
100
AcDbLine
 10
4425.899998062713
 20
1431.999996304562
 11
4427.899998390713
 21
1431.999996304562
  0
LINE
  5
23D
100
AcDbEntity
  8
0
  6
CONTINUOUS
 62
           3
100
AcDbLine
 10
4427.899998390713
 20
1429.999999701965
 11
4427.599997037714
 21
1429.999999701965
  0
LINE
  5
23C
100
AcDbEntity
  8
0
  6
CONTINUOUS
 62
           3
100
AcDbLine
 10
4427.599997037714
 20
1409.999996423781
 11
4427.899998390713
 21
1409.999996423781
  0
LINE
  5
23B
100
AcDbEntity
  8
0
  6
CONTINUOUS
 62
           3
100
AcDbLine
 10
4427.899998390713
 20
1407.999999821186
 11
4425.899998062713
 21
1407.999999821186
  0
LINE
  5
23A
100
AcDbEntity
  8
0
  6
CONTINUOUS
 62
           3
100
AcDbLine
 10
4425.899998062713
 20
1391.699999570794
 11
4425.899998062713
 21
1407.999999821186
  0
LINE
  5
239
100
AcDbEntity
  8
0
  6
CONTINUOUS
 62
           3
100
AcDbLine
 10
4545.89999538062
 20
1391.699999570794
 11
4545.89999538062
 21
1407.999999821186
  0
LINE
  5
238
100
AcDbEntity
  8
0
  6
CONTINUOUS
 62
           3
100
AcDbLine
 10
4543.899995052621
 20
1407.999999821186
 11
4545.89999538062
 21
1407.999999821186
  0
LINE
  5
237
100
AcDbEntity
  8
0
  6
CONTINUOUS
 62
           3
100
AcDbLine
 10
4544.199996405623
 20
1409.999996423781
 11
4543.899995052621
 21
1409.999996423781
  0
LINE
  5
236
100
AcDbEntity
  8
0
  6
CONTINUOUS
 62
           3
100
AcDbLine
 10
4543.899995052621
 20
1429.999999701965
 11
4544.199996405623
 21
1429.999999701965
  0
LINE
  5
235
100
AcDbEntity
  8
0
  6
CONTINUOUS
 62
           3
100
AcDbLine
 10
4545.89999538062
 20
1431.999996304562
 11
4543.899995052621
 21
1431.999996304562
  0
LINE
  5
234
100
AcDbEntity
  8
0
  6
CONTINUOUS
 62
           3
100
AcDbLine
 10
4545.89999538062
 20
1508.000000379901
 11
4545.89999538062
 21
1431.999996304562
  0
LINE
  5
233
100
AcDbEntity
  8
0
  6
CONTINUOUS
 62
           3
100
AcDbLine
 10
4545.89999538062
 20
1508.000000379901
 11
4543.899995052621
 21
1508.000000379901
  0
LINE
  5
232
100
AcDbEntity
  8
0
  6
CONTINUOUS
 62
           3
100
AcDbLine
 10
4543.899995052621
 20
1509.999999776398
 11
4544.199996405623
 21
1509.999999776398
  0
LINE
  5
231
100
AcDbEntity
  8
0
  6
CONTINUOUS
 62
           3
100
AcDbLine
 10
4544.199996405623
 20
1529.999999329482
 11
4543.899995052621
 21
1529.999999329482
  0
LINE
  5
230
100
AcDbEntity
  8
0
  6
CONTINUOUS
 62
           3
100
AcDbLine
 10
4543.899995052621
 20
1532.000001519882
 11
4545.89999538062
 21
1532.000001519882
  0
LINE
  5
22F
100
AcDbEntity
  8
0
  6
CONTINUOUS
 62
           3
100
AcDbLine
 10
4545.89999538062
 20
1548.300001770268
 11
4545.89999538062
 21
1532.000001519882
  0
LINE
  5
22E
100
AcDbEntity
  8
0
  6
CONTINUOUS
 62
           3
100
AcDbLine
 10
4425.899998062713
 20
1548.300001770268
 11
4425.899998062713
 21
1532.000001519882
  0
LINE
  5
22D
100
AcDbEntity
  8
0
  6
CONTINUOUS
 62
           3
100
AcDbLine
 10
4427.899998390713
 20
1532.000001519882
 11
4425.899998062713
 21
1532.000001519882
  0
LINE
  5
22C
100
AcDbEntity
  8
0
  6
CONTINUOUS
 62
           3
100
AcDbLine
 10
4544.199996405623
 20
1509.999999776398
 11
4545.82480412102
 21
1509.999999776398
  0
LINE
  5
22B
100
AcDbEntity
  8
0
  6
CONTINUOUS
 62
           3
100
AcDbLine
 10
4545.89999538062
 20
1509.999999776398
 11
4545.89999538062
 21
1529.999999329482
  0
LINE
  5
22A
100
AcDbEntity
  8
0
  6
CONTINUOUS
 62
           3
100
AcDbLine
 10
4545.89999538062
 20
1529.999999329482
 11
4544.199996405623
 21
1529.999999329482
  0
LINE
  5
229
100
AcDbEntity
  8
0
  6
CONTINUOUS
 62
           3
100
AcDbLine
 10
4545.89999538062
 20
1548.799999058068
 11
4545.89999538062
 21
1548.300001770268
  0
LINE
  5
228
100
AcDbEntity
  8
0
  6
CONTINUOUS
 62
           3
100
AcDbLine
 10
4425.899998062713
 20
1548.799999058068
 11
4425.899998062713
 21
1548.300001770268
  0
LINE
  5
227
100
AcDbEntity
  8
0
  6
CONTINUOUS
 62
           3
100
AcDbLine
 10
4425.899998062713
 20
1391.199998557596
 11
4425.899998062713
 21
1391.699999570794
  0
LINE
  5
226
100
AcDbEntity
  8
0
  6
CONTINUOUS
 62
           3
100
AcDbLine
 10
4545.89999538062
 20
1391.199998557596
 11
4545.89999538062
 21
1391.699999570794
  0
LINE
  5
225
100
AcDbEntity
  8
0
  6
CONTINUOUS
 62
           3
100
AcDbLine
 10
4488.899996747762
 20
1550.000000744965
 11
4489.149996788762
 21
1550.000000744965
  0
LINE
  5
224
100
AcDbEntity
  8
0
  6
CONTINUOUS
 62
           3
100
AcDbLine
 10
4482.649996654575
 20
1550.000000744965
 11
4482.899996695575
 21
1550.000000744965
  0
LINE
  5
223
100
AcDbEntity
  8
0
  6
CONTINUOUS
 62
           3
100
AcDbLine
 10
4488.899996747762
 20
1548.799999058068
 11
4489.149996788762
 21
1548.799999058068
  0
LINE
  5
222
100
AcDbEntity
  8
0
  6
CONTINUOUS
 62
           3
100
AcDbLine
 10
4482.649996654575
 20
1548.799999058068
 11
4482.899996695575
 21
1548.799999058068
  0
LINE
  5
221
100
AcDbEntity
  8
0
  6
CONTINUOUS
 62
           3
100
AcDbLine
 10
4482.899996695575
 20
1391.199998557596
 11
4482.649996654575
 21
1391.199998557596
  0
LINE
  5
220
100
AcDbEntity
  8
0
  6
CONTINUOUS
 62
           3
100
AcDbLine
 10
4489.149996788762
 20
1391.199998557596
 11
4488.899996747762
 21
1391.199998557596
  0
LINE
  5
21F
100
AcDbEntity
  8
0
  6
CONTINUOUS
 62
           3
100
AcDbLine
 10
4430.899997019711
 20
1391.199998557596
 11
4425.899998062713
 21
1391.199998557596
  0
LINE
  5
21E
100
AcDbEntity
  8
0
  6
CONTINUOUS
 62
           3
100
AcDbLine
 10
4425.899998062713
 20
1390.0000005961
 11
4430.899997019711
 21
1390.0000005961
  0
LINE
  5
21D
100
AcDbEntity
  8
0
  6
CONTINUOUS
 62
           3
100
AcDbLine
 10
4425.899998062713
 20
1391.199998557596
 11
4425.899998062713
 21
1390.0000005961
  0
LINE
  5
21C
100
AcDbEntity
  8
0
  6
CONTINUOUS
 62
           3
100
AcDbLine
 10
4425.899998062713
 20
1550.000000744965
 11
4430.899997019711
 21
1550.000000744965
  0
LINE
  5
21B
100
AcDbEntity
  8
0
  6
CONTINUOUS
 62
           3
100
AcDbLine
 10
4430.899997019711
 20
1548.799999058068
 11
4425.899998062713
 21
1548.799999058068
  0
LINE
  5
21A
100
AcDbEntity
  8
0
  6
CONTINUOUS
 62
           3
100
AcDbLine
 10
4425.899998062713
 20
1548.799999058068
 11
4425.899998062713
 21
1550.000000744965
  0
LINE
  5
219
100
AcDbEntity
  8
0
  6
CONTINUOUS
 62
           3
100
AcDbLine
 10
4530.899998509631
 20
1550.000000744965
 11
4515.899996051142
 21
1550.000000744965
  0
LINE
  5
218
100
AcDbEntity
  8
0
  6
CONTINUOUS
 62
           3
100
AcDbLine
 10
4530.899998509631
 20
1548.799999058068
 11
4515.899996051142
 21
1548.799999058068
  0
LINE
  5
217
100
AcDbEntity
  8
0
  6
CONTINUOUS
 62
           3
100
AcDbLine
 10
4545.89999538062
 20
1550.000000744965
 11
4540.899996423621
 21
1550.000000744965
  0
LINE
  5
216
100
AcDbEntity
  8
0
  6
CONTINUOUS
 62
           3
100
AcDbLine
 10
4540.899996423621
 20
1548.799999058068
 11
4545.89999538062
 21
1548.799999058068
  0
LINE
  5
215
100
AcDbEntity
  8
0
  6
CONTINUOUS
 62
           3
100
AcDbLine
 10
4545.89999538062
 20
1548.799999058068
 11
4545.89999538062
 21
1550.000000744965
  0
LINE
  5
214
100
AcDbEntity
  8
0
  6
CONTINUOUS
 62
           3
100
AcDbLine
 10
4530.899998509631
 20
1391.199998557596
 11
4515.899996051142
 21
1391.199998557596
  0
LINE
  5
213
100
AcDbEntity
  8
0
  6
CONTINUOUS
 62
           3
100
AcDbLine
 10
4530.899998509631
 20
1390.0000005961
 11
4515.899996051142
 21
1390.0000005961
  0
LINE
  5
212
100
AcDbEntity
  8
0
  6
CONTINUOUS
 62
           3
100
AcDbLine
 10
4440.899994933702
 20
1550.000000744965
 11
4455.899997392189
 21
1550.000000744965
  0
LINE
  5
211
100
AcDbEntity
  8
0
  6
CONTINUOUS
 62
           3
100
AcDbLine
 10
4440.899994933702
 20
1548.799999058068
 11
4455.899997392189
 21
1548.799999058068
  0
LINE
  5
210
100
AcDbEntity
  8
0
  6
CONTINUOUS
 62
           3
100
AcDbLine
 10
4540.899996423621
 20
1391.199998557596
 11
4545.89999538062
 21
1391.199998557596
  0
LINE
  5
20F
100
AcDbEntity
  8
0
  6
CONTINUOUS
 62
           3
100
AcDbLine
 10
4545.89999538062
 20
1390.0000005961
 11
4540.899996423621
 21
1390.0000005961
  0
LINE
  5
20E
100
AcDbEntity
  8
0
  6
CONTINUOUS
 62
           3
100
AcDbLine
 10
4545.89999538062
 20
1391.199998557596
 11
4545.89999538062
 21
1390.0000005961
  0
LINE
  5
20D
100
AcDbEntity
  8
0
  6
CONTINUOUS
 62
           3
100
AcDbLine
 10
4440.899994933702
 20
1391.199998557596
 11
4455.899997392189
 21
1391.199998557596
  0
LINE
  5
20C
100
AcDbEntity
  8
0
  6
CONTINUOUS
 62
           3
100
AcDbLine
 10
4440.899994933702
 20
1390.0000005961
 11
4455.899997392189
 21
1390.0000005961
  0
LINE
  5
20B
100
AcDbEntity
  8
0
  6
CONTINUOUS
 62
           3
100
AcDbLine
 10
4438.899998331102
 20
1550.000000744965
 11
4440.899994933702
 21
1550.000000744965
  0
LINE
  5
20A
100
AcDbEntity
  8
0
  6
CONTINUOUS
 62
           3
100
AcDbLine
 10
4440.899994933702
 20
1548.799999058068
 11
4438.899998331102
 21
1548.799999058068
  0
LINE
  5
209
100
AcDbEntity
  8
0
  6
CONTINUOUS
 62
           3
100
AcDbLine
 10
4438.899998331102
 20
1548.799999058068
 11
4438.899998331102
 21
1550.000000744965
  0
LINE
  5
208
100
AcDbEntity
  8
0
  6
CONTINUOUS
 62
           3
100
AcDbLine
 10
4430.899997019711
 20
1550.000000744965
 11
4432.899997347712
 21
1550.000000744965
  0
LINE
  5
207
100
AcDbEntity
  8
0
  6
CONTINUOUS
 62
           3
100
AcDbLine
 10
4432.899997347712
 20
1548.799999058068
 11
4430.899997019711
 21
1548.799999058068
  0
LINE
  5
206
100
AcDbEntity
  8
0
  6
CONTINUOUS
 62
           3
100
AcDbLine
 10
4432.899997347712
 20
1550.000000744965
 11
4432.899997347712
 21
1548.799999058068
  0
LINE
  5
205
100
AcDbEntity
  8
0
  6
CONTINUOUS
 62
           3
100
AcDbLine
 10
4530.899998509631
 20
1391.199998557596
 11
4532.899995112232
 21
1391.199998557596
  0
LINE
  5
204
100
AcDbEntity
  8
0
  6
CONTINUOUS
 62
           3
100
AcDbLine
 10
4532.899995112232
 20
1390.0000005961
 11
4530.899998509631
 21
1390.0000005961
  0
LINE
  5
203
100
AcDbEntity
  8
0
  6
CONTINUOUS
 62
           3
100
AcDbLine
 10
4532.899995112232
 20
1391.199998557596
 11
4532.899995112232
 21
1390.0000005961
  0
LINE
  5
202
100
AcDbEntity
  8
0
  6
CONTINUOUS
 62
           3
100
AcDbLine
 10
4538.899996095919
 20
1391.199998557596
 11
4540.899996423621
 21
1391.199998557596
  0
LINE
  5
201
100
AcDbEntity
  8
0
  6
CONTINUOUS
 62
           3
100
AcDbLine
 10
4540.899996423621
 20
1390.0000005961
 11
4538.899996095919
 21
1390.0000005961
  0
LINE
  5
200
100
AcDbEntity
  8
0
  6
CONTINUOUS
 62
           3
100
AcDbLine
 10
4538.899996095919
 20
1390.0000005961
 11
4538.899996095919
 21
1391.199998557596
  0
LINE
  5
1FF
100
AcDbEntity
  8
0
  6
CONTINUOUS
 62
           3
100
AcDbLine
 10
4532.899995112232
 20
1550.000000744965
 11
4530.899998509631
 21
1550.000000744965
  0
LINE
  5
1FE
100
AcDbEntity
  8
0
  6
CONTINUOUS
 62
           3
100
AcDbLine
 10
4530.899998509631
 20
1548.799999058068
 11
4532.899995112232
 21
1548.799999058068
  0
LINE
  5
1FD
100
AcDbEntity
  8
0
  6
CONTINUOUS
 62
           3
100
AcDbLine
 10
4532.899995112232
 20
1548.799999058068
 11
4532.899995112232
 21
1550.000000744965
  0
LINE
  5
1FC
100
AcDbEntity
  8
0
  6
CONTINUOUS
 62
           3
100
AcDbLine
 10
4540.899996423621
 20
1550.000000744965
 11
4538.899996095919
 21
1550.000000744965
  0
LINE
  5
1FB
100
AcDbEntity
  8
0
  6
CONTINUOUS
 62
           3
100
AcDbLine
 10
4538.899996095919
 20
1548.799999058068
 11
4540.899996423621
 21
1548.799999058068
  0
LINE
  5
1FA
100
AcDbEntity
  8
0
  6
CONTINUOUS
 62
           3
100
AcDbLine
 10
4538.899996095919
 20
1550.000000744965
 11
4538.899996095919
 21
1548.799999058068
  0
LINE
  5
1F9
100
AcDbEntity
  8
0
  6
CONTINUOUS
 62
           3
100
AcDbLine
 10
4440.899994933702
 20
1391.199998557596
 11
4438.899998331102
 21
1391.199998557596
  0
LINE
  5
1F8
100
AcDbEntity
  8
0
  6
CONTINUOUS
 62
           3
100
AcDbLine
 10
4438.899998331102
 20
1390.0000005961
 11
4440.899994933702
 21
1390.0000005961
  0
LINE
  5
1F7
100
AcDbEntity
  8
0
  6
CONTINUOUS
 62
           3
100
AcDbLine
 10
4438.899998331102
 20
1391.199998557596
 11
4438.899998331102
 21
1390.0000005961
  0
LINE
  5
1F6
100
AcDbEntity
  8
0
  6
CONTINUOUS
 62
           3
100
AcDbLine
 10
4432.899997347712
 20
1391.199998557596
 11
4430.899997019711
 21
1391.199998557596
  0
LINE
  5
1F5
100
AcDbEntity
  8
0
  6
CONTINUOUS
 62
           3
100
AcDbLine
 10
4430.899997019711
 20
1390.0000005961
 11
4432.899997347712
 21
1390.0000005961
  0
LINE
  5
1F4
100
AcDbEntity
  8
0
  6
CONTINUOUS
 62
           3
100
AcDbLine
 10
4432.899997347712
 20
1390.0000005961
 11
4432.899997347712
 21
1391.199998557596
  0
LINE
  5
1F3
100
AcDbEntity
  8
0
  6
CONTINUOUS
 62
           3
100
AcDbLine
 10
4482.399996613575
 20
1391.199998557596
 11
4482.649996654575
 21
1391.199998557596
  0
LINE
  5
1F2
100
AcDbEntity
  8
0
  6
CONTINUOUS
 62
           3
100
AcDbLine
 10
4482.649996654575
 20
1391.199998557596
 11
4482.649996654575
 21
1390.0000005961
  0
LINE
  5
1F1
100
AcDbEntity
  8
0
  6
CONTINUOUS
 62
           3
100
AcDbLine
 10
4515.899996051142
 20
1391.199998557596
 11
4505.899996274751
 21
1391.199998557596
  0
LINE
  5
1F0
100
AcDbEntity
  8
0
  6
CONTINUOUS
 62
           3
100
AcDbLine
 10
4515.899996051142
 20
1390.0000005961
 11
4505.899996274751
 21
1390.0000005961
  0
LINE
  5
1EF
100
AcDbEntity
  8
0
  6
CONTINUOUS
 62
           3
100
AcDbLine
 10
4515.899996051142
 20
1391.199998557596
 11
4515.899996051142
 21
1390.0000005961
  0
LINE
  5
1EE
100
AcDbEntity
  8
0
  6
CONTINUOUS
 62
           3
100
AcDbLine
 10
4480.649996792472
 20
1550.000000744965
 11
4482.649996654575
 21
1550.000000744965
  0
LINE
  5
1ED
100
AcDbEntity
  8
0
  6
CONTINUOUS
 62
           3
100
AcDbLine
 10
4482.649996654575
 20
1548.799999058068
 11
4480.649996792472
 21
1548.799999058068
  0
LINE
  5
1EC
100
AcDbEntity
  8
0
  6
CONTINUOUS
 62
           3
100
AcDbLine
 10
4482.649996654575
 20
1550.000000744965
 11
4482.649996654575
 21
1548.799999058068
  0
LINE
  5
1EB
100
AcDbEntity
  8
0
  6
CONTINUOUS
 62
           3
100
AcDbLine
 10
4493.899997101561
 20
1391.199998557596
 11
4505.899996274751
 21
1391.199998557596
  0
LINE
  5
1EA
100
AcDbEntity
  8
0
  6
CONTINUOUS
 62
           3
100
AcDbLine
 10
4493.899997101561
 20
1390.0000005961
 11
4505.899996274751
 21
1390.0000005961
  0
LINE
  5
1E9
100
AcDbEntity
  8
0
  6
CONTINUOUS
 62
           3
100
AcDbLine
 10
4505.899996274751
 20
1391.199998557596
 11
4505.899996274751
 21
1390.0000005961
  0
LINE
  5
1E8
100
AcDbEntity
  8
0
  6
CONTINUOUS
 62
           3
100
AcDbLine
 10
4455.899997392189
 20
1391.199998557596
 11
4465.899997168585
 21
1391.199998557596
  0
LINE
  5
1E7
100
AcDbEntity
  8
0
  6
CONTINUOUS
 62
           3
100
AcDbLine
 10
4455.899997392189
 20
1390.0000005961
 11
4465.899997168585
 21
1390.0000005961
  0
LINE
  5
1E6
100
AcDbEntity
  8
0
  6
CONTINUOUS
 62
           3
100
AcDbLine
 10
4455.899997392189
 20
1391.199998557596
 11
4455.899997392189
 21
1390.0000005961
  0
LINE
  5
1E5
100
AcDbEntity
  8
0
  6
CONTINUOUS
 62
           3
100
AcDbLine
 10
4489.149996788762
 20
1550.000000744965
 11
4491.149996650864
 21
1550.000000744965
  0
LINE
  5
1E4
100
AcDbEntity
  8
0
  6
CONTINUOUS
 62
           3
100
AcDbLine
 10
4491.149996650864
 20
1548.799999058068
 11
4489.149996788762
 21
1548.799999058068
  0
LINE
  5
1E3
100
AcDbEntity
  8
0
  6
CONTINUOUS
 62
           3
100
AcDbLine
 10
4489.149996788762
 20
1548.799999058068
 11
4489.149996788762
 21
1550.000000744965
  0
LINE
  5
1E2
100
AcDbEntity
  8
0
  6
CONTINUOUS
 62
           3
100
AcDbLine
 10
4515.899996051142
 20
1550.000000744965
 11
4505.899996274751
 21
1550.000000744965
  0
LINE
  5
1E1
100
AcDbEntity
  8
0
  6
CONTINUOUS
 62
           3
100
AcDbLine
 10
4515.899996051142
 20
1548.799999058068
 11
4505.899996274751
 21
1548.799999058068
  0
LINE
  5
1E0
100
AcDbEntity
  8
0
  6
CONTINUOUS
 62
           3
100
AcDbLine
 10
4515.899996051142
 20
1548.799999058068
 11
4515.899996051142
 21
1550.000000744965
  0
LINE
  5
1DF
100
AcDbEntity
  8
0
  6
CONTINUOUS
 62
           3
100
AcDbLine
 10
4489.149996788762
 20
1391.199998557596
 11
4489.399996829762
 21
1391.199998557596
  0
LINE
  5
1DE
100
AcDbEntity
  8
0
  6
CONTINUOUS
 62
           3
100
AcDbLine
 10
4489.149996788762
 20
1390.0000005961
 11
4489.149996788762
 21
1391.199998557596
  0
LINE
  5
1DD
100
AcDbEntity
  8
0
  6
CONTINUOUS
 62
           3
100
AcDbLine
 10
4465.899997168585
 20
1391.199998557596
 11
4477.899996341774
 21
1391.199998557596
  0
LINE
  5
1DC
100
AcDbEntity
  8
0
  6
CONTINUOUS
 62
           3
100
AcDbLine
 10
4465.899997168585
 20
1390.0000005961
 11
4477.899996341774
 21
1390.0000005961
  0
LINE
  5
1DB
100
AcDbEntity
  8
0
  6
CONTINUOUS
 62
           3
100
AcDbLine
 10
4465.899997168585
 20
1391.199998557596
 11
4465.899997168585
 21
1390.0000005961
  0
LINE
  5
1DA
100
AcDbEntity
  8
0
  6
CONTINUOUS
 62
           3
100
AcDbLine
 10
4465.899997168585
 20
1550.000000744965
 11
4480.649996792472
 21
1550.000000744965
  0
LINE
  5
1D9
100
AcDbEntity
  8
0
  6
CONTINUOUS
 62
           3
100
AcDbLine
 10
4465.899997168585
 20
1548.799999058068
 11
4480.649996792472
 21
1548.799999058068
  0
LINE
  5
1D8
100
AcDbEntity
  8
0
  6
CONTINUOUS
 62
           3
100
AcDbLine
 10
4491.149996650864
 20
1550.000000744965
 11
4505.899996274751
 21
1550.000000744965
  0
LINE
  5
1D7
100
AcDbEntity
  8
0
  6
CONTINUOUS
 62
           3
100
AcDbLine
 10
4491.149996650864
 20
1548.799999058068
 11
4505.899996274751
 21
1548.799999058068
  0
LINE
  5
1D6
100
AcDbEntity
  8
0
  6
CONTINUOUS
 62
           3
100
AcDbLine
 10
4505.899996274751
 20
1548.799999058068
 11
4505.899996274751
 21
1550.000000744965
  0
LINE
  5
1D5
100
AcDbEntity
  8
0
  6
CONTINUOUS
 62
           3
100
AcDbLine
 10
4455.899997392189
 20
1548.799999058068
 11
4455.899997392189
 21
1550.000000744965
  0
LINE
  5
1D4
100
AcDbEntity
  8
0
  6
CONTINUOUS
 62
           3
100
AcDbLine
 10
4455.899997392189
 20
1548.799999058068
 11
4465.899997168585
 21
1548.799999058068
  0
LINE
  5
1D3
100
AcDbEntity
  8
0
  6
CONTINUOUS
 62
           3
100
AcDbLine
 10
4465.899997168585
 20
1548.799999058068
 11
4465.899997168585
 21
1550.000000744965
  0
LINE
  5
1D2
100
AcDbEntity
  8
0
  6
CONTINUOUS
 62
           3
100
AcDbLine
 10
4455.899997392189
 20
1550.000000744965
 11
4465.899997168585
 21
1550.000000744965
  0
LINE
  5
1D1
100
AcDbEntity
  8
0
  6
CONTINUOUS
 62
           3
100
AcDbLine
 10
4493.899997101561
 20
1389.200001954998
 11
4493.899997101561
 21
1388.276241719797
  0
LINE
  5
1D0
100
AcDbEntity
  8
0
  6
CONTINUOUS
 62
           3
100
AcDbLine
 10
4477.899996341774
 20
1389.200001954998
 11
4477.899996341774
 21
1388.276241719797
  0
LINE
  5
1CF
100
AcDbEntity
  8
0
  6
CONTINUOUS
 62
           3
100
AcDbLine
 10
4480.899996833472
 20
1388.276241719797
 11
4477.899996341774
 21
1388.276241719797
  0
LINE
  5
1CE
100
AcDbEntity
  8
0
  6
CONTINUOUS
 62
           3
100
AcDbLine
 10
4493.899997101561
 20
1388.276241719797
 11
4490.899996609864
 21
1388.276241719797
  0
LINE
  5
1CD
100
AcDbEntity
  8
0
  6
CONTINUOUS
 62
           3
100
AcDbLine
 10
4488.399996665761
 20
1384.199999272903
 11
4490.89999660991
 21
1384.199999272903
  0
LINE
  5
1CC
100
AcDbEntity
  8
0
  6
CONTINUOUS
 62
           3
100
AcDbLine
 10
4480.899996833432
 20
1384.199999272903
 11
4483.399996777553
 21
1384.199999272903
  0
LINE
  5
1CB
100
AcDbEntity
  8
0
  6
CONTINUOUS
 62
           3
100
AcDbLine
 10
4490.899996609864
 20
1384.646579623305
 11
4490.899996609864
 21
1389.100000262197
  0
LINE
  5
1CA
100
AcDbEntity
  8
0
  6
CONTINUOUS
 62
           3
100
AcDbLine
 10
4480.899996833472
 20
1384.646579623305
 11
4480.899996833472
 21
1389.100000262197
  0
LINE
  5
1C9
100
AcDbEntity
  8
0
  6
CONTINUOUS
 62
           3
100
AcDbLine
 10
4480.899996833472
 20
1384.646579623305
 11
4483.399996777553
 21
1384.199999272903
  0
LINE
  5
1C8
100
AcDbEntity
  8
0
  6
CONTINUOUS
 62
           3
100
AcDbLine
 10
4485.899996721674
 20
1384.646579623298
 11
4485.899996721674
 21
1389.100000262197
  0
LINE
  5
1C7
100
AcDbEntity
  8
0
  6
CONTINUOUS
 62
           3
100
AcDbLine
 10
4483.399996777553
 20
1384.199999272903
 11
4488.399996665761
 21
1384.199999272903
  0
LINE
  5
1C6
100
AcDbEntity
  8
0
  6
CONTINUOUS
 62
           3
100
AcDbLine
 10
4485.899996721674
 20
1384.646579623298
 11
4488.399996665761
 21
1384.199999272903
  0
LINE
  5
1C5
100
AcDbEntity
  8
0
  6
CONTINUOUS
 62
           3
100
AcDbLine
 10
4482.399996613575
 20
1389.200001954998
 11
4489.399996829762
 21
1389.200001954998
  0
LINE
  5
1C4
100
AcDbEntity
  8
0
  6
CONTINUOUS
 62
           3
100
AcDbLine
 10
4482.399996613575
 20
1390.0000005961
 11
4489.399996829762
 21
1390.0000005961
  0
LINE
  5
1C3
100
AcDbEntity
  8
0
  6
CONTINUOUS
 62
           3
100
AcDbLine
 10
4489.399996829762
 20
1393.990144133495
 11
4482.399996613575
 21
1393.990144133495
  0
LINE
  5
1C2
100
AcDbEntity
  8
0
  6
CONTINUOUS
 62
           3
100
AcDbLine
 10
4482.899996695575
 20
1392.246469855296
 11
4482.399996613575
 21
1392.246469855296
  0
LINE
  5
1C1
100
AcDbEntity
  8
0
  6
CONTINUOUS
 62
           3
100
AcDbLine
 10
4489.399996829762
 20
1392.246469855296
 11
4488.899996747762
 21
1392.246469855296
  0
LINE
  5
1C0
100
AcDbEntity
  8
0
  6
CONTINUOUS
 62
           3
100
AcDbLine
 10
4493.899997101561
 20
1394.799999892895
 11
4493.899997101561
 21
1389.200001954998
  0
LINE
  5
1BF
100
AcDbEntity
  8
0
  6
CONTINUOUS
 62
           3
100
AcDbLine
 10
4477.899996341774
 20
1394.799999892895
 11
4477.899996341774
 21
1389.200001954998
  0
LINE
  5
1BE
100
AcDbEntity
  8
0
  6
CONTINUOUS
 62
           3
100
AcDbLine
 10
4482.399996613575
 20
1389.200001954998
 11
4482.399996613575
 21
1394.799999892895
  0
LINE
  5
1BD
100
AcDbEntity
  8
0
  6
CONTINUOUS
 62
           3
100
AcDbLine
 10
4489.399996829762
 20
1394.799999892895
 11
4489.399996829762
 21
1389.200001954998
  0
LINE
  5
1BC
100
AcDbEntity
  8
0
  6
CONTINUOUS
 62
           3
100
AcDbLine
 10
4482.399996613575
 20
1389.200001954998
 11
4477.899996341774
 21
1389.200001954998
  0
LINE
  5
1BB
100
AcDbEntity
  8
0
  6
CONTINUOUS
 62
           3
100
AcDbLine
 10
4482.399996613575
 20
1394.792847335494
 11
4489.399996829762
 21
1394.792847335494
  0
LINE
  5
1BA
100
AcDbEntity
  8
0
  6
CONTINUOUS
 62
           3
100
AcDbLine
 10
4493.899997101561
 20
1389.200001954998
 11
4489.399996829762
 21
1389.200001954998
  0
LINE
  5
1B9
100
AcDbEntity
  8
0
  6
CONTINUOUS
 62
           3
100
AcDbLine
 10
4487.899996816559
 20
1638.422653078995
 11
4483.899996626773
 21
1638.422653078995
  0
LINE
  5
1B8
100
AcDbEntity
  8
0
  6
CONTINUOUS
 62
           3
100
AcDbLine
 10
4482.899996695575
 20
1637.422651052296
 11
4488.899996747762
 21
1637.422651052296
  0
LINE
  5
1B7
100
AcDbEntity
  8
0
  6
CONTINUOUS
 62
           3
100
AcDbLine
 10
4431.899995321012
 20
1665.000006556372
 11
4435.899995976709
 21
1665.000006556372
  0
LINE
  5
1B6
100
AcDbEntity
  8
0
  6
CONTINUOUS
 62
           3
100
AcDbLine
 10
4435.899995976709
 20
1665.000006556372
 11
4439.899996632411
 21
1665.000006556372
  0
LINE
  5
1B5
100
AcDbEntity
  8
0
  6
CONTINUOUS
 62
           3
100
AcDbLine
 10
4481.569869687345
 20
1367.599993944259
 11
4480.899996833472
 21
1367.599993944115
  0
LINE
  5
1B4
100
AcDbEntity
  8
0
  6
CONTINUOUS
 62
           3
100
AcDbLine
 10
4490.899996609864
 20
1367.599993944115
 11
4490.230123756003
 21
1367.599993944259
  0
LINE
  5
1B3
100
AcDbEntity
  8
0
  6
CONTINUOUS
 62
           3
100
AcDbLine
 10
4481.569869687345
 20
1372.600004077044
 11
4480.899996833472
 21
1372.600004077012
  0
LINE
  5
1B2
100
AcDbEntity
  8
0
  6
CONTINUOUS
 62
           3
100
AcDbLine
 10
4490.230123756003
 20
1367.599993944259
 11
4485.899996721674
 21
1367.599993944259
  0
LINE
  5
1B1
100
AcDbEntity
  8
0
  6
CONTINUOUS
 62
           3
100
AcDbLine
 10
4485.899996721674
 20
1367.599993944259
 11
4481.569869687345
 21
1367.599993944259
  0
LINE
  5
1B0
100
AcDbEntity
  8
0
  6
CONTINUOUS
 62
           3
100
AcDbLine
 10
4480.126493853972
 20
1372.153416276112
 11
4480.126493853972
 21
1368.046581745315
  0
LINE
  5
1AF
100
AcDbEntity
  8
0
  6
CONTINUOUS
 62
           3
100
AcDbLine
 10
4480.126493853972
 20
1368.046581745315
 11
4481.569869687345
 21
1367.599993944259
  0
LINE
  5
1AE
100
AcDbEntity
  8
0
  6
CONTINUOUS
 62
           3
100
AcDbLine
 10
4483.013245287843
 20
1372.153416276065
 11
4481.569869687345
 21
1372.600004077044
  0
LINE
  5
1AD
100
AcDbEntity
  8
0
  6
CONTINUOUS
 62
           3
100
AcDbLine
 10
4488.786748155362
 20
1368.046581745315
 11
4490.230123756003
 21
1367.599993944259
  0
LINE
  5
1AC
100
AcDbEntity
  8
0
  6
CONTINUOUS
 62
           3
100
AcDbLine
 10
4491.673499589364
 20
1372.153416276112
 11
4491.673499589364
 21
1368.046581745315
  0
LINE
  5
1AB
100
AcDbEntity
  8
0
  6
CONTINUOUS
 62
           3
100
AcDbLine
 10
4491.673499589364
 20
1372.153416276112
 11
4490.230123756003
 21
1372.600004077044
  0
LINE
  5
1AA
100
AcDbEntity
  8
0
  6
CONTINUOUS
 62
           3
100
AcDbLine
 10
4483.013245287843
 20
1372.153416276065
 11
4483.013245287843
 21
1368.046581745238
  0
LINE
  5
1A9
100
AcDbEntity
  8
0
  6
CONTINUOUS
 62
           3
100
AcDbLine
 10
4488.786748155501
 20
1372.153416276065
 11
4488.786748155362
 21
1368.046581745315
  0
LINE
  5
1A8
100
AcDbEntity
  8
0
  6
CONTINUOUS
 62
           3
100
AcDbLine
 10
4490.899996609864
 20
1372.600004077012
 11
4490.230123756003
 21
1372.600004077044
  0
LINE
  5
1A7
100
AcDbEntity
  8
0
  6
CONTINUOUS
 62
           3
100
AcDbLine
 10
4490.899996609864
 20
1377.599999308607
 11
4490.230123756003
 21
1377.599999308669
  0
LINE
  5
1A6
100
AcDbEntity
  8
0
  6
CONTINUOUS
 62
           3
100
AcDbLine
 10
4481.569869687345
 20
1377.599999308669
 11
4480.899996833472
 21
1377.599999308607
  0
LINE
  5
1A5
100
AcDbEntity
  8
0
  6
CONTINUOUS
 62
           3
100
AcDbLine
 10
4485.899996721674
 20
1372.600004077044
 11
4481.569869687345
 21
1372.600004077044
  0
LINE
  5
1A4
100
AcDbEntity
  8
0
  6
CONTINUOUS
 62
           3
100
AcDbLine
 10
4490.230123756003
 20
1372.600004077044
 11
4485.899996721674
 21
1372.600004077044
  0
LINE
  5
1A3
100
AcDbEntity
  8
0
  6
CONTINUOUS
 62
           3
100
AcDbLine
 10
4485.899996721674
 20
1377.599999308669
 11
4481.569869687345
 21
1377.599999308669
  0
LINE
  5
1A2
100
AcDbEntity
  8
0
  6
CONTINUOUS
 62
           3
100
AcDbLine
 10
4480.126493853972
 20
1377.153418958208
 11
4480.126493853972
 21
1373.046576976914
  0
LINE
  5
1A1
100
AcDbEntity
  8
0
  6
CONTINUOUS
 62
           3
100
AcDbLine
 10
4480.126493853972
 20
1373.046576976914
 11
4481.569869687345
 21
1372.600004077044
  0
LINE
  5
1A0
100
AcDbEntity
  8
0
  6
CONTINUOUS
 62
           3
100
AcDbLine
 10
4483.013245287843
 20
1377.15341895827
 11
4481.569869687345
 21
1377.599999308669
  0
LINE
  5
19F
100
AcDbEntity
  8
0
  6
CONTINUOUS
 62
           3
100
AcDbLine
 10
4490.230123756003
 20
1377.599999308669
 11
4485.899996721674
 21
1377.599999308669
  0
LINE
  5
19E
100
AcDbEntity
  8
0
  6
CONTINUOUS
 62
           3
100
AcDbLine
 10
4488.786748155362
 20
1373.046576976914
 11
4490.230123756003
 21
1372.600004077044
  0
LINE
  5
19D
100
AcDbEntity
  8
0
  6
CONTINUOUS
 62
           3
100
AcDbLine
 10
4491.673499589364
 20
1377.153418958208
 11
4491.673499589364
 21
1373.046576976914
  0
LINE
  5
19C
100
AcDbEntity
  8
0
  6
CONTINUOUS
 62
           3
100
AcDbLine
 10
4491.673499589364
 20
1377.153418958208
 11
4490.230123756003
 21
1377.599999308669
  0
LINE
  5
19B
100
AcDbEntity
  8
0
  6
CONTINUOUS
 62
           3
100
AcDbLine
 10
4483.013245287843
 20
1377.15341895827
 11
4483.013245287843
 21
1373.046576976863
  0
LINE
  5
19A
100
AcDbEntity
  8
0
  6
CONTINUOUS
 62
           3
100
AcDbLine
 10
4488.786748155501
 20
1377.15341895827
 11
4488.786748155362
 21
1373.046576976914
  0
LINE
  5
199
100
AcDbEntity
  8
0
  6
CONTINUOUS
 62
           3
100
AcDbLine
 10
4480.126493853972
 20
1364.553421735919
 11
4480.126493853972
 21
1360.446587205125
  0
LINE
  5
198
100
AcDbEntity
  8
0
  6
CONTINUOUS
 62
           3
100
AcDbLine
 10
4480.126493853972
 20
1360.446587205125
 11
4481.569869687345
 21
1359.999999404051
  0
LINE
  5
197
100
AcDbEntity
  8
0
  6
CONTINUOUS
 62
           3
100
AcDbLine
 10
4483.013245287843
 20
1364.553421735861
 11
4481.569869687345
 21
1364.999994635675
  0
LINE
  5
196
100
AcDbEntity
  8
0
  6
CONTINUOUS
 62
           3
100
AcDbLine
 10
4488.786748155362
 20
1360.446587205125
 11
4490.230123755963
 21
1359.999999403924
  0
LINE
  5
195
100
AcDbEntity
  8
0
  6
CONTINUOUS
 62
           3
100
AcDbLine
 10
4491.673499589364
 20
1364.553421735919
 11
4491.673499589364
 21
1360.446587205125
  0
LINE
  5
194
100
AcDbEntity
  8
0
  6
CONTINUOUS
 62
           3
100
AcDbLine
 10
4491.673499589364
 20
1364.553421735919
 11
4490.230123756003
 21
1364.999994635675
  0
LINE
  5
193
100
AcDbEntity
  8
0
  6
CONTINUOUS
 62
           3
100
AcDbLine
 10
4483.013245287843
 20
1364.553421735861
 11
4483.013245287843
 21
1360.446587205027
  0
LINE
  5
192
100
AcDbEntity
  8
0
  6
CONTINUOUS
 62
           3
100
AcDbLine
 10
4488.786748155501
 20
1364.553421735861
 11
4488.786748155362
 21
1360.446587205125
  0
LINE
  5
191
100
AcDbEntity
  8
0
  6
CONTINUOUS
 62
           3
100
AcDbLine
 10
4480.899996833472
 20
1359.999999403924
 11
4481.569869687345
 21
1359.999999404051
  0
LINE
  5
190
100
AcDbEntity
  8
0
  6
CONTINUOUS
 62
           3
100
AcDbLine
 10
4490.899996609864
 20
1355.000004172323
 11
4490.230123756003
 21
1355.000004172423
  0
LINE
  5
18F
100
AcDbEntity
  8
0
  6
CONTINUOUS
 62
           3
100
AcDbLine
 10
4480.899996833472
 20
1355.000004172323
 11
4481.569869687345
 21
1355.000004172423
  0
LINE
  5
18E
100
AcDbEntity
  8
0
  6
CONTINUOUS
 62
           3
100
AcDbLine
 10
4491.673499589364
 20
1355.446577072225
 11
4490.230123756003
 21
1355.000004172423
  0
LINE
  5
18D
100
AcDbEntity
  8
0
  6
CONTINUOUS
 62
           3
100
AcDbLine
 10
4491.673499589364
 20
1355.446577072225
 11
4491.673499589364
 21
1359.553411603024
  0
LINE
  5
18C
100
AcDbEntity
  8
0
  6
CONTINUOUS
 62
           3
100
AcDbLine
 10
4480.126493853972
 20
1355.446577072225
 11
4480.126493853972
 21
1359.553411603024
  0
LINE
  5
18B
100
AcDbEntity
  8
0
  6
CONTINUOUS
 62
           3
100
AcDbLine
 10
4485.899996721674
 20
1359.999999404051
 11
4490.230123755963
 21
1359.999999403924
  0
LINE
  5
18A
100
AcDbEntity
  8
0
  6
CONTINUOUS
 62
           3
100
AcDbLine
 10
4488.786748155501
 20
1359.55341160307
 11
4490.230123755963
 21
1359.999999403924
  0
LINE
  5
189
100
AcDbEntity
  8
0
  6
CONTINUOUS
 62
           3
100
AcDbLine
 10
4481.569869687345
 20
1359.999999404051
 11
4485.899996721674
 21
1359.999999404051
  0
LINE
  5
188
100
AcDbEntity
  8
0
  6
CONTINUOUS
 62
           3
100
AcDbLine
 10
4481.569869687345
 20
1355.000004172423
 11
4485.899996721674
 21
1355.000004172323
  0
LINE
  5
187
100
AcDbEntity
  8
0
  6
CONTINUOUS
 62
           3
100
AcDbLine
 10
4485.899996721674
 20
1355.000004172323
 11
4490.230123756003
 21
1355.000004172423
  0
LINE
  5
186
100
AcDbEntity
  8
0
  6
CONTINUOUS
 62
           3
100
AcDbLine
 10
4483.013245287969
 20
1359.553411603024
 11
4485.899996721674
 21
1359.999999404051
  0
LINE
  5
185
100
AcDbEntity
  8
0
  6
CONTINUOUS
 62
           3
100
AcDbLine
 10
4483.013245287843
 20
1355.446577072245
 11
4483.013245287969
 21
1359.553411603024
  0
LINE
  5
184
100
AcDbEntity
  8
0
  6
CONTINUOUS
 62
           3
100
AcDbLine
 10
4488.786748155362
 20
1355.446577072225
 11
4485.899996721674
 21
1355.000004172323
  0
LINE
  5
183
100
AcDbEntity
  8
0
  6
CONTINUOUS
 62
           3
100
AcDbLine
 10
4488.786748155362
 20
1355.446577072225
 11
4488.786748155501
 21
1359.55341160307
  0
LINE
  5
182
100
AcDbEntity
  8
0
  6
CONTINUOUS
 62
           3
100
AcDbLine
 10
4542.899996751322
 20
1393.799997866197
 11
4542.899996751322
 21
1543.80000010137
  0
LINE
  5
181
100
AcDbEntity
  8
0
  6
CONTINUOUS
 62
           3
100
AcDbLine
 10
4431.899995321012
 20
1543.80000010137
 11
4428.899996692009
 21
1543.80000010137
  0
LINE
  5
180
100
AcDbEntity
  8
0
  6
CONTINUOUS
 62
           3
100
AcDbLine
 10
4482.899996695575
 20
1543.80000010137
 11
4439.899996632411
 21
1543.80000010137
  0
LINE
  5
17F
100
AcDbEntity
  8
0
  6
CONTINUOUS
 62
           3
100
AcDbLine
 10
4531.899996810931
 20
1543.80000010137
 11
4488.899996747762
 21
1543.80000010137
  0
LINE
  5
17E
100
AcDbEntity
  8
0
  6
CONTINUOUS
 62
           3
100
AcDbLine
 10
4542.899996751322
 20
1543.80000010137
 11
4539.899998122325
 21
1543.80000010137
  0
LINE
  5
17D
100
AcDbEntity
  8
0
  6
CONTINUOUS
 62
           3
100
AcDbLine
 10
4428.899996692009
 20
1543.80000010137
 11
4428.899996692009
 21
1393.799997866197
  0
LINE
  5
17C
100
AcDbEntity
  8
0
  6
CONTINUOUS
 62
           3
100
AcDbLine
 10
4539.899998122325
 20
1393.799997866197
 11
4542.899996751322
 21
1393.799997866197
  0
LINE
  5
17B
100
AcDbEntity
  8
0
  6
CONTINUOUS
 62
           3
100
AcDbLine
 10
4493.899997101561
 20
1393.799997866197
 11
4531.899996810931
 21
1393.799997866197
  0
LINE
  5
17A
100
AcDbEntity
  8
0
  6
CONTINUOUS
 62
           3
100
AcDbLine
 10
4439.899996632411
 20
1393.799997866197
 11
4477.899996341774
 21
1393.799997866197
  0
LINE
  5
179
100
AcDbEntity
  8
0
  6
CONTINUOUS
 62
           3
100
AcDbLine
 10
4428.899996692009
 20
1393.799997866197
 11
4431.899995321012
 21
1393.799997866197
  0
LINE
  5
178
100
AcDbEntity
  8
0
  6
CONTINUOUS
 62
           3
100
AcDbLine
 10
4479.42649402987
 20
1389.099999999997
 11
4492.373499413461
 21
1389.099999999997
  0
LINE
  5
177
100
AcDbEntity
  8
0
  6
CONTINUOUS
 62
           3
100
AcDbLine
 10
4493.899997101561
 20
1394.799999892895
 11
4489.399996829762
 21
1394.799999892895
  0
LINE
  5
176
100
AcDbEntity
  8
0
  6
CONTINUOUS
 62
           3
100
AcDbLine
 10
4482.399996613575
 20
1394.799999892895
 11
4477.899996341774
 21
1394.799999892895
  0
LINE
  5
175
100
AcDbEntity
  8
0
  6
CONTINUOUS
 62
           3
100
AcDbLine
 10
4483.899996626773
 20
1638.422653078995
 11
4482.899996695575
 21
1637.422651052296
  0
LINE
  5
174
100
AcDbEntity
  8
0
  6
CONTINUOUS
 62
           3
100
AcDbLine
 10
4488.899996747762
 20
1637.422651052296
 11
4487.899996816559
 21
1638.422653078995
  0
LINE
  5
173
100
AcDbEntity
  8
0
  6
CONTINUOUS
 62
           3
100
AcDbLine
 10
4482.899996695575
 20
1367.599993944115
 11
4482.899996695575
 21
1366.600006818716
  0
LINE
  5
172
100
AcDbEntity
  8
0
  6
CONTINUOUS
 62
           3
100
AcDbLine
 10
4482.899996695575
 20
1384.199999272903
 11
4482.899996695575
 21
1377.599999308607
  0
LINE
  5
171
100
AcDbEntity
  8
0
  6
CONTINUOUS
 62
           3
100
AcDbLine
 10
4482.899996695575
 20
1392.957426607597
 11
4482.899996695575
 21
1390.0000005961
  0
LINE
  5
170
100
AcDbEntity
  8
0
  6
CONTINUOUS
 62
           3
100
AcDbLine
 10
4482.899996695575
 20
1633.399993180999
 11
4482.899996695575
 21
1394.792847335494
  0
LINE
  5
16F
100
AcDbEntity
  8
0
  6
CONTINUOUS
 62
           3
100
AcDbLine
 10
4482.899996695575
 20
1637.422651052296
 11
4482.899996695575
 21
1635.000005364199
  0
LINE
  5
16E
100
AcDbEntity
  8
0
  6
CONTINUOUS
 62
           3
100
AcDbLine
 10
4488.899996747762
 20
1635.000005364199
 11
4488.899996747762
 21
1637.422651052296
  0
LINE
  5
16D
100
AcDbEntity
  8
0
  6
CONTINUOUS
 62
           3
100
AcDbLine
 10
4488.899996747762
 20
1394.792847335494
 11
4488.899996747762
 21
1633.399993180999
  0
LINE
  5
16C
100
AcDbEntity
  8
0
  6
CONTINUOUS
 62
           3
100
AcDbLine
 10
4488.899996747762
 20
1390.0000005961
 11
4488.899996747762
 21
1392.957426607597
  0
LINE
  5
16B
100
AcDbEntity
  8
0
  6
CONTINUOUS
 62
           3
100
AcDbLine
 10
4488.899996747762
 20
1377.599999308607
 11
4488.899996747762
 21
1384.199999272903
  0
LINE
  5
16A
100
AcDbEntity
  8
0
  6
CONTINUOUS
 62
           3
100
AcDbLine
 10
4488.899996747762
 20
1366.600006818716
 11
4488.899996747762
 21
1367.599993944115
  0
LINE
  5
169
100
AcDbEntity
  8
0
  6
CONTINUOUS
 62
           3
100
AcDbLine
 10
4439.899996632411
 20
1635.000005364199
 11
4439.899996632411
 21
1665.000006556372
  0
LINE
  5
168
100
AcDbEntity
  8
0
  6
CONTINUOUS
 62
           3
100
AcDbLine
 10
4439.899996632411
 20
1550.000000744965
 11
4439.899996632411
 21
1633.399993180999
  0
LINE
  5
167
100
AcDbEntity
  8
0
  6
CONTINUOUS
 62
           3
100
AcDbLine
 10
4439.899996632411
 20
1391.199998557596
 11
4439.899996632411
 21
1548.799999058068
  0
LINE
  5
166
100
AcDbEntity
  8
0
  6
CONTINUOUS
 62
           3
100
AcDbLine
 10
4439.899996632411
 20
1366.600006818716
 11
4439.899996632411
 21
1390.0000005961
  0
LINE
  5
165
100
AcDbEntity
  8
0
  6
CONTINUOUS
 62
           3
100
AcDbLine
 10
4431.899995321012
 20
1364.999994635818
 11
4431.899995321012
 21
1314.999997615959
  0
LINE
  5
164
100
AcDbEntity
  8
0
  6
CONTINUOUS
 62
           3
100
AcDbLine
 10
4431.899995321012
 20
1390.0000005961
 11
4431.899995321012
 21
1366.600006818716
  0
LINE
  5
163
100
AcDbEntity
  8
0
  6
CONTINUOUS
 62
           3
100
AcDbLine
 10
4431.899995321012
 20
1548.799999058068
 11
4431.899995321012
 21
1391.199998557596
  0
LINE
  5
162
100
AcDbEntity
  8
0
  6
CONTINUOUS
 62
           3
100
AcDbLine
 10
4431.899995321012
 20
1633.399993180999
 11
4431.899995321012
 21
1550.000000744965
  0
LINE
  5
161
100
AcDbEntity
  8
0
  6
CONTINUOUS
 62
           3
100
AcDbLine
 10
4431.899995321012
 20
1665.000006556372
 11
4431.899995321012
 21
1635.000005364199
  0
LINE
  5
160
100
AcDbEntity
  8
0
  6
CONTINUOUS
 62
           3
100
AcDbLine
 10
4539.899998122325
 20
1635.000005364199
 11
4539.899998122325
 21
1641.000000000003
  0
LINE
  5
15F
100
AcDbEntity
  8
0
  6
CONTINUOUS
 62
           3
100
AcDbLine
 10
4539.899998122325
 20
1550.000000744965
 11
4539.899998122325
 21
1633.399993180999
  0
LINE
  5
15E
100
AcDbEntity
  8
0
  6
CONTINUOUS
 62
           3
100
AcDbLine
 10
4539.899998122325
 20
1391.199998557596
 11
4539.899998122325
 21
1548.799999058068
  0
LINE
  5
15D
100
AcDbEntity
  8
0
  6
CONTINUOUS
 62
           3
100
AcDbLine
 10
4539.899998122325
 20
1366.600006818716
 11
4539.899998122325
 21
1390.0000005961
  0
LINE
  5
15C
100
AcDbEntity
  8
0
  6
CONTINUOUS
 62
           3
100
AcDbLine
 10
4539.899998122325
 20
1314.999997615959
 11
4539.899998122325
 21
1364.999994635818
  0
LINE
  5
15B
100
AcDbEntity
  8
0
  6
CONTINUOUS
 62
           3
100
AcDbLine
 10
4531.899996810931
 20
1364.999994635818
 11
4531.899996810931
 21
1314.999997615959
  0
LINE
  5
15A
100
AcDbEntity
  8
0
  6
CONTINUOUS
 62
           3
100
AcDbLine
 10
4531.899996810931
 20
1390.0000005961
 11
4531.899996810931
 21
1366.600006818716
  0
LINE
  5
159
100
AcDbEntity
  8
0
  6
CONTINUOUS
 62
           3
100
AcDbLine
 10
4531.899996810931
 20
1548.799999058068
 11
4531.899996810931
 21
1391.199998557596
  0
LINE
  5
158
100
AcDbEntity
  8
0
  6
CONTINUOUS
 62
           3
100
AcDbLine
 10
4531.899996810931
 20
1633.399993180999
 11
4531.899996810931
 21
1550.000000744965
  0
LINE
  5
157
100
AcDbEntity
  8
0
  6
CONTINUOUS
 62
           3
100
AcDbLine
 10
4531.899996810931
 20
1641.000000000003
 11
4531.899996810931
 21
1635.000005364199
  0
LINE
  5
156
100
AcDbEntity
  8
0
  6
CONTINUOUS
 62
           3
100
AcDbLine
 10
4480.126493853972
 20
1368.046581745315
 11
4480.899996833472
 21
1367.599993944115
  0
LINE
  5
155
100
AcDbEntity
  8
0
  6
CONTINUOUS
 62
           3
100
AcDbLine
 10
4490.899996609864
 20
1367.599993944115
 11
4491.673499589364
 21
1368.046581745315
  0
LINE
  5
154
100
AcDbEntity
  8
0
  6
CONTINUOUS
 62
           3
100
AcDbLine
 10
4491.673499589364
 20
1372.153416276112
 11
4490.899996609864
 21
1372.600004077012
  0
LINE
  5
153
100
AcDbEntity
  8
0
  6
CONTINUOUS
 62
           3
100
AcDbLine
 10
4480.899996833472
 20
1372.600004077012
 11
4480.126493853972
 21
1372.153416276112
  0
LINE
  5
152
100
AcDbEntity
  8
0
  6
CONTINUOUS
 62
           3
100
AcDbLine
 10
4480.126493853972
 20
1373.046576976914
 11
4480.899996833472
 21
1372.600004077012
  0
LINE
  5
151
100
AcDbEntity
  8
0
  6
CONTINUOUS
 62
           3
100
AcDbLine
 10
4490.899996609864
 20
1372.600004077012
 11
4491.673499589364
 21
1373.046576976914
  0
LINE
  5
150
100
AcDbEntity
  8
0
  6
CONTINUOUS
 62
           3
100
AcDbLine
 10
4491.673499589364
 20
1377.153418958208
 11
4490.899996609864
 21
1377.599999308607
  0
LINE
  5
14F
100
AcDbEntity
  8
0
  6
CONTINUOUS
 62
           3
100
AcDbLine
 10
4480.899996833472
 20
1377.599999308607
 11
4480.126493853972
 21
1377.153418958208
  0
LINE
  5
14E
100
AcDbEntity
  8
0
  6
CONTINUOUS
 62
           3
100
AcDbLine
 10
4480.126493853972
 20
1360.446587205125
 11
4480.899996833472
 21
1359.999999403924
  0
LINE
  5
14D
100
AcDbEntity
  8
0
  6
CONTINUOUS
 62
           3
100
AcDbLine
 10
4490.899996609864
 20
1359.999999403924
 11
4491.673499589364
 21
1360.446587205125
  0
LINE
  5
14C
100
AcDbEntity
  8
0
  6
CONTINUOUS
 62
           3
100
AcDbLine
 10
4491.673499589364
 20
1364.553421735919
 11
4490.899996609864
 21
1364.999994635818
  0
LINE
  5
14B
100
AcDbEntity
  8
0
  6
CONTINUOUS
 62
           3
100
AcDbLine
 10
4480.899996833472
 20
1364.999994635818
 11
4480.126493853972
 21
1364.553421735919
  0
LINE
  5
14A
100
AcDbEntity
  8
0
  6
CONTINUOUS
 62
           3
100
AcDbLine
 10
4491.673499589364
 20
1359.553411603024
 11
4490.899996609864
 21
1359.999999403924
  0
LINE
  5
149
100
AcDbEntity
  8
0
  6
CONTINUOUS
 62
           3
100
AcDbLine
 10
4480.899996833472
 20
1359.999999403924
 11
4480.126493853972
 21
1359.553411603024
  0
LINE
  5
148
100
AcDbEntity
  8
0
  6
CONTINUOUS
 62
           3
100
AcDbLine
 10
4490.899996609864
 20
1355.000004172323
 11
4491.673499589364
 21
1355.446577072225
  0
LINE
  5
147
100
AcDbEntity
  8
0
  6
CONTINUOUS
 62
           3
100
AcDbLine
 10
4480.126493853972
 20
1355.446577072225
 11
4480.899996833472
 21
1355.000004172323
  0
LINE
  5
146
100
AcDbEntity
  8
0
  6
CONTINUOUS
 62
           3
100
AcDbLine
 10
4439.899996632411
 20
1314.999997615959
 11
4439.899996632411
 21
1364.999994635818
  0
LINE
  5
145
100
AcDbEntity
  8
1
  6
CONTINUOUS
 62
           3
100
AcDbLine
 10
4967.5
 20
1929.000000000003
 11
4819.899996810931
 21
1929.000000000003
  0
LINE
  5
144
100
AcDbEntity
  8
1
  6
CONTINUOUS
 62
           3
100
AcDbLine
 10
4967.5
 20
1921.000000000004
 11
4819.899998122324
 21
1921.000000000004
  0
LINE
  5
143
100
AcDbEntity
  8
1
  6
CONTINUOUS
 62
           7
100
AcDbLine
 10
4120.0
 20
1733.0
 11
4120.000000000001
 21
1620.0
  0
LINE
  5
142
100
AcDbEntity
  8
1
  6
CONTINUOUS
 62
           7
100
AcDbLine
 10
4300.0
 20
1733.000000000001
 11
4120.0
 21
1733.0
  0
LINE
  5
141
100
AcDbEntity
  8
1
  6
CONTINUOUS
 62
           7
100
AcDbLine
 10
4300.0
 20
1620.0
 11
4300.0
 21
1733.000000000001
  0
LINE
  5
140
100
AcDbEntity
  8
1
  6
CONTINUOUS
 62
           7
100
AcDbLine
 10
4120.000000000001
 20
1620.0
 11
4300.0
 21
1620.0
  0
LINE
  5
13F
100
AcDbEntity
  8
1
  6
CONTINUOUS
 62
           2
100
AcDbLine
 10
4550.0
 20
1741.488764155299
 11
4550.0
 21
1980.000000000003
  0
LINE
  5
13E
100
AcDbEntity
  8
1
  6
CONTINUOUS
 62
           7
100
AcDbLine
 10
4570.0
 20
1784.157226830839
 11
4569.999999999998
 21
2000.000000000003
  0
LINE
  5
13D
100
AcDbEntity
  8
1
  6
CONTINUOUS
 62
           2
100
AcDbLine
 10
4589.999999999998
 20
1800.831132334582
 11
4590.0
 21
520.000000000002
  0
LINE
  5
13C
100
AcDbEntity
  8
1
  6
CONTINUOUS
 62
           7
100
AcDbLine
 10
-250.0
 20
2000.000000000001
 11
-250.0
 21
1763.744569986045
  0
LINE
  5
13B
100
AcDbEntity
  8
1
  6
CONTINUOUS
 62
           7
100
AcDbLine
 10
250.0
 20
1763.744569986045
 11
250.0
 21
800.000000000001
  0
LINE
  5
13A
100
AcDbEntity
  8
1
  6
DOT_CENTER
 62
           3
100
AcDbLine
 10
8.472255321879
 20
1340.200848327052
 11
8.472255321879
 21
1250.202277327052
  0
LINE
  5
139
100
AcDbEntity
  8
1
  6
DOT_CENTER
 62
           3
100
AcDbLine
 10
53.472255321879
 20
1295.200848327052
 11
-36.525199678127
 21
1295.200848327052
  0
LINE
  5
138
100
AcDbEntity
  8
1
  6
CONTINUOUS
 62
           3
100
AcDbLine
 10
4.936660321884
 20
1323.330711327062
 11
2.548714321875
 21
1296.073587327061
  0
LINE
  5
137
100
AcDbEntity
  8
1
  6
CONTINUOUS
 62
           3
100
AcDbLine
 10
2.548714321875
 20
1294.328109327062
 11
4.936660321884
 21
1267.070985327061
  0
LINE
  5
136
100
AcDbEntity
  8
1
  6
CONTINUOUS
 62
           3
100
AcDbLine
 10
12.007850321893
 20
1323.330711327062
 11
14.395796321875
 21
1296.073587327061
  0
LINE
  5
135
100
AcDbEntity
  8
1
  6
CONTINUOUS
 62
           3
100
AcDbLine
 10
14.395796321875
 20
1294.328109327062
 11
12.007850321893
 21
1267.070985327061
  0
LINE
  5
134
100
AcDbEntity
  8
1
  6
CONTINUOUS
 62
           7
100
AcDbLine
 10
75.0
 20
1646.282992387804
 11
-1075.0
 21
1646.282992387804
  0
LINE
  5
133
100
AcDbEntity
  8
1
  6
CONTINUOUS
 62
           7
100
AcDbLine
 10
-1075.0
 20
941.513526798367
 11
-1075.0
 21
1646.282992387804
  0
LINE
  5
132
100
AcDbEntity
  8
1
  6
CONTINUOUS
 62
           7
100
AcDbLine
 10
75.0
 20
941.513526798367
 11
75.0
 21
1646.282992387804
  0
LINE
  5
131
100
AcDbEntity
  8
1
  6
CONTINUOUS
 62
           7
100
AcDbLine
 10
-1075.0
 20
941.513526798367
 11
75.0
 21
941.513526798367
  0
LINE
  5
130
100
AcDbEntity
  8
___S__
  6
DOT_CENTER
 62
           3
100
AcDbLine
 10
-1074.999999999975
 20
1621.052837286499
 11
-1074.999999999976
 21
1536.057127055391
  0
LINE
  5
12F
100
AcDbEntity
  8
____
  6
CONTINUOUS
 62
           3
100
AcDbLine
 10
-1069.595947044857
 20
1614.449075506233
 11
-1069.595947044857
 21
1612.571144758109
  0
LINE
  5
12E
100
AcDbEntity
  8
____
  6
CONTINUOUS
 62
           3
100
AcDbLine
 10
-1079.912775413719
 20
1614.918558193265
 11
-1070.087224586232
 21
1614.918558193265
  0
LINE
  5
12D
100
AcDbEntity
  8
____
  6
CONTINUOUS
 62
           3
100
AcDbLine
 10
-1080.404052955094
 20
1612.57114475811
 11
-1080.404052955094
 21
1614.449075506233
  0
LINE
  5
12C
100
AcDbEntity
  8
____
  6
CONTINUOUS
 62
           3
100
AcDbLine
 10
-1069.497691536591
 20
1576.890460543777
 11
-1080.502308463369
 21
1576.890460543777
  0
LINE
  5
12B
100
AcDbEntity
  8
____
  6
CONTINUOUS
 62
           3
100
AcDbLine
 10
-1069.497691536591
 20
1612.571144758109
 11
-1069.497691536591
 21
1576.890460543777
  0
LINE
  5
12A
100
AcDbEntity
  8
____
  6
CONTINUOUS
 62
           3
100
AcDbLine
 10
-1080.502308463368
 20
1612.57114475811
 11
-1069.497691536591
 21
1612.571144758109
  0
LINE
  5
129
100
AcDbEntity
  8
____
  6
CONTINUOUS
 62
           3
100
AcDbLine
 10
-1080.502308463369
 20
1576.890460543777
 11
-1080.502308463368
 21
1612.57114475811
  0
LINE
  5
128
100
AcDbEntity
  8
____
  6
CONTINUOUS
 62
           3
100
AcDbLine
 10
-1080.404052955096
 20
1538.392880207261
 11
-1080.404052955096
 21
1540.270810955384
  0
LINE
  5
127
100
AcDbEntity
  8
____
  6
CONTINUOUS
 62
           3
100
AcDbLine
 10
-1070.087224586232
 20
1537.923397520232
 11
-1079.912775413721
 21
1537.923397520232
  0
LINE
  5
126
100
AcDbEntity
  8
____
  6
CONTINUOUS
 62
           3
100
AcDbLine
 10
-1069.595947044857
 20
1540.270810955384
 11
-1069.595947044857
 21
1538.392880207261
  0
LINE
  5
125
100
AcDbEntity
  8
____
  6
CONTINUOUS
 62
           3
100
AcDbLine
 10
-1080.158414184408
 20
1576.890460543777
 11
-1080.158414184408
 21
1575.951495169717
  0
LINE
  5
124
100
AcDbEntity
  8
____
  6
CONTINUOUS
 62
           3
100
AcDbLine
 10
-1069.841585815545
 20
1576.890460543777
 11
-1080.158414184408
 21
1576.890460543777
  0
LINE
  5
123
100
AcDbEntity
  8
____
  6
CONTINUOUS
 62
           3
100
AcDbLine
 10
-1069.841585815545
 20
1575.951495169717
 11
-1069.841585815545
 21
1576.890460543777
  0
LINE
  5
122
100
AcDbEntity
  8
____
  6
CONTINUOUS
 62
           3
100
AcDbLine
 10
-1080.404052955094
 20
1614.449075506233
 11
-1069.595947044857
 21
1614.449075506233
  0
LINE
  5
121
100
AcDbEntity
  8
____
  6
CONTINUOUS
 62
           3
100
AcDbLine
 10
-1080.502308463369
 20
1575.951495169717
 11
-1069.497691536591
 21
1575.951495169717
  0
LINE
  5
120
100
AcDbEntity
  8
____
  6
CONTINUOUS
 62
           3
100
AcDbLine
 10
-1080.502308463369
 20
1540.270810955384
 11
-1080.502308463369
 21
1575.951495169717
  0
LINE
  5
11F
100
AcDbEntity
  8
____
  6
CONTINUOUS
 62
           3
100
AcDbLine
 10
-1069.497691536591
 20
1540.270810955384
 11
-1080.502308463369
 21
1540.270810955384
  0
LINE
  5
11E
100
AcDbEntity
  8
____
  6
CONTINUOUS
 62
           3
100
AcDbLine
 10
-1069.497691536591
 20
1575.951495169717
 11
-1069.497691536591
 21
1540.270810955384
  0
LINE
  5
11D
100
AcDbEntity
  8
____
  6
CONTINUOUS
 62
           3
100
AcDbLine
 10
-1080.404052955094
 20
1614.449075506233
 11
-1079.912775413719
 21
1614.918558193265
  0
LINE
  5
11C
100
AcDbEntity
  8
____
  6
CONTINUOUS
 62
           3
100
AcDbLine
 10
-1070.087224586232
 20
1614.918558193265
 11
-1069.595947044857
 21
1614.449075506233
  0
LINE
  5
11B
100
AcDbEntity
  8
____
  6
CONTINUOUS
 62
           3
100
AcDbLine
 10
-1079.912775413721
 20
1537.923397520232
 11
-1080.404052955096
 21
1538.392880207261
  0
LINE
  5
11A
100
AcDbEntity
  8
____
  6
CONTINUOUS
 62
           3
100
AcDbLine
 10
-1069.595947044857
 20
1538.392880207261
 11
-1070.087224586232
 21
1537.923397520232
  0
LINE
  5
119
100
AcDbEntity
  8
____
  6
CONTINUOUS
 62
           3
100
AcDbLine
 10
-1080.404052955096
 20
1538.392880207261
 11
-1069.595947044857
 21
1538.392880207261
  0
LINE
  5
118
100
AcDbEntity
  8
____
  6
CONTINUOUS
 62
           3
100
AcDbLine
 10
-1080.404052955119
 20
984.403309517208
 11
-1069.595947044882
 21
984.403309517208
  0
LINE
  5
117
100
AcDbEntity
  8
____
  6
CONTINUOUS
 62
           3
100
AcDbLine
 10
-1069.595947044882
 20
984.403309517208
 11
-1070.087224586257
 21
983.933826830175
  0
LINE
  5
116
100
AcDbEntity
  8
____
  6
CONTINUOUS
 62
           3
100
AcDbLine
 10
-1079.912775413746
 20
983.933826830175
 11
-1080.404052955119
 21
984.403309517208
  0
LINE
  5
115
100
AcDbEntity
  8
____
  6
CONTINUOUS
 62
           3
100
AcDbLine
 10
-1070.087224586255
 20
1060.928987503211
 11
-1069.59594704488
 21
1060.45950481618
  0
LINE
  5
114
100
AcDbEntity
  8
____
  6
CONTINUOUS
 62
           3
100
AcDbLine
 10
-1080.404052955118
 20
1060.45950481618
 11
-1079.912775413744
 21
1060.928987503211
  0
LINE
  5
113
100
AcDbEntity
  8
____
  6
CONTINUOUS
 62
           3
100
AcDbLine
 10
-1069.497691536607
 20
1021.961924479663
 11
-1069.497691536609
 21
986.28124026533
  0
LINE
  5
112
100
AcDbEntity
  8
____
  6
CONTINUOUS
 62
           3
100
AcDbLine
 10
-1069.497691536609
 20
986.28124026533
 11
-1080.502308463385
 21
986.28124026533
  0
LINE
  5
111
100
AcDbEntity
  8
____
  6
CONTINUOUS
 62
           3
100
AcDbLine
 10
-1080.502308463385
 20
986.28124026533
 11
-1080.502308463385
 21
1021.961924479663
  0
LINE
  5
110
100
AcDbEntity
  8
____
  6
CONTINUOUS
 62
           3
100
AcDbLine
 10
-1080.502308463385
 20
1021.961924479663
 11
-1069.497691536607
 21
1021.961924479663
  0
LINE
  5
10F
100
AcDbEntity
  8
____
  6
CONTINUOUS
 62
           3
100
AcDbLine
 10
-1080.404052955118
 20
1060.45950481618
 11
-1069.59594704488
 21
1060.45950481618
  0
LINE
  5
10E
100
AcDbEntity
  8
____
  6
CONTINUOUS
 62
           3
100
AcDbLine
 10
-1069.841585815569
 20
1021.961924479663
 11
-1069.841585815569
 21
1022.900889853724
  0
LINE
  5
10D
100
AcDbEntity
  8
____
  6
CONTINUOUS
 62
           3
100
AcDbLine
 10
-1069.841585815569
 20
1022.900889853724
 11
-1080.158414184431
 21
1022.900889853725
  0
LINE
  5
10C
100
AcDbEntity
  8
____
  6
CONTINUOUS
 62
           3
100
AcDbLine
 10
-1080.158414184431
 20
1022.900889853725
 11
-1080.158414184431
 21
1021.961924479663
  0
LINE
  5
10B
100
AcDbEntity
  8
____
  6
CONTINUOUS
 62
           3
100
AcDbLine
 10
-1069.595947044882
 20
986.28124026533
 11
-1069.595947044882
 21
984.403309517208
  0
LINE
  5
10A
100
AcDbEntity
  8
____
  6
CONTINUOUS
 62
           3
100
AcDbLine
 10
-1070.087224586257
 20
983.933826830175
 11
-1079.912775413746
 21
983.933826830175
  0
LINE
  5
109
100
AcDbEntity
  8
____
  6
CONTINUOUS
 62
           3
100
AcDbLine
 10
-1080.404052955119
 20
984.403309517208
 11
-1080.404052955119
 21
986.28124026533
  0
LINE
  5
108
100
AcDbEntity
  8
____
  6
CONTINUOUS
 62
           3
100
AcDbLine
 10
-1080.502308463385
 20
1022.900889853725
 11
-1080.502308463384
 21
1058.581574068056
  0
LINE
  5
107
100
AcDbEntity
  8
____
  6
CONTINUOUS
 62
           3
100
AcDbLine
 10
-1080.502308463384
 20
1058.581574068056
 11
-1069.497691536607
 21
1058.581574068056
  0
LINE
  5
106
100
AcDbEntity
  8
____
  6
CONTINUOUS
 62
           3
100
AcDbLine
 10
-1069.497691536607
 20
1058.581574068056
 11
-1069.497691536607
 21
1022.900889853724
  0
LINE
  5
105
100
AcDbEntity
  8
____
  6
CONTINUOUS
 62
           3
100
AcDbLine
 10
-1069.497691536607
 20
1022.900889853724
 11
-1080.502308463385
 21
1022.900889853725
  0
LINE
  5
104
100
AcDbEntity
  8
____
  6
CONTINUOUS
 62
           3
100
AcDbLine
 10
-1080.404052955118
 20
1058.581574068056
 11
-1080.404052955118
 21
1060.45950481618
  0
LINE
  5
103
100
AcDbEntity
  8
____
  6
CONTINUOUS
 62
           3
100
AcDbLine
 10
-1079.912775413744
 20
1060.928987503211
 11
-1070.087224586255
 21
1060.928987503211
  0
LINE
  5
102
100
AcDbEntity
  8
____
  6
CONTINUOUS
 62
           3
100
AcDbLine
 10
-1069.59594704488
 20
1060.45950481618
 11
-1069.59594704488
 21
1058.581574068056
  0
LINE
  5
101
100
AcDbEntity
  8
___S__
  6
DOT_CENTER
 62
           3
100
AcDbLine
 10
-1075.0
 20
1067.063266596462
 11
-1075.000000000001
 21
982.067556365336
  0
LINE
  5
100
100
AcDbEntity
  8
1
  6
CONTINUOUS
 62
           7
100
AcDbLine
 10
-1069.497691536609
 20
986.51352679837
 11
75.0
 21
986.51352679837
  0
LINE
  5
FF
100
AcDbEntity
  8
1
  6
CONTINUOUS
 62
           7
100
AcDbLine
 10
1250.000000000001
 20
1763.744569986043
 11
-1250.0
 21
1763.744569986043
  0
LINE
  5
FE
100
AcDbEntity
  8
1
  6
CONTINUOUS
 62
           7
100
AcDbLine
 10
-250.0
 20
475.000000000002
 11
-250.0
 21
400.000000000001
  0
LINE
  5
FD
100
AcDbEntity
  8
1
  6
CONTINUOUS
 62
           7
100
AcDbLine
 10
4569.999999999998
 20
500.000000000002
 11
4570.0
 21
1767.293273528173
  0
LINE
  5
FC
100
AcDbEntity
  8
1
  6
CONTINUOUS
 62
           2
100
AcDbLine
 10
4550.0
 20
520.000000000002
 11
4550.0
 21
1715.525103244269
  0
LINE
  5
FB
100
AcDbEntity
  8
1
  6
CONTINUOUS
 62
           2
100
AcDbLine
 10
4590.0
 20
1980.000000000003
 11
4589.999999999998
 21
1814.464669216337
  0
LINE
  5
FA
100
AcDbEntity
  8
1
  6
DOT_CENTER
 62
           2
100
AcDbLine
 10
0.0
 20
-75.734147716068
 11
0.0
 21
3054.42137244135
  0
LINE
  5
F9
100
AcDbEntity
  8
1
  6
DOT_CENTER
 62
           2
100
AcDbLine
 10
-450.0
 20
2202.686878034487
 11
-450.0
 21
2107.007003733832
  0
LINE
  5
F8
100
AcDbEntity
  8
1
  6
CONTINUOUS
 62
           7
100
AcDbLine
 10
3805.0
 20
2136.000000000001
 11
3805.0
 21
2156.000000000001
  0
LINE
  5
F7
100
AcDbEntity
  8
1
  6
CONTINUOUS
 62
           7
100
AcDbLine
 10
3835.0
 20
2136.000000000001
 11
3835.0
 21
2156.000000000001
  0
LINE
  5
F6
100
AcDbEntity
  8
1
  6
CONTINUOUS
 62
           7
100
AcDbLine
 10
3775.0
 20
2171.000000000001
 11
3775.0
 21
2188.000000000001
  0
LINE
  5
F5
100
AcDbEntity
  8
1
  6
CONTINUOUS
 62
           7
100
AcDbLine
 10
3857.0
 20
2196.000000000001
 11
3783.0
 21
2196.000000000001
  0
LINE
  5
F4
100
AcDbEntity
  8
1
  6
CONTINUOUS
 62
           7
100
AcDbLine
 10
3865.0
 20
2171.000000000001
 11
3865.0
 21
2188.000000000001
  0
LINE
  5
F3
100
AcDbEntity
  8
1
  6
CONTINUOUS
 62
           7
100
AcDbLine
 10
3882.5
 20
2136.000000000001
 11
3882.5
 21
2171.000000000001
  0
LINE
  5
F2
100
AcDbEntity
  8
1
  6
CONTINUOUS
 62
           7
100
AcDbLine
 10
3882.5
 20
2171.000000000001
 11
3865.0
 21
2171.000000000001
  0
LINE
  5
F1
100
AcDbEntity
  8
1
  6
CONTINUOUS
 62
           7
100
AcDbLine
 10
3757.5
 20
2136.000000000001
 11
3757.5
 21
2171.000000000001
  0
LINE
  5
F0
100
AcDbEntity
  8
1
  6
CONTINUOUS
 62
           7
100
AcDbLine
 10
3757.5
 20
2171.000000000001
 11
3775.0
 21
2171.000000000001
  0
LINE
  5
EF
100
AcDbEntity
  8
1
  6
CONTINUOUS
 62
           7
100
AcDbLine
 10
3857.5
 20
2155.683280999348
 11
3857.5
 21
2136.000000000001
  0
LINE
  5
EE
100
AcDbEntity
  8
1
  6
CONTINUOUS
 62
           7
100
AcDbLine
 10
3782.5
 20
2155.683280999348
 11
3782.5
 21
2136.000000000001
  0
LINE
  5
ED
100
AcDbEntity
  8
1
  6
CONTINUOUS
 62
           7
100
AcDbLine
 10
3775.0
 20
2184.000000000001
 11
3865.0
 21
2184.000000000001
  0
LINE
  5
EC
100
AcDbEntity
  8
1
  6
CONTINUOUS
 62
           7
100
AcDbLine
 10
3946.0
 20
2136.000000000001
 11
3946.0
 21
2050.000000000001
  0
LINE
  5
EB
100
AcDbEntity
  8
1
  6
CONTINUOUS
 62
           7
100
AcDbLine
 10
3694.0
 20
2136.000000000001
 11
3946.0
 21
2136.000000000001
  0
LINE
  5
EA
100
AcDbEntity
  8
1
  6
CONTINUOUS
 62
           7
100
AcDbLine
 10
-435.0
 20
2156.000000000001
 11
-435.0
 21
2150.000000000001
  0
LINE
  5
E9
100
AcDbEntity
  8
1
  6
CONTINUOUS
 62
           7
100
AcDbLine
 10
-465.0
 20
2156.000000000001
 11
-465.0
 21
2150.000000000001
  0
LINE
  5
E8
100
AcDbEntity
  8
1
  6
CONTINUOUS
 62
           7
100
AcDbLine
 10
-405.0
 20
2188.000000000001
 11
-405.0
 21
2171.000000000001
  0
LINE
  5
E7
100
AcDbEntity
  8
1
  6
CONTINUOUS
 62
           7
100
AcDbLine
 10
-413.0
 20
2196.000000000001
 11
-487.0
 21
2196.000000000001
  0
LINE
  5
E6
100
AcDbEntity
  8
1
  6
CONTINUOUS
 62
           7
100
AcDbLine
 10
-495.0
 20
2188.000000000001
 11
-495.0
 21
2171.000000000001
  0
LINE
  5
E5
100
AcDbEntity
  8
1
  6
CONTINUOUS
 62
           7
100
AcDbLine
 10
-512.5
 20
2171.000000000001
 11
-512.5
 21
2150.000000000001
  0
LINE
  5
E4
100
AcDbEntity
  8
1
  6
CONTINUOUS
 62
           7
100
AcDbLine
 10
-495.0
 20
2171.000000000001
 11
-512.5
 21
2171.000000000001
  0
LINE
  5
E3
100
AcDbEntity
  8
1
  6
CONTINUOUS
 62
           7
100
AcDbLine
 10
-405.0
 20
2171.000000000001
 11
-387.5
 21
2171.000000000001
  0
LINE
  5
E2
100
AcDbEntity
  8
1
  6
CONTINUOUS
 62
           7
100
AcDbLine
 10
-495.0
 20
2184.000000000001
 11
-405.0
 21
2184.000000000001
  0
LINE
  5
E1
100
AcDbEntity
  8
1
  6
CONTINUOUS
 62
           7
100
AcDbLine
 10
3694.0
 20
2050.000000000001
 11
3694.0
 21
2136.000000000001
  0
LINE
  5
E0
100
AcDbEntity
  8
1
  6
CONTINUOUS
 62
           7
100
AcDbLine
 10
-666.0
 20
4198.0
 11
666.0
 21
4198.0
  0
LINE
  5
DF
100
AcDbEntity
  8
1
  6
CONTINUOUS
 62
           7
100
AcDbLine
 10
666.0
 20
4198.0
 11
666.0
 21
3845.999999999998
  0
LINE
  5
DE
100
AcDbEntity
  8
1
  6
CONTINUOUS
 62
           7
100
AcDbLine
 10
666.0
 20
3845.999999999998
 11
-666.0
 21
3845.999999999998
  0
LINE
  5
DD
100
AcDbEntity
  8
1
  6
CONTINUOUS
 62
           7
100
AcDbLine
 10
-666.0
 20
3845.999999999998
 11
-666.0
 21
4198.0
  0
LINE
  5
DC
100
AcDbEntity
  8
1
  6
CONTINUOUS
 62
           7
100
AcDbLine
 10
-616.0
 20
4148.0
 11
616.0
 21
4148.0
  0
LINE
  5
DB
100
AcDbEntity
  8
1
  6
CONTINUOUS
 62
           7
100
AcDbLine
 10
616.0
 20
4148.0
 11
616.0
 21
3895.999999999998
  0
LINE
  5
DA
100
AcDbEntity
  8
1
  6
CONTINUOUS
 62
           7
100
AcDbLine
 10
616.0
 20
3895.999999999998
 11
-616.0
 21
3895.999999999998
  0
LINE
  5
D9
100
AcDbEntity
  8
1
  6
CONTINUOUS
 62
           7
100
AcDbLine
 10
-616.0
 20
3895.999999999998
 11
-616.0
 21
4148.0
  0
LINE
  5
D8
100
AcDbEntity
  8
1
  6
CONTINUOUS
 62
           7
100
AcDbLine
 10
-387.5
 20
2171.000000000001
 11
-387.5
 21
2150.000000000001
  0
LINE
  5
D7
100
AcDbEntity
  8
1
  6
CONTINUOUS
 62
           7
100
AcDbLine
 10
-412.5
 20
2150.000000000001
 11
-412.5
 21
2155.683280999348
  0
LINE
  5
D6
100
AcDbEntity
  8
1
  6
CONTINUOUS
 62
           7
100
AcDbLine
 10
-487.5
 20
2150.000000000001
 11
-487.5
 21
2155.683280999348
  0
LINE
  5
D5
100
AcDbEntity
  8
1
  6
DOT_CENTER
 62
           2
100
AcDbLine
 10
3820.0
 20
2235.185519582088
 11
3820.0
 21
1960.45712617714
  0
LINE
  5
D4
100
AcDbEntity
  8
1
  6
CONTINUOUS
 62
           7
100
AcDbLine
 10
1300.0
 20
3771.999999999998
 11
1300.0
 21
4271.999999999998
  0
LINE
  5
D3
100
AcDbEntity
  8
1
  6
CONTINUOUS
 62
           4
100
AcDbLine
 10
1305.0
 20
4271.999999999998
 11
1300.0
 21
4271.999999999998
  0
LINE
  5
D2
100
AcDbEntity
  8
1
  6
CONTINUOUS
 62
           4
100
AcDbLine
 10
1305.0
 20
3771.999999999998
 11
1305.0
 21
4271.999999999998
  0
LINE
  5
D1
100
AcDbEntity
  8
1
  6
CONTINUOUS
 62
           4
100
AcDbLine
 10
1300.0
 20
3771.999999999998
 11
1305.0
 21
3771.999999999998
  0
LINE
  5
D0
100
AcDbEntity
  8
1
  6
CONTINUOUS
 62
           7
100
AcDbLine
 10
-230.525588832579
 20
4771.999999999998
 11
1300.0
 21
4771.999999999998
  0
LINE
  5
CF
100
AcDbEntity
  8
1
  6
CONTINUOUS
 62
           2
100
AcDbLine
 10
-150.9053650641
 20
4751.999999999998
 11
-1230.0
 21
4751.999999999998
  0
LINE
  5
CE
100
AcDbEntity
  8
1
  6
CONTINUOUS
 62
           2
100
AcDbLine
 10
-580.000000000007
 20
5751.999999999998
 11
-980.0
 21
5751.999999999998
  0
LINE
  5
CD
100
AcDbEntity
  8
1
  6
CONTINUOUS
 62
           7
100
AcDbLine
 10
-570.000000000005
 20
5771.999999999998
 11
-1300.0
 21
5771.999999999998
  0
LINE
  5
CC
100
AcDbEntity
  8
1
  6
CONTINUOUS
 62
           2
100
AcDbLine
 10
-1230.0
 20
3791.999999999998
 11
1230.0
 21
3791.999999999998
  0
LINE
  5
CB
100
AcDbEntity
  8
1
  6
CONTINUOUS
 62
           7
100
AcDbLine
 10
-387.5
 20
4006.999999999998
 11
-407.573593128807
 21
4006.999999999998
  0
LINE
  5
CA
100
AcDbEntity
  8
1
  6
CONTINUOUS
 62
           7
100
AcDbLine
 10
-465.0
 20
3959.499999999998
 11
-465.0
 21
3979.573593128805
  0
LINE
  5
C9
100
AcDbEntity
  8
1
  6
CONTINUOUS
 62
           7
100
AcDbLine
 10
-512.5
 20
4036.999999999999
 11
-492.426406871191
 21
4036.999999999998
  0
LINE
  5
C8
100
AcDbEntity
  8
1
  6
CONTINUOUS
 62
           7
100
AcDbLine
 10
-387.5
 20
4036.999999999998
 11
-387.5
 21
4006.999999999998
  0
LINE
  5
C7
100
AcDbEntity
  8
1
  6
CONTINUOUS
 62
           7
100
AcDbLine
 10
-435.0
 20
3959.499999999998
 11
-465.0
 21
3959.499999999998
  0
LINE
  5
C6
100
AcDbEntity
  8
1
  6
CONTINUOUS
 62
           7
100
AcDbLine
 10
-512.5
 20
4006.999999999998
 11
-512.5
 21
4036.999999999999
  0
LINE
  5
C5
100
AcDbEntity
  8
1
  6
CONTINUOUS
 62
           7
100
AcDbLine
 10
-407.573593128808
 20
4036.999999999999
 11
-387.5
 21
4036.999999999998
  0
LINE
  5
C4
100
AcDbEntity
  8
1
  6
CONTINUOUS
 62
           7
100
AcDbLine
 10
-435.0
 20
3979.573593128805
 11
-435.0
 21
3959.499999999998
  0
LINE
  5
C3
100
AcDbEntity
  8
1
  6
CONTINUOUS
 62
           7
100
AcDbLine
 10
-492.426406871191
 20
4006.999999999998
 11
-512.5
 21
4006.999999999998
  0
LINE
  5
C2
100
AcDbEntity
  8
1
  6
CONTINUOUS
 62
           7
100
AcDbLine
 10
-435.0
 20
4084.499999999998
 11
-435.0
 21
4064.426406871191
  0
LINE
  5
C1
100
AcDbEntity
  8
1
  6
CONTINUOUS
 62
           7
100
AcDbLine
 10
-465.0
 20
4084.499999999998
 11
-435.0
 21
4084.499999999998
  0
LINE
  5
C0
100
AcDbEntity
  8
1
  6
CONTINUOUS
 62
           7
100
AcDbLine
 10
-465.0
 20
4064.426406871191
 11
-465.0
 21
4084.499999999998
  0
LINE
  5
BF
100
AcDbEntity
  8
1
  6
DOT_CENTER
 62
           2
100
AcDbLine
 10
-680.912924024839
 20
4021.999999999998
 11
704.924669896944
 21
4021.999999999998
  0
LINE
  5
BE
100
AcDbEntity
  8
1
  6
CONTINUOUS
 62
           2
100
AcDbLine
 10
-1230.0
 20
4251.999999999998
 11
-1230.0
 21
3791.999999999998
  0
LINE
  5
BD
100
AcDbEntity
  8
1
  6
CONTINUOUS
 62
           2
100
AcDbLine
 10
1230.0
 20
4251.999999999998
 11
1230.0
 21
3791.999999999998
  0
LINE
  5
BC
100
AcDbEntity
  8
1
  6
CONTINUOUS
 62
           2
100
AcDbLine
 10
1230.0
 20
4251.999999999998
 11
-1230.0
 21
4251.999999999998
  0
LINE
  5
BB
100
AcDbEntity
  8
1
  6
CONTINUOUS
 62
           2
100
AcDbLine
 10
-1230.0
 20
4291.999999999998
 11
1230.0
 21
4291.999999999998
  0
LINE
  5
BA
100
AcDbEntity
  8
1
  6
CONTINUOUS
 62
           7
100
AcDbLine
 10
1250.0
 20
4271.999999999998
 11
-1250.0
 21
4271.999999999998
  0
LINE
  5
B9
100
AcDbEntity
  8
1
  6
CONTINUOUS
 62
           2
100
AcDbLine
 10
1020.000000000002
 20
5751.999999999998
 11
1280.0
 21
5751.999999999998
  0
LINE
  5
B8
100
AcDbEntity
  8
1
  6
CONTINUOUS
 62
           2
100
AcDbLine
 10
1020.000000000002
 20
4791.999999999998
 11
1280.0
 21
4791.999999999998
  0
LINE
  5
B7
100
AcDbEntity
  8
1
  6
CONTINUOUS
 62
           2
100
AcDbLine
 10
980.000000000002
 20
5751.999999999998
 11
980.000000000002
 21
4791.999999999998
  0
LINE
  5
B6
100
AcDbEntity
  8
1
  6
CONTINUOUS
 62
           2
100
AcDbLine
 10
1020.000000000002
 20
5751.999999999998
 11
1020.000000000002
 21
4791.999999999998
  0
LINE
  5
B5
100
AcDbEntity
  8
1
  6
CONTINUOUS
 62
           7
100
AcDbLine
 10
1000.000000000002
 20
5771.999999999998
 11
1000.000000000002
 21
4771.999999999998
  0
LINE
  5
B4
100
AcDbEntity
  8
1
  6
CONTINUOUS
 62
           2
100
AcDbLine
 10
1254.0
 20
4771.999999999998
 11
1254.0
 21
3771.927854046832
  0
LINE
  5
B3
100
AcDbEntity
  8
1
  6
CONTINUOUS
 62
           2
100
AcDbLine
 10
-1254.0
 20
4771.999999999998
 11
-1254.0
 21
3771.999999999998
  0
LINE
  5
B2
100
AcDbEntity
  8
1
  6
CONTINUOUS
 62
           2
100
AcDbLine
 10
-980.0
 20
4791.999999999999
 11
-520.0
 21
4791.999999999998
  0
LINE
  5
B1
100
AcDbEntity
  8
1
  6
CONTINUOUS
 62
           2
100
AcDbLine
 10
-1020.0
 20
5751.999999999998
 11
-1280.0
 21
5751.999999999998
  0
LINE
  5
B0
100
AcDbEntity
  8
1
  6
CONTINUOUS
 62
           2
100
AcDbLine
 10
-1020.0
 20
5751.999999999998
 11
-1020.0
 21
4791.999999999998
  0
LINE
  5
AF
100
AcDbEntity
  8
1
  6
CONTINUOUS
 62
           2
100
AcDbLine
 10
-980.0
 20
5751.999999999998
 11
-980.0
 21
4791.999999999999
  0
LINE
  5
AE
100
AcDbEntity
  8
1
  6
CONTINUOUS
 62
           7
100
AcDbLine
 10
-1000.0
 20
5771.999999999998
 11
-1000.0
 21
4771.999999999998
  0
LINE
  5
AD
100
AcDbEntity
  8
1
  6
CONTINUOUS
 62
           7
100
AcDbLine
 10
-15.0
 20
540.0
 11
-1235.0
 21
540.0
  0
LINE
  5
AC
100
AcDbEntity
  8
1
  6
CONTINUOUS
 62
           2
100
AcDbLine
 10
1230.0
 20
4751.999999999998
 11
-150.9053650641
 21
4751.999999999998
  0
LINE
  5
AB
100
AcDbEntity
  8
1
  6
CONTINUOUS
 62
           2
100
AcDbLine
 10
1230.0
 20
4751.999999999998
 11
1230.0
 21
4291.999999999998
  0
LINE
  5
AA
100
AcDbEntity
  8
1
  6
CONTINUOUS
 62
           2
100
AcDbLine
 10
520.0
 20
5751.999999999999
 11
980.000000000002
 21
5751.999999999998
  0
LINE
  5
A9
100
AcDbEntity
  8
1
  6
CONTINUOUS
 62
           2
100
AcDbLine
 10
1280.0
 20
5751.999999999998
 11
1280.0
 21
4791.999999999998
  0
LINE
  5
A8
100
AcDbEntity
  8
1
  6
CONTINUOUS
 62
           7
100
AcDbLine
 10
1300.0
 20
3771.999999999998
 11
1300.0
 21
5771.999999999998
  0
LINE
  5
A7
100
AcDbEntity
  8
1
  6
DOT_CENTER
 62
           2
100
AcDbLine
 10
0.0
 20
5936.216232355003
 11
0.0
 21
3656.512654335819
  0
LINE
  5
A6
100
AcDbEntity
  8
1
  6
CONTINUOUS
 62
           7
100
AcDbLine
 10
1235.0
 20
540.0
 11
15.0
 21
540.0
  0
LINE
  5
A5
100
AcDbEntity
  8
1
  6
CONTINUOUS
 62
           7
100
AcDbLine
 10
-1300.0
 20
4771.999999999998
 11
-230.525588832579
 21
4771.999999999998
  0
LINE
  5
A4
100
AcDbEntity
  8
1
  6
CONTINUOUS
 62
           7
100
AcDbLine
 10
-1250.0
 20
500.0
 11
-1235.0
 21
500.0
  0
LINE
  5
A3
100
AcDbEntity
  8
1
  6
CONTINUOUS
 62
           7
100
AcDbLine
 10
1235.0
 20
500.0
 11
1250.0
 21
500.0
  0
LINE
  5
A2
100
AcDbEntity
  8
1
  6
CONTINUOUS
 62
           7
100
AcDbLine
 10
-1250.0
 20
800.0
 11
1250.0
 21
800.0
  0
LINE
  5
A1
100
AcDbEntity
  8
1
  6
CONTINUOUS
 62
           7
100
AcDbLine
 10
-1250.0
 20
513.85332266763
 11
-1250.0
 21
572.607085651513
  0
LINE
  5
A0
100
AcDbEntity
  8
1
  6
CONTINUOUS
 62
           7
100
AcDbLine
 10
15.0
 20
540.0
 11
15.0
 21
475.000000000002
  0
LINE
  5
9F
100
AcDbEntity
  8
1
  6
CONTINUOUS
 62
           7
100
AcDbLine
 10
1235.0
 20
540.0
 11
1235.0
 21
475.000000000002
  0
LINE
  5
9E
100
AcDbEntity
  8
1
  6
CONTINUOUS
 62
           7
100
AcDbLine
 10
-1250.0
 20
400.0
 11
1250.0
 21
400.0
  0
LINE
  5
9D
100
AcDbEntity
  8
1
  6
CONTINUOUS
 62
           7
100
AcDbLine
 10
1250.0
 20
50.0
 11
-1250.0
 21
50.0
  0
LINE
  5
9C
100
AcDbEntity
  8
1
  6
CONTINUOUS
 62
           7
100
AcDbLine
 10
1250.0
 20
1900.0
 11
-1250.0
 21
1900.0
  0
LINE
  5
9B
100
AcDbEntity
  8
1
  6
CONTINUOUS
 62
           7
100
AcDbLine
 10
1250.0
 20
0.0
 11
1250.0
 21
2000.0
  0
LINE
  5
9A
100
AcDbEntity
  8
1
  6
CONTINUOUS
 62
           7
100
AcDbLine
 10
-1250.0
 20
0.0
 11
-1250.0
 21
2000.0
  0
LINE
  5
99
100
AcDbEntity
  8
1
  6
CONTINUOUS
 62
           7
100
AcDbLine
 10
1300.0
 20
2000.0
 11
-1300.0
 21
2000.0
  0
LINE
  5
98
100
AcDbEntity
  8
1
  6
CONTINUOUS
 62
           2
100
AcDbLine
 10
520.0
 20
4791.999999999998
 11
980.000000000002
 21
4791.999999999998
  0
LINE
  5
97
100
AcDbEntity
  8
1
  6
CONTINUOUS
 62
           7
100
AcDbLine
 10
1300.0
 20
5771.999999999998
 11
0.0
 21
5771.999999999997
  0
LINE
  5
96
100
AcDbEntity
  8
1
  6
CONTINUOUS
 62
           2
100
AcDbLine
 10
-1280.0
 20
4791.999999999998
 11
-1280.0
 21
5751.999999999998
  0
LINE
  5
95
100
AcDbEntity
  8
1
  6
CONTINUOUS
 62
           2
100
AcDbLine
 10
-520.0
 20
4791.999999999998
 11
-520.0
 21
5181.954994231466
  0
LINE
  5
94
100
AcDbEntity
  8
1
  6
CONTINUOUS
 62
           7
100
AcDbLine
 10
-500.0
 20
4771.999999999998
 11
-500.0
 21
5146.229319457756
  0
LINE
  5
93
100
AcDbEntity
  8
1
  6
CONTINUOUS
 62
           2
100
AcDbLine
 10
-1280.0
 20
4791.999999999998
 11
-1020.0
 21
4791.999999999998
  0
LINE
  5
92
100
AcDbEntity
  8
1
  6
CONTINUOUS
 62
           2
100
AcDbLine
 10
520.0
 20
5751.999999999999
 11
520.0
 21
4791.999999999998
  0
LINE
  5
91
100
AcDbEntity
  8
1
  6
CONTINUOUS
 62
           7
100
AcDbLine
 10
500.0
 20
4771.999999999998
 11
500.0
 21
5771.999999999998
  0
LINE
  5
90
100
AcDbEntity
  8
1
  6
CONTINUOUS
 62
           7
100
AcDbLine
 10
1250.0
 20
3771.927854046832
 11
1250.0
 21
4771.999999999998
  0
LINE
  5
8F
100
AcDbEntity
  8
1
  6
CONTINUOUS
 62
           7
100
AcDbLine
 10
-1250.0
 20
3771.999999999998
 11
-1250.0
 21
4771.999999999998
  0
LINE
  5
8E
100
AcDbEntity
  8
1
  6
CONTINUOUS
 62
           2
100
AcDbLine
 10
-1230.0
 20
4751.999999999998
 11
-1230.0
 21
4291.999999999998
  0
LINE
  5
8D
100
AcDbEntity
  8
1
  6
CONTINUOUS
 62
           7
100
AcDbLine
 10
-1300.0
 20
5771.999999999998
 11
-1300.0
 21
3771.999999999998
  0
LINE
  5
8C
100
AcDbEntity
  8
1
  6
CONTINUOUS
 62
           7
100
AcDbLine
 10
-1300.0
 20
3771.999999999998
 11
1300.0
 21
3771.999999999998
  0
LINE
  5
8B
100
AcDbEntity
  8
1
  6
CONTINUOUS
 62
           7
100
AcDbLine
 10
1800.0
 20
0.0
 11
-1800.0
 21
0.0
  0
LINE
  5
8A
100
AcDbEntity
  8
1
  6
CONTINUOUS
 62
           7
100
AcDbLine
 10
-1300.0
 20
0.0
 11
-1300.0
 21
2150.0
  0
LINE
  5
89
100
AcDbEntity
  8
1
  6
CONTINUOUS
 62
           7
100
AcDbLine
 10
1300.0
 20
0.0
 11
1300.0
 21
2150.0
  0
LINE
  5
88
100
AcDbEntity
  8
1
  6
CONTINUOUS
 62
           7
100
AcDbLine
 10
-1250.0
 20
475.000000000002
 11
1250.0
 21
475.000000000002
  0
LINE
  5
87
100
AcDbEntity
  8
1
  6
CONTINUOUS
 62
           7
100
AcDbLine
 10
-1235.0
 20
475.000000000002
 11
-1235.0
 21
540.0
  0
LINE
  5
86
100
AcDbEntity
  8
1
  6
CONTINUOUS
 62
           7
100
AcDbLine
 10
-15.0
 20
475.000000000002
 11
-15.0
 21
540.0
  0
LINE
  5
85
100
AcDbEntity
  8
1
  6
CONTINUOUS
 62
           7
100
AcDbLine
 10
-15.0
 20
500.0
 11
15.0
 21
500.0
  0
LINE
  5
84
100
AcDbEntity
  8
1
  6
CONTINUOUS
 62
           7
100
AcDbLine
 10
0.0
 20
475.000000000002
 11
0.0
 21
400.0
  0
LINE
  5
83
100
AcDbEntity
  8
1
  6
CONTINUOUS
 62
           7
100
AcDbLine
 10
3810.000000000001
 20
1862.0
 11
3810.000000000001
 21
1950.0
  0
LINE
  5
82
100
AcDbEntity
  8
1
  6
CONTINUOUS
 62
           7
100
AcDbLine
 10
3620.000000000001
 20
1862.0
 11
3810.000000000001
 21
1862.0
  0
LINE
  5
81
100
AcDbEntity
  8
1
  6
CONTINUOUS
 62
           7
100
AcDbLine
 10
3620.000000000001
 20
1950.0
 11
3620.000000000001
 21
1862.0
  0
LINE
  5
80
100
AcDbEntity
  8
1
  6
CONTINUOUS
 62
           7
100
AcDbLine
 10
3810.000000000001
 20
1950.0
 11
3620.000000000001
 21
1950.0
  0
LINE
  5
7F
100
AcDbEntity
  8
1
  6
CONTINUOUS
 62
           7
100
AcDbLine
 10
4300.000000000001
 20
1330.0
 11
4120.000000000001
 21
1330.0
  0
LINE
  5
7E
100
AcDbEntity
  8
1
  6
CONTINUOUS
 62
           7
100
AcDbLine
 10
4120.000000000001
 20
1570.0
 11
4300.000000000001
 21
1570.0
  0
LINE
  5
7D
100
AcDbEntity
  8
1
  6
CONTINUOUS
 62
           7
100
AcDbLine
 10
4120.000000000001
 20
1330.0
 11
4120.000000000001
 21
1570.0
  0
LINE
  5
7C
100
AcDbEntity
  8
1
  6
CONTINUOUS
 62
           7
100
AcDbLine
 10
4300.000000000001
 20
1570.0
 11
4300.000000000001
 21
1330.0
  0
LINE
  5
7B
100
AcDbEntity
  8
1
  6
CONTINUOUS
 62
           7
100
AcDbLine
 10
6069.999999999997
 20
0.0
 11
3070.0
 21
0.0
  0
LINE
  5
7A
100
AcDbEntity
  8
1
  6
CONTINUOUS
 62
           2
100
AcDbLine
 10
5549.999999999999
 20
1980.0
 11
4590.000000000001
 21
1980.0
  0
LINE
  5
79
100
AcDbEntity
  8
1
  6
CONTINUOUS
 62
           2
100
AcDbLine
 10
5549.999999999999
 20
520.0
 11
5549.999999999999
 21
1980.0
  0
LINE
  5
78
100
AcDbEntity
  8
1
  6
CONTINUOUS
 62
           2
100
AcDbLine
 10
4590.000000000001
 20
520.0
 11
5549.999999999999
 21
520.0
  0
LINE
  5
77
100
AcDbEntity
  8
1
  6
CONTINUOUS
 62
           2
100
AcDbLine
 10
4090.000000000001
 20
520.0
 11
4550.000000000001
 21
520.0
  0
LINE
  5
76
100
AcDbEntity
  8
1
  6
CONTINUOUS
 62
           2
100
AcDbLine
 10
4090.000000000001
 20
1980.0
 11
4090.000000000001
 21
520.0
  0
LINE
  5
75
100
AcDbEntity
  8
1
  6
CONTINUOUS
 62
           2
100
AcDbLine
 10
4550.000000000001
 20
1980.0
 11
4090.000000000001
 21
1980.0
  0
LINE
  5
74
100
AcDbEntity
  8
1
  6
CONTINUOUS
 62
           7
100
AcDbLine
 10
4570.000000000001
 20
2000.0
 11
4570.000000000001
 21
2075.0
  0
LINE
  5
73
100
AcDbEntity
  8
1
  6
CONTINUOUS
 62
           2
100
AcDbLine
 10
5549.433325304562
 20
20.0
 11
5549.433325304562
 21
479.385061529882
  0
LINE
  5
72
100
AcDbEntity
  8
1
  6
CONTINUOUS
 62
           2
100
AcDbLine
 10
4090.0
 20
20.0
 11
5549.433325304562
 21
20.0
  0
LINE
  5
71
100
AcDbEntity
  8
1
  6
CONTINUOUS
 62
           2
100
AcDbLine
 10
4090.000000000001
 20
479.385061529882
 11
4090.0
 21
20.0
  0
LINE
  5
70
100
AcDbEntity
  8
1
  6
CONTINUOUS
 62
           2
100
AcDbLine
 10
5549.433325304562
 20
479.385061529882
 11
4090.000000000001
 21
479.385061529882
  0
LINE
  5
6F
100
AcDbEntity
  8
1
  6
CONTINUOUS
 62
           7
100
AcDbLine
 10
4070.000000000001
 20
500.0
 11
5569.999999999999
 21
500.0
  0
LINE
  5
6E
100
AcDbEntity
  8
1
  6
CONTINUOUS
 62
           7
100
AcDbLine
 10
4070.000000000001
 20
0.0
 11
4070.000000000001
 21
2000.0
  0
LINE
  5
6D
100
AcDbEntity
  8
1
  6
CONTINUOUS
 62
           2
100
AcDbLine
 10
3590.000000000001
 20
1980.0
 11
3590.000000000001
 21
1670.0
  0
LINE
  5
6C
100
AcDbEntity
  8
1
  6
CONTINUOUS
 62
           2
100
AcDbLine
 10
4050.000000000001
 20
1980.0
 11
3590.000000000001
 21
1980.0
  0
LINE
  5
6B
100
AcDbEntity
  8
1
  6
CONTINUOUS
 62
           2
100
AcDbLine
 10
4050.0
 20
20.0
 11
4050.000000000001
 21
1330.0
  0
LINE
  5
6A
100
AcDbEntity
  8
1
  6
CONTINUOUS
 62
           2
100
AcDbLine
 10
3590.0
 20
20.0
 11
4050.0
 21
20.0
  0
LINE
  5
69
100
AcDbEntity
  8
1
  6
CONTINUOUS
 62
           7
100
AcDbLine
 10
3570.0
 20
0.0
 11
3570.000000000001
 21
2050.0
  0
LINE
  5
68
100
AcDbEntity
  8
1
  6
CONTINUOUS
 62
           7
100
AcDbLine
 10
5569.999999999999
 20
0.0
 11
5569.999999999999
 21
2075.0
  0
LINE
  5
67
100
AcDbEntity
  8
1
  6
CONTINUOUS
 62
           7
100
AcDbLine
 10
5569.999999999999
 20
2000.0
 11
3570.000000000001
 21
2000.0
  0
LINE
  5
66
100
AcDbEntity
  8
1
  6
CONTINUOUS
 62
           2
100
AcDbLine
 10
3570.000000000001
 20
2004.0
 11
4570.000000000001
 21
2004.0
  0
LINE
  5
65
100
AcDbEntity
  8
1
  6
CONTINUOUS
 62
           7
100
AcDbLine
 10
3570.000000000001
 20
2050.0
 11
5569.999999999999
 21
2050.0
  0
LINE
  5
64
100
AcDbEntity
  8
1
  6
CONTINUOUS
 62
           7
100
AcDbLine
 10
4570.000000000001
 20
2075.0
 11
5569.999999999999
 21
2075.0
  0
LINE
  5
63
100
AcDbEntity
  8
1
  6
DOT_CENTER
 62
           2
100
AcDbLine
 10
4794.999999999999
 20
600.0
 11
4944.999999999999
 21
600.0
  0
LINE
  5
62
100
AcDbEntity
  8
1
  6
DOT_CENTER
 62
           2
100
AcDbLine
 10
4869.999999999999
 20
675.0
 11
4869.999999999999
 21
525.0
  0
LINE
  5
61
100
AcDbEntity
  8
1
  6
CONTINUOUS
 62
           2
100
AcDbLine
 10
4050.000000000001
 20
1670.0
 11
4050.000000000001
 21
1980.0
  0
LINE
  5
60
100
AcDbEntity
  8
1
  6
CONTINUOUS
 62
           2
100
AcDbLine
 10
3590.000000000001
 20
1330.0
 11
3590.0
 21
20.0
  0
LINE
  5
5F
100
AcDbEntity
  8
1
  6
CONTINUOUS
 62
           2
100
AcDbLine
 10
3812.5
 20
1094.499999999994
 11
3832.573593128805
 21
1094.499999999994
  0
LINE
  5
5E
100
AcDbEntity
  8
1
  6
CONTINUOUS
 62
           2
100
AcDbLine
 10
3812.314185654644
 20
1064.499999999994
 11
3812.314185654644
 21
1094.499999999994
  0
LINE
  5
5D
100
AcDbEntity
  8
1
  6
CONTINUOUS
 62
           2
100
AcDbLine
 10
3885.000000000002
 20
1141.999999999994
 11
3885.000000000002
 21
1161.999999999994
  0
LINE
  5
5C
100
AcDbEntity
  8
1
  6
CONTINUOUS
 62
           2
100
AcDbLine
 10
3865.000000000002
 20
1141.999999999994
 11
3865.000000000002
 21
1161.999999999994
  0
LINE
  5
5B
100
AcDbEntity
  8
1
  6
CONTINUOUS
 62
           2
100
AcDbLine
 10
3832.573593128805
 20
1064.499999999994
 11
3812.5
 21
1064.499999999994
  0
LINE
  5
5A
100
AcDbEntity
  8
1
  6
CONTINUOUS
 62
           2
100
AcDbLine
 10
3860.000000000002
 20
1121.926406871187
 11
3860.000000000002
 21
1141.999999999994
  0
LINE
  5
59
100
AcDbEntity
  8
1
  6
CONTINUOUS
 62
           2
100
AcDbLine
 10
3860.000000000002
 20
1141.999999999994
 11
3890.000000000002
 21
1141.999999999994
  0
LINE
  5
58
100
AcDbEntity
  8
1
  6
CONTINUOUS
 62
           2
100
AcDbLine
 10
3890.000000000002
 20
1141.999999999994
 11
3890.000000000002
 21
1121.926406871187
  0
LINE
  5
57
100
AcDbEntity
  8
1
  6
CONTINUOUS
 62
           2
100
AcDbLine
 10
3890.000000000002
 20
1016.999999999994
 11
3860.000000000002
 21
1016.999999999994
  0
LINE
  5
56
100
AcDbEntity
  8
1
  6
CONTINUOUS
 62
           2
100
AcDbLine
 10
3890.000000000002
 20
1037.073593128801
 11
3890.000000000002
 21
1016.999999999994
  0
LINE
  5
55
100
AcDbEntity
  8
1
  6
CONTINUOUS
 62
           2
100
AcDbLine
 10
3860.000000000002
 20
1016.999999999994
 11
3860.000000000002
 21
1037.073593128801
  0
LINE
  5
54
100
AcDbEntity
  8
1
  6
CONTINUOUS
 62
           7
100
AcDbLine
 10
4000.000000000001
 20
1329.999999999997
 11
4070.000000000001
 21
1329.999999999997
  0
LINE
  5
53
100
AcDbEntity
  8
1
  6
CONTINUOUS
 62
           7
100
AcDbLine
 10
4000.000000000001
 20
1669.999999999992
 11
4070.000000000001
 21
1669.999999999992
  0
LINE
  5
52
100
AcDbEntity
  8
1
  6
CONTINUOUS
 62
           7
100
AcDbLine
 10
3570.000000000002
 20
1329.999999999997
 11
3645.000000000002
 21
1329.999999999997
  0
LINE
  5
51
100
AcDbEntity
  8
1
  6
CONTINUOUS
 62
           7
100
AcDbLine
 10
3570.000000000002
 20
1669.999999999992
 11
3750.000000000002
 21
1669.999999999992
  0
LINE
  5
50
100
AcDbEntity
  8
1
  6
CONTINUOUS
 62
           4
100
AcDbLine
 10
1305.0
 20
1330.000000000002
 11
1300.0
 21
1329.999999999999
  0
LINE
  5
4F
100
AcDbEntity
  8
1
  6
CONTINUOUS
 62
           4
100
AcDbLine
 10
1300.0
 20
1670.000000000009
 11
1305.0
 21
1670.000000000009
  0
LINE
  5
4E
100
AcDbEntity
  8
1
  6
CONTINUOUS
 62
           4
100
AcDbLine
 10
1305.0
 20
1670.000000000009
 11
1305.0
 21
1330.000000000002
  0
LINE
  5
4D
100
AcDbEntity
  8
1
  6
CONTINUOUS
 62
           2
100
AcDbLine
 10
1458.0
 20
1107.250000000004
 11
1458.0
 21
1116.500000000004
  0
LINE
  5
4C
100
AcDbEntity
  8
1
  6
CONTINUOUS
 62
           2
100
AcDbLine
 10
1458.0
 20
1046.750000000004
 11
1458.0
 21
1042.500000000004
  0
LINE
  5
4B
100
AcDbEntity
  8
1
  6
CONTINUOUS
 62
           2
100
AcDbLine
 10
1458.0
 20
1046.750000000004
 11
1458.0
 21
1107.250000000004
  0
LINE
  5
4A
100
AcDbEntity
  8
1
  6
CONTINUOUS
 62
           2
100
AcDbLine
 10
1385.0
 20
1107.250000000004
 11
1385.0
 21
1142.000000000004
  0
LINE
  5
49
100
AcDbEntity
  8
1
  6
CONTINUOUS
 62
           2
100
AcDbLine
 10
1385.0
 20
1046.750000000004
 11
1385.0
 21
1017.000000000004
  0
LINE
  5
48
100
AcDbEntity
  8
1
  6
CONTINUOUS
 62
           2
100
AcDbLine
 10
1441.0
 20
1046.750000000004
 11
1441.0
 21
1034.500000000004
  0
LINE
  5
47
100
AcDbEntity
  8
1
  6
CONTINUOUS
 62
           2
100
AcDbLine
 10
1441.0
 20
1107.250000000004
 11
1441.0
 21
1124.500000000004
  0
LINE
  5
46
100
AcDbEntity
  8
1
  6
CONTINUOUS
 62
           2
100
AcDbLine
 10
1441.0
 20
1107.250000000004
 11
1441.0
 21
1046.750000000004
  0
LINE
  5
45
100
AcDbEntity
  8
1
  6
CONTINUOUS
 62
           2
100
AcDbLine
 10
1385.0
 20
1107.250000000004
 11
1385.0
 21
1046.750000000004
  0
LINE
  5
44
100
AcDbEntity
  8
1
  6
CONTINUOUS
 62
           2
100
AcDbLine
 10
1415.0
 20
1142.000000000004
 11
1415.0
 21
1162.000000000004
  0
LINE
  5
43
100
AcDbEntity
  8
1
  6
CONTINUOUS
 62
           2
100
AcDbLine
 10
1395.0
 20
1142.000000000004
 11
1395.0
 21
1162.000000000004
  0
LINE
  5
42
100
AcDbEntity
  8
1
  6
CONTINUOUS
 62
           2
100
AcDbLine
 10
1385.0
 20
1094.500000000004
 11
1418.0
 21
1094.500000000004
  0
LINE
  5
41
100
AcDbEntity
  8
1
  6
CONTINUOUS
 62
           2
100
AcDbLine
 10
1385.0
 20
1064.500000000004
 11
1418.0
 21
1064.500000000004
  0
LINE
  5
40
100
AcDbEntity
  8
1
  6
CONTINUOUS
 62
           2
100
AcDbLine
 10
1433.0
 20
1124.500000000004
 11
1450.0
 21
1124.500000000004
  0
LINE
  5
3F
100
AcDbEntity
  8
1
  6
CONTINUOUS
 62
           2
100
AcDbLine
 10
1433.0
 20
1034.500000000004
 11
1450.0
 21
1034.500000000004
  0
LINE
  5
3E
100
AcDbEntity
  8
1
  6
CONTINUOUS
 62
           2
100
AcDbLine
 10
1385.0
 20
1017.000000000004
 11
1433.0
 21
1017.000000000004
  0
LINE
  5
3D
100
AcDbEntity
  8
1
  6
CONTINUOUS
 62
           2
100
AcDbLine
 10
1433.0
 20
1017.000000000004
 11
1433.0
 21
1034.500000000004
  0
LINE
  5
3C
100
AcDbEntity
  8
1
  6
CONTINUOUS
 62
           2
100
AcDbLine
 10
1385.0
 20
1142.000000000004
 11
1433.0
 21
1142.000000000004
  0
LINE
  5
3B
100
AcDbEntity
  8
1
  6
CONTINUOUS
 62
           2
100
AcDbLine
 10
1433.0
 20
1142.000000000004
 11
1433.0
 21
1124.500000000004
  0
LINE
  5
3A
100
AcDbEntity
  8
1
  6
CONTINUOUS
 62
           2
100
AcDbLine
 10
1417.683280999349
 20
1042.000000000004
 11
1385.0
 21
1042.000000000004
  0
LINE
  5
39
100
AcDbEntity
  8
1
  6
CONTINUOUS
 62
           2
100
AcDbLine
 10
1417.683280999349
 20
1117.000000000004
 11
1385.0
 21
1117.000000000004
  0
LINE
  5
38
100
AcDbEntity
  8
1
  6
CONTINUOUS
 62
           4
100
AcDbLine
 10
3665.000000000002
 20
1430.000000000003
 11
3645.000000000002
 21
1430.000000000003
  0
LINE
  5
37
100
AcDbEntity
  8
1
  6
CONTINUOUS
 62
           4
100
AcDbLine
 10
3645.000000000002
 20
1430.000000000003
 11
3645.000000000002
 21
1119.435182228534
  0
LINE
  5
36
100
AcDbEntity
  8
1
  6
CONTINUOUS
 62
           4
100
AcDbLine
 10
3695.000000000002
 20
1069.435182228534
 11
3812.314185654645
 21
1069.435182228534
  0
LINE
  5
35
100
AcDbEntity
  8
1
  6
CONTINUOUS
 62
           4
100
AcDbLine
 10
3812.314185654645
 20
1069.435182228534
 11
3812.314185654645
 21
1089.435182228534
  0
LINE
  5
34
100
AcDbEntity
  8
1
  6
CONTINUOUS
 62
           4
100
AcDbLine
 10
3812.314185654645
 20
1089.435182228534
 11
3695.000000000002
 21
1089.435182228534
  0
LINE
  5
33
100
AcDbEntity
  8
1
  6
CONTINUOUS
 62
           4
100
AcDbLine
 10
3665.000000000002
 20
1119.435182228534
 11
3665.000000000002
 21
1430.000000000003
  0
LINE
  5
32
100
AcDbEntity
  8
1
  6
CONTINUOUS
 62
           7
100
AcDbLine
 10
3665.000000000002
 20
1329.999999999997
 11
3750.000000000002
 21
1329.999999999997
  0
LINE
  5
31
100
AcDbEntity
  8
1
  6
CONTINUOUS
 62
           7
100
AcDbLine
 10
3570.000000000001
 20
2050.0
 11
3570.000000000001
 21
2150.0
  0
LINE
  5
30
100
AcDbEntity
  8
1
  6
CONTINUOUS
 62
           7
100
AcDbLine
 10
3570.000000000001
 20
2150.0
 11
3590.000000000001
 21
2150.0
  0
LINE
  5
2F
100
AcDbEntity
  8
1
  6
CONTINUOUS
 62
           7
100
AcDbLine
 10
1300.0
 20
2150.0
 11
-1300.0
 21
2150.0
  0
LINE
  5
2E
100
AcDbEntity
  8
1
  6
DOT_CENTER
 62
           2
100
AcDbLine
 10
-604.88800322482
 20
5381.999999999997
 11
477.32599433197
 21
5381.999999999997
  0
POINT
  5
2D
100
AcDbEntity
  8
0
 62
           3
100
AcDbPoint
 10
4403.399996721732
 20
1365.00000000012
  0
ENDSEC
  0
SECTION
  2
OBJECTS
  0
DICTIONARY
  5
19
100
AcDbDictionary
  3
ACAD_GROUP
350
1A
  3
ACAD_MLINESTYLE
350
1B
  0
DICTIONARY
  5
1A
102
{ACAD_REACTORS
330
19
102
}
100
AcDbDictionary
  0
DICTIONARY
  5
1B
102
{ACAD_REACTORS
330
19
102
}
100
AcDbDictionary
  3
STANDARD
350
1C
  0
MLINESTYLE
  5
1C
102
{ACAD_REACTORS
330
1B
102
}
100
AcDbMlineStyle
  2
STANDARD
 70
           0
  3

 62
           0
 51
90.0
 52
90.0
 71
           2
 49
0.5
 62
         256
  6
BYLAYER
 49
-0.5
 62
         256
  6
BYLAYER
  0
ENDSEC
  0
EOF
