  0
SECTION
  2
HEADER
  9
$ACADVER
  1
AC1014
  9
$ACADMAINTVER
 70
           0
  9
$DWGCODEPAGE
  3
DOS932
  9
$INSBASE
 10
0.0
 20
0.0
 30
0.0
  9
$EXTMIN
 10
1.000000000000E+20
 20
1.000000000000E+20
 30
1.000000000000E+20
  9
$EXTMAX
 10
-1.000000000000E+20
 20
-1.000000000000E+20
 30
-1.000000000000E+20
  9
$LIMMIN
 10
0.0
 20
0.0
  9
$LIMMAX
 10
0.0
 20
0.0
  9
$ORTHOMODE
 70
           0
  9
$REGENMODE
 70
           1
  9
$FILLMODE
 70
           1
  9
$QTEXTMODE
 70
           0
  9
$MIRRTEXT
 70
           1
  9
$DRAGMODE
 70
           2
  9
$LTSCALE
 40
1.0
  9
$OSMODE
 70
           0
  9
$ATTMODE
 70
           1
  9
$TEXTSIZE
 40
0.2
  9
$TRACEWID
 40
0.05
  9
$TEXTSTYLE
  7
STANDARD
  9
$CLAYER
  8
0
  9
$CELTYPE
  6
CONTINUOUS
  9
$CECOLOR
 62
         256
  9
$CELTSCALE
 40
1.0
  9
$DELOBJ
 70
           1
  9
$DISPSILH
 70
           0
  9
$DIMSCALE
 40
1.0
  9
$DIMASZ
 40
0.18
  9
$DIMEXO
 40
0.0625
  9
$DIMDLI
 40
0.38
  9
$DIMRND
 40
0.0
  9
$DIMDLE
 40
0.0
  9
$DIMEXE
 40
0.18
  9
$DIMTP
 40
0.0
  9
$DIMTM
 40
0.0
  9
$DIMTXT
 40
0.18
  9
$DIMCEN
 40
0.09
  9
$DIMTSZ
 40
0.0
  9
$DIMTOL
 70
           0
  9
$DIMLIM
 70
           0
  9
$DIMTIH
 70
           1
  9
$DIMTOH
 70
           1
  9
$DIMSE1
 70
           0
  9
$DIMSE2
 70
           0
  9
$DIMTAD
 70
           0
  9
$DIMZIN
 70
           0
  9
$DIMBLK
  1

  9
$DIMASO
 70
           1
  9
$DIMSHO
 70
           1
  9
$DIMPOST
  1

  9
$DIMAPOST
  1

  9
$DIMALT
 70
           0
  9
$DIMALTD
 70
           2
  9
$DIMALTF
 40
25.4
  9
$DIMLFAC
 40
1.0
  9
$DIMTOFL
 70
           0
  9
$DIMTVP
 40
0.0
  9
$DIMTIX
 70
           0
  9
$DIMSOXD
 70
           0
  9
$DIMSAH
 70
           0
  9
$DIMBLK1
  1

  9
$DIMBLK2
  1

  9
$DIMSTYLE
  2
STANDARD
  9
$DIMCLRD
 70
           0
  9
$DIMCLRE
 70
           0
  9
$DIMCLRT
 70
           0
  9
$DIMTFAC
 40
1.0
  9
$DIMGAP
 40
0.09
  9
$DIMJUST
 70
           0
  9
$DIMSD1
 70
           0
  9
$DIMSD2
 70
           0
  9
$DIMTOLJ
 70
           1
  9
$DIMTZIN
 70
           0
  9
$DIMALTZ
 70
           0
  9
$DIMALTTZ
 70
           0
  9
$DIMFIT
 70
           3
  9
$DIMUPT
 70
           0
  9
$DIMUNIT
 70
           2
  9
$DIMDEC
 70
           4
  9
$DIMTDEC
 70
           4
  9
$DIMALTU
 70
           2
  9
$DIMALTTD
 70
           2
  9
$DIMTXSTY
  7
STANDARD
  9
$DIMAUNIT
 70
           0
  9
$LUNITS
 70
           2
  9
$LUPREC
 70
           4
  9
$SKETCHINC
 40
0.1
  9
$FILLETRAD
 40
0.0
  9
$AUNITS
 70
           0
  9
$AUPREC
 70
           0
  9
$MENU
  1
acad
  9
$ELEVATION
 40
0.0
  9
$PELEVATION
 40
0.0
  9
$THICKNESS
 40
0.0
  9
$LIMCHECK
 70
           0
  9
$BLIPMODE
 70
           1
  9
$CHAMFERA
 40
0.0
  9
$CHAMFERB
 40
0.0
  9
$CHAMFERC
 40
0.0
  9
$CHAMFERD
 40
0.0
  9
$SKPOLY
 70
           0
  9
$TDCREATE
 40
0.000000000
  9
$TDUPDATE
 40
0.000000000
  9
$TDINDWG
 40
0.0000000000
  9
$TDUSRTIMER
 40
0.0000000000
  9
$USRTIMER
 70
           1
  9
$ANGBASE
 50
0.0
  9
$ANGDIR
 70
           0
  9
$PDMODE
 70
           0
  9
$PDSIZE
 40
0.0
  9
$PLINEWID
 40
0.0
  9
$COORDS
 70
           0
  9
$SPLFRAME
 70
           0
  9
$SPLINETYPE
 70
           6
  9
$SPLINESEGS
 70
           8
  9
$ATTDIA
 70
           0
  9
$ATTREQ
 70
           1
  9
$HANDLING
 70
           1
  9
$HANDSEED
  5
4BD
  9
$SURFTAB1
 70
           6
  9
$SURFTAB2
 70
           6
  9
$SURFTYPE
 70
           6
  9
$SURFU
 70
           6
  9
$SURFV
 70
           6
  9
$UCSNAME
  2

  9
$UCSORG
 10
0.0
 20
0.0
 30
0.0
  9
$UCSXDIR
 10
1.0
 20
0.0
 30
0.0
  9
$UCSYDIR
 10
0.0
 20
1.0
 30
0.0
  9
$PUCSNAME
  2

  9
$PUCSORG
 10
0.0
 20
0.0
 30
0.0
  9
$PUCSXDIR
 10
1.0
 20
0.0
 30
0.0
  9
$PUCSYDIR
 10
0.0
 20
1.0
 30
0.0
  9
$USERI1
 70
           0
  9
$USERI2
 70
           0
  9
$USERI3
 70
           0
  9
$USERI4
 70
           0
  9
$USERI5
 70
           0
  9
$USERR1
 40
0.0
  9
$USERR2
 40
0.0
  9
$USERR3
 40
0.0
  9
$USERR4
 40
0.0
  9
$USERR5
 40
0.0
  9
$WORLDVIEW
 70
           1
  9
$SHADEDGE
 70
           3
  9
$SHADEDIF
 70
          70
  9
$TILEMODE
 70
           1
  9
$MAXACTVP
 70
          16
  9
$PINSBASE
 10
0.0
 20
0.0
 30
0.0
  9
$PLIMCHECK
 70
           0
  9
$PEXTMIN
 10
1.000000000000E+20
 20
1.000000000000E+20
 30
1.000000000000E+20
  9
$PEXTMAX
 10
-1.000000000000E+20
 20
-1.000000000000E+20
 30
-1.000000000000E+20
  9
$PLIMMIN
 10
0.0
 20
0.0
  9
$PLIMMAX
 10
12.0
 20
9.0
  9
$UNITMODE
 70
           0
  9
$VISRETAIN
 70
           0
  9
$PLINEGEN
 70
           1
  9
$PSLTSCALE
 70
           0
  9
$TREEDEPTH
 70
        3020
  9
$PICKSTYLE
 70
           1
  9
$CMLSTYLE
  2
STANDARD
  9
$CMLJUST
 70
           0
  9
$CMLSCALE
 40
1.0
  9
$PROXYGRAPHICS
 70
           0
  9
$MEASUREMENT
 70
           0
  0
ENDSEC
  0
SECTION
  2
CLASSES
  0
CLASS
  1
LWPOLYLINE
  2
AcDbPolyline
  3
"AutoCAD"
 90
        0
280
           0
281
           1
  0
CLASS
  1
IMAGE
  2
AcDbRasterImage
  3
ISM
 90
      127
280
           0
281
           1
  0
CLASS
  1
OLE2FRAME
  2
AcDbOle2Frame
  3
""
 90
        0
280
           0
281
           1
  0
CLASS
  1
HATCH
  2
AcDbHatch
  3
"ACAD_SEDONA"
 90
        0
280
           0
281
           1
  0
CLASS
  1
DICTIONARYVAR
  2
AcDbDictionaryVar
  3
"AutoCAD"
 90
        0
280
           0
281
           0
  0
CLASS
  1
RASTERVARIABLES
  2
AcDbRasterVariables
  3
ISM
 90
        0
280
           0
281
           0
  0
CLASS
  1
IMAGEDEF
  2
AcDbRasterImageDef
  3
ISM
 90
        0
280
           0
281
           0
  0
CLASS
  1
IMAGEDEF_REACTOR
  2
AcDbRasterImageDefReactor
  3
ISM
 90
        1
280
           0
281
           0
  0
CLASS
  1
IDBUFFER
  2
AcDbIdBuffer
  3
"Acad"
 90
        0
280
           0
281
           0
  0
CLASS
  1
SPATIAL_FILTER
  2
AcDbSpatialFilter
  3
"Acad"
 90
        0
280
           0
281
           0
  0
CLASS
  1
XRECORD
  2
AcDbXrecord
  3
"<Built In>"
 90
        0
280
           0
281
           0
  0
CLASS
  1
SORTENTSTABLE
  2
AcDbSortentsTable
  3
"AutoCAD"
 90
        0
280
           0
281
           0
  0
CLASS
  1
LAYER_INDEX
  2
AcDbLayerIndex
  3
"Acad"
 90
        0
280
           0
281
           0
  0
CLASS
  1
SPATIAL_INDEX
  2
AcDbSpatialIndex
  3
"Acad"
 90
        0
280
           0
281
           0
  0
CLASS
  1
OBJECT_PTR
  2
CAseDLPNTableRecord
  3
"ASE-LPNTableRecord"
 90
        1
280
           0
281
           0
  0
CLASS
  1
LAYOUT
  2
AcDbLayout
  3
"AutoCAD 2000"
 90
        1
280
           0
281
           0
  0
CLASS
  1
PLOTSETTINGS
  2
AcDbPlotSettings
  3
"AutoCAD 2000"
 90
        1
280
           0
281
           0
  0
CLASS
  1
ACDBDICTIONARYWDFLT
  2
AcDbDictionaryWithDefault
  3
"AutoCAD 2000"
 90
        1
280
           0
281
           0
  0
CLASS
  1
ACDBPLACEHOLDER
  2
AcDbPlaceHolder
  3
"AutoCAD 2000"
 90
        1
280
           0
281
           0
  0
CLASS
  1
VBA_PROJECT
  2
AcDbVbaProject
  3
"acadvba"
 90
        1
280
           0
281
           0
  0
CLASS
  1
WIPEOUT
  2
AcDbWipeout
  3
WipeOut|AutoCAD Express Tool|expresstools@autodesk.com
 90
      127
280
           0
281
           1
  0
CLASS
  1
WIPEOUTVARIABLES
  2
AcDbWipeoutVariables
  3
WipeOut|AutoCAD Express Tool|expresstools@autodesk.com
 90
        0
280
           0
281
           0
  0
CLASS
  1
RTEXT
  2
RText
  3
RText|AutoCAD Express Tool|expresstools@autodesk.com
 90
        0
280
           0
281
           1
  0
CLASS
  1
ARCALIGNEDTEXT
  2
AcDbArcAlignedText
  3
ATEXT|AutoCAD Express Tool|expresstools@autodesk.com
 90
        0
280
           0
281
           1
  0
ENDSEC
  0
SECTION
  2
TABLES
  0
TABLE
  2
VPORT
  5
7
100
AcDbSymbolTable
 70
           1
  0
VPORT
  5
15
100
AcDbSymbolTableRecord
100
AcDbViewportTableRecord
  2
*ACTIVE
 70
           0
 10
0.0
 20
0.0
 11
1.0
 21
1.0
 12
6.591288
 22
4.579184
 13
0.0
 23
0.0
 14
1.0
 24
1.0
 15
0.0
 25
0.0
 16
0.0
 26
0.0
 36
1.0
 17
0.0
 27
0.0
 37
0.0
 40
9.158369
 41
0.688564
 42
50.0
 43
0.0
 44
0.0
 50
0.0
 51
0.0
 71
           0
 72
         100
 73
           1
 74
           1
 75
           0
 76
           0
 77
           0
 78
           0
  0
ENDTAB
  0
TABLE
  2
LTYPE
  5
4
100
AcDbSymbolTable
 70
          10
  0
LTYPE
  5
11
100
AcDbSymbolTableRecord
100
AcDbLinetypeTableRecord
  2
BYBLOCK
 70
          64
  3

 72
          65
 73
           0
 40
0.0
  0
LTYPE
  5
12
100
AcDbSymbolTableRecord
100
AcDbLinetypeTableRecord
  2
BYLAYER
 70
          64
  3

 72
          65
 73
           0
 40
0.0
  0
LTYPE
  5
13
100
AcDbSymbolTableRecord
100
AcDbLinetypeTableRecord
  2
CONTINUOUS
 70
          64
  3
Solid line
 72
          65
 73
           0
 40
0.0
  0
LTYPE
  5
1D
100
AcDbSymbolTableRecord
100
AcDbLinetypeTableRecord
  2
DASHED
 70
          64
  3
Dashed
 72
          65
 73
           2
 40
15.0
 49
12.0
 74
           0
 49
-3.0
 74
           0
  0
LTYPE
  5
1E
100
AcDbSymbolTableRecord
100
AcDbLinetypeTableRecord
  2
DOTTED
 70
          64
  3
Dotted
 72
          65
 73
           2
 40
3.5
 49
0.5
 74
           0
 49
-3.0
 74
           0
  0
LTYPE
  5
1F
100
AcDbSymbolTableRecord
100
AcDbLinetypeTableRecord
  2
DOT_CENTER
 70
          64
  3
Dot_Center
 72
          65
 73
           4
 40
2.0
 49
1.25
 74
           0
 49
-0.25
 74
           0
 49
0.25
 74
           0
 49
-0.25
 74
           0
  0
LTYPE
  5
20
100
AcDbSymbolTableRecord
100
AcDbLinetypeTableRecord
  2
LONG_DASHED
 70
          64
  3
Long_Dashed
 72
          65
 73
           2
 40
2.0
 49
1.5
 74
           0
 49
-0.5
 74
           0
  0
LTYPE
  5
21
100
AcDbSymbolTableRecord
100
AcDbLinetypeTableRecord
  2
DASH_CENTER
 70
          64
  3
Dash_Center
 72
          65
 73
           4
 40
36.0
 49
24.0
 74
           0
 49
-3.0
 74
           0
 49
6.0
 74
           0
 49
-3.0
 74
           0
  0
LTYPE
  5
22
100
AcDbSymbolTableRecord
100
AcDbLinetypeTableRecord
  2
PHANTOM
 70
          64
  3
Phantom
 72
          65
 73
           6
 40
2.5
 49
1.25
 74
           0
 49
-0.25
 74
           0
 49
0.25
 74
           0
 49
-0.25
 74
           0
 49
0.25
 74
           0
 49
-0.25
 74
           0
  0
LTYPE
  5
23
100
AcDbSymbolTableRecord
100
AcDbLinetypeTableRecord
  2
CENTER_DASH_DASH
 70
          64
  3
Center_Dash_Dash
 72
          65
 73
           6
 40
22.0
 49
12.0
 74
           0
 49
-3.0
 74
           0
 49
0.5
 74
           0
 49
-3.0
 74
           0
 49
0.5
 74
           0
 49
-3.0
 74
           0
  0
ENDTAB
  0
TABLE
  2
LAYER
  5
2
100
AcDbSymbolTable
 70
           7
  0
LAYER
  5
14
100
AcDbSymbolTableRecord
100
AcDbLayerTableRecord
  2
0
 70
           0
 62
           7
  6
CONTINUOUS
  0
LAYER
  5
24
100
AcDbSymbolTableRecord
100
AcDbLayerTableRecord
  2
___S__
 70
           0
 62
           7
  6
CONTINUOUS
  0
LAYER
  5
25
100
AcDbSymbolTableRecord
100
AcDbLayerTableRecord
  2
FORMAT
 70
           0
 62
           7
  6
CONTINUOUS
  0
LAYER
  5
26
100
AcDbSymbolTableRecord
100
AcDbLayerTableRecord
  2
1
 70
           0
 62
           7
  6
CONTINUOUS
  0
LAYER
  5
27
100
AcDbSymbolTableRecord
100
AcDbLayerTableRecord
  2
2
 70
           0
 62
           7
  6
CONTINUOUS
  0
LAYER
  5
28
100
AcDbSymbolTableRecord
100
AcDbLayerTableRecord
  2
7
 70
           0
 62
           7
  6
CONTINUOUS
  0
LAYER
  5
29
100
AcDbSymbolTableRecord
100
AcDbLayerTableRecord
  2
____
 70
           0
 62
           7
  6
CONTINUOUS
  0
ENDTAB
  0
TABLE
  2
STYLE
  5
3
100
AcDbSymbolTable
 70
           1
  0
STYLE
  5
17
100
AcDbSymbolTableRecord
100
AcDbTextStyleTableRecord
  2
STANDARD
 70
           0
 40
0.0
 41
1.0
 50
0.0
 71
           0
 42
0.0
  3
txt
  4

  0
ENDTAB
  0
TABLE
  2
VIEW
  5
5
100
AcDbSymbolTable
 70
           0
  0
ENDTAB
  0
TABLE
  2
UCS
  5
6
100
AcDbSymbolTable
 70
           0
  0
ENDTAB
  0
TABLE
  2
APPID
  5
8
100
AcDbSymbolTable
 70
           1
  0
APPID
  5
16
100
AcDbSymbolTableRecord
100
AcDbRegAppTableRecord
  2
ACAD
 70
           0
  0
ENDTAB
  0
TABLE
  2
DIMSTYLE
  5
9
100
AcDbSymbolTable
 70
           1
  0
DIMSTYLE
105
18
100
AcDbSymbolTableRecord
100
AcDbDimStyleTableRecord
  2
STANDARD
 70
           0
  3

  4

  5

  6

  7

 40
1.0
 41
0.18
 42
0.0625
 43
0.38
 44
0.18
 45
0.0
 46
0.0
 47
0.0
 48
0.0
 71
           0
 72
           0
 73
           1
 74
           1
 75
           0
 76
           0
 77
           0
 78
           0
140
0.18
141
0.09
142
0.0
143
25.4
144
1.0
145
0.0
146
1.0
147
0.09
170
           0
171
           2
172
           0
173
           0
174
           0
175
           0
176
           0
177
           0
178
           0
270
           2
271
           4
272
           4
273
           2
274
           2
275
           0
280
           0
281
           0
282
           0
283
           1
284
           0
285
           0
286
           0
287
           0
288
           0
340
17
  0
ENDTAB
  0
TABLE
  2
BLOCK_RECORD
  5
1
100
AcDbSymbolTable
 70
           0
  0
BLOCK_RECORD
  5
A
100
AcDbSymbolTableRecord
100
AcDbBlockTableRecord
  2
*MODEL_SPACE
  0
BLOCK_RECORD
  5
B
100
AcDbSymbolTableRecord
100
AcDbBlockTableRecord
  2
*PAPER_SPACE
  0
ENDTAB
  0
ENDSEC
  0
SECTION
  2
BLOCKS
  0
BLOCK
  5
D
100
AcDbEntity
  8
0
100
AcDbBlockBegin
  2
*MODEL_SPACE
 70
           0
 10
0.0
 20
0.0
 30
0.0
  3
*MODEL_SPACE
  1

  0
ENDBLK
  5
E
100
AcDbEntity
  8
0
100
AcDbBlockEnd
  0
BLOCK
  5
F
100
AcDbEntity
 67
           1
  8
0
100
AcDbBlockBegin
  2
*PAPER_SPACE
 70
           0
 10
0.0
 20
0.0
 30
0.0
  3
*PAPER_SPACE
  1

  0
ENDBLK
  5
10
100
AcDbEntity
 67
           1
  8
0
100
AcDbBlockEnd
  0
ENDSEC
  0
SECTION
  2
ENTITIES
  0
HATCH
  5
4BB
100
AcDbEntity
  8
0
  6
CONTINUOUS
 62
           3
100
AcDbHatch
 10
0.0
 20
0.0
 30
0.0
210
0.0
220
0.0
230
1.0
  2
USER
 70
           0
 71
           1
 91
        1
 92
        1
 93
        8
 72
           1
 10
3882.3141856546449
 20
1069.435182228533
 11
3882.3141856546449
 21
1089.435182228533
 72
           1
 10
3765.0000000000018
 20
1069.435182228533
 11
3882.3141856546449
 21
1069.435182228533
 72
           2
 10
3765.0000000000018
 20
1119.435182228533
 40
50.0
 50
180.0
 51
-90.0
 73
           1
 72
           1
 10
3715.0000000000018
 20
1430.000000000002
 11
3715.0000000000018
 21
1119.435182228533
 72
           1
 10
3735.0000000000018
 20
1430.000000000002
 11
3715.0000000000018
 21
1430.000000000002
 72
           1
 10
3735.0000000000018
 20
1119.435182228533
 11
3735.0000000000018
 21
1430.000000000002
 72
           2
 10
3765.0000000000018
 20
1119.435182228533
 40
30.0
 50
180.0
 51
-90.0
 73
           1
 72
           1
 10
3882.3141856546449
 20
1089.435182228533
 11
3765.0000000000018
 21
1089.435182228533
 97
        8
330
6A
330
6B
330
4A0
330
6C
330
6D
330
68
330
4A1
330
69
 75
           1
 76
           0
 52
45.0
 41
10.0
 77
           0
 78
           1
 53
45.0
 43
0.0
 44
0.0
 45
-7.0710678118654746
 46
7.0710678118654755
 79
           0
 98
        1
 10
0.0
 20
0.0
  0
ARC
  5
4BA
100
AcDbEntity
  8
1
  6
CONTINUOUS
 62
           4
100
AcDbCircle
 10
5684.5
 20
2159.5
 40
1.0
100
AcDbArc
 50
0.0
 51
90.0
  0
ARC
  5
4B9
100
AcDbEntity
  8
1
  6
CONTINUOUS
 62
           4
100
AcDbCircle
 10
5695.5
 20
2159.5
 40
1.0
100
AcDbArc
 50
90.0
 51
180.0
  0
ARC
  5
4B8
100
AcDbEntity
  8
1
  6
CONTINUOUS
 62
           4
100
AcDbCircle
 10
5684.5
 20
2610.500000000002
 40
1.0
100
AcDbArc
 50
-90.0
 51
0.0
  0
ARC
  5
4B7
100
AcDbEntity
  8
1
  6
CONTINUOUS
 62
           4
100
AcDbCircle
 10
5695.5
 20
2610.500000000002
 40
1.0
100
AcDbArc
 50
180.0
 51
-90.0
  0
ARC
  5
4B6
100
AcDbEntity
  8
1
  6
CONTINUOUS
 62
           7
100
AcDbCircle
 10
5231.5
 20
2804.299999999998
 40
12.0
100
AcDbArc
 50
0.0
 51
90.0
  0
ARC
  5
4B5
100
AcDbEntity
  8
1
  6
CONTINUOUS
 62
           7
100
AcDbCircle
 10
5231.5
 20
2728.299999999998
 40
12.0
100
AcDbArc
 50
-90.0
 51
0.0
  0
ARC
  5
4B4
100
AcDbEntity
  8
1
  6
CONTINUOUS
 62
           7
100
AcDbCircle
 10
5128.5
 20
2804.299999999998
 40
12.0
100
AcDbArc
 50
90.0
 51
180.0
  0
ARC
  5
4B3
100
AcDbEntity
  8
1
  6
CONTINUOUS
 62
           7
100
AcDbCircle
 10
5128.5
 20
2728.299999999998
 40
12.0
100
AcDbArc
 50
180.0
 51
-90.0
  0
ARC
  5
4B2
100
AcDbEntity
  8
1
  6
CONTINUOUS
 62
           7
100
AcDbCircle
 10
583.061819604221
 20
2728.299999999998
 40
12.0
100
AcDbArc
 50
180.0
 51
-90.000000000001
  0
ARC
  5
4B1
100
AcDbEntity
  8
1
  6
CONTINUOUS
 62
           7
100
AcDbCircle
 10
583.061819604221
 20
2804.299999999998
 40
12.0
100
AcDbArc
 50
90.0
 51
180.0
  0
ARC
  5
4B0
100
AcDbEntity
  8
1
  6
CONTINUOUS
 62
           7
100
AcDbCircle
 10
633.565422804222
 20
2728.299999999998
 40
12.0
100
AcDbArc
 50
-90.0
 51
0.0
  0
ARC
  5
4AF
100
AcDbEntity
  8
1
  6
CONTINUOUS
 62
           7
100
AcDbCircle
 10
633.565422804222
 20
2804.299999999998
 40
12.0
100
AcDbArc
 50
0.0
 51
90.0
  0
ARC
  5
4AE
100
AcDbEntity
  8
1
  6
CONTINUOUS
 62
           7
100
AcDbCircle
 10
633.565422804222
 20
5503.499999999999
 40
12.0
100
AcDbArc
 50
0.0
 51
90.0
  0
ARC
  5
4AD
100
AcDbEntity
  8
1
  6
CONTINUOUS
 62
           7
100
AcDbCircle
 10
633.565422804222
 20
5400.499999999999
 40
12.0
100
AcDbArc
 50
-90.0
 51
0.0
  0
ARC
  5
4AC
100
AcDbEntity
  8
1
  6
CONTINUOUS
 62
           7
100
AcDbCircle
 10
593.390389402417
 20
5503.499999999999
 40
12.0
100
AcDbArc
 50
90.0
 51
180.0
  0
ARC
  5
4AB
100
AcDbEntity
  8
1
  6
CONTINUOUS
 62
           7
100
AcDbCircle
 10
593.390389402417
 20
5400.499999999999
 40
12.0
100
AcDbArc
 50
180.0
 51
-90.0
  0
ARC
  5
4AA
100
AcDbEntity
  8
1
  6
CONTINUOUS
 62
           4
100
AcDbCircle
 10
566.474125566266
 20
5406.499999999999
 40
12.000000000002
100
AcDbArc
 50
-120.430594205701
 51
-90.0
  0
ARC
  5
4A9
100
AcDbEntity
  8
1
  6
CONTINUOUS
 62
           4
100
AcDbCircle
 10
566.474125566266
 20
5497.499999999999
 40
12.0
100
AcDbArc
 50
90.0
 51
120.430594205703
  0
ARC
  5
4A8
100
AcDbEntity
  8
1
  6
CONTINUOUS
 62
           3
100
AcDbCircle
 10
4889.89999681093
 20
1641.0
 40
288.0
100
AcDbArc
 50
90.0
 51
180.0
  0
ARC
  5
4A7
100
AcDbEntity
  8
1
  6
CONTINUOUS
 62
           3
100
AcDbCircle
 10
4889.899998122323
 20
1641.000000000001
 40
280.0
100
AcDbArc
 50
90.0
 51
180.0
  0
ARC
  5
4A6
100
AcDbEntity
  8
1
  6
CONTINUOUS
 62
           3
100
AcDbCircle
 10
5038.16356769104
 20
1932.19374658004
 40
0.5
100
AcDbArc
 50
90.0
 51
180.0
  0
ARC
  5
4A5
100
AcDbEntity
  8
1
  6
CONTINUOUS
 62
           3
100
AcDbCircle
 10
5038.16356769104
 20
1917.806253419961
 40
0.5
100
AcDbArc
 50
180.0
 51
-90.0
  0
ARC
  5
4A4
100
AcDbEntity
  8
1
  6
CONTINUOUS
 62
           2
100
AcDbCircle
 10
2366.56542280422
 20
1079.499999999983
 40
15.0
100
AcDbArc
 50
-90.0
 51
90.0
  0
ARC
  5
4A3
100
AcDbEntity
  8
1
  6
CONTINUOUS
 62
           2
100
AcDbCircle
 10
2398.56542280422
 20
1042.499999999983
 40
8.0
100
AcDbArc
 50
-90.0
 51
0.0
  0
ARC
  5
4A2
100
AcDbEntity
  8
1
  6
CONTINUOUS
 62
           2
100
AcDbCircle
 10
2398.56542280422
 20
1116.499999999983
 40
8.0
100
AcDbArc
 50
0.0
 51
90.0
  0
ARC
  5
4A1
100
AcDbEntity
  8
1
  6
CONTINUOUS
 62
           4
100
AcDbCircle
 10
3765.000000000002
 20
1119.435182228533
 40
30.0
100
AcDbArc
 50
180.0
 51
-90.0
  0
ARC
  5
4A0
100
AcDbEntity
  8
1
  6
CONTINUOUS
 62
           4
100
AcDbCircle
 10
3765.000000000002
 20
1119.435182228533
 40
50.0
100
AcDbArc
 50
180.0
 51
-90.0
  0
ARC
  5
49F
100
AcDbEntity
  8
1
  6
CONTINUOUS
 62
           7
100
AcDbCircle
 10
-714.434577195778
 20
2188.000000000001
 40
8.0
100
AcDbArc
 50
0.0
 51
90.0
  0
ARC
  5
49E
100
AcDbEntity
  8
1
  6
CONTINUOUS
 62
           7
100
AcDbCircle
 10
-788.434577195778
 20
2188.000000000001
 40
8.0
100
AcDbArc
 50
90.0
 51
180.0
  0
ARC
  5
49D
100
AcDbEntity
  8
1
  6
CONTINUOUS
 62
           7
100
AcDbCircle
 10
-751.434577195778
 20
2156.000000000001
 40
14.999999999999
100
AcDbArc
 50
147.769047364495
 51
180.0
  0
ARC
  5
49C
100
AcDbEntity
  8
1
  6
CONTINUOUS
 62
           7
100
AcDbCircle
 10
3853.000000000006
 20
2188.000000000001
 40
8.0
100
AcDbArc
 50
90.0
 51
180.0
  0
ARC
  5
49B
100
AcDbEntity
  8
1
  6
CONTINUOUS
 62
           7
100
AcDbCircle
 10
3927.000000000006
 20
2188.000000000001
 40
8.0
100
AcDbArc
 50
0.0
 51
90.0
  0
ARC
  5
49A
100
AcDbEntity
  8
1
  6
CONTINUOUS
 62
           7
100
AcDbCircle
 10
3890.000000000006
 20
2156.000000000001
 40
15.0
100
AcDbArc
 50
0.0
 51
180.0
  0
ARC
  5
499
100
AcDbEntity
  8
1
  6
CONTINUOUS
 62
           7
100
AcDbCircle
 10
-751.434577195778
 20
2156.000000000001
 40
15.000000000001
100
AcDbArc
 50
32.230952635499
 51
147.769047364495
  0
ARC
  5
498
100
AcDbEntity
  8
1
  6
CONTINUOUS
 62
           7
100
AcDbCircle
 10
-751.434577195778
 20
2156.000000000001
 40
15.0
100
AcDbArc
 50
0.0
 51
32.230952635499
  0
ARC
  5
497
100
AcDbEntity
  8
1
  6
CONTINUOUS
 62
           7
100
AcDbCircle
 10
998.565422804222
 20
2156.000000000001
 40
15.0
100
AcDbArc
 50
0.0
 51
32.230952635498
  0
ARC
  5
496
100
AcDbEntity
  8
1
  6
CONTINUOUS
 62
           7
100
AcDbCircle
 10
998.565422804222
 20
2156.000000000001
 40
15.000000000002
100
AcDbArc
 50
32.230952635498
 51
147.769047364495
  0
ARC
  5
495
100
AcDbEntity
  8
1
  6
CONTINUOUS
 62
           7
100
AcDbCircle
 10
998.565422804222
 20
2156.000000000001
 40
14.999999999999
100
AcDbArc
 50
147.769047364495
 51
180.0
  0
ARC
  5
494
100
AcDbEntity
  8
1
  6
CONTINUOUS
 62
           7
100
AcDbCircle
 10
961.565422804222
 20
2188.000000000001
 40
8.0
100
AcDbArc
 50
90.0
 51
180.0
  0
ARC
  5
493
100
AcDbEntity
  8
1
  6
CONTINUOUS
 62
           7
100
AcDbCircle
 10
1035.565422804222
 20
2188.000000000001
 40
8.0
100
AcDbArc
 50
0.0
 51
90.0
  0
SPLINE
  5
492
100
AcDbEntity
  8
0
  6
CONTINUOUS
 62
           3
100
AcDbSpline
210
0.0
220
0.0
230
1.0
 70
           0
 71
           3
 72
           8
 73
           5
 74
           7
 42
0.00000000001
 43
0.00000000001
 44
0.00000000001
 40
0.0
 40
0.0
 40
0.0
 40
0.5558562714151618
 40
1.5343210643708305
 40
2.9385072682930682
 40
2.9385072682930682
 40
2.9385072682930682
 10
4555.8999967216741
 20
1359.9999994040479
 30
0.0
 10
4555.9684298091424
 20
1359.999553710677
 30
0.0
 10
4556.9432526000237
 20
1359.9932048512139
 30
0.0
 10
4557.8985309047412
 20
1359.7653090218639
 30
0.0
 10
4558.7867481555013
 20
1359.5534116030681
 30
0.0
 11
4555.8999967216741
 21
1359.9999994040479
 31
0.0
 11
4556.0396116244046
 21
1359.999090115298
 31
0.0
 11
4556.3215901576586
 21
1359.9972536357898
 31
0.0
 11
4556.8859111712854
 21
1359.9708199944771
 31
0.0
 11
4557.3355493274357
 21
1359.8996166396914
 31
0.0
 11
4557.9798398231042
 21
1359.7459115716217
 31
0.0
 11
4558.7867481555013
 21
1359.5534116030681
 31
0.0
  0
SPLINE
  5
491
100
AcDbEntity
  8
0
  6
CONTINUOUS
 62
           3
100
AcDbSpline
210
0.0
220
0.0
230
1.0
 70
           0
 71
           3
 72
           8
 73
           5
 74
           7
 42
0.00000000001
 43
0.00000000001
 44
0.00000000001
 40
0.0
 40
0.0
 40
0.0
 40
0.55585584906922
 40
1.5343195422054714
 40
2.9385037456638727
 40
2.9385037456638727
 40
2.9385037456638727
 10
4555.8999967216741
 20
1355.000004172322
 30
0.0
 10
4555.8315636362904
 20
1355.0004498783021
 30
0.0
 10
4554.8567416872402
 20
1355.0067989106681
 30
0.0
 10
4553.9014629162621
 20
1355.2346869292301
 30
0.0
 10
4553.0132452878433
 20
1355.4465770722429
 30
0.0
 11
4555.8999967216741
 21
1355.000004172322
 31
0.0
 11
4555.7603818762454
 21
1355.0009134863221
 31
0.0
 11
4555.4784035107259
 21
1355.0027500163631
 31
0.0
 11
4554.9140828960144
 21
1355.0291829422185
 31
0.0
 11
4554.4644446988514
 21
1355.100383931175
 31
0.0
 11
4553.8201539548036
 21
1355.2540837154693
 31
0.0
 11
4553.0132452878433
 21
1355.4465770722429
 31
0.0
  0
SPLINE
  5
490
100
AcDbEntity
  8
0
  6
CONTINUOUS
 62
           3
100
AcDbSpline
210
0.0
220
0.0
230
1.0
 70
           0
 71
           3
 72
           8
 73
           5
 74
           7
 42
0.00000000001
 43
0.00000000001
 44
0.00000000001
 40
0.0
 40
0.0
 40
0.0
 40
0.2779452695532454
 40
0.7862805426569324
 40
1.5429573556204834
 40
1.5429573556204834
 40
1.5429573556204834
 10
4560.2301237560032
 20
1355.0000041724199
 30
0.0
 10
4560.1959072124737
 20
1355.00044987719
 30
0.0
 10
4559.7084969152702
 20
1355.0067988847441
 30
0.0
 10
4559.2308572149823
 20
1355.2346869284661
 30
0.0
 10
4558.7867481553612
 20
1355.4465770722229
 30
0.0
 11
4560.2301237560032
 21
1355.0000041724199
 31
0.0
 11
4560.1613872230637
 21
1355.0008995346438
 31
0.0
 11
4560.0236107113024
 21
1355.0026942117756
 31
0.0
 11
4559.739291414131
 21
1355.0286664762175
 31
0.0
 11
4559.516561114684
 21
1355.098373923606
 31
0.0
 11
4559.1912559250022
 21
1355.2535812131905
 31
0.0
 11
4558.7867481553612
 21
1355.4465770722229
 31
0.0
  0
SPLINE
  5
48F
100
AcDbEntity
  8
0
  6
CONTINUOUS
 62
           3
100
AcDbSpline
210
0.0
220
0.0
230
1.0
 70
           0
 71
           3
 72
           8
 73
           5
 74
           7
 42
0.00000000001
 43
0.00000000001
 44
0.00000000001
 40
0.0
 40
0.0
 40
0.0
 40
0.6787700534939568
 40
1.1891668948836114
 40
1.5431123743464028
 40
1.5431123743464028
 40
1.5431123743464028
 10
4553.0132452878433
 20
1355.4465770722429
 30
0.0
 10
4552.6438214744021
 20
1355.2624483716061
 30
0.0
 10
4552.1676820506218
 20
1355.0251303367841
 30
0.0
 10
4551.6793238525834
 20
1355.0046045512611
 30
0.0
 10
4551.5698696873451
 20
1355.0000041724199
 30
0.0
 11
4553.0132452878433
 21
1355.4465770722429
 31
0.0
 11
4552.6682329736359
 21
1355.2746155830068
 31
0.0
 11
4552.3720436578988
 21
1355.126988516573
 31
0.0
 11
4552.1466781919462
 21
1355.0475647466085
 31
0.0
 11
4551.8793050086424
 21
1355.0130097962931
 31
0.0
 11
4551.7019556002888
 21
1355.0055557678088
 31
0.0
 11
4551.5698696873451
 21
1355.0000041724199
 31
0.0
  0
SPLINE
  5
48E
100
AcDbEntity
  8
0
  6
CONTINUOUS
 62
           3
100
AcDbSpline
210
0.0
220
0.0
230
1.0
 70
           0
 71
           3
 72
           8
 73
           5
 74
           7
 42
0.00000000001
 43
0.00000000001
 44
0.00000000001
 40
0.0
 40
0.0
 40
0.0
 40
0.3539460334955767
 40
0.8643414136594119
 40
1.5431068114000444
 40
1.5431068114000444
 40
1.5431068114000444
 10
4551.5698696873451
 20
1359.9999994040479
 30
0.0
 10
4551.6793238424234
 20
1359.9953935078299
 30
0.0
 10
4552.1676816710433
 20
1359.97484311874
 30
0.0
 10
4552.6438213484444
 20
1359.7375336343539
 30
0.0
 10
4553.0132452879698
 20
1359.553411603021
 30
0.0
 11
4551.5698696873451
 21
1359.9999994040479
 31
0.0
 11
4551.7019556855821
 21
1359.9944411463541
 31
0.0
 11
4551.8793053701338
 21
1359.9869781657089
 31
0.0
 11
4552.1466781413865
 21
1359.9524131949258
 31
0.0
 11
4552.3720438533264
 21
1359.8729883765131
 31
0.0
 11
4552.668232959546
 21
1359.7253668120604
 31
0.0
 11
4553.0132452879698
 21
1359.553411603021
 31
0.0
  0
SPLINE
  5
48D
100
AcDbEntity
  8
0
  6
CONTINUOUS
 62
           3
100
AcDbSpline
210
0.0
220
0.0
230
1.0
 70
           0
 71
           3
 72
           8
 73
           5
 74
           7
 42
0.00000000001
 43
0.00000000001
 44
0.00000000001
 40
0.0
 40
0.0
 40
0.0
 40
0.6415450374775127
 40
1.157930368611257
 40
1.5357381749049626
 40
1.5357381749049626
 40
1.5357381749049626
 10
4551.5698696873451
 20
1355.0000041724199
 30
0.0
 10
4551.1795237086117
 20
1355.0576336938759
 30
0.0
 10
4550.6908846293582
 20
1355.129774916883
 30
0.0
 10
4550.2210119621132
 20
1355.393522448257
 30
0.0
 10
4550.1264938539734
 20
1355.4465770722229
 30
0.0
 11
4551.5698696873451
 21
1355.0000041724199
 31
0.0
 11
4551.2094282457028
 21
1355.0532186767991
 31
0.0
 11
4550.9087958782429
 21
1355.0976031470248
 31
0.0
 11
4550.6775260473178
 21
1355.1598096979615
 31
0.0
 11
4550.4195390523118
 21
1355.2820858110554
 31
0.0
 11
4550.2470142076281
 21
1355.378926944948
 31
0.0
 11
4550.1264938539734
 21
1355.4465770722229
 31
0.0
  0
SPLINE
  5
48C
100
AcDbEntity
  8
0
  6
CONTINUOUS
 62
           3
100
AcDbSpline
210
0.0
220
0.0
230
1.0
 70
           0
 71
           3
 72
           8
 73
           5
 74
           7
 42
0.00000000001
 43
0.00000000001
 44
0.00000000001
 40
0.0
 40
0.0
 40
0.0
 40
0.3778155284979268
 40
0.8942062233969164
 40
1.5357514174657141
 40
1.5357514174657141
 40
1.5357514174657141
 10
4550.1264938539734
 20
1359.553411603021
 30
0.0
 10
4550.2210118970333
 20
1359.6064716909059
 30
0.0
 10
4550.6908817949034
 20
1359.870245011374
 30
0.0
 10
4551.1795227343027
 20
1359.9423771861991
 30
0.0
 10
4551.5698696873451
 20
1359.9999994040479
 30
0.0
 11
4550.1264938539734
 21
1359.553411603021
 31
0.0
 11
4550.2470141544063
 21
1359.6210687140281
 31
0.0
 11
4550.419538969586
 21
1359.7179198712795
 31
0.0
 11
4550.67752441433
 21
1359.8402057052367
 31
0.0
 11
4550.9087950979256
 21
1359.9024129269187
 31
0.0
 11
4551.209427563469
 21
1359.9467916758413
 31
0.0
 11
4551.5698696873451
 21
1359.9999994040479
 31
0.0
  0
SPLINE
  5
48B
100
AcDbEntity
  8
0
  6
CONTINUOUS
 62
           3
100
AcDbSpline
210
0.0
220
0.0
230
1.0
 70
           0
 71
           3
 72
           8
 73
           5
 74
           7
 42
0.00000000001
 43
0.00000000001
 44
0.00000000001
 40
0.0
 40
0.0
 40
0.0
 40
0.2779464854669838
 40
0.786284084402224
 40
1.5429642659222422
 40
1.5429642659222422
 40
1.5429642659222422
 10
4560.2301237559632
 20
1359.9999994039219
 30
0.0
 10
4560.2643403053644
 20
1359.9995537086761
 30
0.0
 10
4560.7517530244522
 20
1359.9932048044429
 30
0.0
 10
4561.2293915039982
 20
1359.765309020479
 30
0.0
 10
4561.6734995893639
 20
1359.553411603021
 30
0.0
 11
4560.2301237559632
 21
1359.9999994039219
 31
0.0
 11
4560.2988605017472
 21
1359.9991040580448
 31
0.0
 11
4560.4366376402968
 21
1359.997309410905
 31
0.0
 11
4560.7209580094723
 21
1359.9713364170611
 31
0.0
 11
4560.9436883486851
 21
1359.9016266484537
 31
0.0
 11
4561.2689927365118
 21
1359.7464140731083
 31
0.0
 11
4561.6734995893639
 21
1359.553411603021
 31
0.0
  0
SPLINE
  5
48A
100
AcDbEntity
  8
0
  6
CONTINUOUS
 62
           3
100
AcDbSpline
210
0.0
220
0.0
230
1.0
 70
           0
 71
           3
 72
           8
 73
           5
 74
           7
 42
0.00000000001
 43
0.00000000001
 44
0.00000000001
 40
0.0
 40
0.0
 40
0.0
 40
1.2475591451564418
 40
2.2257037084929063
 40
2.9354142011742907
 40
2.9354142011742907
 40
2.9354142011742907
 10
4555.8999967216741
 20
1364.9999946356729
 30
0.0
 10
4555.1443416651709
 20
1364.9458933000931
 30
0.0
 10
4554.1669038516511
 20
1364.875913365858
 30
0.0
 10
4553.2266018489554
 20
1364.6130630433661
 30
0.0
 10
4553.0132452878433
 20
1364.5534217358579
 30
0.0
 11
4555.8999967216741
 21
1364.9999946356729
 31
0.0
 11
4555.1962862228356
 21
1364.9496122852588
 31
0.0
 11
4554.5964648393265
 21
1364.9066679051766
 31
0.0
 11
4554.1380633113722
 21
1364.8455202926345
 31
0.0
 11
4553.6219807028574
 21
1364.7235865336456
 31
0.0
 11
4553.2721074221527
 21
1364.6257835890588
 31
0.0
 11
4553.0132452878433
 21
1364.5534217358579
 31
0.0
  0
SPLINE
  5
489
100
AcDbEntity
  8
0
  6
CONTINUOUS
 62
           3
100
AcDbSpline
210
0.0
220
0.0
230
1.0
 70
           0
 71
           3
 72
           8
 73
           5
 74
           7
 42
0.00000000001
 43
0.00000000001
 44
0.00000000001
 40
0.0
 40
0.0
 40
0.0
 40
1.2321288292613362
 40
2.2113508927684427
 40
2.9387184667233872
 40
2.9387184667233872
 40
2.9387184667233872
 10
4558.7867481555013
 20
1364.5534217358579
 30
0.0
 10
4558.0674885010512
 20
1364.733619018429
 30
0.0
 10
4557.1156260260914
 20
1364.9720906611981
 30
0.0
 10
4556.1387194651552
 20
1364.994514911454
 30
0.0
 10
4555.8999967216741
 20
1364.9999946356729
 30
0.0
 11
4558.7867481555013
 21
1364.5534217358579
 31
0.0
 11
4558.1147128338653
 21
1364.7217878300803
 31
0.0
 11
4557.5371261778546
 21
1364.8664915476047
 31
0.0
 11
4557.0808665470031
 21
1364.9489075788533
 31
0.0
 11
4556.5550879579732
 21
1364.9849574454126
 31
0.0
 11
4556.1831309024892
 21
1364.9934954759983
 31
0.0
 11
4555.8999967216741
 21
1364.9999946356729
 31
0.0
  0
SPLINE
  5
488
100
AcDbEntity
  8
0
  6
CONTINUOUS
 62
           3
100
AcDbSpline
210
0.0
220
0.0
230
1.0
 70
           0
 71
           3
 72
           8
 73
           5
 74
           7
 42
0.00000000001
 43
0.00000000001
 44
0.00000000001
 40
0.0
 40
0.0
 40
0.0
 40
0.7273681394901727
 40
1.7065914567891376
 40
2.9387223240332414
 40
2.9387223240332414
 40
2.9387223240332414
 10
4555.8999967216741
 20
1359.9999994040479
 30
0.0
 10
4556.1387195010311
 20
1360.005478943116
 30
0.0
 10
4557.1156271469808
 20
1360.027902457241
 30
0.0
 10
4558.0674888562444
 20
1360.2663830805111
 30
0.0
 10
4558.7867481553612
 20
1360.446587205121
 30
0.0
 11
4555.8999967216741
 21
1359.9999994040479
 31
0.0
 11
4556.1831310149719
 21
1360.006498345733
 31
0.0
 11
4556.5550883361502
 21
1360.0150360926523
 31
0.0
 11
4557.0808673755109
 21
1360.0510866331738
 31
0.0
 11
4557.5371268719318
 21
1360.1335055255611
 31
0.0
 11
4558.1147131849457
 21
1360.2782147229261
 31
0.0
 11
4558.7867481553612
 21
1360.446587205121
 31
0.0
  0
SPLINE
  5
487
100
AcDbEntity
  8
0
  6
CONTINUOUS
 62
           3
100
AcDbSpline
210
0.0
220
0.0
230
1.0
 70
           0
 71
           3
 72
           8
 73
           5
 74
           7
 42
0.00000000001
 43
0.00000000001
 44
0.00000000001
 40
0.0
 40
0.0
 40
0.0
 40
0.7097126556365796
 40
1.6878594213857179
 40
2.935421117878819
 40
2.935421117878819
 40
2.935421117878819
 10
4553.0132452878433
 20
1360.4465872050239
 30
0.0
 10
4553.2266017037618
 20
1360.386940369928
 30
0.0
 10
4554.1668989125828
 20
1360.12406684762
 30
0.0
 10
4555.1443400642529
 20
1360.054094671616
 30
0.0
 10
4555.8999967216741
 20
1359.9999994040479
 30
0.0
 11
4553.0132452878433
 21
1360.4465872050239
 31
0.0
 11
4553.2721068549226
 21
1360.3742187546154
 31
0.0
 11
4553.6219787243263
 21
1360.2764070735825
 31
0.0
 11
4554.1380594916309
 21
1360.1544641207806
 31
0.0
 11
4554.5964614170325
 21
1360.0933157143013
 31
0.0
 11
4555.1962845668031
 21
1360.0503761153952
 31
0.0
 11
4555.8999967216741
 21
1359.9999994040479
 31
0.0
  0
SPLINE
  5
486
100
AcDbEntity
  8
0
  6
CONTINUOUS
 62
           3
100
AcDbSpline
210
0.0
220
0.0
230
1.0
 70
           0
 71
           3
 72
           8
 73
           5
 74
           7
 42
0.00000000001
 43
0.00000000001
 44
0.00000000001
 40
0.0
 40
0.0
 40
0.0
 40
0.2779452695532173
 40
0.7862805426562545
 40
1.5429573555005907
 40
1.5429573555005907
 40
1.5429573555005907
 10
4560.2301237560032
 20
1364.9999946356729
 30
0.0
 10
4560.1959072124737
 20
1364.999548930904
 30
0.0
 10
4559.7084969152702
 20
1364.993199923352
 30
0.0
 10
4559.2308572149823
 20
1364.7653118796329
 30
0.0
 10
4558.7867481555013
 20
1364.5534217358579
 30
0.0
 11
4560.2301237560032
 21
1364.9999946356729
 31
0.0
 11
4560.1613872230628
 21
1364.9990992734502
 31
0.0
 11
4560.0236107113014
 21
1364.9973045963191
 31
0.0
 11
4559.7392914141265
 21
1364.9713323318763
 31
0.0
 11
4559.5165611146658
 21
1364.9016248844825
 31
0.0
 11
4559.1912559250331
 21
1364.7464175949015
 31
0.0
 11
4558.7867481555013
 21
1364.5534217358579
 31
0.0
  0
SPLINE
  5
485
100
AcDbEntity
  8
0
  6
CONTINUOUS
 62
           3
100
AcDbSpline
210
0.0
220
0.0
230
1.0
 70
           0
 71
           3
 72
           8
 73
           5
 74
           7
 42
0.00000000001
 43
0.00000000001
 44
0.00000000001
 40
0.0
 40
0.0
 40
0.0
 40
0.2779464854702947
 40
0.7862840844052634
 40
1.5429642659453049
 40
1.5429642659453049
 40
1.5429642659453049
 10
4560.2301237559632
 20
1359.9999994039219
 30
0.0
 10
4560.2643403053644
 20
1360.000445099424
 30
0.0
 10
4560.7517530244522
 20
1360.0067940036531
 30
0.0
 10
4561.2293915039982
 20
1360.2346897876159
 30
0.0
 10
4561.6734995893639
 20
1360.446587205121
 30
0.0
 11
4560.2301237559632
 21
1359.9999994039219
 31
0.0
 11
4560.2988605017481
 21
1360.0008947499909
 31
0.0
 11
4560.4366376402986
 21
1360.002689397194
 31
0.0
 11
4560.7209580094705
 21
1360.0286623910349
 31
0.0
 11
4560.9436883486815
 21
1360.0983721596403
 31
0.0
 11
4561.26899273651
 21
1360.2535847349982
 31
0.0
 11
4561.6734995893639
 21
1360.446587205121
 31
0.0
  0
SPLINE
  5
484
100
AcDbEntity
  8
0
  6
CONTINUOUS
 62
           3
100
AcDbSpline
210
0.0
220
0.0
230
1.0
 70
           0
 71
           3
 72
           8
 73
           5
 74
           7
 42
0.00000000001
 43
0.00000000001
 44
0.00000000001
 40
0.0
 40
0.0
 40
0.0
 40
0.2779462752379294
 40
0.7862820883294689
 40
1.5429577306132927
 40
1.5429577306132927
 40
1.5429577306132927
 10
4551.5698696873451
 20
1364.9999946356729
 30
0.0
 10
4551.5356531390316
 20
1364.9995489277901
 30
0.0
 10
4551.0482408408434
 20
1364.993199850662
 30
0.0
 10
4550.5706021281812
 20
1364.7653118774831
 30
0.0
 10
4550.1264938539734
 20
1364.553421735915
 30
0.0
 11
4551.5698696873451
 21
1364.9999946356729
 31
0.0
 11
4551.5011329028039
 21
1364.9990992640387
 31
0.0
 11
4551.3633556458071
 21
1364.9973045649015
 31
0.0
 11
4551.0790356162597
 21
1364.9713322408597
 31
0.0
 11
4550.8563051375477
 21
1364.9016246972137
 31
0.0
 11
4550.5310008119714
 21
1364.7464175470236
 31
0.0
 11
4550.1264938539734
 21
1364.553421735915
 31
0.0
  0
SPLINE
  5
483
100
AcDbEntity
  8
0
  6
CONTINUOUS
 62
           3
100
AcDbSpline
210
0.0
220
0.0
230
1.0
 70
           0
 71
           3
 72
           8
 73
           5
 74
           7
 42
0.00000000001
 43
0.00000000001
 44
0.00000000001
 40
0.0
 40
0.0
 40
0.0
 40
0.2779454797452741
 40
0.7862825386897797
 40
1.5429638907220735
 40
1.5429638907220735
 40
1.5429638907220735
 10
4551.5698696873451
 20
1359.9999994040479
 30
0.0
 10
4551.6040862319214
 20
1360.0004450963061
 30
0.0
 10
4552.0914969500291
 20
1360.0067939309631
 30
0.0
 10
4552.5691364171953
 20
1360.2346897854691
 30
0.0
 10
4553.0132452878433
 20
1360.4465872050239
 30
0.0
 11
4551.5698696873451
 21
1359.9999994040479
 31
0.0
 11
4551.6386061814947
 21
1360.0008947406086
 31
0.0
 11
4551.7763825747897
 21
1360.0026893657737
 31
0.0
 11
4552.0607022116055
 21
1360.0286623000184
 31
0.0
 11
4552.2834323715761
 21
1360.0983719723736
 31
0.0
 11
4552.6087376234527
 21
1360.2535846870837
 31
0.0
 11
4553.0132452878433
 21
1360.4465872050239
 31
0.0
  0
SPLINE
  5
482
100
AcDbEntity
  8
0
  6
CONTINUOUS
 62
           3
100
AcDbSpline
210
0.0
220
0.0
230
1.0
 70
           0
 71
           3
 72
           8
 73
           5
 74
           7
 42
0.00000000001
 43
0.00000000001
 44
0.00000000001
 40
0.0
 40
0.0
 40
0.0
 40
1.24756042078711
 40
2.2257060852955828
 40
2.9354176594305246
 40
2.9354176594305246
 40
2.9354176594305246
 10
4555.8999967216741
 20
1377.5999993086659
 30
0.0
 10
4555.1443408647201
 20
1377.5459010071061
 30
0.0
 10
4554.1669013821602
 20
1377.4759249520059
 30
0.0
 10
4553.2266017763623
 20
1377.2130630295719
 30
0.0
 10
4553.0132452878433
 20
1377.1534189582669
 30
0.0
 11
4555.8999967216741
 21
1377.5999993086659
 31
0.0
 11
4555.1962853948307
 21
1377.5496197777986
 31
0.0
 11
4554.5964631282068
 21
1377.5066777883162
 31
0.0
 11
4554.1380614015352
 21
1377.4455297788065
 31
0.0
 11
4553.6219797136127
 21
1377.3235914228976
 31
0.0
 11
4553.2721071385449
 21
1377.2257841100773
 31
0.0
 11
4553.0132452878433
 21
1377.1534189582669
 31
0.0
  0
SPLINE
  5
481
100
AcDbEntity
  8
0
  6
CONTINUOUS
 62
           3
100
AcDbSpline
210
0.0
220
0.0
230
1.0
 70
           0
 71
           3
 72
           8
 73
           5
 74
           7
 42
0.00000000001
 43
0.00000000001
 44
0.00000000001
 40
0.0
 40
0.0
 40
0.0
 40
1.2321298483019152
 40
2.2113525386989785
 40
2.9387203954176098
 40
2.9387203954176098
 40
2.9387203954176098
 10
4558.7867481555013
 20
1377.1534189582669
 30
0.0
 10
4558.0674886786437
 20
1377.333619661815
 30
0.0
 10
4557.1156265865311
 20
1377.5720957948331
 30
0.0
 10
4556.1387194830904
 20
1377.5945196770219
 30
0.0
 10
4555.8999967216741
 20
1377.5999993086659
 30
0.0
 11
4558.7867481555013
 21
1377.1534189582669
 31
0.0
 11
4558.1147130094168
 21
1377.3217882464442
 31
0.0
 11
4557.5371265248777
 21
1377.4664947038796
 31
0.0
 11
4557.0808669612497
 21
1377.5489121656947
 31
0.0
 11
4556.5550881470581
 21
1377.5849623692338
 31
0.0
 11
4556.1831309587278
 21
1377.5935002579859
 31
0.0
 11
4555.8999967216741
 21
1377.5999993086659
 31
0.0
  0
SPLINE
  5
480
100
AcDbEntity
  8
0
  6
CONTINUOUS
 62
           3
100
AcDbSpline
210
0.0
220
0.0
230
1.0
 70
           0
 71
           3
 72
           8
 73
           5
 74
           7
 42
0.00000000001
 43
0.00000000001
 44
0.00000000001
 40
0.0
 40
0.0
 40
0.0
 40
0.7273675739550281
 40
1.7065896374617373
 40
2.9387184666004718
 40
2.9387184666004718
 40
2.9387184666004718
 10
4555.8999967216741
 20
1372.6000040770409
 30
0.0
 10
4556.1387194651552
 20
1372.605483801264
 30
0.0
 10
4557.1156260260914
 20
1372.6279080515189
 30
0.0
 10
4558.0674885010512
 20
1372.8663796942849
 30
0.0
 10
4558.7867481553612
 20
1373.0465769769121
 30
0.0
 11
4555.8999967216741
 21
1372.6000040770409
 31
0.0
 11
4556.1831309024892
 21
1372.6065032367185
 31
0.0
 11
4556.5550879579732
 21
1372.6150412673048
 31
0.0
 11
4557.0808665470086
 21
1372.6510911338648
 31
0.0
 11
4557.5371261778782
 21
1372.7335071651169
 31
0.0
 11
4558.1147128338362
 21
1372.8782108826497
 31
0.0
 11
4558.7867481553612
 21
1373.0465769769121
 31
0.0
  0
SPLINE
  5
47F
100
AcDbEntity
  8
0
  6
CONTINUOUS
 62
           3
100
AcDbSpline
210
0.0
220
0.0
230
1.0
 70
           0
 71
           3
 72
           8
 73
           5
 74
           7
 42
0.00000000001
 43
0.00000000001
 44
0.00000000001
 40
0.0
 40
0.0
 40
0.0
 40
0.7097104926820577
 40
1.6878550560184646
 40
2.9354142011749875
 40
2.9354142011749875
 40
2.9354142011749875
 10
4553.0132452878433
 20
1373.04657697686
 30
0.0
 10
4553.2266018489554
 20
1372.9869356693489
 30
0.0
 10
4554.1669038516511
 20
1372.7240853468579
 30
0.0
 10
4555.1443416651709
 20
1372.654105412621
 30
0.0
 10
4555.8999967216741
 20
1372.6000040770409
 30
0.0
 11
4553.0132452878433
 21
1373.04657697686
 31
0.0
 11
4553.2721074221536
 21
1372.9742151236569
 31
0.0
 11
4553.6219807028583
 21
1372.8764121790696
 31
0.0
 11
4554.1380633113722
 21
1372.7544784200811
 31
0.0
 11
4554.5964648393265
 21
1372.6933308075381
 31
0.0
 11
4555.1962862228356
 21
1372.6503864274555
 31
0.0
 11
4555.8999967216741
 21
1372.6000040770409
 31
0.0
  0
SPLINE
  5
47E
100
AcDbEntity
  8
0
  6
CONTINUOUS
 62
           3
100
AcDbSpline
210
0.0
220
0.0
230
1.0
 70
           0
 71
           3
 72
           8
 73
           5
 74
           7
 42
0.00000000001
 43
0.00000000001
 44
0.00000000001
 40
0.0
 40
0.0
 40
0.0
 40
0.2779453746522189
 40
0.7862815406665487
 40
1.5429606230909056
 40
1.5429606230909056
 40
1.5429606230909056
 10
4560.2301237560032
 20
1377.5999993086659
 30
0.0
 10
4560.1959072119498
 20
1377.5995536101509
 30
0.0
 10
4559.7084967042892
 20
1377.5932046890459
 30
0.0
 10
4559.2308571205731
 20
1377.365312739938
 30
0.0
 10
4558.7867481555013
 20
1377.1534189582669
 30
0.0
 11
4560.2301237560032
 21
1377.5999993086659
 31
0.0
 11
4560.1613872424568
 21
1377.599103959273
 31
0.0
 11
4560.0236107899254
 21
1377.5973093081243
 31
0.0
 11
4559.7392913229305
 21
1377.5713367087808
 31
0.0
 11
4559.5165610932181
 21
1377.501628148907
 31
0.0
 11
4559.1912558724662
 21
1377.3464181467623
 31
0.0
 11
4558.7867481555013
 21
1377.1534189582669
 31
0.0
  0
SPLINE
  5
47D
100
AcDbEntity
  8
0
  6
CONTINUOUS
 62
           3
100
AcDbSpline
210
0.0
220
0.0
230
1.0
 70
           0
 71
           3
 72
           8
 73
           5
 74
           7
 42
0.00000000001
 43
0.00000000001
 44
0.00000000001
 40
0.0
 40
0.0
 40
0.0
 40
0.2779462752393233
 40
0.7862820883274686
 40
1.5429577306519295
 40
1.5429577306519295
 40
1.5429577306519295
 10
4560.2301237560032
 20
1372.6000040770409
 30
0.0
 10
4560.2643403043212
 20
1372.6004497849281
 30
0.0
 10
4560.7517526025031
 20
1372.6067988620521
 30
0.0
 10
4561.2293913151634
 20
1372.8346868352339
 30
0.0
 10
4561.6734995893639
 20
1373.0465769769121
 30
0.0
 11
4560.2301237560032
 21
1372.6000040770409
 31
0.0
 11
4560.2988605405471
 21
1372.6008994486779
 31
0.0
 11
4560.4366377975448
 21
1372.6026941478153
 31
0.0
 11
4560.7209578270858
 21
1372.6286664718543
 31
0.0
 11
4560.9436883057915
 21
1372.6983740154981
 31
0.0
 11
4561.2689926313706
 21
1372.8535811657196
 31
0.0
 11
4561.6734995893639
 21
1373.0465769769121
 31
0.0
  0
SPLINE
  5
47C
100
AcDbEntity
  8
0
  6
CONTINUOUS
 62
           3
100
AcDbSpline
210
0.0
220
0.0
230
1.0
 70
           0
 71
           3
 72
           8
 73
           5
 74
           7
 42
0.00000000001
 43
0.00000000001
 44
0.00000000001
 40
0.0
 40
0.0
 40
0.0
 40
0.2779463803337243
 40
0.786283086340376
 40
1.5429609982593122
 40
1.5429609982593122
 40
1.5429609982593122
 10
4551.5698696873451
 20
1377.5999993086659
 30
0.0
 10
4551.5356531385032
 20
1377.5995536070379
 30
0.0
 10
4551.0482406298734
 20
1377.593204616358
 30
0.0
 10
4550.5706020337611
 20
1377.3653127377879
 30
0.0
 10
4550.1264938539734
 20
1377.1534189582051
 30
0.0
 11
4551.5698696873451
 21
1377.5999993086659
 31
0.0
 11
4551.5011329221961
 21
1377.5991039498626
 31
0.0
 11
4551.3633557244339
 21
1377.5973092767085
 31
0.0
 11
4551.0790355250729
 21
1377.5713366177663
 31
0.0
 11
4550.85630511611
 21
1377.5016279616407
 31
0.0
 11
4550.5310007594016
 21
1377.3464180988556
 31
0.0
 11
4550.1264938539734
 21
1377.1534189582051
 31
0.0
  0
SPLINE
  5
47B
100
AcDbEntity
  8
0
  6
CONTINUOUS
 62
           3
100
AcDbSpline
210
0.0
220
0.0
230
1.0
 70
           0
 71
           3
 72
           8
 73
           5
 74
           7
 42
0.00000000001
 43
0.00000000001
 44
0.00000000001
 40
0.0
 40
0.0
 40
0.0
 40
0.2779452695546096
 40
0.7862805426569653
 40
1.5429573554978036
 40
1.5429573554978036
 40
1.5429573554978036
 10
4551.5698696873451
 20
1372.6000040770409
 30
0.0
 10
4551.6040862308728
 20
1372.6004497818101
 30
0.0
 10
4552.0914965280826
 20
1372.6067987893659
 30
0.0
 10
4552.5691362283624
 20
1372.8346868330841
 30
0.0
 10
4553.0132452878433
 20
1373.04657697686
 30
0.0
 11
4551.5698696873451
 21
1372.6000040770409
 31
0.0
 11
4551.6386062202846
 21
1372.6008994392644
 31
0.0
 11
4551.7763827320478
 21
1372.6026941163966
 31
0.0
 11
4552.0607020292236
 21
1372.628666380841
 31
0.0
 11
4552.2834323286843
 21
1372.6983738282352
 31
0.0
 11
4552.6087375183133
 21
1372.8535811178158
 31
0.0
 11
4553.0132452878433
 21
1373.04657697686
 31
0.0
  0
SPLINE
  5
47A
100
AcDbEntity
  8
0
  6
CONTINUOUS
 62
           3
100
AcDbSpline
210
0.0
220
0.0
230
1.0
 70
           0
 71
           3
 72
           8
 73
           5
 74
           7
 42
0.00000000001
 43
0.00000000001
 44
0.00000000001
 40
0.0
 40
0.0
 40
0.0
 40
1.2475616964931251
 40
2.2257084622422227
 40
2.9354211178794145
 40
2.9354211178794145
 40
2.9354211178794145
 10
4555.8999967216741
 20
1372.6000040770409
 30
0.0
 10
4555.1443400642529
 20
1372.5459088094719
 30
0.0
 10
4554.1668989125828
 20
1372.475936633469
 30
0.0
 10
4553.2266017037618
 20
1372.2130631111611
 30
0.0
 10
4553.0132452878433
 20
1372.1534162760629
 30
0.0
 11
4555.8999967216741
 21
1372.6000040770409
 31
0.0
 11
4555.1962845668031
 21
1372.5496273656929
 31
0.0
 11
4554.5964614170325
 21
1372.5066877667873
 31
0.0
 11
4554.1380594916309
 21
1372.445539360308
 31
0.0
 11
4553.6219787243272
 21
1372.3235964075068
 31
0.0
 11
4553.2721068549235
 21
1372.225784726473
 31
0.0
 11
4553.0132452878433
 21
1372.1534162760629
 31
0.0
  0
SPLINE
  5
479
100
AcDbEntity
  8
0
  6
CONTINUOUS
 62
           3
100
AcDbSpline
210
0.0
220
0.0
230
1.0
 70
           0
 71
           3
 72
           8
 73
           5
 74
           7
 42
0.00000000001
 43
0.00000000001
 44
0.00000000001
 40
0.0
 40
0.0
 40
0.0
 40
1.2321308673570619
 40
2.2113541846558551
 40
2.9387223241460565
 40
2.9387223241460565
 40
2.9387223241460565
 10
4558.7867481555013
 20
1372.1534162760629
 30
0.0
 10
4558.0674888562444
 20
1372.3336204005791
 30
0.0
 10
4557.1156271469808
 20
1372.5721010238481
 30
0.0
 10
4556.1387195010311
 20
1372.5945245379701
 30
0.0
 10
4555.8999967216741
 20
1372.6000040770409
 30
0.0
 11
4558.7867481555013
 21
1372.1534162760629
 31
0.0
 11
4558.1147131849748
 21
1372.3217887581889
 31
0.0
 11
4557.53712687191
 21
1372.4664979555341
 31
0.0
 11
4557.0808673755055
 21
1372.5489168479164
 31
0.0
 11
4556.5550883361502
 21
1372.584967388435
 31
0.0
 11
4556.1831310149719
 21
1372.593505135354
 31
0.0
 11
4555.8999967216741
 21
1372.6000040770409
 31
0.0
  0
SPLINE
  5
478
100
AcDbEntity
  8
0
  6
CONTINUOUS
 62
           3
100
AcDbSpline
210
0.0
220
0.0
230
1.0
 70
           0
 71
           3
 72
           8
 73
           5
 74
           7
 42
0.00000000001
 43
0.00000000001
 44
0.00000000001
 40
0.0
 40
0.0
 40
0.0
 40
0.7273681394902353
 40
1.7065914567890901
 40
2.9387223240284968
 40
2.9387223240284968
 40
2.9387223240284968
 10
4555.8999967216741
 20
1367.5999939442561
 30
0.0
 10
4556.1387195010311
 20
1367.6054734833269
 30
0.0
 10
4557.1156271469808
 20
1367.6278969974519
 30
0.0
 10
4558.0674888562444
 20
1367.8663776207211
 30
0.0
 10
4558.7867481553612
 20
1368.0465817453121
 30
0.0
 11
4555.8999967216741
 21
1367.5999939442561
 31
0.0
 11
4556.183131014971
 21
1367.6064928859432
 31
0.0
 11
4556.5550883361502
 21
1367.6150306328632
 31
0.0
 11
4557.0808673755109
 21
1367.6510811733847
 31
0.0
 11
4557.5371268719327
 21
1367.7335000657718
 31
0.0
 11
4558.1147131849457
 21
1367.8782092631313
 31
0.0
 11
4558.7867481553612
 21
1368.0465817453121
 31
0.0
  0
SPLINE
  5
477
100
AcDbEntity
  8
0
  6
CONTINUOUS
 62
           3
100
AcDbSpline
210
0.0
220
0.0
230
1.0
 70
           0
 71
           3
 72
           8
 73
           5
 74
           7
 42
0.00000000001
 43
0.00000000001
 44
0.00000000001
 40
0.0
 40
0.0
 40
0.0
 40
0.7097107189140743
 40
1.6878556121186348
 40
2.9354150974118154
 40
2.9354150974118154
 40
2.9354150974118154
 10
4553.0132452878433
 20
1368.046581745235
 30
0.0
 10
4553.2266018694954
 20
1367.9869406026951
 30
0.0
 10
4554.1669045504614
 20
1367.7240908429519
 30
0.0
 10
4555.1443418916833
 20
1367.6541020998659
 30
0.0
 10
4555.8999967216741
 20
1367.5999939442561
 30
0.0
 11
4553.0132452878433
 21
1368.046581745235
 31
0.0
 11
4553.2721075078007
 21
1367.9742200752123
 31
0.0
 11
4553.6219810043658
 21
1367.8764173502236
 31
0.0
 11
4554.1380638628534
 21
1367.7544828668408
 31
0.0
 11
4554.5964653461269
 21
1367.6933324312363
 31
0.0
 11
4555.1962864627912
 21
1367.6503826438061
 31
0.0
 11
4555.8999967216741
 21
1367.5999939442561
 31
0.0
  0
SPLINE
  5
476
100
AcDbEntity
  8
0
  6
CONTINUOUS
 62
           3
100
AcDbSpline
210
0.0
220
0.0
230
1.0
 70
           0
 71
           3
 72
           8
 73
           5
 74
           7
 42
0.00000000001
 43
0.00000000001
 44
0.00000000001
 40
0.0
 40
0.0
 40
0.0
 40
0.2779454797516238
 40
0.7862825386960015
 40
1.5429638907280734
 40
1.5429638907280734
 40
1.5429638907280734
 10
4560.2301237560032
 20
1372.6000040770409
 30
0.0
 10
4560.1959072114232
 20
1372.599558384783
 30
0.0
 10
4559.7084964933101
 20
1372.593209550128
 30
0.0
 10
4559.2308570261512
 20
1372.36531369562
 30
0.0
 10
4558.7867481555013
 20
1372.1534162760629
 30
0.0
 11
4560.2301237560032
 21
1372.6000040770409
 31
0.0
 11
4560.1613872618509
 21
1372.5991087404805
 31
0.0
 11
4560.0236108685503
 21
1372.5973141153158
 31
0.0
 11
4559.7392912317337
 21
1372.5713411810721
 31
0.0
 11
4559.5165610717668
 21
1372.5016315087169
 31
0.0
 11
4559.1912558198928
 21
1372.3464187940049
 31
0.0
 11
4558.7867481555013
 21
1372.1534162760629
 31
0.0
  0
SPLINE
  5
475
100
AcDbEntity
  8
0
  6
CONTINUOUS
 62
           3
100
AcDbSpline
210
0.0
220
0.0
230
1.0
 70
           0
 71
           3
 72
           8
 73
           5
 74
           7
 42
0.00000000001
 43
0.00000000001
 44
0.00000000001
 40
0.0
 40
0.0
 40
0.0
 40
0.2779464854286827
 40
0.7862840843628117
 40
1.5429642658951668
 40
1.5429642658951668
 40
1.5429642658951668
 10
4560.2301237560032
 20
1367.5999939442561
 30
0.0
 10
4560.2643403053644
 20
1367.6004396396361
 30
0.0
 10
4560.7517530244522
 20
1367.606788543864
 30
0.0
 10
4561.2293915039982
 20
1367.834684327823
 30
0.0
 10
4561.6734995893639
 20
1368.0465817453121
 30
0.0
 11
4560.2301237560032
 21
1367.5999939442561
 31
0.0
 11
4560.2988605017536
 21
1367.6008892902332
 31
0.0
 11
4560.4366376402813
 21
1367.6026839374053
 31
0.0
 11
4560.7209580094668
 21
1367.6286569312458
 31
0.0
 11
4560.9436883486824
 21
1367.6983666998503
 31
0.0
 11
4561.2689927365109
 21
1367.853579275202
 31
0.0
 11
4561.6734995893639
 21
1368.0465817453121
 31
0.0
  0
SPLINE
  5
474
100
AcDbEntity
  8
0
  6
CONTINUOUS
 62
           3
100
AcDbSpline
210
0.0
220
0.0
230
1.0
 70
           0
 71
           3
 72
           8
 73
           5
 74
           7
 42
0.00000000001
 43
0.00000000001
 44
0.00000000001
 40
0.0
 40
0.0
 40
0.0
 40
0.2779464854367682
 40
0.7862840843768923
 40
1.5429642658558289
 40
1.5429642658558289
 40
1.5429642658558289
 10
4551.5698696873451
 20
1372.6000040770409
 30
0.0
 10
4551.5356531379812
 20
1372.5995583816691
 30
0.0
 10
4551.0482404188824
 20
1372.59320947744
 30
0.0
 10
4550.5706019393392
 20
1372.3653136934729
 30
0.0
 10
4550.1264938539734
 20
1372.1534162761091
 30
0.0
 11
4551.5698696873451
 21
1372.6000040770409
 31
0.0
 11
4551.501132941592
 21
1372.5991087310699
 31
0.0
 11
4551.3633558030579
 21
1372.5973140838996
 31
0.0
 11
4551.0790354338669
 21
1372.5713410900564
 31
0.0
 11
4550.8563050946441
 21
1372.501631321446
 31
0.0
 11
4550.5310007068238
 21
1372.3464187461252
 31
0.0
 11
4550.1264938539734
 21
1372.1534162761091
 31
0.0
  0
SPLINE
  5
473
100
AcDbEntity
  8
0
  6
CONTINUOUS
 62
           3
100
AcDbSpline
210
0.0
220
0.0
230
1.0
 70
           0
 71
           3
 72
           8
 73
           5
 74
           7
 42
0.00000000001
 43
0.00000000001
 44
0.00000000001
 40
0.0
 40
0.0
 40
0.0
 40
0.2779454797452844
 40
0.7862825386893746
 40
1.542963890722207
 40
1.542963890722207
 40
1.542963890722207
 10
4551.5698696873451
 20
1367.5999939442561
 30
0.0
 10
4551.6040862319214
 20
1367.6004396365131
 30
0.0
 10
4552.0914969500291
 20
1367.606788471174
 30
0.0
 10
4552.5691364171953
 20
1367.8346843256779
 30
0.0
 10
4553.0132452878433
 20
1368.046581745235
 30
0.0
 11
4551.5698696873451
 21
1367.5999939442561
 31
0.0
 11
4551.6386061814937
 21
1367.6008892808159
 31
0.0
 11
4551.7763825747897
 21
1367.6026839059823
 31
0.0
 11
4552.0607022116055
 21
1367.6286568402284
 31
0.0
 11
4552.2834323715761
 21
1367.6983665125833
 31
0.0
 11
4552.6087376234518
 21
1367.8535792272935
 31
0.0
 11
4553.0132452878433
 21
1368.046581745235
 31
0.0
  0
SPLINE
  5
472
100
AcDbEntity
  8
0
  6
CONTINUOUS
 62
           3
100
AcDbSpline
210
0.0
220
0.0
230
1.0
 70
           0
 71
           3
 72
           8
 73
           5
 74
           7
 42
0.00000000001
 43
0.00000000001
 44
0.00000000001
 40
0.0
 40
0.0
 40
0.0
 40
0.4813884775028853
 40
1.3325655942374888
 40
2.559491057252206
 40
2.559491057252206
 40
2.559491057252206
 10
4553.3999967775544
 20
1384.1999992729011
 30
0.0
 10
4553.4592615843931
 20
1384.200444971553
 30
0.0
 10
4554.3034817008293
 20
1384.206793895828
 30
0.0
 10
4555.1307775679597
 20
1384.4346858417259
 30
0.0
 10
4555.8999967216741
 20
1384.6465796232951
 30
0.0
 11
4553.3999967775544
 21
1384.1999992729011
 31
0.0
 11
4553.5206888783669
 21
1384.2009069331091
 31
0.0
 11
4553.7642355671269
 21
1384.202738516429
 31
0.0
 11
4554.2533839007065
 21
1384.2291158106427
 31
0.0
 11
4554.6423366340423
 21
1384.3001369344856
 31
0.0
 11
4555.2009721229088
 21
1384.454022060308
 31
0.0
 11
4555.8999967216741
 21
1384.6465796232951
 31
0.0
  0
SPLINE
  5
471
100
AcDbEntity
  8
0
  6
CONTINUOUS
 62
           3
100
AcDbSpline
210
0.0
220
0.0
230
1.0
 70
           0
 71
           3
 72
           8
 73
           5
 74
           7
 42
0.00000000001
 43
0.00000000001
 44
0.00000000001
 40
0.0
 40
0.0
 40
0.0
 40
0.4813883392842194
 40
1.3325653926429744
 40
2.5594910488328608
 40
2.5594910488328608
 40
2.5594910488328608
 10
4558.3999966657602
 20
1384.1999992729011
 30
0.0
 10
4558.4592614719431
 20
1384.2004449713099
 30
0.0
 10
4559.3034813132908
 20
1384.2067938900659
 30
0.0
 10
4560.1307773327781
 20
1384.4346858415549
 30
0.0
 10
4560.8999966098654
 20
1384.6465796233019
 30
0.0
 11
4558.3999966657602
 21
1384.1999992729011
 31
0.0
 11
4558.5206887308786
 21
1384.2009069323503
 31
0.0
 11
4558.7642353138726
 21
1384.2027385138806
 31
0.0
 11
4559.253383550742
 21
1384.2291158030616
 31
0.0
 11
4559.6423362625128
 21
1384.3001369182334
 31
0.0
 11
4560.2009718844838
 21
1384.4540220561612
 31
0.0
 11
4560.8999966098654
 21
1384.6465796233019
 31
0.0
  0
SPLINE
  5
470
100
AcDbEntity
  8
0
  6
CONTINUOUS
 62
           3
100
AcDbSpline
210
0.0
220
0.0
230
1.0
 70
           0
 71
           3
 72
           8
 73
           5
 74
           7
 42
0.00000000001
 43
0.00000000001
 44
0.00000000001
 40
0.0
 40
0.0
 40
0.0
 40
0.0169507227473105
 40
0.1476151553694081
 40
0.4465803504008363
 40
0.4465803504008363
 40
0.4465803504008363
 10
4550.8999968334319
 20
1384.1999992729011
 30
0.0
 10
4550.8999968334319
 20
1384.2056076981819
 30
0.0
 10
4550.8999968334319
 20
1384.2282922931149
 30
0.0
 10
4550.8999968334319
 20
1384.4669365634261
 30
0.0
 10
4550.8999968334711
 20
1384.6465796233019
 30
0.0
 11
4550.8999968334319
 21
1384.1999992729011
 31
0.0
 11
4550.8999968334319
 21
1384.2048568127314
 31
0.0
 11
4550.8999968334319
 21
1384.2082125816601
 31
0.0
 11
4550.8999968334319
 21
1384.2414172487574
 31
0.0
 11
4550.8999968334319
 21
1384.3008718271406
 31
0.0
 11
4550.8999968334419
 21
1384.4703311443236
 31
0.0
 11
4550.8999968334711
 21
1384.6465796233019
 31
0.0
  0
SPLINE
  5
46F
100
AcDbEntity
  8
0
  6
CONTINUOUS
 62
           3
100
AcDbSpline
210
0.0
220
0.0
230
1.0
 70
           0
 71
           3
 72
           8
 73
           5
 74
           7
 42
0.00000000001
 43
0.00000000001
 44
0.00000000001
 40
0.0
 40
0.0
 40
0.0
 40
0.2989651950314283
 40
0.4296296276535259
 40
0.4465803504008363
 40
0.4465803504008363
 40
0.4465803504008363
 10
4560.8999966098654
 20
1384.6465796233019
 30
0.0
 10
4560.8999966099109
 20
1384.4669365634261
 30
0.0
 10
4560.8999966099109
 20
1384.2282922931149
 30
0.0
 10
4560.8999966099109
 20
1384.2056076981819
 30
0.0
 10
4560.8999966099109
 20
1384.1999992729011
 30
0.0
 11
4560.8999966098654
 21
1384.6465796233019
 31
0.0
 11
4560.8999966099
 21
1384.4703311443236
 31
0.0
 11
4560.8999966099109
 21
1384.3008718271406
 31
0.0
 11
4560.8999966099109
 21
1384.2414172487579
 31
0.0
 11
4560.8999966099109
 21
1384.2082125816601
 31
0.0
 11
4560.8999966099109
 21
1384.2048568127311
 31
0.0
 11
4560.8999966099109
 21
1384.1999992729011
 31
0.0
  0
CIRCLE
  5
46E
100
AcDbEntity
  8
1
  6
CONTINUOUS
 62
           4
100
AcDbCircle
 10
3725.000000000002
 20
1500.000000000002
 40
40.0
  0
CIRCLE
  5
46D
100
AcDbEntity
  8
1
  6
CONTINUOUS
 62
           4
100
AcDbCircle
 10
3725.000000000002
 20
1500.000000000002
 40
10.0
  0
CIRCLE
  5
46C
100
AcDbEntity
  8
1
  6
CONTINUOUS
 62
           4
100
AcDbCircle
 10
3945.000000000002
 20
1459.999999999992
 40
15.0
  0
CIRCLE
  5
46B
100
AcDbEntity
  8
1
  6
CONTINUOUS
 62
           4
100
AcDbCircle
 10
4005.000000000002
 20
1404.999999999992
 40
15.0
  0
CIRCLE
  5
46A
100
AcDbEntity
  8
1
  6
CONTINUOUS
 62
           4
100
AcDbCircle
 10
4005.000000000002
 20
1444.999999999992
 40
15.0
  0
CIRCLE
  5
469
100
AcDbEntity
  8
1
  6
CONTINUOUS
 62
           7
100
AcDbCircle
 10
448.56542280422
 20
5451.999999999999
 40
360.000000000002
  0
CIRCLE
  5
468
100
AcDbEntity
  8
1
  6
CONTINUOUS
 62
           4
100
AcDbCircle
 10
448.56542280422
 20
5451.999999999999
 40
125.0
  0
CIRCLE
  5
467
100
AcDbEntity
  8
1
  6
CONTINUOUS
 62
           4
100
AcDbCircle
 10
448.56542280422
 20
5451.999999999999
 40
100.9476
  0
CIRCLE
  5
466
100
AcDbEntity
  8
1
  6
CONTINUOUS
 62
           3
100
AcDbCircle
 10
-42.962321873901
 20
1295.20084832705
 40
40.0
  0
CIRCLE
  5
465
100
AcDbEntity
  8
1
  6
CONTINUOUS
 62
           7
100
AcDbCircle
 10
-751.43457719578
 20
4162.0
 40
45.0
  0
CIRCLE
  5
464
100
AcDbEntity
  8
1
  6
CONTINUOUS
 62
           7
100
AcDbCircle
 10
998.56542280422
 20
4162.0
 40
45.0
  0
CIRCLE
  5
463
100
AcDbEntity
  8
1
  6
CONTINUOUS
 62
           7
100
AcDbCircle
 10
4940.0
 20
600.0
 40
15.0
  0
CIRCLE
  5
462
100
AcDbEntity
  8
1
  6
CONTINUOUS
 62
           2
100
AcDbCircle
 10
4940.0
 20
600.0
 40
8.350000000002
  0
CIRCLE
  5
461
100
AcDbEntity
  8
1
  6
CONTINUOUS
 62
           2
100
AcDbCircle
 10
3945.000000000002
 20
1079.499999999993
 40
45.000000000001
  0
ARC
  5
460
100
AcDbEntity
  8
1
  6
CONTINUOUS
 62
           4
100
AcDbCircle
 10
3681.500000000002
 20
1456.500000000002
 40
10.000000000001
100
AcDbArc
 50
134.999999999991
 51
-44.999999999995
  0
ARC
  5
45F
100
AcDbEntity
  8
1
  6
CONTINUOUS
 62
           4
100
AcDbCircle
 10
3768.500000000002
 20
1456.500000000002
 40
9.999999999999
100
AcDbArc
 50
-134.999999999999
 51
45.000000000003
  0
ARC
  5
45E
100
AcDbEntity
  8
1
  6
CONTINUOUS
 62
           4
100
AcDbCircle
 10
3768.500000000002
 20
1543.500000000002
 40
10.0
100
AcDbArc
 50
-44.999999999995
 51
134.999999999991
  0
ARC
  5
45D
100
AcDbEntity
  8
1
  6
CONTINUOUS
 62
           4
100
AcDbCircle
 10
3681.500000000002
 20
1543.500000000002
 40
10.000000000002
100
AcDbArc
 50
45.000000000003
 51
-134.999999999999
  0
ARC
  5
45C
100
AcDbEntity
  8
1
  6
CONTINUOUS
 62
           4
100
AcDbCircle
 10
3725.000000000002
 20
1500.000000000002
 40
50.0
100
AcDbArc
 50
146.536959032815
 51
-146.536959032815
  0
ARC
  5
45B
100
AcDbEntity
  8
1
  6
CONTINUOUS
 62
           4
100
AcDbCircle
 10
3725.000000000002
 20
1500.000000000002
 40
50.0
100
AcDbArc
 50
-33.463040967184
 51
33.463040967184
  0
ARC
  5
45A
100
AcDbEntity
  8
1
  6
CONTINUOUS
 62
           4
100
AcDbCircle
 10
3725.000000000002
 20
1500.000000000002
 40
50.0
100
AcDbArc
 50
-123.463040967184
 51
-56.536959032815
  0
ARC
  5
459
100
AcDbEntity
  8
1
  6
CONTINUOUS
 62
           4
100
AcDbCircle
 10
3725.000000000002
 20
1500.000000000002
 40
50.000000000001
100
AcDbArc
 50
56.536959032816
 51
123.463040967184
  0
ARC
  5
458
100
AcDbEntity
  8
7
  6
CONTINUOUS
 62
           7
100
AcDbCircle
 10
5297.560000000001
 20
2986.360000000002
 40
3.839999999997
100
AcDbArc
 50
0.0
 51
90.0
  0
ARC
  5
457
100
AcDbEntity
  8
7
  6
CONTINUOUS
 62
           7
100
AcDbCircle
 10
5296.5078244
 20
2992.600000000002
 40
2.400000000002
100
AcDbArc
 50
-124.999999999983
 51
-90.0
  0
ARC
  5
456
100
AcDbEntity
  8
7
  6
CONTINUOUS
 62
           7
100
AcDbCircle
 10
5271.759999999998
 20
3012.449360800001
 40
2.400000000001
100
AcDbArc
 50
180.0
 51
-125.000000000007
  0
ARC
  5
455
100
AcDbEntity
  8
7
  6
CONTINUOUS
 62
           7
100
AcDbCircle
 10
5265.52
 20
3012.16
 40
3.839999999997
100
AcDbArc
 50
0.0
 51
90.0
  0
ARC
  5
454
100
AcDbEntity
  8
7
  6
CONTINUOUS
 62
           7
100
AcDbCircle
 10
5085.239999999998
 20
3012.449360800001
 40
2.400000000001
100
AcDbArc
 50
-54.999999999992
 51
0.0
  0
ARC
  5
453
100
AcDbEntity
  8
7
  6
CONTINUOUS
 62
           7
100
AcDbCircle
 10
5091.48
 20
3012.16
 40
3.84
100
AcDbArc
 50
90.0
 51
180.0
  0
ARC
  5
452
100
AcDbEntity
  8
7
  6
CONTINUOUS
 62
           7
100
AcDbCircle
 10
5066.039999999997
 20
2986.133628400001
 40
7.439999999999
100
AcDbArc
 50
122.681914999979
 51
180.0
  0
ARC
  5
451
100
AcDbEntity
  8
7
  6
CONTINUOUS
 62
           7
100
AcDbCircle
 10
334.605422804223
 20
2986.133628400002
 40
7.44
100
AcDbArc
 50
122.681915000008
 51
180.0
  0
ARC
  5
450
100
AcDbEntity
  8
7
  6
CONTINUOUS
 62
           7
100
AcDbCircle
 10
360.04542280422
 20
3012.160000000001
 40
3.84
100
AcDbArc
 50
90.0
 51
180.0
  0
ARC
  5
44F
100
AcDbEntity
  8
7
  6
CONTINUOUS
 62
           7
100
AcDbCircle
 10
353.805422804222
 20
3012.449360800002
 40
2.400000000001
100
AcDbArc
 50
-55.00000000004
 51
0.0
  0
ARC
  5
44E
100
AcDbEntity
  8
7
  6
CONTINUOUS
 62
           7
100
AcDbCircle
 10
534.08542280422
 20
3012.160000000001
 40
3.84
100
AcDbArc
 50
0.0
 51
90.0
  0
ARC
  5
44D
100
AcDbEntity
  8
7
  6
CONTINUOUS
 62
           7
100
AcDbCircle
 10
540.325422804222
 20
3012.449360800002
 40
2.400000000001
100
AcDbArc
 50
180.0
 51
-124.999999999995
  0
ARC
  5
44C
100
AcDbEntity
  8
7
  6
CONTINUOUS
 62
           7
100
AcDbCircle
 10
565.073247204221
 20
2992.600000000003
 40
2.400000000001
100
AcDbArc
 50
-124.999999999947
 51
-90.0
  0
ARC
  5
44B
100
AcDbEntity
  8
7
  6
CONTINUOUS
 62
           7
100
AcDbCircle
 10
566.125422804221
 20
2986.360000000001
 40
3.84
100
AcDbArc
 50
0.0
 51
90.0
  0
ARC
  5
44A
100
AcDbEntity
  8
1
  6
CONTINUOUS
 62
           7
100
AcDbCircle
 10
-209.415159414992
 20
5451.999999999999
 40
4.999999999997
100
AcDbArc
 50
-85.143317425417
 51
94.394618584461
  0
ARC
  5
449
100
AcDbEntity
  8
1
  6
CONTINUOUS
 62
           7
100
AcDbCircle
 10
408.565422804223
 20
5501.999999999999
 40
620.0
100
AcDbArc
 50
-179.999999999999
 51
-175.836413410616
  0
ARC
  5
448
100
AcDbEntity
  8
1
  6
CONTINUOUS
 62
           7
100
AcDbCircle
 10
617.538293477728
 20
5831.519281324853
 40
5.0
100
AcDbArc
 50
161.151717651222
 51
-19.471065626763
  0
ARC
  5
447
100
AcDbEntity
  8
1
  6
CONTINUOUS
 62
           7
100
AcDbCircle
 10
466.565422804223
 20
5396.999785420928
 40
460.0
100
AcDbArc
 50
19.808653410673
 51
70.217542734251
  0
ARC
  5
446
100
AcDbEntity
  8
1
  6
CONTINUOUS
 62
           7
100
AcDbCircle
 10
401.565422804223
 20
5406.999999999999
 40
525.000000000001
100
AcDbArc
 50
-89.633899153763
 51
-3.883455762483
  0
ARC
  5
445
100
AcDbEntity
  8
1
  6
CONTINUOUS
 62
           7
100
AcDbCircle
 10
925.67483543224
 20
5376.43329270734
 40
5.000000000003
100
AcDbArc
 50
86.935058466828
 51
-93.610617686046
  0
ARC
  5
444
100
AcDbEntity
  8
1
  6
CONTINUOUS
 62
           7
100
AcDbCircle
 10
901.015847142316
 20
5548.171306523446
 40
5.0
100
AcDbArc
 50
-90.0
 51
-71.125521506265
  0
ARC
  5
443
100
AcDbEntity
  8
1
  6
CONTINUOUS
 62
           7
100
AcDbCircle
 10
466.565422804223
 20
5396.999785420928
 40
460.0
100
AcDbArc
 50
0.602232686388
 51
18.563086854737
  0
ARC
  5
442
100
AcDbEntity
  8
1
  6
CONTINUOUS
 62
           7
100
AcDbCircle
 10
901.015847142316
 20
5548.171306523446
 40
5.000000000001
100
AcDbArc
 50
109.49726177166
 51
-90.0
  0
ARC
  5
441
100
AcDbEntity
  8
1
  6
CONTINUOUS
 62
           7
100
AcDbCircle
 10
408.565422804223
 20
5501.999999999999
 40
620.000000000001
100
AcDbArc
 50
-174.912285430339
 51
-90.336887134984
  0
ARC
  5
440
100
AcDbEntity
  8
1
  6
CONTINUOUS
 62
           7
100
AcDbCircle
 10
401.565422804223
 20
5406.999999999999
 40
525.000000000001
100
AcDbArc
 50
-2.792103456718
 51
-0.563719865862
  0
ARC
  5
43F
100
AcDbEntity
  8
1
  6
CONTINUOUS
 62
           7
100
AcDbCircle
 10
466.565422804223
 20
5396.999785420928
 40
459.999999999998
100
AcDbArc
 50
71.463109290188
 51
88.271493544498
  0
ARC
  5
43E
100
AcDbEntity
  8
1
  6
CONTINUOUS
 62
           7
100
AcDbCircle
 10
448.56542280422
 20
5451.999999999999
 40
150.000000000002
100
AcDbArc
 50
-89.999999999999
 51
-23.882765003116
  0
ARC
  5
43D
100
AcDbEntity
  8
1
  6
CONTINUOUS
 62
           7
100
AcDbCircle
 10
448.56542280422
 20
5451.999999999999
 40
150.0
100
AcDbArc
 50
23.882765003116
 51
-89.999999999999
  0
ARC
  5
43C
100
AcDbEntity
  8
0
  6
CONTINUOUS
 62
           3
100
AcDbCircle
 10
4555.899996721674
 20
1355.000000000222
 40
4.0
100
AcDbArc
 50
180.0
 51
0.0
  0
ARC
  5
43B
100
AcDbEntity
  8
0
  6
CONTINUOUS
 62
           3
100
AcDbCircle
 10
4555.899996721674
 20
1315.000000000058
 40
45.999999999971
100
AcDbArc
 50
180.0
 51
0.0
  0
ARC
  5
43A
100
AcDbEntity
  8
0
  6
CONTINUOUS
 62
           3
100
AcDbCircle
 10
4555.899996721674
 20
1315.000000000058
 40
53.999999999963
100
AcDbArc
 50
180.0
 51
0.0
  0
ARC
  5
439
100
AcDbEntity
  8
0
  6
CONTINUOUS
 62
           3
100
AcDbCircle
 10
4549.426494029871
 20
1389.999999999996
 40
0.9
100
AcDbArc
 50
-117.266044450441
 51
-90.0
  0
ARC
  5
438
100
AcDbEntity
  8
0
  6
CONTINUOUS
 62
           3
100
AcDbCircle
 10
4562.37349941346
 20
1389.999999999996
 40
0.900000000001
100
AcDbArc
 50
-90.0
 51
-62.733955549455
  0
ARC
  5
437
100
AcDbEntity
  8
0
  6
CONTINUOUS
 62
           3
100
AcDbCircle
 10
4497.899996721812
 20
1530.99999999988
 40
0.999999999997
100
AcDbArc
 50
-90.0
 51
90.0
  0
ARC
  5
436
100
AcDbEntity
  8
0
  6
CONTINUOUS
 62
           3
100
AcDbCircle
 10
4613.899996721521
 20
1530.99999999988
 40
1.0
100
AcDbArc
 50
90.0
 51
-90.0
  0
ARC
  5
435
100
AcDbEntity
  8
0
  6
CONTINUOUS
 62
           3
100
AcDbCircle
 10
4613.899996721521
 20
1508.999999999996
 40
1.0
100
AcDbArc
 50
90.0
 51
-90.0
  0
ARC
  5
434
100
AcDbEntity
  8
0
  6
CONTINUOUS
 62
           3
100
AcDbCircle
 10
4613.899996721521
 20
1431.000000000062
 40
0.999999999996
100
AcDbArc
 50
90.0
 51
-90.0
  0
ARC
  5
433
100
AcDbEntity
  8
0
  6
CONTINUOUS
 62
           3
100
AcDbCircle
 10
4613.899996721521
 20
1409.000000000178
 40
1.0
100
AcDbArc
 50
90.0
 51
-90.0
  0
ARC
  5
432
100
AcDbEntity
  8
0
  6
CONTINUOUS
 62
           3
100
AcDbCircle
 10
4497.899996721812
 20
1409.000000000178
 40
0.999999999996
100
AcDbArc
 50
-90.0
 51
90.0
  0
ARC
  5
431
100
AcDbEntity
  8
0
  6
CONTINUOUS
 62
           3
100
AcDbCircle
 10
4497.899996721812
 20
1431.000000000062
 40
1.0
100
AcDbArc
 50
-90.0
 51
90.0
  0
ARC
  5
430
100
AcDbEntity
  8
0
  6
CONTINUOUS
 62
           3
100
AcDbCircle
 10
4497.899996721812
 20
1508.999999999996
 40
0.999999999996
100
AcDbArc
 50
-90.0
 51
90.0
  0
ARC
  5
42F
100
AcDbEntity
  8
0
  6
CONTINUOUS
 62
           3
100
AcDbCircle
 10
4493.399996721823
 20
1368.000000000113
 40
2.499999999989
100
AcDbArc
 50
0.0
 51
180.0
  0
ARC
  5
42E
100
AcDbEntity
  8
0
  6
CONTINUOUS
 62
           3
100
AcDbCircle
 10
4493.399996721823
 20
1631.999999999898
 40
2.5
100
AcDbArc
 50
180.0
 51
0.0
  0
ARC
  5
42D
100
AcDbEntity
  8
0
  6
CONTINUOUS
 62
           3
100
AcDbCircle
 10
4618.399996721512
 20
1631.999999999898
 40
2.499999999991
100
AcDbArc
 50
180.0
 51
0.0
  0
ARC
  5
42C
100
AcDbEntity
  8
0
  6
CONTINUOUS
 62
           3
100
AcDbCircle
 10
4618.399996721512
 20
1368.000000000114
 40
2.5
100
AcDbArc
 50
-0.000000000021
 51
180.0
  0
ARC
  5
42B
100
AcDbEntity
  8
1
  6
CONTINUOUS
 62
           3
100
AcDbCircle
 10
5060.16356769104
 20
1925.0
 40
5.871834995066
100
AcDbArc
 50
-90.0
 51
0.0
  0
ARC
  5
42A
100
AcDbEntity
  8
1
  6
CONTINUOUS
 62
           3
100
AcDbCircle
 10
5060.16356769104
 20
1925.0
 40
5.871834995069
100
AcDbArc
 50
38.599713917924
 51
90.0
  0
ARC
  5
429
100
AcDbEntity
  8
1
  6
CONTINUOUS
 62
           3
100
AcDbCircle
 10
5060.16356769104
 20
1925.0
 40
5.871834995061
100
AcDbArc
 50
0.0
 51
38.599713917924
  0
ARC
  5
428
100
AcDbEntity
  8
1
  6
CONTINUOUS
 62
           3
100
AcDbCircle
 10
5060.16356769104
 20
1925.0
 40
9.5
100
AcDbArc
 50
0.0
 51
125.916957371441
  0
ARC
  5
427
100
AcDbEntity
  8
1
  6
CONTINUOUS
 62
           3
100
AcDbCircle
 10
5060.16356769104
 20
1925.0
 40
9.499999999999
100
AcDbArc
 50
-124.797812779177
 51
0.0
  0
ARC
  5
426
100
AcDbEntity
  8
1
  6
CONTINUOUS
 62
           3
100
AcDbCircle
 10
-39.924818873902
 20
1267.114622327059
 40
0.500000000002
100
AcDbArc
 50
-83.827497998178
 51
-5.00679300022
  0
ARC
  5
425
100
AcDbEntity
  8
1
  6
CONTINUOUS
 62
           3
100
AcDbCircle
 10
-45.999824873901
 20
1267.114622327059
 40
0.499999999996
100
AcDbArc
 50
-174.993206999699
 51
-96.172501999302
  0
ARC
  5
424
100
AcDbEntity
  8
1
  6
CONTINUOUS
 62
           3
100
AcDbCircle
 10
-39.924818873902
 20
1323.287074327051
 40
0.500000000005
100
AcDbArc
 50
5.006793001258
 51
83.827497998167
  0
ARC
  5
423
100
AcDbEntity
  8
1
  6
CONTINUOUS
 62
           3
100
AcDbCircle
 10
-45.999824873901
 20
1323.287074327051
 40
0.499999999999
100
AcDbArc
 50
96.172501999313
 51
174.993206998661
  0
ARC
  5
422
100
AcDbEntity
  8
1
  6
CONTINUOUS
 62
           3
100
AcDbCircle
 10
-47.000624873895
 20
1295.20084832705
 40
9.999999999999
100
AcDbArc
 50
-5.006792999977
 51
5.006793000024
  0
ARC
  5
421
100
AcDbEntity
  8
1
  6
CONTINUOUS
 62
           3
100
AcDbCircle
 10
-38.924019873901
 20
1295.20084832705
 40
10.0
100
AcDbArc
 50
174.993206999976
 51
-174.993207000022
  0
ARC
  5
420
100
AcDbEntity
  8
1
  6
CONTINUOUS
 62
           3
100
AcDbCircle
 10
-42.962321873901
 20
1295.20084832705
 40
10.74999999999
100
AcDbArc
 50
118.773506999971
 51
-118.773506999951
  0
ARC
  5
41F
100
AcDbEntity
  8
1
  6
CONTINUOUS
 62
           3
100
AcDbCircle
 10
-42.962321873901
 20
1295.20084832705
 40
10.75
100
AcDbArc
 50
-61.226493000021
 51
0.0
  0
ARC
  5
41E
100
AcDbEntity
  8
1
  6
CONTINUOUS
 62
           3
100
AcDbCircle
 10
-42.962321873901
 20
1295.20084832705
 40
10.75
100
AcDbArc
 50
0.0
 51
61.226493000001
  0
ARC
  5
41D
100
AcDbEntity
  8
1
  6
CONTINUOUS
 62
           3
100
AcDbCircle
 10
-42.962321873901
 20
1295.20084832705
 40
28.749999999988
100
AcDbArc
 50
-96.172501999994
 51
-83.827497999994
  0
ARC
  5
41C
100
AcDbEntity
  8
1
  6
CONTINUOUS
 62
           3
100
AcDbCircle
 10
-42.962321873901
 20
1295.20084832705
 40
28.75000000001
100
AcDbArc
 50
83.827497999999
 51
96.172501999989
  0
LINE
  5
41B
100
AcDbEntity
  8
1
  6
CONTINUOUS
 62
           2
100
AcDbLine
 10
3882.314185654645
 20
1094.499999999993
 11
3902.573593128806
 21
1094.499999999993
  0
LINE
  5
41A
100
AcDbEntity
  8
1
  6
CONTINUOUS
 62
           4
100
AcDbLine
 10
3705.000000000002
 20
1570.000000000002
 11
3705.000000000002
 21
1545.82575694956
  0
LINE
  5
419
100
AcDbEntity
  8
1
  6
CONTINUOUS
 62
           4
100
AcDbLine
 10
3745.000000000002
 20
1454.174243050444
 11
3745.000000000002
 21
1430.000000000002
  0
LINE
  5
418
100
AcDbEntity
  8
1
  6
CONTINUOUS
 62
           4
100
AcDbLine
 10
3765.000000000002
 20
1430.000000000002
 11
3765.000000000002
 21
1447.132503002405
  0
LINE
  5
417
100
AcDbEntity
  8
1
  6
CONTINUOUS
 62
           4
100
AcDbLine
 10
3705.000000000002
 20
1430.000000000002
 11
3765.000000000002
 21
1430.000000000002
  0
LINE
  5
416
100
AcDbEntity
  8
1
  6
CONTINUOUS
 62
           4
100
AcDbLine
 10
3705.000000000002
 20
1454.174243050444
 11
3705.000000000002
 21
1430.000000000002
  0
LINE
  5
415
100
AcDbEntity
  8
1
  6
CONTINUOUS
 62
           4
100
AcDbLine
 10
3745.000000000002
 20
1570.000000000002
 11
3745.000000000002
 21
1545.82575694956
  0
LINE
  5
414
100
AcDbEntity
  8
1
  6
CONTINUOUS
 62
           4
100
AcDbLine
 10
3685.000000000002
 20
1570.000000000002
 11
3745.000000000002
 21
1570.000000000002
  0
LINE
  5
413
100
AcDbEntity
  8
1
  6
CONTINUOUS
 62
           4
100
AcDbLine
 10
3690.542804312878
 20
1479.684939936609
 11
3674.428932188137
 21
1463.571067811869
  0
LINE
  5
412
100
AcDbEntity
  8
1
  6
CONTINUOUS
 62
           4
100
AcDbLine
 10
3688.571067811868
 20
1449.428932188137
 11
3704.684939936608
 21
1465.542804312878
  0
LINE
  5
411
100
AcDbEntity
  8
1
  6
CONTINUOUS
 62
           4
100
AcDbLine
 10
3745.315060063395
 20
1465.542804312878
 11
3761.428932188137
 21
1449.428932188137
  0
LINE
  5
410
100
AcDbEntity
  8
1
  6
CONTINUOUS
 62
           4
100
AcDbLine
 10
3759.457195687126
 20
1520.315060063396
 11
3775.571067811868
 21
1536.428932188137
  0
LINE
  5
40F
100
AcDbEntity
  8
1
  6
CONTINUOUS
 62
           4
100
AcDbLine
 10
3704.684939936608
 20
1534.457195687126
 11
3688.571067811868
 21
1550.571067811869
  0
LINE
  5
40E
100
AcDbEntity
  8
1
  6
CONTINUOUS
 62
           4
100
AcDbLine
 10
3775.571067811868
 20
1463.571067811869
 11
3759.457195687126
 21
1479.684939936609
  0
LINE
  5
40D
100
AcDbEntity
  8
1
  6
CONTINUOUS
 62
           4
100
AcDbLine
 10
3761.428932188137
 20
1550.571067811869
 11
3745.315060063395
 21
1534.457195687126
  0
LINE
  5
40C
100
AcDbEntity
  8
1
  6
CONTINUOUS
 62
           4
100
AcDbLine
 10
3674.428932188137
 20
1536.428932188137
 11
3690.542804312878
 21
1520.315060063396
  0
LINE
  5
40B
100
AcDbEntity
  8
1
  6
CONTINUOUS
 62
           4
100
AcDbLine
 10
3685.000000000002
 20
1552.8674969976
 11
3685.000000000002
 21
1570.000000000002
  0
LINE
  5
40A
100
AcDbEntity
  8
1
  6
CONTINUOUS
 62
           4
100
AcDbLine
 10
3734.659258262893
 20
1497.411809548978
 11
3756.597964306739
 21
1475.47310350513
  0
LINE
  5
409
100
AcDbEntity
  8
1
  6
CONTINUOUS
 62
           4
100
AcDbLine
 10
3727.588190451028
 20
1490.340741737111
 11
3749.526896494875
 21
1468.402035693265
  0
LINE
  5
408
100
AcDbEntity
  8
1
  6
CONTINUOUS
 62
           4
100
AcDbLine
 10
3715.340741737112
 20
1502.588190451027
 11
3710.85786437627
 21
1514.142135623733
  0
LINE
  5
407
100
AcDbEntity
  8
1
  6
CONTINUOUS
 62
           4
100
AcDbLine
 10
3722.411809548978
 20
1509.659258262893
 11
3710.85786437627
 21
1514.142135623733
  0
LINE
  5
406
100
AcDbEntity
  8
1
  6
CONTINUOUS
 62
           4
100
AcDbLine
 10
2301.56542280422
 20
1450.000000000002
 11
2301.56542280422
 21
1430.000000000002
  0
LINE
  5
405
100
AcDbEntity
  8
1
  6
CONTINUOUS
 62
           4
100
AcDbLine
 10
2301.56542280422
 20
1430.000000000002
 11
2253.56542280422
 21
1430.000000000002
  0
LINE
  5
404
100
AcDbEntity
  8
1
  6
CONTINUOUS
 62
           4
100
AcDbLine
 10
2301.56542280422
 20
1550.000000000002
 11
2301.56542280422
 21
1570.000000000002
  0
LINE
  5
403
100
AcDbEntity
  8
1
  6
CONTINUOUS
 62
           4
100
AcDbLine
 10
2301.56542280422
 20
1570.000000000002
 11
2253.56542280422
 21
1570.000000000002
  0
LINE
  5
402
100
AcDbEntity
  8
1
  6
CONTINUOUS
 62
           4
100
AcDbLine
 10
2263.56542280422
 20
1570.000000000002
 11
2263.56542280422
 21
1430.000000000002
  0
LINE
  5
401
100
AcDbEntity
  8
1
  6
CONTINUOUS
 62
           4
100
AcDbLine
 10
2368.56542280422
 20
1490.000000000002
 11
2383.56542280422
 21
1490.000000000002
  0
LINE
  5
400
100
AcDbEntity
  8
1
  6
CONTINUOUS
 62
           4
100
AcDbLine
 10
2383.56542280422
 20
1510.000000000002
 11
2368.56542280422
 21
1510.000000000002
  0
LINE
  5
3FF
100
AcDbEntity
  8
1
  6
CONTINUOUS
 62
           4
100
AcDbLine
 10
2383.56542280422
 20
1515.000000000002
 11
2368.56542280422
 21
1515.000000000002
  0
LINE
  5
3FE
100
AcDbEntity
  8
1
  6
CONTINUOUS
 62
           4
100
AcDbLine
 10
2383.56542280422
 20
1470.000000000002
 11
2383.56542280422
 21
1515.000000000002
  0
LINE
  5
3FD
100
AcDbEntity
  8
1
  6
CONTINUOUS
 62
           4
100
AcDbLine
 10
2368.56542280422
 20
1470.000000000002
 11
2383.56542280422
 21
1470.000000000002
  0
LINE
  5
3FC
100
AcDbEntity
  8
1
  6
CONTINUOUS
 62
           4
100
AcDbLine
 10
2338.56542280422
 20
1460.000000000002
 11
2368.56542280422
 21
1460.000000000002
  0
LINE
  5
3FB
100
AcDbEntity
  8
1
  6
CONTINUOUS
 62
           4
100
AcDbLine
 10
2368.56542280422
 20
1460.000000000002
 11
2368.56542280422
 21
1540.000000000002
  0
LINE
  5
3FA
100
AcDbEntity
  8
1
  6
CONTINUOUS
 62
           4
100
AcDbLine
 10
2368.56542280422
 20
1540.000000000002
 11
2338.56542280422
 21
1540.000000000002
  0
LINE
  5
3F9
100
AcDbEntity
  8
1
  6
CONTINUOUS
 62
           4
100
AcDbLine
 10
2323.56542280422
 20
1446.500000000002
 11
2338.56542280422
 21
1446.500000000002
  0
LINE
  5
3F8
100
AcDbEntity
  8
1
  6
CONTINUOUS
 62
           4
100
AcDbLine
 10
2338.56542280422
 20
1520.315060063396
 11
2338.56542280422
 21
1553.500000000002
  0
LINE
  5
3F7
100
AcDbEntity
  8
1
  6
CONTINUOUS
 62
           4
100
AcDbLine
 10
2323.56542280422
 20
1550.000000000002
 11
2263.56542280422
 21
1550.000000000002
  0
LINE
  5
3F6
100
AcDbEntity
  8
1
  6
CONTINUOUS
 62
           4
100
AcDbLine
 10
2253.56542280422
 20
1570.000000000002
 11
2253.56542280422
 21
1430.000000000002
  0
LINE
  5
3F5
100
AcDbEntity
  8
1
  6
CONTINUOUS
 62
           4
100
AcDbLine
 10
2323.56542280422
 20
1479.684939936609
 11
2338.56542280422
 21
1479.684939936609
  0
LINE
  5
3F4
100
AcDbEntity
  8
1
  6
CONTINUOUS
 62
           4
100
AcDbLine
 10
2323.56542280422
 20
1446.500000000002
 11
2323.56542280422
 21
1553.500000000002
  0
LINE
  5
3F3
100
AcDbEntity
  8
1
  6
CONTINUOUS
 62
           4
100
AcDbLine
 10
2323.56542280422
 20
1520.315060063396
 11
2338.56542280422
 21
1520.315060063396
  0
LINE
  5
3F2
100
AcDbEntity
  8
1
  6
CONTINUOUS
 62
           4
100
AcDbLine
 10
2263.56542280422
 20
1450.000000000002
 11
2323.56542280422
 21
1450.000000000002
  0
LINE
  5
3F1
100
AcDbEntity
  8
1
  6
CONTINUOUS
 62
           4
100
AcDbLine
 10
2338.56542280422
 20
1446.500000000002
 11
2338.56542280422
 21
1479.684939936609
  0
LINE
  5
3F0
100
AcDbEntity
  8
1
  6
CONTINUOUS
 62
           4
100
AcDbLine
 10
2338.56542280422
 20
1553.500000000002
 11
2323.56542280422
 21
1553.500000000002
  0
LINE
  5
3EF
100
AcDbEntity
  8
1
  6
CONTINUOUS
 62
           4
100
AcDbLine
 10
2263.56542280422
 20
1476.000000000002
 11
2323.56542280422
 21
1476.000000000002
  0
LINE
  5
3EE
100
AcDbEntity
  8
1
  6
CONTINUOUS
 62
           4
100
AcDbLine
 10
2323.56542280422
 20
1524.000000000002
 11
2263.56542280422
 21
1524.000000000002
  0
LINE
  5
3ED
100
AcDbEntity
  8
1
  6
CONTINUOUS
 62
           4
100
AcDbLine
 10
3792.500000000002
 20
1642.499999999992
 11
3820.000000000002
 21
1642.499999999992
  0
LINE
  5
3EC
100
AcDbEntity
  8
1
  6
CONTINUOUS
 62
           4
100
AcDbLine
 10
3792.500000000002
 20
1607.499999999992
 11
3792.500000000002
 21
1642.499999999992
  0
LINE
  5
3EB
100
AcDbEntity
  8
1
  6
CONTINUOUS
 62
           4
100
AcDbLine
 10
3820.000000000002
 20
1607.499999999992
 11
3792.500000000002
 21
1607.499999999992
  0
LINE
  5
3EA
100
AcDbEntity
  8
1
  6
CONTINUOUS
 62
           4
100
AcDbLine
 10
3792.500000000002
 20
1392.499999999992
 11
3820.000000000002
 21
1392.499999999992
  0
LINE
  5
3E9
100
AcDbEntity
  8
1
  6
CONTINUOUS
 62
           4
100
AcDbLine
 10
3792.500000000002
 20
1357.499999999992
 11
3792.500000000002
 21
1392.499999999992
  0
LINE
  5
3E8
100
AcDbEntity
  8
1
  6
CONTINUOUS
 62
           4
100
AcDbLine
 10
3820.000000000002
 20
1357.499999999992
 11
3792.500000000002
 21
1357.499999999992
  0
LINE
  5
3E7
100
AcDbEntity
  8
1
  6
CONTINUOUS
 62
           4
100
AcDbLine
 10
4097.500000000002
 20
1357.499999999992
 11
4070.000000000002
 21
1357.499999999992
  0
LINE
  5
3E6
100
AcDbEntity
  8
1
  6
CONTINUOUS
 62
           4
100
AcDbLine
 10
4097.500000000002
 20
1392.499999999992
 11
4097.500000000002
 21
1357.499999999992
  0
LINE
  5
3E5
100
AcDbEntity
  8
1
  6
CONTINUOUS
 62
           4
100
AcDbLine
 10
4070.000000000002
 20
1392.499999999992
 11
4097.500000000002
 21
1392.499999999992
  0
LINE
  5
3E4
100
AcDbEntity
  8
1
  6
CONTINUOUS
 62
           4
100
AcDbLine
 10
4097.500000000002
 20
1607.499999999992
 11
4070.000000000002
 21
1607.499999999992
  0
LINE
  5
3E3
100
AcDbEntity
  8
1
  6
CONTINUOUS
 62
           4
100
AcDbLine
 10
4097.500000000002
 20
1642.499999999992
 11
4097.500000000002
 21
1607.499999999992
  0
LINE
  5
3E2
100
AcDbEntity
  8
1
  6
CONTINUOUS
 62
           4
100
AcDbLine
 10
4070.000000000002
 20
1642.499999999992
 11
4097.500000000002
 21
1642.499999999992
  0
LINE
  5
3E1
100
AcDbEntity
  8
1
  6
CONTINUOUS
 62
           4
100
AcDbLine
 10
3820.000000000002
 20
1321.999999999992
 11
4070.000000000002
 21
1321.999999999992
  0
LINE
  5
3E0
100
AcDbEntity
  8
1
  6
CONTINUOUS
 62
           4
100
AcDbLine
 10
4070.000000000002
 20
1677.999999999992
 11
3820.000000000002
 21
1677.999999999992
  0
LINE
  5
3DF
100
AcDbEntity
  8
1
  6
CONTINUOUS
 62
           4
100
AcDbLine
 10
3820.000000000002
 20
1837.999999999992
 11
3820.000000000002
 21
1544.999999999992
  0
LINE
  5
3DE
100
AcDbEntity
  8
1
  6
CONTINUOUS
 62
           4
100
AcDbLine
 10
4070.000000000002
 20
1837.999999999992
 11
3820.000000000002
 21
1837.999999999992
  0
LINE
  5
3DD
100
AcDbEntity
  8
1
  6
CONTINUOUS
 62
           4
100
AcDbLine
 10
4070.000000000002
 20
1161.999999999992
 11
4070.000000000002
 21
1837.999999999992
  0
LINE
  5
3DC
100
AcDbEntity
  8
1
  6
CONTINUOUS
 62
           4
100
AcDbLine
 10
3820.000000000002
 20
1161.999999999992
 11
4070.000000000002
 21
1161.999999999992
  0
LINE
  5
3DB
100
AcDbEntity
  8
1
  6
CONTINUOUS
 62
           4
100
AcDbLine
 10
3850.000000000002
 20
1807.999999999992
 11
4040.000000000002
 21
1807.999999999992
  0
LINE
  5
3DA
100
AcDbEntity
  8
1
  6
CONTINUOUS
 62
           4
100
AcDbLine
 10
4040.000000000002
 20
1807.999999999992
 11
4040.000000000002
 21
1707.999999999992
  0
LINE
  5
3D9
100
AcDbEntity
  8
1
  6
CONTINUOUS
 62
           4
100
AcDbLine
 10
4040.000000000002
 20
1707.999999999992
 11
3850.000000000002
 21
1707.999999999992
  0
LINE
  5
3D8
100
AcDbEntity
  8
1
  6
CONTINUOUS
 62
           4
100
AcDbLine
 10
3850.000000000002
 20
1707.999999999992
 11
3850.000000000002
 21
1807.999999999992
  0
LINE
  5
3D7
100
AcDbEntity
  8
1
  6
CONTINUOUS
 62
           4
100
AcDbLine
 10
3850.000000000002
 20
1647.999999999992
 11
4040.000000000002
 21
1647.999999999992
  0
LINE
  5
3D6
100
AcDbEntity
  8
1
  6
CONTINUOUS
 62
           4
100
AcDbLine
 10
4040.000000000002
 20
1647.999999999992
 11
4040.000000000002
 21
1351.999999999992
  0
LINE
  5
3D5
100
AcDbEntity
  8
1
  6
CONTINUOUS
 62
           4
100
AcDbLine
 10
4040.000000000002
 20
1351.999999999992
 11
3850.000000000002
 21
1351.999999999992
  0
LINE
  5
3D4
100
AcDbEntity
  8
1
  6
CONTINUOUS
 62
           4
100
AcDbLine
 10
3850.000000000002
 20
1351.999999999992
 11
3850.000000000002
 21
1647.999999999992
  0
LINE
  5
3D3
100
AcDbEntity
  8
1
  6
CONTINUOUS
 62
           4
100
AcDbLine
 10
3850.000000000002
 20
1291.999999999992
 11
4040.000000000002
 21
1291.999999999992
  0
LINE
  5
3D2
100
AcDbEntity
  8
1
  6
CONTINUOUS
 62
           4
100
AcDbLine
 10
4040.000000000002
 20
1291.999999999992
 11
4040.000000000002
 21
1191.999999999992
  0
LINE
  5
3D1
100
AcDbEntity
  8
1
  6
CONTINUOUS
 62
           4
100
AcDbLine
 10
4040.000000000002
 20
1191.999999999992
 11
3850.000000000002
 21
1191.999999999992
  0
LINE
  5
3D0
100
AcDbEntity
  8
1
  6
CONTINUOUS
 62
           4
100
AcDbLine
 10
3850.000000000002
 20
1191.999999999992
 11
3850.000000000002
 21
1291.999999999992
  0
LINE
  5
3CF
100
AcDbEntity
  8
1
  6
CONTINUOUS
 62
           4
100
AcDbLine
 10
3850.000000000002
 20
1544.999999999992
 11
3792.500000000002
 21
1544.999999999992
  0
LINE
  5
3CE
100
AcDbEntity
  8
1
  6
CONTINUOUS
 62
           4
100
AcDbLine
 10
3792.500000000002
 20
1544.999999999992
 11
3792.500000000002
 21
1514.999999999992
  0
LINE
  5
3CD
100
AcDbEntity
  8
1
  6
CONTINUOUS
 62
           4
100
AcDbLine
 10
3792.500000000002
 20
1514.999999999992
 11
3850.000000000002
 21
1514.999999999992
  0
LINE
  5
3CC
100
AcDbEntity
  8
1
  6
CONTINUOUS
 62
           4
100
AcDbLine
 10
3850.000000000002
 20
1484.999999999992
 11
3792.500000000002
 21
1484.999999999992
  0
LINE
  5
3CB
100
AcDbEntity
  8
1
  6
CONTINUOUS
 62
           4
100
AcDbLine
 10
3792.500000000002
 20
1484.999999999992
 11
3792.500000000002
 21
1454.999999999992
  0
LINE
  5
3CA
100
AcDbEntity
  8
1
  6
CONTINUOUS
 62
           4
100
AcDbLine
 10
3792.500000000002
 20
1454.999999999992
 11
3850.000000000002
 21
1454.999999999992
  0
LINE
  5
3C9
100
AcDbEntity
  8
1
  6
CONTINUOUS
 62
           4
100
AcDbLine
 10
3820.000000000002
 20
1514.999999999992
 11
3820.000000000002
 21
1484.999999999992
  0
LINE
  5
3C8
100
AcDbEntity
  8
1
  6
CONTINUOUS
 62
           4
100
AcDbLine
 10
3820.000000000002
 20
1454.999999999992
 11
3820.000000000002
 21
1161.999999999992
  0
LINE
  5
3C7
100
AcDbEntity
  8
1
  6
CONTINUOUS
 62
           4
100
AcDbLine
 10
2448.56542280422
 20
1838.000000000002
 11
2253.56542280422
 21
1838.000000000002
  0
LINE
  5
3C6
100
AcDbEntity
  8
1
  6
CONTINUOUS
 62
           4
100
AcDbLine
 10
2448.56542280422
 20
1162.000000000002
 11
2448.56542280422
 21
1838.000000000002
  0
LINE
  5
3C5
100
AcDbEntity
  8
1
  6
CONTINUOUS
 62
           4
100
AcDbLine
 10
2253.56542280422
 20
1162.000000000002
 11
2448.56542280422
 21
1162.000000000002
  0
LINE
  5
3C4
100
AcDbEntity
  8
1
  6
CONTINUOUS
 62
           4
100
AcDbLine
 10
2253.56542280422
 20
1838.000000000002
 11
2253.56542280422
 21
1162.000000000002
  0
LINE
  5
3C3
100
AcDbEntity
  8
1
  6
CONTINUOUS
 62
           4
100
AcDbLine
 10
2268.56542280422
 20
1642.500000000002
 11
2253.56542280422
 21
1642.500000000002
  0
LINE
  5
3C2
100
AcDbEntity
  8
1
  6
CONTINUOUS
 62
           4
100
AcDbLine
 10
2268.56542280422
 20
1607.500000000002
 11
2268.56542280422
 21
1642.500000000002
  0
LINE
  5
3C1
100
AcDbEntity
  8
1
  6
CONTINUOUS
 62
           4
100
AcDbLine
 10
2253.56542280422
 20
1607.500000000002
 11
2268.56542280422
 21
1607.500000000002
  0
LINE
  5
3C0
100
AcDbEntity
  8
1
  6
CONTINUOUS
 62
           4
100
AcDbLine
 10
2268.56542280422
 20
1392.500000000002
 11
2253.56542280422
 21
1392.500000000002
  0
LINE
  5
3BF
100
AcDbEntity
  8
1
  6
CONTINUOUS
 62
           4
100
AcDbLine
 10
2268.56542280422
 20
1357.500000000002
 11
2268.56542280422
 21
1392.500000000002
  0
LINE
  5
3BE
100
AcDbEntity
  8
1
  6
CONTINUOUS
 62
           4
100
AcDbLine
 10
2253.56542280422
 20
1357.500000000002
 11
2268.56542280422
 21
1357.500000000002
  0
LINE
  5
3BD
100
AcDbEntity
  8
1
  6
CONTINUOUS
 62
           4
100
AcDbLine
 10
2478.56542280422
 20
1648.000000000002
 11
2448.56542280422
 21
1648.000000000002
  0
LINE
  5
3BC
100
AcDbEntity
  8
1
  6
CONTINUOUS
 62
           4
100
AcDbLine
 10
2478.56542280422
 20
1352.000000000002
 11
2478.56542280422
 21
1648.000000000002
  0
LINE
  5
3BB
100
AcDbEntity
  8
1
  6
CONTINUOUS
 62
           4
100
AcDbLine
 10
2448.56542280422
 20
1352.000000000002
 11
2478.56542280422
 21
1352.000000000002
  0
LINE
  5
3BA
100
AcDbEntity
  8
1
  6
CONTINUOUS
 62
           4
100
AcDbLine
 10
2418.56542280422
 20
1162.000000000002
 11
2418.56542280422
 21
1838.000000000002
  0
LINE
  5
3B9
100
AcDbEntity
  8
1
  6
CONTINUOUS
 62
           4
100
AcDbLine
 10
2448.56542280422
 20
1678.000000000002
 11
2253.56542280422
 21
1678.000000000002
  0
LINE
  5
3B8
100
AcDbEntity
  8
1
  6
CONTINUOUS
 62
           4
100
AcDbLine
 10
2448.56542280422
 20
1322.000000000002
 11
2253.56542280422
 21
1322.000000000002
  0
LINE
  5
3B7
100
AcDbEntity
  8
1
  6
CONTINUOUS
 62
           4
100
AcDbLine
 10
2253.56542280422
 20
3973.000000000002
 11
2323.56542280422
 21
3973.000000000002
  0
LINE
  5
3B6
100
AcDbEntity
  8
1
  6
CONTINUOUS
 62
           4
100
AcDbLine
 10
2323.56542280422
 20
4021.000000000002
 11
2253.56542280422
 21
4021.000000000002
  0
LINE
  5
3B5
100
AcDbEntity
  8
1
  6
CONTINUOUS
 62
           4
100
AcDbLine
 10
2323.56542280422
 20
3943.500000000002
 11
2338.56542280422
 21
3943.500000000002
  0
LINE
  5
3B4
100
AcDbEntity
  8
1
  6
CONTINUOUS
 62
           4
100
AcDbLine
 10
2338.56542280422
 20
4017.315060063395
 11
2338.56542280422
 21
4050.500000000002
  0
LINE
  5
3B3
100
AcDbEntity
  8
1
  6
CONTINUOUS
 62
           4
100
AcDbLine
 10
2323.56542280422
 20
4047.000000000002
 11
2253.56542280422
 21
4047.000000000002
  0
LINE
  5
3B2
100
AcDbEntity
  8
1
  6
CONTINUOUS
 62
           4
100
AcDbLine
 10
2338.56542280422
 20
3976.684939936609
 11
2323.56542280422
 21
3976.684939936609
  0
LINE
  5
3B1
100
AcDbEntity
  8
1
  6
CONTINUOUS
 62
           4
100
AcDbLine
 10
2323.56542280422
 20
3943.500000000002
 11
2323.56542280422
 21
4050.500000000002
  0
LINE
  5
3B0
100
AcDbEntity
  8
1
  6
CONTINUOUS
 62
           4
100
AcDbLine
 10
2338.56542280422
 20
4017.315060063395
 11
2323.56542280422
 21
4017.315060063395
  0
LINE
  5
3AF
100
AcDbEntity
  8
1
  6
CONTINUOUS
 62
           4
100
AcDbLine
 10
2253.56542280422
 20
4047.000000000002
 11
2253.56542280422
 21
3947.000000000002
  0
LINE
  5
3AE
100
AcDbEntity
  8
1
  6
CONTINUOUS
 62
           4
100
AcDbLine
 10
2253.56542280422
 20
3947.000000000002
 11
2323.56542280422
 21
3947.000000000002
  0
LINE
  5
3AD
100
AcDbEntity
  8
1
  6
CONTINUOUS
 62
           4
100
AcDbLine
 10
2338.56542280422
 20
3943.500000000002
 11
2338.56542280422
 21
3976.684939936609
  0
LINE
  5
3AC
100
AcDbEntity
  8
1
  6
CONTINUOUS
 62
           4
100
AcDbLine
 10
2338.56542280422
 20
4050.500000000002
 11
2323.56542280422
 21
4050.500000000002
  0
LINE
  5
3AB
100
AcDbEntity
  8
1
  6
CONTINUOUS
 62
           4
100
AcDbLine
 10
2338.56542280422
 20
3957.000000000002
 11
2368.56542280422
 21
3957.000000000002
  0
LINE
  5
3AA
100
AcDbEntity
  8
1
  6
CONTINUOUS
 62
           4
100
AcDbLine
 10
2368.56542280422
 20
3957.000000000002
 11
2368.56542280422
 21
4037.000000000002
  0
LINE
  5
3A9
100
AcDbEntity
  8
1
  6
CONTINUOUS
 62
           4
100
AcDbLine
 10
2368.56542280422
 20
4037.000000000002
 11
2338.56542280422
 21
4037.000000000002
  0
LINE
  5
3A8
100
AcDbEntity
  8
1
  6
CONTINUOUS
 62
           4
100
AcDbLine
 10
2368.56542280422
 20
3967.000000000002
 11
2383.56542280422
 21
3967.000000000002
  0
LINE
  5
3A7
100
AcDbEntity
  8
1
  6
CONTINUOUS
 62
           4
100
AcDbLine
 10
2383.56542280422
 20
3967.000000000002
 11
2383.56542280422
 21
4012.000000000003
  0
LINE
  5
3A6
100
AcDbEntity
  8
1
  6
CONTINUOUS
 62
           4
100
AcDbLine
 10
2383.56542280422
 20
4012.000000000003
 11
2368.56542280422
 21
4012.000000000003
  0
LINE
  5
3A5
100
AcDbEntity
  8
1
  6
CONTINUOUS
 62
           4
100
AcDbLine
 10
2383.56542280422
 20
4007.000000000002
 11
2368.56542280422
 21
4007.000000000002
  0
LINE
  5
3A4
100
AcDbEntity
  8
1
  6
CONTINUOUS
 62
           4
100
AcDbLine
 10
2368.56542280422
 20
3987.000000000002
 11
2383.56542280422
 21
3987.000000000002
  0
LINE
  5
3A3
100
AcDbEntity
  8
1
  6
CONTINUOUS
 62
           4
100
AcDbLine
 10
2388.56542280422
 20
4064.500000000002
 11
2448.56542280422
 21
4064.500000000002
  0
LINE
  5
3A2
100
AcDbEntity
  8
1
  6
CONTINUOUS
 62
           4
100
AcDbLine
 10
2388.56542280422
 20
4064.500000000002
 11
2388.56542280422
 21
4092.000000000002
  0
LINE
  5
3A1
100
AcDbEntity
  8
1
  6
CONTINUOUS
 62
           4
100
AcDbLine
 10
2418.56542280422
 20
4092.000000000002
 11
2418.56542280422
 21
4342.000000000002
  0
LINE
  5
3A0
100
AcDbEntity
  8
1
  6
CONTINUOUS
 62
           4
100
AcDbLine
 10
2268.56542280422
 20
4092.000000000002
 11
2268.56542280422
 21
4064.500000000002
  0
LINE
  5
39F
100
AcDbEntity
  8
1
  6
CONTINUOUS
 62
           4
100
AcDbLine
 10
2268.56542280422
 20
4064.500000000002
 11
2253.56542280422
 21
4064.500000000002
  0
LINE
  5
39E
100
AcDbEntity
  8
1
  6
CONTINUOUS
 62
           4
100
AcDbLine
 10
2253.56542280422
 20
4369.500000000002
 11
2268.56542280422
 21
4369.500000000002
  0
LINE
  5
39D
100
AcDbEntity
  8
1
  6
CONTINUOUS
 62
           4
100
AcDbLine
 10
2268.56542280422
 20
4369.500000000002
 11
2268.56542280422
 21
4342.000000000002
  0
LINE
  5
39C
100
AcDbEntity
  8
1
  6
CONTINUOUS
 62
           4
100
AcDbLine
 10
2448.56542280422
 20
4122.000000000002
 11
2478.56542280422
 21
4122.000000000002
  0
LINE
  5
39B
100
AcDbEntity
  8
1
  6
CONTINUOUS
 62
           4
100
AcDbLine
 10
2478.56542280422
 20
4122.000000000002
 11
2478.56542280422
 21
4312.000000000002
  0
LINE
  5
39A
100
AcDbEntity
  8
1
  6
CONTINUOUS
 62
           4
100
AcDbLine
 10
2478.56542280422
 20
4312.000000000002
 11
2448.56542280422
 21
4312.000000000002
  0
LINE
  5
399
100
AcDbEntity
  8
1
  6
CONTINUOUS
 62
           4
100
AcDbLine
 10
2253.56542280422
 20
4092.000000000002
 11
2448.56542280422
 21
4092.000000000002
  0
LINE
  5
398
100
AcDbEntity
  8
1
  6
CONTINUOUS
 62
           4
100
AcDbLine
 10
2448.56542280422
 20
4064.500000000002
 11
2448.56542280422
 21
4342.000000000002
  0
LINE
  5
397
100
AcDbEntity
  8
1
  6
CONTINUOUS
 62
           4
100
AcDbLine
 10
2448.56542280422
 20
4342.000000000002
 11
2253.56542280422
 21
4342.000000000002
  0
LINE
  5
396
100
AcDbEntity
  8
1
  6
CONTINUOUS
 62
           4
100
AcDbLine
 10
2253.56542280422
 20
4369.500000000002
 11
2253.56542280422
 21
4064.500000000002
  0
LINE
  5
395
100
AcDbEntity
  8
1
  6
CONTINUOUS
 62
           2
100
AcDbLine
 10
4925.319562772416
 20
2205.0
 11
5332.532262743705
 21
2205.0
  0
LINE
  5
394
100
AcDbEntity
  8
1
  6
CONTINUOUS
 62
           2
100
AcDbLine
 10
4925.319562772416
 20
2565.0
 11
4925.319562772416
 21
2205.0
  0
LINE
  5
393
100
AcDbEntity
  8
1
  6
CONTINUOUS
 62
           2
100
AcDbLine
 10
5332.532262743705
 20
2565.0
 11
4925.319562772416
 21
2565.0
  0
LINE
  5
392
100
AcDbEntity
  8
1
  6
CONTINUOUS
 62
           2
100
AcDbLine
 10
5332.532262743705
 20
2205.0
 11
5332.532262743705
 21
2565.0
  0
LINE
  5
391
100
AcDbEntity
  8
1
  6
CONTINUOUS
 62
           7
100
AcDbLine
 10
5695.499999999996
 20
2165.0
 11
5684.499999999996
 21
2165.0
  0
LINE
  5
390
100
AcDbEntity
  8
1
  6
CONTINUOUS
 62
           4
100
AcDbLine
 10
5684.5
 20
2160.5
 11
5649.999999999996
 21
2160.5
  0
LINE
  5
38F
100
AcDbEntity
  8
1
  6
CONTINUOUS
 62
           7
100
AcDbLine
 10
5730.0
 20
2165.0
 11
5730.0
 21
2160.5
  0
LINE
  5
38E
100
AcDbEntity
  8
1
  6
CONTINUOUS
 62
           4
100
AcDbLine
 10
5730.0
 20
2160.5
 11
5695.5
 21
2160.5
  0
LINE
  5
38D
100
AcDbEntity
  8
1
  6
CONTINUOUS
 62
           7
100
AcDbLine
 10
5649.999999999996
 20
2160.5
 11
5650.0
 21
2165.0
  0
LINE
  5
38C
100
AcDbEntity
  8
1
  6
CONTINUOUS
 62
           4
100
AcDbLine
 10
5685.5
 20
2125.0
 11
5694.500000000004
 21
2125.0
  0
LINE
  5
38B
100
AcDbEntity
  8
1
  6
CONTINUOUS
 62
           7
100
AcDbLine
 10
5695.5
 20
2605.000000000002
 11
5684.500000000018
 21
2605.000000000002
  0
LINE
  5
38A
100
AcDbEntity
  8
1
  6
CONTINUOUS
 62
           4
100
AcDbLine
 10
5685.5
 20
2645.000000000002
 11
5694.500000000004
 21
2645.000000000002
  0
LINE
  5
389
100
AcDbEntity
  8
1
  6
CONTINUOUS
 62
           7
100
AcDbLine
 10
5730.0
 20
2605.0
 11
5730.0
 21
2609.500000000004
  0
LINE
  5
388
100
AcDbEntity
  8
1
  6
CONTINUOUS
 62
           4
100
AcDbLine
 10
5730.0
 20
2609.500000000004
 11
5695.5
 21
2609.500000000002
  0
LINE
  5
387
100
AcDbEntity
  8
1
  6
CONTINUOUS
 62
           7
100
AcDbLine
 10
5650.0
 20
2605.0
 11
5650.0
 21
2609.5
  0
LINE
  5
386
100
AcDbEntity
  8
1
  6
CONTINUOUS
 62
           4
100
AcDbLine
 10
5650.0
 20
2609.5
 11
5684.5
 21
2609.500000000002
  0
LINE
  5
385
100
AcDbEntity
  8
1
  6
CONTINUOUS
 62
           7
100
AcDbLine
 10
5690.0
 20
2125.0
 11
5690.0
 21
2645.000000000002
  0
LINE
  5
384
100
AcDbEntity
  8
1
  6
CONTINUOUS
 62
           7
100
AcDbLine
 10
5695.499999999996
 20
2165.0
 11
5730.0
 21
2165.0
  0
LINE
  5
383
100
AcDbEntity
  8
1
  6
CONTINUOUS
 62
           7
100
AcDbLine
 10
5730.0
 20
2165.0
 11
5730.0
 21
2605.0
  0
LINE
  5
382
100
AcDbEntity
  8
1
  6
CONTINUOUS
 62
           4
100
AcDbLine
 10
5694.5
 20
2165.0
 11
5694.5
 21
2605.000000000002
  0
LINE
  5
381
100
AcDbEntity
  8
1
  6
CONTINUOUS
 62
           4
100
AcDbLine
 10
5694.5
 20
2159.5
 11
5694.500000000004
 21
2125.0
  0
LINE
  5
380
100
AcDbEntity
  8
1
  6
CONTINUOUS
 62
           4
100
AcDbLine
 10
5694.500000000004
 20
2645.000000000002
 11
5694.5
 21
2610.500000000002
  0
LINE
  5
37F
100
AcDbEntity
  8
1
  6
CONTINUOUS
 62
           7
100
AcDbLine
 10
5730.0
 20
2605.0
 11
5695.5
 21
2605.000000000002
  0
LINE
  5
37E
100
AcDbEntity
  8
1
  6
CONTINUOUS
 62
           7
100
AcDbLine
 10
5684.500000000018
 20
2605.000000000002
 11
5650.0
 21
2605.0
  0
LINE
  5
37D
100
AcDbEntity
  8
1
  6
CONTINUOUS
 62
           4
100
AcDbLine
 10
5685.5
 20
2610.500000000002
 11
5685.5
 21
2645.000000000002
  0
LINE
  5
37C
100
AcDbEntity
  8
1
  6
CONTINUOUS
 62
           4
100
AcDbLine
 10
5685.5
 20
2125.0
 11
5685.5
 21
2159.5
  0
LINE
  5
37B
100
AcDbEntity
  8
1
  6
CONTINUOUS
 62
           4
100
AcDbLine
 10
5685.5
 20
2605.000000000002
 11
5685.5
 21
2165.0
  0
LINE
  5
37A
100
AcDbEntity
  8
1
  6
CONTINUOUS
 62
           7
100
AcDbLine
 10
5650.0
 20
2605.0
 11
5650.0
 21
2165.0
  0
LINE
  5
379
100
AcDbEntity
  8
1
  6
CONTINUOUS
 62
           7
100
AcDbLine
 10
5650.0
 20
2165.0
 11
5684.499999999996
 21
2165.0
  0
LINE
  5
378
100
AcDbEntity
  8
1
  6
CONTINUOUS
 62
           7
100
AcDbLine
 10
5646.464466094069
 20
2127.0
 11
5280.0
 21
2127.0
  0
LINE
  5
377
100
AcDbEntity
  8
1
  6
CONTINUOUS
 62
           7
100
AcDbLine
 10
5650.0
 20
2165.0
 11
5650.0
 21
2132.0
  0
LINE
  5
376
100
AcDbEntity
  8
1
  6
CONTINUOUS
 62
           7
100
AcDbLine
 10
5650.0
 20
2638.0
 11
5650.0
 21
2605.0
  0
LINE
  5
375
100
AcDbEntity
  8
1
  6
CONTINUOUS
 62
           7
100
AcDbLine
 10
4582.268760408315
 20
2643.0
 11
5105.527778486357
 21
2643.0
  0
LINE
  5
374
100
AcDbEntity
  8
1
  6
CONTINUOUS
 62
           7
100
AcDbLine
 10
4582.268760408315
 20
2605.0
 11
4582.268760408315
 21
2643.0
  0
LINE
  5
373
100
AcDbEntity
  8
1
  6
CONTINUOUS
 62
           7
100
AcDbLine
 10
5646.464466094069
 20
2643.0
 11
5650.0
 21
2638.0
  0
LINE
  5
372
100
AcDbEntity
  8
1
  6
CONTINUOUS
 62
           7
100
AcDbLine
 10
5650.0
 20
2132.0
 11
5646.464466094069
 21
2127.0
  0
LINE
  5
371
100
AcDbEntity
  8
1
  6
CONTINUOUS
 62
           7
100
AcDbLine
 10
4582.268760408315
 20
2127.0
 11
4582.268760408315
 21
2165.0
  0
LINE
  5
370
100
AcDbEntity
  8
1
  6
CONTINUOUS
 62
           7
100
AcDbLine
 10
5650.0
 20
2605.0
 11
4582.268760408315
 21
2605.0
  0
LINE
  5
36F
100
AcDbEntity
  8
1
  6
CONTINUOUS
 62
           7
100
AcDbLine
 10
5650.0
 20
2165.0
 11
4582.268760408315
 21
2165.0
  0
LINE
  5
36E
100
AcDbEntity
  8
1
  6
CONTINUOUS
 62
           4
100
AcDbLine
 10
5450.000000000004
 20
2643.0
 11
5450.000000000004
 21
2643.999999999997
  0
LINE
  5
36D
100
AcDbEntity
  8
1
  6
CONTINUOUS
 62
           4
100
AcDbLine
 10
5450.000000000004
 20
2643.999999999997
 11
5444.993063735608
 21
2649.0
  0
LINE
  5
36C
100
AcDbEntity
  8
1
  6
CONTINUOUS
 62
           4
100
AcDbLine
 10
4915.0
 20
2649.0
 11
4910.0
 21
2643.999999999997
  0
LINE
  5
36B
100
AcDbEntity
  8
1
  6
CONTINUOUS
 62
           4
100
AcDbLine
 10
5444.993063735608
 20
2649.0
 11
4915.0
 21
2649.0
  0
LINE
  5
36A
100
AcDbEntity
  8
1
  6
CONTINUOUS
 62
           4
100
AcDbLine
 10
4910.0
 20
2643.999999999997
 11
4910.0
 21
2643.0
  0
LINE
  5
369
100
AcDbEntity
  8
0
  6
CONTINUOUS
 62
           7
100
AcDbLine
 10
5478.200000000001
 20
2081.0
 11
5478.200000000001
 21
2127.0
  0
LINE
  5
368
100
AcDbEntity
  8
0
  6
CONTINUOUS
 62
           7
100
AcDbLine
 10
4881.799999999999
 20
2127.0
 11
4881.799999999999
 21
2081.0
  0
LINE
  5
367
100
AcDbEntity
  8
0
  6
CONTINUOUS
 62
           7
100
AcDbLine
 10
5500.0
 20
2164.999999999997
 11
5434.211716344315
 21
2164.999999999997
  0
LINE
  5
366
100
AcDbEntity
  8
1
  6
CONTINUOUS
 62
           4
100
AcDbLine
 10
5520.0
 20
2081.0
 11
4840.0
 21
2081.0
  0
LINE
  5
365
100
AcDbEntity
  8
1
  6
CONTINUOUS
 62
           7
100
AcDbLine
 10
4840.0
 20
2075.0
 11
5520.0
 21
2075.0
  0
LINE
  5
364
100
AcDbEntity
  8
1
  6
CONTINUOUS
 62
           4
100
AcDbLine
 10
4840.0
 20
2081.0
 11
4840.0
 21
2075.0
  0
LINE
  5
363
100
AcDbEntity
  8
1
  6
CONTINUOUS
 62
           4
100
AcDbLine
 10
5520.0
 20
2075.0
 11
5520.0
 21
2081.0
  0
LINE
  5
362
100
AcDbEntity
  8
1
  6
CONTINUOUS
 62
           7
100
AcDbLine
 10
4620.010908476357
 20
2165.0
 11
4620.010908476357
 21
2605.0
  0
LINE
  5
361
100
AcDbEntity
  8
1
  6
DOT_CENTER
 62
           2
100
AcDbLine
 10
5180.0
 20
2041.28830218332
 11
5180.0
 21
3062.57476930189
  0
LINE
  5
360
100
AcDbEntity
  8
1
  6
CONTINUOUS
 62
           7
100
AcDbLine
 10
5280.0
 20
2643.0
 11
5280.0
 21
2605.0
  0
LINE
  5
35F
100
AcDbEntity
  8
1
  6
CONTINUOUS
 62
           7
100
AcDbLine
 10
5105.527778486357
 20
2643.0
 11
5105.527778486357
 21
2605.0
  0
LINE
  5
35E
100
AcDbEntity
  8
1
  6
CONTINUOUS
 62
           7
100
AcDbLine
 10
5280.0
 20
2643.0
 11
5646.464466094069
 21
2643.0
  0
LINE
  5
35D
100
AcDbEntity
  8
1
  6
CONTINUOUS
 62
           7
100
AcDbLine
 10
5555.0
 20
2642.700000000001
 11
5555.0
 21
2605.0
  0
LINE
  5
35C
100
AcDbEntity
  8
1
  6
CONTINUOUS
 62
           7
100
AcDbLine
 10
5555.0
 20
2165.0
 11
5555.0
 21
2127.0
  0
LINE
  5
35B
100
AcDbEntity
  8
1
  6
CONTINUOUS
 62
           7
100
AcDbLine
 10
5280.0
 20
2165.0
 11
5280.0
 21
2127.0
  0
LINE
  5
35A
100
AcDbEntity
  8
1
  6
CONTINUOUS
 62
           7
100
AcDbLine
 10
5105.527778486357
 20
2165.0
 11
5105.527778486357
 21
2127.0
  0
LINE
  5
359
100
AcDbEntity
  8
1
  6
CONTINUOUS
 62
           7
100
AcDbLine
 10
5105.527778486357
 20
2127.0
 11
4582.268760408315
 21
2127.0
  0
LINE
  5
358
100
AcDbEntity
  8
1
  6
CONTINUOUS
 62
           7
100
AcDbLine
 10
5243.5
 20
2804.299999999998
 11
5243.5
 21
2728.299999999998
  0
LINE
  5
357
100
AcDbEntity
  8
1
  6
CONTINUOUS
 62
           7
100
AcDbLine
 10
5116.5
 20
2728.299999999998
 11
5116.5
 21
2804.299999999998
  0
LINE
  5
356
100
AcDbEntity
  8
1
  6
CONTINUOUS
 62
           7
100
AcDbLine
 10
5128.5
 20
2816.299999999998
 11
5231.5
 21
2816.299999999998
  0
LINE
  5
355
100
AcDbEntity
  8
1
  6
CONTINUOUS
 62
           7
100
AcDbLine
 10
5231.5
 20
2716.299999999998
 11
5128.5
 21
2716.299999999998
  0
LINE
  5
354
100
AcDbEntity
  8
2
  6
CONTINUOUS
 62
           4
100
AcDbLine
 10
5289.242370399999
 20
2659.099999999999
 11
5067.757629600001
 21
2659.099999999999
  0
LINE
  5
353
100
AcDbEntity
  8
7
  6
CONTINUOUS
 62
           7
100
AcDbLine
 10
5305.0
 20
2953.231865248044
 11
5305.0
 21
2920.1868192
  0
LINE
  5
352
100
AcDbEntity
  8
7
  6
CONTINUOUS
 62
           7
100
AcDbLine
 10
5055.0
 20
2953.231865248044
 11
5058.600000000002
 21
2986.133628400001
  0
LINE
  5
351
100
AcDbEntity
  8
1
  6
CONTINUOUS
 62
           4
100
AcDbLine
 10
5305.0
 20
2953.231865248044
 11
5055.0
 21
2953.231865248044
  0
LINE
  5
350
100
AcDbEntity
  8
2
  6
CONTINUOUS
 62
           7
100
AcDbLine
 10
5067.757629600001
 20
2659.099999999999
 11
5054.503603199999
 21
2690.900000000002
  0
LINE
  5
34F
100
AcDbEntity
  8
2
  6
CONTINUOUS
 62
           7
100
AcDbLine
 10
5054.503603199999
 20
2782.150000000002
 11
5054.503603199999
 21
2690.900000000002
  0
LINE
  5
34E
100
AcDbEntity
  8
2
  6
CONTINUOUS
 62
           7
100
AcDbLine
 10
5060.255350799998
 20
2920.1868192
 11
5054.503603199999
 21
2906.3868192
  0
LINE
  5
34D
100
AcDbEntity
  8
2
  6
CONTINUOUS
 62
           7
100
AcDbLine
 10
5054.503603199999
 20
2782.150000000002
 11
5054.503603199999
 21
2906.3868192
  0
LINE
  5
34C
100
AcDbEntity
  8
2
  6
CONTINUOUS
 62
           4
100
AcDbLine
 10
5072.939999999999
 20
2659.099999999999
 11
5072.939999999999
 21
2649.0
  0
LINE
  5
34B
100
AcDbEntity
  8
2
  6
CONTINUOUS
 62
           7
100
AcDbLine
 10
5302.496396799998
 20
2906.386819200001
 11
5302.496396799998
 21
2782.150000000002
  0
LINE
  5
34A
100
AcDbEntity
  8
2
  6
CONTINUOUS
 62
           7
100
AcDbLine
 10
5302.496396799998
 20
2906.386819200001
 11
5296.744649199998
 21
2920.1868192
  0
LINE
  5
349
100
AcDbEntity
  8
2
  6
CONTINUOUS
 62
           7
100
AcDbLine
 10
5302.496396799998
 20
2690.900000000002
 11
5302.496396799998
 21
2782.150000000002
  0
LINE
  5
348
100
AcDbEntity
  8
2
  6
CONTINUOUS
 62
           7
100
AcDbLine
 10
5302.496396799998
 20
2690.900000000002
 11
5289.242370399999
 21
2659.099999999999
  0
LINE
  5
347
100
AcDbEntity
  8
7
  6
CONTINUOUS
 62
           7
100
AcDbLine
 10
5180.0
 20
3016.0
 11
5265.52
 21
3016.0
  0
LINE
  5
346
100
AcDbEntity
  8
7
  6
CONTINUOUS
 62
           7
100
AcDbLine
 10
5270.3834164
 20
3010.483396000001
 11
5295.131240799998
 21
2990.634035200002
  0
LINE
  5
345
100
AcDbEntity
  8
7
  6
CONTINUOUS
 62
           4
100
AcDbLine
 10
5059.809572400001
 20
2990.200000000002
 11
5297.560000000001
 21
2990.200000000002
  0
LINE
  5
344
100
AcDbEntity
  8
7
  6
CONTINUOUS
 62
           7
100
AcDbLine
 10
5301.399999999998
 20
2986.360000000002
 11
5305.0
 21
2953.231865248044
  0
LINE
  5
343
100
AcDbEntity
  8
7
  6
CONTINUOUS
 62
           7
100
AcDbLine
 10
5305.0
 20
2920.1868192
 11
5055.0
 21
2920.1868192
  0
LINE
  5
342
100
AcDbEntity
  8
7
  6
CONTINUOUS
 62
           7
100
AcDbLine
 10
5055.0
 20
2920.1868192
 11
5055.0
 21
2953.231865248044
  0
LINE
  5
341
100
AcDbEntity
  8
7
  6
CONTINUOUS
 62
           7
100
AcDbLine
 10
5180.0
 20
3016.0
 11
5091.48
 21
3016.0
  0
LINE
  5
340
100
AcDbEntity
  8
7
  6
CONTINUOUS
 62
           7
100
AcDbLine
 10
5086.616582399998
 20
3010.483396000001
 11
5062.022588399999
 21
2992.3957372
  0
LINE
  5
33F
100
AcDbEntity
  8
2
  6
CONTINUOUS
 62
           4
100
AcDbLine
 10
5284.060000000001
 20
2649.0
 11
5284.060000000001
 21
2659.099999999999
  0
LINE
  5
33E
100
AcDbEntity
  8
1
  6
DOT_CENTER
 62
           2
100
AcDbLine
 10
5790.588082276605
 20
2385.0
 11
4555.991794870068
 21
2385.0
  0
LINE
  5
33D
100
AcDbEntity
  8
1
  6
CONTINUOUS
 62
           7
100
AcDbLine
 10
395.844643417802
 20
2605.0
 11
395.844643417802
 21
2642.999999999998
  0
LINE
  5
33C
100
AcDbEntity
  8
1
  6
CONTINUOUS
 62
           4
100
AcDbLine
 10
183.572359068612
 20
2649.0
 11
180.3679198594
 21
2645.799999999999
  0
LINE
  5
33B
100
AcDbEntity
  8
1
  6
CONTINUOUS
 62
           7
100
AcDbLine
 10
-241.434577195777
 20
2645.0
 11
-241.434577195777
 21
2150.0
  0
LINE
  5
33A
100
AcDbEntity
  8
1
  6
CONTINUOUS
 62
           7
100
AcDbLine
 10
-241.434577195777
 20
2165.0
 11
-218.622769136512
 21
2165.0
  0
LINE
  5
339
100
AcDbEntity
  8
1
  6
CONTINUOUS
 62
           7
100
AcDbLine
 10
926.540012654772
 20
2605.0
 11
-210.434577195777
 21
2605.0
  0
LINE
  5
338
100
AcDbEntity
  8
1
  6
CONTINUOUS
 62
           7
100
AcDbLine
 10
926.540012654772
 20
2165.0
 11
-210.434577195777
 21
2164.999999999996
  0
LINE
  5
337
100
AcDbEntity
  8
1
  6
CONTINUOUS
 62
           2
100
AcDbLine
 10
-128.369472774719
 20
2205.000000000002
 11
180.023063684719
 21
2205.000000000002
  0
LINE
  5
336
100
AcDbEntity
  8
1
  6
CONTINUOUS
 62
           2
100
AcDbLine
 10
180.023063684719
 20
2205.000000000002
 11
180.023063684719
 21
2565.000000000004
  0
LINE
  5
335
100
AcDbEntity
  8
1
  6
CONTINUOUS
 62
           2
100
AcDbLine
 10
180.023063684719
 20
2565.000000000004
 11
-128.369472774719
 21
2565.000000000004
  0
LINE
  5
334
100
AcDbEntity
  8
1
  6
CONTINUOUS
 62
           2
100
AcDbLine
 10
-128.369472774719
 20
2565.000000000004
 11
-128.369472774719
 21
2205.000000000002
  0
LINE
  5
333
100
AcDbEntity
  8
1
  6
CONTINUOUS
 62
           7
100
AcDbLine
 10
-200.660586684832
 20
2642.999999999998
 11
919.103661495846
 21
2643.0
  0
LINE
  5
332
100
AcDbEntity
  8
1
  6
CONTINUOUS
 62
           7
100
AcDbLine
 10
919.103661495846
 20
2643.0
 11
919.103661495846
 21
2605.0
  0
LINE
  5
331
100
AcDbEntity
  8
1
  6
CONTINUOUS
 62
           7
100
AcDbLine
 10
919.103661495846
 20
2165.0
 11
919.103661495846
 21
2150.0
  0
LINE
  5
330
100
AcDbEntity
  8
1
  6
CONTINUOUS
 62
           4
100
AcDbLine
 10
718.56542280422
 20
2643.999999999997
 11
713.56542280422
 21
2649.0
  0
LINE
  5
32F
100
AcDbEntity
  8
1
  6
CONTINUOUS
 62
           4
100
AcDbLine
 10
713.56542280422
 20
2649.0
 11
183.572359068612
 21
2649.0
  0
LINE
  5
32E
100
AcDbEntity
  8
1
  6
CONTINUOUS
 62
           4
100
AcDbLine
 10
718.56542280422
 20
2643.0
 11
718.56542280422
 21
2643.999999999997
  0
LINE
  5
32D
100
AcDbEntity
  8
1
  6
CONTINUOUS
 62
           7
100
AcDbLine
 10
916.53948480483
 20
2605.0
 11
916.53948480483
 21
2165.0
  0
LINE
  5
32C
100
AcDbEntity
  8
1
  6
CONTINUOUS
 62
           7
100
AcDbLine
 10
-210.434577195777
 20
2645.0
 11
-241.434577195777
 21
2645.0
  0
LINE
  5
32B
100
AcDbEntity
  8
1
  6
CONTINUOUS
 62
           7
100
AcDbLine
 10
-218.867327992967
 20
2605.0
 11
-241.434577195777
 21
2605.0
  0
LINE
  5
32A
100
AcDbEntity
  8
1
  6
CONTINUOUS
 62
           7
100
AcDbLine
 10
-200.660586684832
 20
2605.0
 11
-200.660586684832
 21
2642.999999999998
  0
LINE
  5
329
100
AcDbEntity
  8
1
  6
CONTINUOUS
 62
           7
100
AcDbLine
 10
-200.434577195773
 20
2605.0
 11
-200.434577195773
 21
2164.999999999996
  0
LINE
  5
328
100
AcDbEntity
  8
1
  6
CONTINUOUS
 62
           7
100
AcDbLine
 10
-200.660586684832
 20
2164.999999999996
 11
-200.660586684832
 21
2150.0
  0
LINE
  5
327
100
AcDbEntity
  8
1
  6
CONTINUOUS
 62
           2
100
AcDbLine
 10
873.698533530478
 20
2565.000000000004
 11
873.698533530478
 21
2205.000000000002
  0
LINE
  5
326
100
AcDbEntity
  8
1
  6
CONTINUOUS
 62
           2
100
AcDbLine
 10
873.698533530478
 20
2205.000000000002
 11
916.53948480483
 21
2205.000000000004
  0
LINE
  5
325
100
AcDbEntity
  8
1
  6
CONTINUOUS
 62
           2
100
AcDbLine
 10
916.53948480483
 20
2565.000000000004
 11
873.698533530478
 21
2565.000000000004
  0
LINE
  5
324
100
AcDbEntity
  8
1
  6
DOT_CENTER
 62
           2
100
AcDbLine
 10
982.395112345637
 20
2385.000000000004
 11
-283.582253999563
 21
2385.0
  0
LINE
  5
323
100
AcDbEntity
  8
7
  6
CONTINUOUS
 62
           7
100
AcDbLine
 10
355.182005204222
 20
3010.483396
 11
330.588011204219
 21
2992.3957372
  0
LINE
  5
322
100
AcDbEntity
  8
7
  6
CONTINUOUS
 62
           7
100
AcDbLine
 10
448.56542280422
 20
3016.000000000001
 11
360.04542280422
 21
3016.000000000001
  0
LINE
  5
321
100
AcDbEntity
  8
7
  6
CONTINUOUS
 62
           7
100
AcDbLine
 10
323.565422804222
 20
2920.186819200001
 11
323.565422804222
 21
2953.231865248043
  0
LINE
  5
320
100
AcDbEntity
  8
7
  6
CONTINUOUS
 62
           7
100
AcDbLine
 10
573.56542280422
 20
2920.186819200001
 11
323.565422804222
 21
2920.186819200001
  0
LINE
  5
31F
100
AcDbEntity
  8
7
  6
CONTINUOUS
 62
           7
100
AcDbLine
 10
569.965422804221
 20
2986.360000000001
 11
573.56542280422
 21
2953.231865248043
  0
LINE
  5
31E
100
AcDbEntity
  8
7
  6
CONTINUOUS
 62
           4
100
AcDbLine
 10
328.374995204221
 20
2990.200000000002
 11
566.125422804221
 21
2990.200000000002
  0
LINE
  5
31D
100
AcDbEntity
  8
7
  6
CONTINUOUS
 62
           7
100
AcDbLine
 10
538.94883920422
 20
3010.483396
 11
563.696663604221
 21
2990.634035200002
  0
LINE
  5
31C
100
AcDbEntity
  8
7
  6
CONTINUOUS
 62
           7
100
AcDbLine
 10
448.56542280422
 20
3016.000000000001
 11
534.08542280422
 21
3016.000000000001
  0
LINE
  5
31B
100
AcDbEntity
  8
2
  6
CONTINUOUS
 62
           7
100
AcDbLine
 10
571.061819604221
 20
2690.900000000002
 11
557.807793204221
 21
2659.099999999999
  0
LINE
  5
31A
100
AcDbEntity
  8
2
  6
CONTINUOUS
 62
           7
100
AcDbLine
 10
571.061819604221
 20
2690.900000000002
 11
571.061819604221
 21
2766.150000000002
  0
LINE
  5
319
100
AcDbEntity
  8
2
  6
CONTINUOUS
 62
           7
100
AcDbLine
 10
571.061819604221
 20
2906.3868192
 11
565.31007200422
 21
2920.186819200001
  0
LINE
  5
318
100
AcDbEntity
  8
2
  6
CONTINUOUS
 62
           7
100
AcDbLine
 10
571.061819604221
 20
2906.3868192
 11
571.061819604221
 21
2766.150000000002
  0
LINE
  5
317
100
AcDbEntity
  8
2
  6
CONTINUOUS
 62
           4
100
AcDbLine
 10
552.625422804221
 20
2649.0
 11
552.625422804221
 21
2659.099999999999
  0
LINE
  5
316
100
AcDbEntity
  8
2
  6
CONTINUOUS
 62
           4
100
AcDbLine
 10
341.50542280422
 20
2659.099999999999
 11
341.50542280422
 21
2649.0
  0
LINE
  5
315
100
AcDbEntity
  8
2
  6
CONTINUOUS
 62
           7
100
AcDbLine
 10
323.069026004221
 20
2766.150000000002
 11
323.069026004221
 21
2906.386819199999
  0
LINE
  5
314
100
AcDbEntity
  8
2
  6
CONTINUOUS
 62
           7
100
AcDbLine
 10
328.820773604222
 20
2920.186819200001
 11
323.069026004221
 21
2906.386819199999
  0
LINE
  5
313
100
AcDbEntity
  8
2
  6
CONTINUOUS
 62
           7
100
AcDbLine
 10
323.069026004221
 20
2766.150000000002
 11
323.069026004221
 21
2690.900000000002
  0
LINE
  5
312
100
AcDbEntity
  8
2
  6
CONTINUOUS
 62
           7
100
AcDbLine
 10
336.323052404222
 20
2659.099999999999
 11
323.069026004221
 21
2690.900000000002
  0
LINE
  5
311
100
AcDbEntity
  8
1
  6
CONTINUOUS
 62
           4
100
AcDbLine
 10
573.56542280422
 20
2953.231865248043
 11
323.565422804222
 21
2953.231865248043
  0
LINE
  5
310
100
AcDbEntity
  8
7
  6
CONTINUOUS
 62
           7
100
AcDbLine
 10
323.565422804222
 20
2953.231865248043
 11
327.16542280422
 21
2986.133628400002
  0
LINE
  5
30F
100
AcDbEntity
  8
7
  6
CONTINUOUS
 62
           7
100
AcDbLine
 10
573.56542280422
 20
2953.231865248043
 11
573.56542280422
 21
2920.186819200001
  0
LINE
  5
30E
100
AcDbEntity
  8
2
  6
CONTINUOUS
 62
           4
100
AcDbLine
 10
557.807793204221
 20
2659.099999999999
 11
336.323052404222
 21
2659.099999999999
  0
LINE
  5
30D
100
AcDbEntity
  8
1
  6
CONTINUOUS
 62
           7
100
AcDbLine
 10
633.565422804222
 20
2716.299999999998
 11
583.061819604221
 21
2716.299999999998
  0
LINE
  5
30C
100
AcDbEntity
  8
1
  6
CONTINUOUS
 62
           7
100
AcDbLine
 10
583.061819604221
 20
2816.299999999998
 11
633.565422804222
 21
2816.299999999998
  0
LINE
  5
30B
100
AcDbEntity
  8
1
  6
CONTINUOUS
 62
           7
100
AcDbLine
 10
571.061819604221
 20
2728.299999999998
 11
571.061819604221
 21
2804.299999999998
  0
LINE
  5
30A
100
AcDbEntity
  8
1
  6
CONTINUOUS
 62
           7
100
AcDbLine
 10
645.565422804222
 20
2804.299999999998
 11
645.565422804222
 21
2728.299999999998
  0
LINE
  5
309
100
AcDbEntity
  8
1
  6
CONTINUOUS
 62
           7
100
AcDbLine
 10
395.844643417802
 20
2150.0
 11
395.844643417802
 21
2165.0
  0
LINE
  5
308
100
AcDbEntity
  8
1
  6
CONTINUOUS
 62
           7
100
AcDbLine
 10
664.565422804225
 20
5668.000000000001
 11
178.565422804223
 21
5668.000000000001
  0
LINE
  5
307
100
AcDbEntity
  8
1
  6
CONTINUOUS
 62
           7
100
AcDbLine
 10
232.565422804222
 20
5668.000000000001
 11
232.565422804223
 21
5181.999999999999
  0
LINE
  5
306
100
AcDbEntity
  8
1
  6
CONTINUOUS
 62
           7
100
AcDbLine
 10
232.565422804223
 20
5236.000000000001
 11
718.565422804224
 21
5236.000000000001
  0
LINE
  5
305
100
AcDbEntity
  8
1
  6
CONTINUOUS
 62
           7
100
AcDbLine
 10
664.56542280422
 20
5236.000000000001
 11
664.565422804224
 21
5721.999999999999
  0
LINE
  5
304
100
AcDbEntity
  8
1
  6
CONTINUOUS
 62
           7
100
AcDbLine
 10
-201.434577195778
 20
5451.999999999999
 11
-201.660586684832
 21
5451.773990510948
  0
LINE
  5
303
100
AcDbEntity
  8
1
  6
CONTINUOUS
 62
           7
100
AcDbLine
 10
391.602002730682
 20
4858.511401095432
 11
395.844643417802
 21
4854.268760408312
  0
LINE
  5
302
100
AcDbEntity
  8
1
  6
CONTINUOUS
 62
           7
100
AcDbLine
 10
395.844643417802
 20
4854.268760408312
 11
919.103661495846
 21
5377.527778486357
  0
LINE
  5
301
100
AcDbEntity
  8
1
  6
CONTINUOUS
 62
           7
100
AcDbLine
 10
-201.660586684832
 20
5451.773990510948
 11
-197.417945997712
 21
5447.531349823828
  0
LINE
  5
300
100
AcDbEntity
  8
1
  6
CONTINUOUS
 62
           7
100
AcDbLine
 10
268.565422804223
 20
5921.999999999999
 11
-201.434577195778
 21
5451.999999999999
  0
LINE
  5
2FF
100
AcDbEntity
  8
1
  6
CONTINUOUS
 62
           7
100
AcDbLine
 10
-197.417945997712
 20
5447.531349823828
 11
391.602002730682
 21
4858.511401095432
  0
LINE
  5
2FE
100
AcDbEntity
  8
1
  6
CONTINUOUS
 62
           7
100
AcDbLine
 10
893.565422804224
 20
5551.999999999999
 11
618.565423004283
 21
5826.999999999999
  0
LINE
  5
2FD
100
AcDbEntity
  8
1
  6
CONTINUOUS
 62
           7
100
AcDbLine
 10
-241.434577195777
 20
5961.999999999999
 11
-241.434577195777
 21
5926.999999999999
  0
LINE
  5
2FC
100
AcDbEntity
  8
1
  6
CONTINUOUS
 62
           7
100
AcDbLine
 10
-236.434577195777
 20
5921.999999999999
 11
-241.434577195777
 21
5926.999999999999
  0
LINE
  5
2FB
100
AcDbEntity
  8
1
  6
CONTINUOUS
 62
           7
100
AcDbLine
 10
-236.434577195777
 20
5921.999999999999
 11
483.565422804223
 21
5921.999999999999
  0
LINE
  5
2FA
100
AcDbEntity
  8
1
  6
CONTINUOUS
 62
           7
100
AcDbLine
 10
488.565422804223
 20
5926.999999999999
 11
483.565422804223
 21
5921.999999999999
  0
LINE
  5
2F9
100
AcDbEntity
  8
1
  6
CONTINUOUS
 62
           7
100
AcDbLine
 10
488.565422804223
 20
5926.999999999999
 11
488.565422804223
 21
5961.999999999999
  0
LINE
  5
2F8
100
AcDbEntity
  8
1
  6
CONTINUOUS
 62
           7
100
AcDbLine
 10
488.565422804223
 20
5961.999999999999
 11
488.565422804223
 21
5996.999999999999
  0
LINE
  5
2F7
100
AcDbEntity
  8
1
  6
CONTINUOUS
 62
           7
100
AcDbLine
 10
483.565422804223
 20
6001.999999999999
 11
488.565422804223
 21
5996.999999999999
  0
LINE
  5
2F6
100
AcDbEntity
  8
1
  6
CONTINUOUS
 62
           7
100
AcDbLine
 10
483.565422804223
 20
6001.999999999999
 11
-236.434577195777
 21
6001.999999999999
  0
LINE
  5
2F5
100
AcDbEntity
  8
1
  6
CONTINUOUS
 62
           7
100
AcDbLine
 10
-241.434577195777
 20
5996.999999999999
 11
-236.434577195777
 21
6001.999999999999
  0
LINE
  5
2F4
100
AcDbEntity
  8
1
  6
CONTINUOUS
 62
           7
100
AcDbLine
 10
-241.434577195777
 20
5996.999999999999
 11
-241.434577195777
 21
5961.999999999999
  0
LINE
  5
2F3
100
AcDbEntity
  8
1
  6
CONTINUOUS
 62
           7
100
AcDbLine
 10
-211.434577195777
 20
5901.999999999999
 11
-211.434577195777
 21
5501.999999999997
  0
LINE
  5
2F2
100
AcDbEntity
  8
1
  6
CONTINUOUS
 62
           7
100
AcDbLine
 10
480.440657145569
 20
5856.790474617624
 11
448.565422804222
 21
5911.999999999999
  0
LINE
  5
2F1
100
AcDbEntity
  8
1
  6
CONTINUOUS
 62
           7
100
AcDbLine
 10
-211.434577195777
 20
5901.999999999999
 11
-201.434577195777
 21
5911.999999999999
  0
LINE
  5
2F0
100
AcDbEntity
  8
1
  6
CONTINUOUS
 62
           7
100
AcDbLine
 10
-201.434577195777
 20
5921.999999999999
 11
-201.434577195777
 21
5911.999999999999
  0
LINE
  5
2EF
100
AcDbEntity
  8
1
  6
CONTINUOUS
 62
           7
100
AcDbLine
 10
448.565422804222
 20
5911.999999999999
 11
448.565422804223
 21
5921.999999999999
  0
LINE
  5
2EE
100
AcDbEntity
  8
1
  6
DOT_CENTER
 62
           2
100
AcDbLine
 10
123.565422804224
 20
6070.888968922948
 11
123.565422804224
 21
5830.045008217872
  0
LINE
  5
2ED
100
AcDbEntity
  8
1
  6
CONTINUOUS
 62
           4
100
AcDbLine
 10
488.565422804223
 20
5966.499999999999
 11
-241.434577195777
 21
5966.499999999999
  0
LINE
  5
2EC
100
AcDbEntity
  8
1
  6
CONTINUOUS
 62
           7
100
AcDbLine
 10
488.565422804223
 20
5961.999999999999
 11
-241.434577195777
 21
5961.999999999999
  0
LINE
  5
2EB
100
AcDbEntity
  8
1
  6
CONTINUOUS
 62
           4
100
AcDbLine
 10
-241.434577195777
 20
5957.499999999999
 11
488.565422804223
 21
5957.499999999999
  0
LINE
  5
2EA
100
AcDbEntity
  8
1
  6
CONTINUOUS
 62
           7
100
AcDbLine
 10
645.565422804222
 20
5503.499999999999
 11
645.565422804222
 21
5400.499999999999
  0
LINE
  5
2E9
100
AcDbEntity
  8
1
  6
CONTINUOUS
 62
           7
100
AcDbLine
 10
581.390389402417
 20
5400.499999999999
 11
581.390389402417
 21
5503.499999999999
  0
LINE
  5
2E8
100
AcDbEntity
  8
1
  6
CONTINUOUS
 62
           7
100
AcDbLine
 10
593.390389402417
 20
5515.499999999999
 11
633.565422804222
 21
5515.499999999999
  0
LINE
  5
2E7
100
AcDbEntity
  8
1
  6
CONTINUOUS
 62
           7
100
AcDbLine
 10
633.565422804222
 20
5388.499999999999
 11
593.390389402417
 21
5388.499999999999
  0
LINE
  5
2E6
100
AcDbEntity
  8
1
  6
CONTINUOUS
 62
           4
100
AcDbLine
 10
582.998084557004
 20
5509.499999999999
 11
566.474125566266
 21
5509.499999999999
  0
LINE
  5
2E5
100
AcDbEntity
  8
1
  6
CONTINUOUS
 62
           4
100
AcDbLine
 10
582.998084557004
 20
5394.499999999999
 11
566.474125566266
 21
5394.499999999999
  0
LINE
  5
2E4
100
AcDbEntity
  8
1
  6
CONTINUOUS
 62
           3
100
AcDbLine
 10
5037.499999999999
 20
1921.000000000001
 11
4889.899998122323
 21
1921.000000000001
  0
LINE
  5
2E3
100
AcDbEntity
  8
1
  6
CONTINUOUS
 62
           3
100
AcDbLine
 10
5037.499999999999
 20
1929.0
 11
4889.89999681093
 21
1929.0
  0
LINE
  5
2E2
100
AcDbEntity
  8
0
  6
CONTINUOUS
 62
           3
100
AcDbLine
 10
4509.899996632412
 20
1314.999997615956
 11
4509.899996632412
 21
1364.999994635816
  0
LINE
  5
2E1
100
AcDbEntity
  8
0
  6
CONTINUOUS
 62
           3
100
AcDbLine
 10
4550.126493853973
 20
1355.446577072223
 11
4550.899996833471
 21
1355.000004172322
  0
LINE
  5
2E0
100
AcDbEntity
  8
0
  6
CONTINUOUS
 62
           3
100
AcDbLine
 10
4560.899996609865
 20
1355.000004172322
 11
4561.673499589364
 21
1355.446577072223
  0
LINE
  5
2DF
100
AcDbEntity
  8
0
  6
CONTINUOUS
 62
           3
100
AcDbLine
 10
4550.899996833471
 20
1359.999999403922
 11
4550.126493853973
 21
1359.553411603021
  0
LINE
  5
2DE
100
AcDbEntity
  8
0
  6
CONTINUOUS
 62
           3
100
AcDbLine
 10
4561.673499589364
 20
1359.553411603021
 11
4560.899996609865
 21
1359.999999403922
  0
LINE
  5
2DD
100
AcDbEntity
  8
0
  6
CONTINUOUS
 62
           3
100
AcDbLine
 10
4550.899996833471
 20
1364.999994635816
 11
4550.126493853973
 21
1364.553421735915
  0
LINE
  5
2DC
100
AcDbEntity
  8
0
  6
CONTINUOUS
 62
           3
100
AcDbLine
 10
4561.673499589364
 20
1364.553421735915
 11
4560.899996609865
 21
1364.999994635816
  0
LINE
  5
2DB
100
AcDbEntity
  8
0
  6
CONTINUOUS
 62
           3
100
AcDbLine
 10
4560.899996609865
 20
1359.999999403922
 11
4561.673499589364
 21
1360.446587205121
  0
LINE
  5
2DA
100
AcDbEntity
  8
0
  6
CONTINUOUS
 62
           3
100
AcDbLine
 10
4550.126493853973
 20
1360.446587205121
 11
4550.899996833471
 21
1359.999999403922
  0
LINE
  5
2D9
100
AcDbEntity
  8
0
  6
CONTINUOUS
 62
           3
100
AcDbLine
 10
4550.899996833471
 20
1377.599999308604
 11
4550.126493853973
 21
1377.153418958205
  0
LINE
  5
2D8
100
AcDbEntity
  8
0
  6
CONTINUOUS
 62
           3
100
AcDbLine
 10
4561.673499589364
 20
1377.153418958205
 11
4560.899996609865
 21
1377.599999308604
  0
LINE
  5
2D7
100
AcDbEntity
  8
0
  6
CONTINUOUS
 62
           3
100
AcDbLine
 10
4560.899996609865
 20
1372.60000407701
 11
4561.673499589364
 21
1373.046576976912
  0
LINE
  5
2D6
100
AcDbEntity
  8
0
  6
CONTINUOUS
 62
           3
100
AcDbLine
 10
4550.126493853973
 20
1373.046576976912
 11
4550.899996833471
 21
1372.60000407701
  0
LINE
  5
2D5
100
AcDbEntity
  8
0
  6
CONTINUOUS
 62
           3
100
AcDbLine
 10
4550.899996833471
 20
1372.60000407701
 11
4550.126493853973
 21
1372.153416276109
  0
LINE
  5
2D4
100
AcDbEntity
  8
0
  6
CONTINUOUS
 62
           3
100
AcDbLine
 10
4561.673499589364
 20
1372.153416276109
 11
4560.899996609865
 21
1372.60000407701
  0
LINE
  5
2D3
100
AcDbEntity
  8
0
  6
CONTINUOUS
 62
           3
100
AcDbLine
 10
4560.899996609865
 20
1367.599993944113
 11
4561.673499589364
 21
1368.046581745312
  0
LINE
  5
2D2
100
AcDbEntity
  8
0
  6
CONTINUOUS
 62
           3
100
AcDbLine
 10
4550.126493853973
 20
1368.046581745312
 11
4550.899996833471
 21
1367.599993944113
  0
LINE
  5
2D1
100
AcDbEntity
  8
0
  6
CONTINUOUS
 62
           3
100
AcDbLine
 10
4601.89999681093
 20
1641.0
 11
4601.89999681093
 21
1635.000005364196
  0
LINE
  5
2D0
100
AcDbEntity
  8
0
  6
CONTINUOUS
 62
           3
100
AcDbLine
 10
4601.89999681093
 20
1633.399993180997
 11
4601.89999681093
 21
1550.000000744964
  0
LINE
  5
2CF
100
AcDbEntity
  8
0
  6
CONTINUOUS
 62
           3
100
AcDbLine
 10
4601.89999681093
 20
1548.799999058066
 11
4601.89999681093
 21
1391.199998557593
  0
LINE
  5
2CE
100
AcDbEntity
  8
0
  6
CONTINUOUS
 62
           3
100
AcDbLine
 10
4601.89999681093
 20
1390.000000596097
 11
4601.89999681093
 21
1366.600006818713
  0
LINE
  5
2CD
100
AcDbEntity
  8
0
  6
CONTINUOUS
 62
           3
100
AcDbLine
 10
4601.89999681093
 20
1364.999994635816
 11
4601.89999681093
 21
1314.999997615956
  0
LINE
  5
2CC
100
AcDbEntity
  8
0
  6
CONTINUOUS
 62
           3
100
AcDbLine
 10
4609.899998122325
 20
1314.999997615956
 11
4609.899998122325
 21
1364.999994635816
  0
LINE
  5
2CB
100
AcDbEntity
  8
0
  6
CONTINUOUS
 62
           3
100
AcDbLine
 10
4609.899998122325
 20
1366.600006818713
 11
4609.899998122325
 21
1390.000000596097
  0
LINE
  5
2CA
100
AcDbEntity
  8
0
  6
CONTINUOUS
 62
           3
100
AcDbLine
 10
4609.899998122325
 20
1391.199998557593
 11
4609.899998122325
 21
1548.799999058066
  0
LINE
  5
2C9
100
AcDbEntity
  8
0
  6
CONTINUOUS
 62
           3
100
AcDbLine
 10
4609.899998122325
 20
1550.000000744964
 11
4609.899998122325
 21
1633.399993180997
  0
LINE
  5
2C8
100
AcDbEntity
  8
0
  6
CONTINUOUS
 62
           3
100
AcDbLine
 10
4609.899998122325
 20
1635.000005364196
 11
4609.899998122325
 21
1641.000000000001
  0
LINE
  5
2C7
100
AcDbEntity
  8
0
  6
CONTINUOUS
 62
           3
100
AcDbLine
 10
4501.899995321012
 20
1665.000006556369
 11
4501.899995321012
 21
1635.000005364196
  0
LINE
  5
2C6
100
AcDbEntity
  8
0
  6
CONTINUOUS
 62
           3
100
AcDbLine
 10
4501.899995321012
 20
1633.399993180997
 11
4501.899995321012
 21
1550.000000744964
  0
LINE
  5
2C5
100
AcDbEntity
  8
0
  6
CONTINUOUS
 62
           3
100
AcDbLine
 10
4501.899995321012
 20
1548.799999058066
 11
4501.899995321012
 21
1391.199998557593
  0
LINE
  5
2C4
100
AcDbEntity
  8
0
  6
CONTINUOUS
 62
           3
100
AcDbLine
 10
4501.899995321012
 20
1390.000000596097
 11
4501.899995321012
 21
1366.600006818713
  0
LINE
  5
2C3
100
AcDbEntity
  8
0
  6
CONTINUOUS
 62
           3
100
AcDbLine
 10
4501.899995321012
 20
1364.999994635816
 11
4501.899995321012
 21
1314.999997615956
  0
LINE
  5
2C2
100
AcDbEntity
  8
0
  6
CONTINUOUS
 62
           3
100
AcDbLine
 10
4509.899996632412
 20
1366.600006818713
 11
4509.899996632412
 21
1390.000000596097
  0
LINE
  5
2C1
100
AcDbEntity
  8
0
  6
CONTINUOUS
 62
           3
100
AcDbLine
 10
4509.899996632412
 20
1391.199998557593
 11
4509.899996632412
 21
1548.799999058066
  0
LINE
  5
2C0
100
AcDbEntity
  8
0
  6
CONTINUOUS
 62
           3
100
AcDbLine
 10
4509.899996632412
 20
1550.000000744964
 11
4509.899996632412
 21
1633.399993180997
  0
LINE
  5
2BF
100
AcDbEntity
  8
0
  6
CONTINUOUS
 62
           3
100
AcDbLine
 10
4509.899996632412
 20
1635.000005364196
 11
4509.899996632412
 21
1665.000006556369
  0
LINE
  5
2BE
100
AcDbEntity
  8
0
  6
CONTINUOUS
 62
           3
100
AcDbLine
 10
4558.899996747762
 20
1366.600006818713
 11
4558.899996747762
 21
1367.599993944113
  0
LINE
  5
2BD
100
AcDbEntity
  8
0
  6
CONTINUOUS
 62
           3
100
AcDbLine
 10
4558.899996747762
 20
1377.599999308604
 11
4558.899996747762
 21
1384.199999272901
  0
LINE
  5
2BC
100
AcDbEntity
  8
0
  6
CONTINUOUS
 62
           3
100
AcDbLine
 10
4558.899996747762
 20
1390.000000596097
 11
4558.899996747762
 21
1392.957426607594
  0
LINE
  5
2BB
100
AcDbEntity
  8
0
  6
CONTINUOUS
 62
           3
100
AcDbLine
 10
4558.899996747762
 20
1394.792847335491
 11
4558.899996747762
 21
1633.399993180997
  0
LINE
  5
2BA
100
AcDbEntity
  8
0
  6
CONTINUOUS
 62
           3
100
AcDbLine
 10
4558.899996747762
 20
1635.000005364196
 11
4558.899996747762
 21
1637.422651052293
  0
LINE
  5
2B9
100
AcDbEntity
  8
0
  6
CONTINUOUS
 62
           3
100
AcDbLine
 10
4552.899996695575
 20
1637.422651052293
 11
4552.899996695575
 21
1635.000005364196
  0
LINE
  5
2B8
100
AcDbEntity
  8
0
  6
CONTINUOUS
 62
           3
100
AcDbLine
 10
4552.899996695575
 20
1633.399993180997
 11
4552.899996695575
 21
1394.792847335491
  0
LINE
  5
2B7
100
AcDbEntity
  8
0
  6
CONTINUOUS
 62
           3
100
AcDbLine
 10
4552.899996695575
 20
1392.957426607594
 11
4552.899996695575
 21
1390.000000596097
  0
LINE
  5
2B6
100
AcDbEntity
  8
0
  6
CONTINUOUS
 62
           3
100
AcDbLine
 10
4552.899996695575
 20
1384.199999272901
 11
4552.899996695575
 21
1377.599999308604
  0
LINE
  5
2B5
100
AcDbEntity
  8
0
  6
CONTINUOUS
 62
           3
100
AcDbLine
 10
4552.899996695575
 20
1367.599993944113
 11
4552.899996695575
 21
1366.600006818713
  0
LINE
  5
2B4
100
AcDbEntity
  8
0
  6
CONTINUOUS
 62
           3
100
AcDbLine
 10
4558.899996747762
 20
1637.422651052293
 11
4557.899996816558
 21
1638.422653078993
  0
LINE
  5
2B3
100
AcDbEntity
  8
0
  6
CONTINUOUS
 62
           3
100
AcDbLine
 10
4553.899996626773
 20
1638.422653078993
 11
4552.899996695575
 21
1637.422651052293
  0
LINE
  5
2B2
100
AcDbEntity
  8
0
  6
CONTINUOUS
 62
           3
100
AcDbLine
 10
4552.399996613575
 20
1394.799999892893
 11
4547.899996341774
 21
1394.799999892893
  0
LINE
  5
2B1
100
AcDbEntity
  8
0
  6
CONTINUOUS
 62
           3
100
AcDbLine
 10
4563.899997101562
 20
1394.799999892893
 11
4559.399996829762
 21
1394.799999892893
  0
LINE
  5
2B0
100
AcDbEntity
  8
0
  6
CONTINUOUS
 62
           3
100
AcDbLine
 10
4549.426494029871
 20
1389.099999999995
 11
4562.37349941346
 21
1389.099999999995
  0
LINE
  5
2AF
100
AcDbEntity
  8
0
  6
CONTINUOUS
 62
           3
100
AcDbLine
 10
4498.899996692008
 20
1393.799997866195
 11
4501.899995321012
 21
1393.799997866195
  0
LINE
  5
2AE
100
AcDbEntity
  8
0
  6
CONTINUOUS
 62
           3
100
AcDbLine
 10
4509.899996632412
 20
1393.799997866195
 11
4547.899996341774
 21
1393.799997866195
  0
LINE
  5
2AD
100
AcDbEntity
  8
0
  6
CONTINUOUS
 62
           3
100
AcDbLine
 10
4563.899997101562
 20
1393.799997866195
 11
4601.89999681093
 21
1393.799997866195
  0
LINE
  5
2AC
100
AcDbEntity
  8
0
  6
CONTINUOUS
 62
           3
100
AcDbLine
 10
4609.899998122325
 20
1393.799997866195
 11
4612.899996751323
 21
1393.799997866195
  0
LINE
  5
2AB
100
AcDbEntity
  8
0
  6
CONTINUOUS
 62
           3
100
AcDbLine
 10
4498.899996692008
 20
1543.800000101368
 11
4498.899996692008
 21
1393.799997866195
  0
LINE
  5
2AA
100
AcDbEntity
  8
0
  6
CONTINUOUS
 62
           3
100
AcDbLine
 10
4612.899996751323
 20
1543.800000101368
 11
4609.899998122325
 21
1543.800000101368
  0
LINE
  5
2A9
100
AcDbEntity
  8
0
  6
CONTINUOUS
 62
           3
100
AcDbLine
 10
4601.89999681093
 20
1543.800000101368
 11
4558.899996747762
 21
1543.800000101368
  0
LINE
  5
2A8
100
AcDbEntity
  8
0
  6
CONTINUOUS
 62
           3
100
AcDbLine
 10
4552.899996695575
 20
1543.800000101368
 11
4509.899996632412
 21
1543.800000101368
  0
LINE
  5
2A7
100
AcDbEntity
  8
0
  6
CONTINUOUS
 62
           3
100
AcDbLine
 10
4501.899995321012
 20
1543.800000101368
 11
4498.899996692008
 21
1543.800000101368
  0
LINE
  5
2A6
100
AcDbEntity
  8
0
  6
CONTINUOUS
 62
           3
100
AcDbLine
 10
4612.899996751323
 20
1393.799997866195
 11
4612.899996751323
 21
1543.800000101368
  0
LINE
  5
2A5
100
AcDbEntity
  8
0
  6
CONTINUOUS
 62
           3
100
AcDbLine
 10
4558.786748155361
 20
1355.446577072223
 11
4558.786748155501
 21
1359.553411603068
  0
LINE
  5
2A4
100
AcDbEntity
  8
0
  6
CONTINUOUS
 62
           3
100
AcDbLine
 10
4558.786748155361
 20
1355.446577072223
 11
4555.899996721674
 21
1355.000004172322
  0
LINE
  5
2A3
100
AcDbEntity
  8
0
  6
CONTINUOUS
 62
           3
100
AcDbLine
 10
4553.013245287843
 20
1355.446577072243
 11
4553.01324528797
 21
1359.553411603021
  0
LINE
  5
2A2
100
AcDbEntity
  8
0
  6
CONTINUOUS
 62
           3
100
AcDbLine
 10
4553.01324528797
 20
1359.553411603021
 11
4555.899996721674
 21
1359.999999404048
  0
LINE
  5
2A1
100
AcDbEntity
  8
0
  6
CONTINUOUS
 62
           3
100
AcDbLine
 10
4555.899996721674
 20
1355.000004172322
 11
4560.230123756003
 21
1355.00000417242
  0
LINE
  5
2A0
100
AcDbEntity
  8
0
  6
CONTINUOUS
 62
           3
100
AcDbLine
 10
4551.569869687345
 20
1355.00000417242
 11
4555.899996721674
 21
1355.000004172322
  0
LINE
  5
29F
100
AcDbEntity
  8
0
  6
CONTINUOUS
 62
           3
100
AcDbLine
 10
4551.569869687345
 20
1359.999999404048
 11
4555.899996721674
 21
1359.999999404048
  0
LINE
  5
29E
100
AcDbEntity
  8
0
  6
CONTINUOUS
 62
           3
100
AcDbLine
 10
4558.786748155501
 20
1359.553411603068
 11
4560.230123755963
 21
1359.999999403922
  0
LINE
  5
29D
100
AcDbEntity
  8
0
  6
CONTINUOUS
 62
           3
100
AcDbLine
 10
4555.899996721674
 20
1359.999999404048
 11
4560.230123755963
 21
1359.999999403922
  0
LINE
  5
29C
100
AcDbEntity
  8
0
  6
CONTINUOUS
 62
           3
100
AcDbLine
 10
4550.126493853973
 20
1355.446577072223
 11
4550.126493853973
 21
1359.553411603021
  0
LINE
  5
29B
100
AcDbEntity
  8
0
  6
CONTINUOUS
 62
           3
100
AcDbLine
 10
4561.673499589364
 20
1355.446577072223
 11
4561.673499589364
 21
1359.553411603021
  0
LINE
  5
29A
100
AcDbEntity
  8
0
  6
CONTINUOUS
 62
           3
100
AcDbLine
 10
4561.673499589364
 20
1355.446577072223
 11
4560.230123756003
 21
1355.00000417242
  0
LINE
  5
299
100
AcDbEntity
  8
0
  6
CONTINUOUS
 62
           3
100
AcDbLine
 10
4550.899996833471
 20
1355.000004172322
 11
4551.569869687345
 21
1355.00000417242
  0
LINE
  5
298
100
AcDbEntity
  8
0
  6
CONTINUOUS
 62
           3
100
AcDbLine
 10
4560.899996609865
 20
1355.000004172322
 11
4560.230123756003
 21
1355.00000417242
  0
LINE
  5
297
100
AcDbEntity
  8
0
  6
CONTINUOUS
 62
           3
100
AcDbLine
 10
4550.899996833471
 20
1359.999999403922
 11
4551.569869687345
 21
1359.999999404048
  0
LINE
  5
296
100
AcDbEntity
  8
0
  6
CONTINUOUS
 62
           3
100
AcDbLine
 10
4558.786748155501
 20
1364.553421735858
 11
4558.786748155361
 21
1360.446587205121
  0
LINE
  5
295
100
AcDbEntity
  8
0
  6
CONTINUOUS
 62
           3
100
AcDbLine
 10
4553.013245287843
 20
1364.553421735858
 11
4553.013245287843
 21
1360.446587205024
  0
LINE
  5
294
100
AcDbEntity
  8
0
  6
CONTINUOUS
 62
           3
100
AcDbLine
 10
4561.673499589364
 20
1364.553421735915
 11
4560.230123756003
 21
1364.999994635673
  0
LINE
  5
293
100
AcDbEntity
  8
0
  6
CONTINUOUS
 62
           3
100
AcDbLine
 10
4561.673499589364
 20
1364.553421735915
 11
4561.673499589364
 21
1360.446587205121
  0
LINE
  5
292
100
AcDbEntity
  8
0
  6
CONTINUOUS
 62
           3
100
AcDbLine
 10
4558.786748155361
 20
1360.446587205121
 11
4560.230123755963
 21
1359.999999403922
  0
LINE
  5
291
100
AcDbEntity
  8
0
  6
CONTINUOUS
 62
           3
100
AcDbLine
 10
4553.013245287843
 20
1364.553421735858
 11
4551.569869687345
 21
1364.999994635673
  0
LINE
  5
290
100
AcDbEntity
  8
0
  6
CONTINUOUS
 62
           3
100
AcDbLine
 10
4550.126493853973
 20
1360.446587205121
 11
4551.569869687345
 21
1359.999999404048
  0
LINE
  5
28F
100
AcDbEntity
  8
0
  6
CONTINUOUS
 62
           3
100
AcDbLine
 10
4550.126493853973
 20
1364.553421735915
 11
4550.126493853973
 21
1360.446587205121
  0
LINE
  5
28E
100
AcDbEntity
  8
0
  6
CONTINUOUS
 62
           3
100
AcDbLine
 10
4558.786748155501
 20
1377.153418958267
 11
4558.786748155361
 21
1373.046576976912
  0
LINE
  5
28D
100
AcDbEntity
  8
0
  6
CONTINUOUS
 62
           3
100
AcDbLine
 10
4553.013245287843
 20
1377.153418958267
 11
4553.013245287843
 21
1373.04657697686
  0
LINE
  5
28C
100
AcDbEntity
  8
0
  6
CONTINUOUS
 62
           3
100
AcDbLine
 10
4561.673499589364
 20
1377.153418958205
 11
4560.230123756003
 21
1377.599999308666
  0
LINE
  5
28B
100
AcDbEntity
  8
0
  6
CONTINUOUS
 62
           3
100
AcDbLine
 10
4561.673499589364
 20
1377.153418958205
 11
4561.673499589364
 21
1373.046576976912
  0
LINE
  5
28A
100
AcDbEntity
  8
0
  6
CONTINUOUS
 62
           3
100
AcDbLine
 10
4558.786748155361
 20
1373.046576976912
 11
4560.230123756003
 21
1372.600004077041
  0
LINE
  5
289
100
AcDbEntity
  8
0
  6
CONTINUOUS
 62
           3
100
AcDbLine
 10
4560.230123756003
 20
1377.599999308666
 11
4555.899996721674
 21
1377.599999308666
  0
LINE
  5
288
100
AcDbEntity
  8
0
  6
CONTINUOUS
 62
           3
100
AcDbLine
 10
4553.013245287843
 20
1377.153418958267
 11
4551.569869687345
 21
1377.599999308666
  0
LINE
  5
287
100
AcDbEntity
  8
0
  6
CONTINUOUS
 62
           3
100
AcDbLine
 10
4550.126493853973
 20
1373.046576976912
 11
4551.569869687345
 21
1372.600004077041
  0
LINE
  5
286
100
AcDbEntity
  8
0
  6
CONTINUOUS
 62
           3
100
AcDbLine
 10
4550.126493853973
 20
1377.153418958205
 11
4550.126493853973
 21
1373.046576976912
  0
LINE
  5
285
100
AcDbEntity
  8
0
  6
CONTINUOUS
 62
           3
100
AcDbLine
 10
4555.899996721674
 20
1377.599999308666
 11
4551.569869687345
 21
1377.599999308666
  0
LINE
  5
284
100
AcDbEntity
  8
0
  6
CONTINUOUS
 62
           3
100
AcDbLine
 10
4560.230123756003
 20
1372.600004077041
 11
4555.899996721674
 21
1372.600004077041
  0
LINE
  5
283
100
AcDbEntity
  8
0
  6
CONTINUOUS
 62
           3
100
AcDbLine
 10
4555.899996721674
 20
1372.600004077041
 11
4551.569869687345
 21
1372.600004077041
  0
LINE
  5
282
100
AcDbEntity
  8
0
  6
CONTINUOUS
 62
           3
100
AcDbLine
 10
4551.569869687345
 20
1377.599999308666
 11
4550.899996833471
 21
1377.599999308604
  0
LINE
  5
281
100
AcDbEntity
  8
0
  6
CONTINUOUS
 62
           3
100
AcDbLine
 10
4560.899996609865
 20
1377.599999308604
 11
4560.230123756003
 21
1377.599999308666
  0
LINE
  5
280
100
AcDbEntity
  8
0
  6
CONTINUOUS
 62
           3
100
AcDbLine
 10
4560.899996609865
 20
1372.60000407701
 11
4560.230123756003
 21
1372.600004077041
  0
LINE
  5
27F
100
AcDbEntity
  8
0
  6
CONTINUOUS
 62
           3
100
AcDbLine
 10
4558.786748155501
 20
1372.153416276063
 11
4558.786748155361
 21
1368.046581745312
  0
LINE
  5
27E
100
AcDbEntity
  8
0
  6
CONTINUOUS
 62
           3
100
AcDbLine
 10
4553.013245287843
 20
1372.153416276063
 11
4553.013245287843
 21
1368.046581745235
  0
LINE
  5
27D
100
AcDbEntity
  8
0
  6
CONTINUOUS
 62
           3
100
AcDbLine
 10
4561.673499589364
 20
1372.153416276109
 11
4560.230123756003
 21
1372.600004077041
  0
LINE
  5
27C
100
AcDbEntity
  8
0
  6
CONTINUOUS
 62
           3
100
AcDbLine
 10
4561.673499589364
 20
1372.153416276109
 11
4561.673499589364
 21
1368.046581745312
  0
LINE
  5
27B
100
AcDbEntity
  8
0
  6
CONTINUOUS
 62
           3
100
AcDbLine
 10
4558.786748155361
 20
1368.046581745312
 11
4560.230123756003
 21
1367.599993944256
  0
LINE
  5
27A
100
AcDbEntity
  8
0
  6
CONTINUOUS
 62
           3
100
AcDbLine
 10
4553.013245287843
 20
1372.153416276063
 11
4551.569869687345
 21
1372.600004077041
  0
LINE
  5
279
100
AcDbEntity
  8
0
  6
CONTINUOUS
 62
           3
100
AcDbLine
 10
4550.126493853973
 20
1368.046581745312
 11
4551.569869687345
 21
1367.599993944256
  0
LINE
  5
278
100
AcDbEntity
  8
0
  6
CONTINUOUS
 62
           3
100
AcDbLine
 10
4550.126493853973
 20
1372.153416276109
 11
4550.126493853973
 21
1368.046581745312
  0
LINE
  5
277
100
AcDbEntity
  8
0
  6
CONTINUOUS
 62
           3
100
AcDbLine
 10
4555.899996721674
 20
1367.599993944256
 11
4551.569869687345
 21
1367.599993944256
  0
LINE
  5
276
100
AcDbEntity
  8
0
  6
CONTINUOUS
 62
           3
100
AcDbLine
 10
4560.230123756003
 20
1367.599993944256
 11
4555.899996721674
 21
1367.599993944256
  0
LINE
  5
275
100
AcDbEntity
  8
0
  6
CONTINUOUS
 62
           3
100
AcDbLine
 10
4551.569869687345
 20
1372.600004077041
 11
4550.899996833471
 21
1372.60000407701
  0
LINE
  5
274
100
AcDbEntity
  8
0
  6
CONTINUOUS
 62
           3
100
AcDbLine
 10
4560.899996609865
 20
1367.599993944113
 11
4560.230123756003
 21
1367.599993944256
  0
LINE
  5
273
100
AcDbEntity
  8
0
  6
CONTINUOUS
 62
           3
100
AcDbLine
 10
4551.569869687345
 20
1367.599993944256
 11
4550.899996833471
 21
1367.599993944113
  0
LINE
  5
272
100
AcDbEntity
  8
0
  6
CONTINUOUS
 62
           3
100
AcDbLine
 10
4505.89999597671
 20
1665.000006556369
 11
4509.899996632412
 21
1665.000006556369
  0
LINE
  5
271
100
AcDbEntity
  8
0
  6
CONTINUOUS
 62
           3
100
AcDbLine
 10
4501.899995321012
 20
1665.000006556369
 11
4505.89999597671
 21
1665.000006556369
  0
LINE
  5
270
100
AcDbEntity
  8
0
  6
CONTINUOUS
 62
           3
100
AcDbLine
 10
4552.899996695575
 20
1637.422651052293
 11
4558.899996747762
 21
1637.422651052293
  0
LINE
  5
26F
100
AcDbEntity
  8
0
  6
CONTINUOUS
 62
           3
100
AcDbLine
 10
4557.899996816558
 20
1638.422653078993
 11
4553.899996626773
 21
1638.422653078993
  0
LINE
  5
26E
100
AcDbEntity
  8
0
  6
CONTINUOUS
 62
           3
100
AcDbLine
 10
4563.899997101562
 20
1389.200001954996
 11
4559.399996829762
 21
1389.200001954996
  0
LINE
  5
26D
100
AcDbEntity
  8
0
  6
CONTINUOUS
 62
           3
100
AcDbLine
 10
4552.399996613575
 20
1394.792847335491
 11
4559.399996829762
 21
1394.792847335491
  0
LINE
  5
26C
100
AcDbEntity
  8
0
  6
CONTINUOUS
 62
           3
100
AcDbLine
 10
4552.399996613575
 20
1389.200001954996
 11
4547.899996341774
 21
1389.200001954996
  0
LINE
  5
26B
100
AcDbEntity
  8
0
  6
CONTINUOUS
 62
           3
100
AcDbLine
 10
4559.399996829762
 20
1394.799999892893
 11
4559.399996829762
 21
1389.200001954996
  0
LINE
  5
26A
100
AcDbEntity
  8
0
  6
CONTINUOUS
 62
           3
100
AcDbLine
 10
4552.399996613575
 20
1389.200001954996
 11
4552.399996613575
 21
1394.799999892893
  0
LINE
  5
269
100
AcDbEntity
  8
0
  6
CONTINUOUS
 62
           3
100
AcDbLine
 10
4547.899996341774
 20
1394.799999892893
 11
4547.899996341774
 21
1389.200001954996
  0
LINE
  5
268
100
AcDbEntity
  8
0
  6
CONTINUOUS
 62
           3
100
AcDbLine
 10
4563.899997101562
 20
1394.799999892893
 11
4563.899997101562
 21
1389.200001954996
  0
LINE
  5
267
100
AcDbEntity
  8
0
  6
CONTINUOUS
 62
           3
100
AcDbLine
 10
4559.399996829762
 20
1392.246469855294
 11
4558.899996747762
 21
1392.246469855294
  0
LINE
  5
266
100
AcDbEntity
  8
0
  6
CONTINUOUS
 62
           3
100
AcDbLine
 10
4552.899996695575
 20
1392.246469855294
 11
4552.399996613575
 21
1392.246469855294
  0
LINE
  5
265
100
AcDbEntity
  8
0
  6
CONTINUOUS
 62
           3
100
AcDbLine
 10
4559.399996829762
 20
1393.990144133492
 11
4552.399996613575
 21
1393.990144133492
  0
LINE
  5
264
100
AcDbEntity
  8
0
  6
CONTINUOUS
 62
           3
100
AcDbLine
 10
4552.399996613575
 20
1390.000000596097
 11
4559.399996829762
 21
1390.000000596097
  0
LINE
  5
263
100
AcDbEntity
  8
0
  6
CONTINUOUS
 62
           3
100
AcDbLine
 10
4552.399996613575
 20
1389.200001954996
 11
4559.399996829762
 21
1389.200001954996
  0
LINE
  5
262
100
AcDbEntity
  8
0
  6
CONTINUOUS
 62
           3
100
AcDbLine
 10
4555.899996721674
 20
1384.646579623295
 11
4558.39999666576
 21
1384.199999272901
  0
LINE
  5
261
100
AcDbEntity
  8
0
  6
CONTINUOUS
 62
           3
100
AcDbLine
 10
4553.399996777554
 20
1384.199999272901
 11
4558.39999666576
 21
1384.199999272901
  0
LINE
  5
260
100
AcDbEntity
  8
0
  6
CONTINUOUS
 62
           3
100
AcDbLine
 10
4555.899996721674
 20
1384.646579623295
 11
4555.899996721674
 21
1389.100000262195
  0
LINE
  5
25F
100
AcDbEntity
  8
0
  6
CONTINUOUS
 62
           3
100
AcDbLine
 10
4550.899996833471
 20
1384.646579623302
 11
4553.399996777554
 21
1384.199999272901
  0
LINE
  5
25E
100
AcDbEntity
  8
0
  6
CONTINUOUS
 62
           3
100
AcDbLine
 10
4550.899996833471
 20
1384.646579623302
 11
4550.899996833471
 21
1389.100000262195
  0
LINE
  5
25D
100
AcDbEntity
  8
0
  6
CONTINUOUS
 62
           3
100
AcDbLine
 10
4560.899996609865
 20
1384.646579623302
 11
4560.899996609865
 21
1389.100000262195
  0
LINE
  5
25C
100
AcDbEntity
  8
0
  6
CONTINUOUS
 62
           3
100
AcDbLine
 10
4550.899996833432
 20
1384.199999272901
 11
4553.399996777554
 21
1384.199999272901
  0
LINE
  5
25B
100
AcDbEntity
  8
0
  6
CONTINUOUS
 62
           3
100
AcDbLine
 10
4558.39999666576
 20
1384.199999272901
 11
4560.899996609911
 21
1384.199999272901
  0
LINE
  5
25A
100
AcDbEntity
  8
0
  6
CONTINUOUS
 62
           3
100
AcDbLine
 10
4563.899997101562
 20
1388.276241719796
 11
4560.899996609865
 21
1388.276241719796
  0
LINE
  5
259
100
AcDbEntity
  8
0
  6
CONTINUOUS
 62
           3
100
AcDbLine
 10
4550.899996833471
 20
1388.276241719796
 11
4547.899996341774
 21
1388.276241719796
  0
LINE
  5
258
100
AcDbEntity
  8
0
  6
CONTINUOUS
 62
           3
100
AcDbLine
 10
4547.899996341774
 20
1389.200001954996
 11
4547.899996341774
 21
1388.276241719796
  0
LINE
  5
257
100
AcDbEntity
  8
0
  6
CONTINUOUS
 62
           3
100
AcDbLine
 10
4563.899997101562
 20
1389.200001954996
 11
4563.899997101562
 21
1388.276241719796
  0
LINE
  5
256
100
AcDbEntity
  8
0
  6
CONTINUOUS
 62
           3
100
AcDbLine
 10
4525.899997392188
 20
1550.000000744964
 11
4535.899997168585
 21
1550.000000744964
  0
LINE
  5
255
100
AcDbEntity
  8
0
  6
CONTINUOUS
 62
           3
100
AcDbLine
 10
4535.899997168585
 20
1548.799999058066
 11
4535.899997168585
 21
1550.000000744964
  0
LINE
  5
254
100
AcDbEntity
  8
0
  6
CONTINUOUS
 62
           3
100
AcDbLine
 10
4525.899997392188
 20
1548.799999058066
 11
4535.899997168585
 21
1548.799999058066
  0
LINE
  5
253
100
AcDbEntity
  8
0
  6
CONTINUOUS
 62
           3
100
AcDbLine
 10
4525.899997392188
 20
1548.799999058066
 11
4525.899997392188
 21
1550.000000744964
  0
LINE
  5
252
100
AcDbEntity
  8
0
  6
CONTINUOUS
 62
           3
100
AcDbLine
 10
4575.89999627475
 20
1548.799999058065
 11
4575.89999627475
 21
1550.000000744964
  0
LINE
  5
251
100
AcDbEntity
  8
0
  6
CONTINUOUS
 62
           3
100
AcDbLine
 10
4561.149996650865
 20
1548.799999058065
 11
4575.89999627475
 21
1548.799999058065
  0
LINE
  5
250
100
AcDbEntity
  8
0
  6
CONTINUOUS
 62
           3
100
AcDbLine
 10
4561.149996650865
 20
1550.000000744964
 11
4575.89999627475
 21
1550.000000744964
  0
LINE
  5
24F
100
AcDbEntity
  8
0
  6
CONTINUOUS
 62
           3
100
AcDbLine
 10
4535.899997168585
 20
1548.799999058066
 11
4550.649996792472
 21
1548.799999058066
  0
LINE
  5
24E
100
AcDbEntity
  8
0
  6
CONTINUOUS
 62
           3
100
AcDbLine
 10
4535.899997168585
 20
1550.000000744964
 11
4550.649996792472
 21
1550.000000744964
  0
LINE
  5
24D
100
AcDbEntity
  8
0
  6
CONTINUOUS
 62
           3
100
AcDbLine
 10
4535.899997168585
 20
1391.199998557593
 11
4535.899997168585
 21
1390.000000596097
  0
LINE
  5
24C
100
AcDbEntity
  8
0
  6
CONTINUOUS
 62
           3
100
AcDbLine
 10
4535.899997168585
 20
1390.000000596097
 11
4547.899996341774
 21
1390.000000596097
  0
LINE
  5
24B
100
AcDbEntity
  8
0
  6
CONTINUOUS
 62
           3
100
AcDbLine
 10
4535.899997168585
 20
1391.199998557593
 11
4547.899996341774
 21
1391.199998557593
  0
LINE
  5
24A
100
AcDbEntity
  8
0
  6
CONTINUOUS
 62
           3
100
AcDbLine
 10
4559.149996788762
 20
1390.000000596097
 11
4559.149996788762
 21
1391.199998557593
  0
LINE
  5
249
100
AcDbEntity
  8
0
  6
CONTINUOUS
 62
           3
100
AcDbLine
 10
4559.149996788762
 20
1391.199998557593
 11
4559.399996829762
 21
1391.199998557593
  0
LINE
  5
248
100
AcDbEntity
  8
0
  6
CONTINUOUS
 62
           3
100
AcDbLine
 10
4585.899996051143
 20
1548.799999058065
 11
4585.899996051143
 21
1550.000000744964
  0
LINE
  5
247
100
AcDbEntity
  8
0
  6
CONTINUOUS
 62
           3
100
AcDbLine
 10
4585.899996051143
 20
1548.799999058065
 11
4575.89999627475
 21
1548.799999058065
  0
LINE
  5
246
100
AcDbEntity
  8
0
  6
CONTINUOUS
 62
           3
100
AcDbLine
 10
4585.899996051143
 20
1550.000000744964
 11
4575.89999627475
 21
1550.000000744964
  0
LINE
  5
245
100
AcDbEntity
  8
0
  6
CONTINUOUS
 62
           3
100
AcDbLine
 10
4559.149996788762
 20
1548.799999058065
 11
4559.149996788762
 21
1550.000000744964
  0
LINE
  5
244
100
AcDbEntity
  8
0
  6
CONTINUOUS
 62
           3
100
AcDbLine
 10
4561.149996650865
 20
1548.799999058065
 11
4559.149996788762
 21
1548.799999058065
  0
LINE
  5
243
100
AcDbEntity
  8
0
  6
CONTINUOUS
 62
           3
100
AcDbLine
 10
4559.149996788762
 20
1550.000000744964
 11
4561.149996650865
 21
1550.000000744964
  0
LINE
  5
242
100
AcDbEntity
  8
0
  6
CONTINUOUS
 62
           3
100
AcDbLine
 10
4525.899997392188
 20
1391.199998557593
 11
4525.899997392188
 21
1390.000000596097
  0
LINE
  5
241
100
AcDbEntity
  8
0
  6
CONTINUOUS
 62
           3
100
AcDbLine
 10
4525.899997392188
 20
1390.000000596097
 11
4535.899997168585
 21
1390.000000596097
  0
LINE
  5
240
100
AcDbEntity
  8
0
  6
CONTINUOUS
 62
           3
100
AcDbLine
 10
4525.899997392188
 20
1391.199998557593
 11
4535.899997168585
 21
1391.199998557593
  0
LINE
  5
23F
100
AcDbEntity
  8
0
  6
CONTINUOUS
 62
           3
100
AcDbLine
 10
4575.89999627475
 20
1391.199998557593
 11
4575.89999627475
 21
1390.000000596097
  0
LINE
  5
23E
100
AcDbEntity
  8
0
  6
CONTINUOUS
 62
           3
100
AcDbLine
 10
4563.899997101562
 20
1390.000000596097
 11
4575.89999627475
 21
1390.000000596097
  0
LINE
  5
23D
100
AcDbEntity
  8
0
  6
CONTINUOUS
 62
           3
100
AcDbLine
 10
4563.899997101562
 20
1391.199998557593
 11
4575.89999627475
 21
1391.199998557593
  0
LINE
  5
23C
100
AcDbEntity
  8
0
  6
CONTINUOUS
 62
           3
100
AcDbLine
 10
4552.649996654575
 20
1550.000000744964
 11
4552.649996654575
 21
1548.799999058066
  0
LINE
  5
23B
100
AcDbEntity
  8
0
  6
CONTINUOUS
 62
           3
100
AcDbLine
 10
4552.649996654575
 20
1548.799999058066
 11
4550.649996792472
 21
1548.799999058066
  0
LINE
  5
23A
100
AcDbEntity
  8
0
  6
CONTINUOUS
 62
           3
100
AcDbLine
 10
4550.649996792472
 20
1550.000000744964
 11
4552.649996654575
 21
1550.000000744964
  0
LINE
  5
239
100
AcDbEntity
  8
0
  6
CONTINUOUS
 62
           3
100
AcDbLine
 10
4585.899996051143
 20
1391.199998557593
 11
4585.899996051143
 21
1390.000000596097
  0
LINE
  5
238
100
AcDbEntity
  8
0
  6
CONTINUOUS
 62
           3
100
AcDbLine
 10
4585.899996051143
 20
1390.000000596097
 11
4575.89999627475
 21
1390.000000596097
  0
LINE
  5
237
100
AcDbEntity
  8
0
  6
CONTINUOUS
 62
           3
100
AcDbLine
 10
4585.899996051143
 20
1391.199998557593
 11
4575.89999627475
 21
1391.199998557593
  0
LINE
  5
236
100
AcDbEntity
  8
0
  6
CONTINUOUS
 62
           3
100
AcDbLine
 10
4552.649996654575
 20
1391.199998557593
 11
4552.649996654575
 21
1390.000000596097
  0
LINE
  5
235
100
AcDbEntity
  8
0
  6
CONTINUOUS
 62
           3
100
AcDbLine
 10
4552.399996613575
 20
1391.199998557593
 11
4552.649996654575
 21
1391.199998557593
  0
LINE
  5
234
100
AcDbEntity
  8
0
  6
CONTINUOUS
 62
           3
100
AcDbLine
 10
4502.899997347712
 20
1390.000000596097
 11
4502.899997347712
 21
1391.199998557593
  0
LINE
  5
233
100
AcDbEntity
  8
0
  6
CONTINUOUS
 62
           3
100
AcDbLine
 10
4500.89999701971
 20
1390.000000596097
 11
4502.899997347712
 21
1390.000000596097
  0
LINE
  5
232
100
AcDbEntity
  8
0
  6
CONTINUOUS
 62
           3
100
AcDbLine
 10
4502.899997347712
 20
1391.199998557593
 11
4500.89999701971
 21
1391.199998557593
  0
LINE
  5
231
100
AcDbEntity
  8
0
  6
CONTINUOUS
 62
           3
100
AcDbLine
 10
4508.899998331101
 20
1391.199998557593
 11
4508.899998331101
 21
1390.000000596097
  0
LINE
  5
230
100
AcDbEntity
  8
0
  6
CONTINUOUS
 62
           3
100
AcDbLine
 10
4508.899998331101
 20
1390.000000596097
 11
4510.899994933702
 21
1390.000000596097
  0
LINE
  5
22F
100
AcDbEntity
  8
0
  6
CONTINUOUS
 62
           3
100
AcDbLine
 10
4510.899994933702
 20
1391.199998557593
 11
4508.899998331101
 21
1391.199998557593
  0
LINE
  5
22E
100
AcDbEntity
  8
0
  6
CONTINUOUS
 62
           3
100
AcDbLine
 10
4608.899996095918
 20
1550.000000744964
 11
4608.899996095918
 21
1548.799999058066
  0
LINE
  5
22D
100
AcDbEntity
  8
0
  6
CONTINUOUS
 62
           3
100
AcDbLine
 10
4608.899996095918
 20
1548.799999058066
 11
4610.899996423621
 21
1548.799999058066
  0
LINE
  5
22C
100
AcDbEntity
  8
0
  6
CONTINUOUS
 62
           3
100
AcDbLine
 10
4610.899996423621
 20
1550.000000744964
 11
4608.899996095918
 21
1550.000000744964
  0
LINE
  5
22B
100
AcDbEntity
  8
0
  6
CONTINUOUS
 62
           3
100
AcDbLine
 10
4602.899995112232
 20
1548.799999058066
 11
4602.899995112232
 21
1550.000000744964
  0
LINE
  5
22A
100
AcDbEntity
  8
0
  6
CONTINUOUS
 62
           3
100
AcDbLine
 10
4600.899998509631
 20
1548.799999058066
 11
4602.899995112232
 21
1548.799999058066
  0
LINE
  5
229
100
AcDbEntity
  8
0
  6
CONTINUOUS
 62
           3
100
AcDbLine
 10
4602.899995112232
 20
1550.000000744964
 11
4600.899998509631
 21
1550.000000744964
  0
LINE
  5
228
100
AcDbEntity
  8
0
  6
CONTINUOUS
 62
           3
100
AcDbLine
 10
4608.899996095918
 20
1390.000000596097
 11
4608.899996095918
 21
1391.199998557593
  0
LINE
  5
227
100
AcDbEntity
  8
0
  6
CONTINUOUS
 62
           3
100
AcDbLine
 10
4610.899996423621
 20
1390.000000596097
 11
4608.899996095918
 21
1390.000000596097
  0
LINE
  5
226
100
AcDbEntity
  8
0
  6
CONTINUOUS
 62
           3
100
AcDbLine
 10
4608.899996095918
 20
1391.199998557593
 11
4610.899996423621
 21
1391.199998557593
  0
LINE
  5
225
100
AcDbEntity
  8
0
  6
CONTINUOUS
 62
           3
100
AcDbLine
 10
4602.899995112232
 20
1391.199998557593
 11
4602.899995112232
 21
1390.000000596097
  0
LINE
  5
224
100
AcDbEntity
  8
0
  6
CONTINUOUS
 62
           3
100
AcDbLine
 10
4602.899995112232
 20
1390.000000596097
 11
4600.899998509631
 21
1390.000000596097
  0
LINE
  5
223
100
AcDbEntity
  8
0
  6
CONTINUOUS
 62
           3
100
AcDbLine
 10
4600.899998509631
 20
1391.199998557593
 11
4602.899995112232
 21
1391.199998557593
  0
LINE
  5
222
100
AcDbEntity
  8
0
  6
CONTINUOUS
 62
           3
100
AcDbLine
 10
4502.899997347712
 20
1550.000000744964
 11
4502.899997347712
 21
1548.799999058066
  0
LINE
  5
221
100
AcDbEntity
  8
0
  6
CONTINUOUS
 62
           3
100
AcDbLine
 10
4502.899997347712
 20
1548.799999058066
 11
4500.89999701971
 21
1548.799999058066
  0
LINE
  5
220
100
AcDbEntity
  8
0
  6
CONTINUOUS
 62
           3
100
AcDbLine
 10
4500.89999701971
 20
1550.000000744964
 11
4502.899997347712
 21
1550.000000744964
  0
LINE
  5
21F
100
AcDbEntity
  8
0
  6
CONTINUOUS
 62
           3
100
AcDbLine
 10
4508.899998331101
 20
1548.799999058066
 11
4508.899998331101
 21
1550.000000744964
  0
LINE
  5
21E
100
AcDbEntity
  8
0
  6
CONTINUOUS
 62
           3
100
AcDbLine
 10
4510.899994933702
 20
1548.799999058066
 11
4508.899998331101
 21
1548.799999058066
  0
LINE
  5
21D
100
AcDbEntity
  8
0
  6
CONTINUOUS
 62
           3
100
AcDbLine
 10
4508.899998331101
 20
1550.000000744964
 11
4510.899994933702
 21
1550.000000744964
  0
LINE
  5
21C
100
AcDbEntity
  8
0
  6
CONTINUOUS
 62
           3
100
AcDbLine
 10
4510.899994933702
 20
1390.000000596097
 11
4525.899997392188
 21
1390.000000596097
  0
LINE
  5
21B
100
AcDbEntity
  8
0
  6
CONTINUOUS
 62
           3
100
AcDbLine
 10
4510.899994933702
 20
1391.199998557593
 11
4525.899997392188
 21
1391.199998557593
  0
LINE
  5
21A
100
AcDbEntity
  8
0
  6
CONTINUOUS
 62
           3
100
AcDbLine
 10
4615.89999538062
 20
1391.199998557593
 11
4615.89999538062
 21
1390.000000596097
  0
LINE
  5
219
100
AcDbEntity
  8
0
  6
CONTINUOUS
 62
           3
100
AcDbLine
 10
4615.89999538062
 20
1390.000000596097
 11
4610.899996423621
 21
1390.000000596097
  0
LINE
  5
218
100
AcDbEntity
  8
0
  6
CONTINUOUS
 62
           3
100
AcDbLine
 10
4610.899996423621
 20
1391.199998557593
 11
4615.89999538062
 21
1391.199998557593
  0
LINE
  5
217
100
AcDbEntity
  8
0
  6
CONTINUOUS
 62
           3
100
AcDbLine
 10
4510.899994933702
 20
1548.799999058066
 11
4525.899997392188
 21
1548.799999058066
  0
LINE
  5
216
100
AcDbEntity
  8
0
  6
CONTINUOUS
 62
           3
100
AcDbLine
 10
4510.899994933702
 20
1550.000000744964
 11
4525.899997392188
 21
1550.000000744964
  0
LINE
  5
215
100
AcDbEntity
  8
0
  6
CONTINUOUS
 62
           3
100
AcDbLine
 10
4600.899998509631
 20
1390.000000596097
 11
4585.899996051143
 21
1390.000000596097
  0
LINE
  5
214
100
AcDbEntity
  8
0
  6
CONTINUOUS
 62
           3
100
AcDbLine
 10
4600.899998509631
 20
1391.199998557593
 11
4585.899996051143
 21
1391.199998557593
  0
LINE
  5
213
100
AcDbEntity
  8
0
  6
CONTINUOUS
 62
           3
100
AcDbLine
 10
4615.89999538062
 20
1548.799999058066
 11
4615.89999538062
 21
1550.000000744964
  0
LINE
  5
212
100
AcDbEntity
  8
0
  6
CONTINUOUS
 62
           3
100
AcDbLine
 10
4610.899996423621
 20
1548.799999058066
 11
4615.89999538062
 21
1548.799999058066
  0
LINE
  5
211
100
AcDbEntity
  8
0
  6
CONTINUOUS
 62
           3
100
AcDbLine
 10
4615.89999538062
 20
1550.000000744964
 11
4610.899996423621
 21
1550.000000744964
  0
LINE
  5
210
100
AcDbEntity
  8
0
  6
CONTINUOUS
 62
           3
100
AcDbLine
 10
4600.899998509631
 20
1548.799999058066
 11
4585.899996051143
 21
1548.799999058065
  0
LINE
  5
20F
100
AcDbEntity
  8
0
  6
CONTINUOUS
 62
           3
100
AcDbLine
 10
4600.899998509631
 20
1550.000000744964
 11
4585.899996051143
 21
1550.000000744964
  0
LINE
  5
20E
100
AcDbEntity
  8
0
  6
CONTINUOUS
 62
           3
100
AcDbLine
 10
4495.899998062713
 20
1548.799999058066
 11
4495.899998062713
 21
1550.000000744964
  0
LINE
  5
20D
100
AcDbEntity
  8
0
  6
CONTINUOUS
 62
           3
100
AcDbLine
 10
4500.89999701971
 20
1548.799999058066
 11
4495.899998062713
 21
1548.799999058066
  0
LINE
  5
20C
100
AcDbEntity
  8
0
  6
CONTINUOUS
 62
           3
100
AcDbLine
 10
4495.899998062713
 20
1550.000000744964
 11
4500.89999701971
 21
1550.000000744964
  0
LINE
  5
20B
100
AcDbEntity
  8
0
  6
CONTINUOUS
 62
           3
100
AcDbLine
 10
4495.899998062713
 20
1391.199998557593
 11
4495.899998062713
 21
1390.000000596097
  0
LINE
  5
20A
100
AcDbEntity
  8
0
  6
CONTINUOUS
 62
           3
100
AcDbLine
 10
4495.899998062713
 20
1390.000000596097
 11
4500.89999701971
 21
1390.000000596097
  0
LINE
  5
209
100
AcDbEntity
  8
0
  6
CONTINUOUS
 62
           3
100
AcDbLine
 10
4500.89999701971
 20
1391.199998557593
 11
4495.899998062713
 21
1391.199998557593
  0
LINE
  5
208
100
AcDbEntity
  8
0
  6
CONTINUOUS
 62
           3
100
AcDbLine
 10
4559.149996788762
 20
1391.199998557593
 11
4558.899996747762
 21
1391.199998557593
  0
LINE
  5
207
100
AcDbEntity
  8
0
  6
CONTINUOUS
 62
           3
100
AcDbLine
 10
4552.899996695575
 20
1391.199998557593
 11
4552.649996654575
 21
1391.199998557593
  0
LINE
  5
206
100
AcDbEntity
  8
0
  6
CONTINUOUS
 62
           3
100
AcDbLine
 10
4552.649996654575
 20
1548.799999058066
 11
4552.899996695575
 21
1548.799999058066
  0
LINE
  5
205
100
AcDbEntity
  8
0
  6
CONTINUOUS
 62
           3
100
AcDbLine
 10
4558.899996747762
 20
1548.799999058066
 11
4559.149996788762
 21
1548.799999058065
  0
LINE
  5
204
100
AcDbEntity
  8
0
  6
CONTINUOUS
 62
           3
100
AcDbLine
 10
4552.649996654575
 20
1550.000000744964
 11
4552.899996695575
 21
1550.000000744964
  0
LINE
  5
203
100
AcDbEntity
  8
0
  6
CONTINUOUS
 62
           3
100
AcDbLine
 10
4558.899996747762
 20
1550.000000744964
 11
4559.149996788762
 21
1550.000000744964
  0
LINE
  5
202
100
AcDbEntity
  8
0
  6
CONTINUOUS
 62
           3
100
AcDbLine
 10
4615.89999538062
 20
1391.199998557593
 11
4615.89999538062
 21
1391.699999570792
  0
LINE
  5
201
100
AcDbEntity
  8
0
  6
CONTINUOUS
 62
           3
100
AcDbLine
 10
4495.899998062713
 20
1391.199998557593
 11
4495.899998062713
 21
1391.699999570792
  0
LINE
  5
200
100
AcDbEntity
  8
0
  6
CONTINUOUS
 62
           3
100
AcDbLine
 10
4495.899998062713
 20
1548.799999058066
 11
4495.899998062713
 21
1548.300001770265
  0
LINE
  5
1FF
100
AcDbEntity
  8
0
  6
CONTINUOUS
 62
           3
100
AcDbLine
 10
4615.89999538062
 20
1548.799999058066
 11
4615.89999538062
 21
1548.300001770265
  0
LINE
  5
1FE
100
AcDbEntity
  8
0
  6
CONTINUOUS
 62
           3
100
AcDbLine
 10
4615.89999538062
 20
1529.999999329481
 11
4614.199996405622
 21
1529.999999329481
  0
LINE
  5
1FD
100
AcDbEntity
  8
0
  6
CONTINUOUS
 62
           3
100
AcDbLine
 10
4615.89999538062
 20
1509.999999776395
 11
4615.89999538062
 21
1529.999999329481
  0
LINE
  5
1FC
100
AcDbEntity
  8
0
  6
CONTINUOUS
 62
           3
100
AcDbLine
 10
4614.199996405622
 20
1509.999999776395
 11
4615.824804121021
 21
1509.999999776395
  0
LINE
  5
1FB
100
AcDbEntity
  8
0
  6
CONTINUOUS
 62
           3
100
AcDbLine
 10
4497.899998390713
 20
1532.000001519879
 11
4495.899998062713
 21
1532.000001519879
  0
LINE
  5
1FA
100
AcDbEntity
  8
0
  6
CONTINUOUS
 62
           3
100
AcDbLine
 10
4495.899998062713
 20
1548.300001770265
 11
4495.899998062713
 21
1532.000001519879
  0
LINE
  5
1F9
100
AcDbEntity
  8
0
  6
CONTINUOUS
 62
           3
100
AcDbLine
 10
4615.89999538062
 20
1548.300001770265
 11
4615.89999538062
 21
1532.000001519879
  0
LINE
  5
1F8
100
AcDbEntity
  8
0
  6
CONTINUOUS
 62
           3
100
AcDbLine
 10
4613.89999505262
 20
1532.000001519879
 11
4615.89999538062
 21
1532.000001519879
  0
LINE
  5
1F7
100
AcDbEntity
  8
0
  6
CONTINUOUS
 62
           3
100
AcDbLine
 10
4614.199996405622
 20
1529.999999329481
 11
4613.89999505262
 21
1529.999999329481
  0
LINE
  5
1F6
100
AcDbEntity
  8
0
  6
CONTINUOUS
 62
           3
100
AcDbLine
 10
4613.89999505262
 20
1509.999999776395
 11
4614.199996405622
 21
1509.999999776395
  0
LINE
  5
1F5
100
AcDbEntity
  8
0
  6
CONTINUOUS
 62
           3
100
AcDbLine
 10
4615.89999538062
 20
1508.000000379899
 11
4613.89999505262
 21
1508.000000379899
  0
LINE
  5
1F4
100
AcDbEntity
  8
0
  6
CONTINUOUS
 62
           3
100
AcDbLine
 10
4615.89999538062
 20
1508.000000379899
 11
4615.89999538062
 21
1431.999996304559
  0
LINE
  5
1F3
100
AcDbEntity
  8
0
  6
CONTINUOUS
 62
           3
100
AcDbLine
 10
4615.89999538062
 20
1431.999996304559
 11
4613.89999505262
 21
1431.999996304559
  0
LINE
  5
1F2
100
AcDbEntity
  8
0
  6
CONTINUOUS
 62
           3
100
AcDbLine
 10
4613.89999505262
 20
1429.999999701962
 11
4614.199996405622
 21
1429.999999701962
  0
LINE
  5
1F1
100
AcDbEntity
  8
0
  6
CONTINUOUS
 62
           3
100
AcDbLine
 10
4614.199996405622
 20
1409.999996423779
 11
4613.89999505262
 21
1409.999996423779
  0
LINE
  5
1F0
100
AcDbEntity
  8
0
  6
CONTINUOUS
 62
           3
100
AcDbLine
 10
4613.89999505262
 20
1407.999999821183
 11
4615.89999538062
 21
1407.999999821183
  0
LINE
  5
1EF
100
AcDbEntity
  8
0
  6
CONTINUOUS
 62
           3
100
AcDbLine
 10
4615.89999538062
 20
1391.699999570792
 11
4615.89999538062
 21
1407.999999821183
  0
LINE
  5
1EE
100
AcDbEntity
  8
0
  6
CONTINUOUS
 62
           3
100
AcDbLine
 10
4495.899998062713
 20
1391.699999570792
 11
4495.899998062713
 21
1407.999999821183
  0
LINE
  5
1ED
100
AcDbEntity
  8
0
  6
CONTINUOUS
 62
           3
100
AcDbLine
 10
4497.899998390713
 20
1407.999999821183
 11
4495.899998062713
 21
1407.999999821183
  0
LINE
  5
1EC
100
AcDbEntity
  8
0
  6
CONTINUOUS
 62
           3
100
AcDbLine
 10
4497.599997037713
 20
1409.999996423779
 11
4497.899998390713
 21
1409.999996423779
  0
LINE
  5
1EB
100
AcDbEntity
  8
0
  6
CONTINUOUS
 62
           3
100
AcDbLine
 10
4497.899998390713
 20
1429.999999701962
 11
4497.599997037713
 21
1429.999999701962
  0
LINE
  5
1EA
100
AcDbEntity
  8
0
  6
CONTINUOUS
 62
           3
100
AcDbLine
 10
4495.899998062713
 20
1431.999996304559
 11
4497.899998390713
 21
1431.999996304559
  0
LINE
  5
1E9
100
AcDbEntity
  8
0
  6
CONTINUOUS
 62
           3
100
AcDbLine
 10
4495.899998062713
 20
1508.000000379899
 11
4495.899998062713
 21
1431.999996304559
  0
LINE
  5
1E8
100
AcDbEntity
  8
0
  6
CONTINUOUS
 62
           3
100
AcDbLine
 10
4495.899998062713
 20
1508.000000379899
 11
4497.899998390713
 21
1508.000000379899
  0
LINE
  5
1E7
100
AcDbEntity
  8
0
  6
CONTINUOUS
 62
           3
100
AcDbLine
 10
4497.899998390713
 20
1509.999999776395
 11
4497.599997037713
 21
1509.999999776395
  0
LINE
  5
1E6
100
AcDbEntity
  8
0
  6
CONTINUOUS
 62
           3
100
AcDbLine
 10
4497.599997037713
 20
1529.999999329481
 11
4497.899998390713
 21
1529.999999329481
  0
LINE
  5
1E5
100
AcDbEntity
  8
0
  6
CONTINUOUS
 62
           3
100
AcDbLine
 10
4495.899998062713
 20
1429.999999701962
 11
4495.899998062713
 21
1409.999996423779
  0
LINE
  5
1E4
100
AcDbEntity
  8
0
  6
CONTINUOUS
 62
           3
100
AcDbLine
 10
4497.599997037713
 20
1429.999999701962
 11
4495.899998062713
 21
1429.999999701962
  0
LINE
  5
1E3
100
AcDbEntity
  8
0
  6
CONTINUOUS
 62
           3
100
AcDbLine
 10
4495.975189322321
 20
1409.999996423779
 11
4497.599997037713
 21
1409.999996423779
  0
LINE
  5
1E2
100
AcDbEntity
  8
0
  6
CONTINUOUS
 62
           3
100
AcDbLine
 10
4497.599997037713
 20
1509.999999776395
 11
4495.975189322321
 21
1509.999999776395
  0
LINE
  5
1E1
100
AcDbEntity
  8
0
  6
CONTINUOUS
 62
           3
100
AcDbLine
 10
4495.899998062713
 20
1509.999999776395
 11
4495.899998062713
 21
1529.999999329481
  0
LINE
  5
1E0
100
AcDbEntity
  8
0
  6
CONTINUOUS
 62
           3
100
AcDbLine
 10
4495.899998062713
 20
1529.999999329481
 11
4497.599997037713
 21
1529.999999329481
  0
LINE
  5
1DF
100
AcDbEntity
  8
0
  6
CONTINUOUS
 62
           3
100
AcDbLine
 10
4615.89999538062
 20
1429.999999701962
 11
4615.89999538062
 21
1409.999996423779
  0
LINE
  5
1DE
100
AcDbEntity
  8
0
  6
CONTINUOUS
 62
           3
100
AcDbLine
 10
4614.199996405622
 20
1429.999999701962
 11
4615.89999538062
 21
1429.999999701962
  0
LINE
  5
1DD
100
AcDbEntity
  8
0
  6
CONTINUOUS
 62
           3
100
AcDbLine
 10
4615.824804121021
 20
1409.999996423779
 11
4614.199996405622
 21
1409.999996423779
  0
LINE
  5
1DC
100
AcDbEntity
  8
0
  6
CONTINUOUS
 62
           3
100
AcDbLine
 10
4502.899997347712
 20
1364.999994635816
 11
4502.899997347712
 21
1366.600006818713
  0
LINE
  5
1DB
100
AcDbEntity
  8
0
  6
CONTINUOUS
 62
           3
100
AcDbLine
 10
4500.89999701971
 20
1364.999994635816
 11
4502.899997347712
 21
1364.999994635816
  0
LINE
  5
1DA
100
AcDbEntity
  8
0
  6
CONTINUOUS
 62
           3
100
AcDbLine
 10
4502.899997347712
 20
1366.600006818713
 11
4500.89999701971
 21
1366.600006818713
  0
LINE
  5
1D9
100
AcDbEntity
  8
0
  6
CONTINUOUS
 62
           3
100
AcDbLine
 10
4500.89999701971
 20
1635.000005364196
 11
4502.899997347712
 21
1635.000005364196
  0
LINE
  5
1D8
100
AcDbEntity
  8
0
  6
CONTINUOUS
 62
           3
100
AcDbLine
 10
4502.899997347712
 20
1635.000005364196
 11
4502.899997347712
 21
1633.399993180997
  0
LINE
  5
1D7
100
AcDbEntity
  8
0
  6
CONTINUOUS
 62
           3
100
AcDbLine
 10
4502.899997347712
 20
1633.399993180997
 11
4500.89999701971
 21
1633.399993180997
  0
LINE
  5
1D6
100
AcDbEntity
  8
0
  6
CONTINUOUS
 62
           3
100
AcDbLine
 10
4508.899998331101
 20
1633.399993180997
 11
4508.899998331101
 21
1635.000005364196
  0
LINE
  5
1D5
100
AcDbEntity
  8
0
  6
CONTINUOUS
 62
           3
100
AcDbLine
 10
4508.899998331101
 20
1635.000005364196
 11
4510.899994933702
 21
1635.000005364196
  0
LINE
  5
1D4
100
AcDbEntity
  8
0
  6
CONTINUOUS
 62
           3
100
AcDbLine
 10
4510.899994933702
 20
1633.399993180997
 11
4508.899998331101
 21
1633.399993180997
  0
LINE
  5
1D3
100
AcDbEntity
  8
0
  6
CONTINUOUS
 62
           3
100
AcDbLine
 10
4508.899998331101
 20
1364.999994635816
 11
4510.899994933702
 21
1364.999994635816
  0
LINE
  5
1D2
100
AcDbEntity
  8
0
  6
CONTINUOUS
 62
           3
100
AcDbLine
 10
4508.899998331101
 20
1366.600006818713
 11
4508.899998331101
 21
1364.999994635816
  0
LINE
  5
1D1
100
AcDbEntity
  8
0
  6
CONTINUOUS
 62
           3
100
AcDbLine
 10
4510.899994933702
 20
1366.600006818713
 11
4508.899998331101
 21
1366.600006818713
  0
LINE
  5
1D0
100
AcDbEntity
  8
0
  6
CONTINUOUS
 62
           3
100
AcDbLine
 10
4510.899994933702
 20
1364.999994635816
 11
4600.899998509631
 21
1364.999994635816
  0
LINE
  5
1CF
100
AcDbEntity
  8
0
  6
CONTINUOUS
 62
           3
100
AcDbLine
 10
4510.899994933702
 20
1366.600006818713
 11
4600.899998509631
 21
1366.600006818713
  0
LINE
  5
1CE
100
AcDbEntity
  8
0
  6
CONTINUOUS
 62
           3
100
AcDbLine
 10
4510.899994933702
 20
1635.000005364196
 11
4600.899998509631
 21
1635.000005364196
  0
LINE
  5
1CD
100
AcDbEntity
  8
0
  6
CONTINUOUS
 62
           3
100
AcDbLine
 10
4510.899994933702
 20
1633.399993180997
 11
4600.899998509631
 21
1633.399993180997
  0
LINE
  5
1CC
100
AcDbEntity
  8
0
  6
CONTINUOUS
 62
           3
100
AcDbLine
 10
4495.899998062713
 20
1366.600006818713
 11
4495.899998062713
 21
1364.999994635816
  0
LINE
  5
1CB
100
AcDbEntity
  8
0
  6
CONTINUOUS
 62
           3
100
AcDbLine
 10
4495.899998062713
 20
1364.999994635816
 11
4500.89999701971
 21
1364.999994635816
  0
LINE
  5
1CA
100
AcDbEntity
  8
0
  6
CONTINUOUS
 62
           3
100
AcDbLine
 10
4500.89999701971
 20
1366.600006818713
 11
4495.899998062713
 21
1366.600006818713
  0
LINE
  5
1C9
100
AcDbEntity
  8
0
  6
CONTINUOUS
 62
           3
100
AcDbLine
 10
4495.899998062713
 20
1633.399993180997
 11
4495.899998062713
 21
1635.000005364196
  0
LINE
  5
1C8
100
AcDbEntity
  8
0
  6
CONTINUOUS
 62
           3
100
AcDbLine
 10
4495.899998062713
 20
1635.000005364196
 11
4500.89999701971
 21
1635.000005364196
  0
LINE
  5
1C7
100
AcDbEntity
  8
0
  6
CONTINUOUS
 62
           3
100
AcDbLine
 10
4500.89999701971
 20
1633.399993180997
 11
4495.899998062713
 21
1633.399993180997
  0
LINE
  5
1C6
100
AcDbEntity
  8
0
  6
CONTINUOUS
 62
           3
100
AcDbLine
 10
4608.899996095918
 20
1635.000005364196
 11
4608.899996095918
 21
1633.399993180997
  0
LINE
  5
1C5
100
AcDbEntity
  8
0
  6
CONTINUOUS
 62
           3
100
AcDbLine
 10
4610.899996423621
 20
1635.000005364196
 11
4608.899996095918
 21
1635.000005364196
  0
LINE
  5
1C4
100
AcDbEntity
  8
0
  6
CONTINUOUS
 62
           3
100
AcDbLine
 10
4608.899996095918
 20
1633.399993180997
 11
4610.899996423621
 21
1633.399993180997
  0
LINE
  5
1C3
100
AcDbEntity
  8
0
  6
CONTINUOUS
 62
           3
100
AcDbLine
 10
4608.899996095918
 20
1364.999994635816
 11
4608.899996095918
 21
1366.600006818713
  0
LINE
  5
1C2
100
AcDbEntity
  8
0
  6
CONTINUOUS
 62
           3
100
AcDbLine
 10
4610.899996423621
 20
1364.999994635816
 11
4608.899996095918
 21
1364.999994635816
  0
LINE
  5
1C1
100
AcDbEntity
  8
0
  6
CONTINUOUS
 62
           3
100
AcDbLine
 10
4608.899996095918
 20
1366.600006818713
 11
4610.899996423621
 21
1366.600006818713
  0
LINE
  5
1C0
100
AcDbEntity
  8
0
  6
CONTINUOUS
 62
           3
100
AcDbLine
 10
4602.899995112232
 20
1633.399993180997
 11
4602.899995112232
 21
1635.000005364196
  0
LINE
  5
1BF
100
AcDbEntity
  8
0
  6
CONTINUOUS
 62
           3
100
AcDbLine
 10
4602.899995112232
 20
1635.000005364196
 11
4600.899998509631
 21
1635.000005364196
  0
LINE
  5
1BE
100
AcDbEntity
  8
0
  6
CONTINUOUS
 62
           3
100
AcDbLine
 10
4600.899998509631
 20
1633.399993180997
 11
4602.899995112232
 21
1633.399993180997
  0
LINE
  5
1BD
100
AcDbEntity
  8
0
  6
CONTINUOUS
 62
           3
100
AcDbLine
 10
4602.899995112232
 20
1366.600006818713
 11
4602.899995112232
 21
1364.999994635816
  0
LINE
  5
1BC
100
AcDbEntity
  8
0
  6
CONTINUOUS
 62
           3
100
AcDbLine
 10
4602.899995112232
 20
1364.999994635816
 11
4600.899998509631
 21
1364.999994635816
  0
LINE
  5
1BB
100
AcDbEntity
  8
0
  6
CONTINUOUS
 62
           3
100
AcDbLine
 10
4600.899998509631
 20
1366.600006818713
 11
4602.899995112232
 21
1366.600006818713
  0
LINE
  5
1BA
100
AcDbEntity
  8
0
  6
CONTINUOUS
 62
           3
100
AcDbLine
 10
4615.89999538062
 20
1366.600006818713
 11
4615.89999538062
 21
1364.999994635816
  0
LINE
  5
1B9
100
AcDbEntity
  8
0
  6
CONTINUOUS
 62
           3
100
AcDbLine
 10
4615.89999538062
 20
1364.999994635816
 11
4610.899996423621
 21
1364.999994635816
  0
LINE
  5
1B8
100
AcDbEntity
  8
0
  6
CONTINUOUS
 62
           3
100
AcDbLine
 10
4610.899996423621
 20
1366.600006818713
 11
4615.89999538062
 21
1366.600006818713
  0
LINE
  5
1B7
100
AcDbEntity
  8
0
  6
CONTINUOUS
 62
           3
100
AcDbLine
 10
4615.89999538062
 20
1633.399993180997
 11
4615.89999538062
 21
1635.000005364196
  0
LINE
  5
1B6
100
AcDbEntity
  8
0
  6
CONTINUOUS
 62
           3
100
AcDbLine
 10
4615.89999538062
 20
1635.000005364196
 11
4610.899996423621
 21
1635.000005364196
  0
LINE
  5
1B5
100
AcDbEntity
  8
0
  6
CONTINUOUS
 62
           3
100
AcDbLine
 10
4610.899996423621
 20
1633.399993180997
 11
4615.89999538062
 21
1633.399993180997
  0
LINE
  5
1B4
100
AcDbEntity
  8
0
  6
CONTINUOUS
 62
           3
100
AcDbLine
 10
4615.89999538062
 20
1633.399993180997
 11
4615.89999538062
 21
1632.699996232995
  0
LINE
  5
1B3
100
AcDbEntity
  8
0
  6
CONTINUOUS
 62
           3
100
AcDbLine
 10
4495.899998062713
 20
1633.399993180997
 11
4495.899998062713
 21
1632.699996232995
  0
LINE
  5
1B2
100
AcDbEntity
  8
0
  6
CONTINUOUS
 62
           3
100
AcDbLine
 10
4615.89999538062
 20
1366.600006818713
 11
4615.89999538062
 21
1367.300003767013
  0
LINE
  5
1B1
100
AcDbEntity
  8
0
  6
CONTINUOUS
 62
           3
100
AcDbLine
 10
4495.899998062713
 20
1366.600006818713
 11
4495.899998062713
 21
1367.300003767013
  0
LINE
  5
1B0
100
AcDbEntity
  8
0
  6
CONTINUOUS
 62
           3
100
AcDbLine
 10
4475.499999189234
 20
1364.999994635815
 11
4473.399993443331
 21
1364.999994635815
  0
LINE
  5
1AF
100
AcDbEntity
  8
0
  6
CONTINUOUS
 62
           3
100
AcDbLine
 10
4473.399993443331
 20
1635.000005364196
 11
4473.399993443331
 21
1364.999994635815
  0
LINE
  5
1AE
100
AcDbEntity
  8
0
  6
CONTINUOUS
 62
           3
100
AcDbLine
 10
4475.499999189234
 20
1635.000005364196
 11
4473.399993443331
 21
1635.000005364196
  0
LINE
  5
1AD
100
AcDbEntity
  8
0
  6
CONTINUOUS
 62
           3
100
AcDbLine
 10
4617.399998420224
 20
1490.000000223612
 11
4615.89999538062
 21
1490.000000223612
  0
LINE
  5
1AC
100
AcDbEntity
  8
0
  6
CONTINUOUS
 62
           3
100
AcDbLine
 10
4614.399996066123
 20
1431.999996304559
 11
4614.399996066123
 21
1429.999999701962
  0
LINE
  5
1AB
100
AcDbEntity
  8
0
  6
CONTINUOUS
 62
           3
100
AcDbLine
 10
4615.824804121021
 20
1409.999996423779
 11
4617.399998420224
 21
1409.999996423779
  0
LINE
  5
1AA
100
AcDbEntity
  8
0
  6
CONTINUOUS
 62
           3
100
AcDbLine
 10
4617.399998420224
 20
1409.999996423779
 11
4617.399998420224
 21
1490.000000223612
  0
LINE
  5
1A9
100
AcDbEntity
  8
0
  6
CONTINUOUS
 62
           3
100
AcDbLine
 10
4614.399996066123
 20
1590.000003576231
 11
4617.399998420224
 21
1590.000003576231
  0
LINE
  5
1A8
100
AcDbEntity
  8
0
  6
CONTINUOUS
 62
           3
100
AcDbLine
 10
4614.399996066123
 20
1529.999999329481
 11
4614.399996066123
 21
1532.000001519879
  0
LINE
  5
1A7
100
AcDbEntity
  8
0
  6
CONTINUOUS
 62
           3
100
AcDbLine
 10
4614.399996066123
 20
1550.000000744964
 11
4614.399996066123
 21
1590.000003576231
  0
LINE
  5
1A6
100
AcDbEntity
  8
0
  6
CONTINUOUS
 62
           3
100
AcDbLine
 10
4617.399998420224
 20
1509.999999776395
 11
4615.824804121021
 21
1509.999999776395
  0
LINE
  5
1A5
100
AcDbEntity
  8
0
  6
CONTINUOUS
 62
           3
100
AcDbLine
 10
4617.399998420224
 20
1590.000003576231
 11
4617.399998420224
 21
1509.999999776395
  0
LINE
  5
1A4
100
AcDbEntity
  8
0
  6
CONTINUOUS
 62
           3
100
AcDbLine
 10
4495.975189322321
 20
1409.999996423779
 11
4494.399995023123
 21
1409.999996423779
  0
LINE
  5
1A3
100
AcDbEntity
  8
0
  6
CONTINUOUS
 62
           3
100
AcDbLine
 10
4497.399997377514
 20
1431.999996304559
 11
4497.399997377514
 21
1429.999999701962
  0
LINE
  5
1A2
100
AcDbEntity
  8
0
  6
CONTINUOUS
 62
           3
100
AcDbLine
 10
4494.399995023123
 20
1490.000000223612
 11
4495.899998062713
 21
1490.000000223612
  0
LINE
  5
1A1
100
AcDbEntity
  8
0
  6
CONTINUOUS
 62
           3
100
AcDbLine
 10
4494.399995023123
 20
1409.999996423779
 11
4494.399995023123
 21
1490.000000223612
  0
LINE
  5
1A0
100
AcDbEntity
  8
0
  6
CONTINUOUS
 62
           3
100
AcDbLine
 10
4495.899998062713
 20
1368.000000715314
 11
4495.899998062713
 21
1367.300003767013
  0
LINE
  5
19F
100
AcDbEntity
  8
0
  6
CONTINUOUS
 62
           3
100
AcDbLine
 10
4490.899999106018
 20
1364.999994635816
 11
4490.899999106018
 21
1368.000000715314
  0
LINE
  5
19E
100
AcDbEntity
  8
0
  6
CONTINUOUS
 62
           3
100
AcDbLine
 10
4490.899999106018
 20
1635.000005364196
 11
4475.499999189234
 21
1635.000005364196
  0
LINE
  5
19D
100
AcDbEntity
  8
0
  6
CONTINUOUS
 62
           3
100
AcDbLine
 10
4490.899999106018
 20
1635.000005364196
 11
4490.899999106018
 21
1631.999999284697
  0
LINE
  5
19C
100
AcDbEntity
  8
0
  6
CONTINUOUS
 62
           3
100
AcDbLine
 10
4495.899998062713
 20
1631.999999284697
 11
4495.899998062713
 21
1632.699996232995
  0
LINE
  5
19B
100
AcDbEntity
  8
0
  6
CONTINUOUS
 62
           3
100
AcDbLine
 10
4615.89999538062
 20
1631.999999284697
 11
4615.89999538062
 21
1632.699996232995
  0
LINE
  5
19A
100
AcDbEntity
  8
0
  6
CONTINUOUS
 62
           3
100
AcDbLine
 10
4620.899994337313
 20
1635.000005364196
 11
4620.899994337313
 21
1631.999999284697
  0
LINE
  5
199
100
AcDbEntity
  8
0
  6
CONTINUOUS
 62
           3
100
AcDbLine
 10
4620.899994337313
 20
1364.999994635816
 11
4620.899994337313
 21
1368.000000715314
  0
LINE
  5
198
100
AcDbEntity
  8
0
  6
CONTINUOUS
 62
           3
100
AcDbLine
 10
4615.89999538062
 20
1368.000000715314
 11
4615.89999538062
 21
1367.300003767013
  0
LINE
  5
197
100
AcDbEntity
  8
0
  6
CONTINUOUS
 62
           3
100
AcDbLine
 10
4494.399995023123
 20
1509.999999776395
 11
4495.975189322321
 21
1509.999999776395
  0
LINE
  5
196
100
AcDbEntity
  8
0
  6
CONTINUOUS
 62
           3
100
AcDbLine
 10
4497.399997377514
 20
1529.999999329481
 11
4497.399997377514
 21
1532.000001519879
  0
LINE
  5
195
100
AcDbEntity
  8
0
  6
CONTINUOUS
 62
           3
100
AcDbLine
 10
4497.399997377514
 20
1550.000000744964
 11
4497.399997377514
 21
1590.000003576231
  0
LINE
  5
194
100
AcDbEntity
  8
0
  6
CONTINUOUS
 62
           3
100
AcDbLine
 10
4497.399997377514
 20
1590.000003576231
 11
4494.399995023123
 21
1590.000003576231
  0
LINE
  5
193
100
AcDbEntity
  8
0
  6
CONTINUOUS
 62
           3
100
AcDbLine
 10
4494.399995023123
 20
1590.000003576231
 11
4494.399995023123
 21
1509.999999776395
  0
LINE
  5
192
100
AcDbEntity
  8
0
  6
CONTINUOUS
 62
           3
100
AcDbLine
 10
4490.899999106018
 20
1364.999994635816
 11
4475.499999189234
 21
1364.999994635815
  0
LINE
  5
191
100
AcDbEntity
  8
FORMAT
  6
DOT_CENTER
 62
           3
100
AcDbLine
 10
4480.999996721633
 20
1625.0
 11
4467.399996721743
 21
1625.0
  0
LINE
  5
190
100
AcDbEntity
  8
FORMAT
  6
DOT_CENTER
 62
           3
100
AcDbLine
 10
4480.999996721633
 20
1375.000000000007
 11
4467.399996721743
 21
1375.000000000007
  0
LINE
  5
18F
100
AcDbEntity
  8
FORMAT
  6
CONTINUOUS
 62
           3
100
AcDbLine
 10
4569.899996721754
 20
1392.596845102893
 11
4559.399996721763
 21
1392.596845102893
  0
LINE
  5
18E
100
AcDbEntity
  8
FORMAT
  6
CONTINUOUS
 62
           3
100
AcDbLine
 10
4559.399996721763
 20
1392.596845102893
 11
4552.399996721572
 21
1392.596845102893
  0
LINE
  5
18D
100
AcDbEntity
  8
FORMAT
  6
DOT_CENTER
 62
           3
100
AcDbLine
 10
4555.899996721674
 20
1249.759397252255
 11
4555.899996721674
 21
1725.394390768569
  0
LINE
  5
18C
100
AcDbEntity
  8
FORMAT
  6
CONTINUOUS
 62
           3
100
AcDbLine
 10
4552.399996721572
 20
1392.596845102893
 11
4541.899996721583
 21
1392.596845102893
  0
LINE
  5
18B
100
AcDbEntity
  8
0
  6
CONTINUOUS
 62
           3
100
AcDbLine
 10
4555.899996721674
 20
1393.131740391393
 11
4556.955269949173
 21
1393.116392195192
  0
LINE
  5
18A
100
AcDbEntity
  8
0
  6
CONTINUOUS
 62
           3
100
AcDbLine
 10
4556.955269949173
 20
1393.116392195192
 11
4557.89618794006
 21
1393.072016537193
  0
LINE
  5
189
100
AcDbEntity
  8
0
  6
CONTINUOUS
 62
           3
100
AcDbLine
 10
4557.89618794006
 20
1393.072016537193
 11
4558.620787869761
 21
1393.003411590991
  0
LINE
  5
188
100
AcDbEntity
  8
0
  6
CONTINUOUS
 62
           3
100
AcDbLine
 10
4558.620787869761
 20
1393.003411590991
 11
4559.05054760296
 21
1392.918020486793
  0
LINE
  5
187
100
AcDbEntity
  8
0
  6
CONTINUOUS
 62
           3
100
AcDbLine
 10
4559.05054760296
 20
1392.918020486793
 11
4559.138896354963
 21
1392.825089394993
  0
LINE
  5
186
100
AcDbEntity
  8
0
  6
CONTINUOUS
 62
           3
100
AcDbLine
 10
4559.138896354963
 20
1392.825089394993
 11
4558.899996747762
 21
1392.739541828793
  0
LINE
  5
185
100
AcDbEntity
  8
0
  6
CONTINUOUS
 62
           3
100
AcDbLine
 10
4552.899996695575
 20
1392.739541828793
 11
4552.661097088371
 21
1392.825089394993
  0
LINE
  5
184
100
AcDbEntity
  8
0
  6
CONTINUOUS
 62
           3
100
AcDbLine
 10
4552.661097088371
 20
1392.825089394993
 11
4552.749445840375
 21
1392.918020486793
  0
LINE
  5
183
100
AcDbEntity
  8
0
  6
CONTINUOUS
 62
           3
100
AcDbLine
 10
4552.749445840375
 20
1392.918020486793
 11
4553.179205573572
 21
1393.003411590991
  0
LINE
  5
182
100
AcDbEntity
  8
0
  6
CONTINUOUS
 62
           3
100
AcDbLine
 10
4553.179205573572
 20
1393.003411590991
 11
4553.903805503273
 21
1393.072016537193
  0
LINE
  5
181
100
AcDbEntity
  8
0
  6
CONTINUOUS
 62
           3
100
AcDbLine
 10
4553.903805503273
 20
1393.072016537193
 11
4554.844723494171
 21
1393.116392195192
  0
LINE
  5
180
100
AcDbEntity
  8
0
  6
CONTINUOUS
 62
           3
100
AcDbLine
 10
4554.844723494171
 20
1393.116392195192
 11
4555.899996721674
 21
1393.131740391393
  0
LINE
  5
17F
100
AcDbEntity
  8
1
  6
CONTINUOUS
 62
           3
100
AcDbLine
 10
5060.16356769104
 20
1919.128165004934
 11
5055.254330418632
 21
1919.128165004934
  0
LINE
  5
17E
100
AcDbEntity
  8
1
  6
DOT_CENTER
 62
           3
100
AcDbLine
 10
5060.16356769104
 20
1938.643555804874
 11
5060.16356769104
 21
1907.508008255126
  0
LINE
  5
17D
100
AcDbEntity
  8
1
  6
CONTINUOUS
 62
           3
100
AcDbLine
 10
5055.254330418632
 20
1930.87183499507
 11
5060.16356769104
 21
1930.87183499507
  0
LINE
  5
17C
100
AcDbEntity
  8
1
  6
CONTINUOUS
 62
           3
100
AcDbLine
 10
5055.254330418632
 20
1932.69374658004
 11
5049.389214871942
 21
1932.69374658004
  0
LINE
  5
17B
100
AcDbEntity
  8
1
  6
CONTINUOUS
 62
           3
100
AcDbLine
 10
5055.254330418632
 20
1917.306253419961
 11
5049.389214871942
 21
1917.306253419961
  0
LINE
  5
17A
100
AcDbEntity
  8
1
  6
CONTINUOUS
 62
           3
100
AcDbLine
 10
5055.254330418632
 20
1917.306253419961
 11
5055.254330418632
 21
1932.69374658004
  0
LINE
  5
179
100
AcDbEntity
  8
1
  6
CONTINUOUS
 62
           3
100
AcDbLine
 10
5049.389214871942
 20
1917.306253419961
 11
5049.389214871942
 21
1932.69374658004
  0
LINE
  5
178
100
AcDbEntity
  8
1
  6
CONTINUOUS
 62
           3
100
AcDbLine
 10
5049.389214871942
 20
1932.69374658004
 11
5049.389214871942
 21
1933.25
  0
LINE
  5
177
100
AcDbEntity
  8
1
  6
CONTINUOUS
 62
           3
100
AcDbLine
 10
5039.714603906642
 20
1925.0
 11
5039.714603906642
 21
1933.25
  0
LINE
  5
176
100
AcDbEntity
  8
1
  6
CONTINUOUS
 62
           3
100
AcDbLine
 10
5039.714603906642
 20
1933.25
 11
5049.389214871942
 21
1933.25
  0
LINE
  5
175
100
AcDbEntity
  8
1
  6
CONTINUOUS
 62
           3
100
AcDbLine
 10
5038.86879838446
 20
1931.0
 11
5039.714603906642
 21
1931.0
  0
LINE
  5
174
100
AcDbEntity
  8
1
  6
CONTINUOUS
 62
           3
100
AcDbLine
 10
5038.86879838446
 20
1925.0
 11
5038.86879838446
 21
1932.69374658004
  0
LINE
  5
173
100
AcDbEntity
  8
1
  6
CONTINUOUS
 62
           3
100
AcDbLine
 10
5038.16356769104
 20
1932.69374658004
 11
5038.86879838446
 21
1932.69374658004
  0
LINE
  5
172
100
AcDbEntity
  8
1
  6
CONTINUOUS
 62
           3
100
AcDbLine
 10
5037.66356769104
 20
1932.19374658004
 11
5037.66356769104
 21
1925.0
  0
LINE
  5
171
100
AcDbEntity
  8
1
  6
CONTINUOUS
 62
           3
100
AcDbLine
 10
5037.66356769104
 20
1925.0
 11
5037.66356769104
 21
1917.806253419961
  0
LINE
  5
170
100
AcDbEntity
  8
1
  6
CONTINUOUS
 62
           3
100
AcDbLine
 10
5038.86879838446
 20
1917.306253419961
 11
5038.16356769104
 21
1917.306253419961
  0
LINE
  5
16F
100
AcDbEntity
  8
1
  6
CONTINUOUS
 62
           3
100
AcDbLine
 10
5038.86879838446
 20
1917.306253419961
 11
5038.86879838446
 21
1925.0
  0
LINE
  5
16E
100
AcDbEntity
  8
1
  6
CONTINUOUS
 62
           3
100
AcDbLine
 10
5039.714603906642
 20
1919.0
 11
5038.86879838446
 21
1919.0
  0
LINE
  5
16D
100
AcDbEntity
  8
1
  6
CONTINUOUS
 62
           3
100
AcDbLine
 10
5039.714603906642
 20
1916.75
 11
5039.714603906642
 21
1925.0
  0
LINE
  5
16C
100
AcDbEntity
  8
1
  6
CONTINUOUS
 62
           3
100
AcDbLine
 10
5049.389214871942
 20
1916.75
 11
5039.714603906642
 21
1916.75
  0
LINE
  5
16B
100
AcDbEntity
  8
1
  6
CONTINUOUS
 62
           3
100
AcDbLine
 10
5049.389214871942
 20
1916.75
 11
5049.389214871942
 21
1917.306253419961
  0
LINE
  5
16A
100
AcDbEntity
  8
1
  6
DOT_CENTER
 62
           3
100
AcDbLine
 10
5036.21851955862
 20
1925.0
 11
5077.667695262439
 21
1925.0
  0
LINE
  5
169
100
AcDbEntity
  8
1
  6
CONTINUOUS
 62
           3
100
AcDbLine
 10
5054.489527668228
 20
1917.306253419961
 11
5060.16356769104
 21
1914.030344885398
  0
LINE
  5
168
100
AcDbEntity
  8
1
  6
CONTINUOUS
 62
           3
100
AcDbLine
 10
5060.16356769104
 20
1914.030344885398
 11
5069.66356769104
 21
1919.515172442699
  0
LINE
  5
167
100
AcDbEntity
  8
1
  6
CONTINUOUS
 62
           3
100
AcDbLine
 10
5069.66356769104
 20
1919.515172442699
 11
5069.66356769104
 21
1930.484827557302
  0
LINE
  5
166
100
AcDbEntity
  8
1
  6
CONTINUOUS
 62
           3
100
AcDbLine
 10
5069.66356769104
 20
1930.484827557302
 11
5060.16356769104
 21
1935.969655114602
  0
LINE
  5
165
100
AcDbEntity
  8
1
  6
CONTINUOUS
 62
           3
100
AcDbLine
 10
5060.16356769104
 20
1935.969655114602
 11
5054.489527668221
 21
1932.69374658004
  0
LINE
  5
164
100
AcDbEntity
  8
1
  6
CONTINUOUS
 62
           2
100
AcDbLine
 10
4659.999999999999
 20
1800.831132334582
 11
4659.999999999999
 21
520.0
  0
LINE
  5
163
100
AcDbEntity
  8
1
  6
CONTINUOUS
 62
           7
100
AcDbLine
 10
4639.999999999999
 20
1784.157226830841
 11
4639.999999999999
 21
2000.0
  0
LINE
  5
162
100
AcDbEntity
  8
1
  6
CONTINUOUS
 62
           2
100
AcDbLine
 10
4619.999999999999
 20
1737.982263269103
 11
4619.999999999999
 21
1980.0
  0
LINE
  5
161
100
AcDbEntity
  8
1
  6
CONTINUOUS
 62
           2
100
AcDbLine
 10
4659.999999999999
 20
1980.0
 11
4659.999999999999
 21
1814.464669216339
  0
LINE
  5
160
100
AcDbEntity
  8
1
  6
CONTINUOUS
 62
           2
100
AcDbLine
 10
4619.999999999999
 20
520.0
 11
4619.999999999999
 21
1711.424910670464
  0
LINE
  5
15F
100
AcDbEntity
  8
1
  6
CONTINUOUS
 62
           7
100
AcDbLine
 10
4639.999999999999
 20
500.0
 11
4639.999999999999
 21
1767.293273528173
  0
LINE
  5
15E
100
AcDbEntity
  8
1
  6
CONTINUOUS
 62
           7
100
AcDbLine
 10
698.56542280422
 20
2000.0
 11
698.56542280422
 21
1763.744569986044
  0
LINE
  5
15D
100
AcDbEntity
  8
1
  6
CONTINUOUS
 62
           7
100
AcDbLine
 10
2198.56542280422
 20
1763.744569986044
 11
-1301.43457719578
 21
1763.744569986044
  0
LINE
  5
15C
100
AcDbEntity
  8
1
  6
CONTINUOUS
 62
           7
100
AcDbLine
 10
-1120.932268732389
 20
986.513526798368
 11
23.565422804221
 21
986.513526798368
  0
LINE
  5
15B
100
AcDbEntity
  8
___S__
  6
DOT_CENTER
 62
           3
100
AcDbLine
 10
-1126.43457719578
 20
1067.06326659646
 11
-1126.434577195781
 21
982.067556365335
  0
LINE
  5
15A
100
AcDbEntity
  8
____
  6
CONTINUOUS
 62
           3
100
AcDbLine
 10
-1121.03052424066
 20
1060.459504816178
 11
-1121.03052424066
 21
1058.581574068056
  0
LINE
  5
159
100
AcDbEntity
  8
____
  6
CONTINUOUS
 62
           3
100
AcDbLine
 10
-1131.347352609524
 20
1060.928987503209
 11
-1121.521801782035
 21
1060.928987503209
  0
LINE
  5
158
100
AcDbEntity
  8
____
  6
CONTINUOUS
 62
           3
100
AcDbLine
 10
-1131.838630150898
 20
1058.581574068056
 11
-1131.838630150898
 21
1060.459504816178
  0
LINE
  5
157
100
AcDbEntity
  8
____
  6
CONTINUOUS
 62
           3
100
AcDbLine
 10
-1120.932268732388
 20
1022.900889853722
 11
-1131.936885659165
 21
1022.900889853723
  0
LINE
  5
156
100
AcDbEntity
  8
____
  6
CONTINUOUS
 62
           3
100
AcDbLine
 10
-1120.932268732387
 20
1058.581574068056
 11
-1120.932268732388
 21
1022.900889853722
  0
LINE
  5
155
100
AcDbEntity
  8
____
  6
CONTINUOUS
 62
           3
100
AcDbLine
 10
-1131.936885659164
 20
1058.581574068056
 11
-1120.932268732387
 21
1058.581574068056
  0
LINE
  5
154
100
AcDbEntity
  8
____
  6
CONTINUOUS
 62
           3
100
AcDbLine
 10
-1131.936885659165
 20
1022.900889853723
 11
-1131.936885659164
 21
1058.581574068056
  0
LINE
  5
153
100
AcDbEntity
  8
____
  6
CONTINUOUS
 62
           3
100
AcDbLine
 10
-1131.8386301509
 20
984.403309517206
 11
-1131.8386301509
 21
986.281240265329
  0
LINE
  5
152
100
AcDbEntity
  8
____
  6
CONTINUOUS
 62
           3
100
AcDbLine
 10
-1121.521801782037
 20
983.933826830174
 11
-1131.347352609526
 21
983.933826830174
  0
LINE
  5
151
100
AcDbEntity
  8
____
  6
CONTINUOUS
 62
           3
100
AcDbLine
 10
-1121.030524240662
 20
986.281240265329
 11
-1121.030524240662
 21
984.403309517206
  0
LINE
  5
150
100
AcDbEntity
  8
____
  6
CONTINUOUS
 62
           3
100
AcDbLine
 10
-1131.592991380212
 20
1022.900889853723
 11
-1131.592991380212
 21
1021.961924479661
  0
LINE
  5
14F
100
AcDbEntity
  8
____
  6
CONTINUOUS
 62
           3
100
AcDbLine
 10
-1121.276163011347
 20
1022.900889853722
 11
-1131.592991380212
 21
1022.900889853723
  0
LINE
  5
14E
100
AcDbEntity
  8
____
  6
CONTINUOUS
 62
           3
100
AcDbLine
 10
-1121.276163011347
 20
1021.961924479661
 11
-1121.276163011347
 21
1022.900889853722
  0
LINE
  5
14D
100
AcDbEntity
  8
____
  6
CONTINUOUS
 62
           3
100
AcDbLine
 10
-1131.838630150898
 20
1060.459504816178
 11
-1121.03052424066
 21
1060.459504816178
  0
LINE
  5
14C
100
AcDbEntity
  8
____
  6
CONTINUOUS
 62
           3
100
AcDbLine
 10
-1131.936885659165
 20
1021.961924479661
 11
-1120.932268732388
 21
1021.961924479661
  0
LINE
  5
14B
100
AcDbEntity
  8
____
  6
CONTINUOUS
 62
           3
100
AcDbLine
 10
-1131.936885659165
 20
986.281240265329
 11
-1131.936885659165
 21
1021.961924479661
  0
LINE
  5
14A
100
AcDbEntity
  8
____
  6
CONTINUOUS
 62
           3
100
AcDbLine
 10
-1120.932268732389
 20
986.281240265329
 11
-1131.936885659165
 21
986.281240265329
  0
LINE
  5
149
100
AcDbEntity
  8
____
  6
CONTINUOUS
 62
           3
100
AcDbLine
 10
-1120.932268732388
 20
1021.961924479661
 11
-1120.932268732389
 21
986.281240265329
  0
LINE
  5
148
100
AcDbEntity
  8
____
  6
CONTINUOUS
 62
           3
100
AcDbLine
 10
-1131.838630150898
 20
1060.459504816178
 11
-1131.347352609524
 21
1060.928987503209
  0
LINE
  5
147
100
AcDbEntity
  8
____
  6
CONTINUOUS
 62
           3
100
AcDbLine
 10
-1121.521801782035
 20
1060.928987503209
 11
-1121.03052424066
 21
1060.459504816178
  0
LINE
  5
146
100
AcDbEntity
  8
____
  6
CONTINUOUS
 62
           3
100
AcDbLine
 10
-1131.347352609526
 20
983.933826830174
 11
-1131.8386301509
 21
984.403309517206
  0
LINE
  5
145
100
AcDbEntity
  8
____
  6
CONTINUOUS
 62
           3
100
AcDbLine
 10
-1121.030524240662
 20
984.403309517206
 11
-1121.521801782037
 21
983.933826830174
  0
LINE
  5
144
100
AcDbEntity
  8
____
  6
CONTINUOUS
 62
           3
100
AcDbLine
 10
-1131.8386301509
 20
984.403309517206
 11
-1121.030524240662
 21
984.403309517206
  0
LINE
  5
143
100
AcDbEntity
  8
____
  6
CONTINUOUS
 62
           3
100
AcDbLine
 10
-1131.838630150876
 20
1538.392880207259
 11
-1121.030524240638
 21
1538.392880207259
  0
LINE
  5
142
100
AcDbEntity
  8
____
  6
CONTINUOUS
 62
           3
100
AcDbLine
 10
-1121.030524240638
 20
1538.392880207259
 11
-1121.521801782012
 21
1537.92339752023
  0
LINE
  5
141
100
AcDbEntity
  8
____
  6
CONTINUOUS
 62
           3
100
AcDbLine
 10
-1131.347352609501
 20
1537.92339752023
 11
-1131.838630150876
 21
1538.392880207259
  0
LINE
  5
140
100
AcDbEntity
  8
____
  6
CONTINUOUS
 62
           3
100
AcDbLine
 10
-1121.521801782012
 20
1614.918558193263
 11
-1121.030524240637
 21
1614.449075506231
  0
LINE
  5
13F
100
AcDbEntity
  8
____
  6
CONTINUOUS
 62
           3
100
AcDbLine
 10
-1131.838630150874
 20
1614.449075506231
 11
-1131.3473526095
 21
1614.918558193263
  0
LINE
  5
13E
100
AcDbEntity
  8
____
  6
CONTINUOUS
 62
           3
100
AcDbLine
 10
-1120.932268732372
 20
1575.951495169715
 11
-1120.932268732372
 21
1540.270810955382
  0
LINE
  5
13D
100
AcDbEntity
  8
____
  6
CONTINUOUS
 62
           3
100
AcDbLine
 10
-1120.932268732372
 20
1540.270810955382
 11
-1131.936885659149
 21
1540.270810955382
  0
LINE
  5
13C
100
AcDbEntity
  8
____
  6
CONTINUOUS
 62
           3
100
AcDbLine
 10
-1131.936885659149
 20
1540.270810955382
 11
-1131.936885659149
 21
1575.951495169715
  0
LINE
  5
13B
100
AcDbEntity
  8
____
  6
CONTINUOUS
 62
           3
100
AcDbLine
 10
-1131.936885659149
 20
1575.951495169715
 11
-1120.932268732372
 21
1575.951495169715
  0
LINE
  5
13A
100
AcDbEntity
  8
____
  6
CONTINUOUS
 62
           3
100
AcDbLine
 10
-1131.838630150874
 20
1614.449075506231
 11
-1121.030524240637
 21
1614.449075506231
  0
LINE
  5
139
100
AcDbEntity
  8
____
  6
CONTINUOUS
 62
           3
100
AcDbLine
 10
-1121.276163011325
 20
1575.951495169715
 11
-1121.276163011325
 21
1576.890460543777
  0
LINE
  5
138
100
AcDbEntity
  8
____
  6
CONTINUOUS
 62
           3
100
AcDbLine
 10
-1121.276163011325
 20
1576.890460543777
 11
-1131.592991380188
 21
1576.890460543777
  0
LINE
  5
137
100
AcDbEntity
  8
____
  6
CONTINUOUS
 62
           3
100
AcDbLine
 10
-1131.592991380188
 20
1576.890460543777
 11
-1131.592991380188
 21
1575.951495169715
  0
LINE
  5
136
100
AcDbEntity
  8
____
  6
CONTINUOUS
 62
           3
100
AcDbLine
 10
-1121.030524240638
 20
1540.270810955382
 11
-1121.030524240638
 21
1538.392880207259
  0
LINE
  5
135
100
AcDbEntity
  8
____
  6
CONTINUOUS
 62
           3
100
AcDbLine
 10
-1121.521801782012
 20
1537.92339752023
 11
-1131.347352609501
 21
1537.92339752023
  0
LINE
  5
134
100
AcDbEntity
  8
____
  6
CONTINUOUS
 62
           3
100
AcDbLine
 10
-1131.838630150876
 20
1538.392880207259
 11
-1131.838630150876
 21
1540.270810955382
  0
LINE
  5
133
100
AcDbEntity
  8
____
  6
CONTINUOUS
 62
           3
100
AcDbLine
 10
-1131.936885659149
 20
1576.890460543777
 11
-1131.936885659147
 21
1612.571144758109
  0
LINE
  5
132
100
AcDbEntity
  8
____
  6
CONTINUOUS
 62
           3
100
AcDbLine
 10
-1131.936885659147
 20
1612.571144758109
 11
-1120.932268732371
 21
1612.571144758108
  0
LINE
  5
131
100
AcDbEntity
  8
____
  6
CONTINUOUS
 62
           3
100
AcDbLine
 10
-1120.932268732371
 20
1612.571144758108
 11
-1120.932268732372
 21
1576.890460543777
  0
LINE
  5
130
100
AcDbEntity
  8
____
  6
CONTINUOUS
 62
           3
100
AcDbLine
 10
-1120.932268732372
 20
1576.890460543777
 11
-1131.936885659149
 21
1576.890460543777
  0
LINE
  5
12F
100
AcDbEntity
  8
____
  6
CONTINUOUS
 62
           3
100
AcDbLine
 10
-1131.838630150874
 20
1612.571144758109
 11
-1131.838630150874
 21
1614.449075506231
  0
LINE
  5
12E
100
AcDbEntity
  8
____
  6
CONTINUOUS
 62
           3
100
AcDbLine
 10
-1131.3473526095
 20
1614.918558193263
 11
-1121.521801782012
 21
1614.918558193263
  0
LINE
  5
12D
100
AcDbEntity
  8
____
  6
CONTINUOUS
 62
           3
100
AcDbLine
 10
-1121.030524240637
 20
1614.449075506231
 11
-1121.030524240637
 21
1612.571144758108
  0
LINE
  5
12C
100
AcDbEntity
  8
___S__
  6
DOT_CENTER
 62
           3
100
AcDbLine
 10
-1126.434577195756
 20
1621.052837286497
 11
-1126.434577195756
 21
1536.057127055389
  0
LINE
  5
12B
100
AcDbEntity
  8
1
  6
CONTINUOUS
 62
           7
100
AcDbLine
 10
-1126.43457719578
 20
941.513526798366
 11
23.565422804221
 21
941.513526798366
  0
LINE
  5
12A
100
AcDbEntity
  8
1
  6
CONTINUOUS
 62
           7
100
AcDbLine
 10
23.565422804221
 20
941.513526798366
 11
23.565422804221
 21
1646.282992387802
  0
LINE
  5
129
100
AcDbEntity
  8
1
  6
CONTINUOUS
 62
           7
100
AcDbLine
 10
-1126.43457719578
 20
941.513526798366
 11
-1126.43457719578
 21
1646.282992387802
  0
LINE
  5
128
100
AcDbEntity
  8
1
  6
CONTINUOUS
 62
           7
100
AcDbLine
 10
23.565422804221
 20
1646.282992387802
 11
-1126.43457719578
 21
1646.282992387802
  0
LINE
  5
127
100
AcDbEntity
  8
1
  6
CONTINUOUS
 62
           3
100
AcDbLine
 10
-37.038780873905
 20
1294.32810932706
 11
-39.426726873886
 21
1267.070985327059
  0
LINE
  5
126
100
AcDbEntity
  8
1
  6
CONTINUOUS
 62
           3
100
AcDbLine
 10
-39.426726873886
 20
1323.33071132706
 11
-37.038780873905
 21
1296.073587327061
  0
LINE
  5
125
100
AcDbEntity
  8
1
  6
CONTINUOUS
 62
           3
100
AcDbLine
 10
-48.885862873905
 20
1294.32810932706
 11
-46.497916873895
 21
1267.070985327059
  0
LINE
  5
124
100
AcDbEntity
  8
1
  6
CONTINUOUS
 62
           3
100
AcDbLine
 10
-46.497916873895
 20
1323.33071132706
 11
-48.885862873905
 21
1296.073587327061
  0
LINE
  5
123
100
AcDbEntity
  8
1
  6
DOT_CENTER
 62
           3
100
AcDbLine
 10
2.037678126099
 20
1295.20084832705
 11
-87.959776873906
 21
1295.20084832705
  0
LINE
  5
122
100
AcDbEntity
  8
1
  6
DOT_CENTER
 62
           3
100
AcDbLine
 10
-42.962321873901
 20
1340.20084832705
 11
-42.962321873901
 21
1250.20227732705
  0
LINE
  5
121
100
AcDbEntity
  8
1
  6
CONTINUOUS
 62
           7
100
AcDbLine
 10
4189.999999999999
 20
1620.0
 11
4369.999999999999
 21
1620.0
  0
LINE
  5
120
100
AcDbEntity
  8
1
  6
CONTINUOUS
 62
           7
100
AcDbLine
 10
4369.999999999999
 20
1620.0
 11
4369.999999999999
 21
1733.000000000001
  0
LINE
  5
11F
100
AcDbEntity
  8
1
  6
CONTINUOUS
 62
           7
100
AcDbLine
 10
4369.999999999999
 20
1733.000000000001
 11
4189.999999999999
 21
1733.0
  0
LINE
  5
11E
100
AcDbEntity
  8
1
  6
CONTINUOUS
 62
           7
100
AcDbLine
 10
4189.999999999999
 20
1733.0
 11
4189.999999999999
 21
1620.0
  0
LINE
  5
11D
100
AcDbEntity
  8
1
  6
CONTINUOUS
 62
           7
100
AcDbLine
 10
2248.56542280422
 20
2150.0
 11
-1351.43457719578
 21
2150.0
  0
LINE
  5
11C
100
AcDbEntity
  8
1
  6
CONTINUOUS
 62
           7
100
AcDbLine
 10
-51.434577195779
 20
5086.30780618347
 11
-51.434577195779
 21
4911.999999999999
  0
LINE
  5
11B
100
AcDbEntity
  8
1
  6
CONTINUOUS
 62
           2
100
AcDbLine
 10
297.660057740126
 20
4891.999999999999
 11
-1281.43457719578
 21
4892.0
  0
LINE
  5
11A
100
AcDbEntity
  8
1
  6
CONTINUOUS
 62
           2
100
AcDbLine
 10
678.56542280422
 20
4891.999999999999
 11
503.545813076069
 21
4891.999999999999
  0
LINE
  5
119
100
AcDbEntity
  8
1
  6
CONTINUOUS
 62
           7
100
AcDbLine
 10
576.493979649577
 20
4911.999999999999
 11
2248.56542280422
 21
4912.0
  0
LINE
  5
118
100
AcDbEntity
  8
1
  6
DOT_CENTER
 62
           2
100
AcDbLine
 10
998.56542280422
 20
4238.73259501538
 11
998.56542280422
 21
4084.59766459732
  0
LINE
  5
117
100
AcDbEntity
  8
1
  6
DOT_CENTER
 62
           2
100
AcDbLine
 10
-751.43457719578
 20
4254.552959980081
 11
-751.43457719578
 21
4064.29515728812
  0
LINE
  5
116
100
AcDbEntity
  8
1
  6
CONTINUOUS
 62
           7
100
AcDbLine
 10
183.56542280422
 20
475.000000000001
 11
183.56542280422
 21
540.0
  0
LINE
  5
115
100
AcDbEntity
  8
1
  6
CONTINUOUS
 62
           7
100
AcDbLine
 10
-1286.43457719578
 20
475.000000000001
 11
-1286.43457719578
 21
540.0
  0
LINE
  5
114
100
AcDbEntity
  8
1
  6
CONTINUOUS
 62
           7
100
AcDbLine
 10
-1301.43457719578
 20
475.000000000001
 11
2198.56542280422
 21
475.000000000001
  0
LINE
  5
113
100
AcDbEntity
  8
1
  6
CONTINUOUS
 62
           7
100
AcDbLine
 10
-688.934577195782
 20
4147.0
 11
-709.008170324587
 21
4147.0
  0
LINE
  5
112
100
AcDbEntity
  8
1
  6
CONTINUOUS
 62
           7
100
AcDbLine
 10
-766.43457719578
 20
4099.5
 11
-766.43457719578
 21
4119.573593128805
  0
LINE
  5
111
100
AcDbEntity
  8
1
  6
CONTINUOUS
 62
           7
100
AcDbLine
 10
-813.93457719578
 20
4177.0
 11
-793.860984066973
 21
4177.0
  0
LINE
  5
110
100
AcDbEntity
  8
1
  6
CONTINUOUS
 62
           7
100
AcDbLine
 10
-688.934577195782
 20
4177.0
 11
-688.934577195782
 21
4147.0
  0
LINE
  5
10F
100
AcDbEntity
  8
1
  6
CONTINUOUS
 62
           7
100
AcDbLine
 10
-736.43457719578
 20
4099.5
 11
-766.43457719578
 21
4099.5
  0
LINE
  5
10E
100
AcDbEntity
  8
1
  6
CONTINUOUS
 62
           7
100
AcDbLine
 10
-813.93457719578
 20
4147.0
 11
-813.93457719578
 21
4177.0
  0
LINE
  5
10D
100
AcDbEntity
  8
1
  6
CONTINUOUS
 62
           7
100
AcDbLine
 10
-709.008170324587
 20
4177.0
 11
-688.934577195782
 21
4177.0
  0
LINE
  5
10C
100
AcDbEntity
  8
1
  6
CONTINUOUS
 62
           7
100
AcDbLine
 10
-736.43457719578
 20
4119.573593128805
 11
-736.43457719578
 21
4099.5
  0
LINE
  5
10B
100
AcDbEntity
  8
1
  6
CONTINUOUS
 62
           7
100
AcDbLine
 10
-793.860984066973
 20
4147.0
 11
-813.93457719578
 21
4147.0
  0
LINE
  5
10A
100
AcDbEntity
  8
1
  6
CONTINUOUS
 62
           7
100
AcDbLine
 10
-736.43457719578
 20
4224.5
 11
-736.43457719578
 21
4204.426406871191
  0
LINE
  5
109
100
AcDbEntity
  8
1
  6
CONTINUOUS
 62
           7
100
AcDbLine
 10
-766.43457719578
 20
4224.5
 11
-736.43457719578
 21
4224.5
  0
LINE
  5
108
100
AcDbEntity
  8
1
  6
CONTINUOUS
 62
           7
100
AcDbLine
 10
-766.43457719578
 20
4204.426406871191
 11
-766.43457719578
 21
4224.5
  0
LINE
  5
107
100
AcDbEntity
  8
1
  6
DOT_CENTER
 62
           2
100
AcDbLine
 10
-984.347501220619
 20
4162.0
 11
401.490092701164
 21
4162.0
  0
LINE
  5
106
100
AcDbEntity
  8
1
  6
DOT_CENTER
 62
           2
100
AcDbLine
 10
767.652498779382
 20
4162.0
 11
2153.490092701164
 21
4162.0
  0
LINE
  5
105
100
AcDbEntity
  8
1
  6
CONTINUOUS
 62
           7
100
AcDbLine
 10
983.56542280422
 20
4204.426406871191
 11
983.56542280422
 21
4224.5
  0
LINE
  5
104
100
AcDbEntity
  8
1
  6
CONTINUOUS
 62
           7
100
AcDbLine
 10
983.56542280422
 20
4224.5
 11
1013.56542280422
 21
4224.5
  0
LINE
  5
103
100
AcDbEntity
  8
1
  6
CONTINUOUS
 62
           7
100
AcDbLine
 10
1013.56542280422
 20
4224.5
 11
1013.56542280422
 21
4204.426406871191
  0
LINE
  5
102
100
AcDbEntity
  8
1
  6
CONTINUOUS
 62
           7
100
AcDbLine
 10
956.139015933027
 20
4147.0
 11
936.06542280422
 21
4147.0
  0
LINE
  5
101
100
AcDbEntity
  8
1
  6
CONTINUOUS
 62
           7
100
AcDbLine
 10
1013.56542280422
 20
4119.573593128805
 11
1013.56542280422
 21
4099.5
  0
LINE
  5
100
100
AcDbEntity
  8
1
  6
CONTINUOUS
 62
           7
100
AcDbLine
 10
1040.991829675413
 20
4177.0
 11
1061.065422804219
 21
4177.0
  0
LINE
  5
FF
100
AcDbEntity
  8
1
  6
CONTINUOUS
 62
           7
100
AcDbLine
 10
936.06542280422
 20
4147.0
 11
936.06542280422
 21
4177.0
  0
LINE
  5
FE
100
AcDbEntity
  8
1
  6
CONTINUOUS
 62
           7
100
AcDbLine
 10
1013.56542280422
 20
4099.5
 11
983.56542280422
 21
4099.5
  0
LINE
  5
FD
100
AcDbEntity
  8
1
  6
CONTINUOUS
 62
           7
100
AcDbLine
 10
1061.065422804219
 20
4177.0
 11
1061.065422804219
 21
4147.0
  0
LINE
  5
FC
100
AcDbEntity
  8
1
  6
CONTINUOUS
 62
           7
100
AcDbLine
 10
936.06542280422
 20
4177.0
 11
956.139015933027
 21
4177.0
  0
LINE
  5
FB
100
AcDbEntity
  8
1
  6
CONTINUOUS
 62
           7
100
AcDbLine
 10
983.56542280422
 20
4099.5
 11
983.56542280422
 21
4119.573593128805
  0
LINE
  5
FA
100
AcDbEntity
  8
1
  6
CONTINUOUS
 62
           7
100
AcDbLine
 10
1061.065422804219
 20
4147.0
 11
1040.991829675413
 21
4147.0
  0
LINE
  5
F9
100
AcDbEntity
  8
1
  6
CONTINUOUS
 62
           7
100
AcDbLine
 10
183.56542280422
 20
540.0
 11
-1286.43457719578
 21
540.0
  0
LINE
  5
F8
100
AcDbEntity
  8
1
  6
CONTINUOUS
 62
           7
100
AcDbLine
 10
198.56542280422
 20
1763.744569986044
 11
198.56542280422
 21
500.0
  0
LINE
  5
F7
100
AcDbEntity
  8
1
  6
CONTINUOUS
 62
           7
100
AcDbLine
 10
183.56542280422
 20
500.0
 11
213.56542280422
 21
500.0
  0
LINE
  5
F6
100
AcDbEntity
  8
1
  6
CONTINUOUS
 62
           7
100
AcDbLine
 10
-1651.43457719578
 20
0.0
 11
2475.284054825071
 21
0.0
  0
LINE
  5
F5
100
AcDbEntity
  8
1
  6
CONTINUOUS
 62
           2
100
AcDbLine
 10
968.56542280422
 20
5892.0
 11
968.56542280422
 21
4932.0
  0
LINE
  5
F4
100
AcDbEntity
  8
1
  6
CONTINUOUS
 62
           7
100
AcDbLine
 10
698.56542280422
 20
4911.999999999999
 11
698.56542280422
 21
3962.0
  0
LINE
  5
F3
100
AcDbEntity
  8
1
  6
CONTINUOUS
 62
           2
100
AcDbLine
 10
718.56542280422
 20
4892.0
 11
718.56542280422
 21
3962.0
  0
LINE
  5
F2
100
AcDbEntity
  8
1
  6
CONTINUOUS
 62
           7
100
AcDbLine
 10
-1351.43457719578
 20
3912.0
 11
2248.56542280422
 21
3912.0
  0
LINE
  5
F1
100
AcDbEntity
  8
1
  6
CONTINUOUS
 62
           7
100
AcDbLine
 10
-1351.43457719578
 20
5912.0
 11
-1351.43457719578
 21
3912.0
  0
LINE
  5
F0
100
AcDbEntity
  8
1
  6
CONTINUOUS
 62
           7
100
AcDbLine
 10
-1351.43457719578
 20
4912.0
 11
218.039833971644
 21
4911.999999999999
  0
LINE
  5
EF
100
AcDbEntity
  8
1
  6
CONTINUOUS
 62
           2
100
AcDbLine
 10
678.56542280422
 20
3962.0
 11
678.56542280422
 21
4891.999999999999
  0
LINE
  5
EE
100
AcDbEntity
  8
1
  6
CONTINUOUS
 62
           7
100
AcDbLine
 10
-1351.43457719578
 20
3962.0
 11
2248.56542280422
 21
3962.0
  0
LINE
  5
ED
100
AcDbEntity
  8
1
  6
CONTINUOUS
 62
           2
100
AcDbLine
 10
-1281.43457719578
 20
4892.0
 11
-1281.43457719578
 21
3962.0
  0
LINE
  5
EC
100
AcDbEntity
  8
1
  6
CONTINUOUS
 62
           7
100
AcDbLine
 10
-1301.43457719578
 20
3962.0
 11
-1301.43457719578
 21
4912.0
  0
LINE
  5
EB
100
AcDbEntity
  8
1
  6
CONTINUOUS
 62
           7
100
AcDbLine
 10
2198.56542280422
 20
3962.0
 11
2198.56542280422
 21
4912.0
  0
LINE
  5
EA
100
AcDbEntity
  8
1
  6
CONTINUOUS
 62
           7
100
AcDbLine
 10
948.56542280422
 20
4912.0
 11
948.56542280422
 21
5912.0
  0
LINE
  5
E9
100
AcDbEntity
  8
1
  6
CONTINUOUS
 62
           2
100
AcDbLine
 10
-1331.43457719578
 20
4932.0
 11
-1071.43457719578
 21
4932.0
  0
LINE
  5
E8
100
AcDbEntity
  8
1
  6
CONTINUOUS
 62
           2
100
AcDbLine
 10
-1331.43457719578
 20
4932.0
 11
-1331.43457719578
 21
5892.0
  0
LINE
  5
E7
100
AcDbEntity
  8
1
  6
CONTINUOUS
 62
           7
100
AcDbLine
 10
2248.56542280422
 20
5912.0
 11
448.56542280422
 21
5912.0
  0
LINE
  5
E6
100
AcDbEntity
  8
1
  6
CONTINUOUS
 62
           2
100
AcDbLine
 10
968.56542280422
 20
4932.0
 11
1928.56542280422
 21
4932.0
  0
LINE
  5
E5
100
AcDbEntity
  8
1
  6
CONTINUOUS
 62
           7
100
AcDbLine
 10
2248.56542280422
 20
0.0
 11
2248.56542280422
 21
2150.0
  0
LINE
  5
E4
100
AcDbEntity
  8
1
  6
CONTINUOUS
 62
           7
100
AcDbLine
 10
-1351.43457719578
 20
2150.0
 11
-1351.43457719578
 21
0.0
  0
LINE
  5
E3
100
AcDbEntity
  8
1
  6
CONTINUOUS
 62
           7
100
AcDbLine
 10
2248.56542280422
 20
2000.0
 11
-1351.43457719578
 21
2000.0
  0
LINE
  5
E2
100
AcDbEntity
  8
1
  6
CONTINUOUS
 62
           2
100
AcDbLine
 10
-211.434577195777
 20
5892.0
 11
-1031.43457719578
 21
5892.0
  0
LINE
  5
E1
100
AcDbEntity
  8
1
  6
CONTINUOUS
 62
           7
100
AcDbLine
 10
-1301.43457719578
 20
0.0
 11
-1301.43457719578
 21
2000.0
  0
LINE
  5
E0
100
AcDbEntity
  8
1
  6
CONTINUOUS
 62
           7
100
AcDbLine
 10
2198.56542280422
 20
0.0
 11
2198.56542280422
 21
2000.0
  0
LINE
  5
DF
100
AcDbEntity
  8
1
  6
CONTINUOUS
 62
           7
100
AcDbLine
 10
2198.56542280422
 20
1900.0
 11
-1301.43457719578
 21
1900.0
  0
LINE
  5
DE
100
AcDbEntity
  8
1
  6
CONTINUOUS
 62
           7
100
AcDbLine
 10
2198.56542280422
 20
50.0
 11
-1301.43457719578
 21
50.0
  0
LINE
  5
DD
100
AcDbEntity
  8
1
  6
CONTINUOUS
 62
           7
100
AcDbLine
 10
-1301.43457719578
 20
400.0
 11
2198.56542280422
 21
400.0
  0
LINE
  5
DC
100
AcDbEntity
  8
1
  6
CONTINUOUS
 62
           7
100
AcDbLine
 10
2183.56542280422
 20
540.0
 11
2183.56542280422
 21
475.000000000001
  0
LINE
  5
DB
100
AcDbEntity
  8
1
  6
CONTINUOUS
 62
           7
100
AcDbLine
 10
213.56542280422
 20
540.0
 11
213.56542280422
 21
475.000000000001
  0
LINE
  5
DA
100
AcDbEntity
  8
1
  6
CONTINUOUS
 62
           7
100
AcDbLine
 10
-1301.43457719578
 20
800.0
 11
2198.56542280422
 21
800.0
  0
LINE
  5
D9
100
AcDbEntity
  8
1
  6
CONTINUOUS
 62
           7
100
AcDbLine
 10
2183.56542280422
 20
500.0
 11
2198.56542280422
 21
500.0
  0
LINE
  5
D8
100
AcDbEntity
  8
1
  6
CONTINUOUS
 62
           7
100
AcDbLine
 10
-1301.43457719578
 20
500.0
 11
-1286.43457719578
 21
500.0
  0
LINE
  5
D7
100
AcDbEntity
  8
1
  6
CONTINUOUS
 62
           7
100
AcDbLine
 10
2183.56542280422
 20
540.0
 11
213.56542280422
 21
540.0
  0
LINE
  5
D6
100
AcDbEntity
  8
1
  6
DOT_CENTER
 62
           2
100
AcDbLine
 10
448.56542280422
 20
-110.11895551696
 11
448.56542280422
 21
3149.043537887942
  0
LINE
  5
D5
100
AcDbEntity
  8
1
  6
DOT_CENTER
 62
           2
100
AcDbLine
 10
-387.901289539153
 20
5452.0
 11
1189.993575894732
 21
5452.0
  0
LINE
  5
D4
100
AcDbEntity
  8
1
  6
DOT_CENTER
 62
           2
100
AcDbLine
 10
448.56542280422
 20
6076.216232355005
 11
448.56542280422
 21
3796.635929304588
  0
LINE
  5
D3
100
AcDbEntity
  8
1
  6
CONTINUOUS
 62
           7
100
AcDbLine
 10
2248.56542280422
 20
3912.0
 11
2248.56542280422
 21
5912.0
  0
LINE
  5
D2
100
AcDbEntity
  8
1
  6
CONTINUOUS
 62
           2
100
AcDbLine
 10
2228.56542280422
 20
5892.0
 11
2228.56542280422
 21
4932.0
  0
LINE
  5
D1
100
AcDbEntity
  8
1
  6
CONTINUOUS
 62
           2
100
AcDbLine
 10
968.56542280422
 20
5892.0
 11
1928.56542280422
 21
5892.0
  0
LINE
  5
D0
100
AcDbEntity
  8
1
  6
CONTINUOUS
 62
           2
100
AcDbLine
 10
2178.56542280422
 20
4892.0
 11
2178.56542280422
 21
3962.0
  0
LINE
  5
CF
100
AcDbEntity
  8
1
  6
CONTINUOUS
 62
           7
100
AcDbLine
 10
-201.43457719578
 20
5912.0
 11
-1351.43457719578
 21
5912.0
  0
LINE
  5
CE
100
AcDbEntity
  8
1
  6
CONTINUOUS
 62
           2
100
AcDbLine
 10
2178.56542280422
 20
4892.0
 11
718.56542280422
 21
4892.0
  0
LINE
  5
CD
100
AcDbEntity
  8
1
  6
CONTINUOUS
 62
           2
100
AcDbLine
 10
2202.56542280422
 20
4912.0
 11
2202.56542280422
 21
3962.0
  0
LINE
  5
CC
100
AcDbEntity
  8
1
  6
CONTINUOUS
 62
           7
100
AcDbLine
 10
1948.56542280422
 20
5912.0
 11
1948.56542280422
 21
4912.0
  0
LINE
  5
CB
100
AcDbEntity
  8
1
  6
CONTINUOUS
 62
           2
100
AcDbLine
 10
1968.56542280422
 20
5892.0
 11
1968.56542280422
 21
4932.0
  0
LINE
  5
CA
100
AcDbEntity
  8
1
  6
CONTINUOUS
 62
           2
100
AcDbLine
 10
1968.56542280422
 20
5892.0
 11
2228.56542280422
 21
5892.0
  0
LINE
  5
C9
100
AcDbEntity
  8
1
  6
CONTINUOUS
 62
           2
100
AcDbLine
 10
1968.56542280422
 20
4932.0
 11
2228.56542280422
 21
4932.0
  0
LINE
  5
C8
100
AcDbEntity
  8
1
  6
CONTINUOUS
 62
           2
100
AcDbLine
 10
1928.56542280422
 20
5892.0
 11
1928.56542280422
 21
4932.0
  0
LINE
  5
C7
100
AcDbEntity
  8
1
  6
CONTINUOUS
 62
           2
100
AcDbLine
 10
-1305.43457719578
 20
4912.0
 11
-1305.43457719578
 21
3962.0
  0
LINE
  5
C6
100
AcDbEntity
  8
1
  6
CONTINUOUS
 62
           7
100
AcDbLine
 10
-1051.43457719578
 20
5912.0
 11
-1051.43457719578
 21
4912.0
  0
LINE
  5
C5
100
AcDbEntity
  8
1
  6
CONTINUOUS
 62
           2
100
AcDbLine
 10
-1071.43457719578
 20
5892.0
 11
-1071.43457719578
 21
4932.0
  0
LINE
  5
C4
100
AcDbEntity
  8
1
  6
CONTINUOUS
 62
           2
100
AcDbLine
 10
-1031.43457719578
 20
5892.0
 11
-1031.43457719578
 21
4932.0
  0
LINE
  5
C3
100
AcDbEntity
  8
1
  6
CONTINUOUS
 62
           2
100
AcDbLine
 10
-1071.43457719578
 20
5892.0
 11
-1331.43457719578
 21
5892.0
  0
LINE
  5
C2
100
AcDbEntity
  8
1
  6
CONTINUOUS
 62
           2
100
AcDbLine
 10
-1031.43457719578
 20
4932.0
 11
-71.43457719578
 21
4932.0
  0
LINE
  5
C1
100
AcDbEntity
  8
1
  6
CONTINUOUS
 62
           7
100
AcDbLine
 10
198.56542280422
 20
475.000000000001
 11
198.56542280422
 21
400.0
  0
LINE
  5
C0
100
AcDbEntity
  8
1
  6
CONTINUOUS
 62
           2
100
AcDbLine
 10
-71.43457719578
 20
4932.0
 11
-71.43457719578
 21
5109.57166259303
  0
LINE
  5
BF
100
AcDbEntity
  8
1
  6
CONTINUOUS
 62
           2
100
AcDbLine
 10
3660.000000000003
 20
1330.0
 11
3660.000000000002
 21
20.0
  0
LINE
  5
BE
100
AcDbEntity
  8
1
  6
CONTINUOUS
 62
           2
100
AcDbLine
 10
4120.000000000002
 20
1670.0
 11
4120.000000000002
 21
1980.0
  0
LINE
  5
BD
100
AcDbEntity
  8
1
  6
DOT_CENTER
 62
           2
100
AcDbLine
 10
3890.000000000003
 20
2213.047564257508
 11
3890.000000000003
 21
1962.16992631148
  0
LINE
  5
BC
100
AcDbEntity
  8
1
  6
DOT_CENTER
 62
           2
100
AcDbLine
 10
4940.0
 20
675.0
 11
4940.0
 21
525.0
  0
LINE
  5
BB
100
AcDbEntity
  8
1
  6
DOT_CENTER
 62
           2
100
AcDbLine
 10
4865.0
 20
600.0
 11
5015.0
 21
600.0
  0
LINE
  5
BA
100
AcDbEntity
  8
1
  6
CONTINUOUS
 62
           7
100
AcDbLine
 10
3640.000000000003
 20
2050.0
 11
5640.0
 21
2050.0
  0
LINE
  5
B9
100
AcDbEntity
  8
1
  6
CONTINUOUS
 62
           2
100
AcDbLine
 10
3640.000000000003
 20
2004.0
 11
4640.000000000002
 21
2004.0
  0
LINE
  5
B8
100
AcDbEntity
  8
1
  6
CONTINUOUS
 62
           7
100
AcDbLine
 10
5640.0
 20
2000.0
 11
3640.000000000003
 21
2000.0
  0
LINE
  5
B7
100
AcDbEntity
  8
1
  6
CONTINUOUS
 62
           7
100
AcDbLine
 10
5640.0
 20
0.0
 11
5640.0
 21
2075.0
  0
LINE
  5
B6
100
AcDbEntity
  8
1
  6
CONTINUOUS
 62
           7
100
AcDbLine
 10
3640.000000000002
 20
0.0
 11
3640.000000000003
 21
2050.0
  0
LINE
  5
B5
100
AcDbEntity
  8
1
  6
CONTINUOUS
 62
           2
100
AcDbLine
 10
3660.000000000002
 20
20.0
 11
4120.000000000002
 21
20.0
  0
LINE
  5
B4
100
AcDbEntity
  8
1
  6
CONTINUOUS
 62
           2
100
AcDbLine
 10
4120.000000000002
 20
20.0
 11
4120.000000000002
 21
1330.0
  0
LINE
  5
B3
100
AcDbEntity
  8
1
  6
CONTINUOUS
 62
           2
100
AcDbLine
 10
4120.000000000002
 20
1980.0
 11
3660.000000000003
 21
1980.0
  0
LINE
  5
B2
100
AcDbEntity
  8
1
  6
CONTINUOUS
 62
           2
100
AcDbLine
 10
3660.000000000003
 20
1980.0
 11
3660.000000000003
 21
1670.0
  0
LINE
  5
B1
100
AcDbEntity
  8
1
  6
CONTINUOUS
 62
           7
100
AcDbLine
 10
4140.000000000002
 20
0.0
 11
4140.000000000002
 21
2000.0
  0
LINE
  5
B0
100
AcDbEntity
  8
1
  6
CONTINUOUS
 62
           7
100
AcDbLine
 10
4140.000000000002
 20
500.0
 11
5640.0
 21
500.0
  0
LINE
  5
AF
100
AcDbEntity
  8
1
  6
CONTINUOUS
 62
           2
100
AcDbLine
 10
5619.433325304563
 20
479.385061529882
 11
4160.000000000002
 21
479.385061529882
  0
LINE
  5
AE
100
AcDbEntity
  8
1
  6
CONTINUOUS
 62
           2
100
AcDbLine
 10
4160.000000000002
 20
479.385061529882
 11
4160.000000000002
 21
20.0
  0
LINE
  5
AD
100
AcDbEntity
  8
1
  6
CONTINUOUS
 62
           2
100
AcDbLine
 10
4160.000000000002
 20
20.0
 11
5619.433325304563
 21
20.0
  0
LINE
  5
AC
100
AcDbEntity
  8
1
  6
CONTINUOUS
 62
           2
100
AcDbLine
 10
5619.433325304563
 20
20.0
 11
5619.433325304563
 21
479.385061529882
  0
LINE
  5
AB
100
AcDbEntity
  8
1
  6
CONTINUOUS
 62
           7
100
AcDbLine
 10
4640.000000000002
 20
2000.0
 11
4640.000000000002
 21
2075.0
  0
LINE
  5
AA
100
AcDbEntity
  8
1
  6
CONTINUOUS
 62
           2
100
AcDbLine
 10
4620.000000000002
 20
1980.0
 11
4160.000000000002
 21
1980.0
  0
LINE
  5
A9
100
AcDbEntity
  8
1
  6
CONTINUOUS
 62
           2
100
AcDbLine
 10
4160.000000000002
 20
1980.0
 11
4160.000000000002
 21
520.0
  0
LINE
  5
A8
100
AcDbEntity
  8
1
  6
CONTINUOUS
 62
           2
100
AcDbLine
 10
4160.000000000002
 20
520.0
 11
4620.000000000002
 21
520.0
  0
LINE
  5
A7
100
AcDbEntity
  8
1
  6
CONTINUOUS
 62
           2
100
AcDbLine
 10
4660.000000000002
 20
520.0
 11
5620.0
 21
520.0
  0
LINE
  5
A6
100
AcDbEntity
  8
1
  6
CONTINUOUS
 62
           2
100
AcDbLine
 10
5620.0
 20
520.0
 11
5620.0
 21
1980.0
  0
LINE
  5
A5
100
AcDbEntity
  8
1
  6
CONTINUOUS
 62
           2
100
AcDbLine
 10
5620.0
 20
1980.0
 11
4660.000000000002
 21
1980.0
  0
LINE
  5
A4
100
AcDbEntity
  8
1
  6
CONTINUOUS
 62
           7
100
AcDbLine
 10
6139.999999999999
 20
0.0
 11
3140.000000000002
 21
0.0
  0
LINE
  5
A3
100
AcDbEntity
  8
1
  6
CONTINUOUS
 62
           7
100
AcDbLine
 10
4370.000000000002
 20
1570.0
 11
4370.000000000002
 21
1330.0
  0
LINE
  5
A2
100
AcDbEntity
  8
1
  6
CONTINUOUS
 62
           7
100
AcDbLine
 10
4190.000000000002
 20
1330.0
 11
4190.000000000002
 21
1570.0
  0
LINE
  5
A1
100
AcDbEntity
  8
1
  6
CONTINUOUS
 62
           7
100
AcDbLine
 10
4190.000000000002
 20
1570.0
 11
4370.000000000002
 21
1570.0
  0
LINE
  5
A0
100
AcDbEntity
  8
1
  6
CONTINUOUS
 62
           7
100
AcDbLine
 10
4370.000000000002
 20
1330.0
 11
4190.000000000002
 21
1330.0
  0
LINE
  5
9F
100
AcDbEntity
  8
1
  6
CONTINUOUS
 62
           7
100
AcDbLine
 10
3880.000000000003
 20
1950.0
 11
3690.000000000003
 21
1950.0
  0
LINE
  5
9E
100
AcDbEntity
  8
1
  6
CONTINUOUS
 62
           7
100
AcDbLine
 10
3690.000000000003
 20
1950.0
 11
3690.000000000003
 21
1862.0
  0
LINE
  5
9D
100
AcDbEntity
  8
1
  6
CONTINUOUS
 62
           7
100
AcDbLine
 10
3690.000000000003
 20
1862.0
 11
3880.000000000003
 21
1862.0
  0
LINE
  5
9C
100
AcDbEntity
  8
1
  6
CONTINUOUS
 62
           7
100
AcDbLine
 10
3880.000000000003
 20
1862.0
 11
3880.000000000003
 21
1950.0
  0
LINE
  5
9B
100
AcDbEntity
  8
1
  6
CONTINUOUS
 62
           7
100
AcDbLine
 10
4640.000000000002
 20
2075.0
 11
5640.0
 21
2075.0
  0
LINE
  5
9A
100
AcDbEntity
  8
1
  6
CONTINUOUS
 62
           7
100
AcDbLine
 10
3640.000000000003
 20
2050.0
 11
3640.000000000003
 21
2150.0
  0
LINE
  5
99
100
AcDbEntity
  8
1
  6
CONTINUOUS
 62
           7
100
AcDbLine
 10
3690.000000000003
 20
2120.0
 11
3690.000000000003
 21
2150.0
  0
LINE
  5
98
100
AcDbEntity
  8
1
  6
CONTINUOUS
 62
           7
100
AcDbLine
 10
3640.000000000003
 20
2150.0
 11
3690.000000000003
 21
2150.0
  0
LINE
  5
97
100
AcDbEntity
  8
1
  6
CONTINUOUS
 62
           4
100
AcDbLine
 10
2248.56542280422
 20
3912.0
 11
2253.56542280422
 21
3912.000000000001
  0
LINE
  5
96
100
AcDbEntity
  8
1
  6
CONTINUOUS
 62
           4
100
AcDbLine
 10
2253.56542280422
 20
3912.000000000001
 11
2253.56542280422
 21
4412.000000000001
  0
LINE
  5
95
100
AcDbEntity
  8
1
  6
CONTINUOUS
 62
           4
100
AcDbLine
 10
2253.56542280422
 20
4412.000000000001
 11
2248.56542280422
 21
4412.000000000001
  0
LINE
  5
94
100
AcDbEntity
  8
1
  6
CONTINUOUS
 62
           7
100
AcDbLine
 10
2248.56542280422
 20
3912.0
 11
2248.56542280422
 21
4412.000000000001
  0
LINE
  5
93
100
AcDbEntity
  8
1
  6
CONTINUOUS
 62
           2
100
AcDbLine
 10
3882.314185654645
 20
1064.499999999993
 11
3882.314185654645
 21
1094.499999999993
  0
LINE
  5
92
100
AcDbEntity
  8
1
  6
CONTINUOUS
 62
           2
100
AcDbLine
 10
3955.000000000002
 20
1141.999999999993
 11
3955.000000000002
 21
1161.999999999993
  0
LINE
  5
91
100
AcDbEntity
  8
1
  6
CONTINUOUS
 62
           2
100
AcDbLine
 10
3935.000000000002
 20
1141.999999999993
 11
3935.000000000002
 21
1161.999999999993
  0
LINE
  5
90
100
AcDbEntity
  8
1
  6
CONTINUOUS
 62
           2
100
AcDbLine
 10
3902.573593128806
 20
1064.499999999993
 11
3882.314185654645
 21
1064.499999999993
  0
LINE
  5
8F
100
AcDbEntity
  8
1
  6
CONTINUOUS
 62
           2
100
AcDbLine
 10
3930.000000000002
 20
1121.926406871186
 11
3930.000000000002
 21
1141.999999999993
  0
LINE
  5
8E
100
AcDbEntity
  8
1
  6
CONTINUOUS
 62
           2
100
AcDbLine
 10
3930.000000000002
 20
1141.999999999993
 11
3960.000000000002
 21
1141.999999999993
  0
LINE
  5
8D
100
AcDbEntity
  8
1
  6
CONTINUOUS
 62
           2
100
AcDbLine
 10
3960.000000000002
 20
1141.999999999993
 11
3960.000000000002
 21
1121.926406871186
  0
LINE
  5
8C
100
AcDbEntity
  8
1
  6
CONTINUOUS
 62
           2
100
AcDbLine
 10
3960.000000000002
 20
1016.999999999993
 11
3930.000000000002
 21
1016.999999999993
  0
LINE
  5
8B
100
AcDbEntity
  8
1
  6
CONTINUOUS
 62
           2
100
AcDbLine
 10
3960.000000000002
 20
1037.0735931288
 11
3960.000000000002
 21
1016.999999999993
  0
LINE
  5
8A
100
AcDbEntity
  8
1
  6
CONTINUOUS
 62
           2
100
AcDbLine
 10
3930.000000000002
 20
1016.999999999993
 11
3930.000000000002
 21
1037.0735931288
  0
LINE
  5
89
100
AcDbEntity
  8
1
  6
CONTINUOUS
 62
           7
100
AcDbLine
 10
4070.000000000002
 20
1329.999999999996
 11
4140.000000000001
 21
1329.999999999996
  0
LINE
  5
88
100
AcDbEntity
  8
1
  6
CONTINUOUS
 62
           7
100
AcDbLine
 10
4070.000000000003
 20
1669.999999999991
 11
4140.000000000001
 21
1669.999999999991
  0
LINE
  5
87
100
AcDbEntity
  8
1
  6
CONTINUOUS
 62
           7
100
AcDbLine
 10
3640.000000000002
 20
1329.999999999996
 11
3715.000000000002
 21
1329.999999999996
  0
LINE
  5
86
100
AcDbEntity
  8
1
  6
CONTINUOUS
 62
           7
100
AcDbLine
 10
3640.000000000003
 20
1669.999999999991
 11
3820.000000000003
 21
1669.999999999991
  0
LINE
  5
85
100
AcDbEntity
  8
1
  6
CONTINUOUS
 62
           4
100
AcDbLine
 10
2253.56542280422
 20
1330.0
 11
2248.56542280422
 21
1329.999999999997
  0
LINE
  5
84
100
AcDbEntity
  8
1
  6
CONTINUOUS
 62
           4
100
AcDbLine
 10
2248.56542280422
 20
1670.000000000007
 11
2253.56542280422
 21
1670.000000000007
  0
LINE
  5
83
100
AcDbEntity
  8
1
  6
CONTINUOUS
 62
           4
100
AcDbLine
 10
2253.56542280422
 20
1670.000000000007
 11
2253.56542280422
 21
1330.0
  0
LINE
  5
82
100
AcDbEntity
  8
1
  6
CONTINUOUS
 62
           2
100
AcDbLine
 10
2406.56542280422
 20
1107.249999999983
 11
2406.56542280422
 21
1116.499999999983
  0
LINE
  5
81
100
AcDbEntity
  8
1
  6
CONTINUOUS
 62
           2
100
AcDbLine
 10
2406.56542280422
 20
1046.749999999983
 11
2406.56542280422
 21
1042.499999999983
  0
LINE
  5
80
100
AcDbEntity
  8
1
  6
CONTINUOUS
 62
           2
100
AcDbLine
 10
2406.56542280422
 20
1046.749999999983
 11
2406.56542280422
 21
1107.249999999983
  0
LINE
  5
7F
100
AcDbEntity
  8
1
  6
CONTINUOUS
 62
           2
100
AcDbLine
 10
2333.56542280422
 20
1107.249999999983
 11
2333.56542280422
 21
1141.999999999983
  0
LINE
  5
7E
100
AcDbEntity
  8
1
  6
CONTINUOUS
 62
           2
100
AcDbLine
 10
2333.56542280422
 20
1046.749999999983
 11
2333.56542280422
 21
1016.999999999983
  0
LINE
  5
7D
100
AcDbEntity
  8
1
  6
CONTINUOUS
 62
           2
100
AcDbLine
 10
2389.56542280422
 20
1046.749999999983
 11
2389.56542280422
 21
1034.499999999983
  0
LINE
  5
7C
100
AcDbEntity
  8
1
  6
CONTINUOUS
 62
           2
100
AcDbLine
 10
2389.56542280422
 20
1107.249999999983
 11
2389.56542280422
 21
1124.499999999983
  0
LINE
  5
7B
100
AcDbEntity
  8
1
  6
CONTINUOUS
 62
           2
100
AcDbLine
 10
2389.56542280422
 20
1107.249999999983
 11
2389.56542280422
 21
1046.749999999983
  0
LINE
  5
7A
100
AcDbEntity
  8
1
  6
CONTINUOUS
 62
           2
100
AcDbLine
 10
2333.56542280422
 20
1107.249999999983
 11
2333.56542280422
 21
1046.749999999983
  0
LINE
  5
79
100
AcDbEntity
  8
1
  6
CONTINUOUS
 62
           2
100
AcDbLine
 10
2363.56542280422
 20
1141.999999999983
 11
2363.56542280422
 21
1161.999999999983
  0
LINE
  5
78
100
AcDbEntity
  8
1
  6
CONTINUOUS
 62
           2
100
AcDbLine
 10
2343.56542280422
 20
1141.999999999983
 11
2343.56542280422
 21
1161.999999999983
  0
LINE
  5
77
100
AcDbEntity
  8
1
  6
CONTINUOUS
 62
           2
100
AcDbLine
 10
2333.56542280422
 20
1094.499999999983
 11
2366.56542280422
 21
1094.499999999983
  0
LINE
  5
76
100
AcDbEntity
  8
1
  6
CONTINUOUS
 62
           2
100
AcDbLine
 10
2333.56542280422
 20
1064.499999999983
 11
2366.56542280422
 21
1064.499999999983
  0
LINE
  5
75
100
AcDbEntity
  8
1
  6
CONTINUOUS
 62
           2
100
AcDbLine
 10
2381.56542280422
 20
1124.499999999983
 11
2398.56542280422
 21
1124.499999999983
  0
LINE
  5
74
100
AcDbEntity
  8
1
  6
CONTINUOUS
 62
           2
100
AcDbLine
 10
2381.56542280422
 20
1034.499999999983
 11
2398.56542280422
 21
1034.499999999983
  0
LINE
  5
73
100
AcDbEntity
  8
1
  6
CONTINUOUS
 62
           2
100
AcDbLine
 10
2333.56542280422
 20
1016.999999999983
 11
2381.56542280422
 21
1016.999999999983
  0
LINE
  5
72
100
AcDbEntity
  8
1
  6
CONTINUOUS
 62
           2
100
AcDbLine
 10
2381.56542280422
 20
1016.999999999983
 11
2381.56542280422
 21
1034.499999999983
  0
LINE
  5
71
100
AcDbEntity
  8
1
  6
CONTINUOUS
 62
           2
100
AcDbLine
 10
2333.56542280422
 20
1141.999999999983
 11
2381.56542280422
 21
1141.999999999983
  0
LINE
  5
70
100
AcDbEntity
  8
1
  6
CONTINUOUS
 62
           2
100
AcDbLine
 10
2381.56542280422
 20
1141.999999999983
 11
2381.56542280422
 21
1124.499999999983
  0
LINE
  5
6F
100
AcDbEntity
  8
1
  6
CONTINUOUS
 62
           2
100
AcDbLine
 10
2366.24870380357
 20
1041.999999999983
 11
2333.56542280422
 21
1041.999999999983
  0
LINE
  5
6E
100
AcDbEntity
  8
1
  6
CONTINUOUS
 62
           2
100
AcDbLine
 10
2366.24870380357
 20
1116.999999999983
 11
2333.56542280422
 21
1116.999999999983
  0
LINE
  5
6D
100
AcDbEntity
  8
1
  6
CONTINUOUS
 62
           4
100
AcDbLine
 10
3735.000000000002
 20
1430.000000000002
 11
3715.000000000002
 21
1430.000000000002
  0
LINE
  5
6C
100
AcDbEntity
  8
1
  6
CONTINUOUS
 62
           4
100
AcDbLine
 10
3715.000000000002
 20
1430.000000000002
 11
3715.000000000002
 21
1119.435182228533
  0
LINE
  5
6B
100
AcDbEntity
  8
1
  6
CONTINUOUS
 62
           4
100
AcDbLine
 10
3765.000000000002
 20
1069.435182228533
 11
3882.314185654645
 21
1069.435182228533
  0
LINE
  5
6A
100
AcDbEntity
  8
1
  6
CONTINUOUS
 62
           4
100
AcDbLine
 10
3882.314185654645
 20
1069.435182228533
 11
3882.314185654645
 21
1089.435182228533
  0
LINE
  5
69
100
AcDbEntity
  8
1
  6
CONTINUOUS
 62
           4
100
AcDbLine
 10
3882.314185654645
 20
1089.435182228533
 11
3765.000000000002
 21
1089.435182228533
  0
LINE
  5
68
100
AcDbEntity
  8
1
  6
CONTINUOUS
 62
           4
100
AcDbLine
 10
3735.000000000002
 20
1119.435182228533
 11
3735.000000000002
 21
1430.000000000002
  0
LINE
  5
67
100
AcDbEntity
  8
1
  6
CONTINUOUS
 62
           7
100
AcDbLine
 10
3735.000000000002
 20
1329.999999999996
 11
3820.000000000002
 21
1329.999999999996
  0
LINE
  5
66
100
AcDbEntity
  8
1
  6
CONTINUOUS
 62
           7
100
AcDbLine
 10
-788.934577195778
 20
2150.000000000001
 11
-788.934577195778
 21
2155.683280999348
  0
LINE
  5
65
100
AcDbEntity
  8
1
  6
CONTINUOUS
 62
           7
100
AcDbLine
 10
-713.934577195778
 20
2150.0
 11
-713.934577195778
 21
2155.683280999348
  0
LINE
  5
64
100
AcDbEntity
  8
1
  6
CONTINUOUS
 62
           7
100
AcDbLine
 10
-688.934577195778
 20
2171.000000000001
 11
-688.934577195778
 21
2150.000000000001
  0
LINE
  5
63
100
AcDbEntity
  8
1
  6
CONTINUOUS
 62
           7
100
AcDbLine
 10
-917.434577195778
 20
4036.0
 11
-917.434577195778
 21
4288.000000000002
  0
LINE
  5
62
100
AcDbEntity
  8
1
  6
CONTINUOUS
 62
           7
100
AcDbLine
 10
314.565422804222
 20
4036.0
 11
-917.434577195778
 21
4036.0
  0
LINE
  5
61
100
AcDbEntity
  8
1
  6
CONTINUOUS
 62
           7
100
AcDbLine
 10
314.565422804222
 20
4288.000000000002
 11
314.565422804222
 21
4036.0
  0
LINE
  5
60
100
AcDbEntity
  8
1
  6
CONTINUOUS
 62
           7
100
AcDbLine
 10
-917.434577195778
 20
4288.000000000002
 11
314.565422804222
 21
4288.000000000002
  0
LINE
  5
5F
100
AcDbEntity
  8
1
  6
CONTINUOUS
 62
           7
100
AcDbLine
 10
-967.434577195778
 20
3986.0
 11
-967.434577195778
 21
4338.000000000002
  0
LINE
  5
5E
100
AcDbEntity
  8
1
  6
CONTINUOUS
 62
           7
100
AcDbLine
 10
364.565422804222
 20
3986.0
 11
-967.434577195778
 21
3986.0
  0
LINE
  5
5D
100
AcDbEntity
  8
1
  6
CONTINUOUS
 62
           7
100
AcDbLine
 10
364.565422804222
 20
4338.000000000002
 11
364.565422804222
 21
3986.0
  0
LINE
  5
5C
100
AcDbEntity
  8
1
  6
CONTINUOUS
 62
           7
100
AcDbLine
 10
-967.434577195778
 20
4338.000000000002
 11
364.565422804222
 21
4338.000000000002
  0
LINE
  5
5B
100
AcDbEntity
  8
1
  6
CONTINUOUS
 62
           7
100
AcDbLine
 10
3764.000000000006
 20
2050.000000000001
 11
3764.000000000006
 21
2136.000000000001
  0
LINE
  5
5A
100
AcDbEntity
  8
1
  6
CONTINUOUS
 62
           7
100
AcDbLine
 10
-796.434577195778
 20
2184.000000000001
 11
-706.434577195778
 21
2184.000000000001
  0
LINE
  5
59
100
AcDbEntity
  8
1
  6
CONTINUOUS
 62
           7
100
AcDbLine
 10
-706.434577195778
 20
2171.000000000001
 11
-688.934577195778
 21
2171.000000000001
  0
LINE
  5
58
100
AcDbEntity
  8
1
  6
CONTINUOUS
 62
           7
100
AcDbLine
 10
-796.434577195778
 20
2171.000000000001
 11
-813.934577195778
 21
2171.000000000001
  0
LINE
  5
57
100
AcDbEntity
  8
1
  6
CONTINUOUS
 62
           7
100
AcDbLine
 10
-813.934577195778
 20
2171.000000000001
 11
-813.934577195778
 21
2150.000000000001
  0
LINE
  5
56
100
AcDbEntity
  8
1
  6
CONTINUOUS
 62
           7
100
AcDbLine
 10
-796.434577195778
 20
2188.000000000001
 11
-796.434577195778
 21
2171.000000000001
  0
LINE
  5
55
100
AcDbEntity
  8
1
  6
CONTINUOUS
 62
           7
100
AcDbLine
 10
-714.434577195778
 20
2196.000000000001
 11
-788.434577195778
 21
2196.000000000001
  0
LINE
  5
54
100
AcDbEntity
  8
1
  6
CONTINUOUS
 62
           7
100
AcDbLine
 10
-706.434577195778
 20
2188.000000000001
 11
-706.434577195778
 21
2171.000000000001
  0
LINE
  5
53
100
AcDbEntity
  8
1
  6
CONTINUOUS
 62
           7
100
AcDbLine
 10
-766.434577195778
 20
2156.000000000001
 11
-766.434577195778
 21
2150.000000000001
  0
LINE
  5
52
100
AcDbEntity
  8
1
  6
CONTINUOUS
 62
           7
100
AcDbLine
 10
-736.434577195778
 20
2156.000000000001
 11
-736.434577195778
 21
2150.000000000001
  0
LINE
  5
51
100
AcDbEntity
  8
1
  6
CONTINUOUS
 62
           7
100
AcDbLine
 10
3764.000000000006
 20
2136.000000000001
 11
4016.000000000006
 21
2136.000000000001
  0
LINE
  5
50
100
AcDbEntity
  8
1
  6
CONTINUOUS
 62
           7
100
AcDbLine
 10
4016.000000000006
 20
2136.000000000001
 11
4016.000000000006
 21
2050.000000000001
  0
LINE
  5
4F
100
AcDbEntity
  8
1
  6
CONTINUOUS
 62
           7
100
AcDbLine
 10
3845.000000000006
 20
2184.000000000001
 11
3935.000000000006
 21
2184.000000000001
  0
LINE
  5
4E
100
AcDbEntity
  8
1
  6
CONTINUOUS
 62
           7
100
AcDbLine
 10
3852.500000000006
 20
2155.683280999348
 11
3852.500000000006
 21
2136.000000000001
  0
LINE
  5
4D
100
AcDbEntity
  8
1
  6
CONTINUOUS
 62
           7
100
AcDbLine
 10
3927.500000000006
 20
2155.683280999348
 11
3927.500000000006
 21
2136.000000000001
  0
LINE
  5
4C
100
AcDbEntity
  8
1
  6
CONTINUOUS
 62
           7
100
AcDbLine
 10
3827.500000000006
 20
2171.000000000001
 11
3845.000000000006
 21
2171.000000000001
  0
LINE
  5
4B
100
AcDbEntity
  8
1
  6
CONTINUOUS
 62
           7
100
AcDbLine
 10
3827.500000000006
 20
2136.000000000001
 11
3827.500000000006
 21
2171.000000000001
  0
LINE
  5
4A
100
AcDbEntity
  8
1
  6
CONTINUOUS
 62
           7
100
AcDbLine
 10
3952.500000000006
 20
2171.000000000001
 11
3935.000000000006
 21
2171.000000000001
  0
LINE
  5
49
100
AcDbEntity
  8
1
  6
CONTINUOUS
 62
           7
100
AcDbLine
 10
3952.500000000006
 20
2136.000000000001
 11
3952.500000000006
 21
2171.000000000001
  0
LINE
  5
48
100
AcDbEntity
  8
1
  6
CONTINUOUS
 62
           7
100
AcDbLine
 10
3935.000000000006
 20
2171.000000000001
 11
3935.000000000006
 21
2188.000000000001
  0
LINE
  5
47
100
AcDbEntity
  8
1
  6
CONTINUOUS
 62
           7
100
AcDbLine
 10
3927.000000000006
 20
2196.000000000001
 11
3853.000000000006
 21
2196.000000000001
  0
LINE
  5
46
100
AcDbEntity
  8
1
  6
CONTINUOUS
 62
           7
100
AcDbLine
 10
3845.000000000006
 20
2171.000000000001
 11
3845.000000000006
 21
2188.000000000001
  0
LINE
  5
45
100
AcDbEntity
  8
1
  6
CONTINUOUS
 62
           7
100
AcDbLine
 10
3905.000000000006
 20
2136.000000000001
 11
3905.000000000006
 21
2156.000000000001
  0
LINE
  5
44
100
AcDbEntity
  8
1
  6
CONTINUOUS
 62
           7
100
AcDbLine
 10
3875.000000000006
 20
2136.000000000001
 11
3875.000000000006
 21
2156.000000000001
  0
LINE
  5
43
100
AcDbEntity
  8
1
  6
DOT_CENTER
 62
           2
100
AcDbLine
 10
-751.434577195778
 20
2202.686878034487
 11
-751.434577195778
 21
2107.007003733832
  0
LINE
  5
42
100
AcDbEntity
  8
1
  6
DOT_CENTER
 62
           2
100
AcDbLine
 10
998.565422804222
 20
2202.686878034487
 11
998.565422804222
 21
2107.007003733832
  0
LINE
  5
41
100
AcDbEntity
  8
1
  6
CONTINUOUS
 62
           7
100
AcDbLine
 10
1013.565422804222
 20
2156.000000000001
 11
1013.565422804222
 21
2150.000000000001
  0
LINE
  5
40
100
AcDbEntity
  8
1
  6
CONTINUOUS
 62
           7
100
AcDbLine
 10
983.565422804222
 20
2156.000000000001
 11
983.565422804222
 21
2150.000000000001
  0
LINE
  5
3F
100
AcDbEntity
  8
1
  6
CONTINUOUS
 62
           7
100
AcDbLine
 10
1043.565422804222
 20
2188.000000000001
 11
1043.565422804222
 21
2171.000000000001
  0
LINE
  5
3E
100
AcDbEntity
  8
1
  6
CONTINUOUS
 62
           7
100
AcDbLine
 10
1035.565422804222
 20
2196.000000000001
 11
961.565422804222
 21
2196.000000000001
  0
LINE
  5
3D
100
AcDbEntity
  8
1
  6
CONTINUOUS
 62
           7
100
AcDbLine
 10
953.565422804222
 20
2188.000000000001
 11
953.565422804222
 21
2171.000000000001
  0
LINE
  5
3C
100
AcDbEntity
  8
1
  6
CONTINUOUS
 62
           7
100
AcDbLine
 10
936.065422804222
 20
2171.000000000001
 11
936.065422804222
 21
2150.000000000001
  0
LINE
  5
3B
100
AcDbEntity
  8
1
  6
CONTINUOUS
 62
           7
100
AcDbLine
 10
953.565422804222
 20
2171.000000000001
 11
936.065422804222
 21
2171.000000000001
  0
LINE
  5
3A
100
AcDbEntity
  8
1
  6
CONTINUOUS
 62
           7
100
AcDbLine
 10
1043.565422804222
 20
2171.000000000001
 11
1061.065422804222
 21
2171.000000000001
  0
LINE
  5
39
100
AcDbEntity
  8
1
  6
CONTINUOUS
 62
           7
100
AcDbLine
 10
953.565422804222
 20
2184.000000000001
 11
1043.565422804222
 21
2184.000000000001
  0
LINE
  5
38
100
AcDbEntity
  8
1
  6
CONTINUOUS
 62
           7
100
AcDbLine
 10
1061.065422804222
 20
2171.000000000001
 11
1061.065422804222
 21
2150.000000000001
  0
LINE
  5
37
100
AcDbEntity
  8
1
  6
CONTINUOUS
 62
           7
100
AcDbLine
 10
1036.065422804222
 20
2150.0
 11
1036.065422804222
 21
2155.683280999348
  0
LINE
  5
36
100
AcDbEntity
  8
1
  6
CONTINUOUS
 62
           7
100
AcDbLine
 10
961.065422804222
 20
2150.000000000001
 11
961.065422804222
 21
2155.683280999348
  0
LINE
  5
35
100
AcDbEntity
  8
1
  6
CONTINUOUS
 62
           7
100
AcDbLine
 10
2114.565422804222
 20
3986.0
 11
782.565422804222
 21
3986.0
  0
LINE
  5
34
100
AcDbEntity
  8
1
  6
CONTINUOUS
 62
           7
100
AcDbLine
 10
782.565422804222
 20
3986.0
 11
782.565422804222
 21
4338.000000000002
  0
LINE
  5
33
100
AcDbEntity
  8
1
  6
CONTINUOUS
 62
           7
100
AcDbLine
 10
2064.565422804222
 20
4036.0
 11
832.565422804222
 21
4036.0
  0
LINE
  5
32
100
AcDbEntity
  8
1
  6
CONTINUOUS
 62
           7
100
AcDbLine
 10
832.565422804222
 20
4036.0
 11
832.565422804222
 21
4288.000000000002
  0
LINE
  5
31
100
AcDbEntity
  8
1
  6
CONTINUOUS
 62
           7
100
AcDbLine
 10
832.565422804222
 20
4288.000000000002
 11
2064.565422804222
 21
4288.000000000002
  0
LINE
  5
30
100
AcDbEntity
  8
1
  6
CONTINUOUS
 62
           7
100
AcDbLine
 10
2064.565422804222
 20
4288.000000000002
 11
2064.565422804222
 21
4036.0
  0
LINE
  5
2F
100
AcDbEntity
  8
1
  6
CONTINUOUS
 62
           7
100
AcDbLine
 10
782.565422804222
 20
4338.000000000002
 11
2114.565422804222
 21
4338.000000000002
  0
LINE
  5
2E
100
AcDbEntity
  8
1
  6
CONTINUOUS
 62
           7
100
AcDbLine
 10
2114.565422804222
 20
4338.000000000002
 11
2114.565422804222
 21
3986.0
  0
POINT
  5
2D
100
AcDbEntity
  8
0
 62
           3
100
AcDbPoint
 10
4473.399996721732
 20
1365.000000000117
  0
ENDSEC
  0
SECTION
  2
OBJECTS
  0
DICTIONARY
  5
19
100
AcDbDictionary
  3
ACAD_GROUP
350
1A
  3
ACAD_MLINESTYLE
350
1B
  0
DICTIONARY
  5
1A
102
{ACAD_REACTORS
330
19
102
}
100
AcDbDictionary
  0
DICTIONARY
  5
1B
102
{ACAD_REACTORS
330
19
102
}
100
AcDbDictionary
  3
STANDARD
350
1C
  0
MLINESTYLE
  5
1C
102
{ACAD_REACTORS
330
1B
102
}
100
AcDbMlineStyle
  2
STANDARD
 70
           0
  3

 62
           0
 51
90.0
 52
90.0
 71
           2
 49
0.5
 62
         256
  6
BYLAYER
 49
-0.5
 62
         256
  6
BYLAYER
  0
ENDSEC
  0
EOF
