  0
SECTION
  2
HEADER
  9
$ACADVER
  1
AC1014
  9
$ACADMAINTVER
 70
           0
  9
$DWGCODEPAGE
  3
DOS932
  9
$INSBASE
 10
0.0
 20
0.0
 30
0.0
  9
$EXTMIN
 10
1.000000000000E+20
 20
1.000000000000E+20
 30
1.000000000000E+20
  9
$EXTMAX
 10
-1.000000000000E+20
 20
-1.000000000000E+20
 30
-1.000000000000E+20
  9
$LIMMIN
 10
0.0
 20
0.0
  9
$LIMMAX
 10
0.0
 20
0.0
  9
$ORTHOMODE
 70
           0
  9
$REGENMODE
 70
           1
  9
$FILLMODE
 70
           1
  9
$QTEXTMODE
 70
           0
  9
$MIRRTEXT
 70
           1
  9
$DRAGMODE
 70
           2
  9
$LTSCALE
 40
1.0
  9
$OSMODE
 70
           0
  9
$ATTMODE
 70
           1
  9
$TEXTSIZE
 40
0.2
  9
$TRACEWID
 40
0.05
  9
$TEXTSTYLE
  7
STANDARD
  9
$CLAYER
  8
0
  9
$CELTYPE
  6
CONTINUOUS
  9
$CECOLOR
 62
         256
  9
$CELTSCALE
 40
1.0
  9
$DELOBJ
 70
           1
  9
$DISPSILH
 70
           0
  9
$DIMSCALE
 40
1.0
  9
$DIMASZ
 40
0.18
  9
$DIMEXO
 40
0.0625
  9
$DIMDLI
 40
0.38
  9
$DIMRND
 40
0.0
  9
$DIMDLE
 40
0.0
  9
$DIMEXE
 40
0.18
  9
$DIMTP
 40
0.0
  9
$DIMTM
 40
0.0
  9
$DIMTXT
 40
0.18
  9
$DIMCEN
 40
0.09
  9
$DIMTSZ
 40
0.0
  9
$DIMTOL
 70
           0
  9
$DIMLIM
 70
           0
  9
$DIMTIH
 70
           1
  9
$DIMTOH
 70
           1
  9
$DIMSE1
 70
           0
  9
$DIMSE2
 70
           0
  9
$DIMTAD
 70
           0
  9
$DIMZIN
 70
           0
  9
$DIMBLK
  1

  9
$DIMASO
 70
           1
  9
$DIMSHO
 70
           1
  9
$DIMPOST
  1

  9
$DIMAPOST
  1

  9
$DIMALT
 70
           0
  9
$DIMALTD
 70
           2
  9
$DIMALTF
 40
25.4
  9
$DIMLFAC
 40
1.0
  9
$DIMTOFL
 70
           0
  9
$DIMTVP
 40
0.0
  9
$DIMTIX
 70
           0
  9
$DIMSOXD
 70
           0
  9
$DIMSAH
 70
           0
  9
$DIMBLK1
  1

  9
$DIMBLK2
  1

  9
$DIMSTYLE
  2
STANDARD
  9
$DIMCLRD
 70
           0
  9
$DIMCLRE
 70
           0
  9
$DIMCLRT
 70
           0
  9
$DIMTFAC
 40
1.0
  9
$DIMGAP
 40
0.09
  9
$DIMJUST
 70
           0
  9
$DIMSD1
 70
           0
  9
$DIMSD2
 70
           0
  9
$DIMTOLJ
 70
           1
  9
$DIMTZIN
 70
           0
  9
$DIMALTZ
 70
           0
  9
$DIMALTTZ
 70
           0
  9
$DIMFIT
 70
           3
  9
$DIMUPT
 70
           0
  9
$DIMUNIT
 70
           2
  9
$DIMDEC
 70
           4
  9
$DIMTDEC
 70
           4
  9
$DIMALTU
 70
           2
  9
$DIMALTTD
 70
           2
  9
$DIMTXSTY
  7
STANDARD
  9
$DIMAUNIT
 70
           0
  9
$LUNITS
 70
           2
  9
$LUPREC
 70
           4
  9
$SKETCHINC
 40
0.1
  9
$FILLETRAD
 40
0.0
  9
$AUNITS
 70
           0
  9
$AUPREC
 70
           0
  9
$MENU
  1
acad
  9
$ELEVATION
 40
0.0
  9
$PELEVATION
 40
0.0
  9
$THICKNESS
 40
0.0
  9
$LIMCHECK
 70
           0
  9
$BLIPMODE
 70
           1
  9
$CHAMFERA
 40
0.0
  9
$CHAMFERB
 40
0.0
  9
$CHAMFERC
 40
0.0
  9
$CHAMFERD
 40
0.0
  9
$SKPOLY
 70
           0
  9
$TDCREATE
 40
0.000000000
  9
$TDUPDATE
 40
0.000000000
  9
$TDINDWG
 40
0.0000000000
  9
$TDUSRTIMER
 40
0.0000000000
  9
$USRTIMER
 70
           1
  9
$ANGBASE
 50
0.0
  9
$ANGDIR
 70
           0
  9
$PDMODE
 70
           0
  9
$PDSIZE
 40
0.0
  9
$PLINEWID
 40
0.0
  9
$COORDS
 70
           0
  9
$SPLFRAME
 70
           0
  9
$SPLINETYPE
 70
           6
  9
$SPLINESEGS
 70
           8
  9
$ATTDIA
 70
           0
  9
$ATTREQ
 70
           1
  9
$HANDLING
 70
           1
  9
$HANDSEED
  5
49B
  9
$SURFTAB1
 70
           6
  9
$SURFTAB2
 70
           6
  9
$SURFTYPE
 70
           6
  9
$SURFU
 70
           6
  9
$SURFV
 70
           6
  9
$UCSNAME
  2

  9
$UCSORG
 10
0.0
 20
0.0
 30
0.0
  9
$UCSXDIR
 10
1.0
 20
0.0
 30
0.0
  9
$UCSYDIR
 10
0.0
 20
1.0
 30
0.0
  9
$PUCSNAME
  2

  9
$PUCSORG
 10
0.0
 20
0.0
 30
0.0
  9
$PUCSXDIR
 10
1.0
 20
0.0
 30
0.0
  9
$PUCSYDIR
 10
0.0
 20
1.0
 30
0.0
  9
$USERI1
 70
           0
  9
$USERI2
 70
           0
  9
$USERI3
 70
           0
  9
$USERI4
 70
           0
  9
$USERI5
 70
           0
  9
$USERR1
 40
0.0
  9
$USERR2
 40
0.0
  9
$USERR3
 40
0.0
  9
$USERR4
 40
0.0
  9
$USERR5
 40
0.0
  9
$WORLDVIEW
 70
           1
  9
$SHADEDGE
 70
           3
  9
$SHADEDIF
 70
          70
  9
$TILEMODE
 70
           1
  9
$MAXACTVP
 70
          16
  9
$PINSBASE
 10
0.0
 20
0.0
 30
0.0
  9
$PLIMCHECK
 70
           0
  9
$PEXTMIN
 10
1.000000000000E+20
 20
1.000000000000E+20
 30
1.000000000000E+20
  9
$PEXTMAX
 10
-1.000000000000E+20
 20
-1.000000000000E+20
 30
-1.000000000000E+20
  9
$PLIMMIN
 10
0.0
 20
0.0
  9
$PLIMMAX
 10
12.0
 20
9.0
  9
$UNITMODE
 70
           0
  9
$VISRETAIN
 70
           0
  9
$PLINEGEN
 70
           1
  9
$PSLTSCALE
 70
           0
  9
$TREEDEPTH
 70
        3020
  9
$PICKSTYLE
 70
           1
  9
$CMLSTYLE
  2
STANDARD
  9
$CMLJUST
 70
           0
  9
$CMLSCALE
 40
1.0
  9
$PROXYGRAPHICS
 70
           0
  9
$MEASUREMENT
 70
           0
  0
ENDSEC
  0
SECTION
  2
CLASSES
  0
CLASS
  1
LWPOLYLINE
  2
AcDbPolyline
  3
"AutoCAD"
 90
        0
280
           0
281
           1
  0
CLASS
  1
IMAGE
  2
AcDbRasterImage
  3
ISM
 90
      127
280
           0
281
           1
  0
CLASS
  1
OLE2FRAME
  2
AcDbOle2Frame
  3
""
 90
        0
280
           0
281
           1
  0
CLASS
  1
HATCH
  2
AcDbHatch
  3
"ACAD_SEDONA"
 90
        0
280
           0
281
           1
  0
CLASS
  1
DICTIONARYVAR
  2
AcDbDictionaryVar
  3
"AutoCAD"
 90
        0
280
           0
281
           0
  0
CLASS
  1
RASTERVARIABLES
  2
AcDbRasterVariables
  3
ISM
 90
        0
280
           0
281
           0
  0
CLASS
  1
IMAGEDEF
  2
AcDbRasterImageDef
  3
ISM
 90
        0
280
           0
281
           0
  0
CLASS
  1
IMAGEDEF_REACTOR
  2
AcDbRasterImageDefReactor
  3
ISM
 90
        1
280
           0
281
           0
  0
CLASS
  1
IDBUFFER
  2
AcDbIdBuffer
  3
"Acad"
 90
        0
280
           0
281
           0
  0
CLASS
  1
SPATIAL_FILTER
  2
AcDbSpatialFilter
  3
"Acad"
 90
        0
280
           0
281
           0
  0
CLASS
  1
XRECORD
  2
AcDbXrecord
  3
"<Built In>"
 90
        0
280
           0
281
           0
  0
CLASS
  1
SORTENTSTABLE
  2
AcDbSortentsTable
  3
"AutoCAD"
 90
        0
280
           0
281
           0
  0
CLASS
  1
LAYER_INDEX
  2
AcDbLayerIndex
  3
"Acad"
 90
        0
280
           0
281
           0
  0
CLASS
  1
SPATIAL_INDEX
  2
AcDbSpatialIndex
  3
"Acad"
 90
        0
280
           0
281
           0
  0
CLASS
  1
OBJECT_PTR
  2
CAseDLPNTableRecord
  3
"ASE-LPNTableRecord"
 90
        1
280
           0
281
           0
  0
CLASS
  1
LAYOUT
  2
AcDbLayout
  3
"AutoCAD 2000"
 90
        1
280
           0
281
           0
  0
CLASS
  1
PLOTSETTINGS
  2
AcDbPlotSettings
  3
"AutoCAD 2000"
 90
        1
280
           0
281
           0
  0
CLASS
  1
ACDBDICTIONARYWDFLT
  2
AcDbDictionaryWithDefault
  3
"AutoCAD 2000"
 90
        1
280
           0
281
           0
  0
CLASS
  1
ACDBPLACEHOLDER
  2
AcDbPlaceHolder
  3
"AutoCAD 2000"
 90
        1
280
           0
281
           0
  0
CLASS
  1
VBA_PROJECT
  2
AcDbVbaProject
  3
"acadvba"
 90
        1
280
           0
281
           0
  0
CLASS
  1
WIPEOUT
  2
AcDbWipeout
  3
WipeOut|AutoCAD Express Tool|expresstools@autodesk.com
 90
      127
280
           0
281
           1
  0
CLASS
  1
WIPEOUTVARIABLES
  2
AcDbWipeoutVariables
  3
WipeOut|AutoCAD Express Tool|expresstools@autodesk.com
 90
        0
280
           0
281
           0
  0
CLASS
  1
RTEXT
  2
RText
  3
RText|AutoCAD Express Tool|expresstools@autodesk.com
 90
        0
280
           0
281
           1
  0
CLASS
  1
ARCALIGNEDTEXT
  2
AcDbArcAlignedText
  3
ATEXT|AutoCAD Express Tool|expresstools@autodesk.com
 90
        0
280
           0
281
           1
  0
ENDSEC
  0
SECTION
  2
TABLES
  0
TABLE
  2
VPORT
  5
7
100
AcDbSymbolTable
 70
           1
  0
VPORT
  5
15
100
AcDbSymbolTableRecord
100
AcDbViewportTableRecord
  2
*ACTIVE
 70
           0
 10
0.0
 20
0.0
 11
1.0
 21
1.0
 12
6.591288
 22
4.579184
 13
0.0
 23
0.0
 14
1.0
 24
1.0
 15
0.0
 25
0.0
 16
0.0
 26
0.0
 36
1.0
 17
0.0
 27
0.0
 37
0.0
 40
9.158369
 41
0.688564
 42
50.0
 43
0.0
 44
0.0
 50
0.0
 51
0.0
 71
           0
 72
         100
 73
           1
 74
           1
 75
           0
 76
           0
 77
           0
 78
           0
  0
ENDTAB
  0
TABLE
  2
LTYPE
  5
4
100
AcDbSymbolTable
 70
          10
  0
LTYPE
  5
11
100
AcDbSymbolTableRecord
100
AcDbLinetypeTableRecord
  2
BYBLOCK
 70
          64
  3

 72
          65
 73
           0
 40
0.0
  0
LTYPE
  5
12
100
AcDbSymbolTableRecord
100
AcDbLinetypeTableRecord
  2
BYLAYER
 70
          64
  3

 72
          65
 73
           0
 40
0.0
  0
LTYPE
  5
13
100
AcDbSymbolTableRecord
100
AcDbLinetypeTableRecord
  2
CONTINUOUS
 70
          64
  3
Solid line
 72
          65
 73
           0
 40
0.0
  0
LTYPE
  5
1D
100
AcDbSymbolTableRecord
100
AcDbLinetypeTableRecord
  2
DASHED
 70
          64
  3
Dashed
 72
          65
 73
           2
 40
15.0
 49
12.0
 74
           0
 49
-3.0
 74
           0
  0
LTYPE
  5
1E
100
AcDbSymbolTableRecord
100
AcDbLinetypeTableRecord
  2
DOTTED
 70
          64
  3
Dotted
 72
          65
 73
           2
 40
3.5
 49
0.5
 74
           0
 49
-3.0
 74
           0
  0
LTYPE
  5
1F
100
AcDbSymbolTableRecord
100
AcDbLinetypeTableRecord
  2
DOT_CENTER
 70
          64
  3
Dot_Center
 72
          65
 73
           4
 40
2.0
 49
1.25
 74
           0
 49
-0.25
 74
           0
 49
0.25
 74
           0
 49
-0.25
 74
           0
  0
LTYPE
  5
20
100
AcDbSymbolTableRecord
100
AcDbLinetypeTableRecord
  2
LONG_DASHED
 70
          64
  3
Long_Dashed
 72
          65
 73
           2
 40
2.0
 49
1.5
 74
           0
 49
-0.5
 74
           0
  0
LTYPE
  5
21
100
AcDbSymbolTableRecord
100
AcDbLinetypeTableRecord
  2
DASH_CENTER
 70
          64
  3
Dash_Center
 72
          65
 73
           4
 40
36.0
 49
24.0
 74
           0
 49
-3.0
 74
           0
 49
6.0
 74
           0
 49
-3.0
 74
           0
  0
LTYPE
  5
22
100
AcDbSymbolTableRecord
100
AcDbLinetypeTableRecord
  2
PHANTOM
 70
          64
  3
Phantom
 72
          65
 73
           6
 40
2.5
 49
1.25
 74
           0
 49
-0.25
 74
           0
 49
0.25
 74
           0
 49
-0.25
 74
           0
 49
0.25
 74
           0
 49
-0.25
 74
           0
  0
LTYPE
  5
23
100
AcDbSymbolTableRecord
100
AcDbLinetypeTableRecord
  2
CENTER_DASH_DASH
 70
          64
  3
Center_Dash_Dash
 72
          65
 73
           6
 40
22.0
 49
12.0
 74
           0
 49
-3.0
 74
           0
 49
0.5
 74
           0
 49
-3.0
 74
           0
 49
0.5
 74
           0
 49
-3.0
 74
           0
  0
ENDTAB
  0
TABLE
  2
LAYER
  5
2
100
AcDbSymbolTable
 70
           7
  0
LAYER
  5
14
100
AcDbSymbolTableRecord
100
AcDbLayerTableRecord
  2
0
 70
           0
 62
           7
  6
CONTINUOUS
  0
LAYER
  5
24
100
AcDbSymbolTableRecord
100
AcDbLayerTableRecord
  2
___S__
 70
           0
 62
           7
  6
CONTINUOUS
  0
LAYER
  5
25
100
AcDbSymbolTableRecord
100
AcDbLayerTableRecord
  2
FORMAT
 70
           0
 62
           7
  6
CONTINUOUS
  0
LAYER
  5
26
100
AcDbSymbolTableRecord
100
AcDbLayerTableRecord
  2
1
 70
           0
 62
           7
  6
CONTINUOUS
  0
LAYER
  5
27
100
AcDbSymbolTableRecord
100
AcDbLayerTableRecord
  2
2
 70
           0
 62
           7
  6
CONTINUOUS
  0
LAYER
  5
28
100
AcDbSymbolTableRecord
100
AcDbLayerTableRecord
  2
7
 70
           0
 62
           7
  6
CONTINUOUS
  0
LAYER
  5
29
100
AcDbSymbolTableRecord
100
AcDbLayerTableRecord
  2
____
 70
           0
 62
           7
  6
CONTINUOUS
  0
ENDTAB
  0
TABLE
  2
STYLE
  5
3
100
AcDbSymbolTable
 70
           1
  0
STYLE
  5
17
100
AcDbSymbolTableRecord
100
AcDbTextStyleTableRecord
  2
STANDARD
 70
           0
 40
0.0
 41
1.0
 50
0.0
 71
           0
 42
0.0
  3
txt
  4

  0
ENDTAB
  0
TABLE
  2
VIEW
  5
5
100
AcDbSymbolTable
 70
           0
  0
ENDTAB
  0
TABLE
  2
UCS
  5
6
100
AcDbSymbolTable
 70
           0
  0
ENDTAB
  0
TABLE
  2
APPID
  5
8
100
AcDbSymbolTable
 70
           1
  0
APPID
  5
16
100
AcDbSymbolTableRecord
100
AcDbRegAppTableRecord
  2
ACAD
 70
           0
  0
ENDTAB
  0
TABLE
  2
DIMSTYLE
  5
9
100
AcDbSymbolTable
 70
           1
  0
DIMSTYLE
105
18
100
AcDbSymbolTableRecord
100
AcDbDimStyleTableRecord
  2
STANDARD
 70
           0
  3

  4

  5

  6

  7

 40
1.0
 41
0.18
 42
0.0625
 43
0.38
 44
0.18
 45
0.0
 46
0.0
 47
0.0
 48
0.0
 71
           0
 72
           0
 73
           1
 74
           1
 75
           0
 76
           0
 77
           0
 78
           0
140
0.18
141
0.09
142
0.0
143
25.4
144
1.0
145
0.0
146
1.0
147
0.09
170
           0
171
           2
172
           0
173
           0
174
           0
175
           0
176
           0
177
           0
178
           0
270
           2
271
           4
272
           4
273
           2
274
           2
275
           0
280
           0
281
           0
282
           0
283
           1
284
           0
285
           0
286
           0
287
           0
288
           0
340
17
  0
ENDTAB
  0
TABLE
  2
BLOCK_RECORD
  5
1
100
AcDbSymbolTable
 70
           0
  0
BLOCK_RECORD
  5
A
100
AcDbSymbolTableRecord
100
AcDbBlockTableRecord
  2
*MODEL_SPACE
  0
BLOCK_RECORD
  5
B
100
AcDbSymbolTableRecord
100
AcDbBlockTableRecord
  2
*PAPER_SPACE
  0
ENDTAB
  0
ENDSEC
  0
SECTION
  2
BLOCKS
  0
BLOCK
  5
D
100
AcDbEntity
  8
0
100
AcDbBlockBegin
  2
*MODEL_SPACE
 70
           0
 10
0.0
 20
0.0
 30
0.0
  3
*MODEL_SPACE
  1

  0
ENDBLK
  5
E
100
AcDbEntity
  8
0
100
AcDbBlockEnd
  0
BLOCK
  5
F
100
AcDbEntity
 67
           1
  8
0
100
AcDbBlockBegin
  2
*PAPER_SPACE
 70
           0
 10
0.0
 20
0.0
 30
0.0
  3
*PAPER_SPACE
  1

  0
ENDBLK
  5
10
100
AcDbEntity
 67
           1
  8
0
100
AcDbBlockEnd
  0
ENDSEC
  0
SECTION
  2
ENTITIES
  0
ARC
  5
499
100
AcDbEntity
  8
1
  6
CONTINUOUS
 62
           7
100
AcDbCircle
 10
-1412.999999999996
 20
2188.000000000001
 40
8.0
100
AcDbArc
 50
0.0
 51
90.0
  0
ARC
  5
498
100
AcDbEntity
  8
1
  6
CONTINUOUS
 62
           7
100
AcDbCircle
 10
-1486.999999999996
 20
2188.000000000001
 40
8.0
100
AcDbArc
 50
90.0
 51
180.0
  0
ARC
  5
497
100
AcDbEntity
  8
1
  6
CONTINUOUS
 62
           7
100
AcDbCircle
 10
-1449.999999999996
 20
2156.000000000001
 40
14.999999999999
100
AcDbArc
 50
147.769047364495
 51
180.0
  0
ARC
  5
496
100
AcDbEntity
  8
1
  6
CONTINUOUS
 62
           7
100
AcDbCircle
 10
-1449.999999999996
 20
2156.000000000001
 40
14.999999999999
100
AcDbArc
 50
32.230952635506
 51
147.769047364495
  0
ARC
  5
495
100
AcDbEntity
  8
1
  6
CONTINUOUS
 62
           7
100
AcDbCircle
 10
-1449.999999999996
 20
2156.000000000001
 40
15.0
100
AcDbArc
 50
0.0
 51
32.230952635506
  0
ARC
  5
494
100
AcDbEntity
  8
1
  6
CONTINUOUS
 62
           7
100
AcDbCircle
 10
550.0
 20
2156.000000000001
 40
15.0
100
AcDbArc
 50
0.0
 51
32.230952635498
  0
ARC
  5
493
100
AcDbEntity
  8
1
  6
CONTINUOUS
 62
           7
100
AcDbCircle
 10
550.0
 20
2156.000000000001
 40
15.000000000002
100
AcDbArc
 50
32.230952635498
 51
147.769047364487
  0
ARC
  5
492
100
AcDbEntity
  8
1
  6
CONTINUOUS
 62
           7
100
AcDbCircle
 10
550.0
 20
2156.000000000001
 40
14.999999999996
100
AcDbArc
 50
147.769047364487
 51
180.0
  0
ARC
  5
491
100
AcDbEntity
  8
1
  6
CONTINUOUS
 62
           7
100
AcDbCircle
 10
513.0
 20
2188.000000000001
 40
8.0
100
AcDbArc
 50
90.0
 51
180.0
  0
ARC
  5
490
100
AcDbEntity
  8
1
  6
CONTINUOUS
 62
           7
100
AcDbCircle
 10
587.0
 20
2188.000000000001
 40
8.0
100
AcDbArc
 50
0.0
 51
90.0
  0
ARC
  5
48F
100
AcDbEntity
  8
1
  6
CONTINUOUS
 62
           7
100
AcDbCircle
 10
5300.000000000004
 20
2156.000000000001
 40
15.0
100
AcDbArc
 50
0.0
 51
180.0
  0
ARC
  5
48E
100
AcDbEntity
  8
1
  6
CONTINUOUS
 62
           7
100
AcDbCircle
 10
5337.000000000004
 20
2188.000000000001
 40
8.0
100
AcDbArc
 50
0.0
 51
90.0
  0
ARC
  5
48D
100
AcDbEntity
  8
1
  6
CONTINUOUS
 62
           7
100
AcDbCircle
 10
5263.000000000004
 20
2188.000000000001
 40
8.0
100
AcDbArc
 50
90.0
 51
180.0
  0
ARC
  5
48C
100
AcDbEntity
  8
1
  6
CONTINUOUS
 62
           4
100
AcDbCircle
 10
7094.500000000007
 20
2159.500000000004
 40
1.0
100
AcDbArc
 50
0.0
 51
90.0
  0
ARC
  5
48B
100
AcDbEntity
  8
1
  6
CONTINUOUS
 62
           4
100
AcDbCircle
 10
7105.500000000007
 20
2159.500000000004
 40
1.0
100
AcDbArc
 50
90.0
 51
180.0
  0
ARC
  5
48A
100
AcDbEntity
  8
1
  6
CONTINUOUS
 62
           4
100
AcDbCircle
 10
7094.500000000007
 20
2610.500000000005
 40
1.0
100
AcDbArc
 50
-90.0
 51
0.0
  0
ARC
  5
489
100
AcDbEntity
  8
1
  6
CONTINUOUS
 62
           4
100
AcDbCircle
 10
7105.500000000007
 20
2610.500000000005
 40
1.0
100
AcDbArc
 50
180.0
 51
-90.0
  0
ARC
  5
488
100
AcDbEntity
  8
1
  6
CONTINUOUS
 62
           7
100
AcDbCircle
 10
6641.500000000007
 20
2841.300000000001
 40
12.0
100
AcDbArc
 50
0.0
 51
90.0
  0
ARC
  5
487
100
AcDbEntity
  8
1
  6
CONTINUOUS
 62
           7
100
AcDbCircle
 10
6641.500000000007
 20
2765.300000000001
 40
12.0
100
AcDbArc
 50
-90.0
 51
0.0
  0
ARC
  5
486
100
AcDbEntity
  8
1
  6
CONTINUOUS
 62
           7
100
AcDbCircle
 10
6538.500000000007
 20
2841.300000000001
 40
12.0
100
AcDbArc
 50
90.0
 51
180.0
  0
ARC
  5
485
100
AcDbEntity
  8
1
  6
CONTINUOUS
 62
           7
100
AcDbCircle
 10
6538.500000000007
 20
2765.300000000001
 40
12.0
100
AcDbArc
 50
180.0
 51
-90.0
  0
ARC
  5
484
100
AcDbEntity
  8
1
  6
CONTINUOUS
 62
           7
100
AcDbCircle
 10
134.496396800001
 20
2765.300000000004
 40
12.0
100
AcDbArc
 50
180.0
 51
-90.0
  0
ARC
  5
483
100
AcDbEntity
  8
1
  6
CONTINUOUS
 62
           7
100
AcDbCircle
 10
134.496396800001
 20
2841.300000000004
 40
12.0
100
AcDbArc
 50
90.0
 51
180.0
  0
ARC
  5
482
100
AcDbEntity
  8
1
  6
CONTINUOUS
 62
           7
100
AcDbCircle
 10
185.0
 20
2765.300000000004
 40
12.0
100
AcDbArc
 50
-90.0
 51
0.0
  0
ARC
  5
481
100
AcDbEntity
  8
1
  6
CONTINUOUS
 62
           7
100
AcDbCircle
 10
185.0
 20
2841.300000000004
 40
12.0
100
AcDbArc
 50
0.0
 51
90.0
  0
ARC
  5
480
100
AcDbEntity
  8
1
  6
CONTINUOUS
 62
           7
100
AcDbCircle
 10
185.0
 20
6156.500000000001
 40
12.0
100
AcDbArc
 50
0.0
 51
90.0
  0
ARC
  5
47F
100
AcDbEntity
  8
1
  6
CONTINUOUS
 62
           7
100
AcDbCircle
 10
185.0
 20
6053.500000000001
 40
12.0
100
AcDbArc
 50
-90.0
 51
0.0
  0
ARC
  5
47E
100
AcDbEntity
  8
1
  6
CONTINUOUS
 62
           7
100
AcDbCircle
 10
144.824966598197
 20
6156.500000000001
 40
12.0
100
AcDbArc
 50
90.0
 51
180.0
  0
ARC
  5
47D
100
AcDbEntity
  8
1
  6
CONTINUOUS
 62
           7
100
AcDbCircle
 10
144.824966598197
 20
6053.500000000001
 40
12.0
100
AcDbArc
 50
180.0
 51
-90.0
  0
ARC
  5
47C
100
AcDbEntity
  8
1
  6
CONTINUOUS
 62
           4
100
AcDbCircle
 10
117.908702762048
 20
6059.500000000001
 40
12.000000000002
100
AcDbArc
 50
-120.430594205701
 51
-90.0
  0
ARC
  5
47B
100
AcDbEntity
  8
1
  6
CONTINUOUS
 62
           4
100
AcDbCircle
 10
117.908702762048
 20
6150.500000000001
 40
12.0
100
AcDbArc
 50
90.0
 51
120.430594205705
  0
ARC
  5
47A
100
AcDbEntity
  8
1
  6
CONTINUOUS
 62
           3
100
AcDbCircle
 10
6448.163567691047
 20
1917.80625341996
 40
0.5
100
AcDbArc
 50
180.0
 51
-90.0
  0
ARC
  5
479
100
AcDbEntity
  8
1
  6
CONTINUOUS
 62
           3
100
AcDbCircle
 10
6448.163567691047
 20
1932.19374658004
 40
0.5
100
AcDbArc
 50
90.0
 51
180.0
  0
ARC
  5
478
100
AcDbEntity
  8
1
  6
CONTINUOUS
 62
           3
100
AcDbCircle
 10
6299.899998122332
 20
1641.0
 40
280.0
100
AcDbArc
 50
90.0
 51
180.0
  0
ARC
  5
477
100
AcDbEntity
  8
1
  6
CONTINUOUS
 62
           3
100
AcDbCircle
 10
6299.899996810937
 20
1641.0
 40
288.0
100
AcDbArc
 50
90.0
 51
180.0
  0
SPLINE
  5
476
100
AcDbEntity
  8
0
  6
CONTINUOUS
 62
           3
100
AcDbSpline
210
0.0
220
0.0
230
1.0
 70
           0
 71
           3
 72
           8
 73
           5
 74
           7
 42
0.00000000001
 43
0.00000000001
 44
0.00000000001
 40
0.0
 40
0.0
 40
0.0
 40
0.2989651950319967
 40
0.4296296276529574
 40
0.4465803504019732
 40
0.4465803504019732
 40
0.4465803504019732
 10
5970.8999966098709
 20
1384.6465796233019
 30
0.0
 10
5970.8999966099173
 20
1384.466936563425
 30
0.0
 10
5970.8999966099173
 20
1384.2282922931149
 30
0.0
 10
5970.8999966099173
 20
1384.205607698183
 30
0.0
 10
5970.8999966099173
 20
1384.1999992729
 30
0.0
 11
5970.8999966098709
 21
1384.6465796233019
 31
0.0
 11
5970.8999966099054
 21
1384.4703311443229
 31
0.0
 11
5970.8999966099173
 21
1384.3008718271399
 31
0.0
 11
5970.8999966099182
 21
1384.2414172487579
 31
0.0
 11
5970.8999966099173
 21
1384.2082125816614
 31
0.0
 11
5970.8999966099173
 21
1384.2048568127318
 31
0.0
 11
5970.8999966099173
 21
1384.1999992729
 31
0.0
  0
SPLINE
  5
475
100
AcDbEntity
  8
0
  6
CONTINUOUS
 62
           3
100
AcDbSpline
210
0.0
220
0.0
230
1.0
 70
           0
 71
           3
 72
           8
 73
           5
 74
           7
 42
0.00000000001
 43
0.00000000001
 44
0.00000000001
 40
0.0
 40
0.0
 40
0.0
 40
0.0169507227490158
 40
0.1476151553699765
 40
0.4465803504019732
 40
0.4465803504019732
 40
0.4465803504019732
 10
5960.8999968334383
 20
1384.1999992729
 30
0.0
 10
5960.8999968334383
 20
1384.205607698183
 30
0.0
 10
5960.8999968334383
 20
1384.2282922931149
 30
0.0
 10
5960.8999968334383
 20
1384.466936563425
 30
0.0
 10
5960.8999968334783
 20
1384.6465796233019
 30
0.0
 11
5960.8999968334383
 21
1384.1999992729
 31
0.0
 11
5960.8999968334392
 21
1384.2048568127318
 31
0.0
 11
5960.8999968334383
 21
1384.2082125816612
 31
0.0
 11
5960.8999968334383
 21
1384.2414172487577
 31
0.0
 11
5960.8999968334383
 21
1384.3008718271399
 31
0.0
 11
5960.8999968334492
 21
1384.4703311443232
 31
0.0
 11
5960.8999968334783
 21
1384.6465796233019
 31
0.0
  0
SPLINE
  5
474
100
AcDbEntity
  8
0
  6
CONTINUOUS
 62
           3
100
AcDbSpline
210
0.0
220
0.0
230
1.0
 70
           0
 71
           3
 72
           8
 73
           5
 74
           7
 42
0.00000000001
 43
0.00000000001
 44
0.00000000001
 40
0.0
 40
0.0
 40
0.0
 40
0.4813883392828637
 40
1.3325653926417533
 40
2.5594910488301736
 40
2.5594910488301736
 40
2.5594910488301736
 10
5968.3999966657684
 20
1384.1999992729
 30
0.0
 10
5968.4592614719504
 20
1384.2004449713099
 30
0.0
 10
5969.3034813132972
 20
1384.2067938900659
 30
0.0
 10
5970.1307773327853
 20
1384.4346858415561
 30
0.0
 10
5970.8999966098709
 20
1384.6465796233019
 30
0.0
 11
5968.3999966657684
 21
1384.1999992729
 31
0.0
 11
5968.5206887308877
 21
1384.2009069323501
 31
0.0
 11
5968.764235313879
 21
1384.2027385138806
 31
0.0
 11
5969.2533835507484
 21
1384.2291158030616
 31
0.0
 11
5969.6423362625201
 21
1384.3001369182341
 31
0.0
 11
5970.2009718844893
 21
1384.4540220561619
 31
0.0
 11
5970.8999966098709
 21
1384.6465796233019
 31
0.0
  0
SPLINE
  5
473
100
AcDbEntity
  8
0
  6
CONTINUOUS
 62
           3
100
AcDbSpline
210
0.0
220
0.0
230
1.0
 70
           0
 71
           3
 72
           8
 73
           5
 74
           7
 42
0.00000000001
 43
0.00000000001
 44
0.00000000001
 40
0.0
 40
0.0
 40
0.0
 40
0.4813884775051675
 40
1.3325655942394998
 40
2.5594910572540659
 40
2.5594910572540659
 40
2.5594910572540659
 10
5963.3999967775599
 20
1384.1999992729
 30
0.0
 10
5963.4592615844003
 20
1384.200444971553
 30
0.0
 10
5964.3034817008374
 20
1384.206793895828
 30
0.0
 10
5965.1307775679661
 20
1384.4346858417271
 30
0.0
 10
5965.8999967216814
 20
1384.6465796232951
 30
0.0
 11
5963.3999967775599
 21
1384.1999992729
 31
0.0
 11
5963.5206888783741
 21
1384.2009069331086
 31
0.0
 11
5963.764235567136
 21
1384.202738516429
 31
0.0
 11
5964.2533839007147
 21
1384.229115810643
 31
0.0
 11
5964.6423366340496
 21
1384.3001369344861
 31
0.0
 11
5965.200972122916
 21
1384.4540220603089
 31
0.0
 11
5965.8999967216814
 21
1384.6465796232951
 31
0.0
  0
SPLINE
  5
472
100
AcDbEntity
  8
0
  6
CONTINUOUS
 62
           3
100
AcDbSpline
210
0.0
220
0.0
230
1.0
 70
           0
 71
           3
 72
           8
 73
           5
 74
           7
 42
0.00000000001
 43
0.00000000001
 44
0.00000000001
 40
0.0
 40
0.0
 40
0.0
 40
0.2779454797452919
 40
0.7862825386887833
 40
1.5429638907214009
 40
1.5429638907214009
 40
1.5429638907214009
 10
5961.5698696873524
 20
1367.5999939442549
 30
0.0
 10
5961.6040862319287
 20
1367.600439636512
 30
0.0
 10
5962.0914969500363
 20
1367.606788471174
 30
0.0
 10
5962.5691364172017
 20
1367.834684325677
 30
0.0
 10
5963.0132452878497
 20
1368.046581745235
 30
0.0
 11
5961.5698696873524
 21
1367.5999939442549
 31
0.0
 11
5961.6386061815019
 21
1367.6008892808152
 31
0.0
 11
5961.776382574797
 21
1367.6026839059814
 31
0.0
 11
5962.0607022116128
 21
1367.6286568402281
 31
0.0
 11
5962.2834323715824
 21
1367.6983665125831
 31
0.0
 11
5962.6087376234591
 21
1367.853579227293
 31
0.0
 11
5963.0132452878497
 21
1368.046581745235
 31
0.0
  0
SPLINE
  5
471
100
AcDbEntity
  8
0
  6
CONTINUOUS
 62
           3
100
AcDbSpline
210
0.0
220
0.0
230
1.0
 70
           0
 71
           3
 72
           8
 73
           5
 74
           7
 42
0.00000000001
 43
0.00000000001
 44
0.00000000001
 40
0.0
 40
0.0
 40
0.0
 40
0.277946485437685
 40
0.7862840843772351
 40
1.5429642658576475
 40
1.5429642658576475
 40
1.5429642658576475
 10
5961.5698696873524
 20
1372.6000040770409
 30
0.0
 10
5961.5356531379884
 20
1372.599558381668
 30
0.0
 10
5961.0482404188879
 20
1372.59320947744
 30
0.0
 10
5960.5706019393474
 20
1372.365313693474
 30
0.0
 10
5960.1264938539789
 20
1372.1534162761091
 30
0.0
 11
5961.5698696873524
 21
1372.6000040770409
 31
0.0
 11
5961.5011329415984
 21
1372.599108731069
 31
0.0
 11
5961.3633558030642
 21
1372.5973140838987
 31
0.0
 11
5961.0790354338715
 21
1372.5713410900564
 31
0.0
 11
5960.8563050946505
 21
1372.5016313214467
 31
0.0
 11
5960.5310007068301
 21
1372.3464187461257
 31
0.0
 11
5960.1264938539789
 21
1372.1534162761091
 31
0.0
  0
SPLINE
  5
470
100
AcDbEntity
  8
0
  6
CONTINUOUS
 62
           3
100
AcDbSpline
210
0.0
220
0.0
230
1.0
 70
           0
 71
           3
 72
           8
 73
           5
 74
           7
 42
0.00000000001
 43
0.00000000001
 44
0.00000000001
 40
0.0
 40
0.0
 40
0.0
 40
0.2779464854282354
 40
0.7862840843632371
 40
1.5429642658946923
 40
1.5429642658946923
 40
1.5429642658946923
 10
5970.2301237560096
 20
1367.5999939442549
 30
0.0
 10
5970.2643403053698
 20
1367.6004396396349
 30
0.0
 10
5970.7517530244586
 20
1367.606788543864
 30
0.0
 10
5971.2293915040054
 20
1367.834684327823
 30
0.0
 10
5971.6734995893703
 20
1368.046581745311
 30
0.0
 11
5970.2301237560096
 21
1367.5999939442549
 31
0.0
 11
5970.2988605017581
 21
1367.6008892902323
 31
0.0
 11
5970.4366376402868
 21
1367.6026839374044
 31
0.0
 11
5970.7209580094741
 21
1367.6286569312456
 31
0.0
 11
5970.9436883486896
 21
1367.6983666998503
 31
0.0
 11
5971.2689927365182
 21
1367.853579275202
 31
0.0
 11
5971.6734995893703
 21
1368.046581745311
 31
0.0
  0
SPLINE
  5
46F
100
AcDbEntity
  8
0
  6
CONTINUOUS
 62
           3
100
AcDbSpline
210
0.0
220
0.0
230
1.0
 70
           0
 71
           3
 72
           8
 73
           5
 74
           7
 42
0.00000000001
 43
0.00000000001
 44
0.00000000001
 40
0.0
 40
0.0
 40
0.0
 40
0.277945479751175
 40
0.7862825386949082
 40
1.5429638907279966
 40
1.5429638907279966
 40
1.5429638907279966
 10
5970.2301237560096
 20
1372.6000040770409
 30
0.0
 10
5970.1959072114296
 20
1372.599558384783
 30
0.0
 10
5969.7084964933174
 20
1372.5932095501271
 30
0.0
 10
5969.2308570261584
 20
1372.36531369562
 30
0.0
 10
5968.7867481555077
 20
1372.153416276062
 30
0.0
 11
5970.2301237560096
 21
1372.6000040770409
 31
0.0
 11
5970.1613872618564
 21
1372.5991087404805
 31
0.0
 11
5970.0236108685567
 21
1372.5973141153158
 31
0.0
 11
5969.7392912317418
 21
1372.5713411810716
 31
0.0
 11
5969.516561071774
 21
1372.5016315087164
 31
0.0
 11
5969.1912558198992
 21
1372.3464187940044
 31
0.0
 11
5968.7867481555077
 21
1372.153416276062
 31
0.0
  0
SPLINE
  5
46E
100
AcDbEntity
  8
0
  6
CONTINUOUS
 62
           3
100
AcDbSpline
210
0.0
220
0.0
230
1.0
 70
           0
 71
           3
 72
           8
 73
           5
 74
           7
 42
0.00000000001
 43
0.00000000001
 44
0.00000000001
 40
0.0
 40
0.0
 40
0.0
 40
0.709710718913952
 40
1.6878556121190167
 40
2.9354150974127733
 40
2.9354150974127733
 40
2.9354150974127733
 10
5963.0132452878497
 20
1368.046581745235
 30
0.0
 10
5963.2266018695009
 20
1367.986940602696
 30
0.0
 10
5964.1669045504686
 20
1367.7240908429519
 30
0.0
 10
5965.1443418916897
 20
1367.654102099867
 30
0.0
 10
5965.8999967216814
 20
1367.5999939442549
 30
0.0
 11
5963.0132452878497
 21
1368.046581745235
 31
0.0
 11
5963.2721075078061
 21
1367.9742200752128
 31
0.0
 11
5963.6219810043713
 21
1367.8764173502241
 31
0.0
 11
5964.1380638628607
 21
1367.754482866841
 31
0.0
 11
5964.5964653461342
 21
1367.6933324312367
 31
0.0
 11
5965.1962864627985
 21
1367.6503826438066
 31
0.0
 11
5965.8999967216814
 21
1367.5999939442549
 31
0.0
  0
SPLINE
  5
46D
100
AcDbEntity
  8
0
  6
CONTINUOUS
 62
           3
100
AcDbSpline
210
0.0
220
0.0
230
1.0
 70
           0
 71
           3
 72
           8
 73
           5
 74
           7
 42
0.00000000001
 43
0.00000000001
 44
0.00000000001
 40
0.0
 40
0.0
 40
0.0
 40
0.7273681394898068
 40
1.7065914567876275
 40
2.9387223240291016
 40
2.9387223240291016
 40
2.9387223240291016
 10
5965.8999967216814
 20
1367.5999939442549
 30
0.0
 10
5966.1387195010384
 20
1367.6054734833269
 30
0.0
 10
5967.1156271469872
 20
1367.6278969974519
 30
0.0
 10
5968.0674888562498
 20
1367.86637762072
 30
0.0
 10
5968.7867481553694
 20
1368.046581745311
 30
0.0
 11
5965.8999967216814
 21
1367.5999939442549
 31
0.0
 11
5966.1831310149782
 21
1367.606492885943
 31
0.0
 11
5966.5550883361575
 21
1367.6150306328632
 31
0.0
 11
5967.0808673755182
 21
1367.6510811733847
 31
0.0
 11
5967.5371268719382
 21
1367.7335000657713
 31
0.0
 11
5968.114713184953
 21
1367.8782092631307
 31
0.0
 11
5968.7867481553694
 21
1368.046581745311
 31
0.0
  0
SPLINE
  5
46C
100
AcDbEntity
  8
0
  6
CONTINUOUS
 62
           3
100
AcDbSpline
210
0.0
220
0.0
230
1.0
 70
           0
 71
           3
 72
           8
 73
           5
 74
           7
 42
0.00000000001
 43
0.00000000001
 44
0.00000000001
 40
0.0
 40
0.0
 40
0.0
 40
1.2321308673578346
 40
2.211354184655832
 40
2.938722324145568
 40
2.938722324145568
 40
2.938722324145568
 10
5968.7867481555077
 20
1372.153416276062
 30
0.0
 10
5968.0674888562498
 20
1372.3336204005791
 30
0.0
 10
5967.1156271469872
 20
1372.572101023849
 30
0.0
 10
5966.1387195010384
 20
1372.5945245379701
 30
0.0
 10
5965.8999967216814
 20
1372.6000040770409
 30
0.0
 11
5968.7867481555077
 21
1372.153416276062
 31
0.0
 11
5968.1147131849812
 21
1372.3217887581886
 31
0.0
 11
5967.5371268719164
 21
1372.4664979555346
 31
0.0
 11
5967.0808673755118
 21
1372.5489168479169
 31
0.0
 11
5966.5550883361575
 21
1372.5849673884354
 31
0.0
 11
5966.1831310149792
 21
1372.593505135354
 31
0.0
 11
5965.8999967216814
 21
1372.6000040770409
 31
0.0
  0
SPLINE
  5
46B
100
AcDbEntity
  8
0
  6
CONTINUOUS
 62
           3
100
AcDbSpline
210
0.0
220
0.0
230
1.0
 70
           0
 71
           3
 72
           8
 73
           5
 74
           7
 42
0.00000000001
 43
0.00000000001
 44
0.00000000001
 40
0.0
 40
0.0
 40
0.0
 40
1.2475616964940324
 40
2.2257084622432828
 40
2.9354211178805665
 40
2.9354211178805665
 40
2.9354211178805665
 10
5965.8999967216814
 20
1372.6000040770409
 30
0.0
 10
5965.1443400642593
 20
1372.5459088094719
 30
0.0
 10
5964.1668989125892
 20
1372.475936633469
 30
0.0
 10
5963.2266017037682
 20
1372.21306311116
 30
0.0
 10
5963.0132452878497
 20
1372.153416276062
 30
0.0
 11
5965.8999967216814
 21
1372.6000040770409
 31
0.0
 11
5965.1962845668104
 21
1372.5496273656931
 31
0.0
 11
5964.5964614170389
 21
1372.5066877667871
 31
0.0
 11
5964.1380594916373
 21
1372.445539360308
 31
0.0
 11
5963.6219787243335
 21
1372.3235964075061
 31
0.0
 11
5963.2721068549299
 21
1372.2257847264718
 31
0.0
 11
5963.0132452878497
 21
1372.153416276062
 31
0.0
  0
SPLINE
  5
46A
100
AcDbEntity
  8
0
  6
CONTINUOUS
 62
           3
100
AcDbSpline
210
0.0
220
0.0
230
1.0
 70
           0
 71
           3
 72
           8
 73
           5
 74
           7
 42
0.00000000001
 43
0.00000000001
 44
0.00000000001
 40
0.0
 40
0.0
 40
0.0
 40
0.2779452695536928
 40
0.786280542656662
 40
1.5429573554968938
 40
1.5429573554968938
 40
1.5429573554968938
 10
5961.5698696873524
 20
1372.6000040770409
 30
0.0
 10
5961.6040862308791
 20
1372.6004497818089
 30
0.0
 10
5962.091496528089
 20
1372.6067987893659
 30
0.0
 10
5962.5691362283696
 20
1372.834686833085
 30
0.0
 10
5963.0132452878497
 20
1373.04657697686
 30
0.0
 11
5961.5698696873524
 21
1372.6000040770409
 31
0.0
 11
5961.638606220291
 21
1372.6008994392637
 31
0.0
 11
5961.7763827320541
 21
1372.6026941163957
 31
0.0
 11
5962.06070202923
 21
1372.6286663808405
 31
0.0
 11
5962.2834323286916
 21
1372.6983738282356
 31
0.0
 11
5962.6087375183206
 21
1372.8535811178165
 31
0.0
 11
5963.0132452878497
 21
1373.04657697686
 31
0.0
  0
SPLINE
  5
469
100
AcDbEntity
  8
0
  6
CONTINUOUS
 62
           3
100
AcDbSpline
210
0.0
220
0.0
230
1.0
 70
           0
 71
           3
 72
           8
 73
           5
 74
           7
 42
0.00000000001
 43
0.00000000001
 44
0.00000000001
 40
0.0
 40
0.0
 40
0.0
 40
0.2779463803332755
 40
0.786283086340376
 40
1.5429609982614434
 40
1.5429609982614434
 40
1.5429609982614434
 10
5961.5698696873524
 20
1377.5999993086659
 30
0.0
 10
5961.5356531385114
 20
1377.599553607037
 30
0.0
 10
5961.0482406298806
 20
1377.593204616358
 30
0.0
 10
5960.5706020337684
 20
1377.3653127377879
 30
0.0
 10
5960.1264938539789
 20
1377.1534189582039
 30
0.0
 11
5961.5698696873524
 21
1377.5999993086659
 31
0.0
 11
5961.5011329222043
 21
1377.599103949862
 31
0.0
 11
5961.3633557244411
 21
1377.5973092767078
 31
0.0
 11
5961.0790355250792
 21
1377.5713366177663
 31
0.0
 11
5960.8563051161182
 21
1377.5016279616409
 31
0.0
 11
5960.531000759408
 21
1377.3464180988553
 31
0.0
 11
5960.1264938539789
 21
1377.1534189582039
 31
0.0
  0
SPLINE
  5
468
100
AcDbEntity
  8
0
  6
CONTINUOUS
 62
           3
100
AcDbSpline
210
0.0
220
0.0
230
1.0
 70
           0
 71
           3
 72
           8
 73
           5
 74
           7
 42
0.00000000001
 43
0.00000000001
 44
0.00000000001
 40
0.0
 40
0.0
 40
0.0
 40
0.2779462752406933
 40
0.7862820883284389
 40
1.5429577306511488
 40
1.5429577306511488
 40
1.5429577306511488
 10
5970.2301237560096
 20
1372.6000040770409
 30
0.0
 10
5970.2643403043294
 20
1372.6004497849281
 30
0.0
 10
5970.7517526025104
 20
1372.606798862053
 30
0.0
 10
5971.2293913151707
 20
1372.8346868352351
 30
0.0
 10
5971.6734995893703
 20
1373.046576976911
 30
0.0
 11
5970.2301237560096
 21
1372.6000040770409
 31
0.0
 11
5970.2988605405553
 21
1372.6008994486781
 31
0.0
 11
5970.436637797553
 21
1372.6026941478153
 31
0.0
 11
5970.7209578270931
 21
1372.6286664718552
 31
0.0
 11
5970.9436883057988
 21
1372.6983740154992
 31
0.0
 11
5971.2689926313778
 21
1372.85358116572
 31
0.0
 11
5971.6734995893703
 21
1373.046576976911
 31
0.0
  0
SPLINE
  5
467
100
AcDbEntity
  8
0
  6
CONTINUOUS
 62
           3
100
AcDbSpline
210
0.0
220
0.0
230
1.0
 70
           0
 71
           3
 72
           8
 73
           5
 74
           7
 42
0.00000000001
 43
0.00000000001
 44
0.00000000001
 40
0.0
 40
0.0
 40
0.0
 40
0.2779453746513154
 40
0.7862815406649562
 40
1.5429606230903485
 40
1.5429606230903485
 40
1.5429606230903485
 10
5970.2301237560096
 20
1377.5999993086659
 30
0.0
 10
5970.1959072119562
 20
1377.5995536101509
 30
0.0
 10
5969.7084967042974
 20
1377.593204689045
 30
0.0
 10
5969.2308571205804
 20
1377.365312739938
 30
0.0
 10
5968.7867481555077
 20
1377.1534189582669
 30
0.0
 11
5970.2301237560096
 21
1377.5999993086659
 31
0.0
 11
5970.1613872424641
 21
1377.599103959273
 31
0.0
 11
5970.0236107899327
 21
1377.5973093081241
 31
0.0
 11
5969.7392913229378
 21
1377.5713367087801
 31
0.0
 11
5969.5165610932263
 21
1377.5016281489065
 31
0.0
 11
5969.1912558724734
 21
1377.3464181467625
 31
0.0
 11
5968.7867481555077
 21
1377.1534189582669
 31
0.0
  0
SPLINE
  5
466
100
AcDbEntity
  8
0
  6
CONTINUOUS
 62
           3
100
AcDbSpline
210
0.0
220
0.0
230
1.0
 70
           0
 71
           3
 72
           8
 73
           5
 74
           7
 42
0.00000000001
 43
0.00000000001
 44
0.00000000001
 40
0.0
 40
0.0
 40
0.0
 40
0.7097104926820577
 40
1.6878550560188867
 40
2.9354142011758633
 40
2.9354142011758633
 40
2.9354142011758633
 10
5963.0132452878497
 20
1373.04657697686
 30
0.0
 10
5963.2266018489609
 20
1372.9869356693489
 30
0.0
 10
5964.1669038516584
 20
1372.7240853468579
 30
0.0
 10
5965.1443416651773
 20
1372.654105412621
 30
0.0
 10
5965.8999967216814
 20
1372.6000040770409
 30
0.0
 11
5963.0132452878497
 21
1373.04657697686
 31
0.0
 11
5963.272107422159
 21
1372.9742151236569
 31
0.0
 11
5963.6219807028647
 21
1372.8764121790696
 31
0.0
 11
5964.1380633113777
 21
1372.7544784200809
 31
0.0
 11
5964.5964648393347
 21
1372.6933308075384
 31
0.0
 11
5965.1962862228429
 21
1372.6503864274553
 31
0.0
 11
5965.8999967216814
 21
1372.6000040770409
 31
0.0
  0
SPLINE
  5
465
100
AcDbEntity
  8
0
  6
CONTINUOUS
 62
           3
100
AcDbSpline
210
0.0
220
0.0
230
1.0
 70
           0
 71
           3
 72
           8
 73
           5
 74
           7
 42
0.00000000001
 43
0.00000000001
 44
0.00000000001
 40
0.0
 40
0.0
 40
0.0
 40
0.7273675739545865
 40
1.7065896374622045
 40
2.938718466600827
 40
2.938718466600827
 40
2.938718466600827
 10
5965.8999967216814
 20
1372.6000040770409
 30
0.0
 10
5966.1387194651616
 20
1372.605483801264
 30
0.0
 10
5967.1156260260987
 20
1372.6279080515201
 30
0.0
 10
5968.0674885010594
 20
1372.866379694286
 30
0.0
 10
5968.7867481553694
 20
1373.046576976911
 30
0.0
 11
5965.8999967216814
 21
1372.6000040770409
 31
0.0
 11
5966.1831309024965
 21
1372.6065032367185
 31
0.0
 11
5966.5550879579796
 21
1372.6150412673053
 31
0.0
 11
5967.0808665470149
 21
1372.6510911338657
 31
0.0
 11
5967.5371261778864
 21
1372.7335071651178
 31
0.0
 11
5968.1147128338434
 21
1372.8782108826504
 31
0.0
 11
5968.7867481553694
 21
1373.046576976911
 31
0.0
  0
SPLINE
  5
464
100
AcDbEntity
  8
0
  6
CONTINUOUS
 62
           3
100
AcDbSpline
210
0.0
220
0.0
230
1.0
 70
           0
 71
           3
 72
           8
 73
           5
 74
           7
 42
0.00000000001
 43
0.00000000001
 44
0.00000000001
 40
0.0
 40
0.0
 40
0.0
 40
1.2321298483013359
 40
2.2113525386978461
 40
2.9387203954164773
 40
2.9387203954164773
 40
2.9387203954164773
 10
5968.7867481555077
 20
1377.1534189582669
 30
0.0
 10
5968.0674886786501
 20
1377.333619661815
 30
0.0
 10
5967.1156265865384
 20
1377.572095794832
 30
0.0
 10
5966.1387194830977
 20
1377.5945196770231
 30
0.0
 10
5965.8999967216814
 20
1377.5999993086659
 30
0.0
 11
5968.7867481555077
 21
1377.1534189582669
 31
0.0
 11
5968.1147130094232
 21
1377.3217882464439
 31
0.0
 11
5967.537126524885
 21
1377.4664947038789
 31
0.0
 11
5967.0808669612561
 21
1377.548912165694
 31
0.0
 11
5966.5550881470663
 21
1377.5849623692341
 31
0.0
 11
5966.183130958736
 21
1377.5935002579865
 31
0.0
 11
5965.8999967216814
 21
1377.5999993086659
 31
0.0
  0
SPLINE
  5
463
100
AcDbEntity
  8
0
  6
CONTINUOUS
 62
           3
100
AcDbSpline
210
0.0
220
0.0
230
1.0
 70
           0
 71
           3
 72
           8
 73
           5
 74
           7
 42
0.00000000001
 43
0.00000000001
 44
0.00000000001
 40
0.0
 40
0.0
 40
0.0
 40
1.2475604207866562
 40
2.2257060852956227
 40
2.9354176594315939
 40
2.9354176594315939
 40
2.9354176594315939
 10
5965.8999967216814
 20
1377.5999993086659
 30
0.0
 10
5965.1443408647274
 20
1377.5459010071049
 30
0.0
 10
5964.1669013821684
 20
1377.4759249520071
 30
0.0
 10
5963.2266017763686
 20
1377.2130630295719
 30
0.0
 10
5963.0132452878497
 20
1377.1534189582669
 30
0.0
 11
5965.8999967216814
 21
1377.5999993086659
 31
0.0
 11
5965.196285394838
 21
1377.5496197777982
 31
0.0
 11
5964.596463128215
 21
1377.5066777883162
 31
0.0
 11
5964.1380614015434
 21
1377.4455297788072
 31
0.0
 11
5963.6219797136218
 21
1377.3235914228985
 31
0.0
 11
5963.2721071385522
 21
1377.2257841100773
 31
0.0
 11
5963.0132452878497
 21
1377.1534189582669
 31
0.0
  0
SPLINE
  5
462
100
AcDbEntity
  8
0
  6
CONTINUOUS
 62
           3
100
AcDbSpline
210
0.0
220
0.0
230
1.0
 70
           0
 71
           3
 72
           8
 73
           5
 74
           7
 42
0.00000000001
 43
0.00000000001
 44
0.00000000001
 40
0.0
 40
0.0
 40
0.0
 40
0.2779454797452741
 40
0.7862825386895651
 40
1.5429638907212526
 40
1.5429638907212526
 40
1.5429638907212526
 10
5961.5698696873524
 20
1359.9999994040479
 30
0.0
 10
5961.6040862319287
 20
1360.0004450963061
 30
0.0
 10
5962.0914969500363
 20
1360.0067939309631
 30
0.0
 10
5962.5691364172017
 20
1360.23468978547
 30
0.0
 10
5963.0132452878497
 20
1360.4465872050239
 30
0.0
 11
5961.5698696873524
 21
1359.9999994040479
 31
0.0
 11
5961.6386061815019
 21
1360.0008947406086
 31
0.0
 11
5961.776382574797
 21
1360.0026893657737
 31
0.0
 11
5962.0607022116128
 21
1360.0286623000186
 31
0.0
 11
5962.2834323715824
 21
1360.0983719723736
 31
0.0
 11
5962.6087376234591
 21
1360.2535846870846
 31
0.0
 11
5963.0132452878497
 21
1360.4465872050239
 31
0.0
  0
SPLINE
  5
461
100
AcDbEntity
  8
0
  6
CONTINUOUS
 62
           3
100
AcDbSpline
210
0.0
220
0.0
230
1.0
 70
           0
 71
           3
 72
           8
 73
           5
 74
           7
 42
0.00000000001
 43
0.00000000001
 44
0.00000000001
 40
0.0
 40
0.0
 40
0.0
 40
0.2779462752383842
 40
0.7862820883301243
 40
1.5429577306149345
 40
1.5429577306149345
 40
1.5429577306149345
 10
5961.5698696873524
 20
1364.9999946356729
 30
0.0
 10
5961.535653139038
 20
1364.9995489277901
 30
0.0
 10
5961.0482408408507
 20
1364.993199850662
 30
0.0
 10
5960.5706021281876
 20
1364.765311877482
 30
0.0
 10
5960.1264938539789
 20
1364.553421735915
 30
0.0
 11
5961.5698696873524
 21
1364.9999946356729
 31
0.0
 11
5961.5011329028102
 21
1364.9990992640387
 31
0.0
 11
5961.3633556458135
 21
1364.9973045649015
 31
0.0
 11
5961.0790356162679
 21
1364.97133224086
 31
0.0
 11
5960.856305137555
 21
1364.9016246972135
 31
0.0
 11
5960.5310008119777
 21
1364.7464175470232
 31
0.0
 11
5960.1264938539789
 21
1364.553421735915
 31
0.0
  0
SPLINE
  5
460
100
AcDbEntity
  8
0
  6
CONTINUOUS
 62
           3
100
AcDbSpline
210
0.0
220
0.0
230
1.0
 70
           0
 71
           3
 72
           8
 73
           5
 74
           7
 42
0.00000000001
 43
0.00000000001
 44
0.00000000001
 40
0.0
 40
0.0
 40
0.0
 40
0.2779464854680256
 40
0.7862840844040968
 40
1.5429642659439726
 40
1.5429642659439726
 40
1.5429642659439726
 10
5970.2301237559714
 20
1359.999999403921
 30
0.0
 10
5970.2643403053698
 20
1360.000445099424
 30
0.0
 10
5970.7517530244586
 20
1360.006794003652
 30
0.0
 10
5971.2293915040054
 20
1360.2346897876159
 30
0.0
 10
5971.6734995893703
 20
1360.446587205121
 30
0.0
 11
5970.2301237559714
 21
1359.999999403921
 31
0.0
 11
5970.2988605017536
 21
1360.0008947499905
 31
0.0
 11
5970.4366376403032
 21
1360.0026893971935
 31
0.0
 11
5970.7209580094777
 21
1360.0286623910342
 31
0.0
 11
5970.9436883486887
 21
1360.0983721596399
 31
0.0
 11
5971.2689927365182
 21
1360.2535847349982
 31
0.0
 11
5971.6734995893703
 21
1360.446587205121
 31
0.0
  0
SPLINE
  5
45F
100
AcDbEntity
  8
0
  6
CONTINUOUS
 62
           3
100
AcDbSpline
210
0.0
220
0.0
230
1.0
 70
           0
 71
           3
 72
           8
 73
           5
 74
           7
 42
0.00000000001
 43
0.00000000001
 44
0.00000000001
 40
0.0
 40
0.0
 40
0.0
 40
0.2779452695523079
 40
0.7862805426552565
 40
1.5429573555004135
 40
1.5429573555004135
 40
1.5429573555004135
 10
5970.2301237560096
 20
1364.9999946356729
 30
0.0
 10
5970.1959072124801
 20
1364.999548930904
 30
0.0
 10
5969.7084969152784
 20
1364.993199923352
 30
0.0
 10
5969.2308572149886
 20
1364.7653118796329
 30
0.0
 10
5968.7867481555077
 20
1364.5534217358579
 30
0.0
 11
5970.2301237560096
 21
1364.9999946356729
 31
0.0
 11
5970.1613872230691
 21
1364.9990992734499
 31
0.0
 11
5970.0236107113087
 21
1364.9973045963188
 31
0.0
 11
5969.7392914141346
 21
1364.9713323318763
 31
0.0
 11
5969.5165611146731
 21
1364.9016248844828
 31
0.0
 11
5969.1912559250395
 21
1364.7464175949015
 31
0.0
 11
5968.7867481555077
 21
1364.5534217358579
 31
0.0
  0
SPLINE
  5
45E
100
AcDbEntity
  8
0
  6
CONTINUOUS
 62
           3
100
AcDbSpline
210
0.0
220
0.0
230
1.0
 70
           0
 71
           3
 72
           8
 73
           5
 74
           7
 42
0.00000000001
 43
0.00000000001
 44
0.00000000001
 40
0.0
 40
0.0
 40
0.0
 40
0.7097126556365796
 40
1.6878594213857179
 40
2.9354211178797258
 40
2.9354211178797258
 40
2.9354211178797258
 10
5963.0132452878497
 20
1360.4465872050239
 30
0.0
 10
5963.2266017037682
 20
1360.386940369928
 30
0.0
 10
5964.1668989125892
 20
1360.12406684762
 30
0.0
 10
5965.1443400642593
 20
1360.054094671616
 30
0.0
 10
5965.8999967216814
 20
1359.9999994040479
 30
0.0
 11
5963.0132452878497
 21
1360.4465872050239
 31
0.0
 11
5963.272106854929
 21
1360.3742187546154
 31
0.0
 11
5963.6219787243335
 21
1360.2764070735825
 31
0.0
 11
5964.1380594916373
 21
1360.1544641207806
 31
0.0
 11
5964.5964614170389
 21
1360.0933157143013
 31
0.0
 11
5965.1962845668104
 21
1360.0503761153955
 31
0.0
 11
5965.8999967216814
 21
1359.9999994040479
 31
0.0
  0
SPLINE
  5
45D
100
AcDbEntity
  8
0
  6
CONTINUOUS
 62
           3
100
AcDbSpline
210
0.0
220
0.0
230
1.0
 70
           0
 71
           3
 72
           8
 73
           5
 74
           7
 42
0.00000000001
 43
0.00000000001
 44
0.00000000001
 40
0.0
 40
0.0
 40
0.0
 40
0.727368139489718
 40
1.7065914567876492
 40
2.9387223240340967
 40
2.9387223240340967
 40
2.9387223240340967
 10
5965.8999967216814
 20
1359.9999994040479
 30
0.0
 10
5966.1387195010384
 20
1360.005478943116
 30
0.0
 10
5967.1156271469872
 20
1360.027902457241
 30
0.0
 10
5968.0674888562498
 20
1360.26638308051
 30
0.0
 10
5968.7867481553694
 20
1360.446587205121
 30
0.0
 11
5965.8999967216814
 21
1359.9999994040479
 31
0.0
 11
5966.1831310149782
 21
1360.0064983457328
 31
0.0
 11
5966.5550883361575
 21
1360.0150360926523
 31
0.0
 11
5967.0808673755164
 21
1360.0510866331736
 31
0.0
 11
5967.5371268719373
 21
1360.1335055255604
 31
0.0
 11
5968.1147131849511
 21
1360.2782147229252
 31
0.0
 11
5968.7867481553694
 21
1360.446587205121
 31
0.0
  0
SPLINE
  5
45C
100
AcDbEntity
  8
0
  6
CONTINUOUS
 62
           3
100
AcDbSpline
210
0.0
220
0.0
230
1.0
 70
           0
 71
           3
 72
           8
 73
           5
 74
           7
 42
0.00000000001
 43
0.00000000001
 44
0.00000000001
 40
0.0
 40
0.0
 40
0.0
 40
1.2321288292598747
 40
2.2113508927677517
 40
2.9387184667222548
 40
2.9387184667222548
 40
2.9387184667222548
 10
5968.7867481555077
 20
1364.5534217358579
 30
0.0
 10
5968.0674885010594
 20
1364.733619018429
 30
0.0
 10
5967.1156260260987
 20
1364.9720906611969
 30
0.0
 10
5966.1387194651616
 20
1364.994514911454
 30
0.0
 10
5965.8999967216814
 20
1364.9999946356729
 30
0.0
 11
5968.7867481555077
 21
1364.5534217358579
 31
0.0
 11
5968.1147128338735
 21
1364.7217878300798
 31
0.0
 11
5967.5371261778637
 21
1364.8664915476038
 31
0.0
 11
5967.0808665470095
 21
1364.9489075788526
 31
0.0
 11
5966.5550879579796
 21
1364.9849574454124
 31
0.0
 11
5966.1831309024965
 21
1364.9934954759983
 31
0.0
 11
5965.8999967216814
 21
1364.9999946356729
 31
0.0
  0
SPLINE
  5
45B
100
AcDbEntity
  8
0
  6
CONTINUOUS
 62
           3
100
AcDbSpline
210
0.0
220
0.0
230
1.0
 70
           0
 71
           3
 72
           8
 73
           5
 74
           7
 42
0.00000000001
 43
0.00000000001
 44
0.00000000001
 40
0.0
 40
0.0
 40
0.0
 40
1.2475591451569683
 40
2.2257037084938776
 40
2.9354142011749862
 40
2.9354142011749862
 40
2.9354142011749862
 10
5965.8999967216814
 20
1364.9999946356729
 30
0.0
 10
5965.1443416651773
 20
1364.9458933000919
 30
0.0
 10
5964.1669038516584
 20
1364.8759133658571
 30
0.0
 10
5963.2266018489609
 20
1364.6130630433649
 30
0.0
 10
5963.0132452878497
 20
1364.5534217358579
 30
0.0
 11
5965.8999967216814
 21
1364.9999946356729
 31
0.0
 11
5965.1962862228429
 21
1364.9496122852579
 31
0.0
 11
5964.5964648393337
 21
1364.9066679051757
 31
0.0
 11
5964.1380633113786
 21
1364.8455202926336
 31
0.0
 11
5963.6219807028647
 21
1364.7235865336447
 31
0.0
 11
5963.272107422159
 21
1364.6257835890581
 31
0.0
 11
5963.0132452878497
 21
1364.5534217358579
 31
0.0
  0
SPLINE
  5
45A
100
AcDbEntity
  8
0
  6
CONTINUOUS
 62
           3
100
AcDbSpline
210
0.0
220
0.0
230
1.0
 70
           0
 71
           3
 72
           8
 73
           5
 74
           7
 42
0.00000000001
 43
0.00000000001
 44
0.00000000001
 40
0.0
 40
0.0
 40
0.0
 40
0.2779464854646984
 40
0.7862840844008037
 40
1.5429642659204115
 40
1.5429642659204115
 40
1.5429642659204115
 10
5970.2301237559714
 20
1359.999999403921
 30
0.0
 10
5970.2643403053698
 20
1359.9995537086761
 30
0.0
 10
5970.7517530244586
 20
1359.9932048044429
 30
0.0
 10
5971.2293915040054
 20
1359.765309020479
 30
0.0
 10
5971.6734995893703
 20
1359.553411603021
 30
0.0
 11
5970.2301237559714
 21
1359.999999403921
 31
0.0
 11
5970.2988605017526
 21
1359.9991040580444
 31
0.0
 11
5970.4366376403013
 21
1359.997309410905
 31
0.0
 11
5970.7209580094777
 21
1359.9713364170614
 31
0.0
 11
5970.9436883486915
 21
1359.9016266484537
 31
0.0
 11
5971.2689927365172
 21
1359.7464140731081
 31
0.0
 11
5971.6734995893703
 21
1359.553411603021
 31
0.0
  0
SPLINE
  5
459
100
AcDbEntity
  8
0
  6
CONTINUOUS
 62
           3
100
AcDbSpline
210
0.0
220
0.0
230
1.0
 70
           0
 71
           3
 72
           8
 73
           5
 74
           7
 42
0.00000000001
 43
0.00000000001
 44
0.00000000001
 40
0.0
 40
0.0
 40
0.0
 40
0.3778155284983235
 40
0.8942062233972833
 40
1.5357514174675138
 40
1.5357514174675138
 40
1.5357514174675138
 10
5960.1264938539789
 20
1359.553411603021
 30
0.0
 10
5960.2210118970397
 20
1359.6064716909059
 30
0.0
 10
5960.6908817949088
 20
1359.870245011374
 30
0.0
 10
5961.1795227343091
 20
1359.942377186198
 30
0.0
 10
5961.5698696873524
 20
1359.9999994040479
 30
0.0
 11
5960.1264938539789
 21
1359.553411603021
 31
0.0
 11
5960.2470141544127
 21
1359.6210687140278
 31
0.0
 11
5960.4195389695915
 21
1359.7179198712795
 31
0.0
 11
5960.6775244143355
 21
1359.8402057052363
 31
0.0
 11
5960.9087950979301
 21
1359.902412926918
 31
0.0
 11
5961.2094275634763
 21
1359.9467916758408
 31
0.0
 11
5961.5698696873524
 21
1359.9999994040479
 31
0.0
  0
SPLINE
  5
458
100
AcDbEntity
  8
0
  6
CONTINUOUS
 62
           3
100
AcDbSpline
210
0.0
220
0.0
230
1.0
 70
           0
 71
           3
 72
           8
 73
           5
 74
           7
 42
0.00000000001
 43
0.00000000001
 44
0.00000000001
 40
0.0
 40
0.0
 40
0.0
 40
0.6415450374779625
 40
1.1579303686109788
 40
1.5357381749071053
 40
1.5357381749071053
 40
1.5357381749071053
 10
5961.5698696873524
 20
1355.0000041724199
 30
0.0
 10
5961.179523708618
 20
1355.0576336938759
 30
0.0
 10
5960.6908846293654
 20
1355.129774916883
 30
0.0
 10
5960.2210119621204
 20
1355.3935224482559
 30
0.0
 10
5960.1264938539789
 20
1355.446577072224
 30
0.0
 11
5961.5698696873524
 21
1355.0000041724199
 31
0.0
 11
5961.2094282457092
 21
1355.0532186767994
 31
0.0
 11
5960.9087958782493
 21
1355.0976031470248
 31
0.0
 11
5960.6775260473241
 21
1355.1598096979612
 31
0.0
 11
5960.41953905232
 21
1355.2820858110542
 31
0.0
 11
5960.2470142076354
 21
1355.3789269449476
 31
0.0
 11
5960.1264938539789
 21
1355.446577072224
 31
0.0
  0
SPLINE
  5
457
100
AcDbEntity
  8
0
  6
CONTINUOUS
 62
           3
100
AcDbSpline
210
0.0
220
0.0
230
1.0
 70
           0
 71
           3
 72
           8
 73
           5
 74
           7
 42
0.00000000001
 43
0.00000000001
 44
0.00000000001
 40
0.0
 40
0.0
 40
0.0
 40
0.3539460334942137
 40
0.86434141365891
 40
1.5431068113991353
 40
1.5431068113991353
 40
1.5431068113991353
 10
5961.5698696873524
 20
1359.9999994040479
 30
0.0
 10
5961.6793238424289
 20
1359.9953935078299
 30
0.0
 10
5962.1676816710496
 20
1359.97484311874
 30
0.0
 10
5962.6438213484516
 20
1359.7375336343539
 30
0.0
 10
5963.0132452879761
 20
1359.553411603021
 30
0.0
 11
5961.5698696873524
 21
1359.9999994040479
 31
0.0
 11
5961.7019556855867
 21
1359.9944411463541
 31
0.0
 11
5961.8793053701384
 21
1359.9869781657092
 31
0.0
 11
5962.1466781413928
 21
1359.9524131949256
 31
0.0
 11
5962.3720438533328
 21
1359.8729883765131
 31
0.0
 11
5962.6682329595542
 21
1359.7253668120607
 31
0.0
 11
5963.0132452879761
 21
1359.553411603021
 31
0.0
  0
SPLINE
  5
456
100
AcDbEntity
  8
0
  6
CONTINUOUS
 62
           3
100
AcDbSpline
210
0.0
220
0.0
230
1.0
 70
           0
 71
           3
 72
           8
 73
           5
 74
           7
 42
0.00000000001
 43
0.00000000001
 44
0.00000000001
 40
0.0
 40
0.0
 40
0.0
 40
0.6787700534933977
 40
1.1891668948827512
 40
1.5431123743450883
 40
1.5431123743450883
 40
1.5431123743450883
 10
5963.0132452878497
 20
1355.446577072242
 30
0.0
 10
5962.6438214744094
 20
1355.2624483716049
 30
0.0
 10
5962.1676820506282
 20
1355.0251303367841
 30
0.0
 10
5961.6793238525906
 20
1355.0046045512611
 30
0.0
 10
5961.5698696873524
 20
1355.0000041724199
 30
0.0
 11
5963.0132452878497
 21
1355.446577072242
 31
0.0
 11
5962.6682329736432
 21
1355.2746155830059
 31
0.0
 11
5962.372043657906
 21
1355.1269885165725
 31
0.0
 11
5962.1466781919535
 21
1355.0475647466083
 31
0.0
 11
5961.8793050086488
 21
1355.0130097962929
 31
0.0
 11
5961.7019556002952
 21
1355.0055557678088
 31
0.0
 11
5961.5698696873524
 21
1355.0000041724199
 31
0.0
  0
SPLINE
  5
455
100
AcDbEntity
  8
0
  6
CONTINUOUS
 62
           3
100
AcDbSpline
210
0.0
220
0.0
230
1.0
 70
           0
 71
           3
 72
           8
 73
           5
 74
           7
 42
0.00000000001
 43
0.00000000001
 44
0.00000000001
 40
0.0
 40
0.0
 40
0.0
 40
0.2779452695523301
 40
0.7862805426561302
 40
1.542957355619154
 40
1.542957355619154
 40
1.542957355619154
 10
5970.2301237560096
 20
1355.0000041724199
 30
0.0
 10
5970.1959072124801
 20
1355.0004498771891
 30
0.0
 10
5969.7084969152784
 20
1355.0067988847441
 30
0.0
 10
5969.2308572149886
 20
1355.234686928467
 30
0.0
 10
5968.7867481553694
 20
1355.446577072224
 30
0.0
 11
5970.2301237560096
 21
1355.0000041724199
 31
0.0
 11
5970.1613872230691
 21
1355.0008995346434
 31
0.0
 11
5970.0236107113096
 21
1355.0026942117752
 31
0.0
 11
5969.7392914141392
 21
1355.0286664762175
 31
0.0
 11
5969.5165611146913
 21
1355.0983739236065
 31
0.0
 11
5969.1912559250086
 21
1355.253581213191
 31
0.0
 11
5968.7867481553694
 21
1355.446577072224
 31
0.0
  0
SPLINE
  5
454
100
AcDbEntity
  8
0
  6
CONTINUOUS
 62
           3
100
AcDbSpline
210
0.0
220
0.0
230
1.0
 70
           0
 71
           3
 72
           8
 73
           5
 74
           7
 42
0.00000000001
 43
0.00000000001
 44
0.00000000001
 40
0.0
 40
0.0
 40
0.0
 40
0.5558558490692164
 40
1.5343195422057017
 40
2.9385037456648035
 40
2.9385037456648035
 40
2.9385037456648035
 10
5965.8999967216814
 20
1355.000004172322
 30
0.0
 10
5965.8315636362977
 20
1355.0004498783021
 30
0.0
 10
5964.8567416872474
 20
1355.0067989106669
 30
0.0
 10
5963.9014629162693
 20
1355.234686929231
 30
0.0
 10
5963.0132452878497
 20
1355.446577072242
 30
0.0
 11
5965.8999967216814
 21
1355.000004172322
 31
0.0
 11
5965.7603818762527
 21
1355.0009134863224
 31
0.0
 11
5965.4784035107332
 21
1355.0027500163624
 31
0.0
 11
5964.9140828960226
 21
1355.0291829422179
 31
0.0
 11
5964.4644446988586
 21
1355.1003839311747
 31
0.0
 11
5963.8201539548118
 21
1355.2540837154697
 31
0.0
 11
5963.0132452878497
 21
1355.446577072242
 31
0.0
  0
SPLINE
  5
453
100
AcDbEntity
  8
0
  6
CONTINUOUS
 62
           3
100
AcDbSpline
210
0.0
220
0.0
230
1.0
 70
           0
 71
           3
 72
           8
 73
           5
 74
           7
 42
0.00000000001
 43
0.00000000001
 44
0.00000000001
 40
0.0
 40
0.0
 40
0.0
 40
0.55585627141471
 40
1.5343210643703693
 40
2.938507268291743
 40
2.938507268291743
 40
2.938507268291743
 10
5965.8999967216814
 20
1359.9999994040479
 30
0.0
 10
5965.9684298091497
 20
1359.999553710677
 30
0.0
 10
5966.9432526000301
 20
1359.993204851213
 30
0.0
 10
5967.8985309047484
 20
1359.765309021863
 30
0.0
 10
5968.7867481555077
 20
1359.553411603069
 30
0.0
 11
5965.8999967216814
 21
1359.9999994040479
 31
0.0
 11
5966.039611624411
 21
1359.9990901152978
 31
0.0
 11
5966.3215901576659
 21
1359.9972536357895
 31
0.0
 11
5966.8859111712927
 21
1359.9708199944766
 31
0.0
 11
5967.335549327443
 21
1359.8996166396903
 31
0.0
 11
5967.9798398231123
 21
1359.7459115716213
 31
0.0
 11
5968.7867481555077
 21
1359.553411603069
 31
0.0
  0
CIRCLE
  5
452
100
AcDbEntity
  8
1
  6
CONTINUOUS
 62
           7
100
AcDbCircle
 10
549.999999999999
 20
4815.0
 40
45.0
  0
CIRCLE
  5
451
100
AcDbEntity
  8
1
  6
CONTINUOUS
 62
           7
100
AcDbCircle
 10
-1450.0
 20
4815.0
 40
45.0
  0
CIRCLE
  5
450
100
AcDbEntity
  8
1
  6
CONTINUOUS
 62
           7
100
AcDbCircle
 10
5380.0
 20
1485.000000000004
 40
10.0
  0
CIRCLE
  5
44F
100
AcDbEntity
  8
1
  6
CONTINUOUS
 62
           7
100
AcDbCircle
 10
5380.0
 20
1515.000000000004
 40
10.0
  0
CIRCLE
  5
44E
100
AcDbEntity
  8
1
  6
CONTINUOUS
 62
           7
100
AcDbCircle
 10
5380.0
 20
1500.000000000004
 40
40.0
  0
CIRCLE
  5
44D
100
AcDbEntity
  8
1
  6
CONTINUOUS
 62
           7
100
AcDbCircle
 10
5150.0
 20
1500.000000000004
 40
40.0
  0
CIRCLE
  5
44C
100
AcDbEntity
  8
1
  6
CONTINUOUS
 62
           7
100
AcDbCircle
 10
5150.0
 20
1500.000000000004
 40
9.25
  0
CIRCLE
  5
44B
100
AcDbEntity
  8
1
  6
CONTINUOUS
 62
           2
100
AcDbCircle
 10
6350.000000000002
 20
600.000000000004
 40
8.35
  0
CIRCLE
  5
44A
100
AcDbEntity
  8
1
  6
CONTINUOUS
 62
           7
100
AcDbCircle
 10
6350.000000000002
 20
600.000000000004
 40
15.0
  0
CIRCLE
  5
449
100
AcDbEntity
  8
1
  6
CONTINUOUS
 62
           3
100
AcDbCircle
 10
-491.527744678121
 20
1295.200848327049
 40
40.0
  0
CIRCLE
  5
448
100
AcDbEntity
  8
1
  6
CONTINUOUS
 62
           7
100
AcDbCircle
 10
0.0
 20
6105.000000000001
 40
360.000000000002
  0
CIRCLE
  5
447
100
AcDbEntity
  8
1
  6
CONTINUOUS
 62
           4
100
AcDbCircle
 10
0.0
 20
6105.000000000001
 40
125.0
  0
CIRCLE
  5
446
100
AcDbEntity
  8
1
  6
CONTINUOUS
 62
           4
100
AcDbCircle
 10
0.0
 20
6105.000000000001
 40
100.9476
  0
ARC
  5
445
100
AcDbEntity
  8
1
  6
CONTINUOUS
 62
           7
100
AcDbCircle
 10
2079.0
 20
4665.0
 40
17.0
100
AcDbArc
 50
-90.0
 51
90.0
  0
ARC
  5
444
100
AcDbEntity
  8
1
  6
CONTINUOUS
 62
           7
100
AcDbCircle
 10
2079.0
 20
4895.0
 40
17.0
100
AcDbArc
 50
-90.0
 51
90.0
  0
ARC
  5
443
100
AcDbEntity
  8
1
  6
CONTINUOUS
 62
           7
100
AcDbCircle
 10
5380.0
 20
1500.000000000004
 40
52.5
100
AcDbArc
 50
148.774146998024
 51
-148.774146998023
  0
ARC
  5
442
100
AcDbEntity
  8
1
  6
CONTINUOUS
 62
           7
100
AcDbCircle
 10
5380.0
 20
1500.000000000004
 40
52.499999999999
100
AcDbArc
 50
58.774146998025
 51
121.225853001972
  0
ARC
  5
441
100
AcDbEntity
  8
1
  6
CONTINUOUS
 62
           7
100
AcDbCircle
 10
5380.0
 20
1500.000000000004
 40
52.5
100
AcDbArc
 50
0.0
 51
31.225853001974
  0
ARC
  5
440
100
AcDbEntity
  8
1
  6
CONTINUOUS
 62
           7
100
AcDbCircle
 10
5335.338834764834
 20
1455.338834764834
 40
12.5
100
AcDbArc
 50
135.000000000017
 51
-45.000000000001
  0
ARC
  5
43F
100
AcDbEntity
  8
1
  6
CONTINUOUS
 62
           7
100
AcDbCircle
 10
5335.338834764834
 20
1544.661165235164
 40
12.500000000004
100
AcDbArc
 50
45.000000000034
 51
-135.000000000046
  0
ARC
  5
43E
100
AcDbEntity
  8
1
  6
CONTINUOUS
 62
           7
100
AcDbCircle
 10
5424.661165235169
 20
1544.661165235164
 40
12.499999999991
100
AcDbArc
 50
-44.999999999965
 51
134.999999999969
  0
ARC
  5
43D
100
AcDbEntity
  8
1
  6
CONTINUOUS
 62
           7
100
AcDbCircle
 10
5380.0
 20
1500.000000000004
 40
52.500000000006
100
AcDbArc
 50
-121.225853001967
 51
-58.774146998031
  0
ARC
  5
43C
100
AcDbEntity
  8
1
  6
CONTINUOUS
 62
           7
100
AcDbCircle
 10
5380.0
 20
1500.000000000004
 40
52.500000000003
100
AcDbArc
 50
-31.225853001975
 51
0.0
  0
ARC
  5
43B
100
AcDbEntity
  8
1
  6
CONTINUOUS
 62
           7
100
AcDbCircle
 10
5424.661165235169
 20
1455.338834764834
 40
12.499999999998
100
AcDbArc
 50
-135.000000000002
 51
44.999999999995
  0
ARC
  5
43A
100
AcDbEntity
  8
1
  6
CONTINUOUS
 62
           7
100
AcDbCircle
 10
5194.661165235169
 20
1455.338834764834
 40
12.499999999998
100
AcDbArc
 50
-135.000000000005
 51
44.999999999995
  0
ARC
  5
439
100
AcDbEntity
  8
1
  6
CONTINUOUS
 62
           7
100
AcDbCircle
 10
5150.0
 20
1500.000000000004
 40
52.500000000003
100
AcDbArc
 50
-31.225853001975
 51
0.0
  0
ARC
  5
438
100
AcDbEntity
  8
1
  6
CONTINUOUS
 62
           7
100
AcDbCircle
 10
5150.0
 20
1500.000000000004
 40
52.500000000006
100
AcDbArc
 50
-121.225853001967
 51
-58.774146998031
  0
ARC
  5
437
100
AcDbEntity
  8
1
  6
CONTINUOUS
 62
           7
100
AcDbCircle
 10
5194.661165235169
 20
1544.661165235164
 40
12.499999999991
100
AcDbArc
 50
-44.999999999965
 51
134.999999999972
  0
ARC
  5
436
100
AcDbEntity
  8
1
  6
CONTINUOUS
 62
           7
100
AcDbCircle
 10
5105.338834764834
 20
1544.661165235164
 40
12.500000000004
100
AcDbArc
 50
45.000000000034
 51
-135.000000000046
  0
ARC
  5
435
100
AcDbEntity
  8
1
  6
CONTINUOUS
 62
           7
100
AcDbCircle
 10
5105.338834764834
 20
1455.338834764834
 40
12.5
100
AcDbArc
 50
135.000000000017
 51
-45.000000000001
  0
ARC
  5
434
100
AcDbEntity
  8
1
  6
CONTINUOUS
 62
           7
100
AcDbCircle
 10
5150.0
 20
1500.000000000004
 40
52.5
100
AcDbArc
 50
0.0
 51
31.225853001974
  0
ARC
  5
433
100
AcDbEntity
  8
1
  6
CONTINUOUS
 62
           7
100
AcDbCircle
 10
5150.0
 20
1500.000000000004
 40
52.499999999998
100
AcDbArc
 50
58.774146998026
 51
121.225853001972
  0
ARC
  5
432
100
AcDbEntity
  8
1
  6
CONTINUOUS
 62
           7
100
AcDbCircle
 10
5150.0
 20
1500.000000000004
 40
52.5
100
AcDbArc
 50
148.774146998024
 51
-148.774146998023
  0
ARC
  5
431
100
AcDbEntity
  8
1
  6
CONTINUOUS
 62
           3
100
AcDbCircle
 10
-491.527744678121
 20
1295.200848327049
 40
28.75000000001
100
AcDbArc
 50
83.827497999999
 51
96.172501999989
  0
ARC
  5
430
100
AcDbEntity
  8
1
  6
CONTINUOUS
 62
           3
100
AcDbCircle
 10
-491.527744678121
 20
1295.200848327049
 40
28.749999999987
100
AcDbArc
 50
-96.172501999994
 51
-83.827497999994
  0
ARC
  5
42F
100
AcDbEntity
  8
1
  6
CONTINUOUS
 62
           3
100
AcDbCircle
 10
-491.527744678121
 20
1295.200848327049
 40
10.75
100
AcDbArc
 50
0.0
 51
61.226493000003
  0
ARC
  5
42E
100
AcDbEntity
  8
1
  6
CONTINUOUS
 62
           3
100
AcDbCircle
 10
-491.527744678121
 20
1295.200848327049
 40
10.749999999999
100
AcDbArc
 50
-61.226493000019
 51
0.0
  0
ARC
  5
42D
100
AcDbEntity
  8
1
  6
CONTINUOUS
 62
           3
100
AcDbCircle
 10
-491.527744678121
 20
1295.200848327049
 40
10.749999999991
100
AcDbArc
 50
118.773506999969
 51
-118.773506999953
  0
ARC
  5
42C
100
AcDbEntity
  8
1
  6
CONTINUOUS
 62
           3
100
AcDbCircle
 10
-487.489442678121
 20
1295.200848327049
 40
10.0
100
AcDbArc
 50
174.993206999971
 51
-174.993207000022
  0
ARC
  5
42B
100
AcDbEntity
  8
1
  6
CONTINUOUS
 62
           3
100
AcDbCircle
 10
-495.566047678115
 20
1295.200848327049
 40
9.999999999999
100
AcDbArc
 50
-5.006792999977
 51
5.006793000029
  0
ARC
  5
42A
100
AcDbEntity
  8
1
  6
CONTINUOUS
 62
           3
100
AcDbCircle
 10
-494.565247678121
 20
1323.287074327051
 40
0.499999999998
100
AcDbArc
 50
96.17250199934
 51
174.993206998794
  0
ARC
  5
429
100
AcDbEntity
  8
1
  6
CONTINUOUS
 62
           3
100
AcDbCircle
 10
-488.490241678122
 20
1323.287074327051
 40
0.500000000005
100
AcDbArc
 50
5.006793001129
 51
83.827497998153
  0
ARC
  5
428
100
AcDbEntity
  8
1
  6
CONTINUOUS
 62
           3
100
AcDbCircle
 10
-494.565247678121
 20
1267.114622327059
 40
0.499999999996
100
AcDbArc
 50
-174.993206999703
 51
-96.172501999315
  0
ARC
  5
427
100
AcDbEntity
  8
1
  6
CONTINUOUS
 62
           3
100
AcDbCircle
 10
-488.490241678122
 20
1267.114622327059
 40
0.500000000002
100
AcDbArc
 50
-83.827497998178
 51
-5.00679300022
  0
ARC
  5
426
100
AcDbEntity
  8
7
  6
CONTINUOUS
 62
           7
100
AcDbCircle
 10
6707.560000000009
 20
3091.360000000004
 40
3.839999999997
100
AcDbArc
 50
0.0
 51
90.0
  0
ARC
  5
425
100
AcDbEntity
  8
7
  6
CONTINUOUS
 62
           7
100
AcDbCircle
 10
6706.507824400007
 20
3097.600000000006
 40
2.400000000002
100
AcDbArc
 50
-124.999999999983
 51
-90.0
  0
ARC
  5
424
100
AcDbEntity
  8
7
  6
CONTINUOUS
 62
           7
100
AcDbCircle
 10
6681.760000000006
 20
3117.449360800005
 40
2.400000000001
100
AcDbArc
 50
180.0
 51
-125.000000000014
  0
ARC
  5
423
100
AcDbEntity
  8
7
  6
CONTINUOUS
 62
           7
100
AcDbCircle
 10
6675.520000000008
 20
3117.160000000003
 40
3.839999999997
100
AcDbArc
 50
0.0
 51
90.0
  0
ARC
  5
422
100
AcDbEntity
  8
7
  6
CONTINUOUS
 62
           7
100
AcDbCircle
 10
6495.240000000005
 20
3117.449360800005
 40
2.400000000001
100
AcDbArc
 50
-54.999999999986
 51
0.0
  0
ARC
  5
421
100
AcDbEntity
  8
7
  6
CONTINUOUS
 62
           7
100
AcDbCircle
 10
6501.480000000003
 20
3117.160000000003
 40
3.840000000001
100
AcDbArc
 50
90.0
 51
180.0
  0
ARC
  5
420
100
AcDbEntity
  8
7
  6
CONTINUOUS
 62
           7
100
AcDbCircle
 10
6476.040000000005
 20
3091.133628400004
 40
7.440000000001
100
AcDbArc
 50
122.681915000002
 51
180.0
  0
ARC
  5
41F
100
AcDbEntity
  8
7
  6
CONTINUOUS
 62
           7
100
AcDbCircle
 10
-113.959999999999
 20
3091.133628400005
 40
7.440000000001
100
AcDbArc
 50
122.681915000002
 51
180.0
  0
ARC
  5
41E
100
AcDbEntity
  8
7
  6
CONTINUOUS
 62
           7
100
AcDbCircle
 10
-88.52
 20
3117.160000000004
 40
3.84
100
AcDbArc
 50
90.0
 51
180.0
  0
ARC
  5
41D
100
AcDbEntity
  8
7
  6
CONTINUOUS
 62
           7
100
AcDbCircle
 10
-94.759999999998
 20
3117.449360800005
 40
2.400000000001
100
AcDbArc
 50
-54.999999999986
 51
0.0
  0
ARC
  5
41C
100
AcDbEntity
  8
7
  6
CONTINUOUS
 62
           7
100
AcDbCircle
 10
85.52
 20
3117.160000000004
 40
3.84
100
AcDbArc
 50
0.0
 51
90.0
  0
ARC
  5
41B
100
AcDbEntity
  8
7
  6
CONTINUOUS
 62
           7
100
AcDbCircle
 10
91.760000000002
 20
3117.449360800005
 40
2.400000000001
100
AcDbArc
 50
180.0
 51
-125.000000000014
  0
ARC
  5
41A
100
AcDbEntity
  8
7
  6
CONTINUOUS
 62
           7
100
AcDbCircle
 10
116.507824400003
 20
3097.600000000006
 40
2.400000000002
100
AcDbArc
 50
-124.999999999982
 51
-90.0
  0
ARC
  5
419
100
AcDbEntity
  8
7
  6
CONTINUOUS
 62
           7
100
AcDbCircle
 10
117.560000000001
 20
3091.360000000005
 40
3.84
100
AcDbArc
 50
0.0
 51
90.0
  0
ARC
  5
418
100
AcDbEntity
  8
1
  6
CONTINUOUS
 62
           7
100
AcDbCircle
 10
-657.98058221921
 20
6105.000000000001
 40
4.999999999997
100
AcDbArc
 50
-85.143317425439
 51
94.394618584461
  0
ARC
  5
417
100
AcDbEntity
  8
1
  6
CONTINUOUS
 62
           7
100
AcDbCircle
 10
-39.999999999996
 20
6155.000000000001
 40
620.0
100
AcDbArc
 50
-179.999999999999
 51
-175.836413410616
  0
ARC
  5
416
100
AcDbEntity
  8
1
  6
CONTINUOUS
 62
           7
100
AcDbCircle
 10
168.972870673508
 20
6484.519281324855
 40
4.999999999998
100
AcDbArc
 50
161.151717651215
 51
-19.471065626763
  0
ARC
  5
415
100
AcDbEntity
  8
1
  6
CONTINUOUS
 62
           7
100
AcDbCircle
 10
18.000000000004
 20
6049.99978542093
 40
460.0
100
AcDbArc
 50
19.808653410673
 51
70.217542734251
  0
ARC
  5
414
100
AcDbEntity
  8
1
  6
CONTINUOUS
 62
           7
100
AcDbCircle
 10
-46.999999999996
 20
6060.000000000001
 40
525.000000000001
100
AcDbArc
 50
-89.633899153763
 51
-3.883455762483
  0
ARC
  5
413
100
AcDbEntity
  8
1
  6
CONTINUOUS
 62
           7
100
AcDbCircle
 10
477.109412628019
 20
6029.433292707342
 40
5.000000000002
100
AcDbArc
 50
86.935058466807
 51
-93.610617686025
  0
ARC
  5
412
100
AcDbEntity
  8
1
  6
CONTINUOUS
 62
           7
100
AcDbCircle
 10
452.450424338098
 20
6201.171306523448
 40
5.0
100
AcDbArc
 50
-90.0
 51
-71.125521506268
  0
ARC
  5
411
100
AcDbEntity
  8
1
  6
CONTINUOUS
 62
           7
100
AcDbCircle
 10
18.000000000004
 20
6049.99978542093
 40
459.999999999998
100
AcDbArc
 50
0.602232686388
 51
18.563086854737
  0
ARC
  5
410
100
AcDbEntity
  8
1
  6
CONTINUOUS
 62
           7
100
AcDbCircle
 10
452.450424338098
 20
6201.171306523448
 40
5.0
100
AcDbArc
 50
109.497261771684
 51
-90.0
  0
ARC
  5
40F
100
AcDbEntity
  8
1
  6
CONTINUOUS
 62
           7
100
AcDbCircle
 10
-39.999999999996
 20
6155.000000000001
 40
620.000000000001
100
AcDbArc
 50
-174.912285430338
 51
-90.336887134984
  0
ARC
  5
40E
100
AcDbEntity
  8
1
  6
CONTINUOUS
 62
           7
100
AcDbCircle
 10
-46.999999999996
 20
6060.000000000001
 40
525.000000000001
100
AcDbArc
 50
-2.792103456718
 51
-0.563719865862
  0
ARC
  5
40D
100
AcDbEntity
  8
1
  6
CONTINUOUS
 62
           7
100
AcDbCircle
 10
18.000000000004
 20
6049.99978542093
 40
459.999999999999
100
AcDbArc
 50
71.463109290187
 51
88.271493544498
  0
ARC
  5
40C
100
AcDbEntity
  8
1
  6
CONTINUOUS
 62
           7
100
AcDbCircle
 10
0.0
 20
6105.000000000001
 40
150.000000000002
100
AcDbArc
 50
-90.0
 51
-23.882765003116
  0
ARC
  5
40B
100
AcDbEntity
  8
1
  6
CONTINUOUS
 62
           7
100
AcDbCircle
 10
0.0
 20
6105.000000000001
 40
150.0
100
AcDbArc
 50
23.882765003116
 51
-90.0
  0
ARC
  5
40A
100
AcDbEntity
  8
1
  6
CONTINUOUS
 62
           3
100
AcDbCircle
 10
6470.163567691047
 20
1925.0
 40
9.499999999999
100
AcDbArc
 50
-124.797812779177
 51
0.0
  0
ARC
  5
409
100
AcDbEntity
  8
1
  6
CONTINUOUS
 62
           3
100
AcDbCircle
 10
6470.163567691047
 20
1925.0
 40
9.5
100
AcDbArc
 50
0.0
 51
125.916957371441
  0
ARC
  5
408
100
AcDbEntity
  8
1
  6
CONTINUOUS
 62
           3
100
AcDbCircle
 10
6470.163567691047
 20
1925.0
 40
5.871834995061
100
AcDbArc
 50
0.0
 51
38.599713917924
  0
ARC
  5
407
100
AcDbEntity
  8
1
  6
CONTINUOUS
 62
           3
100
AcDbCircle
 10
6470.163567691047
 20
1925.0
 40
5.871834995069
100
AcDbArc
 50
38.599713917924
 51
90.0
  0
ARC
  5
406
100
AcDbEntity
  8
1
  6
CONTINUOUS
 62
           3
100
AcDbCircle
 10
6470.163567691047
 20
1925.0
 40
5.871834995065
100
AcDbArc
 50
-90.0
 51
0.0
  0
ARC
  5
405
100
AcDbEntity
  8
0
  6
CONTINUOUS
 62
           3
100
AcDbCircle
 10
6028.39999672152
 20
1368.000000000113
 40
2.5
100
AcDbArc
 50
0.0
 51
180.0
  0
ARC
  5
404
100
AcDbEntity
  8
0
  6
CONTINUOUS
 62
           3
100
AcDbCircle
 10
6028.39999672152
 20
1631.999999999898
 40
2.499999999993
100
AcDbArc
 50
180.0
 51
0.0
  0
ARC
  5
403
100
AcDbEntity
  8
0
  6
CONTINUOUS
 62
           3
100
AcDbCircle
 10
5903.39999672183
 20
1631.999999999898
 40
2.5
100
AcDbArc
 50
180.0
 51
0.0
  0
ARC
  5
402
100
AcDbEntity
  8
0
  6
CONTINUOUS
 62
           3
100
AcDbCircle
 10
5903.39999672183
 20
1368.000000000113
 40
2.49999999999
100
AcDbArc
 50
0.0
 51
180.0
  0
ARC
  5
401
100
AcDbEntity
  8
0
  6
CONTINUOUS
 62
           3
100
AcDbCircle
 10
5907.89999672182
 20
1508.999999999996
 40
0.999999999996
100
AcDbArc
 50
-90.0
 51
90.0
  0
ARC
  5
400
100
AcDbEntity
  8
0
  6
CONTINUOUS
 62
           3
100
AcDbCircle
 10
5907.89999672182
 20
1431.000000000062
 40
1.0
100
AcDbArc
 50
-90.0
 51
90.0
  0
ARC
  5
3FF
100
AcDbEntity
  8
0
  6
CONTINUOUS
 62
           3
100
AcDbCircle
 10
5907.89999672182
 20
1409.000000000178
 40
0.999999999996
100
AcDbArc
 50
-90.0
 51
90.0
  0
ARC
  5
3FE
100
AcDbEntity
  8
0
  6
CONTINUOUS
 62
           3
100
AcDbCircle
 10
6023.899996721528
 20
1409.000000000178
 40
1.0
100
AcDbArc
 50
90.0
 51
-90.0
  0
ARC
  5
3FD
100
AcDbEntity
  8
0
  6
CONTINUOUS
 62
           3
100
AcDbCircle
 10
6023.899996721528
 20
1431.000000000062
 40
0.999999999996
100
AcDbArc
 50
90.0
 51
-90.0
  0
ARC
  5
3FC
100
AcDbEntity
  8
0
  6
CONTINUOUS
 62
           3
100
AcDbCircle
 10
6023.899996721528
 20
1508.999999999996
 40
1.0
100
AcDbArc
 50
90.0
 51
-90.0
  0
ARC
  5
3FB
100
AcDbEntity
  8
0
  6
CONTINUOUS
 62
           3
100
AcDbCircle
 10
6023.899996721528
 20
1530.99999999988
 40
1.0
100
AcDbArc
 50
90.0
 51
-90.0
  0
ARC
  5
3FA
100
AcDbEntity
  8
0
  6
CONTINUOUS
 62
           3
100
AcDbCircle
 10
5907.89999672182
 20
1530.99999999988
 40
0.999999999996
100
AcDbArc
 50
-90.0
 51
90.0
  0
ARC
  5
3F9
100
AcDbEntity
  8
0
  6
CONTINUOUS
 62
           3
100
AcDbCircle
 10
5972.373499413468
 20
1389.999999999996
 40
0.900000000001
100
AcDbArc
 50
-90.0
 51
-62.733955549558
  0
ARC
  5
3F8
100
AcDbEntity
  8
0
  6
CONTINUOUS
 62
           3
100
AcDbCircle
 10
5959.426494029877
 20
1389.999999999996
 40
0.899999999999
100
AcDbArc
 50
-117.26604445039
 51
-90.0
  0
ARC
  5
3F7
100
AcDbEntity
  8
0
  6
CONTINUOUS
 62
           3
100
AcDbCircle
 10
5965.899996721681
 20
1315.000000000058
 40
53.999999999965
100
AcDbArc
 50
180.0
 51
0.0
  0
ARC
  5
3F6
100
AcDbEntity
  8
0
  6
CONTINUOUS
 62
           3
100
AcDbCircle
 10
5965.899996721681
 20
1315.000000000058
 40
45.999999999972
100
AcDbArc
 50
180.0
 51
0.0
  0
ARC
  5
3F5
100
AcDbEntity
  8
0
  6
CONTINUOUS
 62
           3
100
AcDbCircle
 10
5965.899996721681
 20
1355.000000000222
 40
4.0
100
AcDbArc
 50
180.0
 51
0.0
  0
LINE
  5
3F4
100
AcDbEntity
  8
1
  6
CONTINUOUS
 62
           7
100
AcDbLine
 10
-1487.499999999996
 20
2150.000000000001
 11
-1487.499999999996
 21
2155.683280999348
  0
LINE
  5
3F3
100
AcDbEntity
  8
1
  6
CONTINUOUS
 62
           7
100
AcDbLine
 10
-1412.499999999996
 20
2150.0
 11
-1412.499999999996
 21
2155.683280999348
  0
LINE
  5
3F2
100
AcDbEntity
  8
1
  6
CONTINUOUS
 62
           7
100
AcDbLine
 10
-1387.499999999996
 20
2171.000000000001
 11
-1387.499999999996
 21
2150.000000000001
  0
LINE
  5
3F1
100
AcDbEntity
  8
1
  6
CONTINUOUS
 62
           7
100
AcDbLine
 10
-1494.999999999996
 20
2184.000000000001
 11
-1404.999999999996
 21
2184.000000000001
  0
LINE
  5
3F0
100
AcDbEntity
  8
1
  6
CONTINUOUS
 62
           7
100
AcDbLine
 10
-1404.999999999996
 20
2171.000000000001
 11
-1387.499999999996
 21
2171.000000000001
  0
LINE
  5
3EF
100
AcDbEntity
  8
1
  6
CONTINUOUS
 62
           7
100
AcDbLine
 10
-1494.999999999996
 20
2171.000000000001
 11
-1512.499999999996
 21
2171.000000000001
  0
LINE
  5
3EE
100
AcDbEntity
  8
1
  6
CONTINUOUS
 62
           7
100
AcDbLine
 10
-1512.499999999996
 20
2171.000000000001
 11
-1512.499999999996
 21
2150.000000000001
  0
LINE
  5
3ED
100
AcDbEntity
  8
1
  6
CONTINUOUS
 62
           7
100
AcDbLine
 10
-1494.999999999996
 20
2188.000000000001
 11
-1494.999999999996
 21
2171.000000000001
  0
LINE
  5
3EC
100
AcDbEntity
  8
1
  6
CONTINUOUS
 62
           7
100
AcDbLine
 10
-1412.999999999996
 20
2196.000000000001
 11
-1486.999999999996
 21
2196.000000000001
  0
LINE
  5
3EB
100
AcDbEntity
  8
1
  6
CONTINUOUS
 62
           7
100
AcDbLine
 10
-1404.999999999996
 20
2188.000000000001
 11
-1404.999999999996
 21
2171.000000000001
  0
LINE
  5
3EA
100
AcDbEntity
  8
1
  6
CONTINUOUS
 62
           7
100
AcDbLine
 10
-1464.999999999996
 20
2156.000000000001
 11
-1464.999999999996
 21
2150.000000000001
  0
LINE
  5
3E9
100
AcDbEntity
  8
1
  6
CONTINUOUS
 62
           7
100
AcDbLine
 10
-1434.999999999996
 20
2156.000000000001
 11
-1434.999999999996
 21
2150.000000000001
  0
LINE
  5
3E8
100
AcDbEntity
  8
1
  6
DOT_CENTER
 62
           2
100
AcDbLine
 10
-1449.999999999996
 20
2202.686878034488
 11
-1449.999999999996
 21
2107.007003733832
  0
LINE
  5
3E7
100
AcDbEntity
  8
1
  6
CONTINUOUS
 62
           7
100
AcDbLine
 10
-334.0
 20
4991.000000000001
 11
-334.0
 21
4638.999999999999
  0
LINE
  5
3E6
100
AcDbEntity
  8
1
  6
CONTINUOUS
 62
           7
100
AcDbLine
 10
-1665.999999999996
 20
4991.000000000001
 11
-334.0
 21
4991.000000000001
  0
LINE
  5
3E5
100
AcDbEntity
  8
1
  6
CONTINUOUS
 62
           7
100
AcDbLine
 10
-384.0
 20
4941.000000000001
 11
-384.0
 21
4688.999999999999
  0
LINE
  5
3E4
100
AcDbEntity
  8
1
  6
CONTINUOUS
 62
           7
100
AcDbLine
 10
-1615.999999999996
 20
4941.000000000001
 11
-384.0
 21
4941.000000000001
  0
LINE
  5
3E3
100
AcDbEntity
  8
1
  6
CONTINUOUS
 62
           7
100
AcDbLine
 10
-1615.999999999996
 20
4688.999999999999
 11
-1615.999999999996
 21
4941.000000000001
  0
LINE
  5
3E2
100
AcDbEntity
  8
1
  6
CONTINUOUS
 62
           7
100
AcDbLine
 10
-384.0
 20
4688.999999999999
 11
-1615.999999999996
 21
4688.999999999999
  0
LINE
  5
3E1
100
AcDbEntity
  8
1
  6
CONTINUOUS
 62
           7
100
AcDbLine
 10
-1665.999999999996
 20
4638.999999999999
 11
-1665.999999999996
 21
4991.000000000001
  0
LINE
  5
3E0
100
AcDbEntity
  8
1
  6
CONTINUOUS
 62
           7
100
AcDbLine
 10
-334.0
 20
4638.999999999999
 11
-1665.999999999996
 21
4638.999999999999
  0
LINE
  5
3DF
100
AcDbEntity
  8
1
  6
DOT_CENTER
 62
           2
100
AcDbLine
 10
550.0
 20
2202.686878034488
 11
550.0
 21
2107.007003733832
  0
LINE
  5
3DE
100
AcDbEntity
  8
1
  6
CONTINUOUS
 62
           7
100
AcDbLine
 10
565.0
 20
2156.000000000001
 11
565.0
 21
2150.000000000001
  0
LINE
  5
3DD
100
AcDbEntity
  8
1
  6
CONTINUOUS
 62
           7
100
AcDbLine
 10
535.0
 20
2156.000000000001
 11
535.0
 21
2150.000000000001
  0
LINE
  5
3DC
100
AcDbEntity
  8
1
  6
CONTINUOUS
 62
           7
100
AcDbLine
 10
595.0
 20
2188.000000000001
 11
595.0
 21
2171.000000000001
  0
LINE
  5
3DB
100
AcDbEntity
  8
1
  6
CONTINUOUS
 62
           7
100
AcDbLine
 10
587.0
 20
2196.000000000001
 11
513.0
 21
2196.000000000001
  0
LINE
  5
3DA
100
AcDbEntity
  8
1
  6
CONTINUOUS
 62
           7
100
AcDbLine
 10
505.0
 20
2188.000000000001
 11
505.0
 21
2171.000000000001
  0
LINE
  5
3D9
100
AcDbEntity
  8
1
  6
CONTINUOUS
 62
           7
100
AcDbLine
 10
487.5
 20
2171.000000000001
 11
487.5
 21
2150.000000000001
  0
LINE
  5
3D8
100
AcDbEntity
  8
1
  6
CONTINUOUS
 62
           7
100
AcDbLine
 10
505.0
 20
2171.000000000001
 11
487.5
 21
2171.000000000001
  0
LINE
  5
3D7
100
AcDbEntity
  8
1
  6
CONTINUOUS
 62
           7
100
AcDbLine
 10
595.0
 20
2171.000000000001
 11
612.5
 21
2171.000000000001
  0
LINE
  5
3D6
100
AcDbEntity
  8
1
  6
CONTINUOUS
 62
           7
100
AcDbLine
 10
505.0
 20
2184.000000000001
 11
595.0
 21
2184.000000000001
  0
LINE
  5
3D5
100
AcDbEntity
  8
1
  6
CONTINUOUS
 62
           7
100
AcDbLine
 10
612.5
 20
2171.000000000001
 11
612.5
 21
2150.000000000001
  0
LINE
  5
3D4
100
AcDbEntity
  8
1
  6
CONTINUOUS
 62
           7
100
AcDbLine
 10
587.5
 20
2150.0
 11
587.5
 21
2155.683280999348
  0
LINE
  5
3D3
100
AcDbEntity
  8
1
  6
CONTINUOUS
 62
           7
100
AcDbLine
 10
512.5
 20
2150.000000000001
 11
512.5
 21
2155.683280999348
  0
LINE
  5
3D2
100
AcDbEntity
  8
1
  6
CONTINUOUS
 62
           7
100
AcDbLine
 10
1666.000000000004
 20
4638.999999999999
 11
334.0
 21
4638.999999999999
  0
LINE
  5
3D1
100
AcDbEntity
  8
1
  6
CONTINUOUS
 62
           7
100
AcDbLine
 10
334.0
 20
4638.999999999999
 11
334.0
 21
4991.000000000001
  0
LINE
  5
3D0
100
AcDbEntity
  8
1
  6
CONTINUOUS
 62
           7
100
AcDbLine
 10
1616.000000000004
 20
4688.999999999999
 11
384.0
 21
4688.999999999999
  0
LINE
  5
3CF
100
AcDbEntity
  8
1
  6
CONTINUOUS
 62
           7
100
AcDbLine
 10
384.0
 20
4688.999999999999
 11
384.0
 21
4941.000000000001
  0
LINE
  5
3CE
100
AcDbEntity
  8
1
  6
CONTINUOUS
 62
           7
100
AcDbLine
 10
384.0
 20
4941.000000000001
 11
1616.000000000004
 21
4941.000000000001
  0
LINE
  5
3CD
100
AcDbEntity
  8
1
  6
CONTINUOUS
 62
           7
100
AcDbLine
 10
1616.000000000004
 20
4941.000000000001
 11
1616.000000000004
 21
4688.999999999999
  0
LINE
  5
3CC
100
AcDbEntity
  8
1
  6
CONTINUOUS
 62
           7
100
AcDbLine
 10
334.0
 20
4991.000000000001
 11
1666.000000000004
 21
4991.000000000001
  0
LINE
  5
3CB
100
AcDbEntity
  8
1
  6
CONTINUOUS
 62
           7
100
AcDbLine
 10
1666.000000000004
 20
4991.000000000001
 11
1666.000000000004
 21
4638.999999999999
  0
LINE
  5
3CA
100
AcDbEntity
  8
1
  6
CONTINUOUS
 62
           7
100
AcDbLine
 10
5285.000000000004
 20
2136.000000000001
 11
5285.000000000004
 21
2156.000000000001
  0
LINE
  5
3C9
100
AcDbEntity
  8
1
  6
CONTINUOUS
 62
           7
100
AcDbLine
 10
5315.000000000004
 20
2136.000000000001
 11
5315.000000000004
 21
2156.000000000001
  0
LINE
  5
3C8
100
AcDbEntity
  8
1
  6
CONTINUOUS
 62
           7
100
AcDbLine
 10
5255.000000000004
 20
2171.000000000001
 11
5255.000000000004
 21
2188.000000000001
  0
LINE
  5
3C7
100
AcDbEntity
  8
1
  6
CONTINUOUS
 62
           7
100
AcDbLine
 10
5337.000000000004
 20
2196.000000000001
 11
5263.000000000004
 21
2196.000000000001
  0
LINE
  5
3C6
100
AcDbEntity
  8
1
  6
CONTINUOUS
 62
           7
100
AcDbLine
 10
5345.000000000004
 20
2171.000000000001
 11
5345.000000000004
 21
2188.000000000001
  0
LINE
  5
3C5
100
AcDbEntity
  8
1
  6
CONTINUOUS
 62
           7
100
AcDbLine
 10
5362.500000000004
 20
2136.000000000001
 11
5362.500000000004
 21
2171.000000000001
  0
LINE
  5
3C4
100
AcDbEntity
  8
1
  6
CONTINUOUS
 62
           7
100
AcDbLine
 10
5362.500000000004
 20
2171.000000000001
 11
5345.000000000004
 21
2171.000000000001
  0
LINE
  5
3C3
100
AcDbEntity
  8
1
  6
CONTINUOUS
 62
           7
100
AcDbLine
 10
5237.500000000004
 20
2136.000000000001
 11
5237.500000000004
 21
2171.000000000001
  0
LINE
  5
3C2
100
AcDbEntity
  8
1
  6
CONTINUOUS
 62
           7
100
AcDbLine
 10
5237.500000000004
 20
2171.000000000001
 11
5255.000000000004
 21
2171.000000000001
  0
LINE
  5
3C1
100
AcDbEntity
  8
1
  6
CONTINUOUS
 62
           7
100
AcDbLine
 10
5337.500000000004
 20
2155.683280999348
 11
5337.500000000004
 21
2136.000000000001
  0
LINE
  5
3C0
100
AcDbEntity
  8
1
  6
CONTINUOUS
 62
           7
100
AcDbLine
 10
5262.500000000004
 20
2155.683280999348
 11
5262.500000000004
 21
2136.000000000001
  0
LINE
  5
3BF
100
AcDbEntity
  8
1
  6
CONTINUOUS
 62
           7
100
AcDbLine
 10
5255.000000000004
 20
2184.000000000001
 11
5345.000000000004
 21
2184.000000000001
  0
LINE
  5
3BE
100
AcDbEntity
  8
1
  6
CONTINUOUS
 62
           7
100
AcDbLine
 10
5426.000000000004
 20
2136.000000000001
 11
5426.000000000004
 21
2050.000000000001
  0
LINE
  5
3BD
100
AcDbEntity
  8
1
  6
CONTINUOUS
 62
           7
100
AcDbLine
 10
5174.000000000004
 20
2136.000000000001
 11
5426.000000000004
 21
2136.000000000001
  0
LINE
  5
3BC
100
AcDbEntity
  8
1
  6
CONTINUOUS
 62
           7
100
AcDbLine
 10
5174.000000000004
 20
2050.000000000001
 11
5174.000000000004
 21
2136.000000000001
  0
LINE
  5
3BB
100
AcDbEntity
  8
1
  6
CONTINUOUS
 62
           7
100
AcDbLine
 10
2050.000000000002
 20
4565.0
 11
2050.0
 21
6565.0
  0
LINE
  5
3BA
100
AcDbEntity
  8
1
  6
CONTINUOUS
 62
           7
100
AcDbLine
 10
499.999999999999
 20
6223.853386507137
 11
499.999999999999
 21
6565.0
  0
LINE
  5
3B9
100
AcDbEntity
  8
1
  6
CONTINUOUS
 62
           2
100
AcDbLine
 10
519.999999999999
 20
6545.0
 11
519.999999999999
 21
5585.0
  0
LINE
  5
3B8
100
AcDbEntity
  8
1
  6
CONTINUOUS
 62
           2
100
AcDbLine
 10
1980.0
 20
5545.0
 11
54.980390271852
 21
5545.0
  0
LINE
  5
3B7
100
AcDbEntity
  8
1
  6
CONTINUOUS
 62
           2
100
AcDbLine
 10
-1980.0
 20
5545.0
 11
-422.012697555431
 21
5545.0
  0
LINE
  5
3B6
100
AcDbEntity
  8
1
  6
CONTINUOUS
 62
           2
100
AcDbLine
 10
-2004.0
 20
6565.0
 11
-2004.0
 21
4615.0
  0
LINE
  5
3B5
100
AcDbEntity
  8
1
  6
CONTINUOUS
 62
           2
100
AcDbLine
 10
1980.0
 20
5585.0
 11
519.999999999999
 21
5585.0
  0
LINE
  5
3B4
100
AcDbEntity
  8
1
  6
CONTINUOUS
 62
           2
100
AcDbLine
 10
1980.0
 20
6545.0
 11
519.999999999999
 21
6545.0
  0
LINE
  5
3B3
100
AcDbEntity
  8
1
  6
CONTINUOUS
 62
           2
100
AcDbLine
 10
2004.0
 20
6565.0
 11
2004.0
 21
4615.0
  0
LINE
  5
3B2
100
AcDbEntity
  8
1
  6
CONTINUOUS
 62
           7
100
AcDbLine
 10
-649.999999999996
 20
6565.0
 11
-2050.0
 21
6565.0
  0
LINE
  5
3B1
100
AcDbEntity
  8
1
  6
CONTINUOUS
 62
           2
100
AcDbLine
 10
1980.0
 20
5545.0
 11
1980.0
 21
4615.0
  0
LINE
  5
3B0
100
AcDbEntity
  8
1
  6
CONTINUOUS
 62
           2
100
AcDbLine
 10
1980.0
 20
6545.0
 11
1980.0
 21
5585.0
  0
LINE
  5
3AF
100
AcDbEntity
  8
1
  6
CONTINUOUS
 62
           7
100
AcDbLine
 10
0.000000000004
 20
6565.0
 11
2050.0
 21
6565.0
  0
LINE
  5
3AE
100
AcDbEntity
  8
1
  6
DOT_CENTER
 62
           2
100
AcDbLine
 10
0.0
 20
6835.956909847926
 11
0.0
 21
4452.062267040244
  0
LINE
  5
3AD
100
AcDbEntity
  8
1
  6
DOT_CENTER
 62
           2
100
AcDbLine
 10
-903.986405483608
 20
6105.0
 11
646.399200900759
 21
6105.0
  0
LINE
  5
3AC
100
AcDbEntity
  8
1
  6
DOT_CENTER
 62
           2
100
AcDbLine
 10
0.0
 20
3232.649930311425
 11
0.0
 21
-73.010110410687
  0
LINE
  5
3AB
100
AcDbEntity
  8
1
  6
CONTINUOUS
 62
           7
100
AcDbLine
 10
1985.0
 20
540.0
 11
15.0
 21
540.0
  0
LINE
  5
3AA
100
AcDbEntity
  8
1
  6
DOT_CENTER
 62
           2
100
AcDbLine
 10
6590.000000000002
 20
1887.309178624822
 11
6590.000000000002
 21
3229.093502683342
  0
LINE
  5
3A9
100
AcDbEntity
  8
1
  6
CONTINUOUS
 62
           7
100
AcDbLine
 10
-2000.0
 20
500.0
 11
-1985.0
 21
500.0
  0
LINE
  5
3A8
100
AcDbEntity
  8
1
  6
CONTINUOUS
 62
           7
100
AcDbLine
 10
1985.0
 20
500.0
 11
2000.0
 21
500.0
  0
LINE
  5
3A7
100
AcDbEntity
  8
1
  6
CONTINUOUS
 62
           7
100
AcDbLine
 10
-2000.0
 20
800.0
 11
2000.0
 21
800.0
  0
LINE
  5
3A6
100
AcDbEntity
  8
1
  6
CONTINUOUS
 62
           7
100
AcDbLine
 10
15.0
 20
540.0
 11
15.0
 21
475.0
  0
LINE
  5
3A5
100
AcDbEntity
  8
1
  6
CONTINUOUS
 62
           7
100
AcDbLine
 10
1985.0
 20
540.0
 11
1985.0
 21
475.0
  0
LINE
  5
3A4
100
AcDbEntity
  8
1
  6
CONTINUOUS
 62
           7
100
AcDbLine
 10
-2000.0
 20
400.0
 11
2000.0
 21
400.0
  0
LINE
  5
3A3
100
AcDbEntity
  8
1
  6
CONTINUOUS
 62
           7
100
AcDbLine
 10
2000.0
 20
50.0
 11
-2000.0
 21
50.0
  0
LINE
  5
3A2
100
AcDbEntity
  8
1
  6
CONTINUOUS
 62
           7
100
AcDbLine
 10
2000.0
 20
1900.0
 11
-2000.0
 21
1900.0
  0
LINE
  5
3A1
100
AcDbEntity
  8
1
  6
CONTINUOUS
 62
           7
100
AcDbLine
 10
2000.0
 20
0.0
 11
2000.0
 21
2000.0
  0
LINE
  5
3A0
100
AcDbEntity
  8
1
  6
CONTINUOUS
 62
           7
100
AcDbLine
 10
-2000.0
 20
0.0
 11
-2000.0
 21
2000.0
  0
LINE
  5
39F
100
AcDbEntity
  8
1
  6
CONTINUOUS
 62
           2
100
AcDbLine
 10
-659.999999999993
 20
6545.0
 11
-1980.0
 21
6545.0
  0
LINE
  5
39E
100
AcDbEntity
  8
1
  6
CONTINUOUS
 62
           7
100
AcDbLine
 10
2050.0
 20
2000.0
 11
-2050.0
 21
2000.0
  0
LINE
  5
39D
100
AcDbEntity
  8
1
  6
CONTINUOUS
 62
           7
100
AcDbLine
 10
-2050.0
 20
2150.0
 11
-2050.0
 21
0.0
  0
LINE
  5
39C
100
AcDbEntity
  8
1
  6
CONTINUOUS
 62
           7
100
AcDbLine
 10
2050.0
 20
2150.0
 11
-2050.0
 21
2150.0
  0
LINE
  5
39B
100
AcDbEntity
  8
1
  6
CONTINUOUS
 62
           7
100
AcDbLine
 10
2050.0
 20
0.0
 11
2050.0
 21
2150.0
  0
LINE
  5
39A
100
AcDbEntity
  8
1
  6
CONTINUOUS
 62
           7
100
AcDbLine
 10
2550.0
 20
0.0
 11
-2550.0
 21
0.0
  0
LINE
  5
399
100
AcDbEntity
  8
1
  6
CONTINUOUS
 62
           2
100
AcDbLine
 10
-1980.0
 20
5585.0
 11
-1980.0
 21
6545.0
  0
LINE
  5
398
100
AcDbEntity
  8
1
  6
CONTINUOUS
 62
           2
100
AcDbLine
 10
-1980.0
 20
5585.0
 11
-520.0
 21
5585.0
  0
LINE
  5
397
100
AcDbEntity
  8
1
  6
CONTINUOUS
 62
           7
100
AcDbLine
 10
499.999999999999
 20
5565.0
 11
499.999999999999
 21
6223.853386507137
  0
LINE
  5
396
100
AcDbEntity
  8
1
  6
CONTINUOUS
 62
           7
100
AcDbLine
 10
2000.0
 20
4615.0
 11
2000.0
 21
6565.0
  0
LINE
  5
395
100
AcDbEntity
  8
1
  6
CONTINUOUS
 62
           7
100
AcDbLine
 10
-2000.0
 20
4615.0
 11
-2000.0
 21
6565.0
  0
LINE
  5
394
100
AcDbEntity
  8
1
  6
CONTINUOUS
 62
           2
100
AcDbLine
 10
-1980.0
 20
5545.0
 11
-1980.0
 21
4615.0
  0
LINE
  5
393
100
AcDbEntity
  8
1
  6
CONTINUOUS
 62
           7
100
AcDbLine
 10
-2050.0
 20
4615.0
 11
2050.0
 21
4615.0
  0
LINE
  5
392
100
AcDbEntity
  8
1
  6
CONTINUOUS
 62
           2
100
AcDbLine
 10
-20.0
 20
4615.0
 11
-20.0
 21
5535.694745401118
  0
LINE
  5
391
100
AcDbEntity
  8
1
  6
CONTINUOUS
 62
           7
100
AcDbLine
 10
-2050.0
 20
5565.0
 11
-230.119189169617
 21
5565.000000000002
  0
LINE
  5
390
100
AcDbEntity
  8
1
  6
CONTINUOUS
 62
           7
100
AcDbLine
 10
-2050.0
 20
6565.0
 11
-2050.0
 21
4565.0
  0
LINE
  5
38F
100
AcDbEntity
  8
1
  6
CONTINUOUS
 62
           7
100
AcDbLine
 10
-2050.0
 20
4565.0
 11
2050.000000000002
 21
4565.0
  0
LINE
  5
38E
100
AcDbEntity
  8
1
  6
CONTINUOUS
 62
           7
100
AcDbLine
 10
612.499999999998
 20
4800.0
 11
592.426406871192
 21
4800.0
  0
LINE
  5
38D
100
AcDbEntity
  8
1
  6
CONTINUOUS
 62
           7
100
AcDbLine
 10
534.999999999999
 20
4752.5
 11
534.999999999999
 21
4772.573593128807
  0
LINE
  5
38C
100
AcDbEntity
  8
1
  6
CONTINUOUS
 62
           7
100
AcDbLine
 10
487.499999999999
 20
4830.0
 11
507.573593128806
 21
4830.0
  0
LINE
  5
38B
100
AcDbEntity
  8
1
  6
CONTINUOUS
 62
           7
100
AcDbLine
 10
612.499999999998
 20
4830.0
 11
612.499999999998
 21
4800.0
  0
LINE
  5
38A
100
AcDbEntity
  8
1
  6
CONTINUOUS
 62
           7
100
AcDbLine
 10
564.999999999999
 20
4752.5
 11
534.999999999999
 21
4752.5
  0
LINE
  5
389
100
AcDbEntity
  8
1
  6
CONTINUOUS
 62
           7
100
AcDbLine
 10
487.499999999999
 20
4800.0
 11
487.499999999999
 21
4830.0
  0
LINE
  5
388
100
AcDbEntity
  8
1
  6
CONTINUOUS
 62
           7
100
AcDbLine
 10
592.426406871192
 20
4830.0
 11
612.499999999998
 21
4830.0
  0
LINE
  5
387
100
AcDbEntity
  8
1
  6
CONTINUOUS
 62
           7
100
AcDbLine
 10
564.999999999999
 20
4772.573593128807
 11
564.999999999999
 21
4752.5
  0
LINE
  5
386
100
AcDbEntity
  8
1
  6
CONTINUOUS
 62
           7
100
AcDbLine
 10
507.573593128806
 20
4800.0
 11
487.499999999999
 21
4800.0
  0
LINE
  5
385
100
AcDbEntity
  8
1
  6
CONTINUOUS
 62
           7
100
AcDbLine
 10
564.999999999999
 20
4877.5
 11
564.999999999999
 21
4857.426406871193
  0
LINE
  5
384
100
AcDbEntity
  8
1
  6
CONTINUOUS
 62
           7
100
AcDbLine
 10
534.999999999999
 20
4877.5
 11
564.999999999999
 21
4877.5
  0
LINE
  5
383
100
AcDbEntity
  8
1
  6
CONTINUOUS
 62
           7
100
AcDbLine
 10
534.999999999999
 20
4857.426406871193
 11
534.999999999999
 21
4877.5
  0
LINE
  5
382
100
AcDbEntity
  8
1
  6
DOT_CENTER
 62
           2
100
AcDbLine
 10
268.071522791034
 20
4815.0
 11
1760.280332350791
 21
4815.0
  0
LINE
  5
381
100
AcDbEntity
  8
1
  6
CONTINUOUS
 62
           7
100
AcDbLine
 10
2062.0
 20
4648.0
 11
2079.0
 21
4648.0
  0
LINE
  5
380
100
AcDbEntity
  8
1
  6
CONTINUOUS
 62
           7
100
AcDbLine
 10
2062.0
 20
4682.0
 11
2079.0
 21
4682.0
  0
LINE
  5
37F
100
AcDbEntity
  8
1
  6
CONTINUOUS
 62
           7
100
AcDbLine
 10
2062.0
 20
4648.0
 11
2062.0
 21
4615.328579645837
  0
LINE
  5
37E
100
AcDbEntity
  8
1
  6
CONTINUOUS
 62
           7
100
AcDbLine
 10
2133.0
 20
4646.971103189579
 11
2133.0
 21
4607.838834764832
  0
LINE
  5
37D
100
AcDbEntity
  8
1
  6
CONTINUOUS
 62
           7
100
AcDbLine
 10
2118.0
 20
4646.971103189579
 11
2133.0
 21
4646.971103189579
  0
LINE
  5
37C
100
AcDbEntity
  8
1
  6
CONTINUOUS
 62
           7
100
AcDbLine
 10
2113.338834764832
 20
4637.783322010193
 11
2113.338834764832
 21
4717.5
  0
LINE
  5
37B
100
AcDbEntity
  8
1
  6
CONTINUOUS
 62
           7
100
AcDbLine
 10
2113.338834764832
 20
4637.783322010193
 11
2118.0
 21
4646.971103189579
  0
LINE
  5
37A
100
AcDbEntity
  8
1
  6
CONTINUOUS
 62
           7
100
AcDbLine
 10
2062.0
 20
4637.783322010193
 11
2113.338834764832
 21
4637.783322010193
  0
LINE
  5
379
100
AcDbEntity
  8
1
  6
CONTINUOUS
 62
           7
100
AcDbLine
 10
2096.0
 20
4595.0
 11
2050.0
 21
4595.0
  0
LINE
  5
378
100
AcDbEntity
  8
1
  6
CONTINUOUS
 62
           7
100
AcDbLine
 10
2096.0
 20
4735.0
 11
2050.0
 21
4735.0
  0
LINE
  5
377
100
AcDbEntity
  8
1
  6
CONTINUOUS
 62
           7
100
AcDbLine
 10
2180.0
 20
4693.482374189476
 11
2163.5
 21
4693.482374189476
  0
LINE
  5
376
100
AcDbEntity
  8
1
  6
CONTINUOUS
 62
           7
100
AcDbLine
 10
2180.0
 20
4649.443650813897
 11
2163.5
 21
4649.443650813897
  0
LINE
  5
375
100
AcDbEntity
  8
1
  6
CONTINUOUS
 62
           7
100
AcDbLine
 10
2180.0
 20
4649.443650813897
 11
2180.0
 21
4693.482374189476
  0
LINE
  5
374
100
AcDbEntity
  8
1
  6
CONTINUOUS
 62
           7
100
AcDbLine
 10
2163.5
 20
4628.5
 11
2163.5
 21
4701.5
  0
LINE
  5
373
100
AcDbEntity
  8
1
  6
CONTINUOUS
 62
           7
100
AcDbLine
 10
2133.0
 20
4722.161165235168
 11
2133.0
 21
4683.028896810425
  0
LINE
  5
372
100
AcDbEntity
  8
1
  6
CONTINUOUS
 62
           7
100
AcDbLine
 10
2133.0
 20
4722.161165235168
 11
2118.0
 21
4722.161165235168
  0
LINE
  5
371
100
AcDbEntity
  8
1
  6
CONTINUOUS
 62
           7
100
AcDbLine
 10
2133.0
 20
4607.838834764832
 11
2118.0
 21
4607.838834764832
  0
LINE
  5
370
100
AcDbEntity
  8
1
  6
CONTINUOUS
 62
           7
100
AcDbLine
 10
2151.5
 20
4625.0
 11
2133.0
 21
4625.0
  0
LINE
  5
36F
100
AcDbEntity
  8
1
  6
CONTINUOUS
 62
           7
100
AcDbLine
 10
2151.5
 20
4705.0
 11
2133.0
 21
4705.0
  0
LINE
  5
36E
100
AcDbEntity
  8
1
  6
CONTINUOUS
 62
           7
100
AcDbLine
 10
2050.0
 20
4714.671420354163
 11
2062.0
 21
4714.671420354163
  0
LINE
  5
36D
100
AcDbEntity
  8
1
  6
CONTINUOUS
 62
           7
100
AcDbLine
 10
2096.0
 20
4595.0
 11
2096.0
 21
4612.5
  0
LINE
  5
36C
100
AcDbEntity
  8
1
  6
CONTINUOUS
 62
           7
100
AcDbLine
 10
2096.0
 20
4717.5
 11
2096.0
 21
4735.0
  0
LINE
  5
36B
100
AcDbEntity
  8
1
  6
CONTINUOUS
 62
           7
100
AcDbLine
 10
2151.5
 20
4625.0
 11
2151.5
 21
4705.0
  0
LINE
  5
36A
100
AcDbEntity
  8
1
  6
CONTINUOUS
 62
           7
100
AcDbLine
 10
2163.5
 20
4628.5
 11
2151.5
 21
4628.5
  0
LINE
  5
369
100
AcDbEntity
  8
1
  6
CONTINUOUS
 62
           7
100
AcDbLine
 10
2163.5
 20
4701.5
 11
2151.5
 21
4701.5
  0
LINE
  5
368
100
AcDbEntity
  8
1
  6
CONTINUOUS
 62
           7
100
AcDbLine
 10
2062.0
 20
4714.671420354163
 11
2062.0
 21
4682.0
  0
LINE
  5
367
100
AcDbEntity
  8
1
  6
CONTINUOUS
 62
           7
100
AcDbLine
 10
2118.0
 20
4607.838834764832
 11
2113.338834764832
 21
4612.5
  0
LINE
  5
366
100
AcDbEntity
  8
1
  6
CONTINUOUS
 62
           7
100
AcDbLine
 10
2113.338834764832
 20
4612.5
 11
2113.338834764832
 21
4637.783322010193
  0
LINE
  5
365
100
AcDbEntity
  8
1
  6
CONTINUOUS
 62
           7
100
AcDbLine
 10
2113.338834764832
 20
4717.5
 11
2118.0
 21
4722.161165235168
  0
LINE
  5
364
100
AcDbEntity
  8
1
  6
CONTINUOUS
 62
           7
100
AcDbLine
 10
2113.338834764832
 20
4717.5
 11
2096.0
 21
4717.5
  0
LINE
  5
363
100
AcDbEntity
  8
1
  6
CONTINUOUS
 62
           7
100
AcDbLine
 10
2113.338834764832
 20
4612.5
 11
2096.0
 21
4612.5
  0
LINE
  5
362
100
AcDbEntity
  8
1
  6
CONTINUOUS
 62
           7
100
AcDbLine
 10
2118.0
 20
4683.028896810425
 11
2113.338834764832
 21
4692.216677989811
  0
LINE
  5
361
100
AcDbEntity
  8
1
  6
CONTINUOUS
 62
           7
100
AcDbLine
 10
2113.338834764832
 20
4692.216677989811
 11
2062.0
 21
4692.216677989811
  0
LINE
  5
360
100
AcDbEntity
  8
1
  6
CONTINUOUS
 62
           7
100
AcDbLine
 10
2133.0
 20
4683.028896810425
 11
2118.0
 21
4683.028896810425
  0
LINE
  5
35F
100
AcDbEntity
  8
1
  6
CONTINUOUS
 62
           7
100
AcDbLine
 10
2096.0
 20
4612.5
 11
2062.0
 21
4612.5
  0
LINE
  5
35E
100
AcDbEntity
  8
1
  6
CONTINUOUS
 62
           7
100
AcDbLine
 10
2062.0
 20
4612.5
 11
2062.0
 21
4615.328579645837
  0
LINE
  5
35D
100
AcDbEntity
  8
1
  6
CONTINUOUS
 62
           7
100
AcDbLine
 10
2096.0
 20
4717.5
 11
2062.0
 21
4717.5
  0
LINE
  5
35C
100
AcDbEntity
  8
1
  6
CONTINUOUS
 62
           7
100
AcDbLine
 10
2062.0
 20
4717.5
 11
2062.0
 21
4696.378889924883
  0
LINE
  5
35B
100
AcDbEntity
  8
1
  6
CONTINUOUS
 62
           7
100
AcDbLine
 10
2062.0
 20
4615.328579645837
 11
2050.0
 21
4615.328579645837
  0
LINE
  5
35A
100
AcDbEntity
  8
1
  6
CONTINUOUS
 62
           7
100
AcDbLine
 10
2062.0
 20
1450.328579645837
 11
2050.0
 21
1450.328579645837
  0
LINE
  5
359
100
AcDbEntity
  8
1
  6
CONTINUOUS
 62
           7
100
AcDbLine
 10
2062.0
 20
1552.5
 11
2062.0
 21
1531.378889924883
  0
LINE
  5
358
100
AcDbEntity
  8
1
  6
CONTINUOUS
 62
           7
100
AcDbLine
 10
2096.0
 20
1552.5
 11
2062.0
 21
1552.5
  0
LINE
  5
357
100
AcDbEntity
  8
1
  6
CONTINUOUS
 62
           7
100
AcDbLine
 10
2062.0
 20
1447.5
 11
2062.0
 21
1450.328579645837
  0
LINE
  5
356
100
AcDbEntity
  8
1
  6
CONTINUOUS
 62
           7
100
AcDbLine
 10
2096.0
 20
1447.5
 11
2062.0
 21
1447.5
  0
LINE
  5
355
100
AcDbEntity
  8
1
  6
CONTINUOUS
 62
           7
100
AcDbLine
 10
2133.0
 20
1515.556349186103
 11
2118.0
 21
1515.556349186103
  0
LINE
  5
354
100
AcDbEntity
  8
1
  6
CONTINUOUS
 62
           7
100
AcDbLine
 10
2133.0
 20
1484.443650813897
 11
2118.0
 21
1484.443650813897
  0
LINE
  5
353
100
AcDbEntity
  8
1
  6
CONTINUOUS
 62
           7
100
AcDbLine
 10
2113.338834764832
 20
1518.028896810425
 11
2062.0
 21
1518.028896810425
  0
LINE
  5
352
100
AcDbEntity
  8
1
  6
CONTINUOUS
 62
           7
100
AcDbLine
 10
2118.0
 20
1515.556349186103
 11
2113.338834764832
 21
1518.028896810425
  0
LINE
  5
351
100
AcDbEntity
  8
1
  6
CONTINUOUS
 62
           7
100
AcDbLine
 10
2113.338834764832
 20
1481.971103189575
 11
2062.0
 21
1481.971103189575
  0
LINE
  5
350
100
AcDbEntity
  8
1
  6
CONTINUOUS
 62
           7
100
AcDbLine
 10
2113.338834764832
 20
1481.971103189575
 11
2118.0
 21
1484.443650813897
  0
LINE
  5
34F
100
AcDbEntity
  8
1
  6
CONTINUOUS
 62
           7
100
AcDbLine
 10
2133.0
 20
1484.443650813897
 11
2133.0
 21
1442.838834764832
  0
LINE
  5
34E
100
AcDbEntity
  8
1
  6
CONTINUOUS
 62
           7
100
AcDbLine
 10
2113.338834764832
 20
1447.5
 11
2096.0
 21
1447.5
  0
LINE
  5
34D
100
AcDbEntity
  8
1
  6
CONTINUOUS
 62
           7
100
AcDbLine
 10
2113.338834764832
 20
1552.5
 11
2096.0
 21
1552.5
  0
LINE
  5
34C
100
AcDbEntity
  8
1
  6
CONTINUOUS
 62
           7
100
AcDbLine
 10
2113.338834764832
 20
1552.5
 11
2118.0
 21
1557.161165235168
  0
LINE
  5
34B
100
AcDbEntity
  8
1
  6
CONTINUOUS
 62
           7
100
AcDbLine
 10
2113.338834764832
 20
1447.5
 11
2113.338834764832
 21
1552.5
  0
LINE
  5
34A
100
AcDbEntity
  8
1
  6
CONTINUOUS
 62
           7
100
AcDbLine
 10
2118.0
 20
1442.838834764832
 11
2113.338834764832
 21
1447.5
  0
LINE
  5
349
100
AcDbEntity
  8
1
  6
CONTINUOUS
 62
           7
100
AcDbLine
 10
2062.0
 20
1518.028896810425
 11
2062.0
 21
1549.671420354163
  0
LINE
  5
348
100
AcDbEntity
  8
1
  6
CONTINUOUS
 62
           7
100
AcDbLine
 10
2062.0
 20
1450.328579645837
 11
2062.0
 21
1481.971103189575
  0
LINE
  5
347
100
AcDbEntity
  8
1
  6
CONTINUOUS
 62
           7
100
AcDbLine
 10
2163.5
 20
1536.5
 11
2151.5
 21
1536.5
  0
LINE
  5
346
100
AcDbEntity
  8
1
  6
CONTINUOUS
 62
           7
100
AcDbLine
 10
2163.5
 20
1463.5
 11
2151.5
 21
1463.5
  0
LINE
  5
345
100
AcDbEntity
  8
1
  6
CONTINUOUS
 62
           7
100
AcDbLine
 10
2151.5
 20
1460.0
 11
2151.5
 21
1540.0
  0
LINE
  5
344
100
AcDbEntity
  8
1
  6
CONTINUOUS
 62
           7
100
AcDbLine
 10
2096.0
 20
1552.5
 11
2096.0
 21
1570.0
  0
LINE
  5
343
100
AcDbEntity
  8
1
  6
CONTINUOUS
 62
           7
100
AcDbLine
 10
2096.0
 20
1430.0
 11
2096.0
 21
1447.5
  0
LINE
  5
342
100
AcDbEntity
  8
1
  6
CONTINUOUS
 62
           7
100
AcDbLine
 10
2050.0
 20
1549.671420354163
 11
2062.0
 21
1549.671420354163
  0
LINE
  5
341
100
AcDbEntity
  8
1
  6
CONTINUOUS
 62
           7
100
AcDbLine
 10
2151.5
 20
1540.0
 11
2133.0
 21
1540.0
  0
LINE
  5
340
100
AcDbEntity
  8
1
  6
CONTINUOUS
 62
           7
100
AcDbLine
 10
2151.5
 20
1460.0
 11
2133.0
 21
1460.0
  0
LINE
  5
33F
100
AcDbEntity
  8
1
  6
CONTINUOUS
 62
           7
100
AcDbLine
 10
2133.0
 20
1442.838834764832
 11
2118.0
 21
1442.838834764832
  0
LINE
  5
33E
100
AcDbEntity
  8
1
  6
CONTINUOUS
 62
           7
100
AcDbLine
 10
2133.0
 20
1557.161165235168
 11
2118.0
 21
1557.161165235168
  0
LINE
  5
33D
100
AcDbEntity
  8
1
  6
CONTINUOUS
 62
           7
100
AcDbLine
 10
2133.0
 20
1557.161165235168
 11
2133.0
 21
1515.556349186103
  0
LINE
  5
33C
100
AcDbEntity
  8
1
  6
CONTINUOUS
 62
           7
100
AcDbLine
 10
2163.5
 20
1463.5
 11
2163.5
 21
1536.5
  0
LINE
  5
33B
100
AcDbEntity
  8
1
  6
CONTINUOUS
 62
           7
100
AcDbLine
 10
2180.0
 20
1484.443650813897
 11
2180.0
 21
1528.482374189476
  0
LINE
  5
33A
100
AcDbEntity
  8
1
  6
CONTINUOUS
 62
           7
100
AcDbLine
 10
2180.0
 20
1484.443650813897
 11
2163.5
 21
1484.443650813897
  0
LINE
  5
339
100
AcDbEntity
  8
1
  6
CONTINUOUS
 62
           7
100
AcDbLine
 10
2180.0
 20
1528.482374189476
 11
2163.5
 21
1528.482374189476
  0
LINE
  5
338
100
AcDbEntity
  8
1
  6
CONTINUOUS
 62
           7
100
AcDbLine
 10
2096.0
 20
1570.0
 11
2050.0
 21
1570.0
  0
LINE
  5
337
100
AcDbEntity
  8
1
  6
CONTINUOUS
 62
           7
100
AcDbLine
 10
2096.0
 20
1430.0
 11
2050.0
 21
1430.0
  0
LINE
  5
336
100
AcDbEntity
  8
1
  6
DOT_CENTER
 62
           2
100
AcDbLine
 10
-1680.912924024839
 20
4815.0
 11
-295.075330103057
 21
4815.0
  0
LINE
  5
335
100
AcDbEntity
  8
1
  6
CONTINUOUS
 62
           7
100
AcDbLine
 10
-1465.0
 20
4857.426406871193
 11
-1465.0
 21
4877.5
  0
LINE
  5
334
100
AcDbEntity
  8
1
  6
CONTINUOUS
 62
           7
100
AcDbLine
 10
-1465.0
 20
4877.5
 11
-1435.0
 21
4877.5
  0
LINE
  5
333
100
AcDbEntity
  8
1
  6
CONTINUOUS
 62
           7
100
AcDbLine
 10
-1435.0
 20
4877.5
 11
-1435.0
 21
4857.426406871193
  0
LINE
  5
332
100
AcDbEntity
  8
1
  6
CONTINUOUS
 62
           7
100
AcDbLine
 10
-1492.426406871194
 20
4800.0
 11
-1512.5
 21
4800.0
  0
LINE
  5
331
100
AcDbEntity
  8
1
  6
CONTINUOUS
 62
           7
100
AcDbLine
 10
-1435.0
 20
4772.573593128807
 11
-1435.0
 21
4752.5
  0
LINE
  5
330
100
AcDbEntity
  8
1
  6
CONTINUOUS
 62
           7
100
AcDbLine
 10
-1407.573593128808
 20
4830.0
 11
-1387.500000000002
 21
4830.0
  0
LINE
  5
32F
100
AcDbEntity
  8
1
  6
CONTINUOUS
 62
           7
100
AcDbLine
 10
-1512.5
 20
4800.0
 11
-1512.5
 21
4830.0
  0
LINE
  5
32E
100
AcDbEntity
  8
1
  6
CONTINUOUS
 62
           7
100
AcDbLine
 10
-1435.0
 20
4752.5
 11
-1465.0
 21
4752.5
  0
LINE
  5
32D
100
AcDbEntity
  8
1
  6
CONTINUOUS
 62
           7
100
AcDbLine
 10
-1387.500000000002
 20
4830.0
 11
-1387.500000000002
 21
4800.0
  0
LINE
  5
32C
100
AcDbEntity
  8
1
  6
CONTINUOUS
 62
           7
100
AcDbLine
 10
-1512.5
 20
4830.0
 11
-1492.426406871194
 21
4830.0
  0
LINE
  5
32B
100
AcDbEntity
  8
1
  6
CONTINUOUS
 62
           7
100
AcDbLine
 10
-1465.0
 20
4752.5
 11
-1465.0
 21
4772.573593128807
  0
LINE
  5
32A
100
AcDbEntity
  8
1
  6
CONTINUOUS
 62
           7
100
AcDbLine
 10
-1387.500000000002
 20
4800.0
 11
-1407.573593128808
 21
4800.0
  0
LINE
  5
329
100
AcDbEntity
  8
1
  6
CONTINUOUS
 62
           7
100
AcDbLine
 10
2062.0
 20
4845.328579645837
 11
2050.0
 21
4845.328579645837
  0
LINE
  5
328
100
AcDbEntity
  8
1
  6
CONTINUOUS
 62
           7
100
AcDbLine
 10
2062.0
 20
4947.5
 11
2062.0
 21
4926.378889924883
  0
LINE
  5
327
100
AcDbEntity
  8
1
  6
CONTINUOUS
 62
           7
100
AcDbLine
 10
2096.0
 20
4947.5
 11
2062.0
 21
4947.5
  0
LINE
  5
326
100
AcDbEntity
  8
1
  6
CONTINUOUS
 62
           7
100
AcDbLine
 10
2062.0
 20
4842.5
 11
2062.0
 21
4845.328579645837
  0
LINE
  5
325
100
AcDbEntity
  8
1
  6
CONTINUOUS
 62
           7
100
AcDbLine
 10
2096.0
 20
4842.5
 11
2062.0
 21
4842.5
  0
LINE
  5
324
100
AcDbEntity
  8
1
  6
CONTINUOUS
 62
           7
100
AcDbLine
 10
2133.0
 20
4913.028896810425
 11
2118.0
 21
4913.028896810425
  0
LINE
  5
323
100
AcDbEntity
  8
1
  6
CONTINUOUS
 62
           7
100
AcDbLine
 10
2113.338834764832
 20
4922.216677989811
 11
2062.0
 21
4922.216677989811
  0
LINE
  5
322
100
AcDbEntity
  8
1
  6
CONTINUOUS
 62
           7
100
AcDbLine
 10
2118.0
 20
4913.028896810425
 11
2113.338834764832
 21
4922.216677989811
  0
LINE
  5
321
100
AcDbEntity
  8
1
  6
CONTINUOUS
 62
           7
100
AcDbLine
 10
2113.338834764832
 20
4842.5
 11
2096.0
 21
4842.5
  0
LINE
  5
320
100
AcDbEntity
  8
1
  6
CONTINUOUS
 62
           7
100
AcDbLine
 10
2113.338834764832
 20
4947.5
 11
2096.0
 21
4947.5
  0
LINE
  5
31F
100
AcDbEntity
  8
1
  6
CONTINUOUS
 62
           7
100
AcDbLine
 10
2113.338834764832
 20
4947.5
 11
2118.0
 21
4952.161165235168
  0
LINE
  5
31E
100
AcDbEntity
  8
1
  6
CONTINUOUS
 62
           7
100
AcDbLine
 10
2113.338834764832
 20
4842.5
 11
2113.338834764832
 21
4867.783322010193
  0
LINE
  5
31D
100
AcDbEntity
  8
1
  6
CONTINUOUS
 62
           7
100
AcDbLine
 10
2118.0
 20
4837.838834764832
 11
2113.338834764832
 21
4842.5
  0
LINE
  5
31C
100
AcDbEntity
  8
1
  6
CONTINUOUS
 62
           7
100
AcDbLine
 10
2062.0
 20
4944.671420354163
 11
2062.0
 21
4912.0
  0
LINE
  5
31B
100
AcDbEntity
  8
1
  6
CONTINUOUS
 62
           7
100
AcDbLine
 10
2163.5
 20
4931.5
 11
2151.5
 21
4931.5
  0
LINE
  5
31A
100
AcDbEntity
  8
1
  6
CONTINUOUS
 62
           7
100
AcDbLine
 10
2163.5
 20
4858.5
 11
2151.5
 21
4858.5
  0
LINE
  5
319
100
AcDbEntity
  8
1
  6
CONTINUOUS
 62
           7
100
AcDbLine
 10
2151.5
 20
4855.0
 11
2151.5
 21
4935.0
  0
LINE
  5
318
100
AcDbEntity
  8
1
  6
CONTINUOUS
 62
           7
100
AcDbLine
 10
2096.0
 20
4947.5
 11
2096.0
 21
4965.0
  0
LINE
  5
317
100
AcDbEntity
  8
1
  6
CONTINUOUS
 62
           7
100
AcDbLine
 10
2096.0
 20
4825.0
 11
2096.0
 21
4842.5
  0
LINE
  5
316
100
AcDbEntity
  8
1
  6
CONTINUOUS
 62
           7
100
AcDbLine
 10
2050.0
 20
4944.671420354163
 11
2062.0
 21
4944.671420354163
  0
LINE
  5
315
100
AcDbEntity
  8
1
  6
CONTINUOUS
 62
           7
100
AcDbLine
 10
2151.5
 20
4935.0
 11
2133.0
 21
4935.0
  0
LINE
  5
314
100
AcDbEntity
  8
1
  6
CONTINUOUS
 62
           7
100
AcDbLine
 10
2151.5
 20
4855.0
 11
2133.0
 21
4855.0
  0
LINE
  5
313
100
AcDbEntity
  8
1
  6
CONTINUOUS
 62
           7
100
AcDbLine
 10
2133.0
 20
4837.838834764832
 11
2118.0
 21
4837.838834764832
  0
LINE
  5
312
100
AcDbEntity
  8
1
  6
CONTINUOUS
 62
           7
100
AcDbLine
 10
2133.0
 20
4952.161165235168
 11
2118.0
 21
4952.161165235168
  0
LINE
  5
311
100
AcDbEntity
  8
1
  6
CONTINUOUS
 62
           7
100
AcDbLine
 10
2133.0
 20
4952.161165235168
 11
2133.0
 21
4913.028896810425
  0
LINE
  5
310
100
AcDbEntity
  8
1
  6
CONTINUOUS
 62
           7
100
AcDbLine
 10
2163.5
 20
4858.5
 11
2163.5
 21
4931.5
  0
LINE
  5
30F
100
AcDbEntity
  8
1
  6
CONTINUOUS
 62
           7
100
AcDbLine
 10
2180.0
 20
4866.490190466977
 11
2180.0
 21
4923.482374189476
  0
LINE
  5
30E
100
AcDbEntity
  8
1
  6
CONTINUOUS
 62
           7
100
AcDbLine
 10
2180.0
 20
4923.482374189476
 11
2163.5
 21
4923.482374189476
  0
LINE
  5
30D
100
AcDbEntity
  8
1
  6
CONTINUOUS
 62
           7
100
AcDbLine
 10
2096.0
 20
4965.0
 11
2050.0
 21
4965.0
  0
LINE
  5
30C
100
AcDbEntity
  8
1
  6
CONTINUOUS
 62
           7
100
AcDbLine
 10
2096.0
 20
4825.0
 11
2050.0
 21
4825.0
  0
LINE
  5
30B
100
AcDbEntity
  8
1
  6
CONTINUOUS
 62
           7
100
AcDbLine
 10
2062.0
 20
4867.783322010193
 11
2113.338834764832
 21
4867.783322010193
  0
LINE
  5
30A
100
AcDbEntity
  8
1
  6
CONTINUOUS
 62
           7
100
AcDbLine
 10
2113.338834764832
 20
4867.783322010193
 11
2118.0
 21
4876.971103189579
  0
LINE
  5
309
100
AcDbEntity
  8
1
  6
CONTINUOUS
 62
           7
100
AcDbLine
 10
2113.338834764832
 20
4867.783322010193
 11
2113.338834764832
 21
4947.5
  0
LINE
  5
308
100
AcDbEntity
  8
1
  6
CONTINUOUS
 62
           7
100
AcDbLine
 10
2118.0
 20
4876.971103189579
 11
2133.0
 21
4876.971103189579
  0
LINE
  5
307
100
AcDbEntity
  8
1
  6
CONTINUOUS
 62
           7
100
AcDbLine
 10
2133.0
 20
4876.971103189579
 11
2133.0
 21
4837.838834764832
  0
LINE
  5
306
100
AcDbEntity
  8
1
  6
CONTINUOUS
 62
           7
100
AcDbLine
 10
2062.0
 20
4878.0
 11
2062.0
 21
4845.328579645837
  0
LINE
  5
305
100
AcDbEntity
  8
1
  6
CONTINUOUS
 62
           7
100
AcDbLine
 10
2062.0
 20
4912.0
 11
2079.0
 21
4912.0
  0
LINE
  5
304
100
AcDbEntity
  8
1
  6
CONTINUOUS
 62
           7
100
AcDbLine
 10
2062.0
 20
4878.0
 11
2079.0
 21
4878.0
  0
LINE
  5
303
100
AcDbEntity
  8
1
  6
CONTINUOUS
 62
           7
100
AcDbLine
 10
2163.5
 20
4866.490190466977
 11
2180.0
 21
4866.490190466977
  0
LINE
  5
302
100
AcDbEntity
  8
1
  6
CONTINUOUS
 62
           2
100
AcDbLine
 10
-520.0
 20
5585.0
 11
-520.289834034237
 21
5762.926441438138
  0
LINE
  5
301
100
AcDbEntity
  8
1
  6
CONTINUOUS
 62
           7
100
AcDbLine
 10
-15.0
 20
540.0
 11
-1985.0
 21
540.0
  0
LINE
  5
300
100
AcDbEntity
  8
1
  6
CONTINUOUS
 62
           7
100
AcDbLine
 10
0.0
 20
5546.55574791415
 11
0.0
 21
4615.0
  0
LINE
  5
2FF
100
AcDbEntity
  8
1
  6
CONTINUOUS
 62
           7
100
AcDbLine
 10
-2000.0
 20
475.0
 11
2000.0
 21
475.0
  0
LINE
  5
2FE
100
AcDbEntity
  8
1
  6
CONTINUOUS
 62
           7
100
AcDbLine
 10
-1985.0
 20
475.0
 11
-1985.0
 21
540.0
  0
LINE
  5
2FD
100
AcDbEntity
  8
1
  6
CONTINUOUS
 62
           7
100
AcDbLine
 10
-15.0
 20
475.0
 11
-15.0
 21
540.0
  0
LINE
  5
2FC
100
AcDbEntity
  8
1
  6
CONTINUOUS
 62
           7
100
AcDbLine
 10
0.0
 20
475.0
 11
0.0
 21
400.0
  0
LINE
  5
2FB
100
AcDbEntity
  8
1
  6
CONTINUOUS
 62
           7
100
AcDbLine
 10
0.0
 20
1763.744569986044
 11
0.0
 21
500.0
  0
LINE
  5
2FA
100
AcDbEntity
  8
1
  6
CONTINUOUS
 62
           7
100
AcDbLine
 10
127.928556845368
 20
5565.000000000002
 11
2050.0
 21
5565.0
  0
LINE
  5
2F9
100
AcDbEntity
  8
1
  6
CONTINUOUS
 62
           7
100
AcDbLine
 10
-500.0
 20
5738.575952381098
 11
-500.0
 21
5565.0
  0
LINE
  5
2F8
100
AcDbEntity
  8
1
  6
CONTINUOUS
 62
           7
100
AcDbLine
 10
5344.177669529664
 20
1446.500000000004
 11
5361.971103189578
 21
1464.293433659914
  0
LINE
  5
2F7
100
AcDbEntity
  8
1
  6
CONTINUOUS
 62
           7
100
AcDbLine
 10
5326.5
 20
1535.822330470344
 11
5344.293433659916
 21
1518.028896810423
  0
LINE
  5
2F6
100
AcDbEntity
  8
1
  6
CONTINUOUS
 62
           7
100
AcDbLine
 10
5415.822330470339
 20
1553.500000000004
 11
5398.028896810425
 21
1535.706566340094
  0
LINE
  5
2F5
100
AcDbEntity
  8
1
  6
CONTINUOUS
 62
           7
100
AcDbLine
 10
5326.5
 20
1464.177669529663
 11
5344.293433659916
 21
1481.971103189573
  0
LINE
  5
2F4
100
AcDbEntity
  8
1
  6
CONTINUOUS
 62
           7
100
AcDbLine
 10
5344.177669529664
 20
1553.500000000004
 11
5361.971103189578
 21
1535.706566340094
  0
LINE
  5
2F3
100
AcDbEntity
  8
1
  6
CONTINUOUS
 62
           7
100
AcDbLine
 10
5433.5
 20
1535.822330470344
 11
5415.70656634009
 21
1518.028896810423
  0
LINE
  5
2F2
100
AcDbEntity
  8
1
  6
CONTINUOUS
 62
           7
100
AcDbLine
 10
5415.822330470339
 20
1446.500000000004
 11
5398.028896810425
 21
1464.293433659914
  0
LINE
  5
2F1
100
AcDbEntity
  8
1
  6
CONTINUOUS
 62
           7
100
AcDbLine
 10
5433.5
 20
1464.177669529663
 11
5415.70656634009
 21
1481.971103189573
  0
LINE
  5
2F0
100
AcDbEntity
  8
1
  6
CONTINUOUS
 62
           7
100
AcDbLine
 10
5340.0
 20
1570.000000000004
 11
5340.0
 21
1556.259593518793
  0
LINE
  5
2EF
100
AcDbEntity
  8
1
  6
CONTINUOUS
 62
           7
100
AcDbLine
 10
5340.0
 20
1570.000000000004
 11
5397.0
 21
1570.000000000004
  0
LINE
  5
2EE
100
AcDbEntity
  8
1
  6
CONTINUOUS
 62
           7
100
AcDbLine
 10
5420.0
 20
1430.000000000004
 11
5420.0
 21
1443.740406481204
  0
LINE
  5
2ED
100
AcDbEntity
  8
1
  6
CONTINUOUS
 62
           7
100
AcDbLine
 10
5363.0
 20
1570.000000000004
 11
5363.0
 21
1549.671420354163
  0
LINE
  5
2EC
100
AcDbEntity
  8
1
  6
CONTINUOUS
 62
           7
100
AcDbLine
 10
5397.0
 20
1549.671420354163
 11
5397.0
 21
1570.000000000004
  0
LINE
  5
2EB
100
AcDbEntity
  8
1
  6
CONTINUOUS
 62
           7
100
AcDbLine
 10
5397.0
 20
1430.000000000004
 11
5397.0
 21
1450.328579645833
  0
LINE
  5
2EA
100
AcDbEntity
  8
1
  6
CONTINUOUS
 62
           7
100
AcDbLine
 10
5363.0
 20
1430.000000000004
 11
5420.0
 21
1430.000000000004
  0
LINE
  5
2E9
100
AcDbEntity
  8
1
  6
CONTINUOUS
 62
           7
100
AcDbLine
 10
5363.0
 20
1450.328579645833
 11
5363.0
 21
1430.000000000004
  0
LINE
  5
2E8
100
AcDbEntity
  8
1
  6
CONTINUOUS
 62
           2
100
AcDbLine
 10
5070.0
 20
1330.000000000004
 11
5070.0
 21
20.000000000004
  0
LINE
  5
2E7
100
AcDbEntity
  8
1
  6
CONTINUOUS
 62
           2
100
AcDbLine
 10
5530.0
 20
1670.000000000004
 11
5530.0
 21
1980.000000000004
  0
LINE
  5
2E6
100
AcDbEntity
  8
1
  6
CONTINUOUS
 62
           7
100
AcDbLine
 10
5050.0
 20
1670.000000000004
 11
5550.000000000002
 21
1670.000000000004
  0
LINE
  5
2E5
100
AcDbEntity
  8
1
  6
CONTINUOUS
 62
           7
100
AcDbLine
 10
5050.0
 20
1330.000000000004
 11
5550.000000000002
 21
1330.000000000004
  0
LINE
  5
2E4
100
AcDbEntity
  8
1
  6
CONTINUOUS
 62
           7
100
AcDbLine
 10
5133.0
 20
1450.328579645833
 11
5133.0
 21
1430.000000000004
  0
LINE
  5
2E3
100
AcDbEntity
  8
1
  6
CONTINUOUS
 62
           7
100
AcDbLine
 10
5133.0
 20
1430.000000000004
 11
5190.0
 21
1430.000000000004
  0
LINE
  5
2E2
100
AcDbEntity
  8
1
  6
CONTINUOUS
 62
           7
100
AcDbLine
 10
5167.0
 20
1430.000000000004
 11
5167.0
 21
1450.328579645833
  0
LINE
  5
2E1
100
AcDbEntity
  8
1
  6
CONTINUOUS
 62
           7
100
AcDbLine
 10
5167.0
 20
1549.671420354163
 11
5167.0
 21
1570.000000000004
  0
LINE
  5
2E0
100
AcDbEntity
  8
1
  6
CONTINUOUS
 62
           7
100
AcDbLine
 10
5133.0
 20
1570.000000000004
 11
5133.0
 21
1549.671420354163
  0
LINE
  5
2DF
100
AcDbEntity
  8
1
  6
CONTINUOUS
 62
           7
100
AcDbLine
 10
5190.0
 20
1430.000000000004
 11
5190.0
 21
1443.740406481204
  0
LINE
  5
2DE
100
AcDbEntity
  8
1
  6
CONTINUOUS
 62
           7
100
AcDbLine
 10
5110.0
 20
1570.000000000004
 11
5167.0
 21
1570.000000000004
  0
LINE
  5
2DD
100
AcDbEntity
  8
1
  6
CONTINUOUS
 62
           7
100
AcDbLine
 10
5110.0
 20
1570.000000000004
 11
5110.0
 21
1556.259593518793
  0
LINE
  5
2DC
100
AcDbEntity
  8
1
  6
CONTINUOUS
 62
           7
100
AcDbLine
 10
5203.5
 20
1464.177669529663
 11
5185.706566340089
 21
1481.971103189573
  0
LINE
  5
2DB
100
AcDbEntity
  8
1
  6
CONTINUOUS
 62
           7
100
AcDbLine
 10
5185.822330470338
 20
1446.500000000004
 11
5168.028896810426
 21
1464.293433659914
  0
LINE
  5
2DA
100
AcDbEntity
  8
1
  6
CONTINUOUS
 62
           7
100
AcDbLine
 10
5203.5
 20
1535.822330470344
 11
5185.706566340089
 21
1518.028896810423
  0
LINE
  5
2D9
100
AcDbEntity
  8
1
  6
CONTINUOUS
 62
           7
100
AcDbLine
 10
5114.177669529664
 20
1553.500000000004
 11
5131.971103189578
 21
1535.706566340094
  0
LINE
  5
2D8
100
AcDbEntity
  8
1
  6
CONTINUOUS
 62
           7
100
AcDbLine
 10
5096.5
 20
1464.177669529663
 11
5114.293433659916
 21
1481.971103189573
  0
LINE
  5
2D7
100
AcDbEntity
  8
1
  6
CONTINUOUS
 62
           7
100
AcDbLine
 10
5185.822330470338
 20
1553.500000000004
 11
5168.028896810426
 21
1535.706566340094
  0
LINE
  5
2D6
100
AcDbEntity
  8
1
  6
CONTINUOUS
 62
           7
100
AcDbLine
 10
5096.5
 20
1535.822330470344
 11
5114.293433659916
 21
1518.028896810423
  0
LINE
  5
2D5
100
AcDbEntity
  8
1
  6
CONTINUOUS
 62
           7
100
AcDbLine
 10
5114.177669529664
 20
1446.500000000004
 11
5131.971103189578
 21
1464.293433659914
  0
LINE
  5
2D4
100
AcDbEntity
  8
1
  6
CONTINUOUS
 62
           7
100
AcDbLine
 10
5158.725990180792
 20
1496.930864068703
 11
5180.97092168369
 21
1474.685932565804
  0
LINE
  5
2D3
100
AcDbEntity
  8
1
  6
CONTINUOUS
 62
           7
100
AcDbLine
 10
5153.069135931299
 20
1491.274009819214
 11
5175.314067434197
 21
1469.029078316313
  0
LINE
  5
2D2
100
AcDbEntity
  8
1
  6
CONTINUOUS
 62
           7
100
AcDbLine
 10
5137.272077938646
 20
1515.556349186103
 11
5146.930864068705
 21
1508.725990180783
  0
LINE
  5
2D1
100
AcDbEntity
  8
1
  6
CONTINUOUS
 62
           7
100
AcDbLine
 10
5134.443650813898
 20
1512.727922061364
 11
5141.274009819214
 21
1503.069135931304
  0
LINE
  5
2D0
100
AcDbEntity
  8
1
  6
CONTINUOUS
 62
           7
100
AcDbLine
 10
5137.272077938646
 20
1515.556349186103
 11
5134.443650813898
 21
1512.727922061364
  0
LINE
  5
2CF
100
AcDbEntity
  8
1
  6
DOT_CENTER
 62
           2
100
AcDbLine
 10
5300.0
 20
2213.047564257504
 11
5300.0
 21
1935.440799157823
  0
LINE
  5
2CE
100
AcDbEntity
  8
1
  6
CONTINUOUS
 62
           2
100
AcDbLine
 10
7030.000000000002
 20
1980.000000000004
 11
6070.000000000002
 21
1980.000000000004
  0
LINE
  5
2CD
100
AcDbEntity
  8
1
  6
CONTINUOUS
 62
           2
100
AcDbLine
 10
7030.000000000002
 20
520.000000000004
 11
7030.000000000002
 21
1980.000000000004
  0
LINE
  5
2CC
100
AcDbEntity
  8
1
  6
CONTINUOUS
 62
           2
100
AcDbLine
 10
6070.000000000002
 20
520.000000000004
 11
7030.000000000002
 21
520.000000000004
  0
LINE
  5
2CB
100
AcDbEntity
  8
1
  6
CONTINUOUS
 62
           2
100
AcDbLine
 10
5570.000000000002
 20
520.000000000004
 11
6030.000000000002
 21
520.000000000004
  0
LINE
  5
2CA
100
AcDbEntity
  8
1
  6
CONTINUOUS
 62
           2
100
AcDbLine
 10
5570.000000000002
 20
1980.000000000004
 11
5570.000000000002
 21
520.000000000004
  0
LINE
  5
2C9
100
AcDbEntity
  8
1
  6
CONTINUOUS
 62
           2
100
AcDbLine
 10
6030.000000000002
 20
1980.000000000004
 11
5570.000000000002
 21
1980.000000000004
  0
LINE
  5
2C8
100
AcDbEntity
  8
1
  6
CONTINUOUS
 62
           7
100
AcDbLine
 10
6050.000000000002
 20
2000.000000000004
 11
6050.000000000002
 21
2075.000000000004
  0
LINE
  5
2C7
100
AcDbEntity
  8
1
  6
CONTINUOUS
 62
           2
100
AcDbLine
 10
7029.433325304561
 20
20.000000000004
 11
7029.433325304561
 21
479.385061529883
  0
LINE
  5
2C6
100
AcDbEntity
  8
1
  6
CONTINUOUS
 62
           2
100
AcDbLine
 10
5570.000000000002
 20
20.000000000004
 11
7029.433325304561
 21
20.000000000004
  0
LINE
  5
2C5
100
AcDbEntity
  8
1
  6
CONTINUOUS
 62
           2
100
AcDbLine
 10
5570.000000000002
 20
479.385061529883
 11
5570.000000000002
 21
20.000000000004
  0
LINE
  5
2C4
100
AcDbEntity
  8
1
  6
CONTINUOUS
 62
           2
100
AcDbLine
 10
7029.433325304561
 20
479.385061529883
 11
5570.000000000002
 21
479.385061529883
  0
LINE
  5
2C3
100
AcDbEntity
  8
1
  6
CONTINUOUS
 62
           7
100
AcDbLine
 10
5550.000000000002
 20
500.000000000004
 11
7050.000000000002
 21
500.000000000004
  0
LINE
  5
2C2
100
AcDbEntity
  8
1
  6
CONTINUOUS
 62
           7
100
AcDbLine
 10
5550.000000000002
 20
0.0
 11
5550.000000000002
 21
2000.000000000004
  0
LINE
  5
2C1
100
AcDbEntity
  8
1
  6
CONTINUOUS
 62
           2
100
AcDbLine
 10
5070.0
 20
1980.000000000004
 11
5070.0
 21
1670.000000000004
  0
LINE
  5
2C0
100
AcDbEntity
  8
1
  6
CONTINUOUS
 62
           2
100
AcDbLine
 10
5530.0
 20
1980.000000000004
 11
5070.0
 21
1980.000000000004
  0
LINE
  5
2BF
100
AcDbEntity
  8
1
  6
CONTINUOUS
 62
           2
100
AcDbLine
 10
5530.0
 20
20.000000000004
 11
5530.0
 21
1330.000000000004
  0
LINE
  5
2BE
100
AcDbEntity
  8
1
  6
CONTINUOUS
 62
           2
100
AcDbLine
 10
5070.0
 20
20.000000000004
 11
5530.0
 21
20.000000000004
  0
LINE
  5
2BD
100
AcDbEntity
  8
1
  6
CONTINUOUS
 62
           7
100
AcDbLine
 10
5050.0
 20
0.0
 11
5050.0
 21
2150.000000000004
  0
LINE
  5
2BC
100
AcDbEntity
  8
1
  6
CONTINUOUS
 62
           7
100
AcDbLine
 10
7050.000000000002
 20
0.0
 11
7050.000000000002
 21
2075.000000000004
  0
LINE
  5
2BB
100
AcDbEntity
  8
1
  6
CONTINUOUS
 62
           7
100
AcDbLine
 10
7050.000000000002
 20
2000.000000000004
 11
5050.0
 21
2000.000000000004
  0
LINE
  5
2BA
100
AcDbEntity
  8
1
  6
CONTINUOUS
 62
           7
100
AcDbLine
 10
5050.0
 20
2150.000000000004
 11
5100.0
 21
2150.000000000004
  0
LINE
  5
2B9
100
AcDbEntity
  8
1
  6
CONTINUOUS
 62
           7
100
AcDbLine
 10
5100.0
 20
2120.000000000004
 11
5100.0
 21
2150.000000000004
  0
LINE
  5
2B8
100
AcDbEntity
  8
1
  6
CONTINUOUS
 62
           2
100
AcDbLine
 10
5050.0
 20
2004.000000000004
 11
7050.000000000002
 21
2004.000000000004
  0
LINE
  5
2B7
100
AcDbEntity
  8
1
  6
CONTINUOUS
 62
           7
100
AcDbLine
 10
5050.0
 20
2050.000000000004
 11
7050.000000000002
 21
2050.000000000004
  0
LINE
  5
2B6
100
AcDbEntity
  8
1
  6
CONTINUOUS
 62
           7
100
AcDbLine
 10
6050.000000000002
 20
2075.000000000004
 11
7050.000000000002
 21
2075.000000000004
  0
LINE
  5
2B5
100
AcDbEntity
  8
1
  6
DOT_CENTER
 62
           2
100
AcDbLine
 10
6275.000000000002
 20
600.000000000004
 11
6425.000000000002
 21
600.000000000004
  0
LINE
  5
2B4
100
AcDbEntity
  8
1
  6
DOT_CENTER
 62
           2
100
AcDbLine
 10
6350.000000000002
 20
675.000000000004
 11
6350.000000000002
 21
525.000000000004
  0
LINE
  5
2B3
100
AcDbEntity
  8
1
  6
CONTINUOUS
 62
           7
100
AcDbLine
 10
7550.0
 20
0.0
 11
4550.0
 21
0.0
  0
LINE
  5
2B2
100
AcDbEntity
  8
1
  6
CONTINUOUS
 62
           7
100
AcDbLine
 10
5393.75
 20
1537.562448003293
 11
5393.75
 21
1462.437551996714
  0
LINE
  5
2B1
100
AcDbEntity
  8
1
  6
CONTINUOUS
 62
           7
100
AcDbLine
 10
5366.25
 20
1537.562448003293
 11
5366.25
 21
1462.437551996714
  0
LINE
  5
2B0
100
AcDbEntity
  8
1
  6
CONTINUOUS
 62
           7
100
AcDbLine
 10
5290.0
 20
1862.000000000006
 11
5290.0
 21
1950.000000000006
  0
LINE
  5
2AF
100
AcDbEntity
  8
1
  6
CONTINUOUS
 62
           7
100
AcDbLine
 10
5100.0
 20
1862.000000000006
 11
5290.0
 21
1862.000000000006
  0
LINE
  5
2AE
100
AcDbEntity
  8
1
  6
CONTINUOUS
 62
           7
100
AcDbLine
 10
5100.0
 20
1950.000000000006
 11
5100.0
 21
1862.000000000006
  0
LINE
  5
2AD
100
AcDbEntity
  8
1
  6
CONTINUOUS
 62
           7
100
AcDbLine
 10
5290.0
 20
1950.000000000006
 11
5100.0
 21
1950.000000000006
  0
LINE
  5
2AC
100
AcDbEntity
  8
1
  6
CONTINUOUS
 62
           7
100
AcDbLine
 10
5780.0
 20
1330.000000000006
 11
5600.0
 21
1330.000000000006
  0
LINE
  5
2AB
100
AcDbEntity
  8
1
  6
CONTINUOUS
 62
           7
100
AcDbLine
 10
5600.0
 20
1570.000000000006
 11
5780.0
 21
1570.000000000006
  0
LINE
  5
2AA
100
AcDbEntity
  8
1
  6
CONTINUOUS
 62
           7
100
AcDbLine
 10
5600.0
 20
1330.000000000006
 11
5600.0
 21
1570.000000000006
  0
LINE
  5
2A9
100
AcDbEntity
  8
1
  6
CONTINUOUS
 62
           7
100
AcDbLine
 10
5780.0
 20
1570.000000000006
 11
5780.0
 21
1330.000000000006
  0
LINE
  5
2A8
100
AcDbEntity
  8
1
  6
CONTINUOUS
 62
           2
100
AcDbLine
 10
-150.905365064093
 20
5545.0
 11
-422.012697555431
 21
5545.0
  0
LINE
  5
2A7
100
AcDbEntity
  8
1
  6
CONTINUOUS
 62
           2
100
AcDbLine
 10
20.0
 20
5539.292788603809
 11
20.0
 21
4615.0
  0
LINE
  5
2A6
100
AcDbEntity
  8
1
  6
CONTINUOUS
 62
           7
100
AcDbLine
 10
-15.0
 20
500.0
 11
15.0
 21
500.0
  0
LINE
  5
2A5
100
AcDbEntity
  8
1
  6
CONTINUOUS
 62
           7
100
AcDbLine
 10
5780.000000000006
 20
1620.000000000006
 11
5780.000000000006
 21
1733.000000000008
  0
LINE
  5
2A4
100
AcDbEntity
  8
1
  6
CONTINUOUS
 62
           7
100
AcDbLine
 10
5600.000000000006
 20
1620.000000000006
 11
5780.000000000006
 21
1620.000000000006
  0
LINE
  5
2A3
100
AcDbEntity
  8
1
  6
CONTINUOUS
 62
           7
100
AcDbLine
 10
5600.000000000006
 20
1733.000000000006
 11
5600.000000000006
 21
1620.000000000006
  0
LINE
  5
2A2
100
AcDbEntity
  8
1
  6
CONTINUOUS
 62
           7
100
AcDbLine
 10
5780.000000000006
 20
1733.000000000008
 11
5600.000000000006
 21
1733.000000000006
  0
LINE
  5
2A1
100
AcDbEntity
  8
1
  6
CONTINUOUS
 62
           7
100
AcDbLine
 10
6050.000000000005
 20
500.0
 11
6050.000000000005
 21
1767.293273528168
  0
LINE
  5
2A0
100
AcDbEntity
  8
1
  6
CONTINUOUS
 62
           2
100
AcDbLine
 10
6030.000000000005
 20
520.0
 11
6030.000000000005
 21
1714.44658929451
  0
LINE
  5
29F
100
AcDbEntity
  8
1
  6
CONTINUOUS
 62
           2
100
AcDbLine
 10
6070.000000000005
 20
1980.0
 11
6070.000000000005
 21
1814.464669216337
  0
LINE
  5
29E
100
AcDbEntity
  8
1
  6
DOT_CENTER
 62
           3
100
AcDbLine
 10
-491.527744678121
 20
1340.200848327049
 11
-491.527744678121
 21
1250.202277327049
  0
LINE
  5
29D
100
AcDbEntity
  8
1
  6
DOT_CENTER
 62
           3
100
AcDbLine
 10
-446.527744678121
 20
1295.200848327049
 11
-536.525199678126
 21
1295.200848327049
  0
LINE
  5
29C
100
AcDbEntity
  8
1
  6
CONTINUOUS
 62
           3
100
AcDbLine
 10
-495.063339678115
 20
1323.33071132706
 11
-497.451285678125
 21
1296.073587327061
  0
LINE
  5
29B
100
AcDbEntity
  8
1
  6
CONTINUOUS
 62
           3
100
AcDbLine
 10
-497.451285678125
 20
1294.32810932706
 11
-495.063339678115
 21
1267.070985327058
  0
LINE
  5
29A
100
AcDbEntity
  8
1
  6
CONTINUOUS
 62
           3
100
AcDbLine
 10
-487.992149678106
 20
1323.33071132706
 11
-485.604203678125
 21
1296.073587327061
  0
LINE
  5
299
100
AcDbEntity
  8
1
  6
CONTINUOUS
 62
           3
100
AcDbLine
 10
-485.604203678125
 20
1294.32810932706
 11
-487.992149678106
 21
1267.070985327058
  0
LINE
  5
298
100
AcDbEntity
  8
1
  6
CONTINUOUS
 62
           7
100
AcDbLine
 10
-424.999999999999
 20
1646.282992387802
 11
-1574.999999999999
 21
1646.282992387802
  0
LINE
  5
297
100
AcDbEntity
  8
1
  6
CONTINUOUS
 62
           7
100
AcDbLine
 10
-1574.999999999999
 20
941.513526798366
 11
-1574.999999999999
 21
1646.282992387802
  0
LINE
  5
296
100
AcDbEntity
  8
1
  6
CONTINUOUS
 62
           7
100
AcDbLine
 10
-424.999999999999
 20
941.513526798366
 11
-424.999999999999
 21
1646.282992387802
  0
LINE
  5
295
100
AcDbEntity
  8
1
  6
CONTINUOUS
 62
           7
100
AcDbLine
 10
-1574.999999999999
 20
941.513526798366
 11
-424.999999999999
 21
941.513526798366
  0
LINE
  5
294
100
AcDbEntity
  8
___S__
  6
DOT_CENTER
 62
           3
100
AcDbLine
 10
-1574.999999999975
 20
1621.052837286497
 11
-1574.999999999976
 21
1536.057127055388
  0
LINE
  5
293
100
AcDbEntity
  8
____
  6
CONTINUOUS
 62
           3
100
AcDbLine
 10
-1569.595947044856
 20
1614.449075506231
 11
-1569.595947044856
 21
1612.571144758107
  0
LINE
  5
292
100
AcDbEntity
  8
____
  6
CONTINUOUS
 62
           3
100
AcDbLine
 10
-1579.912775413719
 20
1614.918558193263
 11
-1570.087224586231
 21
1614.918558193263
  0
LINE
  5
291
100
AcDbEntity
  8
____
  6
CONTINUOUS
 62
           3
100
AcDbLine
 10
-1580.404052955094
 20
1612.571144758109
 11
-1580.404052955094
 21
1614.449075506231
  0
LINE
  5
290
100
AcDbEntity
  8
____
  6
CONTINUOUS
 62
           3
100
AcDbLine
 10
-1569.497691536591
 20
1576.890460543777
 11
-1580.502308463368
 21
1576.890460543777
  0
LINE
  5
28F
100
AcDbEntity
  8
____
  6
CONTINUOUS
 62
           3
100
AcDbLine
 10
-1569.49769153659
 20
1612.571144758107
 11
-1569.497691536591
 21
1576.890460543777
  0
LINE
  5
28E
100
AcDbEntity
  8
____
  6
CONTINUOUS
 62
           3
100
AcDbLine
 10
-1580.502308463367
 20
1612.571144758109
 11
-1569.49769153659
 21
1612.571144758107
  0
LINE
  5
28D
100
AcDbEntity
  8
____
  6
CONTINUOUS
 62
           3
100
AcDbLine
 10
-1580.502308463368
 20
1576.890460543777
 11
-1580.502308463367
 21
1612.571144758109
  0
LINE
  5
28C
100
AcDbEntity
  8
____
  6
CONTINUOUS
 62
           3
100
AcDbLine
 10
-1580.404052955095
 20
1538.392880207259
 11
-1580.404052955095
 21
1540.270810955382
  0
LINE
  5
28B
100
AcDbEntity
  8
____
  6
CONTINUOUS
 62
           3
100
AcDbLine
 10
-1570.087224586231
 20
1537.92339752023
 11
-1579.91277541372
 21
1537.92339752023
  0
LINE
  5
28A
100
AcDbEntity
  8
____
  6
CONTINUOUS
 62
           3
100
AcDbLine
 10
-1569.595947044857
 20
1540.270810955382
 11
-1569.595947044857
 21
1538.392880207259
  0
LINE
  5
289
100
AcDbEntity
  8
____
  6
CONTINUOUS
 62
           3
100
AcDbLine
 10
-1580.158414184407
 20
1576.890460543777
 11
-1580.158414184407
 21
1575.951495169715
  0
LINE
  5
288
100
AcDbEntity
  8
____
  6
CONTINUOUS
 62
           3
100
AcDbLine
 10
-1569.841585815544
 20
1576.890460543777
 11
-1580.158414184407
 21
1576.890460543777
  0
LINE
  5
287
100
AcDbEntity
  8
____
  6
CONTINUOUS
 62
           3
100
AcDbLine
 10
-1569.841585815544
 20
1575.951495169715
 11
-1569.841585815544
 21
1576.890460543777
  0
LINE
  5
286
100
AcDbEntity
  8
____
  6
CONTINUOUS
 62
           3
100
AcDbLine
 10
-1580.404052955094
 20
1614.449075506231
 11
-1569.595947044856
 21
1614.449075506231
  0
LINE
  5
285
100
AcDbEntity
  8
____
  6
CONTINUOUS
 62
           3
100
AcDbLine
 10
-1580.502308463368
 20
1575.951495169715
 11
-1569.497691536591
 21
1575.951495169715
  0
LINE
  5
284
100
AcDbEntity
  8
____
  6
CONTINUOUS
 62
           3
100
AcDbLine
 10
-1580.502308463368
 20
1540.270810955382
 11
-1580.502308463368
 21
1575.951495169715
  0
LINE
  5
283
100
AcDbEntity
  8
____
  6
CONTINUOUS
 62
           3
100
AcDbLine
 10
-1569.497691536591
 20
1540.270810955382
 11
-1580.502308463368
 21
1540.270810955382
  0
LINE
  5
282
100
AcDbEntity
  8
____
  6
CONTINUOUS
 62
           3
100
AcDbLine
 10
-1569.497691536591
 20
1575.951495169715
 11
-1569.497691536591
 21
1540.270810955382
  0
LINE
  5
281
100
AcDbEntity
  8
____
  6
CONTINUOUS
 62
           3
100
AcDbLine
 10
-1580.404052955094
 20
1614.449075506231
 11
-1579.912775413719
 21
1614.918558193263
  0
LINE
  5
280
100
AcDbEntity
  8
____
  6
CONTINUOUS
 62
           3
100
AcDbLine
 10
-1570.087224586231
 20
1614.918558193263
 11
-1569.595947044856
 21
1614.449075506231
  0
LINE
  5
27F
100
AcDbEntity
  8
____
  6
CONTINUOUS
 62
           3
100
AcDbLine
 10
-1579.91277541372
 20
1537.92339752023
 11
-1580.404052955095
 21
1538.392880207259
  0
LINE
  5
27E
100
AcDbEntity
  8
____
  6
CONTINUOUS
 62
           3
100
AcDbLine
 10
-1569.595947044857
 20
1538.392880207259
 11
-1570.087224586231
 21
1537.92339752023
  0
LINE
  5
27D
100
AcDbEntity
  8
____
  6
CONTINUOUS
 62
           3
100
AcDbLine
 10
-1580.404052955095
 20
1538.392880207259
 11
-1569.595947044857
 21
1538.392880207259
  0
LINE
  5
27C
100
AcDbEntity
  8
____
  6
CONTINUOUS
 62
           3
100
AcDbLine
 10
-1580.404052955119
 20
984.403309517207
 11
-1569.595947044881
 21
984.403309517207
  0
LINE
  5
27B
100
AcDbEntity
  8
____
  6
CONTINUOUS
 62
           3
100
AcDbLine
 10
-1569.595947044881
 20
984.403309517207
 11
-1570.087224586256
 21
983.933826830174
  0
LINE
  5
27A
100
AcDbEntity
  8
____
  6
CONTINUOUS
 62
           3
100
AcDbLine
 10
-1579.912775413745
 20
983.933826830174
 11
-1580.404052955119
 21
984.403309517207
  0
LINE
  5
279
100
AcDbEntity
  8
____
  6
CONTINUOUS
 62
           3
100
AcDbLine
 10
-1570.087224586254
 20
1060.92898750321
 11
-1569.595947044879
 21
1060.459504816177
  0
LINE
  5
278
100
AcDbEntity
  8
____
  6
CONTINUOUS
 62
           3
100
AcDbLine
 10
-1580.404052955117
 20
1060.459504816177
 11
-1579.912775413743
 21
1060.92898750321
  0
LINE
  5
277
100
AcDbEntity
  8
____
  6
CONTINUOUS
 62
           3
100
AcDbLine
 10
-1569.497691536607
 20
1021.961924479661
 11
-1569.497691536608
 21
986.281240265329
  0
LINE
  5
276
100
AcDbEntity
  8
____
  6
CONTINUOUS
 62
           3
100
AcDbLine
 10
-1569.497691536608
 20
986.281240265329
 11
-1580.502308463384
 21
986.281240265329
  0
LINE
  5
275
100
AcDbEntity
  8
____
  6
CONTINUOUS
 62
           3
100
AcDbLine
 10
-1580.502308463384
 20
986.281240265329
 11
-1580.502308463384
 21
1021.961924479661
  0
LINE
  5
274
100
AcDbEntity
  8
____
  6
CONTINUOUS
 62
           3
100
AcDbLine
 10
-1580.502308463384
 20
1021.961924479661
 11
-1569.497691536607
 21
1021.961924479661
  0
LINE
  5
273
100
AcDbEntity
  8
____
  6
CONTINUOUS
 62
           3
100
AcDbLine
 10
-1580.404052955117
 20
1060.459504816177
 11
-1569.595947044879
 21
1060.459504816177
  0
LINE
  5
272
100
AcDbEntity
  8
____
  6
CONTINUOUS
 62
           3
100
AcDbLine
 10
-1569.841585815568
 20
1021.961924479661
 11
-1569.841585815568
 21
1022.900889853721
  0
LINE
  5
271
100
AcDbEntity
  8
____
  6
CONTINUOUS
 62
           3
100
AcDbLine
 10
-1569.841585815568
 20
1022.900889853721
 11
-1580.158414184431
 21
1022.900889853721
  0
LINE
  5
270
100
AcDbEntity
  8
____
  6
CONTINUOUS
 62
           3
100
AcDbLine
 10
-1580.158414184431
 20
1022.900889853721
 11
-1580.158414184431
 21
1021.961924479661
  0
LINE
  5
26F
100
AcDbEntity
  8
____
  6
CONTINUOUS
 62
           3
100
AcDbLine
 10
-1569.595947044881
 20
986.281240265329
 11
-1569.595947044881
 21
984.403309517207
  0
LINE
  5
26E
100
AcDbEntity
  8
____
  6
CONTINUOUS
 62
           3
100
AcDbLine
 10
-1570.087224586256
 20
983.933826830174
 11
-1579.912775413745
 21
983.933826830174
  0
LINE
  5
26D
100
AcDbEntity
  8
____
  6
CONTINUOUS
 62
           3
100
AcDbLine
 10
-1580.404052955119
 20
984.403309517207
 11
-1580.404052955119
 21
986.281240265329
  0
LINE
  5
26C
100
AcDbEntity
  8
____
  6
CONTINUOUS
 62
           3
100
AcDbLine
 10
-1580.502308463384
 20
1022.900889853721
 11
-1580.502308463383
 21
1058.581574068056
  0
LINE
  5
26B
100
AcDbEntity
  8
____
  6
CONTINUOUS
 62
           3
100
AcDbLine
 10
-1580.502308463383
 20
1058.581574068056
 11
-1569.497691536606
 21
1058.581574068056
  0
LINE
  5
26A
100
AcDbEntity
  8
____
  6
CONTINUOUS
 62
           3
100
AcDbLine
 10
-1569.497691536606
 20
1058.581574068056
 11
-1569.497691536607
 21
1022.900889853721
  0
LINE
  5
269
100
AcDbEntity
  8
____
  6
CONTINUOUS
 62
           3
100
AcDbLine
 10
-1569.497691536607
 20
1022.900889853721
 11
-1580.502308463384
 21
1022.900889853721
  0
LINE
  5
268
100
AcDbEntity
  8
____
  6
CONTINUOUS
 62
           3
100
AcDbLine
 10
-1580.404052955117
 20
1058.581574068056
 11
-1580.404052955117
 21
1060.459504816177
  0
LINE
  5
267
100
AcDbEntity
  8
____
  6
CONTINUOUS
 62
           3
100
AcDbLine
 10
-1579.912775413743
 20
1060.92898750321
 11
-1570.087224586254
 21
1060.92898750321
  0
LINE
  5
266
100
AcDbEntity
  8
____
  6
CONTINUOUS
 62
           3
100
AcDbLine
 10
-1569.595947044879
 20
1060.459504816177
 11
-1569.595947044879
 21
1058.581574068056
  0
LINE
  5
265
100
AcDbEntity
  8
___S__
  6
DOT_CENTER
 62
           3
100
AcDbLine
 10
-1574.999999999999
 20
1067.06326659646
 11
-1575.0
 21
982.067556365335
  0
LINE
  5
264
100
AcDbEntity
  8
1
  6
CONTINUOUS
 62
           7
100
AcDbLine
 10
-1569.497691536608
 20
986.513526798368
 11
-424.999999999999
 21
986.513526798368
  0
LINE
  5
263
100
AcDbEntity
  8
1
  6
CONTINUOUS
 62
           2
100
AcDbLine
 10
6070.000000000005
 20
1800.831132334581
 11
6070.000000000005
 21
520.0
  0
LINE
  5
262
100
AcDbEntity
  8
1
  6
CONTINUOUS
 62
           7
100
AcDbLine
 10
6050.000000000005
 20
1784.157226830837
 11
6050.000000000005
 21
2000.0
  0
LINE
  5
261
100
AcDbEntity
  8
1
  6
CONTINUOUS
 62
           2
100
AcDbLine
 10
6030.000000000005
 20
1741.488764155294
 11
6030.000000000005
 21
1980.0
  0
LINE
  5
260
100
AcDbEntity
  8
1
  6
CONTINUOUS
 62
           7
100
AcDbLine
 10
2000.0
 20
1763.744569986044
 11
-2000.0
 21
1763.744569986044
  0
LINE
  5
25F
100
AcDbEntity
  8
1
  6
CONTINUOUS
 62
           7
100
AcDbLine
 10
-1000.0
 20
2000.0
 11
-1000.0
 21
1763.744569986044
  0
LINE
  5
25E
100
AcDbEntity
  8
1
  6
CONTINUOUS
 62
           7
100
AcDbLine
 10
999.999999999999
 20
1763.744569986044
 11
999.999999999999
 21
2000.0
  0
LINE
  5
25D
100
AcDbEntity
  8
1
  6
CONTINUOUS
 62
           2
100
AcDbLine
 10
6335.319562772424
 20
2205.000000000004
 11
6742.532262743713
 21
2205.000000000004
  0
LINE
  5
25C
100
AcDbEntity
  8
1
  6
CONTINUOUS
 62
           2
100
AcDbLine
 10
6335.319562772424
 20
2565.000000000004
 11
6335.319562772424
 21
2205.000000000004
  0
LINE
  5
25B
100
AcDbEntity
  8
1
  6
CONTINUOUS
 62
           2
100
AcDbLine
 10
6742.532262743713
 20
2565.000000000004
 11
6335.319562772424
 21
2565.000000000004
  0
LINE
  5
25A
100
AcDbEntity
  8
1
  6
CONTINUOUS
 62
           2
100
AcDbLine
 10
6742.532262743713
 20
2205.000000000004
 11
6742.532262743713
 21
2565.000000000004
  0
LINE
  5
259
100
AcDbEntity
  8
1
  6
CONTINUOUS
 62
           7
100
AcDbLine
 10
7105.500000000007
 20
2165.000000000004
 11
7094.500000000007
 21
2165.000000000004
  0
LINE
  5
258
100
AcDbEntity
  8
1
  6
CONTINUOUS
 62
           4
100
AcDbLine
 10
7094.500000000007
 20
2160.500000000004
 11
7060.000000000004
 21
2160.500000000004
  0
LINE
  5
257
100
AcDbEntity
  8
1
  6
CONTINUOUS
 62
           7
100
AcDbLine
 10
7140.000000000007
 20
2165.000000000004
 11
7140.000000000007
 21
2160.500000000004
  0
LINE
  5
256
100
AcDbEntity
  8
1
  6
CONTINUOUS
 62
           4
100
AcDbLine
 10
7140.000000000007
 20
2160.500000000004
 11
7105.500000000007
 21
2160.500000000004
  0
LINE
  5
255
100
AcDbEntity
  8
1
  6
CONTINUOUS
 62
           7
100
AcDbLine
 10
7060.000000000004
 20
2160.500000000004
 11
7060.000000000007
 21
2165.000000000004
  0
LINE
  5
254
100
AcDbEntity
  8
1
  6
CONTINUOUS
 62
           4
100
AcDbLine
 10
7095.500000000007
 20
2125.000000000004
 11
7104.500000000007
 21
2125.000000000004
  0
LINE
  5
253
100
AcDbEntity
  8
1
  6
CONTINUOUS
 62
           7
100
AcDbLine
 10
7105.500000000007
 20
2605.000000000005
 11
7094.500000000026
 21
2605.000000000005
  0
LINE
  5
252
100
AcDbEntity
  8
1
  6
CONTINUOUS
 62
           4
100
AcDbLine
 10
7095.500000000007
 20
2645.000000000005
 11
7104.500000000007
 21
2645.000000000005
  0
LINE
  5
251
100
AcDbEntity
  8
1
  6
CONTINUOUS
 62
           7
100
AcDbLine
 10
7140.000000000007
 20
2605.000000000004
 11
7140.000000000007
 21
2609.500000000007
  0
LINE
  5
250
100
AcDbEntity
  8
1
  6
CONTINUOUS
 62
           4
100
AcDbLine
 10
7140.000000000007
 20
2609.500000000007
 11
7105.500000000007
 21
2609.500000000005
  0
LINE
  5
24F
100
AcDbEntity
  8
1
  6
CONTINUOUS
 62
           7
100
AcDbLine
 10
7060.000000000007
 20
2605.000000000004
 11
7060.000000000007
 21
2609.500000000004
  0
LINE
  5
24E
100
AcDbEntity
  8
1
  6
CONTINUOUS
 62
           4
100
AcDbLine
 10
7060.000000000007
 20
2609.500000000004
 11
7094.500000000007
 21
2609.500000000005
  0
LINE
  5
24D
100
AcDbEntity
  8
1
  6
CONTINUOUS
 62
           7
100
AcDbLine
 10
7100.000000000007
 20
2125.000000000004
 11
7100.000000000007
 21
2645.000000000005
  0
LINE
  5
24C
100
AcDbEntity
  8
1
  6
CONTINUOUS
 62
           7
100
AcDbLine
 10
7105.500000000007
 20
2165.000000000004
 11
7140.000000000007
 21
2165.000000000004
  0
LINE
  5
24B
100
AcDbEntity
  8
1
  6
CONTINUOUS
 62
           7
100
AcDbLine
 10
7140.000000000007
 20
2165.000000000004
 11
7140.000000000007
 21
2605.000000000004
  0
LINE
  5
24A
100
AcDbEntity
  8
1
  6
CONTINUOUS
 62
           4
100
AcDbLine
 10
7104.500000000007
 20
2165.000000000004
 11
7104.500000000007
 21
2605.000000000005
  0
LINE
  5
249
100
AcDbEntity
  8
1
  6
CONTINUOUS
 62
           4
100
AcDbLine
 10
7104.500000000007
 20
2159.500000000004
 11
7104.500000000007
 21
2125.000000000004
  0
LINE
  5
248
100
AcDbEntity
  8
1
  6
CONTINUOUS
 62
           4
100
AcDbLine
 10
7104.500000000007
 20
2645.000000000005
 11
7104.500000000007
 21
2610.500000000005
  0
LINE
  5
247
100
AcDbEntity
  8
1
  6
CONTINUOUS
 62
           7
100
AcDbLine
 10
7140.000000000007
 20
2605.000000000004
 11
7105.500000000007
 21
2605.000000000005
  0
LINE
  5
246
100
AcDbEntity
  8
1
  6
CONTINUOUS
 62
           7
100
AcDbLine
 10
7094.500000000026
 20
2605.000000000005
 11
7060.000000000007
 21
2605.000000000004
  0
LINE
  5
245
100
AcDbEntity
  8
1
  6
CONTINUOUS
 62
           4
100
AcDbLine
 10
7095.500000000007
 20
2610.500000000005
 11
7095.500000000007
 21
2645.000000000005
  0
LINE
  5
244
100
AcDbEntity
  8
1
  6
CONTINUOUS
 62
           4
100
AcDbLine
 10
7095.500000000007
 20
2125.000000000004
 11
7095.500000000007
 21
2159.500000000004
  0
LINE
  5
243
100
AcDbEntity
  8
1
  6
CONTINUOUS
 62
           4
100
AcDbLine
 10
7095.500000000007
 20
2605.000000000005
 11
7095.500000000007
 21
2165.000000000004
  0
LINE
  5
242
100
AcDbEntity
  8
1
  6
CONTINUOUS
 62
           7
100
AcDbLine
 10
7060.000000000007
 20
2605.000000000004
 11
7060.000000000007
 21
2165.000000000004
  0
LINE
  5
241
100
AcDbEntity
  8
1
  6
CONTINUOUS
 62
           7
100
AcDbLine
 10
7060.000000000007
 20
2165.000000000004
 11
7094.500000000007
 21
2165.000000000004
  0
LINE
  5
240
100
AcDbEntity
  8
1
  6
CONTINUOUS
 62
           7
100
AcDbLine
 10
7056.464466094076
 20
2127.000000000004
 11
6690.000000000007
 21
2127.000000000004
  0
LINE
  5
23F
100
AcDbEntity
  8
1
  6
CONTINUOUS
 62
           7
100
AcDbLine
 10
7060.000000000007
 20
2165.000000000004
 11
7060.000000000007
 21
2132.000000000004
  0
LINE
  5
23E
100
AcDbEntity
  8
1
  6
CONTINUOUS
 62
           7
100
AcDbLine
 10
7060.000000000007
 20
2638.000000000004
 11
7060.000000000007
 21
2605.000000000004
  0
LINE
  5
23D
100
AcDbEntity
  8
1
  6
CONTINUOUS
 62
           7
100
AcDbLine
 10
5992.268760408322
 20
2643.000000000004
 11
6515.527778486365
 21
2643.000000000004
  0
LINE
  5
23C
100
AcDbEntity
  8
1
  6
CONTINUOUS
 62
           7
100
AcDbLine
 10
5992.268760408322
 20
2605.000000000004
 11
5992.268760408322
 21
2643.000000000004
  0
LINE
  5
23B
100
AcDbEntity
  8
1
  6
CONTINUOUS
 62
           7
100
AcDbLine
 10
7056.464466094076
 20
2643.000000000004
 11
7060.000000000007
 21
2638.000000000004
  0
LINE
  5
23A
100
AcDbEntity
  8
1
  6
CONTINUOUS
 62
           7
100
AcDbLine
 10
7060.000000000007
 20
2132.000000000004
 11
7056.464466094076
 21
2127.000000000004
  0
LINE
  5
239
100
AcDbEntity
  8
1
  6
CONTINUOUS
 62
           7
100
AcDbLine
 10
5992.268760408322
 20
2127.000000000004
 11
5992.268760408322
 21
2165.000000000004
  0
LINE
  5
238
100
AcDbEntity
  8
1
  6
CONTINUOUS
 62
           7
100
AcDbLine
 10
7060.000000000007
 20
2605.000000000004
 11
5992.268760408322
 21
2605.000000000004
  0
LINE
  5
237
100
AcDbEntity
  8
1
  6
CONTINUOUS
 62
           7
100
AcDbLine
 10
7060.000000000007
 20
2165.000000000004
 11
5992.268760408322
 21
2165.000000000004
  0
LINE
  5
236
100
AcDbEntity
  8
1
  6
CONTINUOUS
 62
           4
100
AcDbLine
 10
6860.000000000007
 20
2643.000000000004
 11
6860.000000000007
 21
2644.0
  0
LINE
  5
235
100
AcDbEntity
  8
1
  6
CONTINUOUS
 62
           4
100
AcDbLine
 10
6860.000000000007
 20
2644.0
 11
6854.993063735616
 21
2649.000000000004
  0
LINE
  5
234
100
AcDbEntity
  8
1
  6
CONTINUOUS
 62
           4
100
AcDbLine
 10
6325.000000000007
 20
2649.000000000004
 11
6320.000000000007
 21
2644.0
  0
LINE
  5
233
100
AcDbEntity
  8
1
  6
CONTINUOUS
 62
           4
100
AcDbLine
 10
6854.993063735616
 20
2649.000000000004
 11
6325.000000000007
 21
2649.000000000004
  0
LINE
  5
232
100
AcDbEntity
  8
1
  6
CONTINUOUS
 62
           4
100
AcDbLine
 10
6320.000000000007
 20
2644.0
 11
6320.000000000007
 21
2643.000000000004
  0
LINE
  5
231
100
AcDbEntity
  8
0
  6
CONTINUOUS
 62
           7
100
AcDbLine
 10
6888.200000000008
 20
2081.000000000004
 11
6888.200000000008
 21
2127.000000000004
  0
LINE
  5
230
100
AcDbEntity
  8
0
  6
CONTINUOUS
 62
           7
100
AcDbLine
 10
6291.800000000007
 20
2127.000000000004
 11
6291.800000000007
 21
2081.000000000004
  0
LINE
  5
22F
100
AcDbEntity
  8
0
  6
CONTINUOUS
 62
           7
100
AcDbLine
 10
6910.000000000007
 20
2165.0
 11
6844.211716344322
 21
2165.0
  0
LINE
  5
22E
100
AcDbEntity
  8
1
  6
CONTINUOUS
 62
           4
100
AcDbLine
 10
6930.000000000007
 20
2081.000000000004
 11
6250.000000000007
 21
2081.000000000004
  0
LINE
  5
22D
100
AcDbEntity
  8
1
  6
CONTINUOUS
 62
           7
100
AcDbLine
 10
6250.000000000007
 20
2075.000000000004
 11
6930.000000000007
 21
2075.000000000004
  0
LINE
  5
22C
100
AcDbEntity
  8
1
  6
CONTINUOUS
 62
           4
100
AcDbLine
 10
6250.000000000007
 20
2081.000000000004
 11
6250.000000000007
 21
2075.000000000004
  0
LINE
  5
22B
100
AcDbEntity
  8
1
  6
CONTINUOUS
 62
           4
100
AcDbLine
 10
6930.000000000007
 20
2075.000000000004
 11
6930.000000000007
 21
2081.000000000004
  0
LINE
  5
22A
100
AcDbEntity
  8
1
  6
CONTINUOUS
 62
           7
100
AcDbLine
 10
6030.010908476364
 20
2165.000000000004
 11
6030.010908476364
 21
2605.000000000004
  0
LINE
  5
229
100
AcDbEntity
  8
1
  6
CONTINUOUS
 62
           7
100
AcDbLine
 10
6690.000000000007
 20
2643.000000000004
 11
6690.000000000007
 21
2605.000000000004
  0
LINE
  5
228
100
AcDbEntity
  8
1
  6
CONTINUOUS
 62
           7
100
AcDbLine
 10
6515.527778486365
 20
2643.000000000004
 11
6515.527778486365
 21
2605.000000000004
  0
LINE
  5
227
100
AcDbEntity
  8
1
  6
CONTINUOUS
 62
           7
100
AcDbLine
 10
6690.000000000007
 20
2643.000000000004
 11
7056.464466094076
 21
2643.000000000004
  0
LINE
  5
226
100
AcDbEntity
  8
1
  6
CONTINUOUS
 62
           7
100
AcDbLine
 10
6965.000000000007
 20
2642.700000000004
 11
6965.000000000007
 21
2605.000000000004
  0
LINE
  5
225
100
AcDbEntity
  8
1
  6
CONTINUOUS
 62
           7
100
AcDbLine
 10
6965.000000000007
 20
2165.000000000004
 11
6965.000000000007
 21
2127.000000000004
  0
LINE
  5
224
100
AcDbEntity
  8
1
  6
CONTINUOUS
 62
           7
100
AcDbLine
 10
6690.000000000007
 20
2165.000000000004
 11
6690.000000000007
 21
2127.000000000004
  0
LINE
  5
223
100
AcDbEntity
  8
1
  6
CONTINUOUS
 62
           7
100
AcDbLine
 10
6515.527778486365
 20
2165.000000000004
 11
6515.527778486365
 21
2127.000000000004
  0
LINE
  5
222
100
AcDbEntity
  8
1
  6
CONTINUOUS
 62
           7
100
AcDbLine
 10
6515.527778486365
 20
2127.000000000004
 11
5992.268760408322
 21
2127.000000000004
  0
LINE
  5
221
100
AcDbEntity
  8
1
  6
CONTINUOUS
 62
           7
100
AcDbLine
 10
6653.500000000007
 20
2841.300000000001
 11
6653.500000000007
 21
2765.300000000001
  0
LINE
  5
220
100
AcDbEntity
  8
1
  6
CONTINUOUS
 62
           7
100
AcDbLine
 10
6526.500000000007
 20
2765.300000000001
 11
6526.500000000007
 21
2841.300000000001
  0
LINE
  5
21F
100
AcDbEntity
  8
1
  6
CONTINUOUS
 62
           7
100
AcDbLine
 10
6538.500000000007
 20
2853.300000000001
 11
6641.500000000007
 21
2853.300000000001
  0
LINE
  5
21E
100
AcDbEntity
  8
1
  6
CONTINUOUS
 62
           7
100
AcDbLine
 10
6641.500000000007
 20
2753.300000000001
 11
6538.500000000007
 21
2753.300000000001
  0
LINE
  5
21D
100
AcDbEntity
  8
2
  6
CONTINUOUS
 62
           4
100
AcDbLine
 10
6699.242370400007
 20
2659.100000000002
 11
6477.757629600004
 21
2659.100000000002
  0
LINE
  5
21C
100
AcDbEntity
  8
7
  6
CONTINUOUS
 62
           7
100
AcDbLine
 10
6715.000000000007
 20
3058.231865248046
 11
6715.000000000007
 21
3025.186819200004
  0
LINE
  5
21B
100
AcDbEntity
  8
7
  6
CONTINUOUS
 62
           7
100
AcDbLine
 10
6465.000000000007
 20
3058.231865248046
 11
6468.600000000006
 21
3091.133628400004
  0
LINE
  5
21A
100
AcDbEntity
  8
1
  6
CONTINUOUS
 62
           4
100
AcDbLine
 10
6715.000000000007
 20
3058.231865248046
 11
6465.000000000007
 21
3058.231865248046
  0
LINE
  5
219
100
AcDbEntity
  8
2
  6
CONTINUOUS
 62
           7
100
AcDbLine
 10
6477.757629600004
 20
2659.100000000002
 11
6464.503603200006
 21
2690.900000000005
  0
LINE
  5
218
100
AcDbEntity
  8
2
  6
CONTINUOUS
 62
           7
100
AcDbLine
 10
6464.503603200006
 20
2766.150000000005
 11
6464.503603200006
 21
2690.900000000005
  0
LINE
  5
217
100
AcDbEntity
  8
2
  6
CONTINUOUS
 62
           7
100
AcDbLine
 10
6470.255350800007
 20
3025.186819200004
 11
6464.503603200006
 21
3011.386819200004
  0
LINE
  5
216
100
AcDbEntity
  8
2
  6
CONTINUOUS
 62
           7
100
AcDbLine
 10
6464.503603200006
 20
2766.150000000005
 11
6464.503603200006
 21
3011.386819200004
  0
LINE
  5
215
100
AcDbEntity
  8
2
  6
CONTINUOUS
 62
           4
100
AcDbLine
 10
6482.940000000006
 20
2659.100000000002
 11
6482.940000000006
 21
2649.000000000004
  0
LINE
  5
214
100
AcDbEntity
  8
2
  6
CONTINUOUS
 62
           7
100
AcDbLine
 10
6712.496396800005
 20
3011.386819200004
 11
6712.496396800005
 21
2766.150000000005
  0
LINE
  5
213
100
AcDbEntity
  8
2
  6
CONTINUOUS
 62
           7
100
AcDbLine
 10
6712.496396800005
 20
3011.386819200004
 11
6706.744649200005
 21
3025.186819200004
  0
LINE
  5
212
100
AcDbEntity
  8
2
  6
CONTINUOUS
 62
           7
100
AcDbLine
 10
6712.496396800005
 20
2690.900000000005
 11
6712.496396800005
 21
2766.150000000005
  0
LINE
  5
211
100
AcDbEntity
  8
2
  6
CONTINUOUS
 62
           7
100
AcDbLine
 10
6712.496396800005
 20
2690.900000000005
 11
6699.242370400007
 21
2659.100000000002
  0
LINE
  5
210
100
AcDbEntity
  8
7
  6
CONTINUOUS
 62
           7
100
AcDbLine
 10
6590.000000000007
 20
3121.000000000004
 11
6675.520000000008
 21
3121.000000000004
  0
LINE
  5
20F
100
AcDbEntity
  8
7
  6
CONTINUOUS
 62
           7
100
AcDbLine
 10
6680.383416400007
 20
3115.483396000003
 11
6705.131240800009
 21
3095.634035200004
  0
LINE
  5
20E
100
AcDbEntity
  8
7
  6
CONTINUOUS
 62
           4
100
AcDbLine
 10
6469.809572400009
 20
3095.200000000004
 11
6707.560000000009
 21
3095.200000000004
  0
LINE
  5
20D
100
AcDbEntity
  8
7
  6
CONTINUOUS
 62
           7
100
AcDbLine
 10
6711.400000000005
 20
3091.360000000004
 11
6715.000000000007
 21
3058.231865248046
  0
LINE
  5
20C
100
AcDbEntity
  8
7
  6
CONTINUOUS
 62
           7
100
AcDbLine
 10
6715.000000000007
 20
3025.186819200004
 11
6465.000000000007
 21
3025.186819200004
  0
LINE
  5
20B
100
AcDbEntity
  8
7
  6
CONTINUOUS
 62
           7
100
AcDbLine
 10
6465.000000000007
 20
3025.186819200004
 11
6465.000000000007
 21
3058.231865248046
  0
LINE
  5
20A
100
AcDbEntity
  8
7
  6
CONTINUOUS
 62
           7
100
AcDbLine
 10
6590.000000000007
 20
3121.000000000004
 11
6501.480000000003
 21
3121.000000000004
  0
LINE
  5
209
100
AcDbEntity
  8
7
  6
CONTINUOUS
 62
           7
100
AcDbLine
 10
6496.616582400005
 20
3115.483396000003
 11
6472.022588400003
 21
3097.395737200004
  0
LINE
  5
208
100
AcDbEntity
  8
2
  6
CONTINUOUS
 62
           4
100
AcDbLine
 10
6694.060000000009
 20
2649.000000000004
 11
6694.060000000009
 21
2659.100000000002
  0
LINE
  5
207
100
AcDbEntity
  8
1
  6
DOT_CENTER
 62
           2
100
AcDbLine
 10
7200.588082276616
 20
2385.000000000004
 11
5965.991794870071
 21
2385.000000000004
  0
LINE
  5
206
100
AcDbEntity
  8
1
  6
CONTINUOUS
 62
           7
100
AcDbLine
 10
-52.720779386418
 20
2605.000000000001
 11
-52.720779386418
 21
2643.0
  0
LINE
  5
205
100
AcDbEntity
  8
1
  6
CONTINUOUS
 62
           4
100
AcDbLine
 10
-264.993063735608
 20
2649.000000000001
 11
-268.197502944819
 21
2645.800000000001
  0
LINE
  5
204
100
AcDbEntity
  8
1
  6
CONTINUOUS
 62
           7
100
AcDbLine
 10
-689.999999999996
 20
2645.000000000001
 11
-689.999999999996
 21
2150.000000000001
  0
LINE
  5
203
100
AcDbEntity
  8
1
  6
CONTINUOUS
 62
           7
100
AcDbLine
 10
-689.999999999996
 20
2165.000000000001
 11
-667.188191940731
 21
2165.000000000001
  0
LINE
  5
202
100
AcDbEntity
  8
1
  6
CONTINUOUS
 62
           7
100
AcDbLine
 10
477.97458985055
 20
2605.000000000001
 11
-658.999999999996
 21
2605.000000000001
  0
LINE
  5
201
100
AcDbEntity
  8
1
  6
CONTINUOUS
 62
           7
100
AcDbLine
 10
477.97458985055
 20
2165.000000000001
 11
-658.999999999996
 21
2164.999999999997
  0
LINE
  5
200
100
AcDbEntity
  8
1
  6
CONTINUOUS
 62
           2
100
AcDbLine
 10
-576.934895578939
 20
2205.000000000002
 11
-268.5423591195
 21
2205.000000000002
  0
LINE
  5
1FF
100
AcDbEntity
  8
1
  6
CONTINUOUS
 62
           2
100
AcDbLine
 10
-268.5423591195
 20
2205.000000000002
 11
-268.5423591195
 21
2565.000000000005
  0
LINE
  5
1FE
100
AcDbEntity
  8
1
  6
CONTINUOUS
 62
           2
100
AcDbLine
 10
-268.5423591195
 20
2565.000000000005
 11
-576.934895578939
 21
2565.000000000005
  0
LINE
  5
1FD
100
AcDbEntity
  8
1
  6
CONTINUOUS
 62
           2
100
AcDbLine
 10
-576.934895578939
 20
2565.000000000005
 11
-576.934895578939
 21
2205.000000000002
  0
LINE
  5
1FC
100
AcDbEntity
  8
1
  6
CONTINUOUS
 62
           7
100
AcDbLine
 10
-649.226009489052
 20
2643.0
 11
470.538238691624
 21
2643.000000000001
  0
LINE
  5
1FB
100
AcDbEntity
  8
1
  6
CONTINUOUS
 62
           7
100
AcDbLine
 10
470.538238691624
 20
2643.000000000001
 11
470.538238691624
 21
2605.000000000001
  0
LINE
  5
1FA
100
AcDbEntity
  8
1
  6
CONTINUOUS
 62
           7
100
AcDbLine
 10
470.538238691624
 20
2165.000000000001
 11
470.538238691624
 21
2150.000000000001
  0
LINE
  5
1F9
100
AcDbEntity
  8
1
  6
CONTINUOUS
 62
           4
100
AcDbLine
 10
270.0
 20
2643.999999999997
 11
265.0
 21
2649.000000000001
  0
LINE
  5
1F8
100
AcDbEntity
  8
1
  6
CONTINUOUS
 62
           4
100
AcDbLine
 10
265.0
 20
2649.000000000001
 11
-264.993063735608
 21
2649.000000000001
  0
LINE
  5
1F7
100
AcDbEntity
  8
1
  6
CONTINUOUS
 62
           4
100
AcDbLine
 10
270.0
 20
2643.000000000001
 11
270.0
 21
2643.999999999997
  0
LINE
  5
1F6
100
AcDbEntity
  8
1
  6
CONTINUOUS
 62
           7
100
AcDbLine
 10
467.974062000612
 20
2605.000000000001
 11
467.974062000612
 21
2165.000000000001
  0
LINE
  5
1F5
100
AcDbEntity
  8
1
  6
CONTINUOUS
 62
           7
100
AcDbLine
 10
-658.999999999996
 20
2645.000000000001
 11
-689.999999999996
 21
2645.000000000001
  0
LINE
  5
1F4
100
AcDbEntity
  8
1
  6
CONTINUOUS
 62
           7
100
AcDbLine
 10
-667.432750797187
 20
2605.000000000001
 11
-689.999999999996
 21
2605.000000000001
  0
LINE
  5
1F3
100
AcDbEntity
  8
1
  6
CONTINUOUS
 62
           7
100
AcDbLine
 10
-649.226009489052
 20
2605.000000000001
 11
-649.226009489052
 21
2643.0
  0
LINE
  5
1F2
100
AcDbEntity
  8
1
  6
CONTINUOUS
 62
           7
100
AcDbLine
 10
-648.999999999993
 20
2605.000000000001
 11
-648.999999999993
 21
2164.999999999997
  0
LINE
  5
1F1
100
AcDbEntity
  8
1
  6
CONTINUOUS
 62
           7
100
AcDbLine
 10
-649.226009489052
 20
2164.999999999997
 11
-649.226009489052
 21
2150.000000000001
  0
LINE
  5
1F0
100
AcDbEntity
  8
1
  6
CONTINUOUS
 62
           2
100
AcDbLine
 10
425.133110726259
 20
2565.000000000005
 11
425.133110726259
 21
2205.000000000002
  0
LINE
  5
1EF
100
AcDbEntity
  8
1
  6
CONTINUOUS
 62
           2
100
AcDbLine
 10
425.133110726259
 20
2205.000000000002
 11
467.974062000612
 21
2205.000000000005
  0
LINE
  5
1EE
100
AcDbEntity
  8
1
  6
CONTINUOUS
 62
           2
100
AcDbLine
 10
467.974062000612
 20
2565.000000000005
 11
425.133110726259
 21
2565.000000000005
  0
LINE
  5
1ED
100
AcDbEntity
  8
1
  6
DOT_CENTER
 62
           2
100
AcDbLine
 10
533.829689541417
 20
2385.000000000005
 11
-732.147676803783
 21
2385.000000000001
  0
LINE
  5
1EC
100
AcDbEntity
  8
7
  6
CONTINUOUS
 62
           7
100
AcDbLine
 10
-93.383417599998
 20
3115.483396000004
 11
-117.977411600001
 21
3097.395737200003
  0
LINE
  5
1EB
100
AcDbEntity
  8
7
  6
CONTINUOUS
 62
           7
100
AcDbLine
 10
0.0
 20
3121.000000000004
 11
-88.52
 21
3121.000000000004
  0
LINE
  5
1EA
100
AcDbEntity
  8
7
  6
CONTINUOUS
 62
           7
100
AcDbLine
 10
-124.999999999996
 20
3025.186819200004
 11
-124.999999999996
 21
3058.231865248047
  0
LINE
  5
1E9
100
AcDbEntity
  8
7
  6
CONTINUOUS
 62
           7
100
AcDbLine
 10
125.0
 20
3025.186819200004
 11
-124.999999999996
 21
3025.186819200004
  0
LINE
  5
1E8
100
AcDbEntity
  8
7
  6
CONTINUOUS
 62
           7
100
AcDbLine
 10
121.400000000002
 20
3091.360000000005
 11
125.0
 21
3058.231865248047
  0
LINE
  5
1E7
100
AcDbEntity
  8
7
  6
CONTINUOUS
 62
           4
100
AcDbLine
 10
-120.190427599999
 20
3095.200000000005
 11
117.560000000001
 21
3095.200000000005
  0
LINE
  5
1E6
100
AcDbEntity
  8
7
  6
CONTINUOUS
 62
           7
100
AcDbLine
 10
90.3834164
 20
3115.483396000004
 11
115.131240800001
 21
3095.634035200005
  0
LINE
  5
1E5
100
AcDbEntity
  8
7
  6
CONTINUOUS
 62
           7
100
AcDbLine
 10
0.0
 20
3121.000000000004
 11
85.52
 21
3121.000000000004
  0
LINE
  5
1E4
100
AcDbEntity
  8
2
  6
CONTINUOUS
 62
           7
100
AcDbLine
 10
122.496396800001
 20
2690.900000000002
 11
109.242370399999
 21
2659.1
  0
LINE
  5
1E3
100
AcDbEntity
  8
2
  6
CONTINUOUS
 62
           7
100
AcDbLine
 10
122.496396800001
 20
2690.900000000002
 11
122.496396800001
 21
2819.150000000006
  0
LINE
  5
1E2
100
AcDbEntity
  8
2
  6
CONTINUOUS
 62
           7
100
AcDbLine
 10
122.496396800001
 20
3011.386819200003
 11
116.744649200002
 21
3025.186819200004
  0
LINE
  5
1E1
100
AcDbEntity
  8
2
  6
CONTINUOUS
 62
           7
100
AcDbLine
 10
122.496396800001
 20
3011.386819200003
 11
122.496396800001
 21
2819.150000000006
  0
LINE
  5
1E0
100
AcDbEntity
  8
2
  6
CONTINUOUS
 62
           4
100
AcDbLine
 10
104.060000000001
 20
2649.000000000001
 11
104.060000000001
 21
2659.1
  0
LINE
  5
1DF
100
AcDbEntity
  8
2
  6
CONTINUOUS
 62
           4
100
AcDbLine
 10
-107.059999999998
 20
2659.1
 11
-107.059999999998
 21
2649.000000000001
  0
LINE
  5
1DE
100
AcDbEntity
  8
2
  6
CONTINUOUS
 62
           7
100
AcDbLine
 10
-125.496396799998
 20
2766.150000000002
 11
-125.496396799998
 21
3011.386819200002
  0
LINE
  5
1DD
100
AcDbEntity
  8
2
  6
CONTINUOUS
 62
           7
100
AcDbLine
 10
-119.744649199998
 20
3025.186819200004
 11
-125.496396799998
 21
3011.386819200002
  0
LINE
  5
1DC
100
AcDbEntity
  8
2
  6
CONTINUOUS
 62
           7
100
AcDbLine
 10
-125.496396799998
 20
2766.150000000002
 11
-125.496396799998
 21
2690.900000000002
  0
LINE
  5
1DB
100
AcDbEntity
  8
2
  6
CONTINUOUS
 62
           7
100
AcDbLine
 10
-112.242370399999
 20
2659.1
 11
-125.496396799998
 21
2690.900000000002
  0
LINE
  5
1DA
100
AcDbEntity
  8
1
  6
CONTINUOUS
 62
           4
100
AcDbLine
 10
125.0
 20
3058.231865248047
 11
-124.999999999996
 21
3058.231865248047
  0
LINE
  5
1D9
100
AcDbEntity
  8
7
  6
CONTINUOUS
 62
           7
100
AcDbLine
 10
-124.999999999996
 20
3058.231865248047
 11
-121.399999999998
 21
3091.133628400005
  0
LINE
  5
1D8
100
AcDbEntity
  8
7
  6
CONTINUOUS
 62
           7
100
AcDbLine
 10
125.0
 20
3058.231865248047
 11
125.0
 21
3025.186819200004
  0
LINE
  5
1D7
100
AcDbEntity
  8
2
  6
CONTINUOUS
 62
           4
100
AcDbLine
 10
109.242370399999
 20
2659.1
 11
-112.242370399999
 21
2659.1
  0
LINE
  5
1D6
100
AcDbEntity
  8
1
  6
CONTINUOUS
 62
           7
100
AcDbLine
 10
185.0
 20
2753.300000000004
 11
134.496396800001
 21
2753.300000000004
  0
LINE
  5
1D5
100
AcDbEntity
  8
1
  6
CONTINUOUS
 62
           7
100
AcDbLine
 10
134.496396800001
 20
2853.300000000004
 11
185.0
 21
2853.300000000004
  0
LINE
  5
1D4
100
AcDbEntity
  8
1
  6
CONTINUOUS
 62
           7
100
AcDbLine
 10
122.496396800001
 20
2765.300000000004
 11
122.496396800001
 21
2841.300000000004
  0
LINE
  5
1D3
100
AcDbEntity
  8
1
  6
CONTINUOUS
 62
           7
100
AcDbLine
 10
197.0
 20
2841.300000000004
 11
197.0
 21
2765.300000000004
  0
LINE
  5
1D2
100
AcDbEntity
  8
1
  6
CONTINUOUS
 62
           7
100
AcDbLine
 10
-52.720779386418
 20
2150.000000000001
 11
-52.720779386418
 21
2165.000000000001
  0
LINE
  5
1D1
100
AcDbEntity
  8
1
  6
CONTINUOUS
 62
           7
100
AcDbLine
 10
216.000000000004
 20
6321.000000000003
 11
-269.999999999996
 21
6321.000000000003
  0
LINE
  5
1D0
100
AcDbEntity
  8
1
  6
CONTINUOUS
 62
           7
100
AcDbLine
 10
-216.0
 20
6321.000000000003
 11
-215.999999999996
 21
5835.000000000001
  0
LINE
  5
1CF
100
AcDbEntity
  8
1
  6
CONTINUOUS
 62
           7
100
AcDbLine
 10
-215.999999999996
 20
5889.000000000003
 11
270.000000000004
 21
5889.000000000003
  0
LINE
  5
1CE
100
AcDbEntity
  8
1
  6
CONTINUOUS
 62
           7
100
AcDbLine
 10
216.0
 20
5889.000000000003
 11
216.000000000004
 21
6375.000000000001
  0
LINE
  5
1CD
100
AcDbEntity
  8
1
  6
CONTINUOUS
 62
           7
100
AcDbLine
 10
-649.999999999996
 20
6105.000000000001
 11
-650.226009489052
 21
6104.773990510949
  0
LINE
  5
1CC
100
AcDbEntity
  8
1
  6
CONTINUOUS
 62
           7
100
AcDbLine
 10
-56.963420073538
 20
5511.511401095434
 11
-52.720779386418
 21
5507.268760408314
  0
LINE
  5
1CB
100
AcDbEntity
  8
1
  6
CONTINUOUS
 62
           7
100
AcDbLine
 10
-52.720779386418
 20
5507.268760408314
 11
470.538238691628
 21
6030.527778486358
  0
LINE
  5
1CA
100
AcDbEntity
  8
1
  6
CONTINUOUS
 62
           7
100
AcDbLine
 10
-650.226009489052
 20
6104.773990510949
 11
-645.983368801932
 21
6100.531349823829
  0
LINE
  5
1C9
100
AcDbEntity
  8
1
  6
CONTINUOUS
 62
           7
100
AcDbLine
 10
-179.999999999996
 20
6575.000000000001
 11
-649.999999999996
 21
6105.000000000001
  0
LINE
  5
1C8
100
AcDbEntity
  8
1
  6
CONTINUOUS
 62
           7
100
AcDbLine
 10
-645.983368801932
 20
6100.531349823829
 11
-56.963420073538
 21
5511.511401095434
  0
LINE
  5
1C7
100
AcDbEntity
  8
1
  6
CONTINUOUS
 62
           7
100
AcDbLine
 10
445.000000000004
 20
6205.000000000001
 11
170.000000200063
 21
6480.000000000001
  0
LINE
  5
1C6
100
AcDbEntity
  8
1
  6
CONTINUOUS
 62
           7
100
AcDbLine
 10
-689.999999999996
 20
6615.000000000001
 11
-689.999999999996
 21
6580.000000000001
  0
LINE
  5
1C5
100
AcDbEntity
  8
1
  6
CONTINUOUS
 62
           7
100
AcDbLine
 10
-684.999999999996
 20
6575.000000000001
 11
-689.999999999996
 21
6580.000000000001
  0
LINE
  5
1C4
100
AcDbEntity
  8
1
  6
CONTINUOUS
 62
           7
100
AcDbLine
 10
-684.999999999996
 20
6575.000000000001
 11
35.000000000004
 21
6575.000000000001
  0
LINE
  5
1C3
100
AcDbEntity
  8
1
  6
CONTINUOUS
 62
           7
100
AcDbLine
 10
40.000000000004
 20
6580.000000000001
 11
35.000000000004
 21
6575.000000000001
  0
LINE
  5
1C2
100
AcDbEntity
  8
1
  6
CONTINUOUS
 62
           7
100
AcDbLine
 10
40.000000000004
 20
6580.000000000001
 11
40.000000000004
 21
6615.000000000001
  0
LINE
  5
1C1
100
AcDbEntity
  8
1
  6
CONTINUOUS
 62
           7
100
AcDbLine
 10
40.000000000004
 20
6615.000000000001
 11
40.000000000004
 21
6650.000000000001
  0
LINE
  5
1C0
100
AcDbEntity
  8
1
  6
CONTINUOUS
 62
           7
100
AcDbLine
 10
35.000000000004
 20
6655.000000000001
 11
40.000000000004
 21
6650.000000000001
  0
LINE
  5
1BF
100
AcDbEntity
  8
1
  6
CONTINUOUS
 62
           7
100
AcDbLine
 10
35.000000000004
 20
6655.000000000001
 11
-684.999999999996
 21
6655.000000000001
  0
LINE
  5
1BE
100
AcDbEntity
  8
1
  6
CONTINUOUS
 62
           7
100
AcDbLine
 10
-689.999999999996
 20
6650.000000000001
 11
-684.999999999996
 21
6655.000000000001
  0
LINE
  5
1BD
100
AcDbEntity
  8
1
  6
CONTINUOUS
 62
           7
100
AcDbLine
 10
-689.999999999996
 20
6650.000000000001
 11
-689.999999999996
 21
6615.000000000001
  0
LINE
  5
1BC
100
AcDbEntity
  8
1
  6
CONTINUOUS
 62
           7
100
AcDbLine
 10
-659.999999999996
 20
6555.000000000001
 11
-659.999999999996
 21
6154.999999999999
  0
LINE
  5
1BB
100
AcDbEntity
  8
1
  6
CONTINUOUS
 62
           7
100
AcDbLine
 10
31.875234341347
 20
6509.790474617626
 11
0.000000000004
 21
6565.0
  0
LINE
  5
1BA
100
AcDbEntity
  8
1
  6
CONTINUOUS
 62
           7
100
AcDbLine
 10
-659.999999999996
 20
6555.000000000001
 11
-649.999999999996
 21
6565.0
  0
LINE
  5
1B9
100
AcDbEntity
  8
1
  6
CONTINUOUS
 62
           7
100
AcDbLine
 10
-649.999999999996
 20
6575.000000000001
 11
-649.999999999996
 21
6565.0
  0
LINE
  5
1B8
100
AcDbEntity
  8
1
  6
CONTINUOUS
 62
           7
100
AcDbLine
 10
0.000000000004
 20
6565.0
 11
0.000000000004
 21
6575.000000000001
  0
LINE
  5
1B7
100
AcDbEntity
  8
1
  6
DOT_CENTER
 62
           2
100
AcDbLine
 10
-324.999999999996
 20
6723.88896892295
 11
-324.999999999996
 21
6483.045008217873
  0
LINE
  5
1B6
100
AcDbEntity
  8
1
  6
CONTINUOUS
 62
           4
100
AcDbLine
 10
40.000000000004
 20
6619.500000000001
 11
-689.999999999996
 21
6619.500000000001
  0
LINE
  5
1B5
100
AcDbEntity
  8
1
  6
CONTINUOUS
 62
           7
100
AcDbLine
 10
40.000000000004
 20
6615.000000000001
 11
-689.999999999996
 21
6615.000000000001
  0
LINE
  5
1B4
100
AcDbEntity
  8
1
  6
CONTINUOUS
 62
           4
100
AcDbLine
 10
-689.999999999996
 20
6610.500000000001
 11
40.000000000004
 21
6610.500000000001
  0
LINE
  5
1B3
100
AcDbEntity
  8
1
  6
CONTINUOUS
 62
           7
100
AcDbLine
 10
197.0
 20
6156.500000000001
 11
197.0
 21
6053.500000000001
  0
LINE
  5
1B2
100
AcDbEntity
  8
1
  6
CONTINUOUS
 62
           7
100
AcDbLine
 10
132.824966598197
 20
6053.500000000001
 11
132.824966598197
 21
6156.500000000001
  0
LINE
  5
1B1
100
AcDbEntity
  8
1
  6
CONTINUOUS
 62
           7
100
AcDbLine
 10
144.824966598197
 20
6168.500000000001
 11
185.0
 21
6168.500000000001
  0
LINE
  5
1B0
100
AcDbEntity
  8
1
  6
CONTINUOUS
 62
           7
100
AcDbLine
 10
185.0
 20
6041.500000000001
 11
144.824966598197
 21
6041.500000000001
  0
LINE
  5
1AF
100
AcDbEntity
  8
1
  6
CONTINUOUS
 62
           4
100
AcDbLine
 10
134.432661752784
 20
6162.500000000001
 11
117.908702762048
 21
6162.500000000001
  0
LINE
  5
1AE
100
AcDbEntity
  8
1
  6
CONTINUOUS
 62
           4
100
AcDbLine
 10
134.432661752784
 20
6047.500000000001
 11
117.908702762048
 21
6047.500000000001
  0
LINE
  5
1AD
100
AcDbEntity
  8
1
  6
CONTINUOUS
 62
           3
100
AcDbLine
 10
6470.163567691047
 20
1935.969655114603
 11
6464.489527668228
 21
1932.69374658004
  0
LINE
  5
1AC
100
AcDbEntity
  8
1
  6
CONTINUOUS
 62
           3
100
AcDbLine
 10
6479.663567691047
 20
1930.484827557302
 11
6470.163567691047
 21
1935.969655114603
  0
LINE
  5
1AB
100
AcDbEntity
  8
1
  6
CONTINUOUS
 62
           3
100
AcDbLine
 10
6479.663567691047
 20
1919.5151724427
 11
6479.663567691047
 21
1930.484827557302
  0
LINE
  5
1AA
100
AcDbEntity
  8
1
  6
CONTINUOUS
 62
           3
100
AcDbLine
 10
6470.163567691047
 20
1914.030344885397
 11
6479.663567691047
 21
1919.5151724427
  0
LINE
  5
1A9
100
AcDbEntity
  8
1
  6
CONTINUOUS
 62
           3
100
AcDbLine
 10
6464.489527668236
 20
1917.30625341996
 11
6470.163567691047
 21
1914.030344885397
  0
LINE
  5
1A8
100
AcDbEntity
  8
1
  6
DOT_CENTER
 62
           3
100
AcDbLine
 10
6446.218519558627
 20
1925.0
 11
6487.667695262447
 21
1925.0
  0
LINE
  5
1A7
100
AcDbEntity
  8
1
  6
CONTINUOUS
 62
           3
100
AcDbLine
 10
6459.389214871949
 20
1916.75
 11
6459.389214871949
 21
1917.30625341996
  0
LINE
  5
1A6
100
AcDbEntity
  8
1
  6
CONTINUOUS
 62
           3
100
AcDbLine
 10
6459.389214871949
 20
1916.75
 11
6449.714603906649
 21
1916.75
  0
LINE
  5
1A5
100
AcDbEntity
  8
1
  6
CONTINUOUS
 62
           3
100
AcDbLine
 10
6449.714603906649
 20
1916.75
 11
6449.714603906649
 21
1925.0
  0
LINE
  5
1A4
100
AcDbEntity
  8
1
  6
CONTINUOUS
 62
           3
100
AcDbLine
 10
6449.714603906649
 20
1919.0
 11
6448.868798384468
 21
1919.0
  0
LINE
  5
1A3
100
AcDbEntity
  8
1
  6
CONTINUOUS
 62
           3
100
AcDbLine
 10
6448.868798384468
 20
1917.30625341996
 11
6448.868798384468
 21
1925.0
  0
LINE
  5
1A2
100
AcDbEntity
  8
1
  6
CONTINUOUS
 62
           3
100
AcDbLine
 10
6448.868798384468
 20
1917.30625341996
 11
6448.163567691047
 21
1917.30625341996
  0
LINE
  5
1A1
100
AcDbEntity
  8
1
  6
CONTINUOUS
 62
           3
100
AcDbLine
 10
6447.663567691047
 20
1925.0
 11
6447.663567691047
 21
1917.80625341996
  0
LINE
  5
1A0
100
AcDbEntity
  8
1
  6
CONTINUOUS
 62
           3
100
AcDbLine
 10
6447.663567691047
 20
1932.19374658004
 11
6447.663567691047
 21
1925.0
  0
LINE
  5
19F
100
AcDbEntity
  8
1
  6
CONTINUOUS
 62
           3
100
AcDbLine
 10
6448.163567691047
 20
1932.69374658004
 11
6448.868798384468
 21
1932.69374658004
  0
LINE
  5
19E
100
AcDbEntity
  8
1
  6
CONTINUOUS
 62
           3
100
AcDbLine
 10
6448.868798384468
 20
1925.0
 11
6448.868798384468
 21
1932.69374658004
  0
LINE
  5
19D
100
AcDbEntity
  8
1
  6
CONTINUOUS
 62
           3
100
AcDbLine
 10
6448.868798384468
 20
1931.0
 11
6449.714603906649
 21
1931.0
  0
LINE
  5
19C
100
AcDbEntity
  8
1
  6
CONTINUOUS
 62
           3
100
AcDbLine
 10
6449.714603906649
 20
1933.25
 11
6459.389214871949
 21
1933.25
  0
LINE
  5
19B
100
AcDbEntity
  8
1
  6
CONTINUOUS
 62
           3
100
AcDbLine
 10
6449.714603906649
 20
1925.0
 11
6449.714603906649
 21
1933.25
  0
LINE
  5
19A
100
AcDbEntity
  8
1
  6
CONTINUOUS
 62
           3
100
AcDbLine
 10
6459.389214871949
 20
1932.69374658004
 11
6459.389214871949
 21
1933.25
  0
LINE
  5
199
100
AcDbEntity
  8
1
  6
CONTINUOUS
 62
           3
100
AcDbLine
 10
6459.389214871949
 20
1917.30625341996
 11
6459.389214871949
 21
1932.69374658004
  0
LINE
  5
198
100
AcDbEntity
  8
1
  6
CONTINUOUS
 62
           3
100
AcDbLine
 10
6465.254330418639
 20
1917.30625341996
 11
6465.254330418639
 21
1932.69374658004
  0
LINE
  5
197
100
AcDbEntity
  8
1
  6
CONTINUOUS
 62
           3
100
AcDbLine
 10
6465.254330418639
 20
1917.30625341996
 11
6459.389214871949
 21
1917.30625341996
  0
LINE
  5
196
100
AcDbEntity
  8
1
  6
CONTINUOUS
 62
           3
100
AcDbLine
 10
6465.254330418639
 20
1932.69374658004
 11
6459.389214871949
 21
1932.69374658004
  0
LINE
  5
195
100
AcDbEntity
  8
1
  6
CONTINUOUS
 62
           3
100
AcDbLine
 10
6465.254330418639
 20
1930.871834995069
 11
6470.163567691047
 21
1930.871834995069
  0
LINE
  5
194
100
AcDbEntity
  8
1
  6
DOT_CENTER
 62
           3
100
AcDbLine
 10
6470.163567691047
 20
1938.643555804874
 11
6470.163567691047
 21
1907.508008255125
  0
LINE
  5
193
100
AcDbEntity
  8
1
  6
CONTINUOUS
 62
           3
100
AcDbLine
 10
6470.163567691047
 20
1919.128165004935
 11
6465.254330418639
 21
1919.128165004935
  0
LINE
  5
192
100
AcDbEntity
  8
0
  6
CONTINUOUS
 62
           3
100
AcDbLine
 10
5964.844723494179
 20
1393.116392195192
 11
5965.899996721681
 21
1393.131740391393
  0
LINE
  5
191
100
AcDbEntity
  8
0
  6
CONTINUOUS
 62
           3
100
AcDbLine
 10
5963.903805503281
 20
1393.072016537193
 11
5964.844723494179
 21
1393.116392195192
  0
LINE
  5
190
100
AcDbEntity
  8
0
  6
CONTINUOUS
 62
           3
100
AcDbLine
 10
5963.179205573579
 20
1393.003411590991
 11
5963.903805503281
 21
1393.072016537193
  0
LINE
  5
18F
100
AcDbEntity
  8
0
  6
CONTINUOUS
 62
           3
100
AcDbLine
 10
5962.749445840382
 20
1392.918020486792
 11
5963.179205573579
 21
1393.003411590991
  0
LINE
  5
18E
100
AcDbEntity
  8
0
  6
CONTINUOUS
 62
           3
100
AcDbLine
 10
5962.661097088378
 20
1392.825089394992
 11
5962.749445840382
 21
1392.918020486792
  0
LINE
  5
18D
100
AcDbEntity
  8
0
  6
CONTINUOUS
 62
           3
100
AcDbLine
 10
5962.899996695582
 20
1392.739541828792
 11
5962.661097088378
 21
1392.825089394992
  0
LINE
  5
18C
100
AcDbEntity
  8
0
  6
CONTINUOUS
 62
           3
100
AcDbLine
 10
5969.138896354969
 20
1392.825089394992
 11
5968.899996747769
 21
1392.739541828792
  0
LINE
  5
18B
100
AcDbEntity
  8
0
  6
CONTINUOUS
 62
           3
100
AcDbLine
 10
5969.050547602968
 20
1392.918020486792
 11
5969.138896354969
 21
1392.825089394992
  0
LINE
  5
18A
100
AcDbEntity
  8
0
  6
CONTINUOUS
 62
           3
100
AcDbLine
 10
5968.620787869769
 20
1393.003411590991
 11
5969.050547602968
 21
1392.918020486792
  0
LINE
  5
189
100
AcDbEntity
  8
0
  6
CONTINUOUS
 62
           3
100
AcDbLine
 10
5967.896187940068
 20
1393.072016537193
 11
5968.620787869769
 21
1393.003411590991
  0
LINE
  5
188
100
AcDbEntity
  8
0
  6
CONTINUOUS
 62
           3
100
AcDbLine
 10
5966.95526994918
 20
1393.116392195192
 11
5967.896187940068
 21
1393.072016537193
  0
LINE
  5
187
100
AcDbEntity
  8
0
  6
CONTINUOUS
 62
           3
100
AcDbLine
 10
5965.899996721681
 20
1393.131740391393
 11
5966.95526994918
 21
1393.116392195192
  0
LINE
  5
186
100
AcDbEntity
  8
FORMAT
  6
CONTINUOUS
 62
           3
100
AcDbLine
 10
5962.399996721579
 20
1392.596845102893
 11
5951.89999672159
 21
1392.596845102893
  0
LINE
  5
185
100
AcDbEntity
  8
FORMAT
  6
DOT_CENTER
 62
           3
100
AcDbLine
 10
5965.899996721681
 20
1249.759397252255
 11
5965.899996721681
 21
1725.39439076857
  0
LINE
  5
184
100
AcDbEntity
  8
FORMAT
  6
CONTINUOUS
 62
           3
100
AcDbLine
 10
5969.39999672177
 20
1392.596845102893
 11
5962.399996721579
 21
1392.596845102893
  0
LINE
  5
183
100
AcDbEntity
  8
FORMAT
  6
CONTINUOUS
 62
           3
100
AcDbLine
 10
5979.899996721762
 20
1392.596845102893
 11
5969.39999672177
 21
1392.596845102893
  0
LINE
  5
182
100
AcDbEntity
  8
FORMAT
  6
DOT_CENTER
 62
           3
100
AcDbLine
 10
5890.999996721638
 20
1375.000000000007
 11
5877.39999672175
 21
1375.000000000007
  0
LINE
  5
181
100
AcDbEntity
  8
FORMAT
  6
DOT_CENTER
 62
           3
100
AcDbLine
 10
5890.999996721638
 20
1625.0
 11
5877.39999672175
 21
1625.0
  0
LINE
  5
180
100
AcDbEntity
  8
0
  6
CONTINUOUS
 62
           3
100
AcDbLine
 10
5900.899999106026
 20
1364.999994635815
 11
5885.499999189239
 21
1364.999994635815
  0
LINE
  5
17F
100
AcDbEntity
  8
0
  6
CONTINUOUS
 62
           3
100
AcDbLine
 10
5904.399995023129
 20
1590.000003576231
 11
5904.399995023129
 21
1509.999999776395
  0
LINE
  5
17E
100
AcDbEntity
  8
0
  6
CONTINUOUS
 62
           3
100
AcDbLine
 10
5907.399997377522
 20
1590.000003576231
 11
5904.399995023129
 21
1590.000003576231
  0
LINE
  5
17D
100
AcDbEntity
  8
0
  6
CONTINUOUS
 62
           3
100
AcDbLine
 10
5907.399997377522
 20
1550.000000744964
 11
5907.399997377522
 21
1590.000003576231
  0
LINE
  5
17C
100
AcDbEntity
  8
0
  6
CONTINUOUS
 62
           3
100
AcDbLine
 10
5907.399997377522
 20
1529.999999329481
 11
5907.399997377522
 21
1532.000001519878
  0
LINE
  5
17B
100
AcDbEntity
  8
0
  6
CONTINUOUS
 62
           3
100
AcDbLine
 10
5904.399995023129
 20
1509.999999776395
 11
5905.975189322328
 21
1509.999999776395
  0
LINE
  5
17A
100
AcDbEntity
  8
0
  6
CONTINUOUS
 62
           3
100
AcDbLine
 10
6025.899995380626
 20
1368.000000715314
 11
6025.899995380626
 21
1367.300003767014
  0
LINE
  5
179
100
AcDbEntity
  8
0
  6
CONTINUOUS
 62
           3
100
AcDbLine
 10
6030.899994337319
 20
1364.999994635815
 11
6030.899994337319
 21
1368.000000715314
  0
LINE
  5
178
100
AcDbEntity
  8
0
  6
CONTINUOUS
 62
           3
100
AcDbLine
 10
6030.899994337319
 20
1635.000005364196
 11
6030.899994337319
 21
1631.999999284697
  0
LINE
  5
177
100
AcDbEntity
  8
0
  6
CONTINUOUS
 62
           3
100
AcDbLine
 10
6025.899995380626
 20
1631.999999284697
 11
6025.899995380626
 21
1632.699996232994
  0
LINE
  5
176
100
AcDbEntity
  8
0
  6
CONTINUOUS
 62
           3
100
AcDbLine
 10
5905.89999806272
 20
1631.999999284697
 11
5905.89999806272
 21
1632.699996232994
  0
LINE
  5
175
100
AcDbEntity
  8
0
  6
CONTINUOUS
 62
           3
100
AcDbLine
 10
5900.899999106026
 20
1635.000005364196
 11
5900.899999106026
 21
1631.999999284697
  0
LINE
  5
174
100
AcDbEntity
  8
0
  6
CONTINUOUS
 62
           3
100
AcDbLine
 10
5900.899999106026
 20
1635.000005364196
 11
5885.499999189239
 21
1635.000005364196
  0
LINE
  5
173
100
AcDbEntity
  8
0
  6
CONTINUOUS
 62
           3
100
AcDbLine
 10
5900.899999106026
 20
1364.999994635815
 11
5900.899999106026
 21
1368.000000715314
  0
LINE
  5
172
100
AcDbEntity
  8
0
  6
CONTINUOUS
 62
           3
100
AcDbLine
 10
5905.89999806272
 20
1368.000000715314
 11
5905.89999806272
 21
1367.300003767014
  0
LINE
  5
171
100
AcDbEntity
  8
0
  6
CONTINUOUS
 62
           3
100
AcDbLine
 10
5904.399995023129
 20
1409.99999642378
 11
5904.399995023129
 21
1490.000000223612
  0
LINE
  5
170
100
AcDbEntity
  8
0
  6
CONTINUOUS
 62
           3
100
AcDbLine
 10
5904.399995023129
 20
1490.000000223612
 11
5905.89999806272
 21
1490.000000223612
  0
LINE
  5
16F
100
AcDbEntity
  8
0
  6
CONTINUOUS
 62
           3
100
AcDbLine
 10
5907.399997377522
 20
1431.999996304558
 11
5907.399997377522
 21
1429.999999701962
  0
LINE
  5
16E
100
AcDbEntity
  8
0
  6
CONTINUOUS
 62
           3
100
AcDbLine
 10
5905.975189322328
 20
1409.99999642378
 11
5904.399995023129
 21
1409.99999642378
  0
LINE
  5
16D
100
AcDbEntity
  8
0
  6
CONTINUOUS
 62
           3
100
AcDbLine
 10
6027.39999842023
 20
1590.000003576231
 11
6027.39999842023
 21
1509.999999776395
  0
LINE
  5
16C
100
AcDbEntity
  8
0
  6
CONTINUOUS
 62
           3
100
AcDbLine
 10
6027.39999842023
 20
1509.999999776395
 11
6025.824804121027
 21
1509.999999776395
  0
LINE
  5
16B
100
AcDbEntity
  8
0
  6
CONTINUOUS
 62
           3
100
AcDbLine
 10
6024.39999606613
 20
1550.000000744964
 11
6024.39999606613
 21
1590.000003576231
  0
LINE
  5
16A
100
AcDbEntity
  8
0
  6
CONTINUOUS
 62
           3
100
AcDbLine
 10
6024.39999606613
 20
1529.999999329481
 11
6024.39999606613
 21
1532.000001519878
  0
LINE
  5
169
100
AcDbEntity
  8
0
  6
CONTINUOUS
 62
           3
100
AcDbLine
 10
6024.39999606613
 20
1590.000003576231
 11
6027.39999842023
 21
1590.000003576231
  0
LINE
  5
168
100
AcDbEntity
  8
0
  6
CONTINUOUS
 62
           3
100
AcDbLine
 10
6027.39999842023
 20
1409.99999642378
 11
6027.39999842023
 21
1490.000000223612
  0
LINE
  5
167
100
AcDbEntity
  8
0
  6
CONTINUOUS
 62
           3
100
AcDbLine
 10
6025.824804121027
 20
1409.99999642378
 11
6027.39999842023
 21
1409.99999642378
  0
LINE
  5
166
100
AcDbEntity
  8
0
  6
CONTINUOUS
 62
           3
100
AcDbLine
 10
6024.39999606613
 20
1431.999996304558
 11
6024.39999606613
 21
1429.999999701962
  0
LINE
  5
165
100
AcDbEntity
  8
0
  6
CONTINUOUS
 62
           3
100
AcDbLine
 10
6027.39999842023
 20
1490.000000223612
 11
6025.899995380626
 21
1490.000000223612
  0
LINE
  5
164
100
AcDbEntity
  8
0
  6
CONTINUOUS
 62
           3
100
AcDbLine
 10
5885.499999189239
 20
1635.000005364196
 11
5883.399993443339
 21
1635.000005364196
  0
LINE
  5
163
100
AcDbEntity
  8
0
  6
CONTINUOUS
 62
           3
100
AcDbLine
 10
5883.399993443339
 20
1635.000005364196
 11
5883.399993443339
 21
1364.999994635815
  0
LINE
  5
162
100
AcDbEntity
  8
0
  6
CONTINUOUS
 62
           3
100
AcDbLine
 10
5885.499999189239
 20
1364.999994635815
 11
5883.399993443339
 21
1364.999994635815
  0
LINE
  5
161
100
AcDbEntity
  8
0
  6
CONTINUOUS
 62
           3
100
AcDbLine
 10
5905.89999806272
 20
1366.600006818713
 11
5905.89999806272
 21
1367.300003767014
  0
LINE
  5
160
100
AcDbEntity
  8
0
  6
CONTINUOUS
 62
           3
100
AcDbLine
 10
6025.899995380626
 20
1366.600006818713
 11
6025.899995380626
 21
1367.300003767014
  0
LINE
  5
15F
100
AcDbEntity
  8
0
  6
CONTINUOUS
 62
           3
100
AcDbLine
 10
5905.89999806272
 20
1633.399993180996
 11
5905.89999806272
 21
1632.699996232994
  0
LINE
  5
15E
100
AcDbEntity
  8
0
  6
CONTINUOUS
 62
           3
100
AcDbLine
 10
6025.899995380626
 20
1633.399993180996
 11
6025.899995380626
 21
1632.699996232994
  0
LINE
  5
15D
100
AcDbEntity
  8
0
  6
CONTINUOUS
 62
           3
100
AcDbLine
 10
6020.899996423627
 20
1633.399993180996
 11
6025.899995380626
 21
1633.399993180996
  0
LINE
  5
15C
100
AcDbEntity
  8
0
  6
CONTINUOUS
 62
           3
100
AcDbLine
 10
6025.899995380626
 20
1635.000005364196
 11
6020.899996423627
 21
1635.000005364196
  0
LINE
  5
15B
100
AcDbEntity
  8
0
  6
CONTINUOUS
 62
           3
100
AcDbLine
 10
6025.899995380626
 20
1633.399993180996
 11
6025.899995380626
 21
1635.000005364196
  0
LINE
  5
15A
100
AcDbEntity
  8
0
  6
CONTINUOUS
 62
           3
100
AcDbLine
 10
6020.899996423627
 20
1366.600006818713
 11
6025.899995380626
 21
1366.600006818713
  0
LINE
  5
159
100
AcDbEntity
  8
0
  6
CONTINUOUS
 62
           3
100
AcDbLine
 10
6025.899995380626
 20
1364.999994635815
 11
6020.899996423627
 21
1364.999994635815
  0
LINE
  5
158
100
AcDbEntity
  8
0
  6
CONTINUOUS
 62
           3
100
AcDbLine
 10
6025.899995380626
 20
1366.600006818713
 11
6025.899995380626
 21
1364.999994635815
  0
LINE
  5
157
100
AcDbEntity
  8
0
  6
CONTINUOUS
 62
           3
100
AcDbLine
 10
6010.899998509637
 20
1366.600006818713
 11
6012.899995112239
 21
1366.600006818713
  0
LINE
  5
156
100
AcDbEntity
  8
0
  6
CONTINUOUS
 62
           3
100
AcDbLine
 10
6012.899995112239
 20
1364.999994635815
 11
6010.899998509637
 21
1364.999994635815
  0
LINE
  5
155
100
AcDbEntity
  8
0
  6
CONTINUOUS
 62
           3
100
AcDbLine
 10
6012.899995112239
 20
1366.600006818713
 11
6012.899995112239
 21
1364.999994635815
  0
LINE
  5
154
100
AcDbEntity
  8
0
  6
CONTINUOUS
 62
           3
100
AcDbLine
 10
6010.899998509637
 20
1633.399993180996
 11
6012.899995112239
 21
1633.399993180996
  0
LINE
  5
153
100
AcDbEntity
  8
0
  6
CONTINUOUS
 62
           3
100
AcDbLine
 10
6012.899995112239
 20
1635.000005364196
 11
6010.899998509637
 21
1635.000005364196
  0
LINE
  5
152
100
AcDbEntity
  8
0
  6
CONTINUOUS
 62
           3
100
AcDbLine
 10
6012.899995112239
 20
1633.399993180996
 11
6012.899995112239
 21
1635.000005364196
  0
LINE
  5
151
100
AcDbEntity
  8
0
  6
CONTINUOUS
 62
           3
100
AcDbLine
 10
6018.899996095925
 20
1366.600006818713
 11
6020.899996423627
 21
1366.600006818713
  0
LINE
  5
150
100
AcDbEntity
  8
0
  6
CONTINUOUS
 62
           3
100
AcDbLine
 10
6020.899996423627
 20
1364.999994635815
 11
6018.899996095925
 21
1364.999994635815
  0
LINE
  5
14F
100
AcDbEntity
  8
0
  6
CONTINUOUS
 62
           3
100
AcDbLine
 10
6018.899996095925
 20
1364.999994635815
 11
6018.899996095925
 21
1366.600006818713
  0
LINE
  5
14E
100
AcDbEntity
  8
0
  6
CONTINUOUS
 62
           3
100
AcDbLine
 10
6018.899996095925
 20
1633.399993180996
 11
6020.899996423627
 21
1633.399993180996
  0
LINE
  5
14D
100
AcDbEntity
  8
0
  6
CONTINUOUS
 62
           3
100
AcDbLine
 10
6020.899996423627
 20
1635.000005364196
 11
6018.899996095925
 21
1635.000005364196
  0
LINE
  5
14C
100
AcDbEntity
  8
0
  6
CONTINUOUS
 62
           3
100
AcDbLine
 10
6018.899996095925
 20
1635.000005364196
 11
6018.899996095925
 21
1633.399993180996
  0
LINE
  5
14B
100
AcDbEntity
  8
0
  6
CONTINUOUS
 62
           3
100
AcDbLine
 10
5910.899997019717
 20
1633.399993180996
 11
5905.89999806272
 21
1633.399993180996
  0
LINE
  5
14A
100
AcDbEntity
  8
0
  6
CONTINUOUS
 62
           3
100
AcDbLine
 10
5905.89999806272
 20
1635.000005364196
 11
5910.899997019717
 21
1635.000005364196
  0
LINE
  5
149
100
AcDbEntity
  8
0
  6
CONTINUOUS
 62
           3
100
AcDbLine
 10
5905.89999806272
 20
1633.399993180996
 11
5905.89999806272
 21
1635.000005364196
  0
LINE
  5
148
100
AcDbEntity
  8
0
  6
CONTINUOUS
 62
           3
100
AcDbLine
 10
5910.899997019717
 20
1366.600006818713
 11
5905.89999806272
 21
1366.600006818713
  0
LINE
  5
147
100
AcDbEntity
  8
0
  6
CONTINUOUS
 62
           3
100
AcDbLine
 10
5905.89999806272
 20
1364.999994635815
 11
5910.899997019717
 21
1364.999994635815
  0
LINE
  5
146
100
AcDbEntity
  8
0
  6
CONTINUOUS
 62
           3
100
AcDbLine
 10
5905.89999806272
 20
1366.600006818713
 11
5905.89999806272
 21
1364.999994635815
  0
LINE
  5
145
100
AcDbEntity
  8
0
  6
CONTINUOUS
 62
           3
100
AcDbLine
 10
5920.899994933709
 20
1633.399993180996
 11
6010.899998509637
 21
1633.399993180996
  0
LINE
  5
144
100
AcDbEntity
  8
0
  6
CONTINUOUS
 62
           3
100
AcDbLine
 10
5920.899994933709
 20
1635.000005364196
 11
6010.899998509637
 21
1635.000005364196
  0
LINE
  5
143
100
AcDbEntity
  8
0
  6
CONTINUOUS
 62
           3
100
AcDbLine
 10
5920.899994933709
 20
1366.600006818713
 11
6010.899998509637
 21
1366.600006818713
  0
LINE
  5
142
100
AcDbEntity
  8
0
  6
CONTINUOUS
 62
           3
100
AcDbLine
 10
5920.899994933709
 20
1364.999994635815
 11
6010.899998509637
 21
1364.999994635815
  0
LINE
  5
141
100
AcDbEntity
  8
0
  6
CONTINUOUS
 62
           3
100
AcDbLine
 10
5920.899994933709
 20
1366.600006818713
 11
5918.899998331109
 21
1366.600006818713
  0
LINE
  5
140
100
AcDbEntity
  8
0
  6
CONTINUOUS
 62
           3
100
AcDbLine
 10
5918.899998331109
 20
1366.600006818713
 11
5918.899998331109
 21
1364.999994635815
  0
LINE
  5
13F
100
AcDbEntity
  8
0
  6
CONTINUOUS
 62
           3
100
AcDbLine
 10
5918.899998331109
 20
1364.999994635815
 11
5920.899994933709
 21
1364.999994635815
  0
LINE
  5
13E
100
AcDbEntity
  8
0
  6
CONTINUOUS
 62
           3
100
AcDbLine
 10
5920.899994933709
 20
1633.399993180996
 11
5918.899998331109
 21
1633.399993180996
  0
LINE
  5
13D
100
AcDbEntity
  8
0
  6
CONTINUOUS
 62
           3
100
AcDbLine
 10
5918.899998331109
 20
1635.000005364196
 11
5920.899994933709
 21
1635.000005364196
  0
LINE
  5
13C
100
AcDbEntity
  8
0
  6
CONTINUOUS
 62
           3
100
AcDbLine
 10
5918.899998331109
 20
1633.399993180996
 11
5918.899998331109
 21
1635.000005364196
  0
LINE
  5
13B
100
AcDbEntity
  8
0
  6
CONTINUOUS
 62
           3
100
AcDbLine
 10
5912.899997347719
 20
1633.399993180996
 11
5910.899997019717
 21
1633.399993180996
  0
LINE
  5
13A
100
AcDbEntity
  8
0
  6
CONTINUOUS
 62
           3
100
AcDbLine
 10
5912.899997347719
 20
1635.000005364196
 11
5912.899997347719
 21
1633.399993180996
  0
LINE
  5
139
100
AcDbEntity
  8
0
  6
CONTINUOUS
 62
           3
100
AcDbLine
 10
5910.899997019717
 20
1635.000005364196
 11
5912.899997347719
 21
1635.000005364196
  0
LINE
  5
138
100
AcDbEntity
  8
0
  6
CONTINUOUS
 62
           3
100
AcDbLine
 10
5912.899997347719
 20
1366.600006818713
 11
5910.899997019717
 21
1366.600006818713
  0
LINE
  5
137
100
AcDbEntity
  8
0
  6
CONTINUOUS
 62
           3
100
AcDbLine
 10
5910.899997019717
 20
1364.999994635815
 11
5912.899997347719
 21
1364.999994635815
  0
LINE
  5
136
100
AcDbEntity
  8
0
  6
CONTINUOUS
 62
           3
100
AcDbLine
 10
5912.899997347719
 20
1364.999994635815
 11
5912.899997347719
 21
1366.600006818713
  0
LINE
  5
135
100
AcDbEntity
  8
0
  6
CONTINUOUS
 62
           3
100
AcDbLine
 10
6025.824804121027
 20
1409.99999642378
 11
6024.19999640563
 21
1409.99999642378
  0
LINE
  5
134
100
AcDbEntity
  8
0
  6
CONTINUOUS
 62
           3
100
AcDbLine
 10
6024.19999640563
 20
1429.999999701962
 11
6025.899995380626
 21
1429.999999701962
  0
LINE
  5
133
100
AcDbEntity
  8
0
  6
CONTINUOUS
 62
           3
100
AcDbLine
 10
6025.899995380626
 20
1429.999999701962
 11
6025.899995380626
 21
1409.99999642378
  0
LINE
  5
132
100
AcDbEntity
  8
0
  6
CONTINUOUS
 62
           3
100
AcDbLine
 10
5905.89999806272
 20
1529.999999329481
 11
5907.599997037721
 21
1529.999999329481
  0
LINE
  5
131
100
AcDbEntity
  8
0
  6
CONTINUOUS
 62
           3
100
AcDbLine
 10
5905.89999806272
 20
1509.999999776395
 11
5905.89999806272
 21
1529.999999329481
  0
LINE
  5
130
100
AcDbEntity
  8
0
  6
CONTINUOUS
 62
           3
100
AcDbLine
 10
5907.599997037721
 20
1509.999999776395
 11
5905.975189322328
 21
1509.999999776395
  0
LINE
  5
12F
100
AcDbEntity
  8
0
  6
CONTINUOUS
 62
           3
100
AcDbLine
 10
5905.975189322328
 20
1409.99999642378
 11
5907.599997037721
 21
1409.99999642378
  0
LINE
  5
12E
100
AcDbEntity
  8
0
  6
CONTINUOUS
 62
           3
100
AcDbLine
 10
5907.599997037721
 20
1429.999999701962
 11
5905.89999806272
 21
1429.999999701962
  0
LINE
  5
12D
100
AcDbEntity
  8
0
  6
CONTINUOUS
 62
           3
100
AcDbLine
 10
5905.89999806272
 20
1429.999999701962
 11
5905.89999806272
 21
1409.99999642378
  0
LINE
  5
12C
100
AcDbEntity
  8
0
  6
CONTINUOUS
 62
           3
100
AcDbLine
 10
5907.599997037721
 20
1529.999999329481
 11
5907.89999839072
 21
1529.999999329481
  0
LINE
  5
12B
100
AcDbEntity
  8
0
  6
CONTINUOUS
 62
           3
100
AcDbLine
 10
5907.89999839072
 20
1509.999999776395
 11
5907.599997037721
 21
1509.999999776395
  0
LINE
  5
12A
100
AcDbEntity
  8
0
  6
CONTINUOUS
 62
           3
100
AcDbLine
 10
5905.89999806272
 20
1508.0000003799
 11
5907.89999839072
 21
1508.0000003799
  0
LINE
  5
129
100
AcDbEntity
  8
0
  6
CONTINUOUS
 62
           3
100
AcDbLine
 10
5905.89999806272
 20
1508.0000003799
 11
5905.89999806272
 21
1431.999996304558
  0
LINE
  5
128
100
AcDbEntity
  8
0
  6
CONTINUOUS
 62
           3
100
AcDbLine
 10
5905.89999806272
 20
1431.999996304558
 11
5907.89999839072
 21
1431.999996304558
  0
LINE
  5
127
100
AcDbEntity
  8
0
  6
CONTINUOUS
 62
           3
100
AcDbLine
 10
5907.89999839072
 20
1429.999999701962
 11
5907.599997037721
 21
1429.999999701962
  0
LINE
  5
126
100
AcDbEntity
  8
0
  6
CONTINUOUS
 62
           3
100
AcDbLine
 10
5907.599997037721
 20
1409.99999642378
 11
5907.89999839072
 21
1409.99999642378
  0
LINE
  5
125
100
AcDbEntity
  8
0
  6
CONTINUOUS
 62
           3
100
AcDbLine
 10
5907.89999839072
 20
1407.999999821182
 11
5905.89999806272
 21
1407.999999821182
  0
LINE
  5
124
100
AcDbEntity
  8
0
  6
CONTINUOUS
 62
           3
100
AcDbLine
 10
5905.89999806272
 20
1391.699999570792
 11
5905.89999806272
 21
1407.999999821182
  0
LINE
  5
123
100
AcDbEntity
  8
0
  6
CONTINUOUS
 62
           3
100
AcDbLine
 10
6025.899995380626
 20
1391.699999570792
 11
6025.899995380626
 21
1407.999999821182
  0
LINE
  5
122
100
AcDbEntity
  8
0
  6
CONTINUOUS
 62
           3
100
AcDbLine
 10
6023.899995052628
 20
1407.999999821182
 11
6025.899995380626
 21
1407.999999821182
  0
LINE
  5
121
100
AcDbEntity
  8
0
  6
CONTINUOUS
 62
           3
100
AcDbLine
 10
6024.19999640563
 20
1409.99999642378
 11
6023.899995052628
 21
1409.99999642378
  0
LINE
  5
120
100
AcDbEntity
  8
0
  6
CONTINUOUS
 62
           3
100
AcDbLine
 10
6023.899995052628
 20
1429.999999701962
 11
6024.19999640563
 21
1429.999999701962
  0
LINE
  5
11F
100
AcDbEntity
  8
0
  6
CONTINUOUS
 62
           3
100
AcDbLine
 10
6025.899995380626
 20
1431.999996304558
 11
6023.899995052628
 21
1431.999996304558
  0
LINE
  5
11E
100
AcDbEntity
  8
0
  6
CONTINUOUS
 62
           3
100
AcDbLine
 10
6025.899995380626
 20
1508.0000003799
 11
6025.899995380626
 21
1431.999996304558
  0
LINE
  5
11D
100
AcDbEntity
  8
0
  6
CONTINUOUS
 62
           3
100
AcDbLine
 10
6025.899995380626
 20
1508.0000003799
 11
6023.899995052628
 21
1508.0000003799
  0
LINE
  5
11C
100
AcDbEntity
  8
0
  6
CONTINUOUS
 62
           3
100
AcDbLine
 10
6023.899995052628
 20
1509.999999776395
 11
6024.19999640563
 21
1509.999999776395
  0
LINE
  5
11B
100
AcDbEntity
  8
0
  6
CONTINUOUS
 62
           3
100
AcDbLine
 10
6024.19999640563
 20
1529.999999329481
 11
6023.899995052628
 21
1529.999999329481
  0
LINE
  5
11A
100
AcDbEntity
  8
0
  6
CONTINUOUS
 62
           3
100
AcDbLine
 10
6023.899995052628
 20
1532.000001519878
 11
6025.899995380626
 21
1532.000001519878
  0
LINE
  5
119
100
AcDbEntity
  8
0
  6
CONTINUOUS
 62
           3
100
AcDbLine
 10
6025.899995380626
 20
1548.300001770265
 11
6025.899995380626
 21
1532.000001519878
  0
LINE
  5
118
100
AcDbEntity
  8
0
  6
CONTINUOUS
 62
           3
100
AcDbLine
 10
5905.89999806272
 20
1548.300001770265
 11
5905.89999806272
 21
1532.000001519878
  0
LINE
  5
117
100
AcDbEntity
  8
0
  6
CONTINUOUS
 62
           3
100
AcDbLine
 10
5907.89999839072
 20
1532.000001519878
 11
5905.89999806272
 21
1532.000001519878
  0
LINE
  5
116
100
AcDbEntity
  8
0
  6
CONTINUOUS
 62
           3
100
AcDbLine
 10
6024.19999640563
 20
1509.999999776395
 11
6025.824804121027
 21
1509.999999776395
  0
LINE
  5
115
100
AcDbEntity
  8
0
  6
CONTINUOUS
 62
           3
100
AcDbLine
 10
6025.899995380626
 20
1509.999999776395
 11
6025.899995380626
 21
1529.999999329481
  0
LINE
  5
114
100
AcDbEntity
  8
0
  6
CONTINUOUS
 62
           3
100
AcDbLine
 10
6025.899995380626
 20
1529.999999329481
 11
6024.19999640563
 21
1529.999999329481
  0
LINE
  5
113
100
AcDbEntity
  8
0
  6
CONTINUOUS
 62
           3
100
AcDbLine
 10
6025.899995380626
 20
1548.799999058065
 11
6025.899995380626
 21
1548.300001770265
  0
LINE
  5
112
100
AcDbEntity
  8
0
  6
CONTINUOUS
 62
           3
100
AcDbLine
 10
5905.89999806272
 20
1548.799999058065
 11
5905.89999806272
 21
1548.300001770265
  0
LINE
  5
111
100
AcDbEntity
  8
0
  6
CONTINUOUS
 62
           3
100
AcDbLine
 10
5905.89999806272
 20
1391.199998557593
 11
5905.89999806272
 21
1391.699999570792
  0
LINE
  5
110
100
AcDbEntity
  8
0
  6
CONTINUOUS
 62
           3
100
AcDbLine
 10
6025.899995380626
 20
1391.199998557593
 11
6025.899995380626
 21
1391.699999570792
  0
LINE
  5
10F
100
AcDbEntity
  8
0
  6
CONTINUOUS
 62
           3
100
AcDbLine
 10
5968.899996747769
 20
1550.000000744964
 11
5969.149996788769
 21
1550.000000744964
  0
LINE
  5
10E
100
AcDbEntity
  8
0
  6
CONTINUOUS
 62
           3
100
AcDbLine
 10
5962.649996654582
 20
1550.000000744964
 11
5962.899996695582
 21
1550.000000744964
  0
LINE
  5
10D
100
AcDbEntity
  8
0
  6
CONTINUOUS
 62
           3
100
AcDbLine
 10
5968.899996747769
 20
1548.799999058065
 11
5969.149996788769
 21
1548.799999058065
  0
LINE
  5
10C
100
AcDbEntity
  8
0
  6
CONTINUOUS
 62
           3
100
AcDbLine
 10
5962.649996654582
 20
1548.799999058065
 11
5962.899996695582
 21
1548.799999058065
  0
LINE
  5
10B
100
AcDbEntity
  8
0
  6
CONTINUOUS
 62
           3
100
AcDbLine
 10
5962.899996695582
 20
1391.199998557593
 11
5962.649996654582
 21
1391.199998557593
  0
LINE
  5
10A
100
AcDbEntity
  8
0
  6
CONTINUOUS
 62
           3
100
AcDbLine
 10
5969.149996788769
 20
1391.199998557593
 11
5968.899996747769
 21
1391.199998557593
  0
LINE
  5
109
100
AcDbEntity
  8
0
  6
CONTINUOUS
 62
           3
100
AcDbLine
 10
5910.899997019717
 20
1391.199998557593
 11
5905.89999806272
 21
1391.199998557593
  0
LINE
  5
108
100
AcDbEntity
  8
0
  6
CONTINUOUS
 62
           3
100
AcDbLine
 10
5905.89999806272
 20
1390.000000596097
 11
5910.899997019717
 21
1390.000000596097
  0
LINE
  5
107
100
AcDbEntity
  8
0
  6
CONTINUOUS
 62
           3
100
AcDbLine
 10
5905.89999806272
 20
1391.199998557593
 11
5905.89999806272
 21
1390.000000596097
  0
LINE
  5
106
100
AcDbEntity
  8
0
  6
CONTINUOUS
 62
           3
100
AcDbLine
 10
5905.89999806272
 20
1550.000000744964
 11
5910.899997019717
 21
1550.000000744964
  0
LINE
  5
105
100
AcDbEntity
  8
0
  6
CONTINUOUS
 62
           3
100
AcDbLine
 10
5910.899997019717
 20
1548.799999058065
 11
5905.89999806272
 21
1548.799999058065
  0
LINE
  5
104
100
AcDbEntity
  8
0
  6
CONTINUOUS
 62
           3
100
AcDbLine
 10
5905.89999806272
 20
1548.799999058065
 11
5905.89999806272
 21
1550.000000744964
  0
LINE
  5
103
100
AcDbEntity
  8
0
  6
CONTINUOUS
 62
           3
100
AcDbLine
 10
6010.899998509637
 20
1550.000000744964
 11
5995.899996051149
 21
1550.000000744964
  0
LINE
  5
102
100
AcDbEntity
  8
0
  6
CONTINUOUS
 62
           3
100
AcDbLine
 10
6010.899998509637
 20
1548.799999058065
 11
5995.899996051149
 21
1548.799999058065
  0
LINE
  5
101
100
AcDbEntity
  8
0
  6
CONTINUOUS
 62
           3
100
AcDbLine
 10
6025.899995380626
 20
1550.000000744964
 11
6020.899996423627
 21
1550.000000744964
  0
LINE
  5
100
100
AcDbEntity
  8
0
  6
CONTINUOUS
 62
           3
100
AcDbLine
 10
6020.899996423627
 20
1548.799999058065
 11
6025.899995380626
 21
1548.799999058065
  0
LINE
  5
FF
100
AcDbEntity
  8
0
  6
CONTINUOUS
 62
           3
100
AcDbLine
 10
6025.899995380626
 20
1548.799999058065
 11
6025.899995380626
 21
1550.000000744964
  0
LINE
  5
FE
100
AcDbEntity
  8
0
  6
CONTINUOUS
 62
           3
100
AcDbLine
 10
6010.899998509637
 20
1391.199998557593
 11
5995.899996051149
 21
1391.199998557593
  0
LINE
  5
FD
100
AcDbEntity
  8
0
  6
CONTINUOUS
 62
           3
100
AcDbLine
 10
6010.899998509637
 20
1390.000000596097
 11
5995.899996051149
 21
1390.000000596097
  0
LINE
  5
FC
100
AcDbEntity
  8
0
  6
CONTINUOUS
 62
           3
100
AcDbLine
 10
5920.899994933709
 20
1550.000000744964
 11
5935.899997392196
 21
1550.000000744964
  0
LINE
  5
FB
100
AcDbEntity
  8
0
  6
CONTINUOUS
 62
           3
100
AcDbLine
 10
5920.899994933709
 20
1548.799999058065
 11
5935.899997392196
 21
1548.799999058065
  0
LINE
  5
FA
100
AcDbEntity
  8
0
  6
CONTINUOUS
 62
           3
100
AcDbLine
 10
6020.899996423627
 20
1391.199998557593
 11
6025.899995380626
 21
1391.199998557593
  0
LINE
  5
F9
100
AcDbEntity
  8
0
  6
CONTINUOUS
 62
           3
100
AcDbLine
 10
6025.899995380626
 20
1390.000000596097
 11
6020.899996423627
 21
1390.000000596097
  0
LINE
  5
F8
100
AcDbEntity
  8
0
  6
CONTINUOUS
 62
           3
100
AcDbLine
 10
6025.899995380626
 20
1391.199998557593
 11
6025.899995380626
 21
1390.000000596097
  0
LINE
  5
F7
100
AcDbEntity
  8
0
  6
CONTINUOUS
 62
           3
100
AcDbLine
 10
5920.899994933709
 20
1391.199998557593
 11
5935.899997392196
 21
1391.199998557593
  0
LINE
  5
F6
100
AcDbEntity
  8
0
  6
CONTINUOUS
 62
           3
100
AcDbLine
 10
5920.899994933709
 20
1390.000000596097
 11
5935.899997392196
 21
1390.000000596097
  0
LINE
  5
F5
100
AcDbEntity
  8
0
  6
CONTINUOUS
 62
           3
100
AcDbLine
 10
5918.899998331109
 20
1550.000000744964
 11
5920.899994933709
 21
1550.000000744964
  0
LINE
  5
F4
100
AcDbEntity
  8
0
  6
CONTINUOUS
 62
           3
100
AcDbLine
 10
5920.899994933709
 20
1548.799999058065
 11
5918.899998331109
 21
1548.799999058065
  0
LINE
  5
F3
100
AcDbEntity
  8
0
  6
CONTINUOUS
 62
           3
100
AcDbLine
 10
5918.899998331109
 20
1548.799999058065
 11
5918.899998331109
 21
1550.000000744964
  0
LINE
  5
F2
100
AcDbEntity
  8
0
  6
CONTINUOUS
 62
           3
100
AcDbLine
 10
5910.899997019717
 20
1550.000000744964
 11
5912.899997347719
 21
1550.000000744964
  0
LINE
  5
F1
100
AcDbEntity
  8
0
  6
CONTINUOUS
 62
           3
100
AcDbLine
 10
5912.899997347719
 20
1548.799999058065
 11
5910.899997019717
 21
1548.799999058065
  0
LINE
  5
F0
100
AcDbEntity
  8
0
  6
CONTINUOUS
 62
           3
100
AcDbLine
 10
5912.899997347719
 20
1550.000000744964
 11
5912.899997347719
 21
1548.799999058065
  0
LINE
  5
EF
100
AcDbEntity
  8
0
  6
CONTINUOUS
 62
           3
100
AcDbLine
 10
6010.899998509637
 20
1391.199998557593
 11
6012.899995112239
 21
1391.199998557593
  0
LINE
  5
EE
100
AcDbEntity
  8
0
  6
CONTINUOUS
 62
           3
100
AcDbLine
 10
6012.899995112239
 20
1390.000000596097
 11
6010.899998509637
 21
1390.000000596097
  0
LINE
  5
ED
100
AcDbEntity
  8
0
  6
CONTINUOUS
 62
           3
100
AcDbLine
 10
6012.899995112239
 20
1391.199998557593
 11
6012.899995112239
 21
1390.000000596097
  0
LINE
  5
EC
100
AcDbEntity
  8
0
  6
CONTINUOUS
 62
           3
100
AcDbLine
 10
6018.899996095925
 20
1391.199998557593
 11
6020.899996423627
 21
1391.199998557593
  0
LINE
  5
EB
100
AcDbEntity
  8
0
  6
CONTINUOUS
 62
           3
100
AcDbLine
 10
6020.899996423627
 20
1390.000000596097
 11
6018.899996095925
 21
1390.000000596097
  0
LINE
  5
EA
100
AcDbEntity
  8
0
  6
CONTINUOUS
 62
           3
100
AcDbLine
 10
6018.899996095925
 20
1390.000000596097
 11
6018.899996095925
 21
1391.199998557593
  0
LINE
  5
E9
100
AcDbEntity
  8
0
  6
CONTINUOUS
 62
           3
100
AcDbLine
 10
6012.899995112239
 20
1550.000000744964
 11
6010.899998509637
 21
1550.000000744964
  0
LINE
  5
E8
100
AcDbEntity
  8
0
  6
CONTINUOUS
 62
           3
100
AcDbLine
 10
6010.899998509637
 20
1548.799999058065
 11
6012.899995112239
 21
1548.799999058065
  0
LINE
  5
E7
100
AcDbEntity
  8
0
  6
CONTINUOUS
 62
           3
100
AcDbLine
 10
6012.899995112239
 20
1548.799999058065
 11
6012.899995112239
 21
1550.000000744964
  0
LINE
  5
E6
100
AcDbEntity
  8
0
  6
CONTINUOUS
 62
           3
100
AcDbLine
 10
6020.899996423627
 20
1550.000000744964
 11
6018.899996095925
 21
1550.000000744964
  0
LINE
  5
E5
100
AcDbEntity
  8
0
  6
CONTINUOUS
 62
           3
100
AcDbLine
 10
6018.899996095925
 20
1548.799999058065
 11
6020.899996423627
 21
1548.799999058065
  0
LINE
  5
E4
100
AcDbEntity
  8
0
  6
CONTINUOUS
 62
           3
100
AcDbLine
 10
6018.899996095925
 20
1550.000000744964
 11
6018.899996095925
 21
1548.799999058065
  0
LINE
  5
E3
100
AcDbEntity
  8
0
  6
CONTINUOUS
 62
           3
100
AcDbLine
 10
5920.899994933709
 20
1391.199998557593
 11
5918.899998331109
 21
1391.199998557593
  0
LINE
  5
E2
100
AcDbEntity
  8
0
  6
CONTINUOUS
 62
           3
100
AcDbLine
 10
5918.899998331109
 20
1390.000000596097
 11
5920.899994933709
 21
1390.000000596097
  0
LINE
  5
E1
100
AcDbEntity
  8
0
  6
CONTINUOUS
 62
           3
100
AcDbLine
 10
5918.899998331109
 20
1391.199998557593
 11
5918.899998331109
 21
1390.000000596097
  0
LINE
  5
E0
100
AcDbEntity
  8
0
  6
CONTINUOUS
 62
           3
100
AcDbLine
 10
5912.899997347719
 20
1391.199998557593
 11
5910.899997019717
 21
1391.199998557593
  0
LINE
  5
DF
100
AcDbEntity
  8
0
  6
CONTINUOUS
 62
           3
100
AcDbLine
 10
5910.899997019717
 20
1390.000000596097
 11
5912.899997347719
 21
1390.000000596097
  0
LINE
  5
DE
100
AcDbEntity
  8
0
  6
CONTINUOUS
 62
           3
100
AcDbLine
 10
5912.899997347719
 20
1390.000000596097
 11
5912.899997347719
 21
1391.199998557593
  0
LINE
  5
DD
100
AcDbEntity
  8
0
  6
CONTINUOUS
 62
           3
100
AcDbLine
 10
5962.399996613582
 20
1391.199998557593
 11
5962.649996654582
 21
1391.199998557593
  0
LINE
  5
DC
100
AcDbEntity
  8
0
  6
CONTINUOUS
 62
           3
100
AcDbLine
 10
5962.649996654582
 20
1391.199998557593
 11
5962.649996654582
 21
1390.000000596097
  0
LINE
  5
DB
100
AcDbEntity
  8
0
  6
CONTINUOUS
 62
           3
100
AcDbLine
 10
5995.899996051149
 20
1391.199998557593
 11
5985.899996274759
 21
1391.199998557593
  0
LINE
  5
DA
100
AcDbEntity
  8
0
  6
CONTINUOUS
 62
           3
100
AcDbLine
 10
5995.899996051149
 20
1390.000000596097
 11
5985.899996274759
 21
1390.000000596097
  0
LINE
  5
D9
100
AcDbEntity
  8
0
  6
CONTINUOUS
 62
           3
100
AcDbLine
 10
5995.899996051149
 20
1391.199998557593
 11
5995.899996051149
 21
1390.000000596097
  0
LINE
  5
D8
100
AcDbEntity
  8
0
  6
CONTINUOUS
 62
           3
100
AcDbLine
 10
5960.649996792478
 20
1550.000000744964
 11
5962.649996654582
 21
1550.000000744964
  0
LINE
  5
D7
100
AcDbEntity
  8
0
  6
CONTINUOUS
 62
           3
100
AcDbLine
 10
5962.649996654582
 20
1548.799999058065
 11
5960.649996792478
 21
1548.799999058065
  0
LINE
  5
D6
100
AcDbEntity
  8
0
  6
CONTINUOUS
 62
           3
100
AcDbLine
 10
5962.649996654582
 20
1550.000000744964
 11
5962.649996654582
 21
1548.799999058065
  0
LINE
  5
D5
100
AcDbEntity
  8
0
  6
CONTINUOUS
 62
           3
100
AcDbLine
 10
5973.899997101568
 20
1391.199998557593
 11
5985.899996274759
 21
1391.199998557593
  0
LINE
  5
D4
100
AcDbEntity
  8
0
  6
CONTINUOUS
 62
           3
100
AcDbLine
 10
5973.899997101568
 20
1390.000000596097
 11
5985.899996274759
 21
1390.000000596097
  0
LINE
  5
D3
100
AcDbEntity
  8
0
  6
CONTINUOUS
 62
           3
100
AcDbLine
 10
5985.899996274759
 20
1391.199998557593
 11
5985.899996274759
 21
1390.000000596097
  0
LINE
  5
D2
100
AcDbEntity
  8
0
  6
CONTINUOUS
 62
           3
100
AcDbLine
 10
5935.899997392196
 20
1391.199998557593
 11
5945.899997168592
 21
1391.199998557593
  0
LINE
  5
D1
100
AcDbEntity
  8
0
  6
CONTINUOUS
 62
           3
100
AcDbLine
 10
5935.899997392196
 20
1390.000000596097
 11
5945.899997168592
 21
1390.000000596097
  0
LINE
  5
D0
100
AcDbEntity
  8
0
  6
CONTINUOUS
 62
           3
100
AcDbLine
 10
5935.899997392196
 20
1391.199998557593
 11
5935.899997392196
 21
1390.000000596097
  0
LINE
  5
CF
100
AcDbEntity
  8
0
  6
CONTINUOUS
 62
           3
100
AcDbLine
 10
5969.149996788769
 20
1550.000000744964
 11
5971.149996650871
 21
1550.000000744964
  0
LINE
  5
CE
100
AcDbEntity
  8
0
  6
CONTINUOUS
 62
           3
100
AcDbLine
 10
5971.149996650871
 20
1548.799999058065
 11
5969.149996788769
 21
1548.799999058065
  0
LINE
  5
CD
100
AcDbEntity
  8
0
  6
CONTINUOUS
 62
           3
100
AcDbLine
 10
5969.149996788769
 20
1548.799999058065
 11
5969.149996788769
 21
1550.000000744964
  0
LINE
  5
CC
100
AcDbEntity
  8
0
  6
CONTINUOUS
 62
           3
100
AcDbLine
 10
5995.899996051149
 20
1550.000000744964
 11
5985.899996274759
 21
1550.000000744964
  0
LINE
  5
CB
100
AcDbEntity
  8
0
  6
CONTINUOUS
 62
           3
100
AcDbLine
 10
5995.899996051149
 20
1548.799999058065
 11
5985.899996274759
 21
1548.799999058065
  0
LINE
  5
CA
100
AcDbEntity
  8
0
  6
CONTINUOUS
 62
           3
100
AcDbLine
 10
5995.899996051149
 20
1548.799999058065
 11
5995.899996051149
 21
1550.000000744964
  0
LINE
  5
C9
100
AcDbEntity
  8
0
  6
CONTINUOUS
 62
           3
100
AcDbLine
 10
5969.149996788769
 20
1391.199998557593
 11
5969.399996829769
 21
1391.199998557593
  0
LINE
  5
C8
100
AcDbEntity
  8
0
  6
CONTINUOUS
 62
           3
100
AcDbLine
 10
5969.149996788769
 20
1390.000000596097
 11
5969.149996788769
 21
1391.199998557593
  0
LINE
  5
C7
100
AcDbEntity
  8
0
  6
CONTINUOUS
 62
           3
100
AcDbLine
 10
5945.899997168592
 20
1391.199998557593
 11
5957.89999634178
 21
1391.199998557593
  0
LINE
  5
C6
100
AcDbEntity
  8
0
  6
CONTINUOUS
 62
           3
100
AcDbLine
 10
5945.899997168592
 20
1390.000000596097
 11
5957.89999634178
 21
1390.000000596097
  0
LINE
  5
C5
100
AcDbEntity
  8
0
  6
CONTINUOUS
 62
           3
100
AcDbLine
 10
5945.899997168592
 20
1391.199998557593
 11
5945.899997168592
 21
1390.000000596097
  0
LINE
  5
C4
100
AcDbEntity
  8
0
  6
CONTINUOUS
 62
           3
100
AcDbLine
 10
5945.899997168592
 20
1550.000000744964
 11
5960.649996792478
 21
1550.000000744964
  0
LINE
  5
C3
100
AcDbEntity
  8
0
  6
CONTINUOUS
 62
           3
100
AcDbLine
 10
5945.899997168592
 20
1548.799999058065
 11
5960.649996792478
 21
1548.799999058065
  0
LINE
  5
C2
100
AcDbEntity
  8
0
  6
CONTINUOUS
 62
           3
100
AcDbLine
 10
5971.149996650871
 20
1550.000000744964
 11
5985.899996274759
 21
1550.000000744964
  0
LINE
  5
C1
100
AcDbEntity
  8
0
  6
CONTINUOUS
 62
           3
100
AcDbLine
 10
5971.149996650871
 20
1548.799999058065
 11
5985.899996274759
 21
1548.799999058065
  0
LINE
  5
C0
100
AcDbEntity
  8
0
  6
CONTINUOUS
 62
           3
100
AcDbLine
 10
5985.899996274759
 20
1548.799999058065
 11
5985.899996274759
 21
1550.000000744964
  0
LINE
  5
BF
100
AcDbEntity
  8
0
  6
CONTINUOUS
 62
           3
100
AcDbLine
 10
5935.899997392196
 20
1548.799999058065
 11
5935.899997392196
 21
1550.000000744964
  0
LINE
  5
BE
100
AcDbEntity
  8
0
  6
CONTINUOUS
 62
           3
100
AcDbLine
 10
5935.899997392196
 20
1548.799999058065
 11
5945.899997168592
 21
1548.799999058065
  0
LINE
  5
BD
100
AcDbEntity
  8
0
  6
CONTINUOUS
 62
           3
100
AcDbLine
 10
5945.899997168592
 20
1548.799999058065
 11
5945.899997168592
 21
1550.000000744964
  0
LINE
  5
BC
100
AcDbEntity
  8
0
  6
CONTINUOUS
 62
           3
100
AcDbLine
 10
5935.899997392196
 20
1550.000000744964
 11
5945.899997168592
 21
1550.000000744964
  0
LINE
  5
BB
100
AcDbEntity
  8
0
  6
CONTINUOUS
 62
           3
100
AcDbLine
 10
5973.899997101568
 20
1389.200001954996
 11
5973.899997101568
 21
1388.276241719796
  0
LINE
  5
BA
100
AcDbEntity
  8
0
  6
CONTINUOUS
 62
           3
100
AcDbLine
 10
5957.89999634178
 20
1389.200001954996
 11
5957.89999634178
 21
1388.276241719796
  0
LINE
  5
B9
100
AcDbEntity
  8
0
  6
CONTINUOUS
 62
           3
100
AcDbLine
 10
5960.899996833478
 20
1388.276241719796
 11
5957.89999634178
 21
1388.276241719796
  0
LINE
  5
B8
100
AcDbEntity
  8
0
  6
CONTINUOUS
 62
           3
100
AcDbLine
 10
5973.899997101568
 20
1388.276241719796
 11
5970.899996609871
 21
1388.276241719796
  0
LINE
  5
B7
100
AcDbEntity
  8
0
  6
CONTINUOUS
 62
           3
100
AcDbLine
 10
5968.399996665768
 20
1384.1999992729
 11
5970.899996609917
 21
1384.1999992729
  0
LINE
  5
B6
100
AcDbEntity
  8
0
  6
CONTINUOUS
 62
           3
100
AcDbLine
 10
5960.899996833438
 20
1384.1999992729
 11
5963.39999677756
 21
1384.1999992729
  0
LINE
  5
B5
100
AcDbEntity
  8
0
  6
CONTINUOUS
 62
           3
100
AcDbLine
 10
5970.899996609871
 20
1384.646579623302
 11
5970.899996609871
 21
1389.100000262195
  0
LINE
  5
B4
100
AcDbEntity
  8
0
  6
CONTINUOUS
 62
           3
100
AcDbLine
 10
5960.899996833478
 20
1384.646579623302
 11
5960.899996833478
 21
1389.100000262195
  0
LINE
  5
B3
100
AcDbEntity
  8
0
  6
CONTINUOUS
 62
           3
100
AcDbLine
 10
5960.899996833478
 20
1384.646579623302
 11
5963.39999677756
 21
1384.1999992729
  0
LINE
  5
B2
100
AcDbEntity
  8
0
  6
CONTINUOUS
 62
           3
100
AcDbLine
 10
5965.899996721681
 20
1384.646579623295
 11
5965.899996721681
 21
1389.100000262195
  0
LINE
  5
B1
100
AcDbEntity
  8
0
  6
CONTINUOUS
 62
           3
100
AcDbLine
 10
5963.39999677756
 20
1384.1999992729
 11
5968.399996665768
 21
1384.1999992729
  0
LINE
  5
B0
100
AcDbEntity
  8
0
  6
CONTINUOUS
 62
           3
100
AcDbLine
 10
5965.899996721681
 20
1384.646579623295
 11
5968.399996665768
 21
1384.1999992729
  0
LINE
  5
AF
100
AcDbEntity
  8
0
  6
CONTINUOUS
 62
           3
100
AcDbLine
 10
5962.399996613582
 20
1389.200001954996
 11
5969.399996829769
 21
1389.200001954996
  0
LINE
  5
AE
100
AcDbEntity
  8
0
  6
CONTINUOUS
 62
           3
100
AcDbLine
 10
5962.399996613582
 20
1390.000000596097
 11
5969.399996829769
 21
1390.000000596097
  0
LINE
  5
AD
100
AcDbEntity
  8
0
  6
CONTINUOUS
 62
           3
100
AcDbLine
 10
5969.399996829769
 20
1393.990144133491
 11
5962.399996613582
 21
1393.990144133491
  0
LINE
  5
AC
100
AcDbEntity
  8
0
  6
CONTINUOUS
 62
           3
100
AcDbLine
 10
5962.899996695582
 20
1392.246469855294
 11
5962.399996613582
 21
1392.246469855294
  0
LINE
  5
AB
100
AcDbEntity
  8
0
  6
CONTINUOUS
 62
           3
100
AcDbLine
 10
5969.399996829769
 20
1392.246469855294
 11
5968.899996747769
 21
1392.246469855294
  0
LINE
  5
AA
100
AcDbEntity
  8
0
  6
CONTINUOUS
 62
           3
100
AcDbLine
 10
5973.899997101568
 20
1394.799999892894
 11
5973.899997101568
 21
1389.200001954996
  0
LINE
  5
A9
100
AcDbEntity
  8
0
  6
CONTINUOUS
 62
           3
100
AcDbLine
 10
5957.89999634178
 20
1394.799999892894
 11
5957.89999634178
 21
1389.200001954996
  0
LINE
  5
A8
100
AcDbEntity
  8
0
  6
CONTINUOUS
 62
           3
100
AcDbLine
 10
5962.399996613582
 20
1389.200001954996
 11
5962.399996613582
 21
1394.799999892894
  0
LINE
  5
A7
100
AcDbEntity
  8
0
  6
CONTINUOUS
 62
           3
100
AcDbLine
 10
5969.399996829769
 20
1394.799999892894
 11
5969.399996829769
 21
1389.200001954996
  0
LINE
  5
A6
100
AcDbEntity
  8
0
  6
CONTINUOUS
 62
           3
100
AcDbLine
 10
5962.399996613582
 20
1389.200001954996
 11
5957.89999634178
 21
1389.200001954996
  0
LINE
  5
A5
100
AcDbEntity
  8
0
  6
CONTINUOUS
 62
           3
100
AcDbLine
 10
5962.399996613582
 20
1394.792847335491
 11
5969.399996829769
 21
1394.792847335491
  0
LINE
  5
A4
100
AcDbEntity
  8
0
  6
CONTINUOUS
 62
           3
100
AcDbLine
 10
5973.899997101568
 20
1389.200001954996
 11
5969.399996829769
 21
1389.200001954996
  0
LINE
  5
A3
100
AcDbEntity
  8
0
  6
CONTINUOUS
 62
           3
100
AcDbLine
 10
5967.899996816565
 20
1638.422653078993
 11
5963.899996626779
 21
1638.422653078993
  0
LINE
  5
A2
100
AcDbEntity
  8
0
  6
CONTINUOUS
 62
           3
100
AcDbLine
 10
5962.899996695582
 20
1637.422651052293
 11
5968.899996747769
 21
1637.422651052293
  0
LINE
  5
A1
100
AcDbEntity
  8
0
  6
CONTINUOUS
 62
           3
100
AcDbLine
 10
5911.899995321019
 20
1665.000006556369
 11
5915.899995976716
 21
1665.000006556369
  0
LINE
  5
A0
100
AcDbEntity
  8
0
  6
CONTINUOUS
 62
           3
100
AcDbLine
 10
5915.899995976716
 20
1665.000006556369
 11
5919.899996632418
 21
1665.000006556369
  0
LINE
  5
9F
100
AcDbEntity
  8
0
  6
CONTINUOUS
 62
           3
100
AcDbLine
 10
5961.569869687352
 20
1367.599993944255
 11
5960.899996833478
 21
1367.599993944114
  0
LINE
  5
9E
100
AcDbEntity
  8
0
  6
CONTINUOUS
 62
           3
100
AcDbLine
 10
5970.899996609871
 20
1367.599993944114
 11
5970.23012375601
 21
1367.599993944255
  0
LINE
  5
9D
100
AcDbEntity
  8
0
  6
CONTINUOUS
 62
           3
100
AcDbLine
 10
5961.569869687352
 20
1372.600004077041
 11
5960.899996833478
 21
1372.600004077009
  0
LINE
  5
9C
100
AcDbEntity
  8
0
  6
CONTINUOUS
 62
           3
100
AcDbLine
 10
5970.23012375601
 20
1367.599993944255
 11
5965.899996721681
 21
1367.599993944255
  0
LINE
  5
9B
100
AcDbEntity
  8
0
  6
CONTINUOUS
 62
           3
100
AcDbLine
 10
5965.899996721681
 20
1367.599993944255
 11
5961.569869687352
 21
1367.599993944255
  0
LINE
  5
9A
100
AcDbEntity
  8
0
  6
CONTINUOUS
 62
           3
100
AcDbLine
 10
5960.126493853979
 20
1372.153416276109
 11
5960.126493853979
 21
1368.046581745311
  0
LINE
  5
99
100
AcDbEntity
  8
0
  6
CONTINUOUS
 62
           3
100
AcDbLine
 10
5960.126493853979
 20
1368.046581745311
 11
5961.569869687352
 21
1367.599993944255
  0
LINE
  5
98
100
AcDbEntity
  8
0
  6
CONTINUOUS
 62
           3
100
AcDbLine
 10
5963.01324528785
 20
1372.153416276062
 11
5961.569869687352
 21
1372.600004077041
  0
LINE
  5
97
100
AcDbEntity
  8
0
  6
CONTINUOUS
 62
           3
100
AcDbLine
 10
5968.786748155369
 20
1368.046581745311
 11
5970.23012375601
 21
1367.599993944255
  0
LINE
  5
96
100
AcDbEntity
  8
0
  6
CONTINUOUS
 62
           3
100
AcDbLine
 10
5971.67349958937
 20
1372.153416276109
 11
5971.67349958937
 21
1368.046581745311
  0
LINE
  5
95
100
AcDbEntity
  8
0
  6
CONTINUOUS
 62
           3
100
AcDbLine
 10
5971.67349958937
 20
1372.153416276109
 11
5970.23012375601
 21
1372.600004077041
  0
LINE
  5
94
100
AcDbEntity
  8
0
  6
CONTINUOUS
 62
           3
100
AcDbLine
 10
5963.01324528785
 20
1372.153416276062
 11
5963.01324528785
 21
1368.046581745235
  0
LINE
  5
93
100
AcDbEntity
  8
0
  6
CONTINUOUS
 62
           3
100
AcDbLine
 10
5968.786748155508
 20
1372.153416276062
 11
5968.786748155369
 21
1368.046581745311
  0
LINE
  5
92
100
AcDbEntity
  8
0
  6
CONTINUOUS
 62
           3
100
AcDbLine
 10
5970.899996609871
 20
1372.600004077009
 11
5970.23012375601
 21
1372.600004077041
  0
LINE
  5
91
100
AcDbEntity
  8
0
  6
CONTINUOUS
 62
           3
100
AcDbLine
 10
5970.899996609871
 20
1377.599999308603
 11
5970.23012375601
 21
1377.599999308666
  0
LINE
  5
90
100
AcDbEntity
  8
0
  6
CONTINUOUS
 62
           3
100
AcDbLine
 10
5961.569869687352
 20
1377.599999308666
 11
5960.899996833478
 21
1377.599999308603
  0
LINE
  5
8F
100
AcDbEntity
  8
0
  6
CONTINUOUS
 62
           3
100
AcDbLine
 10
5965.899996721681
 20
1372.600004077041
 11
5961.569869687352
 21
1372.600004077041
  0
LINE
  5
8E
100
AcDbEntity
  8
0
  6
CONTINUOUS
 62
           3
100
AcDbLine
 10
5970.23012375601
 20
1372.600004077041
 11
5965.899996721681
 21
1372.600004077041
  0
LINE
  5
8D
100
AcDbEntity
  8
0
  6
CONTINUOUS
 62
           3
100
AcDbLine
 10
5965.899996721681
 20
1377.599999308666
 11
5961.569869687352
 21
1377.599999308666
  0
LINE
  5
8C
100
AcDbEntity
  8
0
  6
CONTINUOUS
 62
           3
100
AcDbLine
 10
5960.126493853979
 20
1377.153418958204
 11
5960.126493853979
 21
1373.046576976911
  0
LINE
  5
8B
100
AcDbEntity
  8
0
  6
CONTINUOUS
 62
           3
100
AcDbLine
 10
5960.126493853979
 20
1373.046576976911
 11
5961.569869687352
 21
1372.600004077041
  0
LINE
  5
8A
100
AcDbEntity
  8
0
  6
CONTINUOUS
 62
           3
100
AcDbLine
 10
5963.01324528785
 20
1377.153418958267
 11
5961.569869687352
 21
1377.599999308666
  0
LINE
  5
89
100
AcDbEntity
  8
0
  6
CONTINUOUS
 62
           3
100
AcDbLine
 10
5970.23012375601
 20
1377.599999308666
 11
5965.899996721681
 21
1377.599999308666
  0
LINE
  5
88
100
AcDbEntity
  8
0
  6
CONTINUOUS
 62
           3
100
AcDbLine
 10
5968.786748155369
 20
1373.046576976911
 11
5970.23012375601
 21
1372.600004077041
  0
LINE
  5
87
100
AcDbEntity
  8
0
  6
CONTINUOUS
 62
           3
100
AcDbLine
 10
5971.67349958937
 20
1377.153418958204
 11
5971.67349958937
 21
1373.046576976911
  0
LINE
  5
86
100
AcDbEntity
  8
0
  6
CONTINUOUS
 62
           3
100
AcDbLine
 10
5971.67349958937
 20
1377.153418958204
 11
5970.23012375601
 21
1377.599999308666
  0
LINE
  5
85
100
AcDbEntity
  8
0
  6
CONTINUOUS
 62
           3
100
AcDbLine
 10
5963.01324528785
 20
1377.153418958267
 11
5963.01324528785
 21
1373.04657697686
  0
LINE
  5
84
100
AcDbEntity
  8
0
  6
CONTINUOUS
 62
           3
100
AcDbLine
 10
5968.786748155508
 20
1377.153418958267
 11
5968.786748155369
 21
1373.046576976911
  0
LINE
  5
83
100
AcDbEntity
  8
0
  6
CONTINUOUS
 62
           3
100
AcDbLine
 10
5960.126493853979
 20
1364.553421735915
 11
5960.126493853979
 21
1360.446587205121
  0
LINE
  5
82
100
AcDbEntity
  8
0
  6
CONTINUOUS
 62
           3
100
AcDbLine
 10
5960.126493853979
 20
1360.446587205121
 11
5961.569869687352
 21
1359.999999404048
  0
LINE
  5
81
100
AcDbEntity
  8
0
  6
CONTINUOUS
 62
           3
100
AcDbLine
 10
5963.01324528785
 20
1364.553421735858
 11
5961.569869687352
 21
1364.999994635673
  0
LINE
  5
80
100
AcDbEntity
  8
0
  6
CONTINUOUS
 62
           3
100
AcDbLine
 10
5968.786748155369
 20
1360.446587205121
 11
5970.230123755971
 21
1359.999999403921
  0
LINE
  5
7F
100
AcDbEntity
  8
0
  6
CONTINUOUS
 62
           3
100
AcDbLine
 10
5971.67349958937
 20
1364.553421735915
 11
5971.67349958937
 21
1360.446587205121
  0
LINE
  5
7E
100
AcDbEntity
  8
0
  6
CONTINUOUS
 62
           3
100
AcDbLine
 10
5971.67349958937
 20
1364.553421735915
 11
5970.23012375601
 21
1364.999994635673
  0
LINE
  5
7D
100
AcDbEntity
  8
0
  6
CONTINUOUS
 62
           3
100
AcDbLine
 10
5963.01324528785
 20
1364.553421735858
 11
5963.01324528785
 21
1360.446587205024
  0
LINE
  5
7C
100
AcDbEntity
  8
0
  6
CONTINUOUS
 62
           3
100
AcDbLine
 10
5968.786748155508
 20
1364.553421735858
 11
5968.786748155369
 21
1360.446587205121
  0
LINE
  5
7B
100
AcDbEntity
  8
0
  6
CONTINUOUS
 62
           3
100
AcDbLine
 10
5960.899996833478
 20
1359.999999403921
 11
5961.569869687352
 21
1359.999999404048
  0
LINE
  5
7A
100
AcDbEntity
  8
0
  6
CONTINUOUS
 62
           3
100
AcDbLine
 10
5970.899996609871
 20
1355.000004172322
 11
5970.23012375601
 21
1355.00000417242
  0
LINE
  5
79
100
AcDbEntity
  8
0
  6
CONTINUOUS
 62
           3
100
AcDbLine
 10
5960.899996833478
 20
1355.000004172322
 11
5961.569869687352
 21
1355.00000417242
  0
LINE
  5
78
100
AcDbEntity
  8
0
  6
CONTINUOUS
 62
           3
100
AcDbLine
 10
5971.67349958937
 20
1355.446577072224
 11
5970.23012375601
 21
1355.00000417242
  0
LINE
  5
77
100
AcDbEntity
  8
0
  6
CONTINUOUS
 62
           3
100
AcDbLine
 10
5971.67349958937
 20
1355.446577072224
 11
5971.67349958937
 21
1359.553411603021
  0
LINE
  5
76
100
AcDbEntity
  8
0
  6
CONTINUOUS
 62
           3
100
AcDbLine
 10
5960.126493853979
 20
1355.446577072224
 11
5960.126493853979
 21
1359.553411603021
  0
LINE
  5
75
100
AcDbEntity
  8
0
  6
CONTINUOUS
 62
           3
100
AcDbLine
 10
5965.899996721681
 20
1359.999999404048
 11
5970.230123755971
 21
1359.999999403921
  0
LINE
  5
74
100
AcDbEntity
  8
0
  6
CONTINUOUS
 62
           3
100
AcDbLine
 10
5968.786748155508
 20
1359.553411603069
 11
5970.230123755971
 21
1359.999999403921
  0
LINE
  5
73
100
AcDbEntity
  8
0
  6
CONTINUOUS
 62
           3
100
AcDbLine
 10
5961.569869687352
 20
1359.999999404048
 11
5965.899996721681
 21
1359.999999404048
  0
LINE
  5
72
100
AcDbEntity
  8
0
  6
CONTINUOUS
 62
           3
100
AcDbLine
 10
5961.569869687352
 20
1355.00000417242
 11
5965.899996721681
 21
1355.000004172322
  0
LINE
  5
71
100
AcDbEntity
  8
0
  6
CONTINUOUS
 62
           3
100
AcDbLine
 10
5965.899996721681
 20
1355.000004172322
 11
5970.23012375601
 21
1355.00000417242
  0
LINE
  5
70
100
AcDbEntity
  8
0
  6
CONTINUOUS
 62
           3
100
AcDbLine
 10
5963.013245287976
 20
1359.553411603021
 11
5965.899996721681
 21
1359.999999404048
  0
LINE
  5
6F
100
AcDbEntity
  8
0
  6
CONTINUOUS
 62
           3
100
AcDbLine
 10
5963.01324528785
 20
1355.446577072242
 11
5963.013245287976
 21
1359.553411603021
  0
LINE
  5
6E
100
AcDbEntity
  8
0
  6
CONTINUOUS
 62
           3
100
AcDbLine
 10
5968.786748155369
 20
1355.446577072224
 11
5965.899996721681
 21
1355.000004172322
  0
LINE
  5
6D
100
AcDbEntity
  8
0
  6
CONTINUOUS
 62
           3
100
AcDbLine
 10
5968.786748155369
 20
1355.446577072224
 11
5968.786748155508
 21
1359.553411603069
  0
LINE
  5
6C
100
AcDbEntity
  8
0
  6
CONTINUOUS
 62
           3
100
AcDbLine
 10
6022.899996751329
 20
1393.799997866194
 11
6022.899996751329
 21
1543.800000101368
  0
LINE
  5
6B
100
AcDbEntity
  8
0
  6
CONTINUOUS
 62
           3
100
AcDbLine
 10
5911.899995321019
 20
1543.800000101368
 11
5908.899996692016
 21
1543.800000101368
  0
LINE
  5
6A
100
AcDbEntity
  8
0
  6
CONTINUOUS
 62
           3
100
AcDbLine
 10
5962.899996695582
 20
1543.800000101368
 11
5919.899996632418
 21
1543.800000101368
  0
LINE
  5
69
100
AcDbEntity
  8
0
  6
CONTINUOUS
 62
           3
100
AcDbLine
 10
6011.899996810937
 20
1543.800000101368
 11
5968.899996747769
 21
1543.800000101368
  0
LINE
  5
68
100
AcDbEntity
  8
0
  6
CONTINUOUS
 62
           3
100
AcDbLine
 10
6022.899996751329
 20
1543.800000101368
 11
6019.899998122332
 21
1543.800000101368
  0
LINE
  5
67
100
AcDbEntity
  8
0
  6
CONTINUOUS
 62
           3
100
AcDbLine
 10
5908.899996692016
 20
1543.800000101368
 11
5908.899996692016
 21
1393.799997866194
  0
LINE
  5
66
100
AcDbEntity
  8
0
  6
CONTINUOUS
 62
           3
100
AcDbLine
 10
6019.899998122332
 20
1393.799997866194
 11
6022.899996751329
 21
1393.799997866194
  0
LINE
  5
65
100
AcDbEntity
  8
0
  6
CONTINUOUS
 62
           3
100
AcDbLine
 10
5973.899997101568
 20
1393.799997866194
 11
6011.899996810937
 21
1393.799997866194
  0
LINE
  5
64
100
AcDbEntity
  8
0
  6
CONTINUOUS
 62
           3
100
AcDbLine
 10
5919.899996632418
 20
1393.799997866194
 11
5957.89999634178
 21
1393.799997866194
  0
LINE
  5
63
100
AcDbEntity
  8
0
  6
CONTINUOUS
 62
           3
100
AcDbLine
 10
5908.899996692016
 20
1393.799997866194
 11
5911.899995321019
 21
1393.799997866194
  0
LINE
  5
62
100
AcDbEntity
  8
0
  6
CONTINUOUS
 62
           3
100
AcDbLine
 10
5959.426494029877
 20
1389.099999999995
 11
5972.373499413468
 21
1389.099999999995
  0
LINE
  5
61
100
AcDbEntity
  8
0
  6
CONTINUOUS
 62
           3
100
AcDbLine
 10
5973.899997101568
 20
1394.799999892894
 11
5969.399996829769
 21
1394.799999892894
  0
LINE
  5
60
100
AcDbEntity
  8
0
  6
CONTINUOUS
 62
           3
100
AcDbLine
 10
5962.399996613582
 20
1394.799999892894
 11
5957.89999634178
 21
1394.799999892894
  0
LINE
  5
5F
100
AcDbEntity
  8
0
  6
CONTINUOUS
 62
           3
100
AcDbLine
 10
5963.899996626779
 20
1638.422653078993
 11
5962.899996695582
 21
1637.422651052293
  0
LINE
  5
5E
100
AcDbEntity
  8
0
  6
CONTINUOUS
 62
           3
100
AcDbLine
 10
5968.899996747769
 20
1637.422651052293
 11
5967.899996816565
 21
1638.422653078993
  0
LINE
  5
5D
100
AcDbEntity
  8
0
  6
CONTINUOUS
 62
           3
100
AcDbLine
 10
5962.899996695582
 20
1367.599993944114
 11
5962.899996695582
 21
1366.600006818713
  0
LINE
  5
5C
100
AcDbEntity
  8
0
  6
CONTINUOUS
 62
           3
100
AcDbLine
 10
5962.899996695582
 20
1384.1999992729
 11
5962.899996695582
 21
1377.599999308603
  0
LINE
  5
5B
100
AcDbEntity
  8
0
  6
CONTINUOUS
 62
           3
100
AcDbLine
 10
5962.899996695582
 20
1392.957426607594
 11
5962.899996695582
 21
1390.000000596097
  0
LINE
  5
5A
100
AcDbEntity
  8
0
  6
CONTINUOUS
 62
           3
100
AcDbLine
 10
5962.899996695582
 20
1633.399993180996
 11
5962.899996695582
 21
1394.792847335491
  0
LINE
  5
59
100
AcDbEntity
  8
0
  6
CONTINUOUS
 62
           3
100
AcDbLine
 10
5962.899996695582
 20
1637.422651052293
 11
5962.899996695582
 21
1635.000005364196
  0
LINE
  5
58
100
AcDbEntity
  8
0
  6
CONTINUOUS
 62
           3
100
AcDbLine
 10
5968.899996747769
 20
1635.000005364196
 11
5968.899996747769
 21
1637.422651052293
  0
LINE
  5
57
100
AcDbEntity
  8
0
  6
CONTINUOUS
 62
           3
100
AcDbLine
 10
5968.899996747769
 20
1394.792847335491
 11
5968.899996747769
 21
1633.399993180996
  0
LINE
  5
56
100
AcDbEntity
  8
0
  6
CONTINUOUS
 62
           3
100
AcDbLine
 10
5968.899996747769
 20
1390.000000596097
 11
5968.899996747769
 21
1392.957426607594
  0
LINE
  5
55
100
AcDbEntity
  8
0
  6
CONTINUOUS
 62
           3
100
AcDbLine
 10
5968.899996747769
 20
1377.599999308603
 11
5968.899996747769
 21
1384.1999992729
  0
LINE
  5
54
100
AcDbEntity
  8
0
  6
CONTINUOUS
 62
           3
100
AcDbLine
 10
5968.899996747769
 20
1366.600006818713
 11
5968.899996747769
 21
1367.599993944114
  0
LINE
  5
53
100
AcDbEntity
  8
0
  6
CONTINUOUS
 62
           3
100
AcDbLine
 10
5919.899996632418
 20
1635.000005364196
 11
5919.899996632418
 21
1665.000006556369
  0
LINE
  5
52
100
AcDbEntity
  8
0
  6
CONTINUOUS
 62
           3
100
AcDbLine
 10
5919.899996632418
 20
1550.000000744964
 11
5919.899996632418
 21
1633.399993180996
  0
LINE
  5
51
100
AcDbEntity
  8
0
  6
CONTINUOUS
 62
           3
100
AcDbLine
 10
5919.899996632418
 20
1391.199998557593
 11
5919.899996632418
 21
1548.799999058065
  0
LINE
  5
50
100
AcDbEntity
  8
0
  6
CONTINUOUS
 62
           3
100
AcDbLine
 10
5919.899996632418
 20
1366.600006818713
 11
5919.899996632418
 21
1390.000000596097
  0
LINE
  5
4F
100
AcDbEntity
  8
0
  6
CONTINUOUS
 62
           3
100
AcDbLine
 10
5911.899995321019
 20
1364.999994635815
 11
5911.899995321019
 21
1314.999997615956
  0
LINE
  5
4E
100
AcDbEntity
  8
0
  6
CONTINUOUS
 62
           3
100
AcDbLine
 10
5911.899995321019
 20
1390.000000596097
 11
5911.899995321019
 21
1366.600006818713
  0
LINE
  5
4D
100
AcDbEntity
  8
0
  6
CONTINUOUS
 62
           3
100
AcDbLine
 10
5911.899995321019
 20
1548.799999058065
 11
5911.899995321019
 21
1391.199998557593
  0
LINE
  5
4C
100
AcDbEntity
  8
0
  6
CONTINUOUS
 62
           3
100
AcDbLine
 10
5911.899995321019
 20
1633.399993180996
 11
5911.899995321019
 21
1550.000000744964
  0
LINE
  5
4B
100
AcDbEntity
  8
0
  6
CONTINUOUS
 62
           3
100
AcDbLine
 10
5911.899995321019
 20
1665.000006556369
 11
5911.899995321019
 21
1635.000005364196
  0
LINE
  5
4A
100
AcDbEntity
  8
0
  6
CONTINUOUS
 62
           3
100
AcDbLine
 10
6019.899998122332
 20
1635.000005364196
 11
6019.899998122332
 21
1641.0
  0
LINE
  5
49
100
AcDbEntity
  8
0
  6
CONTINUOUS
 62
           3
100
AcDbLine
 10
6019.899998122332
 20
1550.000000744964
 11
6019.899998122332
 21
1633.399993180996
  0
LINE
  5
48
100
AcDbEntity
  8
0
  6
CONTINUOUS
 62
           3
100
AcDbLine
 10
6019.899998122332
 20
1391.199998557593
 11
6019.899998122332
 21
1548.799999058065
  0
LINE
  5
47
100
AcDbEntity
  8
0
  6
CONTINUOUS
 62
           3
100
AcDbLine
 10
6019.899998122332
 20
1366.600006818713
 11
6019.899998122332
 21
1390.000000596097
  0
LINE
  5
46
100
AcDbEntity
  8
0
  6
CONTINUOUS
 62
           3
100
AcDbLine
 10
6019.899998122332
 20
1314.999997615956
 11
6019.899998122332
 21
1364.999994635815
  0
LINE
  5
45
100
AcDbEntity
  8
0
  6
CONTINUOUS
 62
           3
100
AcDbLine
 10
6011.899996810937
 20
1364.999994635815
 11
6011.899996810937
 21
1314.999997615956
  0
LINE
  5
44
100
AcDbEntity
  8
0
  6
CONTINUOUS
 62
           3
100
AcDbLine
 10
6011.899996810937
 20
1390.000000596097
 11
6011.899996810937
 21
1366.600006818713
  0
LINE
  5
43
100
AcDbEntity
  8
0
  6
CONTINUOUS
 62
           3
100
AcDbLine
 10
6011.899996810937
 20
1548.799999058065
 11
6011.899996810937
 21
1391.199998557593
  0
LINE
  5
42
100
AcDbEntity
  8
0
  6
CONTINUOUS
 62
           3
100
AcDbLine
 10
6011.899996810937
 20
1633.399993180996
 11
6011.899996810937
 21
1550.000000744964
  0
LINE
  5
41
100
AcDbEntity
  8
0
  6
CONTINUOUS
 62
           3
100
AcDbLine
 10
6011.899996810937
 20
1641.0
 11
6011.899996810937
 21
1635.000005364196
  0
LINE
  5
40
100
AcDbEntity
  8
0
  6
CONTINUOUS
 62
           3
100
AcDbLine
 10
5960.126493853979
 20
1368.046581745311
 11
5960.899996833478
 21
1367.599993944114
  0
LINE
  5
3F
100
AcDbEntity
  8
0
  6
CONTINUOUS
 62
           3
100
AcDbLine
 10
5970.899996609871
 20
1367.599993944114
 11
5971.67349958937
 21
1368.046581745311
  0
LINE
  5
3E
100
AcDbEntity
  8
0
  6
CONTINUOUS
 62
           3
100
AcDbLine
 10
5971.67349958937
 20
1372.153416276109
 11
5970.899996609871
 21
1372.600004077009
  0
LINE
  5
3D
100
AcDbEntity
  8
0
  6
CONTINUOUS
 62
           3
100
AcDbLine
 10
5960.899996833478
 20
1372.600004077009
 11
5960.126493853979
 21
1372.153416276109
  0
LINE
  5
3C
100
AcDbEntity
  8
0
  6
CONTINUOUS
 62
           3
100
AcDbLine
 10
5960.126493853979
 20
1373.046576976911
 11
5960.899996833478
 21
1372.600004077009
  0
LINE
  5
3B
100
AcDbEntity
  8
0
  6
CONTINUOUS
 62
           3
100
AcDbLine
 10
5970.899996609871
 20
1372.600004077009
 11
5971.67349958937
 21
1373.046576976911
  0
LINE
  5
3A
100
AcDbEntity
  8
0
  6
CONTINUOUS
 62
           3
100
AcDbLine
 10
5971.67349958937
 20
1377.153418958204
 11
5970.899996609871
 21
1377.599999308603
  0
LINE
  5
39
100
AcDbEntity
  8
0
  6
CONTINUOUS
 62
           3
100
AcDbLine
 10
5960.899996833478
 20
1377.599999308603
 11
5960.126493853979
 21
1377.153418958204
  0
LINE
  5
38
100
AcDbEntity
  8
0
  6
CONTINUOUS
 62
           3
100
AcDbLine
 10
5960.126493853979
 20
1360.446587205121
 11
5960.899996833478
 21
1359.999999403921
  0
LINE
  5
37
100
AcDbEntity
  8
0
  6
CONTINUOUS
 62
           3
100
AcDbLine
 10
5970.899996609871
 20
1359.999999403921
 11
5971.67349958937
 21
1360.446587205121
  0
LINE
  5
36
100
AcDbEntity
  8
0
  6
CONTINUOUS
 62
           3
100
AcDbLine
 10
5971.67349958937
 20
1364.553421735915
 11
5970.899996609871
 21
1364.999994635815
  0
LINE
  5
35
100
AcDbEntity
  8
0
  6
CONTINUOUS
 62
           3
100
AcDbLine
 10
5960.899996833478
 20
1364.999994635815
 11
5960.126493853979
 21
1364.553421735915
  0
LINE
  5
34
100
AcDbEntity
  8
0
  6
CONTINUOUS
 62
           3
100
AcDbLine
 10
5971.67349958937
 20
1359.553411603021
 11
5970.899996609871
 21
1359.999999403921
  0
LINE
  5
33
100
AcDbEntity
  8
0
  6
CONTINUOUS
 62
           3
100
AcDbLine
 10
5960.899996833478
 20
1359.999999403921
 11
5960.126493853979
 21
1359.553411603021
  0
LINE
  5
32
100
AcDbEntity
  8
0
  6
CONTINUOUS
 62
           3
100
AcDbLine
 10
5970.899996609871
 20
1355.000004172322
 11
5971.67349958937
 21
1355.446577072224
  0
LINE
  5
31
100
AcDbEntity
  8
0
  6
CONTINUOUS
 62
           3
100
AcDbLine
 10
5960.126493853979
 20
1355.446577072224
 11
5960.899996833478
 21
1355.000004172322
  0
LINE
  5
30
100
AcDbEntity
  8
0
  6
CONTINUOUS
 62
           3
100
AcDbLine
 10
5919.899996632418
 20
1314.999997615956
 11
5919.899996632418
 21
1364.999994635815
  0
LINE
  5
2F
100
AcDbEntity
  8
1
  6
CONTINUOUS
 62
           3
100
AcDbLine
 10
6447.500000000006
 20
1929.0
 11
6299.899996810937
 21
1929.0
  0
LINE
  5
2E
100
AcDbEntity
  8
1
  6
CONTINUOUS
 62
           3
100
AcDbLine
 10
6447.500000000006
 20
1921.0
 11
6299.899998122332
 21
1921.0
  0
POINT
  5
2D
100
AcDbEntity
  8
0
 62
           3
100
AcDbPoint
 10
5883.399996721739
 20
1365.000000000116
  0
ENDSEC
  0
SECTION
  2
OBJECTS
  0
DICTIONARY
  5
19
100
AcDbDictionary
  3
ACAD_GROUP
350
1A
  3
ACAD_MLINESTYLE
350
1B
  0
DICTIONARY
  5
1A
102
{ACAD_REACTORS
330
19
102
}
100
AcDbDictionary
  0
DICTIONARY
  5
1B
102
{ACAD_REACTORS
330
19
102
}
100
AcDbDictionary
  3
STANDARD
350
1C
  0
MLINESTYLE
  5
1C
102
{ACAD_REACTORS
330
1B
102
}
100
AcDbMlineStyle
  2
STANDARD
 70
           0
  3

 62
           0
 51
90.0
 52
90.0
 71
           2
 49
0.5
 62
         256
  6
BYLAYER
 49
-0.5
 62
         256
  6
BYLAYER
  0
ENDSEC
  0
EOF
