  0
SECTION
  2
HEADER
  9
$ACADVER
  1
AC1014
  9
$ACADMAINTVER
 70
           0
  9
$DWGCODEPAGE
  3
DOS932
  9
$INSBASE
 10
0.0
 20
0.0
 30
0.0
  9
$EXTMIN
 10
1.000000000000E+20
 20
1.000000000000E+20
 30
1.000000000000E+20
  9
$EXTMAX
 10
-1.000000000000E+20
 20
-1.000000000000E+20
 30
-1.000000000000E+20
  9
$LIMMIN
 10
0.0
 20
0.0
  9
$LIMMAX
 10
0.0
 20
0.0
  9
$ORTHOMODE
 70
           0
  9
$REGENMODE
 70
           1
  9
$FILLMODE
 70
           1
  9
$QTEXTMODE
 70
           0
  9
$MIRRTEXT
 70
           1
  9
$DRAGMODE
 70
           2
  9
$LTSCALE
 40
1.0
  9
$OSMODE
 70
           0
  9
$ATTMODE
 70
           1
  9
$TEXTSIZE
 40
0.2
  9
$TRACEWID
 40
0.05
  9
$TEXTSTYLE
  7
STANDARD
  9
$CLAYER
  8
0
  9
$CELTYPE
  6
CONTINUOUS
  9
$CECOLOR
 62
         256
  9
$CELTSCALE
 40
1.0
  9
$DELOBJ
 70
           1
  9
$DISPSILH
 70
           0
  9
$DIMSCALE
 40
1.0
  9
$DIMASZ
 40
0.18
  9
$DIMEXO
 40
0.0625
  9
$DIMDLI
 40
0.38
  9
$DIMRND
 40
0.0
  9
$DIMDLE
 40
0.0
  9
$DIMEXE
 40
0.18
  9
$DIMTP
 40
0.0
  9
$DIMTM
 40
0.0
  9
$DIMTXT
 40
0.18
  9
$DIMCEN
 40
0.09
  9
$DIMTSZ
 40
0.0
  9
$DIMTOL
 70
           0
  9
$DIMLIM
 70
           0
  9
$DIMTIH
 70
           1
  9
$DIMTOH
 70
           1
  9
$DIMSE1
 70
           0
  9
$DIMSE2
 70
           0
  9
$DIMTAD
 70
           0
  9
$DIMZIN
 70
           0
  9
$DIMBLK
  1

  9
$DIMASO
 70
           1
  9
$DIMSHO
 70
           1
  9
$DIMPOST
  1

  9
$DIMAPOST
  1

  9
$DIMALT
 70
           0
  9
$DIMALTD
 70
           2
  9
$DIMALTF
 40
25.4
  9
$DIMLFAC
 40
1.0
  9
$DIMTOFL
 70
           0
  9
$DIMTVP
 40
0.0
  9
$DIMTIX
 70
           0
  9
$DIMSOXD
 70
           0
  9
$DIMSAH
 70
           0
  9
$DIMBLK1
  1

  9
$DIMBLK2
  1

  9
$DIMSTYLE
  2
STANDARD
  9
$DIMCLRD
 70
           0
  9
$DIMCLRE
 70
           0
  9
$DIMCLRT
 70
           0
  9
$DIMTFAC
 40
1.0
  9
$DIMGAP
 40
0.09
  9
$DIMJUST
 70
           0
  9
$DIMSD1
 70
           0
  9
$DIMSD2
 70
           0
  9
$DIMTOLJ
 70
           1
  9
$DIMTZIN
 70
           0
  9
$DIMALTZ
 70
           0
  9
$DIMALTTZ
 70
           0
  9
$DIMFIT
 70
           3
  9
$DIMUPT
 70
           0
  9
$DIMUNIT
 70
           2
  9
$DIMDEC
 70
           4
  9
$DIMTDEC
 70
           4
  9
$DIMALTU
 70
           2
  9
$DIMALTTD
 70
           2
  9
$DIMTXSTY
  7
STANDARD
  9
$DIMAUNIT
 70
           0
  9
$LUNITS
 70
           2
  9
$LUPREC
 70
           4
  9
$SKETCHINC
 40
0.1
  9
$FILLETRAD
 40
0.0
  9
$AUNITS
 70
           0
  9
$AUPREC
 70
           0
  9
$MENU
  1
acad
  9
$ELEVATION
 40
0.0
  9
$PELEVATION
 40
0.0
  9
$THICKNESS
 40
0.0
  9
$LIMCHECK
 70
           0
  9
$BLIPMODE
 70
           1
  9
$CHAMFERA
 40
0.0
  9
$CHAMFERB
 40
0.0
  9
$CHAMFERC
 40
0.0
  9
$CHAMFERD
 40
0.0
  9
$SKPOLY
 70
           0
  9
$TDCREATE
 40
0.000000000
  9
$TDUPDATE
 40
0.000000000
  9
$TDINDWG
 40
0.0000000000
  9
$TDUSRTIMER
 40
0.0000000000
  9
$USRTIMER
 70
           1
  9
$ANGBASE
 50
0.0
  9
$ANGDIR
 70
           0
  9
$PDMODE
 70
           0
  9
$PDSIZE
 40
0.0
  9
$PLINEWID
 40
0.0
  9
$COORDS
 70
           0
  9
$SPLFRAME
 70
           0
  9
$SPLINETYPE
 70
           6
  9
$SPLINESEGS
 70
           8
  9
$ATTDIA
 70
           0
  9
$ATTREQ
 70
           1
  9
$HANDLING
 70
           1
  9
$HANDSEED
  5
4E6
  9
$SURFTAB1
 70
           6
  9
$SURFTAB2
 70
           6
  9
$SURFTYPE
 70
           6
  9
$SURFU
 70
           6
  9
$SURFV
 70
           6
  9
$UCSNAME
  2

  9
$UCSORG
 10
0.0
 20
0.0
 30
0.0
  9
$UCSXDIR
 10
1.0
 20
0.0
 30
0.0
  9
$UCSYDIR
 10
0.0
 20
1.0
 30
0.0
  9
$PUCSNAME
  2

  9
$PUCSORG
 10
0.0
 20
0.0
 30
0.0
  9
$PUCSXDIR
 10
1.0
 20
0.0
 30
0.0
  9
$PUCSYDIR
 10
0.0
 20
1.0
 30
0.0
  9
$USERI1
 70
           0
  9
$USERI2
 70
           0
  9
$USERI3
 70
           0
  9
$USERI4
 70
           0
  9
$USERI5
 70
           0
  9
$USERR1
 40
0.0
  9
$USERR2
 40
0.0
  9
$USERR3
 40
0.0
  9
$USERR4
 40
0.0
  9
$USERR5
 40
0.0
  9
$WORLDVIEW
 70
           1
  9
$SHADEDGE
 70
           3
  9
$SHADEDIF
 70
          70
  9
$TILEMODE
 70
           1
  9
$MAXACTVP
 70
          16
  9
$PINSBASE
 10
0.0
 20
0.0
 30
0.0
  9
$PLIMCHECK
 70
           0
  9
$PEXTMIN
 10
1.000000000000E+20
 20
1.000000000000E+20
 30
1.000000000000E+20
  9
$PEXTMAX
 10
-1.000000000000E+20
 20
-1.000000000000E+20
 30
-1.000000000000E+20
  9
$PLIMMIN
 10
0.0
 20
0.0
  9
$PLIMMAX
 10
12.0
 20
9.0
  9
$UNITMODE
 70
           0
  9
$VISRETAIN
 70
           0
  9
$PLINEGEN
 70
           1
  9
$PSLTSCALE
 70
           0
  9
$TREEDEPTH
 70
        3020
  9
$PICKSTYLE
 70
           1
  9
$CMLSTYLE
  2
STANDARD
  9
$CMLJUST
 70
           0
  9
$CMLSCALE
 40
1.0
  9
$PROXYGRAPHICS
 70
           0
  9
$MEASUREMENT
 70
           0
  0
ENDSEC
  0
SECTION
  2
CLASSES
  0
CLASS
  1
LWPOLYLINE
  2
AcDbPolyline
  3
"AutoCAD"
 90
        0
280
           0
281
           1
  0
CLASS
  1
IMAGE
  2
AcDbRasterImage
  3
ISM
 90
      127
280
           0
281
           1
  0
CLASS
  1
OLE2FRAME
  2
AcDbOle2Frame
  3
""
 90
        0
280
           0
281
           1
  0
CLASS
  1
HATCH
  2
AcDbHatch
  3
"ACAD_SEDONA"
 90
        0
280
           0
281
           1
  0
CLASS
  1
DICTIONARYVAR
  2
AcDbDictionaryVar
  3
"AutoCAD"
 90
        0
280
           0
281
           0
  0
CLASS
  1
RASTERVARIABLES
  2
AcDbRasterVariables
  3
ISM
 90
        0
280
           0
281
           0
  0
CLASS
  1
IMAGEDEF
  2
AcDbRasterImageDef
  3
ISM
 90
        0
280
           0
281
           0
  0
CLASS
  1
IMAGEDEF_REACTOR
  2
AcDbRasterImageDefReactor
  3
ISM
 90
        1
280
           0
281
           0
  0
CLASS
  1
IDBUFFER
  2
AcDbIdBuffer
  3
"Acad"
 90
        0
280
           0
281
           0
  0
CLASS
  1
SPATIAL_FILTER
  2
AcDbSpatialFilter
  3
"Acad"
 90
        0
280
           0
281
           0
  0
CLASS
  1
XRECORD
  2
AcDbXrecord
  3
"<Built In>"
 90
        0
280
           0
281
           0
  0
CLASS
  1
SORTENTSTABLE
  2
AcDbSortentsTable
  3
"AutoCAD"
 90
        0
280
           0
281
           0
  0
CLASS
  1
LAYER_INDEX
  2
AcDbLayerIndex
  3
"Acad"
 90
        0
280
           0
281
           0
  0
CLASS
  1
SPATIAL_INDEX
  2
AcDbSpatialIndex
  3
"Acad"
 90
        0
280
           0
281
           0
  0
CLASS
  1
OBJECT_PTR
  2
CAseDLPNTableRecord
  3
"ASE-LPNTableRecord"
 90
        1
280
           0
281
           0
  0
CLASS
  1
LAYOUT
  2
AcDbLayout
  3
"AutoCAD 2000"
 90
        1
280
           0
281
           0
  0
CLASS
  1
PLOTSETTINGS
  2
AcDbPlotSettings
  3
"AutoCAD 2000"
 90
        1
280
           0
281
           0
  0
CLASS
  1
ACDBDICTIONARYWDFLT
  2
AcDbDictionaryWithDefault
  3
"AutoCAD 2000"
 90
        1
280
           0
281
           0
  0
CLASS
  1
ACDBPLACEHOLDER
  2
AcDbPlaceHolder
  3
"AutoCAD 2000"
 90
        1
280
           0
281
           0
  0
CLASS
  1
VBA_PROJECT
  2
AcDbVbaProject
  3
"acadvba"
 90
        1
280
           0
281
           0
  0
CLASS
  1
WIPEOUT
  2
AcDbWipeout
  3
WipeOut|AutoCAD Express Tool|expresstools@autodesk.com
 90
      127
280
           0
281
           1
  0
CLASS
  1
WIPEOUTVARIABLES
  2
AcDbWipeoutVariables
  3
WipeOut|AutoCAD Express Tool|expresstools@autodesk.com
 90
        0
280
           0
281
           0
  0
CLASS
  1
RTEXT
  2
RText
  3
RText|AutoCAD Express Tool|expresstools@autodesk.com
 90
        0
280
           0
281
           1
  0
CLASS
  1
ARCALIGNEDTEXT
  2
AcDbArcAlignedText
  3
ATEXT|AutoCAD Express Tool|expresstools@autodesk.com
 90
        0
280
           0
281
           1
  0
ENDSEC
  0
SECTION
  2
TABLES
  0
TABLE
  2
VPORT
  5
7
100
AcDbSymbolTable
 70
           1
  0
VPORT
  5
15
100
AcDbSymbolTableRecord
100
AcDbViewportTableRecord
  2
*ACTIVE
 70
           0
 10
0.0
 20
0.0
 11
1.0
 21
1.0
 12
6.591288
 22
4.579184
 13
0.0
 23
0.0
 14
1.0
 24
1.0
 15
0.0
 25
0.0
 16
0.0
 26
0.0
 36
1.0
 17
0.0
 27
0.0
 37
0.0
 40
9.158369
 41
0.688564
 42
50.0
 43
0.0
 44
0.0
 50
0.0
 51
0.0
 71
           0
 72
         100
 73
           1
 74
           1
 75
           0
 76
           0
 77
           0
 78
           0
  0
ENDTAB
  0
TABLE
  2
LTYPE
  5
4
100
AcDbSymbolTable
 70
          10
  0
LTYPE
  5
11
100
AcDbSymbolTableRecord
100
AcDbLinetypeTableRecord
  2
BYBLOCK
 70
          64
  3

 72
          65
 73
           0
 40
0.0
  0
LTYPE
  5
12
100
AcDbSymbolTableRecord
100
AcDbLinetypeTableRecord
  2
BYLAYER
 70
          64
  3

 72
          65
 73
           0
 40
0.0
  0
LTYPE
  5
13
100
AcDbSymbolTableRecord
100
AcDbLinetypeTableRecord
  2
CONTINUOUS
 70
          64
  3
Solid line
 72
          65
 73
           0
 40
0.0
  0
LTYPE
  5
1D
100
AcDbSymbolTableRecord
100
AcDbLinetypeTableRecord
  2
DASHED
 70
          64
  3
Dashed
 72
          65
 73
           2
 40
15.0
 49
12.0
 74
           0
 49
-3.0
 74
           0
  0
LTYPE
  5
1E
100
AcDbSymbolTableRecord
100
AcDbLinetypeTableRecord
  2
DOTTED
 70
          64
  3
Dotted
 72
          65
 73
           2
 40
3.5
 49
0.5
 74
           0
 49
-3.0
 74
           0
  0
LTYPE
  5
1F
100
AcDbSymbolTableRecord
100
AcDbLinetypeTableRecord
  2
DOT_CENTER
 70
          64
  3
Dot_Center
 72
          65
 73
           4
 40
2.0
 49
1.25
 74
           0
 49
-0.25
 74
           0
 49
0.25
 74
           0
 49
-0.25
 74
           0
  0
LTYPE
  5
20
100
AcDbSymbolTableRecord
100
AcDbLinetypeTableRecord
  2
LONG_DASHED
 70
          64
  3
Long_Dashed
 72
          65
 73
           2
 40
2.0
 49
1.5
 74
           0
 49
-0.5
 74
           0
  0
LTYPE
  5
21
100
AcDbSymbolTableRecord
100
AcDbLinetypeTableRecord
  2
DASH_CENTER
 70
          64
  3
Dash_Center
 72
          65
 73
           4
 40
36.0
 49
24.0
 74
           0
 49
-3.0
 74
           0
 49
6.0
 74
           0
 49
-3.0
 74
           0
  0
LTYPE
  5
22
100
AcDbSymbolTableRecord
100
AcDbLinetypeTableRecord
  2
PHANTOM
 70
          64
  3
Phantom
 72
          65
 73
           6
 40
2.5
 49
1.25
 74
           0
 49
-0.25
 74
           0
 49
0.25
 74
           0
 49
-0.25
 74
           0
 49
0.25
 74
           0
 49
-0.25
 74
           0
  0
LTYPE
  5
23
100
AcDbSymbolTableRecord
100
AcDbLinetypeTableRecord
  2
CENTER_DASH_DASH
 70
          64
  3
Center_Dash_Dash
 72
          65
 73
           6
 40
22.0
 49
12.0
 74
           0
 49
-3.0
 74
           0
 49
0.5
 74
           0
 49
-3.0
 74
           0
 49
0.5
 74
           0
 49
-3.0
 74
           0
  0
ENDTAB
  0
TABLE
  2
LAYER
  5
2
100
AcDbSymbolTable
 70
           9
  0
LAYER
  5
14
100
AcDbSymbolTableRecord
100
AcDbLayerTableRecord
  2
0
 70
           0
 62
           7
  6
CONTINUOUS
  0
LAYER
  5
24
100
AcDbSymbolTableRecord
100
AcDbLayerTableRecord
  2
___S__
 70
           0
 62
           7
  6
CONTINUOUS
  0
LAYER
  5
25
100
AcDbSymbolTableRecord
100
AcDbLayerTableRecord
  2
976
 70
           0
 62
           7
  6
CONTINUOUS
  0
LAYER
  5
26
100
AcDbSymbolTableRecord
100
AcDbLayerTableRecord
  2
FORMAT
 70
           0
 62
           7
  6
CONTINUOUS
  0
LAYER
  5
27
100
AcDbSymbolTableRecord
100
AcDbLayerTableRecord
  2
1
 70
           0
 62
           7
  6
CONTINUOUS
  0
LAYER
  5
28
100
AcDbSymbolTableRecord
100
AcDbLayerTableRecord
  2
2
 70
           0
 62
           7
  6
CONTINUOUS
  0
LAYER
  5
29
100
AcDbSymbolTableRecord
100
AcDbLayerTableRecord
  2
6
 70
           0
 62
           7
  6
CONTINUOUS
  0
LAYER
  5
2A
100
AcDbSymbolTableRecord
100
AcDbLayerTableRecord
  2
7
 70
           0
 62
           7
  6
CONTINUOUS
  0
LAYER
  5
2B
100
AcDbSymbolTableRecord
100
AcDbLayerTableRecord
  2
____
 70
           0
 62
           7
  6
CONTINUOUS
  0
ENDTAB
  0
TABLE
  2
STYLE
  5
3
100
AcDbSymbolTable
 70
           1
  0
STYLE
  5
17
100
AcDbSymbolTableRecord
100
AcDbTextStyleTableRecord
  2
STANDARD
 70
           0
 40
0.0
 41
1.0
 50
0.0
 71
           0
 42
0.0
  3
txt
  4

  0
ENDTAB
  0
TABLE
  2
VIEW
  5
5
100
AcDbSymbolTable
 70
           0
  0
ENDTAB
  0
TABLE
  2
UCS
  5
6
100
AcDbSymbolTable
 70
           0
  0
ENDTAB
  0
TABLE
  2
APPID
  5
8
100
AcDbSymbolTable
 70
           1
  0
APPID
  5
16
100
AcDbSymbolTableRecord
100
AcDbRegAppTableRecord
  2
ACAD
 70
           0
  0
ENDTAB
  0
TABLE
  2
DIMSTYLE
  5
9
100
AcDbSymbolTable
 70
           1
  0
DIMSTYLE
105
18
100
AcDbSymbolTableRecord
100
AcDbDimStyleTableRecord
  2
STANDARD
 70
           0
  3

  4

  5

  6

  7

 40
1.0
 41
0.18
 42
0.0625
 43
0.38
 44
0.18
 45
0.0
 46
0.0
 47
0.0
 48
0.0
 71
           0
 72
           0
 73
           1
 74
           1
 75
           0
 76
           0
 77
           0
 78
           0
140
0.18
141
0.09
142
0.0
143
25.4
144
1.0
145
0.0
146
1.0
147
0.09
170
           0
171
           2
172
           0
173
           0
174
           0
175
           0
176
           0
177
           0
178
           0
270
           2
271
           4
272
           4
273
           2
274
           2
275
           0
280
           0
281
           0
282
           0
283
           1
284
           0
285
           0
286
           0
287
           0
288
           0
340
17
  0
ENDTAB
  0
TABLE
  2
BLOCK_RECORD
  5
1
100
AcDbSymbolTable
 70
           0
  0
BLOCK_RECORD
  5
A
100
AcDbSymbolTableRecord
100
AcDbBlockTableRecord
  2
*MODEL_SPACE
  0
BLOCK_RECORD
  5
B
100
AcDbSymbolTableRecord
100
AcDbBlockTableRecord
  2
*PAPER_SPACE
  0
ENDTAB
  0
ENDSEC
  0
SECTION
  2
BLOCKS
  0
BLOCK
  5
D
100
AcDbEntity
  8
0
100
AcDbBlockBegin
  2
*MODEL_SPACE
 70
           0
 10
0.0
 20
0.0
 30
0.0
  3
*MODEL_SPACE
  1

  0
ENDBLK
  5
E
100
AcDbEntity
  8
0
100
AcDbBlockEnd
  0
BLOCK
  5
F
100
AcDbEntity
 67
           1
  8
0
100
AcDbBlockBegin
  2
*PAPER_SPACE
 70
           0
 10
0.0
 20
0.0
 30
0.0
  3
*PAPER_SPACE
  1

  0
ENDBLK
  5
10
100
AcDbEntity
 67
           1
  8
0
100
AcDbBlockEnd
  0
ENDSEC
  0
SECTION
  2
ENTITIES
  0
ARC
  5
4E4
100
AcDbEntity
  8
1
  6
CONTINUOUS
 62
           4
100
AcDbCircle
 10
7105.5
 20
2730.500000000002
 40
1.0
100
AcDbArc
 50
180.0
 51
-90.0
  0
ARC
  5
4E3
100
AcDbEntity
  8
1
  6
CONTINUOUS
 62
           4
100
AcDbCircle
 10
7094.5
 20
2730.500000000002
 40
1.0
100
AcDbArc
 50
-90.0
 51
0.0
  0
ARC
  5
4E2
100
AcDbEntity
  8
1
  6
CONTINUOUS
 62
           4
100
AcDbCircle
 10
7094.5
 20
2169.500000000002
 40
1.0
100
AcDbArc
 50
0.0
 51
90.0
  0
ARC
  5
4E1
100
AcDbEntity
  8
1
  6
CONTINUOUS
 62
           4
100
AcDbCircle
 10
7105.5
 20
2169.500000000002
 40
1.0
100
AcDbArc
 50
90.0
 51
180.0
  0
ARC
  5
4E0
100
AcDbEntity
  8
1
  6
CONTINUOUS
 62
           7
100
AcDbCircle
 10
6565.0
 20
2887.199999999999
 40
10.0
100
AcDbArc
 50
-90.0
 51
0.0
  0
ARC
  5
4DF
100
AcDbEntity
  8
1
  6
CONTINUOUS
 62
           7
100
AcDbCircle
 10
6455.0
 20
2887.199999999999
 40
10.0
100
AcDbArc
 50
180.0
 51
-90.0
  0
ARC
  5
4DE
100
AcDbEntity
  8
1
  6
CONTINUOUS
 62
           7
100
AcDbCircle
 10
6565.0
 20
2987.199999999999
 40
10.0
100
AcDbArc
 50
0.0
 51
90.0
  0
ARC
  5
4DD
100
AcDbEntity
  8
1
  6
CONTINUOUS
 62
           7
100
AcDbCircle
 10
6455.0
 20
2987.199999999999
 40
10.0
100
AcDbArc
 50
90.0
 51
180.0
  0
ARC
  5
4DC
100
AcDbEntity
  8
1
  6
CONTINUOUS
 62
           7
100
AcDbCircle
 10
161.076193000001
 20
2988.000000000002
 40
10.0
100
AcDbArc
 50
90.0
 51
180.0
  0
ARC
  5
4DB
100
AcDbEntity
  8
1
  6
CONTINUOUS
 62
           7
100
AcDbCircle
 10
161.076193000001
 20
2888.000000000002
 40
10.0
100
AcDbArc
 50
180.0
 51
-89.999999999999
  0
ARC
  5
4DA
100
AcDbEntity
  8
1
  6
CONTINUOUS
 62
           7
100
AcDbCircle
 10
246.0
 20
2988.000000000002
 40
10.0
100
AcDbArc
 50
0.0
 51
90.0
  0
ARC
  5
4D9
100
AcDbEntity
  8
1
  6
CONTINUOUS
 62
           7
100
AcDbCircle
 10
246.0
 20
2888.000000000002
 40
10.0
100
AcDbArc
 50
-90.0
 51
0.0
  0
ARC
  5
4D8
100
AcDbEntity
  8
1
  6
CONTINUOUS
 62
           4
100
AcDbCircle
 10
181.319409665059
 20
5945.0
 40
10.0
100
AcDbArc
 50
90.0
 51
180.0
  0
ARC
  5
4D7
100
AcDbEntity
  8
1
  6
CONTINUOUS
 62
           4
100
AcDbCircle
 10
181.319409665059
 20
5845.0
 40
10.0
100
AcDbArc
 50
180.0
 51
-90.0
  0
ARC
  5
4D6
100
AcDbEntity
  8
1
  6
CONTINUOUS
 62
           7
100
AcDbCircle
 10
196.0
 20
5840.0
 40
10.0
100
AcDbArc
 50
180.0
 51
-90.0
  0
ARC
  5
4D5
100
AcDbEntity
  8
1
  6
CONTINUOUS
 62
           7
100
AcDbCircle
 10
196.0
 20
5950.0
 40
10.0
100
AcDbArc
 50
90.0
 51
180.0
  0
ARC
  5
4D4
100
AcDbEntity
  8
1
  6
CONTINUOUS
 62
           7
100
AcDbCircle
 10
246.0
 20
5840.0
 40
10.0
100
AcDbArc
 50
-90.0
 51
0.0
  0
ARC
  5
4D3
100
AcDbEntity
  8
1
  6
CONTINUOUS
 62
           7
100
AcDbCircle
 10
246.0
 20
5950.0
 40
10.0
100
AcDbArc
 50
0.0
 51
90.0
  0
ARC
  5
4D2
100
AcDbEntity
  8
1
  6
CONTINUOUS
 62
           3
100
AcDbCircle
 10
6448.163567691042
 20
1917.806253419958
 40
0.5
100
AcDbArc
 50
180.0
 51
-90.0
  0
ARC
  5
4D1
100
AcDbEntity
  8
1
  6
CONTINUOUS
 62
           3
100
AcDbCircle
 10
6448.163567691042
 20
1932.193746580038
 40
0.5
100
AcDbArc
 50
90.0
 51
180.0
  0
ARC
  5
4D0
100
AcDbEntity
  8
1
  6
CONTINUOUS
 62
           3
100
AcDbCircle
 10
6299.899998122325
 20
1641.0
 40
280.0
100
AcDbArc
 50
90.0
 51
180.0
  0
ARC
  5
4CF
100
AcDbEntity
  8
1
  6
CONTINUOUS
 62
           3
100
AcDbCircle
 10
6299.899996810932
 20
1640.999999999998
 40
288.0
100
AcDbArc
 50
90.0
 51
180.0
  0
ARC
  5
4CE
100
AcDbEntity
  8
1
  6
CONTINUOUS
 62
           7
100
AcDbCircle
 10
5263.000000000002
 20
2188.000000000001
 40
8.0
100
AcDbArc
 50
90.0
 51
180.0
  0
ARC
  5
4CD
100
AcDbEntity
  8
1
  6
CONTINUOUS
 62
           7
100
AcDbCircle
 10
5337.000000000002
 20
2188.000000000001
 40
8.0
100
AcDbArc
 50
0.0
 51
90.0
  0
ARC
  5
4CC
100
AcDbEntity
  8
1
  6
CONTINUOUS
 62
           7
100
AcDbCircle
 10
5300.000000000002
 20
2156.000000000001
 40
15.0
100
AcDbArc
 50
0.0
 51
180.0
  0
ARC
  5
4CB
100
AcDbEntity
  8
1
  6
CONTINUOUS
 62
           7
100
AcDbCircle
 10
-449.999999999994
 20
2156.000000000001
 40
15.0
100
AcDbArc
 50
0.0
 51
32.230952635505
  0
ARC
  5
4CA
100
AcDbEntity
  8
1
  6
CONTINUOUS
 62
           7
100
AcDbCircle
 10
-449.999999999994
 20
2156.000000000001
 40
14.999999999999
100
AcDbArc
 50
32.230952635505
 51
147.769047364495
  0
ARC
  5
4C9
100
AcDbEntity
  8
1
  6
CONTINUOUS
 62
           7
100
AcDbCircle
 10
-449.999999999994
 20
2156.000000000001
 40
14.999999999999
100
AcDbArc
 50
147.769047364495
 51
180.0
  0
ARC
  5
4C8
100
AcDbEntity
  8
1
  6
CONTINUOUS
 62
           7
100
AcDbCircle
 10
-486.999999999994
 20
2188.000000000001
 40
8.0
100
AcDbArc
 50
90.0
 51
180.0
  0
ARC
  5
4C7
100
AcDbEntity
  8
1
  6
CONTINUOUS
 62
           7
100
AcDbCircle
 10
-412.999999999994
 20
2188.000000000001
 40
8.0
100
AcDbArc
 50
0.0
 51
90.0
  0
ARC
  5
4C6
100
AcDbEntity
  8
1
  6
CONTINUOUS
 62
           7
100
AcDbCircle
 10
1337.000000000006
 20
2188.000000000001
 40
8.0
100
AcDbArc
 50
0.0
 51
90.0
  0
ARC
  5
4C5
100
AcDbEntity
  8
1
  6
CONTINUOUS
 62
           7
100
AcDbCircle
 10
1263.000000000006
 20
2188.000000000001
 40
8.0
100
AcDbArc
 50
90.0
 51
180.0
  0
ARC
  5
4C4
100
AcDbEntity
  8
1
  6
CONTINUOUS
 62
           7
100
AcDbCircle
 10
1300.000000000006
 20
2156.000000000001
 40
15.0
100
AcDbArc
 50
147.769047364496
 51
180.0
  0
ARC
  5
4C3
100
AcDbEntity
  8
1
  6
CONTINUOUS
 62
           7
100
AcDbCircle
 10
1300.000000000006
 20
2156.000000000001
 40
14.999999999999
100
AcDbArc
 50
32.230952635505
 51
147.769047364496
  0
ARC
  5
4C2
100
AcDbEntity
  8
1
  6
CONTINUOUS
 62
           7
100
AcDbCircle
 10
1300.000000000006
 20
2156.000000000001
 40
15.0
100
AcDbArc
 50
0.0
 51
32.230952635505
  0
ARC
  5
4C1
100
AcDbEntity
  8
1
  6
CONTINUOUS
 62
           7
100
AcDbCircle
 10
-2162.999999999995
 20
2188.000000000001
 40
8.0
100
AcDbArc
 50
0.0
 51
90.0
  0
ARC
  5
4C0
100
AcDbEntity
  8
1
  6
CONTINUOUS
 62
           7
100
AcDbCircle
 10
-2236.999999999995
 20
2188.000000000001
 40
8.0
100
AcDbArc
 50
90.0
 51
180.0
  0
ARC
  5
4BF
100
AcDbEntity
  8
1
  6
CONTINUOUS
 62
           7
100
AcDbCircle
 10
-2199.999999999995
 20
2156.000000000001
 40
14.999999999999
100
AcDbArc
 50
147.769047364495
 51
180.0
  0
ARC
  5
4BE
100
AcDbEntity
  8
1
  6
CONTINUOUS
 62
           7
100
AcDbCircle
 10
-2199.999999999995
 20
2156.000000000001
 40
14.999999999999
100
AcDbArc
 50
32.230952635505
 51
147.769047364495
  0
ARC
  5
4BD
100
AcDbEntity
  8
1
  6
CONTINUOUS
 62
           7
100
AcDbCircle
 10
-2199.999999999995
 20
2156.000000000001
 40
15.0
100
AcDbArc
 50
0.0
 51
32.230952635505
  0
SPLINE
  5
4BC
100
AcDbEntity
  8
0
  6
CONTINUOUS
 62
           3
100
AcDbSpline
210
0.0
220
0.0
230
1.0
 70
           0
 71
           3
 72
           8
 73
           5
 74
           7
 42
0.00000000001
 43
0.00000000001
 44
0.00000000001
 40
0.0
 40
0.0
 40
0.0
 40
0.2989651950319967
 40
0.4296296276535259
 40
0.4465803504031101
 40
0.4465803504031101
 40
0.4465803504031101
 10
5970.8999966098654
 20
1384.646579623301
 30
0.0
 10
5970.8999966099118
 20
1384.466936563424
 30
0.0
 10
5970.8999966099118
 20
1384.228292293114
 30
0.0
 10
5970.8999966099118
 20
1384.205607698181
 30
0.0
 10
5970.8999966099118
 20
1384.1999992728979
 30
0.0
 11
5970.8999966098654
 21
1384.646579623301
 31
0.0
 11
5970.8999966099
 21
1384.470331144322
 31
0.0
 11
5970.8999966099118
 21
1384.300871827139
 31
0.0
 11
5970.8999966099118
 21
1384.2414172487568
 31
0.0
 11
5970.8999966099118
 21
1384.2082125816594
 31
0.0
 11
5970.8999966099118
 21
1384.20485681273
 31
0.0
 11
5970.8999966099118
 21
1384.1999992728979
 31
0.0
  0
SPLINE
  5
4BB
100
AcDbEntity
  8
0
  6
CONTINUOUS
 62
           3
100
AcDbSpline
210
0.0
220
0.0
230
1.0
 70
           0
 71
           3
 72
           8
 73
           5
 74
           7
 42
0.00000000001
 43
0.00000000001
 44
0.00000000001
 40
0.0
 40
0.0
 40
0.0
 40
0.0169507227495842
 40
0.1476151553711134
 40
0.4465803504031101
 40
0.4465803504031101
 40
0.4465803504031101
 10
5960.8999968334329
 20
1384.1999992728979
 30
0.0
 10
5960.8999968334329
 20
1384.205607698181
 30
0.0
 10
5960.8999968334329
 20
1384.228292293114
 30
0.0
 10
5960.8999968334329
 20
1384.466936563424
 30
0.0
 10
5960.8999968334729
 20
1384.646579623301
 30
0.0
 11
5960.8999968334329
 21
1384.1999992728979
 31
0.0
 11
5960.8999968334329
 21
1384.20485681273
 31
0.0
 11
5960.8999968334329
 21
1384.2082125816594
 31
0.0
 11
5960.8999968334338
 21
1384.2414172487565
 31
0.0
 11
5960.8999968334329
 21
1384.300871827139
 31
0.0
 11
5960.8999968334429
 21
1384.4703311443222
 31
0.0
 11
5960.8999968334729
 21
1384.646579623301
 31
0.0
  0
SPLINE
  5
4BA
100
AcDbEntity
  8
0
  6
CONTINUOUS
 62
           3
100
AcDbSpline
210
0.0
220
0.0
230
1.0
 70
           0
 71
           3
 72
           8
 73
           5
 74
           7
 42
0.00000000001
 43
0.00000000001
 44
0.00000000001
 40
0.0
 40
0.0
 40
0.0
 40
0.481388339283774
 40
1.3325653926426344
 40
2.5594910488313265
 40
2.5594910488313265
 40
2.5594910488313265
 10
5968.399996665762
 20
1384.1999992728979
 30
0.0
 10
5968.459261471945
 20
1384.2004449713079
 30
0.0
 10
5969.3034813132917
 20
1384.2067938900641
 30
0.0
 10
5970.1307773327799
 20
1384.434685841554
 30
0.0
 10
5970.8999966098654
 20
1384.646579623301
 30
0.0
 11
5968.399996665762
 21
1384.1999992728979
 31
0.0
 11
5968.5206887308814
 21
1384.2009069323481
 31
0.0
 11
5968.7642353138745
 21
1384.2027385138786
 31
0.0
 11
5969.2533835507438
 21
1384.2291158030598
 31
0.0
 11
5969.6423362625137
 21
1384.3001369182321
 31
0.0
 11
5970.2009718844856
 21
1384.4540220561603
 31
0.0
 11
5970.8999966098654
 21
1384.646579623301
 31
0.0
  0
SPLINE
  5
4B9
100
AcDbEntity
  8
0
  6
CONTINUOUS
 62
           3
100
AcDbSpline
210
0.0
220
0.0
230
1.0
 70
           0
 71
           3
 72
           8
 73
           5
 74
           7
 42
0.00000000001
 43
0.00000000001
 44
0.00000000001
 40
0.0
 40
0.0
 40
0.0
 40
0.4813884775047128
 40
1.3325655942390289
 40
2.5594910572522798
 40
2.5594910572522798
 40
2.5594910572522798
 10
5963.3999967775544
 20
1384.1999992728979
 30
0.0
 10
5963.4592615843949
 20
1384.200444971551
 30
0.0
 10
5964.3034817008311
 20
1384.206793895826
 30
0.0
 10
5965.1307775679606
 20
1384.434685841725
 30
0.0
 10
5965.8999967216741
 20
1384.6465796232931
 30
0.0
 11
5963.3999967775544
 21
1384.1999992728979
 31
0.0
 11
5963.5206888783678
 21
1384.2009069331066
 31
0.0
 11
5963.7642355671287
 21
1384.202738516427
 31
0.0
 11
5964.2533839007092
 21
1384.2291158106407
 31
0.0
 11
5964.6423366340441
 21
1384.3001369344843
 31
0.0
 11
5965.2009721229088
 21
1384.4540220603067
 31
0.0
 11
5965.8999967216741
 21
1384.6465796232931
 31
0.0
  0
SPLINE
  5
4B8
100
AcDbEntity
  8
0
  6
CONTINUOUS
 62
           3
100
AcDbSpline
210
0.0
220
0.0
230
1.0
 70
           0
 71
           3
 72
           8
 73
           5
 74
           7
 42
0.00000000001
 43
0.00000000001
 44
0.00000000001
 40
0.0
 40
0.0
 40
0.0
 40
0.2779454797466545
 40
0.7862825386901768
 40
1.5429638907223839
 40
1.5429638907223839
 40
1.5429638907223839
 10
5961.5698696873451
 20
1367.599993944254
 30
0.0
 10
5961.6040862319223
 20
1367.600439636512
 30
0.0
 10
5962.0914969500309
 20
1367.606788471172
 30
0.0
 10
5962.5691364171953
 20
1367.834684325675
 30
0.0
 10
5963.0132452878433
 20
1368.046581745233
 30
0.0
 11
5961.5698696873451
 21
1367.599993944254
 31
0.0
 11
5961.6386061814956
 21
1367.6008892808147
 31
0.0
 11
5961.7763825747916
 21
1367.6026839059807
 31
0.0
 11
5962.0607022116064
 21
1367.6286568402263
 31
0.0
 11
5962.2834323715761
 21
1367.6983665125811
 31
0.0
 11
5962.6087376234527
 21
1367.853579227291
 31
0.0
 11
5963.0132452878433
 21
1368.046581745233
 31
0.0
  0
SPLINE
  5
4B7
100
AcDbEntity
  8
0
  6
CONTINUOUS
 62
           3
100
AcDbSpline
210
0.0
220
0.0
230
1.0
 70
           0
 71
           3
 72
           8
 73
           5
 74
           7
 42
0.00000000001
 43
0.00000000001
 44
0.00000000001
 40
0.0
 40
0.0
 40
0.0
 40
0.277946485436777
 40
0.7862840843758414
 40
1.5429642658558436
 40
1.5429642658558436
 40
1.5429642658558436
 10
5961.5698696873451
 20
1372.60000407704
 30
0.0
 10
5961.5356531379812
 20
1372.599558381668
 30
0.0
 10
5961.0482404188824
 20
1372.593209477438
 30
0.0
 10
5960.570601939341
 20
1372.365313693472
 30
0.0
 10
5960.1264938539734
 20
1372.153416276107
 30
0.0
 11
5961.5698696873451
 21
1372.60000407704
 31
0.0
 11
5961.5011329415911
 21
1372.5991087310683
 31
0.0
 11
5961.3633558030579
 21
1372.597314083898
 31
0.0
 11
5961.0790354338669
 21
1372.5713410900548
 31
0.0
 11
5960.856305094645
 21
1372.5016313214446
 31
0.0
 11
5960.5310007068256
 21
1372.3464187461238
 31
0.0
 11
5960.1264938539734
 21
1372.153416276107
 31
0.0
  0
SPLINE
  5
4B6
100
AcDbEntity
  8
0
  6
CONTINUOUS
 62
           3
100
AcDbSpline
210
0.0
220
0.0
230
1.0
 70
           0
 71
           3
 72
           8
 73
           5
 74
           7
 42
0.00000000001
 43
0.00000000001
 44
0.00000000001
 40
0.0
 40
0.0
 40
0.0
 40
0.2779464854286752
 40
0.7862840843636325
 40
1.5429642658959879
 40
1.5429642658959879
 40
1.5429642658959879
 10
5970.2301237560032
 20
1367.599993944254
 30
0.0
 10
5970.2643403053644
 20
1367.6004396396329
 30
0.0
 10
5970.7517530244522
 20
1367.606788543862
 30
0.0
 10
5971.229391504
 20
1367.8346843278209
 30
0.0
 10
5971.6734995893648
 20
1368.04658174531
 30
0.0
 11
5970.2301237560032
 21
1367.599993944254
 31
0.0
 11
5970.2988605017536
 21
1367.6008892902305
 31
0.0
 11
5970.4366376402813
 21
1367.6026839374024
 31
0.0
 11
5970.7209580094677
 21
1367.6286569312438
 31
0.0
 11
5970.9436883486833
 21
1367.6983666998483
 31
0.0
 11
5971.2689927365127
 21
1367.8535792752
 31
0.0
 11
5971.6734995893648
 21
1368.04658174531
 31
0.0
  0
SPLINE
  5
4B5
100
AcDbEntity
  8
0
  6
CONTINUOUS
 62
           3
100
AcDbSpline
210
0.0
220
0.0
230
1.0
 70
           0
 71
           3
 72
           8
 73
           5
 74
           7
 42
0.00000000001
 43
0.00000000001
 44
0.00000000001
 40
0.0
 40
0.0
 40
0.0
 40
0.2779454797516371
 40
0.7862825386950116
 40
1.5429638907281
 40
1.5429638907281
 40
1.5429638907281
 10
5970.2301237560032
 20
1372.60000407704
 30
0.0
 10
5970.1959072114232
 20
1372.5995583847821
 30
0.0
 10
5969.7084964933101
 20
1372.593209550125
 30
0.0
 10
5969.230857026153
 20
1372.3653136956179
 30
0.0
 10
5968.7867481555013
 20
1372.1534162760599
 30
0.0
 11
5970.2301237560032
 21
1372.60000407704
 31
0.0
 11
5970.16138726185
 21
1372.5991087404796
 31
0.0
 11
5970.0236108685494
 21
1372.5973141153145
 31
0.0
 11
5969.7392912317355
 21
1372.5713411810698
 31
0.0
 11
5969.5165610717677
 21
1372.5016315087146
 31
0.0
 11
5969.1912558198937
 21
1372.3464187940026
 31
0.0
 11
5968.7867481555013
 21
1372.1534162760599
 31
0.0
  0
SPLINE
  5
4B4
100
AcDbEntity
  8
0
  6
CONTINUOUS
 62
           3
100
AcDbSpline
210
0.0
220
0.0
230
1.0
 70
           0
 71
           3
 72
           8
 73
           5
 74
           7
 42
0.00000000001
 43
0.00000000001
 44
0.00000000001
 40
0.0
 40
0.0
 40
0.0
 40
0.7097107189143593
 40
1.6878556121189634
 40
2.9354150974117394
 40
2.9354150974117394
 40
2.9354150974117394
 10
5963.0132452878433
 20
1368.046581745233
 30
0.0
 10
5963.2266018694954
 20
1367.9869406026939
 30
0.0
 10
5964.1669045504623
 20
1367.7240908429501
 30
0.0
 10
5965.1443418916833
 20
1367.654102099865
 30
0.0
 10
5965.8999967216741
 20
1367.599993944254
 30
0.0
 11
5963.0132452878433
 21
1368.046581745233
 31
0.0
 11
5963.2721075078007
 21
1367.9742200752107
 31
0.0
 11
5963.6219810043658
 21
1367.876417350222
 31
0.0
 11
5964.1380638628534
 21
1367.7544828668392
 31
0.0
 11
5964.5964653461269
 21
1367.6933324312349
 31
0.0
 11
5965.1962864627931
 21
1367.6503826438047
 31
0.0
 11
5965.8999967216741
 21
1367.599993944254
 31
0.0
  0
SPLINE
  5
4B3
100
AcDbEntity
  8
0
  6
CONTINUOUS
 62
           3
100
AcDbSpline
210
0.0
220
0.0
230
1.0
 70
           0
 71
           3
 72
           8
 73
           5
 74
           7
 42
0.00000000001
 43
0.00000000001
 44
0.00000000001
 40
0.0
 40
0.0
 40
0.0
 40
0.7273681394916043
 40
1.7065914567896461
 40
2.9387223240302376
 40
2.9387223240302376
 40
2.9387223240302376
 10
5965.8999967216741
 20
1367.599993944254
 30
0.0
 10
5966.1387195010329
 20
1367.6054734833251
 30
0.0
 10
5967.1156271469818
 20
1367.6278969974501
 30
0.0
 10
5968.0674888562444
 20
1367.86637762072
 30
0.0
 10
5968.7867481553631
 20
1368.04658174531
 30
0.0
 11
5965.8999967216741
 21
1367.599993944254
 31
0.0
 11
5966.1831310149728
 21
1367.6064928859414
 31
0.0
 11
5966.5550883361529
 21
1367.6150306328614
 31
0.0
 11
5967.0808673755128
 21
1367.6510811733829
 31
0.0
 11
5967.5371268719327
 21
1367.7335000657699
 31
0.0
 11
5968.1147131849466
 21
1367.87820926313
 31
0.0
 11
5968.7867481553631
 21
1368.04658174531
 31
0.0
  0
SPLINE
  5
4B2
100
AcDbEntity
  8
0
  6
CONTINUOUS
 62
           3
100
AcDbSpline
210
0.0
220
0.0
230
1.0
 70
           0
 71
           3
 72
           8
 73
           5
 74
           7
 42
0.00000000001
 43
0.00000000001
 44
0.00000000001
 40
0.0
 40
0.0
 40
0.0
 40
1.2321308673569524
 40
2.21135418465495
 40
2.9387223241465308
 40
2.9387223241465308
 40
2.9387223241465308
 10
5968.7867481555013
 20
1372.1534162760599
 30
0.0
 10
5968.0674888562444
 20
1372.333620400577
 30
0.0
 10
5967.1156271469818
 20
1372.5721010238469
 30
0.0
 10
5966.1387195010329
 20
1372.594524537968
 30
0.0
 10
5965.8999967216741
 20
1372.60000407704
 30
0.0
 11
5968.7867481555013
 21
1372.1534162760599
 31
0.0
 11
5968.1147131849757
 21
1372.3217887581866
 31
0.0
 11
5967.5371268719109
 21
1372.4664979555325
 31
0.0
 11
5967.0808673755073
 21
1372.5489168479148
 31
0.0
 11
5966.5550883361529
 21
1372.5849673884334
 31
0.0
 11
5966.1831310149737
 21
1372.5935051353522
 31
0.0
 11
5965.8999967216741
 21
1372.60000407704
 31
0.0
  0
SPLINE
  5
4B1
100
AcDbEntity
  8
0
  6
CONTINUOUS
 62
           3
100
AcDbSpline
210
0.0
220
0.0
230
1.0
 70
           0
 71
           3
 72
           8
 73
           5
 74
           7
 42
0.00000000001
 43
0.00000000001
 44
0.00000000001
 40
0.0
 40
0.0
 40
0.0
 40
1.2475616964922991
 40
2.2257084622412742
 40
2.9354211178797089
 40
2.9354211178797089
 40
2.9354211178797089
 10
5965.8999967216741
 20
1372.60000407704
 30
0.0
 10
5965.1443400642538
 20
1372.5459088094699
 30
0.0
 10
5964.1668989125837
 20
1372.475936633467
 30
0.0
 10
5963.2266017037628
 20
1372.21306311116
 30
0.0
 10
5963.0132452878433
 20
1372.1534162760599
 30
0.0
 11
5965.8999967216741
 21
1372.60000407704
 31
0.0
 11
5965.1962845668031
 21
1372.5496273656911
 31
0.0
 11
5964.5964614170334
 21
1372.506687766785
 31
0.0
 11
5964.1380594916318
 21
1372.4455393603059
 31
0.0
 11
5963.6219787243281
 21
1372.3235964075052
 31
0.0
 11
5963.2721068549245
 21
1372.2257847264714
 31
0.0
 11
5963.0132452878433
 21
1372.1534162760599
 31
0.0
  0
SPLINE
  5
4B0
100
AcDbEntity
  8
0
  6
CONTINUOUS
 62
           3
100
AcDbSpline
210
0.0
220
0.0
230
1.0
 70
           0
 71
           3
 72
           8
 73
           5
 74
           7
 42
0.00000000001
 43
0.00000000001
 44
0.00000000001
 40
0.0
 40
0.0
 40
0.0
 40
0.2779452695555101
 40
0.7862805426580557
 40
1.542957355497877
 40
1.542957355497877
 40
1.542957355497877
 10
5961.5698696873451
 20
1372.60000407704
 30
0.0
 10
5961.6040862308737
 20
1372.6004497818089
 30
0.0
 10
5962.0914965280836
 20
1372.6067987893639
 30
0.0
 10
5962.5691362283633
 20
1372.834686833083
 30
0.0
 10
5963.0132452878433
 20
1373.046576976858
 30
0.0
 11
5961.5698696873451
 21
1372.60000407704
 31
0.0
 11
5961.6386062202846
 21
1372.6008994392632
 31
0.0
 11
5961.7763827320487
 21
1372.602694116395
 31
0.0
 11
5962.0607020292246
 21
1372.6286663808391
 31
0.0
 11
5962.2834323286852
 21
1372.6983738282336
 31
0.0
 11
5962.6087375183133
 21
1372.8535811178144
 31
0.0
 11
5963.0132452878433
 21
1373.046576976858
 31
0.0
  0
SPLINE
  5
4AF
100
AcDbEntity
  8
0
  6
CONTINUOUS
 62
           3
100
AcDbSpline
210
0.0
220
0.0
230
1.0
 70
           0
 71
           3
 72
           8
 73
           5
 74
           7
 42
0.00000000001
 43
0.00000000001
 44
0.00000000001
 40
0.0
 40
0.0
 40
0.0
 40
0.277946380332369
 40
0.7862830863398311
 40
1.542960998258835
 40
1.542960998258835
 40
1.542960998258835
 10
5961.5698696873451
 20
1377.5999993086641
 30
0.0
 10
5961.535653138505
 20
1377.599553607035
 30
0.0
 10
5961.0482406298743
 20
1377.5932046163559
 30
0.0
 10
5960.5706020337611
 20
1377.3653127377861
 30
0.0
 10
5960.1264938539734
 20
1377.1534189582039
 30
0.0
 11
5961.5698696873451
 21
1377.5999993086641
 31
0.0
 11
5961.5011329221979
 21
1377.5991039498599
 31
0.0
 11
5961.3633557244357
 21
1377.5973092767058
 31
0.0
 11
5961.0790355250738
 21
1377.571336617764
 31
0.0
 11
5960.8563051161109
 21
1377.5016279616389
 31
0.0
 11
5960.5310007594026
 21
1377.346418098854
 31
0.0
 11
5960.1264938539734
 21
1377.1534189582039
 31
0.0
  0
SPLINE
  5
4AE
100
AcDbEntity
  8
0
  6
CONTINUOUS
 62
           3
100
AcDbSpline
210
0.0
220
0.0
230
1.0
 70
           0
 71
           3
 72
           8
 73
           5
 74
           7
 42
0.00000000001
 43
0.00000000001
 44
0.00000000001
 40
0.0
 40
0.0
 40
0.0
 40
0.2779462752411331
 40
0.786282088328923
 40
1.5429577306520434
 40
1.5429577306520434
 40
1.5429577306520434
 10
5970.2301237560032
 20
1372.60000407704
 30
0.0
 10
5970.264340304323
 20
1372.600449784926
 30
0.0
 10
5970.7517526025049
 20
1372.6067988620509
 30
0.0
 10
5971.2293913151643
 20
1372.834686835233
 30
0.0
 10
5971.6734995893648
 20
1373.0465769769089
 30
0.0
 11
5970.2301237560032
 21
1372.60000407704
 31
0.0
 11
5970.298860540548
 21
1372.6008994486763
 31
0.0
 11
5970.4366377975475
 21
1372.6026941478135
 31
0.0
 11
5970.7209578270886
 21
1372.628666471853
 31
0.0
 11
5970.9436883057933
 21
1372.6983740154969
 31
0.0
 11
5971.2689926313706
 21
1372.8535811657177
 31
0.0
 11
5971.6734995893648
 21
1373.0465769769089
 31
0.0
  0
SPLINE
  5
4AD
100
AcDbEntity
  8
0
  6
CONTINUOUS
 62
           3
100
AcDbSpline
210
0.0
220
0.0
230
1.0
 70
           0
 71
           3
 72
           8
 73
           5
 74
           7
 42
0.00000000001
 43
0.00000000001
 44
0.00000000001
 40
0.0
 40
0.0
 40
0.0
 40
0.2779453746508621
 40
0.7862815406653696
 40
1.5429606230902535
 40
1.5429606230902535
 40
1.5429606230902535
 10
5970.2301237560032
 20
1377.5999993086641
 30
0.0
 10
5970.1959072119507
 20
1377.5995536101491
 30
0.0
 10
5969.7084967042911
 20
1377.593204689043
 30
0.0
 10
5969.2308571205731
 20
1377.3653127399359
 30
0.0
 10
5968.7867481555013
 20
1377.1534189582651
 30
0.0
 11
5970.2301237560032
 21
1377.5999993086641
 31
0.0
 11
5970.1613872424577
 21
1377.5991039592711
 31
0.0
 11
5970.0236107899264
 21
1377.5973093081222
 31
0.0
 11
5969.7392913229323
 21
1377.5713367087783
 31
0.0
 11
5969.5165610932199
 21
1377.5016281489043
 31
0.0
 11
5969.1912558724662
 21
1377.3464181467602
 31
0.0
 11
5968.7867481555013
 21
1377.1534189582651
 31
0.0
  0
SPLINE
  5
4AC
100
AcDbEntity
  8
0
  6
CONTINUOUS
 62
           3
100
AcDbSpline
210
0.0
220
0.0
230
1.0
 70
           0
 71
           3
 72
           8
 73
           5
 74
           7
 42
0.00000000001
 43
0.00000000001
 44
0.00000000001
 40
0.0
 40
0.0
 40
0.0
 40
0.7097104926828723
 40
1.6878550560197096
 40
2.9354142011747983
 40
2.9354142011747983
 40
2.9354142011747983
 10
5963.0132452878433
 20
1373.046576976858
 30
0.0
 10
5963.2266018489554
 20
1372.9869356693471
 30
0.0
 10
5964.1669038516529
 20
1372.7240853468561
 30
0.0
 10
5965.1443416651719
 20
1372.6541054126189
 30
0.0
 10
5965.8999967216741
 20
1372.60000407704
 30
0.0
 11
5963.0132452878433
 21
1373.046576976858
 31
0.0
 11
5963.2721074221527
 21
1372.9742151236549
 31
0.0
 11
5963.6219807028592
 21
1372.8764121790678
 31
0.0
 11
5964.1380633113731
 21
1372.7544784200788
 31
0.0
 11
5964.5964648393292
 21
1372.6933308075363
 31
0.0
 11
5965.1962862228365
 21
1372.6503864274537
 31
0.0
 11
5965.8999967216741
 21
1372.60000407704
 31
0.0
  0
SPLINE
  5
4AB
100
AcDbEntity
  8
0
  6
CONTINUOUS
 62
           3
100
AcDbSpline
210
0.0
220
0.0
230
1.0
 70
           0
 71
           3
 72
           8
 73
           5
 74
           7
 42
0.00000000001
 43
0.00000000001
 44
0.00000000001
 40
0.0
 40
0.0
 40
0.0
 40
0.7273675739554697
 40
1.7065896374630876
 40
2.9387184666017108
 40
2.9387184666017108
 40
2.9387184666017108
 10
5965.8999967216741
 20
1372.60000407704
 30
0.0
 10
5966.1387194651552
 20
1372.6054838012619
 30
0.0
 10
5967.1156260260923
 20
1372.627908051518
 30
0.0
 10
5968.067488501053
 20
1372.866379694284
 30
0.0
 10
5968.7867481553631
 20
1373.0465769769089
 30
0.0
 11
5965.8999967216741
 21
1372.60000407704
 31
0.0
 11
5966.1831309024892
 21
1372.6065032367167
 31
0.0
 11
5966.5550879579732
 21
1372.6150412673032
 31
0.0
 11
5967.0808665470104
 21
1372.6510911338639
 31
0.0
 11
5967.5371261778801
 21
1372.733507165116
 31
0.0
 11
5968.1147128338362
 21
1372.8782108826481
 31
0.0
 11
5968.7867481553631
 21
1373.0465769769089
 31
0.0
  0
SPLINE
  5
4AA
100
AcDbEntity
  8
0
  6
CONTINUOUS
 62
           3
100
AcDbSpline
210
0.0
220
0.0
230
1.0
 70
           0
 71
           3
 72
           8
 73
           5
 74
           7
 42
0.00000000001
 43
0.00000000001
 44
0.00000000001
 40
0.0
 40
0.0
 40
0.0
 40
1.2321298483005365
 40
2.2113525386976267
 40
2.9387203954176138
 40
2.9387203954176138
 40
2.9387203954176138
 10
5968.7867481555013
 20
1377.1534189582651
 30
0.0
 10
5968.0674886786446
 20
1377.3336196618129
 30
0.0
 10
5967.1156265865329
 20
1377.5720957948311
 30
0.0
 10
5966.1387194830913
 20
1377.594519677021
 30
0.0
 10
5965.8999967216741
 20
1377.5999993086641
 30
0.0
 11
5968.7867481555013
 21
1377.1534189582651
 31
0.0
 11
5968.1147130094178
 21
1377.3217882464421
 31
0.0
 11
5967.5371265248796
 21
1377.4664947038775
 31
0.0
 11
5967.0808669612516
 21
1377.5489121656931
 31
0.0
 11
5966.5550881470599
 21
1377.5849623692325
 31
0.0
 11
5966.1831309587296
 21
1377.5935002579847
 31
0.0
 11
5965.8999967216741
 21
1377.5999993086641
 31
0.0
  0
SPLINE
  5
4A9
100
AcDbEntity
  8
0
  6
CONTINUOUS
 62
           3
100
AcDbSpline
210
0.0
220
0.0
230
1.0
 70
           0
 71
           3
 72
           8
 73
           5
 74
           7
 42
0.00000000001
 43
0.00000000001
 44
0.00000000001
 40
0.0
 40
0.0
 40
0.0
 40
1.2475604207861459
 40
2.2257060852955175
 40
2.9354176594307049
 40
2.9354176594307049
 40
2.9354176594307049
 10
5965.8999967216741
 20
1377.5999993086641
 30
0.0
 10
5965.1443408647219
 20
1377.5459010071049
 30
0.0
 10
5964.1669013821602
 20
1377.475924952005
 30
0.0
 10
5963.2266017763623
 20
1377.213063029571
 30
0.0
 10
5963.0132452878433
 20
1377.1534189582651
 30
0.0
 11
5965.8999967216741
 21
1377.5999993086641
 31
0.0
 11
5965.1962853948316
 21
1377.5496197777973
 31
0.0
 11
5964.5964631282077
 21
1377.5066777883151
 31
0.0
 11
5964.1380614015352
 21
1377.4455297788054
 31
0.0
 11
5963.6219797136127
 21
1377.3235914228967
 31
0.0
 11
5963.2721071385458
 21
1377.2257841100761
 31
0.0
 11
5963.0132452878433
 21
1377.1534189582651
 31
0.0
  0
SPLINE
  5
4A8
100
AcDbEntity
  8
0
  6
CONTINUOUS
 62
           3
100
AcDbSpline
210
0.0
220
0.0
230
1.0
 70
           0
 71
           3
 72
           8
 73
           5
 74
           7
 42
0.00000000001
 43
0.00000000001
 44
0.00000000001
 40
0.0
 40
0.0
 40
0.0
 40
0.2779454797466353
 40
0.7862825386909706
 40
1.5429638907223457
 40
1.5429638907223457
 40
1.5429638907223457
 10
5961.5698696873451
 20
1359.9999994040461
 30
0.0
 10
5961.6040862319223
 20
1360.000445096304
 30
0.0
 10
5962.0914969500309
 20
1360.0067939309611
 30
0.0
 10
5962.5691364171953
 20
1360.2346897854679
 30
0.0
 10
5963.0132452878433
 20
1360.4465872050221
 30
0.0
 11
5961.5698696873451
 21
1359.9999994040461
 31
0.0
 11
5961.6386061814947
 21
1360.0008947406066
 31
0.0
 11
5961.7763825747916
 21
1360.0026893657719
 31
0.0
 11
5962.0607022116064
 21
1360.0286623000163
 31
0.0
 11
5962.2834323715761
 21
1360.0983719723718
 31
0.0
 11
5962.6087376234527
 21
1360.2535846870824
 31
0.0
 11
5963.0132452878433
 21
1360.4465872050221
 31
0.0
  0
SPLINE
  5
4A7
100
AcDbEntity
  8
0
  6
CONTINUOUS
 62
           3
100
AcDbSpline
210
0.0
220
0.0
230
1.0
 70
           0
 71
           3
 72
           8
 73
           5
 74
           7
 42
0.00000000001
 43
0.00000000001
 44
0.00000000001
 40
0.0
 40
0.0
 40
0.0
 40
0.277946275237023
 40
0.7862820883287771
 40
1.5429577306123259
 40
1.5429577306123259
 40
1.5429577306123259
 10
5961.5698696873451
 20
1364.9999946356711
 30
0.0
 10
5961.5356531390325
 20
1364.9995489277881
 30
0.0
 10
5961.0482408408443
 20
1364.9931998506599
 30
0.0
 10
5960.5706021281812
 20
1364.765311877482
 30
0.0
 10
5960.1264938539734
 20
1364.553421735915
 30
0.0
 11
5961.5698696873451
 21
1364.9999946356711
 31
0.0
 11
5961.5011329028039
 21
1364.9990992640367
 31
0.0
 11
5961.363355645808
 21
1364.9973045648994
 31
0.0
 11
5961.0790356162615
 21
1364.9713322408579
 31
0.0
 11
5960.8563051375477
 21
1364.9016246972119
 31
0.0
 11
5960.5310008119714
 21
1364.7464175470227
 31
0.0
 11
5960.1264938539734
 21
1364.553421735915
 31
0.0
  0
SPLINE
  5
4A6
100
AcDbEntity
  8
0
  6
CONTINUOUS
 62
           3
100
AcDbSpline
210
0.0
220
0.0
230
1.0
 70
           0
 71
           3
 72
           8
 73
           5
 74
           7
 42
0.00000000001
 43
0.00000000001
 44
0.00000000001
 40
0.0
 40
0.0
 40
0.0
 40
0.2779464854703125
 40
0.7862840844059121
 40
1.5429642659466389
 40
1.5429642659466389
 40
1.5429642659466389
 10
5970.2301237559632
 20
1359.999999403919
 30
0.0
 10
5970.2643403053644
 20
1360.000445099422
 30
0.0
 10
5970.7517530244522
 20
1360.006794003652
 30
0.0
 10
5971.229391504
 20
1360.2346897876139
 30
0.0
 10
5971.6734995893648
 20
1360.446587205121
 30
0.0
 11
5970.2301237559632
 21
1359.999999403919
 31
0.0
 11
5970.2988605017472
 21
1360.0008947499887
 31
0.0
 11
5970.4366376402977
 21
1360.0026893971922
 31
0.0
 11
5970.7209580094714
 21
1360.0286623910338
 31
0.0
 11
5970.9436883486824
 21
1360.098372159639
 31
0.0
 11
5971.26899273651
 21
1360.2535847349968
 31
0.0
 11
5971.6734995893648
 21
1360.446587205121
 31
0.0
  0
SPLINE
  5
4A5
100
AcDbEntity
  8
0
  6
CONTINUOUS
 62
           3
100
AcDbSpline
210
0.0
220
0.0
230
1.0
 70
           0
 71
           3
 72
           8
 73
           5
 74
           7
 42
0.00000000001
 43
0.00000000001
 44
0.00000000001
 40
0.0
 40
0.0
 40
0.0
 40
0.2779452695518562
 40
0.7862805426550148
 40
1.5429573555003184
 40
1.5429573555003184
 40
1.5429573555003184
 10
5970.2301237560032
 20
1364.9999946356711
 30
0.0
 10
5970.1959072124746
 20
1364.9995489309019
 30
0.0
 10
5969.708496915272
 20
1364.9931999233499
 30
0.0
 10
5969.2308572149823
 20
1364.765311879632
 30
0.0
 10
5968.7867481555013
 20
1364.5534217358561
 30
0.0
 11
5970.2301237560032
 21
1364.9999946356711
 31
0.0
 11
5970.1613872230637
 21
1364.9990992734479
 31
0.0
 11
5970.0236107113033
 21
1364.997304596317
 31
0.0
 11
5969.7392914141292
 21
1364.9713323318747
 31
0.0
 11
5969.5165611146667
 21
1364.9016248844812
 31
0.0
 11
5969.1912559250331
 21
1364.7464175949005
 31
0.0
 11
5968.7867481555013
 21
1364.5534217358561
 31
0.0
  0
SPLINE
  5
4A4
100
AcDbEntity
  8
0
  6
CONTINUOUS
 62
           3
100
AcDbSpline
210
0.0
220
0.0
230
1.0
 70
           0
 71
           3
 72
           8
 73
           5
 74
           7
 42
0.00000000001
 43
0.00000000001
 44
0.00000000001
 40
0.0
 40
0.0
 40
0.0
 40
0.7097126556373944
 40
1.6878594213863698
 40
2.9354211178786525
 40
2.9354211178786525
 40
2.9354211178786525
 10
5963.0132452878433
 20
1360.4465872050221
 30
0.0
 10
5963.2266017037628
 20
1360.3869403699259
 30
0.0
 10
5964.1668989125837
 20
1360.1240668476189
 30
0.0
 10
5965.1443400642538
 20
1360.054094671616
 30
0.0
 10
5965.8999967216741
 20
1359.9999994040461
 30
0.0
 11
5963.0132452878433
 21
1360.4465872050221
 31
0.0
 11
5963.2721068549235
 21
1360.3742187546136
 31
0.0
 11
5963.6219787243281
 21
1360.2764070735807
 31
0.0
 11
5964.1380594916318
 21
1360.1544641207797
 31
0.0
 11
5964.5964614170334
 21
1360.0933157143008
 31
0.0
 11
5965.1962845668031
 21
1360.0503761153948
 31
0.0
 11
5965.8999967216741
 21
1359.9999994040461
 31
0.0
  0
SPLINE
  5
4A3
100
AcDbEntity
  8
0
  6
CONTINUOUS
 62
           3
100
AcDbSpline
210
0.0
220
0.0
230
1.0
 70
           0
 71
           3
 72
           8
 73
           5
 74
           7
 42
0.00000000001
 43
0.00000000001
 44
0.00000000001
 40
0.0
 40
0.0
 40
0.0
 40
0.7273681394915312
 40
1.7065914567896006
 40
2.9387223240355249
 40
2.9387223240355249
 40
2.9387223240355249
 10
5965.8999967216741
 20
1359.9999994040461
 30
0.0
 10
5966.1387195010329
 20
1360.005478943114
 30
0.0
 10
5967.1156271469818
 20
1360.027902457239
 30
0.0
 10
5968.0674888562444
 20
1360.2663830805091
 30
0.0
 10
5968.7867481553631
 20
1360.446587205121
 30
0.0
 11
5965.8999967216741
 21
1359.9999994040461
 31
0.0
 11
5966.1831310149728
 21
1360.0064983457312
 31
0.0
 11
5966.555088336152
 21
1360.0150360926502
 31
0.0
 11
5967.0808673755109
 21
1360.0510866331717
 31
0.0
 11
5967.5371268719318
 21
1360.133505525559
 31
0.0
 11
5968.1147131849466
 21
1360.2782147229245
 31
0.0
 11
5968.7867481553631
 21
1360.446587205121
 31
0.0
  0
SPLINE
  5
4A2
100
AcDbEntity
  8
0
  6
CONTINUOUS
 62
           3
100
AcDbSpline
210
0.0
220
0.0
230
1.0
 70
           0
 71
           3
 72
           8
 73
           5
 74
           7
 42
0.00000000001
 43
0.00000000001
 44
0.00000000001
 40
0.0
 40
0.0
 40
0.0
 40
1.2321288292600681
 40
2.21135089276817
 40
2.938718466723564
 40
2.938718466723564
 40
2.938718466723564
 10
5968.7867481555013
 20
1364.5534217358561
 30
0.0
 10
5968.067488501053
 20
1364.7336190184269
 30
0.0
 10
5967.1156260260923
 20
1364.9720906611969
 30
0.0
 10
5966.1387194651552
 20
1364.9945149114519
 30
0.0
 10
5965.8999967216741
 20
1364.9999946356711
 30
0.0
 11
5968.7867481555013
 21
1364.5534217358561
 31
0.0
 11
5968.1147128338653
 21
1364.721787830078
 31
0.0
 11
5967.5371261778573
 21
1364.8664915476029
 31
0.0
 11
5967.0808665470031
 21
1364.948907578852
 31
0.0
 11
5966.5550879579732
 21
1364.9849574454111
 31
0.0
 11
5966.1831309024892
 21
1364.9934954759963
 31
0.0
 11
5965.8999967216741
 21
1364.9999946356711
 31
0.0
  0
SPLINE
  5
4A1
100
AcDbEntity
  8
0
  6
CONTINUOUS
 62
           3
100
AcDbSpline
210
0.0
220
0.0
230
1.0
 70
           0
 71
           3
 72
           8
 73
           5
 74
           7
 42
0.00000000001
 43
0.00000000001
 44
0.00000000001
 40
0.0
 40
0.0
 40
0.0
 40
1.2475591451550971
 40
2.2257037084919267
 40
2.935414201174003
 40
2.935414201174003
 40
2.935414201174003
 10
5965.8999967216741
 20
1364.9999946356711
 30
0.0
 10
5965.1443416651719
 20
1364.9458933000919
 30
0.0
 10
5964.1669038516529
 20
1364.875913365855
 30
0.0
 10
5963.2266018489554
 20
1364.613063043364
 30
0.0
 10
5963.0132452878433
 20
1364.5534217358561
 30
0.0
 11
5965.8999967216741
 21
1364.9999946356711
 31
0.0
 11
5965.1962862228356
 21
1364.9496122852572
 31
0.0
 11
5964.5964648393292
 21
1364.9066679051746
 31
0.0
 11
5964.1380633113731
 21
1364.8455202926318
 31
0.0
 11
5963.6219807028592
 21
1364.7235865336434
 31
0.0
 11
5963.2721074221536
 21
1364.6257835890569
 31
0.0
 11
5963.0132452878433
 21
1364.5534217358561
 31
0.0
  0
SPLINE
  5
4A0
100
AcDbEntity
  8
0
  6
CONTINUOUS
 62
           3
100
AcDbSpline
210
0.0
220
0.0
230
1.0
 70
           0
 71
           3
 72
           8
 73
           5
 74
           7
 42
0.00000000001
 43
0.00000000001
 44
0.00000000001
 40
0.0
 40
0.0
 40
0.0
 40
0.2779464854669719
 40
0.7862840844025922
 40
1.5429642659230511
 40
1.5429642659230511
 40
1.5429642659230511
 10
5970.2301237559632
 20
1359.999999403919
 30
0.0
 10
5970.2643403053644
 20
1359.9995537086741
 30
0.0
 10
5970.7517530244522
 20
1359.9932048044409
 30
0.0
 10
5971.229391504
 20
1359.765309020479
 30
0.0
 10
5971.6734995893648
 20
1359.553411603019
 30
0.0
 11
5970.2301237559632
 21
1359.999999403919
 31
0.0
 11
5970.2988605017472
 21
1359.9991040580426
 31
0.0
 11
5970.4366376402968
 21
1359.9973094109027
 31
0.0
 11
5970.7209580094714
 21
1359.9713364170591
 31
0.0
 11
5970.9436883486851
 21
1359.9016266484523
 31
0.0
 11
5971.2689927365118
 21
1359.7464140731072
 31
0.0
 11
5971.6734995893648
 21
1359.553411603019
 31
0.0
  0
SPLINE
  5
49F
100
AcDbEntity
  8
0
  6
CONTINUOUS
 62
           3
100
AcDbSpline
210
0.0
220
0.0
230
1.0
 70
           0
 71
           3
 72
           8
 73
           5
 74
           7
 42
0.00000000001
 43
0.00000000001
 44
0.00000000001
 40
0.0
 40
0.0
 40
0.0
 40
0.3778155284979826
 40
0.8942062233973662
 40
1.5357514174657472
 40
1.5357514174657472
 40
1.5357514174657472
 10
5960.1264938539734
 20
1359.553411603019
 30
0.0
 10
5960.2210118970333
 20
1359.6064716909041
 30
0.0
 10
5960.6908817949034
 20
1359.8702450113719
 30
0.0
 10
5961.1795227343036
 20
1359.9423771861971
 30
0.0
 10
5961.5698696873451
 20
1359.9999994040461
 30
0.0
 11
5960.1264938539734
 21
1359.553411603019
 31
0.0
 11
5960.2470141544063
 21
1359.621068714026
 31
0.0
 11
5960.4195389695851
 21
1359.7179198712774
 31
0.0
 11
5960.67752441433
 21
1359.8402057052344
 31
0.0
 11
5960.9087950979265
 21
1359.9024129269167
 31
0.0
 11
5961.2094275634699
 21
1359.9467916758394
 31
0.0
 11
5961.5698696873451
 21
1359.9999994040461
 31
0.0
  0
SPLINE
  5
49E
100
AcDbEntity
  8
0
  6
CONTINUOUS
 62
           3
100
AcDbSpline
210
0.0
220
0.0
230
1.0
 70
           0
 71
           3
 72
           8
 73
           5
 74
           7
 42
0.00000000001
 43
0.00000000001
 44
0.00000000001
 40
0.0
 40
0.0
 40
0.0
 40
0.6415450374763292
 40
1.1579303686098261
 40
1.5357381749046031
 40
1.5357381749046031
 40
1.5357381749046031
 10
5961.5698696873451
 20
1355.0000041724179
 30
0.0
 10
5961.1795237086126
 20
1355.0576336938741
 30
0.0
 10
5960.69088462936
 20
1355.129774916883
 30
0.0
 10
5960.2210119621132
 20
1355.3935224482541
 30
0.0
 10
5960.1264938539734
 20
1355.446577072222
 30
0.0
 11
5961.5698696873451
 21
1355.0000041724179
 31
0.0
 11
5961.2094282457037
 21
1355.0532186767975
 31
0.0
 11
5960.9087958782438
 21
1355.0976031470238
 31
0.0
 11
5960.6775260473187
 21
1355.1598096979608
 31
0.0
 11
5960.4195390523128
 21
1355.2820858110533
 31
0.0
 11
5960.247014207629
 21
1355.378926944946
 31
0.0
 11
5960.1264938539734
 21
1355.446577072222
 31
0.0
  0
SPLINE
  5
49D
100
AcDbEntity
  8
0
  6
CONTINUOUS
 62
           3
100
AcDbSpline
210
0.0
220
0.0
230
1.0
 70
           0
 71
           3
 72
           8
 73
           5
 74
           7
 42
0.00000000001
 43
0.00000000001
 44
0.00000000001
 40
0.0
 40
0.0
 40
0.0
 40
0.3539460334955815
 40
0.8643414136597776
 40
1.5431068114008677
 40
1.5431068114008677
 40
1.5431068114008677
 10
5961.5698696873451
 20
1359.9999994040461
 30
0.0
 10
5961.6793238424234
 20
1359.9953935078281
 30
0.0
 10
5962.1676816710433
 20
1359.9748431187379
 30
0.0
 10
5962.6438213484453
 20
1359.7375336343521
 30
0.0
 10
5963.0132452879707
 20
1359.553411603019
 30
0.0
 11
5961.5698696873451
 21
1359.9999994040461
 31
0.0
 11
5961.7019556855812
 21
1359.9944411463523
 31
0.0
 11
5961.8793053701329
 21
1359.9869781657071
 31
0.0
 11
5962.1466781413865
 21
1359.9524131949236
 31
0.0
 11
5962.3720438533273
 21
1359.8729883765113
 31
0.0
 11
5962.6682329595469
 21
1359.7253668120586
 31
0.0
 11
5963.0132452879707
 21
1359.553411603019
 31
0.0
  0
SPLINE
  5
49C
100
AcDbEntity
  8
0
  6
CONTINUOUS
 62
           3
100
AcDbSpline
210
0.0
220
0.0
230
1.0
 70
           0
 71
           3
 72
           8
 73
           5
 74
           7
 42
0.00000000001
 43
0.00000000001
 44
0.00000000001
 40
0.0
 40
0.0
 40
0.0
 40
0.6787700534929413
 40
1.1891668948823917
 40
1.5431123743460919
 40
1.5431123743460919
 40
1.5431123743460919
 10
5963.0132452878433
 20
1355.44657707224
 30
0.0
 10
5962.6438214744021
 20
1355.2624483716049
 30
0.0
 10
5962.1676820506227
 20
1355.025130336782
 30
0.0
 10
5961.6793238525843
 20
1355.004604551259
 30
0.0
 10
5961.5698696873451
 20
1355.0000041724179
 30
0.0
 11
5963.0132452878433
 21
1355.44657707224
 31
0.0
 11
5962.6682329736368
 21
1355.2746155830055
 31
0.0
 11
5962.3720436578988
 21
1355.1269885165714
 31
0.0
 11
5962.1466781919471
 21
1355.0475647466064
 31
0.0
 11
5961.8793050086433
 21
1355.013009796291
 31
0.0
 11
5961.7019556002888
 21
1355.005555767807
 31
0.0
 11
5961.5698696873451
 21
1355.0000041724179
 31
0.0
  0
SPLINE
  5
49B
100
AcDbEntity
  8
0
  6
CONTINUOUS
 62
           3
100
AcDbSpline
210
0.0
220
0.0
230
1.0
 70
           0
 71
           3
 72
           8
 73
           5
 74
           7
 42
0.00000000001
 43
0.00000000001
 44
0.00000000001
 40
0.0
 40
0.0
 40
0.0
 40
0.2779452695518754
 40
0.7862805426561302
 40
1.542957355619154
 40
1.542957355619154
 40
1.542957355619154
 10
5970.2301237560032
 20
1355.0000041724179
 30
0.0
 10
5970.1959072124746
 20
1355.0004498771871
 30
0.0
 10
5969.708496915272
 20
1355.006798884742
 30
0.0
 10
5969.2308572149823
 20
1355.234686928465
 30
0.0
 10
5968.7867481553631
 20
1355.446577072222
 30
0.0
 11
5970.2301237560032
 21
1355.0000041724179
 31
0.0
 11
5970.1613872230637
 21
1355.0008995346413
 31
0.0
 11
5970.0236107113033
 21
1355.0026942117731
 31
0.0
 11
5969.7392914141337
 21
1355.0286664762154
 31
0.0
 11
5969.5165611146849
 21
1355.0983739236044
 31
0.0
 11
5969.1912559250022
 21
1355.2535812131889
 31
0.0
 11
5968.7867481553631
 21
1355.446577072222
 31
0.0
  0
SPLINE
  5
49A
100
AcDbEntity
  8
0
  6
CONTINUOUS
 62
           3
100
AcDbSpline
210
0.0
220
0.0
230
1.0
 70
           0
 71
           3
 72
           8
 73
           5
 74
           7
 42
0.00000000001
 43
0.00000000001
 44
0.00000000001
 40
0.0
 40
0.0
 40
0.0
 40
0.5558558490687683
 40
1.5343195422045928
 40
2.9385037456634571
 40
2.9385037456634571
 40
2.9385037456634571
 10
5965.8999967216741
 20
1355.0000041723199
 30
0.0
 10
5965.8315636362913
 20
1355.0004498783001
 30
0.0
 10
5964.8567416872402
 20
1355.0067989106669
 30
0.0
 10
5963.9014629162639
 20
1355.2346869292289
 30
0.0
 10
5963.0132452878433
 20
1355.44657707224
 30
0.0
 11
5965.8999967216741
 21
1355.0000041723199
 31
0.0
 11
5965.7603818762454
 21
1355.0009134863203
 31
0.0
 11
5965.4784035107268
 21
1355.0027500163612
 31
0.0
 11
5964.9140828960144
 21
1355.0291829422172
 31
0.0
 11
5964.4644446988514
 21
1355.1003839311738
 31
0.0
 11
5963.8201539548063
 21
1355.2540837154679
 31
0.0
 11
5963.0132452878433
 21
1355.44657707224
 31
0.0
  0
SPLINE
  5
499
100
AcDbEntity
  8
0
  6
CONTINUOUS
 62
           3
100
AcDbSpline
210
0.0
220
0.0
230
1.0
 70
           0
 71
           3
 72
           8
 73
           5
 74
           7
 42
0.00000000001
 43
0.00000000001
 44
0.00000000001
 40
0.0
 40
0.0
 40
0.0
 40
0.5558562714160756
 40
1.5343210643721896
 40
2.9385072682926787
 40
2.9385072682926787
 40
2.9385072682926787
 10
5965.8999967216741
 20
1359.9999994040461
 30
0.0
 10
5965.9684298091433
 20
1359.9995537106749
 30
0.0
 10
5966.9432526000246
 20
1359.993204851211
 30
0.0
 10
5967.898530904743
 20
1359.765309021861
 30
0.0
 10
5968.7867481555013
 20
1359.5534116030669
 30
0.0
 11
5965.8999967216741
 21
1359.9999994040461
 31
0.0
 11
5966.0396116244065
 21
1359.999090115296
 31
0.0
 11
5966.3215901576605
 21
1359.9972536357875
 31
0.0
 11
5966.8859111712873
 21
1359.9708199944744
 31
0.0
 11
5967.3355493274375
 21
1359.8996166396882
 31
0.0
 11
5967.9798398231069
 21
1359.7459115716192
 31
0.0
 11
5968.7867481555013
 21
1359.5534116030669
 31
0.0
  0
CIRCLE
  5
498
100
AcDbEntity
  8
1
  6
CONTINUOUS
 62
           7
100
AcDbCircle
 10
0.0
 20
5895.0
 40
400.0
  0
CIRCLE
  5
497
100
AcDbEntity
  8
1
  6
CONTINUOUS
 62
           4
100
AcDbCircle
 10
0.0
 20
5895.0
 40
117.5
  0
CIRCLE
  5
496
100
AcDbEntity
  8
1
  6
CONTINUOUS
 62
           4
100
AcDbCircle
 10
0.0
 20
5895.0
 40
145.0
  0
CIRCLE
  5
495
100
AcDbEntity
  8
1
  6
CONTINUOUS
 62
           7
100
AcDbCircle
 10
0.0
 20
5895.0
 40
175.0
  0
CIRCLE
  5
494
100
AcDbEntity
  8
1
  6
CONTINUOUS
 62
           3
100
AcDbCircle
 10
-1241.527744678122
 20
1295.200848327049
 40
40.0
  0
CIRCLE
  5
493
100
AcDbEntity
  8
1
  6
CONTINUOUS
 62
           7
100
AcDbCircle
 10
-450.0
 20
4685.0
 40
45.0
  0
CIRCLE
  5
492
100
AcDbEntity
  8
1
  6
CONTINUOUS
 62
           7
100
AcDbCircle
 10
5379.999999999998
 20
1485.000000000002
 40
10.0
  0
CIRCLE
  5
491
100
AcDbEntity
  8
1
  6
CONTINUOUS
 62
           7
100
AcDbCircle
 10
5379.999999999998
 20
1515.000000000002
 40
10.0
  0
CIRCLE
  5
490
100
AcDbEntity
  8
1
  6
CONTINUOUS
 62
           7
100
AcDbCircle
 10
5379.999999999998
 20
1500.000000000002
 40
40.0
  0
CIRCLE
  5
48F
100
AcDbEntity
  8
1
  6
CONTINUOUS
 62
           7
100
AcDbCircle
 10
5149.999999999998
 20
1500.000000000002
 40
40.0
  0
CIRCLE
  5
48E
100
AcDbEntity
  8
1
  6
CONTINUOUS
 62
           7
100
AcDbCircle
 10
5149.999999999998
 20
1500.000000000002
 40
9.25
  0
CIRCLE
  5
48D
100
AcDbEntity
  8
1
  6
CONTINUOUS
 62
           2
100
AcDbCircle
 10
6350.0
 20
600.000000000002
 40
8.35
  0
CIRCLE
  5
48C
100
AcDbEntity
  8
1
  6
CONTINUOUS
 62
           7
100
AcDbCircle
 10
6350.0
 20
600.000000000002
 40
15.0
  0
CIRCLE
  5
48B
100
AcDbEntity
  8
1
  6
CONTINUOUS
 62
           7
100
AcDbCircle
 10
1300.0
 20
4685.0
 40
45.0
  0
CIRCLE
  5
48A
100
AcDbEntity
  8
1
  6
CONTINUOUS
 62
           7
100
AcDbCircle
 10
-2200.0
 20
4685.0
 40
45.0
  0
ARC
  5
489
100
AcDbEntity
  8
7
  6
CONTINUOUS
 62
           7
100
AcDbCircle
 10
6371.834847999999
 20
3249.000000000002
 40
3.0
100
AcDbArc
 50
-90.0
 51
-54.999999999992
  0
ARC
  5
488
100
AcDbEntity
  8
7
  6
CONTINUOUS
 62
           7
100
AcDbCircle
 10
6370.700000000001
 20
3242.800000000001
 40
3.200000000001
100
AcDbArc
 50
90.0
 51
180.0
  0
ARC
  5
487
100
AcDbEntity
  8
7
  6
CONTINUOUS
 62
           7
100
AcDbCircle
 10
6390.339735999998
 20
3269.041134000001
 40
2.000000000001
100
AcDbArc
 50
-54.999999999913
 51
-5.310029000054
  0
ARC
  5
486
100
AcDbEntity
  8
7
  6
CONTINUOUS
 62
           7
100
AcDbCircle
 10
6395.539735999999
 20
3268.800000000001
 40
3.200000000001
100
AcDbArc
 50
90.0
 51
174.689971000011
  0
ARC
  5
485
100
AcDbEntity
  8
7
  6
CONTINUOUS
 62
           7
100
AcDbCircle
 10
6648.165152999998
 20
3249.000000000002
 40
2.999999999999
100
AcDbArc
 50
-124.999999999951
 51
-90.0
  0
ARC
  5
484
100
AcDbEntity
  8
7
  6
CONTINUOUS
 62
           7
100
AcDbCircle
 10
6649.299999999999
 20
3242.800000000001
 40
3.200000000001
100
AcDbArc
 50
0.0
 51
90.0
  0
ARC
  5
483
100
AcDbEntity
  8
7
  6
CONTINUOUS
 62
           7
100
AcDbCircle
 10
6629.660263000002
 20
3269.041134000001
 40
2.000000000003
100
AcDbArc
 50
-174.689970999946
 51
-125.000000000087
  0
ARC
  5
482
100
AcDbEntity
  8
7
  6
CONTINUOUS
 62
           7
100
AcDbCircle
 10
6624.460263000001
 20
3268.800000000001
 40
3.199999999998
100
AcDbArc
 50
5.310028999988
 51
90.0
  0
ARC
  5
481
100
AcDbEntity
  8
7
  6
CONTINUOUS
 62
           7
100
AcDbCircle
 10
6654.75
 20
3209.625000001463
 40
2.310438270445
100
AcDbArc
 50
-166.865977658294
 51
-115.939287658338
  0
ARC
  5
480
100
AcDbEntity
  8
7
  6
CONTINUOUS
 62
           7
100
AcDbCircle
 10
6651.799999999999
 20
3205.000000000002
 40
3.200000000001
100
AcDbArc
 50
0.0
 51
50.926689999957
  0
ARC
  5
47F
100
AcDbEntity
  8
7
  6
CONTINUOUS
 62
           7
100
AcDbCircle
 10
6368.450000000001
 20
3204.474999998542
 40
3.489717037458
100
AcDbArc
 50
120.420768185199
 51
171.347458185191
  0
ARC
  5
47E
100
AcDbEntity
  8
7
  6
CONTINUOUS
 62
           7
100
AcDbCircle
 10
6365.5
 20
3209.100000000001
 40
1.999999999998
100
AcDbArc
 50
-50.92668999996
 51
0.0
  0
ARC
  5
47D
100
AcDbEntity
  8
7
  6
CONTINUOUS
 62
           7
100
AcDbCircle
 10
144.5
 20
3209.100000000002
 40
2.0
100
AcDbArc
 50
180.0
 51
-129.073310000015
  0
ARC
  5
47C
100
AcDbEntity
  8
7
  6
CONTINUOUS
 62
           7
100
AcDbCircle
 10
141.549999999999
 20
3204.474999998542
 40
3.48971703746
100
AcDbArc
 50
8.652541814808
 51
59.579231814804
  0
ARC
  5
47B
100
AcDbEntity
  8
7
  6
CONTINUOUS
 62
           7
100
AcDbCircle
 10
-141.799999999999
 20
3205.000000000002
 40
3.200000000001
100
AcDbArc
 50
129.073310000008
 51
180.0
  0
ARC
  5
47A
100
AcDbEntity
  8
7
  6
CONTINUOUS
 62
           7
100
AcDbCircle
 10
-144.75
 20
3209.625000001465
 40
2.310438270446
100
AcDbArc
 50
-64.060712341686
 51
-13.134022341728
  0
ARC
  5
479
100
AcDbEntity
  8
7
  6
CONTINUOUS
 62
           7
100
AcDbCircle
 10
-114.460263000001
 20
3268.8
 40
3.200000000002
100
AcDbArc
 50
90.0
 51
174.689970999954
  0
ARC
  5
478
100
AcDbEntity
  8
7
  6
CONTINUOUS
 62
           7
100
AcDbCircle
 10
-119.660263000002
 20
3269.041134000003
 40
1.999999999999
100
AcDbArc
 50
-55.000000000004
 51
-5.31002900005
  0
ARC
  5
477
100
AcDbEntity
  8
7
  6
CONTINUOUS
 62
           7
100
AcDbCircle
 10
-139.299999999999
 20
3242.8
 40
3.200000000002
100
AcDbArc
 50
90.0
 51
180.0
  0
ARC
  5
476
100
AcDbEntity
  8
7
  6
CONTINUOUS
 62
           7
100
AcDbCircle
 10
-138.165153000002
 20
3249.000000000002
 40
3.0
100
AcDbArc
 50
-90.0
 51
-55.000000000003
  0
ARC
  5
475
100
AcDbEntity
  8
7
  6
CONTINUOUS
 62
           7
100
AcDbCircle
 10
114.460264000001
 20
3268.8
 40
3.199999999999
100
AcDbArc
 50
5.310029000045
 51
90.0
  0
ARC
  5
474
100
AcDbEntity
  8
7
  6
CONTINUOUS
 62
           7
100
AcDbCircle
 10
119.660263999998
 20
3269.041134000003
 40
2.0
100
AcDbArc
 50
-174.689970999949
 51
-124.999999999995
  0
ARC
  5
473
100
AcDbEntity
  8
7
  6
CONTINUOUS
 62
           7
100
AcDbCircle
 10
139.299999999999
 20
3242.8
 40
3.200000000001
100
AcDbArc
 50
0.0
 51
90.0
  0
ARC
  5
472
100
AcDbEntity
  8
7
  6
CONTINUOUS
 62
           7
100
AcDbCircle
 10
138.165151999998
 20
3249.000000000002
 40
3.0
100
AcDbArc
 50
-124.99999999994
 51
-90.0
  0
ARC
  5
471
100
AcDbEntity
  8
0
  6
CONTINUOUS
 62
           7
100
AcDbCircle
 10
-68.0
 20
5864.999999999998
 40
670.0
100
AcDbArc
 50
-90.0
 51
-65.560184603745
  0
ARC
  5
470
100
AcDbEntity
  8
0
  6
CONTINUOUS
 62
           7
100
AcDbCircle
 10
45.0
 20
5912.0
 40
469.999999999995
100
AcDbArc
 50
73.766596122265
 51
91.7405042324
  0
ARC
  5
46F
100
AcDbEntity
  8
0
  6
CONTINUOUS
 62
           7
100
AcDbCircle
 10
40.018279316733
 20
5825.0
 40
549.999999999998
100
AcDbArc
 50
19.235892312416
 51
32.0167313156
  0
ARC
  5
46E
100
AcDbEntity
  8
0
  6
CONTINUOUS
 62
           7
100
AcDbCircle
 10
-73.065287554535
 20
5945.456436540922
 40
750.47353070159
100
AcDbArc
 50
-175.763021490042
 51
-89.613281760693
  0
ARC
  5
46D
100
AcDbEntity
  8
1
  6
CONTINUOUS
 62
           7
100
AcDbCircle
 10
-821.804904288238
 20
5895.0
 40
5.0
100
AcDbArc
 50
-86.363530447536
 51
93.208888116186
  0
ARC
  5
46C
100
AcDbEntity
  8
0
  6
CONTINUOUS
 62
           7
100
AcDbCircle
 10
-153.000000000004
 20
5935.0
 40
670.0
100
AcDbArc
 50
180.0
 51
-177.004902602006
  0
ARC
  5
46B
100
AcDbEntity
  8
1
  6
CONTINUOUS
 62
           7
100
AcDbCircle
 10
560.93768829546
 20
6001.4737072463
 40
4.999999999997
100
AcDbArc
 50
108.975456054183
 51
-71.54541646232
  0
ARC
  5
46A
100
AcDbEntity
  8
0
  6
CONTINUOUS
 62
           7
100
AcDbCircle
 10
40.00926063416
 20
5825.056493636275
 40
549.990931231539
100
AcDbArc
 50
0.047858441198
 51
18.188262890001
  0
ARC
  5
469
100
AcDbEntity
  8
0
  6
CONTINUOUS
 62
           7
100
AcDbCircle
 10
-45.556018666513
 20
5837.719433636255
 40
635.943732327676
100
AcDbArc
 50
-66.38422217146
 51
-2.000810249325
  0
ARC
  5
468
100
AcDbEntity
  8
1
  6
CONTINUOUS
 62
           7
100
AcDbCircle
 10
590.022726517382
 20
5820.516111890456
 40
4.999833824393
100
AcDbArc
 50
90.260436258225
 51
-90.260436258225
  0
ARC
  5
467
100
AcDbEntity
  8
1
  6
CONTINUOUS
 62
           7
100
AcDbCircle
 10
181.182082628213
 20
6361.83823800455
 40
4.999999999998
100
AcDbArc
 50
163.461829900464
 51
-17.147702543125
  0
ARC
  5
466
100
AcDbEntity
  8
0
  6
CONTINUOUS
 62
           7
100
AcDbCircle
 10
21.782943312384
 20
5812.136382018492
 40
572.282825445528
100
AcDbArc
 50
32.140798007648
 51
73.328702057894
  0
ARC
  5
465
100
AcDbEntity
  8
1
  6
CONTINUOUS
 62
           3
100
AcDbCircle
 10
6470.163567691042
 20
1924.999999999998
 40
9.499999999998
100
AcDbArc
 50
-124.797812779181
 51
0.0
  0
ARC
  5
464
100
AcDbEntity
  8
1
  6
CONTINUOUS
 62
           3
100
AcDbCircle
 10
6470.163567691042
 20
1924.999999999998
 40
9.5
100
AcDbArc
 50
0.0
 51
125.916957371441
  0
ARC
  5
463
100
AcDbEntity
  8
1
  6
CONTINUOUS
 62
           3
100
AcDbCircle
 10
6470.163567691042
 20
1924.999999999998
 40
5.871834995061
100
AcDbArc
 50
0.0
 51
38.599713917924
  0
ARC
  5
462
100
AcDbEntity
  8
1
  6
CONTINUOUS
 62
           3
100
AcDbCircle
 10
6470.163567691042
 20
1924.999999999998
 40
5.871834995069
100
AcDbArc
 50
38.599713917924
 51
90.0
  0
ARC
  5
461
100
AcDbEntity
  8
1
  6
CONTINUOUS
 62
           3
100
AcDbCircle
 10
6470.163567691042
 20
1924.999999999998
 40
5.871834995067
100
AcDbArc
 50
-90.0
 51
0.0
  0
ARC
  5
460
100
AcDbEntity
  8
0
  6
CONTINUOUS
 62
           3
100
AcDbCircle
 10
6028.399996721514
 20
1368.000000000111
 40
2.5
100
AcDbArc
 50
0.0
 51
180.0
  0
ARC
  5
45F
100
AcDbEntity
  8
0
  6
CONTINUOUS
 62
           3
100
AcDbCircle
 10
6028.399996721514
 20
1631.999999999896
 40
2.499999999993
100
AcDbArc
 50
180.0
 51
0.0
  0
ARC
  5
45E
100
AcDbEntity
  8
0
  6
CONTINUOUS
 62
           3
100
AcDbCircle
 10
5903.399996721823
 20
1631.999999999896
 40
2.5
100
AcDbArc
 50
180.0
 51
0.0
  0
ARC
  5
45D
100
AcDbEntity
  8
0
  6
CONTINUOUS
 62
           3
100
AcDbCircle
 10
5903.399996721823
 20
1368.000000000111
 40
2.49999999999
100
AcDbArc
 50
0.0
 51
180.0
  0
ARC
  5
45C
100
AcDbEntity
  8
0
  6
CONTINUOUS
 62
           3
100
AcDbCircle
 10
5907.899996721813
 20
1508.999999999995
 40
0.999999999997
100
AcDbArc
 50
-90.0
 51
90.0
  0
ARC
  5
45B
100
AcDbEntity
  8
0
  6
CONTINUOUS
 62
           3
100
AcDbCircle
 10
5907.899996721813
 20
1431.00000000006
 40
1.0
100
AcDbArc
 50
-90.0
 51
90.0
  0
ARC
  5
45A
100
AcDbEntity
  8
0
  6
CONTINUOUS
 62
           3
100
AcDbCircle
 10
5907.899996721813
 20
1409.000000000176
 40
0.999999999996
100
AcDbArc
 50
-90.0
 51
90.0
  0
ARC
  5
459
100
AcDbEntity
  8
0
  6
CONTINUOUS
 62
           3
100
AcDbCircle
 10
6023.899996721521
 20
1409.000000000176
 40
1.0
100
AcDbArc
 50
90.0
 51
-90.0
  0
ARC
  5
458
100
AcDbEntity
  8
0
  6
CONTINUOUS
 62
           3
100
AcDbCircle
 10
6023.899996721521
 20
1431.00000000006
 40
0.999999999996
100
AcDbArc
 50
90.0
 51
-90.0
  0
ARC
  5
457
100
AcDbEntity
  8
0
  6
CONTINUOUS
 62
           3
100
AcDbCircle
 10
6023.899996721521
 20
1508.999999999995
 40
1.0
100
AcDbArc
 50
90.0
 51
-90.0
  0
ARC
  5
456
100
AcDbEntity
  8
0
  6
CONTINUOUS
 62
           3
100
AcDbCircle
 10
6023.899996721521
 20
1530.999999999878
 40
1.0
100
AcDbArc
 50
90.0
 51
-90.0
  0
ARC
  5
455
100
AcDbEntity
  8
0
  6
CONTINUOUS
 62
           3
100
AcDbCircle
 10
5907.899996721813
 20
1530.999999999878
 40
0.999999999996
100
AcDbArc
 50
-90.0
 51
90.0
  0
ARC
  5
454
100
AcDbEntity
  8
0
  6
CONTINUOUS
 62
           3
100
AcDbCircle
 10
5972.373499413462
 20
1389.999999999995
 40
0.900000000002
100
AcDbArc
 50
-90.0
 51
-62.733955549533
  0
ARC
  5
453
100
AcDbEntity
  8
0
  6
CONTINUOUS
 62
           3
100
AcDbCircle
 10
5959.426494029872
 20
1389.999999999995
 40
0.900000000001
100
AcDbArc
 50
-117.266044450466
 51
-90.0
  0
ARC
  5
452
100
AcDbEntity
  8
0
  6
CONTINUOUS
 62
           3
100
AcDbCircle
 10
5965.899996721674
 20
1315.000000000056
 40
53.999999999963
100
AcDbArc
 50
180.0
 51
0.0
  0
ARC
  5
451
100
AcDbEntity
  8
0
  6
CONTINUOUS
 62
           3
100
AcDbCircle
 10
5965.899996721674
 20
1315.000000000056
 40
45.999999999971
100
AcDbArc
 50
180.0
 51
0.0
  0
ARC
  5
450
100
AcDbEntity
  8
0
  6
CONTINUOUS
 62
           3
100
AcDbCircle
 10
5965.899996721674
 20
1355.00000000022
 40
4.0
100
AcDbArc
 50
180.0
 51
0.0
  0
ARC
  5
44F
100
AcDbEntity
  8
1
  6
CONTINUOUS
 62
           3
100
AcDbCircle
 10
-1241.527744678122
 20
1295.200848327049
 40
28.75000000001
100
AcDbArc
 50
83.827497999999
 51
96.172501999989
  0
ARC
  5
44E
100
AcDbEntity
  8
1
  6
CONTINUOUS
 62
           3
100
AcDbCircle
 10
-1241.527744678122
 20
1295.200848327049
 40
28.749999999987
100
AcDbArc
 50
-96.172501999994
 51
-83.827497999994
  0
ARC
  5
44D
100
AcDbEntity
  8
1
  6
CONTINUOUS
 62
           3
100
AcDbCircle
 10
-1241.527744678122
 20
1295.200848327049
 40
10.75
100
AcDbArc
 50
0.0
 51
61.226493000003
  0
ARC
  5
44C
100
AcDbEntity
  8
1
  6
CONTINUOUS
 62
           3
100
AcDbCircle
 10
-1241.527744678122
 20
1295.200848327049
 40
10.749999999999
100
AcDbArc
 50
-61.226493000019
 51
0.0
  0
ARC
  5
44B
100
AcDbEntity
  8
1
  6
CONTINUOUS
 62
           3
100
AcDbCircle
 10
-1241.527744678122
 20
1295.200848327049
 40
10.749999999991
100
AcDbArc
 50
118.773506999969
 51
-118.773506999953
  0
ARC
  5
44A
100
AcDbEntity
  8
1
  6
CONTINUOUS
 62
           3
100
AcDbCircle
 10
-1237.489442678122
 20
1295.200848327049
 40
10.0
100
AcDbArc
 50
174.993206999971
 51
-174.993207000022
  0
ARC
  5
449
100
AcDbEntity
  8
1
  6
CONTINUOUS
 62
           3
100
AcDbCircle
 10
-1245.566047678116
 20
1295.200848327049
 40
9.999999999999
100
AcDbArc
 50
-5.006792999977
 51
5.006793000029
  0
ARC
  5
448
100
AcDbEntity
  8
1
  6
CONTINUOUS
 62
           3
100
AcDbCircle
 10
-1244.565247678122
 20
1323.287074327051
 40
0.5
100
AcDbArc
 50
96.172501999309
 51
174.993206998558
  0
ARC
  5
447
100
AcDbEntity
  8
1
  6
CONTINUOUS
 62
           3
100
AcDbCircle
 10
-1238.490241678123
 20
1323.287074327051
 40
0.500000000005
100
AcDbArc
 50
5.006793001362
 51
83.827497998178
  0
ARC
  5
446
100
AcDbEntity
  8
1
  6
CONTINUOUS
 62
           3
100
AcDbCircle
 10
-1244.565247678122
 20
1267.114622327059
 40
0.499999999996
100
AcDbArc
 50
-174.9932069997
 51
-96.172501999309
  0
ARC
  5
445
100
AcDbEntity
  8
1
  6
CONTINUOUS
 62
           3
100
AcDbCircle
 10
-1238.490241678123
 20
1267.114622327059
 40
0.500000000002
100
AcDbArc
 50
-83.827497998178
 51
-5.00679300022
  0
ARC
  5
444
100
AcDbEntity
  8
1
  6
CONTINUOUS
 62
           7
100
AcDbCircle
 10
2579.0
 20
4765.0
 40
17.0
100
AcDbArc
 50
-90.0
 51
90.0
  0
ARC
  5
443
100
AcDbEntity
  8
1
  6
CONTINUOUS
 62
           7
100
AcDbCircle
 10
2579.0
 20
4535.0
 40
17.0
100
AcDbArc
 50
-90.0
 51
90.0
  0
ARC
  5
442
100
AcDbEntity
  8
1
  6
CONTINUOUS
 62
           7
100
AcDbCircle
 10
-119.499363867686
 20
5895.0
 40
710.126818226704
100
AcDbArc
 50
-80.312233948152
 51
-80.298955578721
  0
ARC
  5
441
100
AcDbEntity
  8
1
  6
CONTINUOUS
 62
           7
100
AcDbCircle
 10
5379.999999999998
 20
1500.000000000002
 40
52.500000000001
100
AcDbArc
 50
148.774146998023
 51
-148.774146998023
  0
ARC
  5
440
100
AcDbEntity
  8
1
  6
CONTINUOUS
 62
           7
100
AcDbCircle
 10
5379.999999999998
 20
1500.000000000002
 40
52.499999999999
100
AcDbArc
 50
58.774146998025
 51
121.225853001972
  0
ARC
  5
43F
100
AcDbEntity
  8
1
  6
CONTINUOUS
 62
           7
100
AcDbCircle
 10
5379.999999999998
 20
1500.000000000002
 40
52.5
100
AcDbArc
 50
0.0
 51
31.225853001975
  0
ARC
  5
43E
100
AcDbEntity
  8
1
  6
CONTINUOUS
 62
           7
100
AcDbCircle
 10
5335.338834764832
 20
1455.338834764832
 40
12.5
100
AcDbArc
 50
135.000000000017
 51
-45.000000000001
  0
ARC
  5
43D
100
AcDbEntity
  8
1
  6
CONTINUOUS
 62
           7
100
AcDbCircle
 10
5335.338834764832
 20
1544.661165235162
 40
12.500000000004
100
AcDbArc
 50
45.000000000034
 51
-135.000000000046
  0
ARC
  5
43C
100
AcDbEntity
  8
1
  6
CONTINUOUS
 62
           7
100
AcDbCircle
 10
5424.661165235168
 20
1544.661165235162
 40
12.499999999991
100
AcDbArc
 50
-44.999999999965
 51
134.999999999969
  0
ARC
  5
43B
100
AcDbEntity
  8
1
  6
CONTINUOUS
 62
           7
100
AcDbCircle
 10
5379.999999999998
 20
1500.000000000002
 40
52.500000000005
100
AcDbArc
 50
-121.225853001967
 51
-58.77414699803
  0
ARC
  5
43A
100
AcDbEntity
  8
1
  6
CONTINUOUS
 62
           7
100
AcDbCircle
 10
5379.999999999998
 20
1500.000000000002
 40
52.500000000003
100
AcDbArc
 50
-31.225853001975
 51
0.0
  0
ARC
  5
439
100
AcDbEntity
  8
1
  6
CONTINUOUS
 62
           7
100
AcDbCircle
 10
5424.661165235168
 20
1455.338834764832
 40
12.499999999998
100
AcDbArc
 50
-135.000000000002
 51
44.999999999995
  0
ARC
  5
438
100
AcDbEntity
  8
1
  6
CONTINUOUS
 62
           7
100
AcDbCircle
 10
5194.661165235168
 20
1455.338834764832
 40
12.499999999998
100
AcDbArc
 50
-135.000000000005
 51
44.999999999995
  0
ARC
  5
437
100
AcDbEntity
  8
1
  6
CONTINUOUS
 62
           7
100
AcDbCircle
 10
5149.999999999998
 20
1500.000000000002
 40
52.500000000003
100
AcDbArc
 50
-31.225853001975
 51
0.0
  0
ARC
  5
436
100
AcDbEntity
  8
1
  6
CONTINUOUS
 62
           7
100
AcDbCircle
 10
5149.999999999998
 20
1500.000000000002
 40
52.500000000005
100
AcDbArc
 50
-121.225853001967
 51
-58.774146998031
  0
ARC
  5
435
100
AcDbEntity
  8
1
  6
CONTINUOUS
 62
           7
100
AcDbCircle
 10
5194.661165235168
 20
1544.661165235162
 40
12.499999999991
100
AcDbArc
 50
-44.999999999965
 51
134.999999999972
  0
ARC
  5
434
100
AcDbEntity
  8
1
  6
CONTINUOUS
 62
           7
100
AcDbCircle
 10
5105.338834764832
 20
1544.661165235162
 40
12.500000000004
100
AcDbArc
 50
45.000000000034
 51
-135.000000000046
  0
ARC
  5
433
100
AcDbEntity
  8
1
  6
CONTINUOUS
 62
           7
100
AcDbCircle
 10
5105.338834764832
 20
1455.338834764832
 40
12.5
100
AcDbArc
 50
135.000000000017
 51
-45.000000000001
  0
ARC
  5
432
100
AcDbEntity
  8
1
  6
CONTINUOUS
 62
           7
100
AcDbCircle
 10
5149.999999999998
 20
1500.000000000002
 40
52.5
100
AcDbArc
 50
0.0
 51
31.225853001975
  0
ARC
  5
431
100
AcDbEntity
  8
1
  6
CONTINUOUS
 62
           7
100
AcDbCircle
 10
5149.999999999998
 20
1500.000000000002
 40
52.499999999998
100
AcDbArc
 50
58.774146998026
 51
121.225853001972
  0
ARC
  5
430
100
AcDbEntity
  8
1
  6
CONTINUOUS
 62
           7
100
AcDbCircle
 10
5149.999999999998
 20
1500.000000000002
 40
52.500000000001
100
AcDbArc
 50
148.774146998023
 51
-148.774146998023
  0
LINE
  5
42F
100
AcDbEntity
  8
6
  6
CONTINUOUS
 62
           7
100
AcDbLine
 10
6376.5
 20
2768.199999999999
 11
6376.5
 21
2794.200000000003
  0
LINE
  5
42E
100
AcDbEntity
  8
1
  6
CONTINUOUS
 62
           7
100
AcDbLine
 10
6643.5
 20
2768.199999999999
 11
6643.5
 21
2794.200000000003
  0
LINE
  5
42D
100
AcDbEntity
  8
7
  6
CONTINUOUS
 62
           7
100
AcDbLine
 10
6391.486889
 20
3267.402830000001
 11
6373.555576999999
 21
3246.542544000002
  0
LINE
  5
42C
100
AcDbEntity
  8
7
  6
CONTINUOUS
 62
           7
100
AcDbLine
 10
6367.5
 20
3242.800000000001
 11
6367.5
 21
3209.100000000001
  0
LINE
  5
42B
100
AcDbEntity
  8
7
  6
CONTINUOUS
 62
           7
100
AcDbLine
 10
6392.353468999998
 20
3269.096144000001
 11
6392.331152999999
 21
3268.856044
  0
LINE
  5
42A
100
AcDbEntity
  8
7
  6
CONTINUOUS
 62
           7
100
AcDbLine
 10
6628.513111
 20
3267.402830000001
 11
6646.444424000001
 21
3246.542544000002
  0
LINE
  5
429
100
AcDbEntity
  8
7
  6
CONTINUOUS
 62
           7
100
AcDbLine
 10
6652.5
 20
3242.800000000001
 11
6652.5
 21
3209.100000000001
  0
LINE
  5
428
100
AcDbEntity
  8
7
  6
CONTINUOUS
 62
           7
100
AcDbLine
 10
6627.646530999999
 20
3269.096144000001
 11
6627.668846000001
 21
3268.856044
  0
LINE
  5
427
100
AcDbEntity
  8
7
  6
CONTINUOUS
 62
           7
100
AcDbLine
 10
6655.0
 20
3205.000000000002
 11
6655.0
 21
3167.000000000002
  0
LINE
  5
426
100
AcDbEntity
  8
7
  6
CONTINUOUS
 62
           7
100
AcDbLine
 10
6653.739372
 20
3207.54732
 11
6653.817006000001
 21
3207.484288000002
  0
LINE
  5
425
100
AcDbEntity
  8
2
  6
CONTINUOUS
 62
           7
100
AcDbLine
 10
6358.923806999999
 20
3153.000000000002
 11
6358.923806999999
 21
2826.200000000003
  0
LINE
  5
424
100
AcDbEntity
  8
2
  6
CONTINUOUS
 62
           7
100
AcDbLine
 10
6376.442014
 20
2794.200000000003
 11
6358.923806999999
 21
2826.200000000003
  0
LINE
  5
423
100
AcDbEntity
  8
2
  6
CONTINUOUS
 62
           7
100
AcDbLine
 10
6366.588022
 20
3167.000000000002
 11
6358.923806999999
 21
3153.000000000002
  0
LINE
  5
422
100
AcDbEntity
  8
2
  6
CONTINUOUS
 62
           7
100
AcDbLine
 10
6661.076193000001
 20
2826.199999999999
 11
6660.047587000001
 21
2826.199999999999
  0
LINE
  5
421
100
AcDbEntity
  8
2
  6
CONTINUOUS
 62
           7
100
AcDbLine
 10
6661.076193000001
 20
3153.000000000002
 11
6653.411978
 21
3167.000000000002
  0
LINE
  5
420
100
AcDbEntity
  8
2
  6
CONTINUOUS
 62
           7
100
AcDbLine
 10
6661.076193000001
 20
2826.199999999999
 11
6643.557986
 21
2794.200000000003
  0
LINE
  5
41F
100
AcDbEntity
  8
2
  6
CONTINUOUS
 62
           7
100
AcDbLine
 10
6661.076193000001
 20
2826.199999999999
 11
6661.076193000001
 21
3153.000000000002
  0
LINE
  5
41E
100
AcDbEntity
  8
7
  6
CONTINUOUS
 62
           7
100
AcDbLine
 10
6366.682993999999
 20
3207.484288000002
 11
6366.760628
 21
3207.54732
  0
LINE
  5
41D
100
AcDbEntity
  8
7
  6
CONTINUOUS
 62
           7
100
AcDbLine
 10
6365.0
 20
3167.000000000002
 11
6365.0
 21
3205.000000000002
  0
LINE
  5
41C
100
AcDbEntity
  8
2
  6
CONTINUOUS
 62
           4
100
AcDbLine
 10
6376.5
 20
2784.200000000003
 11
6643.5
 21
2784.200000000003
  0
LINE
  5
41B
100
AcDbEntity
  8
1
  6
CONTINUOUS
 62
           4
100
AcDbLine
 10
6924.299999999999
 20
2081.000000000002
 11
6924.299999999999
 21
2075.000000000002
  0
LINE
  5
41A
100
AcDbEntity
  8
1
  6
CONTINUOUS
 62
           4
100
AcDbLine
 10
6095.699999999997
 20
2075.000000000002
 11
6095.699999999997
 21
2081.000000000002
  0
LINE
  5
419
100
AcDbEntity
  8
1
  6
CONTINUOUS
 62
           7
100
AcDbLine
 10
6924.299999999999
 20
2075.000000000002
 11
6095.699999999997
 21
2075.000000000002
  0
LINE
  5
418
100
AcDbEntity
  8
1
  6
CONTINUOUS
 62
           4
100
AcDbLine
 10
6095.699999999997
 20
2081.000000000002
 11
6924.299999999999
 21
2081.000000000002
  0
LINE
  5
417
100
AcDbEntity
  8
0
  6
CONTINUOUS
 62
           7
100
AcDbLine
 10
6885.0
 20
2081.000000000002
 11
6885.0
 21
2137.800000000001
  0
LINE
  5
416
100
AcDbEntity
  8
0
  6
CONTINUOUS
 62
           7
100
AcDbLine
 10
6135.0
 20
2137.800000000001
 11
6135.0
 21
2081.000000000002
  0
LINE
  5
415
100
AcDbEntity
  8
1
  6
CONTINUOUS
 62
           4
100
AcDbLine
 10
6250.0
 20
2763.199999999999
 11
6250.0
 21
2762.199999999999
  0
LINE
  5
414
100
AcDbEntity
  8
1
  6
CONTINUOUS
 62
           4
100
AcDbLine
 10
6770.0
 20
2763.199999999999
 11
6770.0
 21
2762.199999999999
  0
LINE
  5
413
100
AcDbEntity
  8
1
  6
CONTINUOUS
 62
           4
100
AcDbLine
 10
6765.0
 20
2768.199999999999
 11
6770.0
 21
2763.199999999999
  0
LINE
  5
412
100
AcDbEntity
  8
1
  6
CONTINUOUS
 62
           4
100
AcDbLine
 10
6765.0
 20
2768.199999999999
 11
6255.0
 21
2768.199999999999
  0
LINE
  5
411
100
AcDbEntity
  8
1
  6
CONTINUOUS
 62
           4
100
AcDbLine
 10
6250.0
 20
2763.199999999999
 11
6255.0
 21
2768.199999999999
  0
LINE
  5
410
100
AcDbEntity
  8
976
  6
CONTINUOUS
 62
           7
100
AcDbLine
 10
7056.4406779661
 20
2762.199999999999
 11
6618.000159772888
 21
2762.199999999999
  0
LINE
  5
40F
100
AcDbEntity
  8
976
  6
CONTINUOUS
 62
           7
100
AcDbLine
 10
7060.0
 20
2175.800000000001
 11
5764.78852966796
 21
2175.800000000001
  0
LINE
  5
40E
100
AcDbEntity
  8
976
  6
CONTINUOUS
 62
           7
100
AcDbLine
 10
7060.0
 20
2175.800000000001
 11
7060.0
 21
2142.800000000001
  0
LINE
  5
40D
100
AcDbEntity
  8
976
  6
CONTINUOUS
 62
           7
100
AcDbLine
 10
5764.78852966796
 20
2137.800000000001
 11
6435.222691958727
 21
2137.800000000001
  0
LINE
  5
40C
100
AcDbEntity
  8
976
  6
CONTINUOUS
 62
           7
100
AcDbLine
 10
5764.78852966796
 20
2724.199999999999
 11
5764.78852966796
 21
2762.199999999999
  0
LINE
  5
40B
100
AcDbEntity
  8
976
  6
CONTINUOUS
 62
           7
100
AcDbLine
 10
5764.78852966796
 20
2137.800000000001
 11
5764.78852966796
 21
2175.800000000001
  0
LINE
  5
40A
100
AcDbEntity
  8
1
  6
CONTINUOUS
 62
           7
100
AcDbLine
 10
7060.0
 20
2757.199999999999
 11
7056.4406779661
 21
2762.199999999999
  0
LINE
  5
409
100
AcDbEntity
  8
1
  6
CONTINUOUS
 62
           7
100
AcDbLine
 10
7060.0
 20
2142.800000000001
 11
7056.4406779661
 21
2137.800000000001
  0
LINE
  5
408
100
AcDbEntity
  8
1
  6
CONTINUOUS
 62
           7
100
AcDbLine
 10
7140.0
 20
2725.000000000002
 11
7105.5
 21
2725.000000000002
  0
LINE
  5
407
100
AcDbEntity
  8
1
  6
CONTINUOUS
 62
           7
100
AcDbLine
 10
7094.5
 20
2725.000000000002
 11
7060.0
 21
2725.000000000002
  0
LINE
  5
406
100
AcDbEntity
  8
1
  6
CONTINUOUS
 62
           7
100
AcDbLine
 10
7060.0
 20
2175.000000000002
 11
7094.5
 21
2175.000000000002
  0
LINE
  5
405
100
AcDbEntity
  8
1
  6
CONTINUOUS
 62
           7
100
AcDbLine
 10
5810.0
 20
2724.199999999999
 11
5810.0
 21
2175.800000000001
  0
LINE
  5
404
100
AcDbEntity
  8
1
  6
CONTINUOUS
 62
           7
100
AcDbLine
 10
7100.0
 20
2725.000000000002
 11
7140.0
 21
2725.000000000002
  0
LINE
  5
403
100
AcDbEntity
  8
1
  6
CONTINUOUS
 62
           7
100
AcDbLine
 10
7060.0
 20
2170.500000000002
 11
7060.0
 21
2729.500000000002
  0
LINE
  5
402
100
AcDbEntity
  8
1
  6
CONTINUOUS
 62
           7
100
AcDbLine
 10
7060.0
 20
2725.000000000002
 11
7100.0
 21
2725.000000000002
  0
LINE
  5
401
100
AcDbEntity
  8
1
  6
CONTINUOUS
 62
           7
100
AcDbLine
 10
7100.0
 20
2175.000000000002
 11
7060.0
 21
2175.000000000002
  0
LINE
  5
400
100
AcDbEntity
  8
1
  6
CONTINUOUS
 62
           4
100
AcDbLine
 10
7095.699999999997
 20
2725.000000000002
 11
7095.699999999997
 21
2175.000000000002
  0
LINE
  5
3FF
100
AcDbEntity
  8
1
  6
CONTINUOUS
 62
           4
100
AcDbLine
 10
7104.299999999999
 20
2175.000000000002
 11
7104.299999999999
 21
2725.000000000002
  0
LINE
  5
3FE
100
AcDbEntity
  8
1
  6
CONTINUOUS
 62
           7
100
AcDbLine
 10
7100.0
 20
2765.000000000002
 11
7100.0
 21
2135.000000000002
  0
LINE
  5
3FD
100
AcDbEntity
  8
1
  6
CONTINUOUS
 62
           4
100
AcDbLine
 10
7104.5
 20
2730.500000000002
 11
7104.5
 21
2765.000000000002
  0
LINE
  5
3FC
100
AcDbEntity
  8
1
  6
CONTINUOUS
 62
           4
100
AcDbLine
 10
7104.5
 20
2765.000000000002
 11
7100.0
 21
2765.000000000002
  0
LINE
  5
3FB
100
AcDbEntity
  8
1
  6
CONTINUOUS
 62
           4
100
AcDbLine
 10
7100.0
 20
2765.000000000002
 11
7095.5
 21
2765.000000000002
  0
LINE
  5
3FA
100
AcDbEntity
  8
1
  6
CONTINUOUS
 62
           4
100
AcDbLine
 10
7095.5
 20
2765.000000000002
 11
7095.5
 21
2730.500000000002
  0
LINE
  5
3F9
100
AcDbEntity
  8
1
  6
CONTINUOUS
 62
           4
100
AcDbLine
 10
7060.0
 20
2729.500000000002
 11
7094.5
 21
2729.500000000002
  0
LINE
  5
3F8
100
AcDbEntity
  8
1
  6
CONTINUOUS
 62
           4
100
AcDbLine
 10
7100.0
 20
2135.000000000002
 11
7104.5
 21
2135.000000000002
  0
LINE
  5
3F7
100
AcDbEntity
  8
1
  6
CONTINUOUS
 62
           4
100
AcDbLine
 10
7104.5
 20
2135.000000000002
 11
7104.5
 21
2169.500000000002
  0
LINE
  5
3F6
100
AcDbEntity
  8
1
  6
CONTINUOUS
 62
           4
100
AcDbLine
 10
7140.0
 20
2170.500000000002
 11
7105.5
 21
2170.500000000002
  0
LINE
  5
3F5
100
AcDbEntity
  8
1
  6
CONTINUOUS
 62
           4
100
AcDbLine
 10
7095.5
 20
2169.500000000002
 11
7095.5
 21
2135.000000000002
  0
LINE
  5
3F4
100
AcDbEntity
  8
1
  6
CONTINUOUS
 62
           4
100
AcDbLine
 10
7095.5
 20
2135.000000000002
 11
7100.0
 21
2135.000000000002
  0
LINE
  5
3F3
100
AcDbEntity
  8
1
  6
CONTINUOUS
 62
           7
100
AcDbLine
 10
7105.5
 20
2175.000000000002
 11
7140.0
 21
2175.000000000002
  0
LINE
  5
3F2
100
AcDbEntity
  8
1
  6
CONTINUOUS
 62
           4
100
AcDbLine
 10
7094.5
 20
2170.500000000002
 11
7060.0
 21
2170.500000000002
  0
LINE
  5
3F1
100
AcDbEntity
  8
1
  6
CONTINUOUS
 62
           7
100
AcDbLine
 10
6565.0
 20
2877.199999999999
 11
6455.0
 21
2877.199999999999
  0
LINE
  5
3F0
100
AcDbEntity
  8
1
  6
CONTINUOUS
 62
           7
100
AcDbLine
 10
6455.0
 20
2997.199999999999
 11
6565.0
 21
2997.199999999999
  0
LINE
  5
3EF
100
AcDbEntity
  8
1
  6
CONTINUOUS
 62
           7
100
AcDbLine
 10
6575.0
 20
2987.199999999999
 11
6575.0
 21
2887.199999999999
  0
LINE
  5
3EE
100
AcDbEntity
  8
1
  6
CONTINUOUS
 62
           7
100
AcDbLine
 10
6445.0
 20
2887.199999999999
 11
6445.0
 21
2987.199999999999
  0
LINE
  5
3ED
100
AcDbEntity
  8
976
  6
CONTINUOUS
 62
           7
100
AcDbLine
 10
7060.0
 20
2724.199999999999
 11
7060.0
 21
2757.199999999999
  0
LINE
  5
3EC
100
AcDbEntity
  8
976
  6
CONTINUOUS
 62
           7
100
AcDbLine
 10
6972.0
 20
2724.199999999999
 11
6972.0
 21
2762.199999999999
  0
LINE
  5
3EB
100
AcDbEntity
  8
976
  6
CONTINUOUS
 62
           7
100
AcDbLine
 10
6618.000159772888
 20
2724.199999999999
 11
6618.000159772888
 21
2762.199999999999
  0
LINE
  5
3EA
100
AcDbEntity
  8
976
  6
CONTINUOUS
 62
           7
100
AcDbLine
 10
6435.222691958723
 20
2724.199999999999
 11
6435.222691958727
 21
2762.199999999999
  0
LINE
  5
3E9
100
AcDbEntity
  8
976
  6
CONTINUOUS
 62
           7
100
AcDbLine
 10
6435.222691958727
 20
2762.199999999999
 11
5764.78852966796
 21
2762.199999999999
  0
LINE
  5
3E8
100
AcDbEntity
  8
976
  6
CONTINUOUS
 62
           7
100
AcDbLine
 10
6972.0
 20
2137.800000000001
 11
6972.0
 21
2175.800000000001
  0
LINE
  5
3E7
100
AcDbEntity
  8
976
  6
CONTINUOUS
 62
           7
100
AcDbLine
 10
6618.000159772888
 20
2137.800000000001
 11
6618.000159772888
 21
2175.800000000001
  0
LINE
  5
3E6
100
AcDbEntity
  8
976
  6
CONTINUOUS
 62
           7
100
AcDbLine
 10
6435.222691958727
 20
2137.800000000001
 11
6435.222691958723
 21
2175.800000000001
  0
LINE
  5
3E5
100
AcDbEntity
  8
976
  6
CONTINUOUS
 62
           7
100
AcDbLine
 10
6618.000159772888
 20
2137.800000000001
 11
7056.4406779661
 21
2137.800000000001
  0
LINE
  5
3E4
100
AcDbEntity
  8
1
  6
CONTINUOUS
 62
           2
100
AcDbLine
 10
6234.48654399909
 20
2630.000000000002
 11
6234.48654399909
 21
2270.000000000002
  0
LINE
  5
3E3
100
AcDbEntity
  8
1
  6
CONTINUOUS
 62
           2
100
AcDbLine
 10
6234.48654399909
 20
2270.000000000002
 11
6645.513456000906
 21
2270.000000000002
  0
LINE
  5
3E2
100
AcDbEntity
  8
1
  6
CONTINUOUS
 62
           2
100
AcDbLine
 10
6645.513456000906
 20
2270.000000000002
 11
6645.513456000906
 21
2630.000000000002
  0
LINE
  5
3E1
100
AcDbEntity
  8
1
  6
CONTINUOUS
 62
           2
100
AcDbLine
 10
6645.513456000906
 20
2630.000000000002
 11
6234.48654399909
 21
2630.000000000002
  0
LINE
  5
3E0
100
AcDbEntity
  8
7
  6
CONTINUOUS
 62
           4
100
AcDbLine
 10
6649.299999999999
 20
3246.000000000002
 11
6370.700000000001
 21
3246.000000000002
  0
LINE
  5
3DF
100
AcDbEntity
  8
7
  6
CONTINUOUS
 62
           4
100
AcDbLine
 10
6367.805225
 20
3207.500000000002
 11
6651.728718999999
 21
3207.500000000002
  0
LINE
  5
3DE
100
AcDbEntity
  8
7
  6
CONTINUOUS
 62
           4
100
AcDbLine
 10
6655.0
 20
3167.000000000002
 11
6365.0
 21
3167.000000000002
  0
LINE
  5
3DD
100
AcDbEntity
  8
1
  6
DOT_CENTER
 62
           2
100
AcDbLine
 10
5743.771485574416
 20
2450.000000000002
 11
7194.764587761991
 21
2450.000000000002
  0
LINE
  5
3DC
100
AcDbEntity
  8
1
  6
CONTINUOUS
 62
           4
100
AcDbLine
 10
7105.5
 20
2729.500000000002
 11
7140.0
 21
2729.500000000002
  0
LINE
  5
3DB
100
AcDbEntity
  8
1
  6
CONTINUOUS
 62
           7
100
AcDbLine
 10
7140.0
 20
2175.000000000002
 11
7100.0
 21
2175.000000000002
  0
LINE
  5
3DA
100
AcDbEntity
  8
976
  6
CONTINUOUS
 62
           7
100
AcDbLine
 10
7060.0
 20
2724.199999999999
 11
5764.78852966796
 21
2724.199999999999
  0
LINE
  5
3D9
100
AcDbEntity
  8
7
  6
CONTINUOUS
 62
           7
100
AcDbLine
 10
6395.539735999999
 20
3272.000000000002
 11
6624.460263000001
 21
3272.000000000002
  0
LINE
  5
3D8
100
AcDbEntity
  8
1
  6
CONTINUOUS
 62
           7
100
AcDbLine
 10
7140.0
 20
2729.500000000002
 11
7140.0
 21
2170.500000000002
  0
LINE
  5
3D7
100
AcDbEntity
  8
1
  6
CONTINUOUS
 62
           7
100
AcDbLine
 10
-856.0
 20
2150.0
 11
-856.0
 21
2765.800000000001
  0
LINE
  5
3D6
100
AcDbEntity
  8
1
  6
CONTINUOUS
 62
           7
100
AcDbLine
 10
161.076193000001
 20
2998.000000000002
 11
246.0
 21
2998.000000000002
  0
LINE
  5
3D5
100
AcDbEntity
  8
1
  6
CONTINUOUS
 62
           7
100
AcDbLine
 10
246.0
 20
2878.000000000002
 11
161.076193000001
 21
2878.000000000002
  0
LINE
  5
3D4
100
AcDbEntity
  8
1
  6
CONTINUOUS
 62
           7
100
AcDbLine
 10
151.076193000001
 20
2888.000000000002
 11
151.076193000001
 21
2988.000000000002
  0
LINE
  5
3D3
100
AcDbEntity
  8
1
  6
CONTINUOUS
 62
           7
100
AcDbLine
 10
256.0
 20
2988.000000000002
 11
256.0
 21
2888.000000000002
  0
LINE
  5
3D2
100
AcDbEntity
  8
1
  6
CONTINUOUS
 62
           7
100
AcDbLine
 10
590.0
 20
2175.0
 11
590.0
 21
2725.0
  0
LINE
  5
3D1
100
AcDbEntity
  8
976
  6
CONTINUOUS
 62
           7
100
AcDbLine
 10
597.411867714181
 20
2175.0
 11
597.411867714181
 21
2150.0
  0
LINE
  5
3D0
100
AcDbEntity
  8
976
  6
CONTINUOUS
 62
           7
100
AcDbLine
 10
597.411867714181
 20
2763.0
 11
597.411867714181
 21
2725.0
  0
LINE
  5
3CF
100
AcDbEntity
  8
1
  6
CONTINUOUS
 62
           4
100
AcDbLine
 10
255.0
 20
2769.0
 11
260.0
 21
2764.0
  0
LINE
  5
3CE
100
AcDbEntity
  8
1
  6
CONTINUOUS
 62
           4
100
AcDbLine
 10
255.0
 20
2769.0
 11
-255.0
 21
2769.0
  0
LINE
  5
3CD
100
AcDbEntity
  8
1
  6
CONTINUOUS
 62
           4
100
AcDbLine
 10
-260.0
 20
2764.0
 11
-255.0
 21
2769.0
  0
LINE
  5
3CC
100
AcDbEntity
  8
1
  6
CONTINUOUS
 62
           4
100
AcDbLine
 10
-260.0
 20
2763.0
 11
-260.0
 21
2764.0
  0
LINE
  5
3CB
100
AcDbEntity
  8
1
  6
CONTINUOUS
 62
           4
100
AcDbLine
 10
260.0
 20
2763.0
 11
260.0
 21
2764.0
  0
LINE
  5
3CA
100
AcDbEntity
  8
2
  6
CONTINUOUS
 62
           4
100
AcDbLine
 10
-133.5
 20
2785.000000000002
 11
133.5
 21
2785.000000000002
  0
LINE
  5
3C9
100
AcDbEntity
  8
7
  6
CONTINUOUS
 62
           7
100
AcDbLine
 10
145.0
 20
3205.000000000002
 11
145.0
 21
3167.000000000002
  0
LINE
  5
3C8
100
AcDbEntity
  8
7
  6
CONTINUOUS
 62
           7
100
AcDbLine
 10
143.239372
 20
3207.547320000002
 11
143.317005999997
 21
3207.484288000002
  0
LINE
  5
3C7
100
AcDbEntity
  8
2
  6
CONTINUOUS
 62
           7
100
AcDbLine
 10
-151.076193000001
 20
3153.000000000002
 11
-151.076193000001
 21
2827.0
  0
LINE
  5
3C6
100
AcDbEntity
  8
2
  6
CONTINUOUS
 62
           7
100
AcDbLine
 10
-133.557986
 20
2795.000000000002
 11
-151.076193000001
 21
2827.0
  0
LINE
  5
3C5
100
AcDbEntity
  8
2
  6
CONTINUOUS
 62
           7
100
AcDbLine
 10
-143.411978
 20
3167.000000000002
 11
-151.076193000001
 21
3153.000000000002
  0
LINE
  5
3C4
100
AcDbEntity
  8
2
  6
CONTINUOUS
 62
           7
100
AcDbLine
 10
-150.047587000001
 20
2827.0
 11
-151.076193000001
 21
2827.0
  0
LINE
  5
3C3
100
AcDbEntity
  8
2
  6
CONTINUOUS
 62
           7
100
AcDbLine
 10
151.076193000001
 20
3153.000000000001
 11
143.411978
 21
3167.000000000002
  0
LINE
  5
3C2
100
AcDbEntity
  8
2
  6
CONTINUOUS
 62
           7
100
AcDbLine
 10
151.076193000001
 20
2827.000000000002
 11
133.557986
 21
2795.000000000002
  0
LINE
  5
3C1
100
AcDbEntity
  8
2
  6
CONTINUOUS
 62
           7
100
AcDbLine
 10
151.076193000001
 20
2827.000000000002
 11
151.076193000001
 21
3153.000000000001
  0
LINE
  5
3C0
100
AcDbEntity
  8
7
  6
CONTINUOUS
 62
           7
100
AcDbLine
 10
-143.817006000001
 20
3207.484288000002
 11
-143.739372
 21
3207.547320000002
  0
LINE
  5
3BF
100
AcDbEntity
  8
7
  6
CONTINUOUS
 62
           7
100
AcDbLine
 10
-145.0
 20
3167.000000000002
 11
-145.0
 21
3205.000000000002
  0
LINE
  5
3BE
100
AcDbEntity
  8
7
  6
CONTINUOUS
 62
           7
100
AcDbLine
 10
-117.668846000001
 20
3268.856044000002
 11
-117.646531000002
 21
3269.096144000001
  0
LINE
  5
3BD
100
AcDbEntity
  8
7
  6
CONTINUOUS
 62
           7
100
AcDbLine
 10
-142.5
 20
3209.100000000002
 11
-142.5
 21
3242.8
  0
LINE
  5
3BC
100
AcDbEntity
  8
7
  6
CONTINUOUS
 62
           7
100
AcDbLine
 10
-136.444424000001
 20
3246.542544000002
 11
-118.513111
 21
3267.402830000001
  0
LINE
  5
3BB
100
AcDbEntity
  8
7
  6
CONTINUOUS
 62
           7
100
AcDbLine
 10
117.668847000001
 20
3268.856044000002
 11
117.646530999999
 21
3269.096144000001
  0
LINE
  5
3BA
100
AcDbEntity
  8
7
  6
CONTINUOUS
 62
           7
100
AcDbLine
 10
142.5
 20
3209.100000000002
 11
142.5
 21
3242.8
  0
LINE
  5
3B9
100
AcDbEntity
  8
7
  6
CONTINUOUS
 62
           7
100
AcDbLine
 10
-114.460263000001
 20
3272.000000000002
 11
114.460264000001
 21
3272.000000000002
  0
LINE
  5
3B8
100
AcDbEntity
  8
7
  6
CONTINUOUS
 62
           7
100
AcDbLine
 10
136.444423000001
 20
3246.542544000002
 11
118.513111
 21
3267.402830000001
  0
LINE
  5
3B7
100
AcDbEntity
  8
1
  6
CONTINUOUS
 62
           7
100
AcDbLine
 10
-133.5
 20
2795.000000000002
 11
-133.5
 21
2769.0
  0
LINE
  5
3B6
100
AcDbEntity
  8
6
  6
CONTINUOUS
 62
           7
100
AcDbLine
 10
133.5
 20
2795.000000000002
 11
133.5
 21
2769.0
  0
LINE
  5
3B5
100
AcDbEntity
  8
976
  6
CONTINUOUS
 62
           7
100
AcDbLine
 10
600.0
 20
2725.0
 11
-825.0
 21
2725.0
  0
LINE
  5
3B4
100
AcDbEntity
  8
976
  6
CONTINUOUS
 62
           7
100
AcDbLine
 10
600.0
 20
2175.0
 11
-405.0
 21
2175.0
  0
LINE
  5
3B3
100
AcDbEntity
  8
1
  6
CONTINUOUS
 62
           7
100
AcDbLine
 10
-856.0
 20
2725.800000000001
 11
-835.0
 21
2725.800000000001
  0
LINE
  5
3B2
100
AcDbEntity
  8
1
  6
CONTINUOUS
 62
           7
100
AcDbLine
 10
-856.0
 20
2765.800000000001
 11
-835.0
 21
2765.800000000001
  0
LINE
  5
3B1
100
AcDbEntity
  8
1
  6
CONTINUOUS
 62
           4
100
AcDbLine
 10
-856.0
 20
2730.300000000001
 11
-835.0
 21
2730.300000000001
  0
LINE
  5
3B0
100
AcDbEntity
  8
976
  6
CONTINUOUS
 62
           7
100
AcDbLine
 10
566.0
 20
2175.0
 11
566.0
 21
2150.0
  0
LINE
  5
3AF
100
AcDbEntity
  8
976
  6
CONTINUOUS
 62
           7
100
AcDbLine
 10
566.0
 20
2763.0
 11
566.0
 21
2725.0
  0
LINE
  5
3AE
100
AcDbEntity
  8
976
  6
CONTINUOUS
 62
           7
100
AcDbLine
 10
-63.022294576589
 20
2763.0
 11
-63.022294576589
 21
2725.0
  0
LINE
  5
3AD
100
AcDbEntity
  8
976
  6
CONTINUOUS
 62
           7
100
AcDbLine
 10
-63.022294576589
 20
2175.0
 11
-63.022294576589
 21
2150.0
  0
LINE
  5
3AC
100
AcDbEntity
  8
976
  6
CONTINUOUS
 62
           7
100
AcDbLine
 10
597.411867714181
 20
2763.0
 11
-816.116882454313
 21
2763.0
  0
LINE
  5
3AB
100
AcDbEntity
  8
1
  6
CONTINUOUS
 62
           2
100
AcDbLine
 10
551.093583477745
 20
2251.0
 11
590.0
 21
2251.0
  0
LINE
  5
3AA
100
AcDbEntity
  8
1
  6
CONTINUOUS
 62
           2
100
AcDbLine
 10
551.093583477745
 20
2630.0
 11
551.093583477745
 21
2251.0
  0
LINE
  5
3A9
100
AcDbEntity
  8
1
  6
CONTINUOUS
 62
           2
100
AcDbLine
 10
590.0
 20
2630.0
 11
551.093583477745
 21
2630.0
  0
LINE
  5
3A8
100
AcDbEntity
  8
1
  6
CONTINUOUS
 62
           7
100
AcDbLine
 10
-835.0
 20
2174.199999999999
 11
-856.0
 21
2174.199999999999
  0
LINE
  5
3A7
100
AcDbEntity
  8
1
  6
CONTINUOUS
 62
           4
100
AcDbLine
 10
-835.0
 20
2169.700000000001
 11
-856.0
 21
2169.700000000001
  0
LINE
  5
3A6
100
AcDbEntity
  8
1
  6
CONTINUOUS
 62
           7
100
AcDbLine
 10
-815.0
 20
2175.0
 11
-815.0
 21
2725.0
  0
LINE
  5
3A5
100
AcDbEntity
  8
976
  6
CONTINUOUS
 62
           7
100
AcDbLine
 10
-816.116882454313
 20
2763.0
 11
-816.116882454313
 21
2725.0
  0
LINE
  5
3A4
100
AcDbEntity
  8
976
  6
CONTINUOUS
 62
           7
100
AcDbLine
 10
-816.116882454313
 20
2175.0
 11
-816.116882454313
 21
2150.0
  0
LINE
  5
3A3
100
AcDbEntity
  8
1
  6
CONTINUOUS
 62
           2
100
AcDbLine
 10
-717.593032057172
 20
2251.0
 11
-400.160800656588
 21
2251.0
  0
LINE
  5
3A2
100
AcDbEntity
  8
1
  6
CONTINUOUS
 62
           2
100
AcDbLine
 10
-400.160800656588
 20
2251.0
 11
-400.160800656588
 21
2630.0
  0
LINE
  5
3A1
100
AcDbEntity
  8
1
  6
CONTINUOUS
 62
           2
100
AcDbLine
 10
-400.160800656588
 20
2630.0
 11
-717.593032057172
 21
2630.0
  0
LINE
  5
3A0
100
AcDbEntity
  8
1
  6
CONTINUOUS
 62
           2
100
AcDbLine
 10
-717.593032057172
 20
2630.0
 11
-717.593032057172
 21
2251.0
  0
LINE
  5
39F
100
AcDbEntity
  8
1
  6
DOT_CENTER
 62
           2
100
AcDbLine
 10
-913.409104289505
 20
2450.0
 11
646.013204171228
 21
2450.0
  0
LINE
  5
39E
100
AcDbEntity
  8
7
  6
CONTINUOUS
 62
           4
100
AcDbLine
 10
145.0
 20
3167.000000000002
 11
-145.0
 21
3167.000000000002
  0
LINE
  5
39D
100
AcDbEntity
  8
7
  6
CONTINUOUS
 62
           4
100
AcDbLine
 10
139.299999999999
 20
3246.000000000002
 11
-139.299999999999
 21
3246.000000000002
  0
LINE
  5
39C
100
AcDbEntity
  8
7
  6
CONTINUOUS
 62
           4
100
AcDbLine
 10
-141.728719000003
 20
3207.500000000002
 11
142.194775
 21
3207.500000000002
  0
LINE
  5
39B
100
AcDbEntity
  8
976
  6
CONTINUOUS
 62
           7
100
AcDbLine
 10
-495.0
 20
2175.0
 11
-825.0
 21
2175.0
  0
LINE
  5
39A
100
AcDbEntity
  8
1
  6
CONTINUOUS
 62
           7
100
AcDbLine
 10
-855.000000000004
 20
6485.0
 11
41.0
 21
6485.0
  0
LINE
  5
399
100
AcDbEntity
  8
1
  6
CONTINUOUS
 62
           7
100
AcDbLine
 10
-850.0
 20
6445.0
 11
-855.000000000004
 21
6450.0
  0
LINE
  5
398
100
AcDbEntity
  8
1
  6
CONTINUOUS
 62
           7
100
AcDbLine
 10
36.0
 20
6445.0
 11
41.0
 21
6450.0
  0
LINE
  5
397
100
AcDbEntity
  8
1
  6
CONTINUOUS
 62
           7
100
AcDbLine
 10
36.0
 20
6445.0
 11
-850.0
 21
6445.0
  0
LINE
  5
396
100
AcDbEntity
  8
1
  6
CONTINUOUS
 62
           7
100
AcDbLine
 10
-855.000000000004
 20
6450.0
 11
-855.000000000004
 21
6485.0
  0
LINE
  5
395
100
AcDbEntity
  8
1
  6
CONTINUOUS
 62
           7
100
AcDbLine
 10
41.0
 20
6485.0
 11
41.0
 21
6450.0
  0
LINE
  5
394
100
AcDbEntity
  8
1
  6
CONTINUOUS
 62
           4
100
AcDbLine
 10
41.0
 20
6480.5
 11
-855.0
 21
6480.5
  0
LINE
  5
393
100
AcDbEntity
  8
1
  6
CONTINUOUS
 62
           4
100
AcDbLine
 10
-855.0
 20
6489.499999999998
 11
41.0
 21
6489.5
  0
LINE
  5
392
100
AcDbEntity
  8
1
  6
CONTINUOUS
 62
           7
100
AcDbLine
 10
41.0
 20
6520.0
 11
41.0
 21
6485.0
  0
LINE
  5
391
100
AcDbEntity
  8
1
  6
CONTINUOUS
 62
           7
100
AcDbLine
 10
-855.000000000004
 20
6485.0
 11
-855.000000000004
 21
6520.0
  0
LINE
  5
390
100
AcDbEntity
  8
1
  6
CONTINUOUS
 62
           7
100
AcDbLine
 10
-850.0
 20
6524.999999999998
 11
36.0
 21
6525.0
  0
LINE
  5
38F
100
AcDbEntity
  8
1
  6
CONTINUOUS
 62
           7
100
AcDbLine
 10
41.0
 20
6520.0
 11
36.0
 21
6525.0
  0
LINE
  5
38E
100
AcDbEntity
  8
1
  6
CONTINUOUS
 62
           7
100
AcDbLine
 10
-855.000000000004
 20
6520.0
 11
-850.0
 21
6524.999999999998
  0
LINE
  5
38D
100
AcDbEntity
  8
1
  6
CONTINUOUS
 62
           7
100
AcDbLine
 10
587.430147030911
 20
5820.222691958725
 11
-63.022294576589
 21
5159.788529667956
  0
LINE
  5
38C
100
AcDbEntity
  8
1
  6
CONTINUOUS
 62
           7
100
AcDbLine
 10
-814.116882454317
 20
5895.883117545687
 11
-63.022294576589
 21
5159.788529667956
  0
LINE
  5
38B
100
AcDbEntity
  8
1
  6
CONTINUOUS
 62
           7
100
AcDbLine
 10
556.018279316733
 20
6003.000159772888
 11
182.0
 21
6357.0
  0
LINE
  5
38A
100
AcDbEntity
  8
1
  6
CONTINUOUS
 62
           7
100
AcDbLine
 10
-814.116882454317
 20
5895.883117545687
 11
-220.0
 21
6445.0
  0
LINE
  5
389
100
AcDbEntity
  8
0
  6
CONTINUOUS
 62
           7
100
AcDbLine
 10
0.0
 20
6435.0
 11
0.0
 21
6445.0
  0
LINE
  5
388
100
AcDbEntity
  8
1
  6
CONTINUOUS
 62
           7
100
AcDbLine
 10
0.0
 20
6435.0
 11
0.0
 21
6445.0
  0
LINE
  5
387
100
AcDbEntity
  8
0
  6
CONTINUOUS
 62
           7
100
AcDbLine
 10
-814.000000000004
 20
6445.0
 11
-814.000000000004
 21
6435.0
  0
LINE
  5
386
100
AcDbEntity
  8
0
  6
CONTINUOUS
 62
           7
100
AcDbLine
 10
-823.000000000004
 20
6425.0
 11
-823.000000000004
 21
5935.0
  0
LINE
  5
385
100
AcDbEntity
  8
0
  6
CONTINUOUS
 62
           7
100
AcDbLine
 10
-814.000000000004
 20
6435.0
 11
-823.000000000004
 21
6425.0
  0
LINE
  5
384
100
AcDbEntity
  8
0
  6
CONTINUOUS
 62
           7
100
AcDbLine
 10
30.724756890082
 20
6381.783160015504
 11
0.0
 21
6435.0
  0
LINE
  5
383
100
AcDbEntity
  8
1
  6
CONTINUOUS
 62
           7
100
AcDbLine
 10
-226.0
 20
6121.0
 11
-226.0
 21
5635.0
  0
LINE
  5
382
100
AcDbEntity
  8
1
  6
CONTINUOUS
 62
           7
100
AcDbLine
 10
226.0
 20
6121.0
 11
-260.0
 21
6121.0
  0
LINE
  5
381
100
AcDbEntity
  8
1
  6
CONTINUOUS
 62
           7
100
AcDbLine
 10
226.0
 20
5669.0
 11
226.0
 21
5830.0
  0
LINE
  5
380
100
AcDbEntity
  8
1
  6
CONTINUOUS
 62
           7
100
AcDbLine
 10
-226.0
 20
5669.0
 11
260.000000000004
 21
5669.0
  0
LINE
  5
37F
100
AcDbEntity
  8
1
  6
CONTINUOUS
 62
           7
100
AcDbLine
 10
226.0
 20
5960.0
 11
226.0
 21
6155.0
  0
LINE
  5
37E
100
AcDbEntity
  8
1
  6
CONTINUOUS
 62
           4
100
AcDbLine
 10
171.319409665062
 20
5859.297620919395
 11
171.319409665059
 21
5845.0
  0
LINE
  5
37D
100
AcDbEntity
  8
1
  6
CONTINUOUS
 62
           4
100
AcDbLine
 10
171.319409665059
 20
5945.0
 11
171.319409665059
 21
5930.702379080605
  0
LINE
  5
37C
100
AcDbEntity
  8
1
  6
CONTINUOUS
 62
           4
100
AcDbLine
 10
187.339745962156
 20
5835.0
 11
181.319409665059
 21
5835.0
  0
LINE
  5
37B
100
AcDbEntity
  8
1
  6
CONTINUOUS
 62
           4
100
AcDbLine
 10
187.339745962156
 20
5955.0
 11
181.319409665059
 21
5955.0
  0
LINE
  5
37A
100
AcDbEntity
  8
1
  6
CONTINUOUS
 62
           7
100
AcDbLine
 10
246.0
 20
5830.0
 11
196.0
 21
5830.0
  0
LINE
  5
379
100
AcDbEntity
  8
1
  6
CONTINUOUS
 62
           7
100
AcDbLine
 10
196.0
 20
5960.0
 11
246.0
 21
5960.0
  0
LINE
  5
378
100
AcDbEntity
  8
1
  6
CONTINUOUS
 62
           7
100
AcDbLine
 10
186.0
 20
5840.0
 11
186.0
 21
5950.0
  0
LINE
  5
377
100
AcDbEntity
  8
1
  6
CONTINUOUS
 62
           7
100
AcDbLine
 10
256.0
 20
5950.0
 11
256.0
 21
5840.0
  0
LINE
  5
376
100
AcDbEntity
  8
1
  6
DOT_CENTER
 62
           2
100
AcDbLine
 10
-407.5
 20
6578.027293831616
 11
-407.5
 21
6295.665095944234
  0
LINE
  5
375
100
AcDbEntity
  8
1
  6
CONTINUOUS
 62
           3
100
AcDbLine
 10
6470.163567691042
 20
1935.969655114601
 11
6464.489527668223
 21
1932.693746580038
  0
LINE
  5
374
100
AcDbEntity
  8
1
  6
CONTINUOUS
 62
           3
100
AcDbLine
 10
6479.663567691042
 20
1930.4848275573
 11
6470.163567691042
 21
1935.969655114601
  0
LINE
  5
373
100
AcDbEntity
  8
1
  6
CONTINUOUS
 62
           3
100
AcDbLine
 10
6479.663567691042
 20
1919.515172442698
 11
6479.663567691042
 21
1930.4848275573
  0
LINE
  5
372
100
AcDbEntity
  8
1
  6
CONTINUOUS
 62
           3
100
AcDbLine
 10
6470.163567691042
 20
1914.030344885396
 11
6479.663567691042
 21
1919.515172442698
  0
LINE
  5
371
100
AcDbEntity
  8
1
  6
CONTINUOUS
 62
           3
100
AcDbLine
 10
6464.48952766823
 20
1917.306253419958
 11
6470.163567691042
 21
1914.030344885396
  0
LINE
  5
370
100
AcDbEntity
  8
1
  6
DOT_CENTER
 62
           3
100
AcDbLine
 10
6446.218519558622
 20
1924.999999999998
 11
6487.667695262441
 21
1924.999999999998
  0
LINE
  5
36F
100
AcDbEntity
  8
1
  6
CONTINUOUS
 62
           3
100
AcDbLine
 10
6459.389214871943
 20
1916.749999999998
 11
6459.389214871943
 21
1917.306253419958
  0
LINE
  5
36E
100
AcDbEntity
  8
1
  6
CONTINUOUS
 62
           3
100
AcDbLine
 10
6459.389214871943
 20
1916.749999999998
 11
6449.714603906644
 21
1916.749999999998
  0
LINE
  5
36D
100
AcDbEntity
  8
1
  6
CONTINUOUS
 62
           3
100
AcDbLine
 10
6449.714603906644
 20
1916.749999999998
 11
6449.714603906644
 21
1924.999999999998
  0
LINE
  5
36C
100
AcDbEntity
  8
1
  6
CONTINUOUS
 62
           3
100
AcDbLine
 10
6449.714603906644
 20
1918.999999999998
 11
6448.868798384462
 21
1918.999999999998
  0
LINE
  5
36B
100
AcDbEntity
  8
1
  6
CONTINUOUS
 62
           3
100
AcDbLine
 10
6448.868798384462
 20
1917.306253419958
 11
6448.868798384462
 21
1924.999999999998
  0
LINE
  5
36A
100
AcDbEntity
  8
1
  6
CONTINUOUS
 62
           3
100
AcDbLine
 10
6448.868798384462
 20
1917.306253419958
 11
6448.163567691042
 21
1917.306253419958
  0
LINE
  5
369
100
AcDbEntity
  8
1
  6
CONTINUOUS
 62
           3
100
AcDbLine
 10
6447.663567691042
 20
1924.999999999998
 11
6447.663567691042
 21
1917.806253419958
  0
LINE
  5
368
100
AcDbEntity
  8
1
  6
CONTINUOUS
 62
           3
100
AcDbLine
 10
6447.663567691042
 20
1932.193746580038
 11
6447.663567691042
 21
1924.999999999998
  0
LINE
  5
367
100
AcDbEntity
  8
1
  6
CONTINUOUS
 62
           3
100
AcDbLine
 10
6448.163567691042
 20
1932.693746580038
 11
6448.868798384462
 21
1932.693746580038
  0
LINE
  5
366
100
AcDbEntity
  8
1
  6
CONTINUOUS
 62
           3
100
AcDbLine
 10
6448.868798384462
 20
1924.999999999998
 11
6448.868798384462
 21
1932.693746580038
  0
LINE
  5
365
100
AcDbEntity
  8
1
  6
CONTINUOUS
 62
           3
100
AcDbLine
 10
6448.868798384462
 20
1930.999999999998
 11
6449.714603906644
 21
1930.999999999998
  0
LINE
  5
364
100
AcDbEntity
  8
1
  6
CONTINUOUS
 62
           3
100
AcDbLine
 10
6449.714603906644
 20
1933.249999999998
 11
6459.389214871943
 21
1933.249999999998
  0
LINE
  5
363
100
AcDbEntity
  8
1
  6
CONTINUOUS
 62
           3
100
AcDbLine
 10
6449.714603906644
 20
1924.999999999998
 11
6449.714603906644
 21
1933.249999999998
  0
LINE
  5
362
100
AcDbEntity
  8
1
  6
CONTINUOUS
 62
           3
100
AcDbLine
 10
6459.389214871943
 20
1932.693746580038
 11
6459.389214871943
 21
1933.249999999998
  0
LINE
  5
361
100
AcDbEntity
  8
1
  6
CONTINUOUS
 62
           3
100
AcDbLine
 10
6459.389214871943
 20
1917.306253419958
 11
6459.389214871943
 21
1932.693746580038
  0
LINE
  5
360
100
AcDbEntity
  8
1
  6
CONTINUOUS
 62
           3
100
AcDbLine
 10
6465.254330418634
 20
1917.306253419958
 11
6465.254330418634
 21
1932.693746580038
  0
LINE
  5
35F
100
AcDbEntity
  8
1
  6
CONTINUOUS
 62
           3
100
AcDbLine
 10
6465.254330418634
 20
1917.306253419958
 11
6459.389214871943
 21
1917.306253419958
  0
LINE
  5
35E
100
AcDbEntity
  8
1
  6
CONTINUOUS
 62
           3
100
AcDbLine
 10
6465.254330418634
 20
1932.693746580038
 11
6459.389214871943
 21
1932.693746580038
  0
LINE
  5
35D
100
AcDbEntity
  8
1
  6
CONTINUOUS
 62
           3
100
AcDbLine
 10
6465.254330418634
 20
1930.871834995067
 11
6470.163567691042
 21
1930.871834995067
  0
LINE
  5
35C
100
AcDbEntity
  8
1
  6
DOT_CENTER
 62
           3
100
AcDbLine
 10
6470.163567691042
 20
1938.643555804872
 11
6470.163567691042
 21
1907.508008255123
  0
LINE
  5
35B
100
AcDbEntity
  8
1
  6
CONTINUOUS
 62
           3
100
AcDbLine
 10
6470.163567691042
 20
1919.128165004931
 11
6465.254330418634
 21
1919.128165004931
  0
LINE
  5
35A
100
AcDbEntity
  8
0
  6
CONTINUOUS
 62
           3
100
AcDbLine
 10
5964.844723494172
 20
1393.11639219519
 11
5965.899996721674
 21
1393.131740391391
  0
LINE
  5
359
100
AcDbEntity
  8
0
  6
CONTINUOUS
 62
           3
100
AcDbLine
 10
5963.903805503274
 20
1393.072016537191
 11
5964.844723494172
 21
1393.11639219519
  0
LINE
  5
358
100
AcDbEntity
  8
0
  6
CONTINUOUS
 62
           3
100
AcDbLine
 10
5963.179205573572
 20
1393.003411590989
 11
5963.903805503274
 21
1393.072016537191
  0
LINE
  5
357
100
AcDbEntity
  8
0
  6
CONTINUOUS
 62
           3
100
AcDbLine
 10
5962.749445840375
 20
1392.91802048679
 11
5963.179205573572
 21
1393.003411590989
  0
LINE
  5
356
100
AcDbEntity
  8
0
  6
CONTINUOUS
 62
           3
100
AcDbLine
 10
5962.661097088371
 20
1392.82508939499
 11
5962.749445840375
 21
1392.91802048679
  0
LINE
  5
355
100
AcDbEntity
  8
0
  6
CONTINUOUS
 62
           3
100
AcDbLine
 10
5962.899996695575
 20
1392.739541828791
 11
5962.661097088371
 21
1392.82508939499
  0
LINE
  5
354
100
AcDbEntity
  8
0
  6
CONTINUOUS
 62
           3
100
AcDbLine
 10
5969.138896354963
 20
1392.82508939499
 11
5968.899996747762
 21
1392.739541828791
  0
LINE
  5
353
100
AcDbEntity
  8
0
  6
CONTINUOUS
 62
           3
100
AcDbLine
 10
5969.050547602962
 20
1392.91802048679
 11
5969.138896354963
 21
1392.82508939499
  0
LINE
  5
352
100
AcDbEntity
  8
0
  6
CONTINUOUS
 62
           3
100
AcDbLine
 10
5968.620787869762
 20
1393.003411590989
 11
5969.050547602962
 21
1392.91802048679
  0
LINE
  5
351
100
AcDbEntity
  8
0
  6
CONTINUOUS
 62
           3
100
AcDbLine
 10
5967.896187940061
 20
1393.072016537191
 11
5968.620787869762
 21
1393.003411590989
  0
LINE
  5
350
100
AcDbEntity
  8
0
  6
CONTINUOUS
 62
           3
100
AcDbLine
 10
5966.955269949173
 20
1393.11639219519
 11
5967.896187940061
 21
1393.072016537191
  0
LINE
  5
34F
100
AcDbEntity
  8
0
  6
CONTINUOUS
 62
           3
100
AcDbLine
 10
5965.899996721674
 20
1393.131740391391
 11
5966.955269949173
 21
1393.11639219519
  0
LINE
  5
34E
100
AcDbEntity
  8
FORMAT
  6
CONTINUOUS
 62
           3
100
AcDbLine
 10
5962.399996721572
 20
1392.596845102891
 11
5951.899996721583
 21
1392.596845102891
  0
LINE
  5
34D
100
AcDbEntity
  8
FORMAT
  6
DOT_CENTER
 62
           3
100
AcDbLine
 10
5965.899996721674
 20
1249.759397252254
 11
5965.899996721674
 21
1725.394390768568
  0
LINE
  5
34C
100
AcDbEntity
  8
FORMAT
  6
CONTINUOUS
 62
           3
100
AcDbLine
 10
5969.399996721763
 20
1392.596845102891
 11
5962.399996721572
 21
1392.596845102891
  0
LINE
  5
34B
100
AcDbEntity
  8
FORMAT
  6
CONTINUOUS
 62
           3
100
AcDbLine
 10
5979.899996721754
 20
1392.596845102891
 11
5969.399996721763
 21
1392.596845102891
  0
LINE
  5
34A
100
AcDbEntity
  8
FORMAT
  6
DOT_CENTER
 62
           3
100
AcDbLine
 10
5890.999996721633
 20
1375.000000000006
 11
5877.399996721743
 21
1375.000000000006
  0
LINE
  5
349
100
AcDbEntity
  8
FORMAT
  6
DOT_CENTER
 62
           3
100
AcDbLine
 10
5890.999996721633
 20
1624.999999999998
 11
5877.399996721743
 21
1624.999999999998
  0
LINE
  5
348
100
AcDbEntity
  8
0
  6
CONTINUOUS
 62
           3
100
AcDbLine
 10
5900.89999910602
 20
1364.999994635813
 11
5885.499999189234
 21
1364.999994635813
  0
LINE
  5
347
100
AcDbEntity
  8
0
  6
CONTINUOUS
 62
           3
100
AcDbLine
 10
5904.399995023124
 20
1590.00000357623
 11
5904.399995023124
 21
1509.999999776394
  0
LINE
  5
346
100
AcDbEntity
  8
0
  6
CONTINUOUS
 62
           3
100
AcDbLine
 10
5907.399997377515
 20
1590.00000357623
 11
5904.399995023124
 21
1590.00000357623
  0
LINE
  5
345
100
AcDbEntity
  8
0
  6
CONTINUOUS
 62
           3
100
AcDbLine
 10
5907.399997377515
 20
1550.000000744962
 11
5907.399997377515
 21
1590.00000357623
  0
LINE
  5
344
100
AcDbEntity
  8
0
  6
CONTINUOUS
 62
           3
100
AcDbLine
 10
5907.399997377515
 20
1529.999999329479
 11
5907.399997377515
 21
1532.000001519877
  0
LINE
  5
343
100
AcDbEntity
  8
0
  6
CONTINUOUS
 62
           3
100
AcDbLine
 10
5904.399995023124
 20
1509.999999776394
 11
5905.975189322323
 21
1509.999999776394
  0
LINE
  5
342
100
AcDbEntity
  8
0
  6
CONTINUOUS
 62
           3
100
AcDbLine
 10
6025.899995380621
 20
1368.000000715312
 11
6025.899995380621
 21
1367.300003767012
  0
LINE
  5
341
100
AcDbEntity
  8
0
  6
CONTINUOUS
 62
           3
100
AcDbLine
 10
6030.899994337314
 20
1364.999994635813
 11
6030.899994337314
 21
1368.000000715312
  0
LINE
  5
340
100
AcDbEntity
  8
0
  6
CONTINUOUS
 62
           3
100
AcDbLine
 10
6030.899994337314
 20
1635.000005364194
 11
6030.899994337314
 21
1631.999999284695
  0
LINE
  5
33F
100
AcDbEntity
  8
0
  6
CONTINUOUS
 62
           3
100
AcDbLine
 10
6025.899995380621
 20
1631.999999284695
 11
6025.899995380621
 21
1632.699996232992
  0
LINE
  5
33E
100
AcDbEntity
  8
0
  6
CONTINUOUS
 62
           3
100
AcDbLine
 10
5905.899998062713
 20
1631.999999284695
 11
5905.899998062713
 21
1632.699996232992
  0
LINE
  5
33D
100
AcDbEntity
  8
0
  6
CONTINUOUS
 62
           3
100
AcDbLine
 10
5900.89999910602
 20
1635.000005364194
 11
5900.89999910602
 21
1631.999999284695
  0
LINE
  5
33C
100
AcDbEntity
  8
0
  6
CONTINUOUS
 62
           3
100
AcDbLine
 10
5900.89999910602
 20
1635.000005364194
 11
5885.499999189234
 21
1635.000005364194
  0
LINE
  5
33B
100
AcDbEntity
  8
0
  6
CONTINUOUS
 62
           3
100
AcDbLine
 10
5900.89999910602
 20
1364.999994635813
 11
5900.89999910602
 21
1368.000000715312
  0
LINE
  5
33A
100
AcDbEntity
  8
0
  6
CONTINUOUS
 62
           3
100
AcDbLine
 10
5905.899998062713
 20
1368.000000715312
 11
5905.899998062713
 21
1367.300003767012
  0
LINE
  5
339
100
AcDbEntity
  8
0
  6
CONTINUOUS
 62
           3
100
AcDbLine
 10
5904.399995023124
 20
1409.999996423778
 11
5904.399995023124
 21
1490.00000022361
  0
LINE
  5
338
100
AcDbEntity
  8
0
  6
CONTINUOUS
 62
           3
100
AcDbLine
 10
5904.399995023124
 20
1490.00000022361
 11
5905.899998062713
 21
1490.00000022361
  0
LINE
  5
337
100
AcDbEntity
  8
0
  6
CONTINUOUS
 62
           3
100
AcDbLine
 10
5907.399997377515
 20
1431.999996304558
 11
5907.399997377515
 21
1429.99999970196
  0
LINE
  5
336
100
AcDbEntity
  8
0
  6
CONTINUOUS
 62
           3
100
AcDbLine
 10
5905.975189322323
 20
1409.999996423778
 11
5904.399995023124
 21
1409.999996423778
  0
LINE
  5
335
100
AcDbEntity
  8
0
  6
CONTINUOUS
 62
           3
100
AcDbLine
 10
6027.399998420225
 20
1590.00000357623
 11
6027.399998420225
 21
1509.999999776394
  0
LINE
  5
334
100
AcDbEntity
  8
0
  6
CONTINUOUS
 62
           3
100
AcDbLine
 10
6027.399998420225
 20
1509.999999776394
 11
6025.824804121022
 21
1509.999999776394
  0
LINE
  5
333
100
AcDbEntity
  8
0
  6
CONTINUOUS
 62
           3
100
AcDbLine
 10
6024.399996066125
 20
1550.000000744962
 11
6024.399996066125
 21
1590.00000357623
  0
LINE
  5
332
100
AcDbEntity
  8
0
  6
CONTINUOUS
 62
           3
100
AcDbLine
 10
6024.399996066125
 20
1529.999999329479
 11
6024.399996066125
 21
1532.000001519877
  0
LINE
  5
331
100
AcDbEntity
  8
0
  6
CONTINUOUS
 62
           3
100
AcDbLine
 10
6024.399996066125
 20
1590.00000357623
 11
6027.399998420225
 21
1590.00000357623
  0
LINE
  5
330
100
AcDbEntity
  8
0
  6
CONTINUOUS
 62
           3
100
AcDbLine
 10
6027.399998420225
 20
1409.999996423778
 11
6027.399998420225
 21
1490.00000022361
  0
LINE
  5
32F
100
AcDbEntity
  8
0
  6
CONTINUOUS
 62
           3
100
AcDbLine
 10
6025.824804121022
 20
1409.999996423778
 11
6027.399998420225
 21
1409.999996423778
  0
LINE
  5
32E
100
AcDbEntity
  8
0
  6
CONTINUOUS
 62
           3
100
AcDbLine
 10
6024.399996066125
 20
1431.999996304558
 11
6024.399996066125
 21
1429.99999970196
  0
LINE
  5
32D
100
AcDbEntity
  8
0
  6
CONTINUOUS
 62
           3
100
AcDbLine
 10
6027.399998420225
 20
1490.00000022361
 11
6025.899995380621
 21
1490.00000022361
  0
LINE
  5
32C
100
AcDbEntity
  8
0
  6
CONTINUOUS
 62
           3
100
AcDbLine
 10
5885.499999189234
 20
1635.000005364194
 11
5883.399993443332
 21
1635.000005364194
  0
LINE
  5
32B
100
AcDbEntity
  8
0
  6
CONTINUOUS
 62
           3
100
AcDbLine
 10
5883.399993443332
 20
1635.000005364194
 11
5883.399993443332
 21
1364.999994635813
  0
LINE
  5
32A
100
AcDbEntity
  8
0
  6
CONTINUOUS
 62
           3
100
AcDbLine
 10
5885.499999189234
 20
1364.999994635813
 11
5883.399993443332
 21
1364.999994635813
  0
LINE
  5
329
100
AcDbEntity
  8
0
  6
CONTINUOUS
 62
           3
100
AcDbLine
 10
5905.899998062713
 20
1366.600006818711
 11
5905.899998062713
 21
1367.300003767012
  0
LINE
  5
328
100
AcDbEntity
  8
0
  6
CONTINUOUS
 62
           3
100
AcDbLine
 10
6025.899995380621
 20
1366.600006818711
 11
6025.899995380621
 21
1367.300003767012
  0
LINE
  5
327
100
AcDbEntity
  8
0
  6
CONTINUOUS
 62
           3
100
AcDbLine
 10
5905.899998062713
 20
1633.399993180994
 11
5905.899998062713
 21
1632.699996232992
  0
LINE
  5
326
100
AcDbEntity
  8
0
  6
CONTINUOUS
 62
           3
100
AcDbLine
 10
6025.899995380621
 20
1633.399993180994
 11
6025.899995380621
 21
1632.699996232992
  0
LINE
  5
325
100
AcDbEntity
  8
0
  6
CONTINUOUS
 62
           3
100
AcDbLine
 10
6020.899996423622
 20
1633.399993180994
 11
6025.899995380621
 21
1633.399993180994
  0
LINE
  5
324
100
AcDbEntity
  8
0
  6
CONTINUOUS
 62
           3
100
AcDbLine
 10
6025.899995380621
 20
1635.000005364194
 11
6020.899996423622
 21
1635.000005364194
  0
LINE
  5
323
100
AcDbEntity
  8
0
  6
CONTINUOUS
 62
           3
100
AcDbLine
 10
6025.899995380621
 20
1633.399993180994
 11
6025.899995380621
 21
1635.000005364194
  0
LINE
  5
322
100
AcDbEntity
  8
0
  6
CONTINUOUS
 62
           3
100
AcDbLine
 10
6020.899996423622
 20
1366.600006818711
 11
6025.899995380621
 21
1366.600006818711
  0
LINE
  5
321
100
AcDbEntity
  8
0
  6
CONTINUOUS
 62
           3
100
AcDbLine
 10
6025.899995380621
 20
1364.999994635813
 11
6020.899996423622
 21
1364.999994635813
  0
LINE
  5
320
100
AcDbEntity
  8
0
  6
CONTINUOUS
 62
           3
100
AcDbLine
 10
6025.899995380621
 20
1366.600006818711
 11
6025.899995380621
 21
1364.999994635813
  0
LINE
  5
31F
100
AcDbEntity
  8
0
  6
CONTINUOUS
 62
           3
100
AcDbLine
 10
6010.899998509632
 20
1366.600006818711
 11
6012.899995112232
 21
1366.600006818711
  0
LINE
  5
31E
100
AcDbEntity
  8
0
  6
CONTINUOUS
 62
           3
100
AcDbLine
 10
6012.899995112232
 20
1364.999994635813
 11
6010.899998509632
 21
1364.999994635813
  0
LINE
  5
31D
100
AcDbEntity
  8
0
  6
CONTINUOUS
 62
           3
100
AcDbLine
 10
6012.899995112232
 20
1366.600006818711
 11
6012.899995112232
 21
1364.999994635813
  0
LINE
  5
31C
100
AcDbEntity
  8
0
  6
CONTINUOUS
 62
           3
100
AcDbLine
 10
6010.899998509632
 20
1633.399993180994
 11
6012.899995112232
 21
1633.399993180994
  0
LINE
  5
31B
100
AcDbEntity
  8
0
  6
CONTINUOUS
 62
           3
100
AcDbLine
 10
6012.899995112232
 20
1635.000005364194
 11
6010.899998509632
 21
1635.000005364194
  0
LINE
  5
31A
100
AcDbEntity
  8
0
  6
CONTINUOUS
 62
           3
100
AcDbLine
 10
6012.899995112232
 20
1633.399993180994
 11
6012.899995112232
 21
1635.000005364194
  0
LINE
  5
319
100
AcDbEntity
  8
0
  6
CONTINUOUS
 62
           3
100
AcDbLine
 10
6018.89999609592
 20
1366.600006818711
 11
6020.899996423622
 21
1366.600006818711
  0
LINE
  5
318
100
AcDbEntity
  8
0
  6
CONTINUOUS
 62
           3
100
AcDbLine
 10
6020.899996423622
 20
1364.999994635813
 11
6018.89999609592
 21
1364.999994635813
  0
LINE
  5
317
100
AcDbEntity
  8
0
  6
CONTINUOUS
 62
           3
100
AcDbLine
 10
6018.89999609592
 20
1364.999994635813
 11
6018.89999609592
 21
1366.600006818711
  0
LINE
  5
316
100
AcDbEntity
  8
0
  6
CONTINUOUS
 62
           3
100
AcDbLine
 10
6018.89999609592
 20
1633.399993180994
 11
6020.899996423622
 21
1633.399993180994
  0
LINE
  5
315
100
AcDbEntity
  8
0
  6
CONTINUOUS
 62
           3
100
AcDbLine
 10
6020.899996423622
 20
1635.000005364194
 11
6018.89999609592
 21
1635.000005364194
  0
LINE
  5
314
100
AcDbEntity
  8
0
  6
CONTINUOUS
 62
           3
100
AcDbLine
 10
6018.89999609592
 20
1635.000005364194
 11
6018.89999609592
 21
1633.399993180994
  0
LINE
  5
313
100
AcDbEntity
  8
0
  6
CONTINUOUS
 62
           3
100
AcDbLine
 10
5910.899997019712
 20
1633.399993180994
 11
5905.899998062713
 21
1633.399993180994
  0
LINE
  5
312
100
AcDbEntity
  8
0
  6
CONTINUOUS
 62
           3
100
AcDbLine
 10
5905.899998062713
 20
1635.000005364194
 11
5910.899997019712
 21
1635.000005364194
  0
LINE
  5
311
100
AcDbEntity
  8
0
  6
CONTINUOUS
 62
           3
100
AcDbLine
 10
5905.899998062713
 20
1633.399993180994
 11
5905.899998062713
 21
1635.000005364194
  0
LINE
  5
310
100
AcDbEntity
  8
0
  6
CONTINUOUS
 62
           3
100
AcDbLine
 10
5910.899997019712
 20
1366.600006818711
 11
5905.899998062713
 21
1366.600006818711
  0
LINE
  5
30F
100
AcDbEntity
  8
0
  6
CONTINUOUS
 62
           3
100
AcDbLine
 10
5905.899998062713
 20
1364.999994635813
 11
5910.899997019712
 21
1364.999994635813
  0
LINE
  5
30E
100
AcDbEntity
  8
0
  6
CONTINUOUS
 62
           3
100
AcDbLine
 10
5905.899998062713
 20
1366.600006818711
 11
5905.899998062713
 21
1364.999994635813
  0
LINE
  5
30D
100
AcDbEntity
  8
0
  6
CONTINUOUS
 62
           3
100
AcDbLine
 10
5920.899994933702
 20
1633.399993180994
 11
6010.899998509632
 21
1633.399993180994
  0
LINE
  5
30C
100
AcDbEntity
  8
0
  6
CONTINUOUS
 62
           3
100
AcDbLine
 10
5920.899994933702
 20
1635.000005364194
 11
6010.899998509632
 21
1635.000005364194
  0
LINE
  5
30B
100
AcDbEntity
  8
0
  6
CONTINUOUS
 62
           3
100
AcDbLine
 10
5920.899994933702
 20
1366.600006818711
 11
6010.899998509632
 21
1366.600006818711
  0
LINE
  5
30A
100
AcDbEntity
  8
0
  6
CONTINUOUS
 62
           3
100
AcDbLine
 10
5920.899994933702
 20
1364.999994635813
 11
6010.899998509632
 21
1364.999994635813
  0
LINE
  5
309
100
AcDbEntity
  8
0
  6
CONTINUOUS
 62
           3
100
AcDbLine
 10
5920.899994933702
 20
1366.600006818711
 11
5918.899998331102
 21
1366.600006818711
  0
LINE
  5
308
100
AcDbEntity
  8
0
  6
CONTINUOUS
 62
           3
100
AcDbLine
 10
5918.899998331102
 20
1366.600006818711
 11
5918.899998331102
 21
1364.999994635813
  0
LINE
  5
307
100
AcDbEntity
  8
0
  6
CONTINUOUS
 62
           3
100
AcDbLine
 10
5918.899998331102
 20
1364.999994635813
 11
5920.899994933702
 21
1364.999994635813
  0
LINE
  5
306
100
AcDbEntity
  8
0
  6
CONTINUOUS
 62
           3
100
AcDbLine
 10
5920.899994933702
 20
1633.399993180994
 11
5918.899998331102
 21
1633.399993180994
  0
LINE
  5
305
100
AcDbEntity
  8
0
  6
CONTINUOUS
 62
           3
100
AcDbLine
 10
5918.899998331102
 20
1635.000005364194
 11
5920.899994933702
 21
1635.000005364194
  0
LINE
  5
304
100
AcDbEntity
  8
0
  6
CONTINUOUS
 62
           3
100
AcDbLine
 10
5918.899998331102
 20
1633.399993180994
 11
5918.899998331102
 21
1635.000005364194
  0
LINE
  5
303
100
AcDbEntity
  8
0
  6
CONTINUOUS
 62
           3
100
AcDbLine
 10
5912.899997347712
 20
1633.399993180994
 11
5910.899997019712
 21
1633.399993180994
  0
LINE
  5
302
100
AcDbEntity
  8
0
  6
CONTINUOUS
 62
           3
100
AcDbLine
 10
5912.899997347712
 20
1635.000005364194
 11
5912.899997347712
 21
1633.399993180994
  0
LINE
  5
301
100
AcDbEntity
  8
0
  6
CONTINUOUS
 62
           3
100
AcDbLine
 10
5910.899997019712
 20
1635.000005364194
 11
5912.899997347712
 21
1635.000005364194
  0
LINE
  5
300
100
AcDbEntity
  8
0
  6
CONTINUOUS
 62
           3
100
AcDbLine
 10
5912.899997347712
 20
1366.600006818711
 11
5910.899997019712
 21
1366.600006818711
  0
LINE
  5
2FF
100
AcDbEntity
  8
0
  6
CONTINUOUS
 62
           3
100
AcDbLine
 10
5910.899997019712
 20
1364.999994635813
 11
5912.899997347712
 21
1364.999994635813
  0
LINE
  5
2FE
100
AcDbEntity
  8
0
  6
CONTINUOUS
 62
           3
100
AcDbLine
 10
5912.899997347712
 20
1364.999994635813
 11
5912.899997347712
 21
1366.600006818711
  0
LINE
  5
2FD
100
AcDbEntity
  8
0
  6
CONTINUOUS
 62
           3
100
AcDbLine
 10
6025.824804121022
 20
1409.999996423778
 11
6024.199996405624
 21
1409.999996423778
  0
LINE
  5
2FC
100
AcDbEntity
  8
0
  6
CONTINUOUS
 62
           3
100
AcDbLine
 10
6024.199996405624
 20
1429.99999970196
 11
6025.899995380621
 21
1429.99999970196
  0
LINE
  5
2FB
100
AcDbEntity
  8
0
  6
CONTINUOUS
 62
           3
100
AcDbLine
 10
6025.899995380621
 20
1429.99999970196
 11
6025.899995380621
 21
1409.999996423778
  0
LINE
  5
2FA
100
AcDbEntity
  8
0
  6
CONTINUOUS
 62
           3
100
AcDbLine
 10
5905.899998062713
 20
1529.999999329479
 11
5907.599997037714
 21
1529.999999329479
  0
LINE
  5
2F9
100
AcDbEntity
  8
0
  6
CONTINUOUS
 62
           3
100
AcDbLine
 10
5905.899998062713
 20
1509.999999776394
 11
5905.899998062713
 21
1529.999999329479
  0
LINE
  5
2F8
100
AcDbEntity
  8
0
  6
CONTINUOUS
 62
           3
100
AcDbLine
 10
5907.599997037714
 20
1509.999999776394
 11
5905.975189322323
 21
1509.999999776394
  0
LINE
  5
2F7
100
AcDbEntity
  8
0
  6
CONTINUOUS
 62
           3
100
AcDbLine
 10
5905.975189322323
 20
1409.999996423778
 11
5907.599997037714
 21
1409.999996423778
  0
LINE
  5
2F6
100
AcDbEntity
  8
0
  6
CONTINUOUS
 62
           3
100
AcDbLine
 10
5907.599997037714
 20
1429.99999970196
 11
5905.899998062713
 21
1429.99999970196
  0
LINE
  5
2F5
100
AcDbEntity
  8
0
  6
CONTINUOUS
 62
           3
100
AcDbLine
 10
5905.899998062713
 20
1429.99999970196
 11
5905.899998062713
 21
1409.999996423778
  0
LINE
  5
2F4
100
AcDbEntity
  8
0
  6
CONTINUOUS
 62
           3
100
AcDbLine
 10
5907.599997037714
 20
1529.999999329479
 11
5907.899998390713
 21
1529.999999329479
  0
LINE
  5
2F3
100
AcDbEntity
  8
0
  6
CONTINUOUS
 62
           3
100
AcDbLine
 10
5907.899998390713
 20
1509.999999776394
 11
5907.599997037714
 21
1509.999999776394
  0
LINE
  5
2F2
100
AcDbEntity
  8
0
  6
CONTINUOUS
 62
           3
100
AcDbLine
 10
5905.899998062713
 20
1508.000000379898
 11
5907.899998390713
 21
1508.000000379898
  0
LINE
  5
2F1
100
AcDbEntity
  8
0
  6
CONTINUOUS
 62
           3
100
AcDbLine
 10
5905.899998062713
 20
1508.000000379898
 11
5905.899998062713
 21
1431.999996304558
  0
LINE
  5
2F0
100
AcDbEntity
  8
0
  6
CONTINUOUS
 62
           3
100
AcDbLine
 10
5905.899998062713
 20
1431.999996304558
 11
5907.899998390713
 21
1431.999996304558
  0
LINE
  5
2EF
100
AcDbEntity
  8
0
  6
CONTINUOUS
 62
           3
100
AcDbLine
 10
5907.899998390713
 20
1429.99999970196
 11
5907.599997037714
 21
1429.99999970196
  0
LINE
  5
2EE
100
AcDbEntity
  8
0
  6
CONTINUOUS
 62
           3
100
AcDbLine
 10
5907.599997037714
 20
1409.999996423778
 11
5907.899998390713
 21
1409.999996423778
  0
LINE
  5
2ED
100
AcDbEntity
  8
0
  6
CONTINUOUS
 62
           3
100
AcDbLine
 10
5907.899998390713
 20
1407.999999821181
 11
5905.899998062713
 21
1407.999999821181
  0
LINE
  5
2EC
100
AcDbEntity
  8
0
  6
CONTINUOUS
 62
           3
100
AcDbLine
 10
5905.899998062713
 20
1391.69999957079
 11
5905.899998062713
 21
1407.999999821181
  0
LINE
  5
2EB
100
AcDbEntity
  8
0
  6
CONTINUOUS
 62
           3
100
AcDbLine
 10
6025.899995380621
 20
1391.69999957079
 11
6025.899995380621
 21
1407.999999821181
  0
LINE
  5
2EA
100
AcDbEntity
  8
0
  6
CONTINUOUS
 62
           3
100
AcDbLine
 10
6023.899995052621
 20
1407.999999821181
 11
6025.899995380621
 21
1407.999999821181
  0
LINE
  5
2E9
100
AcDbEntity
  8
0
  6
CONTINUOUS
 62
           3
100
AcDbLine
 10
6024.199996405624
 20
1409.999996423778
 11
6023.899995052621
 21
1409.999996423778
  0
LINE
  5
2E8
100
AcDbEntity
  8
0
  6
CONTINUOUS
 62
           3
100
AcDbLine
 10
6023.899995052621
 20
1429.99999970196
 11
6024.199996405624
 21
1429.99999970196
  0
LINE
  5
2E7
100
AcDbEntity
  8
0
  6
CONTINUOUS
 62
           3
100
AcDbLine
 10
6025.899995380621
 20
1431.999996304558
 11
6023.899995052621
 21
1431.999996304558
  0
LINE
  5
2E6
100
AcDbEntity
  8
0
  6
CONTINUOUS
 62
           3
100
AcDbLine
 10
6025.899995380621
 20
1508.000000379898
 11
6025.899995380621
 21
1431.999996304558
  0
LINE
  5
2E5
100
AcDbEntity
  8
0
  6
CONTINUOUS
 62
           3
100
AcDbLine
 10
6025.899995380621
 20
1508.000000379898
 11
6023.899995052621
 21
1508.000000379898
  0
LINE
  5
2E4
100
AcDbEntity
  8
0
  6
CONTINUOUS
 62
           3
100
AcDbLine
 10
6023.899995052621
 20
1509.999999776394
 11
6024.199996405624
 21
1509.999999776394
  0
LINE
  5
2E3
100
AcDbEntity
  8
0
  6
CONTINUOUS
 62
           3
100
AcDbLine
 10
6024.199996405624
 20
1529.999999329479
 11
6023.899995052621
 21
1529.999999329479
  0
LINE
  5
2E2
100
AcDbEntity
  8
0
  6
CONTINUOUS
 62
           3
100
AcDbLine
 10
6023.899995052621
 20
1532.000001519877
 11
6025.899995380621
 21
1532.000001519877
  0
LINE
  5
2E1
100
AcDbEntity
  8
0
  6
CONTINUOUS
 62
           3
100
AcDbLine
 10
6025.899995380621
 20
1548.300001770263
 11
6025.899995380621
 21
1532.000001519877
  0
LINE
  5
2E0
100
AcDbEntity
  8
0
  6
CONTINUOUS
 62
           3
100
AcDbLine
 10
5905.899998062713
 20
1548.300001770263
 11
5905.899998062713
 21
1532.000001519877
  0
LINE
  5
2DF
100
AcDbEntity
  8
0
  6
CONTINUOUS
 62
           3
100
AcDbLine
 10
5907.899998390713
 20
1532.000001519877
 11
5905.899998062713
 21
1532.000001519877
  0
LINE
  5
2DE
100
AcDbEntity
  8
0
  6
CONTINUOUS
 62
           3
100
AcDbLine
 10
6024.199996405624
 20
1509.999999776394
 11
6025.824804121022
 21
1509.999999776394
  0
LINE
  5
2DD
100
AcDbEntity
  8
0
  6
CONTINUOUS
 62
           3
100
AcDbLine
 10
6025.899995380621
 20
1509.999999776394
 11
6025.899995380621
 21
1529.999999329479
  0
LINE
  5
2DC
100
AcDbEntity
  8
0
  6
CONTINUOUS
 62
           3
100
AcDbLine
 10
6025.899995380621
 20
1529.999999329479
 11
6024.199996405624
 21
1529.999999329479
  0
LINE
  5
2DB
100
AcDbEntity
  8
0
  6
CONTINUOUS
 62
           3
100
AcDbLine
 10
6025.899995380621
 20
1548.799999058063
 11
6025.899995380621
 21
1548.300001770263
  0
LINE
  5
2DA
100
AcDbEntity
  8
0
  6
CONTINUOUS
 62
           3
100
AcDbLine
 10
5905.899998062713
 20
1548.799999058063
 11
5905.899998062713
 21
1548.300001770263
  0
LINE
  5
2D9
100
AcDbEntity
  8
0
  6
CONTINUOUS
 62
           3
100
AcDbLine
 10
5905.899998062713
 20
1391.199998557591
 11
5905.899998062713
 21
1391.69999957079
  0
LINE
  5
2D8
100
AcDbEntity
  8
0
  6
CONTINUOUS
 62
           3
100
AcDbLine
 10
6025.899995380621
 20
1391.199998557591
 11
6025.899995380621
 21
1391.69999957079
  0
LINE
  5
2D7
100
AcDbEntity
  8
0
  6
CONTINUOUS
 62
           3
100
AcDbLine
 10
5968.899996747762
 20
1550.000000744962
 11
5969.149996788762
 21
1550.000000744962
  0
LINE
  5
2D6
100
AcDbEntity
  8
0
  6
CONTINUOUS
 62
           3
100
AcDbLine
 10
5962.649996654575
 20
1550.000000744962
 11
5962.899996695575
 21
1550.000000744962
  0
LINE
  5
2D5
100
AcDbEntity
  8
0
  6
CONTINUOUS
 62
           3
100
AcDbLine
 10
5968.899996747762
 20
1548.799999058063
 11
5969.149996788762
 21
1548.799999058063
  0
LINE
  5
2D4
100
AcDbEntity
  8
0
  6
CONTINUOUS
 62
           3
100
AcDbLine
 10
5962.649996654575
 20
1548.799999058063
 11
5962.899996695575
 21
1548.799999058063
  0
LINE
  5
2D3
100
AcDbEntity
  8
0
  6
CONTINUOUS
 62
           3
100
AcDbLine
 10
5962.899996695575
 20
1391.199998557591
 11
5962.649996654575
 21
1391.199998557591
  0
LINE
  5
2D2
100
AcDbEntity
  8
0
  6
CONTINUOUS
 62
           3
100
AcDbLine
 10
5969.149996788762
 20
1391.199998557591
 11
5968.899996747762
 21
1391.199998557591
  0
LINE
  5
2D1
100
AcDbEntity
  8
0
  6
CONTINUOUS
 62
           3
100
AcDbLine
 10
5910.899997019712
 20
1391.199998557591
 11
5905.899998062713
 21
1391.199998557591
  0
LINE
  5
2D0
100
AcDbEntity
  8
0
  6
CONTINUOUS
 62
           3
100
AcDbLine
 10
5905.899998062713
 20
1390.000000596096
 11
5910.899997019712
 21
1390.000000596096
  0
LINE
  5
2CF
100
AcDbEntity
  8
0
  6
CONTINUOUS
 62
           3
100
AcDbLine
 10
5905.899998062713
 20
1391.199998557591
 11
5905.899998062713
 21
1390.000000596096
  0
LINE
  5
2CE
100
AcDbEntity
  8
0
  6
CONTINUOUS
 62
           3
100
AcDbLine
 10
5905.899998062713
 20
1550.000000744962
 11
5910.899997019712
 21
1550.000000744962
  0
LINE
  5
2CD
100
AcDbEntity
  8
0
  6
CONTINUOUS
 62
           3
100
AcDbLine
 10
5910.899997019712
 20
1548.799999058063
 11
5905.899998062713
 21
1548.799999058063
  0
LINE
  5
2CC
100
AcDbEntity
  8
0
  6
CONTINUOUS
 62
           3
100
AcDbLine
 10
5905.899998062713
 20
1548.799999058063
 11
5905.899998062713
 21
1550.000000744962
  0
LINE
  5
2CB
100
AcDbEntity
  8
0
  6
CONTINUOUS
 62
           3
100
AcDbLine
 10
6010.899998509632
 20
1550.000000744962
 11
5995.899996051144
 21
1550.000000744962
  0
LINE
  5
2CA
100
AcDbEntity
  8
0
  6
CONTINUOUS
 62
           3
100
AcDbLine
 10
6010.899998509632
 20
1548.799999058063
 11
5995.899996051144
 21
1548.799999058063
  0
LINE
  5
2C9
100
AcDbEntity
  8
0
  6
CONTINUOUS
 62
           3
100
AcDbLine
 10
6025.899995380621
 20
1550.000000744962
 11
6020.899996423622
 21
1550.000000744962
  0
LINE
  5
2C8
100
AcDbEntity
  8
0
  6
CONTINUOUS
 62
           3
100
AcDbLine
 10
6020.899996423622
 20
1548.799999058063
 11
6025.899995380621
 21
1548.799999058063
  0
LINE
  5
2C7
100
AcDbEntity
  8
0
  6
CONTINUOUS
 62
           3
100
AcDbLine
 10
6025.899995380621
 20
1548.799999058063
 11
6025.899995380621
 21
1550.000000744962
  0
LINE
  5
2C6
100
AcDbEntity
  8
0
  6
CONTINUOUS
 62
           3
100
AcDbLine
 10
6010.899998509632
 20
1391.199998557591
 11
5995.899996051144
 21
1391.199998557591
  0
LINE
  5
2C5
100
AcDbEntity
  8
0
  6
CONTINUOUS
 62
           3
100
AcDbLine
 10
6010.899998509632
 20
1390.000000596096
 11
5995.899996051144
 21
1390.000000596096
  0
LINE
  5
2C4
100
AcDbEntity
  8
0
  6
CONTINUOUS
 62
           3
100
AcDbLine
 10
5920.899994933702
 20
1550.000000744962
 11
5935.89999739219
 21
1550.000000744962
  0
LINE
  5
2C3
100
AcDbEntity
  8
0
  6
CONTINUOUS
 62
           3
100
AcDbLine
 10
5920.899994933702
 20
1548.799999058063
 11
5935.89999739219
 21
1548.799999058063
  0
LINE
  5
2C2
100
AcDbEntity
  8
0
  6
CONTINUOUS
 62
           3
100
AcDbLine
 10
6020.899996423622
 20
1391.199998557591
 11
6025.899995380621
 21
1391.199998557591
  0
LINE
  5
2C1
100
AcDbEntity
  8
0
  6
CONTINUOUS
 62
           3
100
AcDbLine
 10
6025.899995380621
 20
1390.000000596096
 11
6020.899996423622
 21
1390.000000596096
  0
LINE
  5
2C0
100
AcDbEntity
  8
0
  6
CONTINUOUS
 62
           3
100
AcDbLine
 10
6025.899995380621
 20
1391.199998557591
 11
6025.899995380621
 21
1390.000000596096
  0
LINE
  5
2BF
100
AcDbEntity
  8
0
  6
CONTINUOUS
 62
           3
100
AcDbLine
 10
5920.899994933702
 20
1391.199998557591
 11
5935.89999739219
 21
1391.199998557591
  0
LINE
  5
2BE
100
AcDbEntity
  8
0
  6
CONTINUOUS
 62
           3
100
AcDbLine
 10
5920.899994933702
 20
1390.000000596096
 11
5935.89999739219
 21
1390.000000596096
  0
LINE
  5
2BD
100
AcDbEntity
  8
0
  6
CONTINUOUS
 62
           3
100
AcDbLine
 10
5918.899998331102
 20
1550.000000744962
 11
5920.899994933702
 21
1550.000000744962
  0
LINE
  5
2BC
100
AcDbEntity
  8
0
  6
CONTINUOUS
 62
           3
100
AcDbLine
 10
5920.899994933702
 20
1548.799999058063
 11
5918.899998331102
 21
1548.799999058063
  0
LINE
  5
2BB
100
AcDbEntity
  8
0
  6
CONTINUOUS
 62
           3
100
AcDbLine
 10
5918.899998331102
 20
1548.799999058063
 11
5918.899998331102
 21
1550.000000744962
  0
LINE
  5
2BA
100
AcDbEntity
  8
0
  6
CONTINUOUS
 62
           3
100
AcDbLine
 10
5910.899997019712
 20
1550.000000744962
 11
5912.899997347712
 21
1550.000000744962
  0
LINE
  5
2B9
100
AcDbEntity
  8
0
  6
CONTINUOUS
 62
           3
100
AcDbLine
 10
5912.899997347712
 20
1548.799999058063
 11
5910.899997019712
 21
1548.799999058063
  0
LINE
  5
2B8
100
AcDbEntity
  8
0
  6
CONTINUOUS
 62
           3
100
AcDbLine
 10
5912.899997347712
 20
1550.000000744962
 11
5912.899997347712
 21
1548.799999058063
  0
LINE
  5
2B7
100
AcDbEntity
  8
0
  6
CONTINUOUS
 62
           3
100
AcDbLine
 10
6010.899998509632
 20
1391.199998557591
 11
6012.899995112232
 21
1391.199998557591
  0
LINE
  5
2B6
100
AcDbEntity
  8
0
  6
CONTINUOUS
 62
           3
100
AcDbLine
 10
6012.899995112232
 20
1390.000000596096
 11
6010.899998509632
 21
1390.000000596096
  0
LINE
  5
2B5
100
AcDbEntity
  8
0
  6
CONTINUOUS
 62
           3
100
AcDbLine
 10
6012.899995112232
 20
1391.199998557591
 11
6012.899995112232
 21
1390.000000596096
  0
LINE
  5
2B4
100
AcDbEntity
  8
0
  6
CONTINUOUS
 62
           3
100
AcDbLine
 10
6018.89999609592
 20
1391.199998557591
 11
6020.899996423622
 21
1391.199998557591
  0
LINE
  5
2B3
100
AcDbEntity
  8
0
  6
CONTINUOUS
 62
           3
100
AcDbLine
 10
6020.899996423622
 20
1390.000000596096
 11
6018.89999609592
 21
1390.000000596096
  0
LINE
  5
2B2
100
AcDbEntity
  8
0
  6
CONTINUOUS
 62
           3
100
AcDbLine
 10
6018.89999609592
 20
1390.000000596096
 11
6018.89999609592
 21
1391.199998557591
  0
LINE
  5
2B1
100
AcDbEntity
  8
0
  6
CONTINUOUS
 62
           3
100
AcDbLine
 10
6012.899995112232
 20
1550.000000744962
 11
6010.899998509632
 21
1550.000000744962
  0
LINE
  5
2B0
100
AcDbEntity
  8
0
  6
CONTINUOUS
 62
           3
100
AcDbLine
 10
6010.899998509632
 20
1548.799999058063
 11
6012.899995112232
 21
1548.799999058063
  0
LINE
  5
2AF
100
AcDbEntity
  8
0
  6
CONTINUOUS
 62
           3
100
AcDbLine
 10
6012.899995112232
 20
1548.799999058063
 11
6012.899995112232
 21
1550.000000744962
  0
LINE
  5
2AE
100
AcDbEntity
  8
0
  6
CONTINUOUS
 62
           3
100
AcDbLine
 10
6020.899996423622
 20
1550.000000744962
 11
6018.89999609592
 21
1550.000000744962
  0
LINE
  5
2AD
100
AcDbEntity
  8
0
  6
CONTINUOUS
 62
           3
100
AcDbLine
 10
6018.89999609592
 20
1548.799999058063
 11
6020.899996423622
 21
1548.799999058063
  0
LINE
  5
2AC
100
AcDbEntity
  8
0
  6
CONTINUOUS
 62
           3
100
AcDbLine
 10
6018.89999609592
 20
1550.000000744962
 11
6018.89999609592
 21
1548.799999058063
  0
LINE
  5
2AB
100
AcDbEntity
  8
0
  6
CONTINUOUS
 62
           3
100
AcDbLine
 10
5920.899994933702
 20
1391.199998557591
 11
5918.899998331102
 21
1391.199998557591
  0
LINE
  5
2AA
100
AcDbEntity
  8
0
  6
CONTINUOUS
 62
           3
100
AcDbLine
 10
5918.899998331102
 20
1390.000000596096
 11
5920.899994933702
 21
1390.000000596096
  0
LINE
  5
2A9
100
AcDbEntity
  8
0
  6
CONTINUOUS
 62
           3
100
AcDbLine
 10
5918.899998331102
 20
1391.199998557591
 11
5918.899998331102
 21
1390.000000596096
  0
LINE
  5
2A8
100
AcDbEntity
  8
0
  6
CONTINUOUS
 62
           3
100
AcDbLine
 10
5912.899997347712
 20
1391.199998557591
 11
5910.899997019712
 21
1391.199998557591
  0
LINE
  5
2A7
100
AcDbEntity
  8
0
  6
CONTINUOUS
 62
           3
100
AcDbLine
 10
5910.899997019712
 20
1390.000000596096
 11
5912.899997347712
 21
1390.000000596096
  0
LINE
  5
2A6
100
AcDbEntity
  8
0
  6
CONTINUOUS
 62
           3
100
AcDbLine
 10
5912.899997347712
 20
1390.000000596096
 11
5912.899997347712
 21
1391.199998557591
  0
LINE
  5
2A5
100
AcDbEntity
  8
0
  6
CONTINUOUS
 62
           3
100
AcDbLine
 10
5962.399996613575
 20
1391.199998557591
 11
5962.649996654575
 21
1391.199998557591
  0
LINE
  5
2A4
100
AcDbEntity
  8
0
  6
CONTINUOUS
 62
           3
100
AcDbLine
 10
5962.649996654575
 20
1391.199998557591
 11
5962.649996654575
 21
1390.000000596096
  0
LINE
  5
2A3
100
AcDbEntity
  8
0
  6
CONTINUOUS
 62
           3
100
AcDbLine
 10
5995.899996051144
 20
1391.199998557591
 11
5985.899996274752
 21
1391.199998557591
  0
LINE
  5
2A2
100
AcDbEntity
  8
0
  6
CONTINUOUS
 62
           3
100
AcDbLine
 10
5995.899996051144
 20
1390.000000596096
 11
5985.899996274752
 21
1390.000000596096
  0
LINE
  5
2A1
100
AcDbEntity
  8
0
  6
CONTINUOUS
 62
           3
100
AcDbLine
 10
5995.899996051144
 20
1391.199998557591
 11
5995.899996051144
 21
1390.000000596096
  0
LINE
  5
2A0
100
AcDbEntity
  8
0
  6
CONTINUOUS
 62
           3
100
AcDbLine
 10
5960.649996792473
 20
1550.000000744962
 11
5962.649996654575
 21
1550.000000744962
  0
LINE
  5
29F
100
AcDbEntity
  8
0
  6
CONTINUOUS
 62
           3
100
AcDbLine
 10
5962.649996654575
 20
1548.799999058063
 11
5960.649996792473
 21
1548.799999058063
  0
LINE
  5
29E
100
AcDbEntity
  8
0
  6
CONTINUOUS
 62
           3
100
AcDbLine
 10
5962.649996654575
 20
1550.000000744962
 11
5962.649996654575
 21
1548.799999058063
  0
LINE
  5
29D
100
AcDbEntity
  8
0
  6
CONTINUOUS
 62
           3
100
AcDbLine
 10
5973.899997101563
 20
1391.199998557591
 11
5985.899996274752
 21
1391.199998557591
  0
LINE
  5
29C
100
AcDbEntity
  8
0
  6
CONTINUOUS
 62
           3
100
AcDbLine
 10
5973.899997101563
 20
1390.000000596096
 11
5985.899996274752
 21
1390.000000596096
  0
LINE
  5
29B
100
AcDbEntity
  8
0
  6
CONTINUOUS
 62
           3
100
AcDbLine
 10
5985.899996274752
 20
1391.199998557591
 11
5985.899996274752
 21
1390.000000596096
  0
LINE
  5
29A
100
AcDbEntity
  8
0
  6
CONTINUOUS
 62
           3
100
AcDbLine
 10
5935.89999739219
 20
1391.199998557591
 11
5945.899997168585
 21
1391.199998557591
  0
LINE
  5
299
100
AcDbEntity
  8
0
  6
CONTINUOUS
 62
           3
100
AcDbLine
 10
5935.89999739219
 20
1390.000000596096
 11
5945.899997168585
 21
1390.000000596096
  0
LINE
  5
298
100
AcDbEntity
  8
0
  6
CONTINUOUS
 62
           3
100
AcDbLine
 10
5935.89999739219
 20
1391.199998557591
 11
5935.89999739219
 21
1390.000000596096
  0
LINE
  5
297
100
AcDbEntity
  8
0
  6
CONTINUOUS
 62
           3
100
AcDbLine
 10
5969.149996788762
 20
1550.000000744962
 11
5971.149996650865
 21
1550.000000744962
  0
LINE
  5
296
100
AcDbEntity
  8
0
  6
CONTINUOUS
 62
           3
100
AcDbLine
 10
5971.149996650865
 20
1548.799999058063
 11
5969.149996788762
 21
1548.799999058063
  0
LINE
  5
295
100
AcDbEntity
  8
0
  6
CONTINUOUS
 62
           3
100
AcDbLine
 10
5969.149996788762
 20
1548.799999058063
 11
5969.149996788762
 21
1550.000000744962
  0
LINE
  5
294
100
AcDbEntity
  8
0
  6
CONTINUOUS
 62
           3
100
AcDbLine
 10
5995.899996051144
 20
1550.000000744962
 11
5985.899996274752
 21
1550.000000744962
  0
LINE
  5
293
100
AcDbEntity
  8
0
  6
CONTINUOUS
 62
           3
100
AcDbLine
 10
5995.899996051144
 20
1548.799999058063
 11
5985.899996274752
 21
1548.799999058063
  0
LINE
  5
292
100
AcDbEntity
  8
0
  6
CONTINUOUS
 62
           3
100
AcDbLine
 10
5995.899996051144
 20
1548.799999058063
 11
5995.899996051144
 21
1550.000000744962
  0
LINE
  5
291
100
AcDbEntity
  8
0
  6
CONTINUOUS
 62
           3
100
AcDbLine
 10
5969.149996788762
 20
1391.199998557591
 11
5969.399996829762
 21
1391.199998557591
  0
LINE
  5
290
100
AcDbEntity
  8
0
  6
CONTINUOUS
 62
           3
100
AcDbLine
 10
5969.149996788762
 20
1390.000000596096
 11
5969.149996788762
 21
1391.199998557591
  0
LINE
  5
28F
100
AcDbEntity
  8
0
  6
CONTINUOUS
 62
           3
100
AcDbLine
 10
5945.899997168585
 20
1391.199998557591
 11
5957.899996341775
 21
1391.199998557591
  0
LINE
  5
28E
100
AcDbEntity
  8
0
  6
CONTINUOUS
 62
           3
100
AcDbLine
 10
5945.899997168585
 20
1390.000000596096
 11
5957.899996341775
 21
1390.000000596096
  0
LINE
  5
28D
100
AcDbEntity
  8
0
  6
CONTINUOUS
 62
           3
100
AcDbLine
 10
5945.899997168585
 20
1391.199998557591
 11
5945.899997168585
 21
1390.000000596096
  0
LINE
  5
28C
100
AcDbEntity
  8
0
  6
CONTINUOUS
 62
           3
100
AcDbLine
 10
5945.899997168585
 20
1550.000000744962
 11
5960.649996792473
 21
1550.000000744962
  0
LINE
  5
28B
100
AcDbEntity
  8
0
  6
CONTINUOUS
 62
           3
100
AcDbLine
 10
5945.899997168585
 20
1548.799999058063
 11
5960.649996792473
 21
1548.799999058063
  0
LINE
  5
28A
100
AcDbEntity
  8
0
  6
CONTINUOUS
 62
           3
100
AcDbLine
 10
5971.149996650865
 20
1550.000000744962
 11
5985.899996274752
 21
1550.000000744962
  0
LINE
  5
289
100
AcDbEntity
  8
0
  6
CONTINUOUS
 62
           3
100
AcDbLine
 10
5971.149996650865
 20
1548.799999058063
 11
5985.899996274752
 21
1548.799999058063
  0
LINE
  5
288
100
AcDbEntity
  8
0
  6
CONTINUOUS
 62
           3
100
AcDbLine
 10
5985.899996274752
 20
1548.799999058063
 11
5985.899996274752
 21
1550.000000744962
  0
LINE
  5
287
100
AcDbEntity
  8
0
  6
CONTINUOUS
 62
           3
100
AcDbLine
 10
5935.89999739219
 20
1548.799999058063
 11
5935.89999739219
 21
1550.000000744962
  0
LINE
  5
286
100
AcDbEntity
  8
0
  6
CONTINUOUS
 62
           3
100
AcDbLine
 10
5935.89999739219
 20
1548.799999058063
 11
5945.899997168585
 21
1548.799999058063
  0
LINE
  5
285
100
AcDbEntity
  8
0
  6
CONTINUOUS
 62
           3
100
AcDbLine
 10
5945.899997168585
 20
1548.799999058063
 11
5945.899997168585
 21
1550.000000744962
  0
LINE
  5
284
100
AcDbEntity
  8
0
  6
CONTINUOUS
 62
           3
100
AcDbLine
 10
5935.89999739219
 20
1550.000000744962
 11
5945.899997168585
 21
1550.000000744962
  0
LINE
  5
283
100
AcDbEntity
  8
0
  6
CONTINUOUS
 62
           3
100
AcDbLine
 10
5973.899997101563
 20
1389.200001954994
 11
5973.899997101563
 21
1388.276241719794
  0
LINE
  5
282
100
AcDbEntity
  8
0
  6
CONTINUOUS
 62
           3
100
AcDbLine
 10
5957.899996341775
 20
1389.200001954994
 11
5957.899996341775
 21
1388.276241719794
  0
LINE
  5
281
100
AcDbEntity
  8
0
  6
CONTINUOUS
 62
           3
100
AcDbLine
 10
5960.899996833473
 20
1388.276241719794
 11
5957.899996341775
 21
1388.276241719794
  0
LINE
  5
280
100
AcDbEntity
  8
0
  6
CONTINUOUS
 62
           3
100
AcDbLine
 10
5973.899997101563
 20
1388.276241719794
 11
5970.899996609865
 21
1388.276241719794
  0
LINE
  5
27F
100
AcDbEntity
  8
0
  6
CONTINUOUS
 62
           3
100
AcDbLine
 10
5968.399996665762
 20
1384.199999272898
 11
5970.899996609912
 21
1384.199999272898
  0
LINE
  5
27E
100
AcDbEntity
  8
0
  6
CONTINUOUS
 62
           3
100
AcDbLine
 10
5960.899996833433
 20
1384.199999272898
 11
5963.399996777554
 21
1384.199999272898
  0
LINE
  5
27D
100
AcDbEntity
  8
0
  6
CONTINUOUS
 62
           3
100
AcDbLine
 10
5970.899996609865
 20
1384.646579623301
 11
5970.899996609865
 21
1389.100000262193
  0
LINE
  5
27C
100
AcDbEntity
  8
0
  6
CONTINUOUS
 62
           3
100
AcDbLine
 10
5960.899996833473
 20
1384.646579623301
 11
5960.899996833473
 21
1389.100000262193
  0
LINE
  5
27B
100
AcDbEntity
  8
0
  6
CONTINUOUS
 62
           3
100
AcDbLine
 10
5960.899996833473
 20
1384.646579623301
 11
5963.399996777554
 21
1384.199999272898
  0
LINE
  5
27A
100
AcDbEntity
  8
0
  6
CONTINUOUS
 62
           3
100
AcDbLine
 10
5965.899996721674
 20
1384.646579623293
 11
5965.899996721674
 21
1389.100000262193
  0
LINE
  5
279
100
AcDbEntity
  8
0
  6
CONTINUOUS
 62
           3
100
AcDbLine
 10
5963.399996777554
 20
1384.199999272898
 11
5968.399996665762
 21
1384.199999272898
  0
LINE
  5
278
100
AcDbEntity
  8
0
  6
CONTINUOUS
 62
           3
100
AcDbLine
 10
5965.899996721674
 20
1384.646579623293
 11
5968.399996665762
 21
1384.199999272898
  0
LINE
  5
277
100
AcDbEntity
  8
0
  6
CONTINUOUS
 62
           3
100
AcDbLine
 10
5962.399996613575
 20
1389.200001954994
 11
5969.399996829762
 21
1389.200001954994
  0
LINE
  5
276
100
AcDbEntity
  8
0
  6
CONTINUOUS
 62
           3
100
AcDbLine
 10
5962.399996613575
 20
1390.000000596096
 11
5969.399996829762
 21
1390.000000596096
  0
LINE
  5
275
100
AcDbEntity
  8
0
  6
CONTINUOUS
 62
           3
100
AcDbLine
 10
5969.399996829762
 20
1393.99014413349
 11
5962.399996613575
 21
1393.99014413349
  0
LINE
  5
274
100
AcDbEntity
  8
0
  6
CONTINUOUS
 62
           3
100
AcDbLine
 10
5962.899996695575
 20
1392.246469855292
 11
5962.399996613575
 21
1392.246469855292
  0
LINE
  5
273
100
AcDbEntity
  8
0
  6
CONTINUOUS
 62
           3
100
AcDbLine
 10
5969.399996829762
 20
1392.246469855292
 11
5968.899996747762
 21
1392.246469855292
  0
LINE
  5
272
100
AcDbEntity
  8
0
  6
CONTINUOUS
 62
           3
100
AcDbLine
 10
5973.899997101563
 20
1394.799999892892
 11
5973.899997101563
 21
1389.200001954994
  0
LINE
  5
271
100
AcDbEntity
  8
0
  6
CONTINUOUS
 62
           3
100
AcDbLine
 10
5957.899996341775
 20
1394.799999892892
 11
5957.899996341775
 21
1389.200001954994
  0
LINE
  5
270
100
AcDbEntity
  8
0
  6
CONTINUOUS
 62
           3
100
AcDbLine
 10
5962.399996613575
 20
1389.200001954994
 11
5962.399996613575
 21
1394.799999892892
  0
LINE
  5
26F
100
AcDbEntity
  8
0
  6
CONTINUOUS
 62
           3
100
AcDbLine
 10
5969.399996829762
 20
1394.799999892892
 11
5969.399996829762
 21
1389.200001954994
  0
LINE
  5
26E
100
AcDbEntity
  8
0
  6
CONTINUOUS
 62
           3
100
AcDbLine
 10
5962.399996613575
 20
1389.200001954994
 11
5957.899996341775
 21
1389.200001954994
  0
LINE
  5
26D
100
AcDbEntity
  8
0
  6
CONTINUOUS
 62
           3
100
AcDbLine
 10
5962.399996613575
 20
1394.79284733549
 11
5969.399996829762
 21
1394.79284733549
  0
LINE
  5
26C
100
AcDbEntity
  8
0
  6
CONTINUOUS
 62
           3
100
AcDbLine
 10
5973.899997101563
 20
1389.200001954994
 11
5969.399996829762
 21
1389.200001954994
  0
LINE
  5
26B
100
AcDbEntity
  8
0
  6
CONTINUOUS
 62
           3
100
AcDbLine
 10
5967.89999681656
 20
1638.422653078991
 11
5963.899996626774
 21
1638.422653078991
  0
LINE
  5
26A
100
AcDbEntity
  8
0
  6
CONTINUOUS
 62
           3
100
AcDbLine
 10
5962.899996695575
 20
1637.422651052291
 11
5968.899996747762
 21
1637.422651052291
  0
LINE
  5
269
100
AcDbEntity
  8
0
  6
CONTINUOUS
 62
           3
100
AcDbLine
 10
5911.899995321012
 20
1665.000006556367
 11
5915.899995976711
 21
1665.000006556367
  0
LINE
  5
268
100
AcDbEntity
  8
0
  6
CONTINUOUS
 62
           3
100
AcDbLine
 10
5915.899995976711
 20
1665.000006556367
 11
5919.899996632413
 21
1665.000006556367
  0
LINE
  5
267
100
AcDbEntity
  8
0
  6
CONTINUOUS
 62
           3
100
AcDbLine
 10
5961.569869687345
 20
1367.599993944254
 11
5960.899996833473
 21
1367.599993944112
  0
LINE
  5
266
100
AcDbEntity
  8
0
  6
CONTINUOUS
 62
           3
100
AcDbLine
 10
5970.899996609865
 20
1367.599993944112
 11
5970.230123756003
 21
1367.599993944254
  0
LINE
  5
265
100
AcDbEntity
  8
0
  6
CONTINUOUS
 62
           3
100
AcDbLine
 10
5961.569869687345
 20
1372.60000407704
 11
5960.899996833473
 21
1372.600004077007
  0
LINE
  5
264
100
AcDbEntity
  8
0
  6
CONTINUOUS
 62
           3
100
AcDbLine
 10
5970.230123756003
 20
1367.599993944254
 11
5965.899996721674
 21
1367.599993944254
  0
LINE
  5
263
100
AcDbEntity
  8
0
  6
CONTINUOUS
 62
           3
100
AcDbLine
 10
5965.899996721674
 20
1367.599993944254
 11
5961.569869687345
 21
1367.599993944254
  0
LINE
  5
262
100
AcDbEntity
  8
0
  6
CONTINUOUS
 62
           3
100
AcDbLine
 10
5960.126493853973
 20
1372.153416276107
 11
5960.126493853973
 21
1368.04658174531
  0
LINE
  5
261
100
AcDbEntity
  8
0
  6
CONTINUOUS
 62
           3
100
AcDbLine
 10
5960.126493853973
 20
1368.04658174531
 11
5961.569869687345
 21
1367.599993944254
  0
LINE
  5
260
100
AcDbEntity
  8
0
  6
CONTINUOUS
 62
           3
100
AcDbLine
 10
5963.013245287843
 20
1372.15341627606
 11
5961.569869687345
 21
1372.60000407704
  0
LINE
  5
25F
100
AcDbEntity
  8
0
  6
CONTINUOUS
 62
           3
100
AcDbLine
 10
5968.786748155363
 20
1368.04658174531
 11
5970.230123756003
 21
1367.599993944254
  0
LINE
  5
25E
100
AcDbEntity
  8
0
  6
CONTINUOUS
 62
           3
100
AcDbLine
 10
5971.673499589365
 20
1372.153416276107
 11
5971.673499589365
 21
1368.04658174531
  0
LINE
  5
25D
100
AcDbEntity
  8
0
  6
CONTINUOUS
 62
           3
100
AcDbLine
 10
5971.673499589365
 20
1372.153416276107
 11
5970.230123756003
 21
1372.60000407704
  0
LINE
  5
25C
100
AcDbEntity
  8
0
  6
CONTINUOUS
 62
           3
100
AcDbLine
 10
5963.013245287843
 20
1372.15341627606
 11
5963.013245287843
 21
1368.046581745233
  0
LINE
  5
25B
100
AcDbEntity
  8
0
  6
CONTINUOUS
 62
           3
100
AcDbLine
 10
5968.786748155501
 20
1372.15341627606
 11
5968.786748155363
 21
1368.04658174531
  0
LINE
  5
25A
100
AcDbEntity
  8
0
  6
CONTINUOUS
 62
           3
100
AcDbLine
 10
5970.899996609865
 20
1372.600004077007
 11
5970.230123756003
 21
1372.60000407704
  0
LINE
  5
259
100
AcDbEntity
  8
0
  6
CONTINUOUS
 62
           3
100
AcDbLine
 10
5970.899996609865
 20
1377.599999308603
 11
5970.230123756003
 21
1377.599999308664
  0
LINE
  5
258
100
AcDbEntity
  8
0
  6
CONTINUOUS
 62
           3
100
AcDbLine
 10
5961.569869687345
 20
1377.599999308664
 11
5960.899996833473
 21
1377.599999308603
  0
LINE
  5
257
100
AcDbEntity
  8
0
  6
CONTINUOUS
 62
           3
100
AcDbLine
 10
5965.899996721674
 20
1372.60000407704
 11
5961.569869687345
 21
1372.60000407704
  0
LINE
  5
256
100
AcDbEntity
  8
0
  6
CONTINUOUS
 62
           3
100
AcDbLine
 10
5970.230123756003
 20
1372.60000407704
 11
5965.899996721674
 21
1372.60000407704
  0
LINE
  5
255
100
AcDbEntity
  8
0
  6
CONTINUOUS
 62
           3
100
AcDbLine
 10
5965.899996721674
 20
1377.599999308664
 11
5961.569869687345
 21
1377.599999308664
  0
LINE
  5
254
100
AcDbEntity
  8
0
  6
CONTINUOUS
 62
           3
100
AcDbLine
 10
5960.126493853973
 20
1377.153418958204
 11
5960.126493853973
 21
1373.046576976909
  0
LINE
  5
253
100
AcDbEntity
  8
0
  6
CONTINUOUS
 62
           3
100
AcDbLine
 10
5960.126493853973
 20
1373.046576976909
 11
5961.569869687345
 21
1372.60000407704
  0
LINE
  5
252
100
AcDbEntity
  8
0
  6
CONTINUOUS
 62
           3
100
AcDbLine
 10
5963.013245287843
 20
1377.153418958265
 11
5961.569869687345
 21
1377.599999308664
  0
LINE
  5
251
100
AcDbEntity
  8
0
  6
CONTINUOUS
 62
           3
100
AcDbLine
 10
5970.230123756003
 20
1377.599999308664
 11
5965.899996721674
 21
1377.599999308664
  0
LINE
  5
250
100
AcDbEntity
  8
0
  6
CONTINUOUS
 62
           3
100
AcDbLine
 10
5968.786748155363
 20
1373.046576976909
 11
5970.230123756003
 21
1372.60000407704
  0
LINE
  5
24F
100
AcDbEntity
  8
0
  6
CONTINUOUS
 62
           3
100
AcDbLine
 10
5971.673499589365
 20
1377.153418958204
 11
5971.673499589365
 21
1373.046576976909
  0
LINE
  5
24E
100
AcDbEntity
  8
0
  6
CONTINUOUS
 62
           3
100
AcDbLine
 10
5971.673499589365
 20
1377.153418958204
 11
5970.230123756003
 21
1377.599999308664
  0
LINE
  5
24D
100
AcDbEntity
  8
0
  6
CONTINUOUS
 62
           3
100
AcDbLine
 10
5963.013245287843
 20
1377.153418958265
 11
5963.013245287843
 21
1373.046576976858
  0
LINE
  5
24C
100
AcDbEntity
  8
0
  6
CONTINUOUS
 62
           3
100
AcDbLine
 10
5968.786748155501
 20
1377.153418958265
 11
5968.786748155363
 21
1373.046576976909
  0
LINE
  5
24B
100
AcDbEntity
  8
0
  6
CONTINUOUS
 62
           3
100
AcDbLine
 10
5960.126493853973
 20
1364.553421735915
 11
5960.126493853973
 21
1360.446587205121
  0
LINE
  5
24A
100
AcDbEntity
  8
0
  6
CONTINUOUS
 62
           3
100
AcDbLine
 10
5960.126493853973
 20
1360.446587205121
 11
5961.569869687345
 21
1359.999999404046
  0
LINE
  5
249
100
AcDbEntity
  8
0
  6
CONTINUOUS
 62
           3
100
AcDbLine
 10
5963.013245287843
 20
1364.553421735856
 11
5961.569869687345
 21
1364.999994635671
  0
LINE
  5
248
100
AcDbEntity
  8
0
  6
CONTINUOUS
 62
           3
100
AcDbLine
 10
5968.786748155363
 20
1360.446587205121
 11
5970.230123755963
 21
1359.999999403919
  0
LINE
  5
247
100
AcDbEntity
  8
0
  6
CONTINUOUS
 62
           3
100
AcDbLine
 10
5971.673499589365
 20
1364.553421735915
 11
5971.673499589365
 21
1360.446587205121
  0
LINE
  5
246
100
AcDbEntity
  8
0
  6
CONTINUOUS
 62
           3
100
AcDbLine
 10
5971.673499589365
 20
1364.553421735915
 11
5970.230123756003
 21
1364.999994635671
  0
LINE
  5
245
100
AcDbEntity
  8
0
  6
CONTINUOUS
 62
           3
100
AcDbLine
 10
5963.013245287843
 20
1364.553421735856
 11
5963.013245287843
 21
1360.446587205022
  0
LINE
  5
244
100
AcDbEntity
  8
0
  6
CONTINUOUS
 62
           3
100
AcDbLine
 10
5968.786748155501
 20
1364.553421735856
 11
5968.786748155363
 21
1360.446587205121
  0
LINE
  5
243
100
AcDbEntity
  8
0
  6
CONTINUOUS
 62
           3
100
AcDbLine
 10
5960.899996833473
 20
1359.999999403919
 11
5961.569869687345
 21
1359.999999404046
  0
LINE
  5
242
100
AcDbEntity
  8
0
  6
CONTINUOUS
 62
           3
100
AcDbLine
 10
5970.899996609865
 20
1355.00000417232
 11
5970.230123756003
 21
1355.000004172418
  0
LINE
  5
241
100
AcDbEntity
  8
0
  6
CONTINUOUS
 62
           3
100
AcDbLine
 10
5960.899996833473
 20
1355.00000417232
 11
5961.569869687345
 21
1355.000004172418
  0
LINE
  5
240
100
AcDbEntity
  8
0
  6
CONTINUOUS
 62
           3
100
AcDbLine
 10
5971.673499589365
 20
1355.446577072222
 11
5970.230123756003
 21
1355.000004172418
  0
LINE
  5
23F
100
AcDbEntity
  8
0
  6
CONTINUOUS
 62
           3
100
AcDbLine
 10
5971.673499589365
 20
1355.446577072222
 11
5971.673499589365
 21
1359.553411603019
  0
LINE
  5
23E
100
AcDbEntity
  8
0
  6
CONTINUOUS
 62
           3
100
AcDbLine
 10
5960.126493853973
 20
1355.446577072222
 11
5960.126493853973
 21
1359.553411603019
  0
LINE
  5
23D
100
AcDbEntity
  8
0
  6
CONTINUOUS
 62
           3
100
AcDbLine
 10
5965.899996721674
 20
1359.999999404046
 11
5970.230123755963
 21
1359.999999403919
  0
LINE
  5
23C
100
AcDbEntity
  8
0
  6
CONTINUOUS
 62
           3
100
AcDbLine
 10
5968.786748155501
 20
1359.553411603067
 11
5970.230123755963
 21
1359.999999403919
  0
LINE
  5
23B
100
AcDbEntity
  8
0
  6
CONTINUOUS
 62
           3
100
AcDbLine
 10
5961.569869687345
 20
1359.999999404046
 11
5965.899996721674
 21
1359.999999404046
  0
LINE
  5
23A
100
AcDbEntity
  8
0
  6
CONTINUOUS
 62
           3
100
AcDbLine
 10
5961.569869687345
 20
1355.000004172418
 11
5965.899996721674
 21
1355.00000417232
  0
LINE
  5
239
100
AcDbEntity
  8
0
  6
CONTINUOUS
 62
           3
100
AcDbLine
 10
5965.899996721674
 20
1355.00000417232
 11
5970.230123756003
 21
1355.000004172418
  0
LINE
  5
238
100
AcDbEntity
  8
0
  6
CONTINUOUS
 62
           3
100
AcDbLine
 10
5963.013245287971
 20
1359.553411603019
 11
5965.899996721674
 21
1359.999999404046
  0
LINE
  5
237
100
AcDbEntity
  8
0
  6
CONTINUOUS
 62
           3
100
AcDbLine
 10
5963.013245287843
 20
1355.44657707224
 11
5963.013245287971
 21
1359.553411603019
  0
LINE
  5
236
100
AcDbEntity
  8
0
  6
CONTINUOUS
 62
           3
100
AcDbLine
 10
5968.786748155363
 20
1355.446577072222
 11
5965.899996721674
 21
1355.00000417232
  0
LINE
  5
235
100
AcDbEntity
  8
0
  6
CONTINUOUS
 62
           3
100
AcDbLine
 10
5968.786748155363
 20
1355.446577072222
 11
5968.786748155501
 21
1359.553411603067
  0
LINE
  5
234
100
AcDbEntity
  8
0
  6
CONTINUOUS
 62
           3
100
AcDbLine
 10
6022.899996751324
 20
1393.799997866192
 11
6022.899996751324
 21
1543.800000101366
  0
LINE
  5
233
100
AcDbEntity
  8
0
  6
CONTINUOUS
 62
           3
100
AcDbLine
 10
5911.899995321012
 20
1543.800000101366
 11
5908.89999669201
 21
1543.800000101366
  0
LINE
  5
232
100
AcDbEntity
  8
0
  6
CONTINUOUS
 62
           3
100
AcDbLine
 10
5962.899996695575
 20
1543.800000101366
 11
5919.899996632413
 21
1543.800000101366
  0
LINE
  5
231
100
AcDbEntity
  8
0
  6
CONTINUOUS
 62
           3
100
AcDbLine
 10
6011.899996810932
 20
1543.800000101366
 11
5968.899996747762
 21
1543.800000101366
  0
LINE
  5
230
100
AcDbEntity
  8
0
  6
CONTINUOUS
 62
           3
100
AcDbLine
 10
6022.899996751324
 20
1543.800000101366
 11
6019.899998122325
 21
1543.800000101366
  0
LINE
  5
22F
100
AcDbEntity
  8
0
  6
CONTINUOUS
 62
           3
100
AcDbLine
 10
5908.89999669201
 20
1543.800000101366
 11
5908.89999669201
 21
1393.799997866192
  0
LINE
  5
22E
100
AcDbEntity
  8
0
  6
CONTINUOUS
 62
           3
100
AcDbLine
 10
6019.899998122325
 20
1393.799997866192
 11
6022.899996751324
 21
1393.799997866192
  0
LINE
  5
22D
100
AcDbEntity
  8
0
  6
CONTINUOUS
 62
           3
100
AcDbLine
 10
5973.899997101563
 20
1393.799997866192
 11
6011.899996810932
 21
1393.799997866192
  0
LINE
  5
22C
100
AcDbEntity
  8
0
  6
CONTINUOUS
 62
           3
100
AcDbLine
 10
5919.899996632413
 20
1393.799997866192
 11
5957.899996341775
 21
1393.799997866192
  0
LINE
  5
22B
100
AcDbEntity
  8
0
  6
CONTINUOUS
 62
           3
100
AcDbLine
 10
5908.89999669201
 20
1393.799997866192
 11
5911.899995321012
 21
1393.799997866192
  0
LINE
  5
22A
100
AcDbEntity
  8
0
  6
CONTINUOUS
 62
           3
100
AcDbLine
 10
5959.426494029872
 20
1389.099999999993
 11
5972.373499413462
 21
1389.099999999993
  0
LINE
  5
229
100
AcDbEntity
  8
0
  6
CONTINUOUS
 62
           3
100
AcDbLine
 10
5973.899997101563
 20
1394.799999892892
 11
5969.399996829762
 21
1394.799999892892
  0
LINE
  5
228
100
AcDbEntity
  8
0
  6
CONTINUOUS
 62
           3
100
AcDbLine
 10
5962.399996613575
 20
1394.799999892892
 11
5957.899996341775
 21
1394.799999892892
  0
LINE
  5
227
100
AcDbEntity
  8
0
  6
CONTINUOUS
 62
           3
100
AcDbLine
 10
5963.899996626774
 20
1638.422653078991
 11
5962.899996695575
 21
1637.422651052291
  0
LINE
  5
226
100
AcDbEntity
  8
0
  6
CONTINUOUS
 62
           3
100
AcDbLine
 10
5968.899996747762
 20
1637.422651052291
 11
5967.89999681656
 21
1638.422653078991
  0
LINE
  5
225
100
AcDbEntity
  8
0
  6
CONTINUOUS
 62
           3
100
AcDbLine
 10
5962.899996695575
 20
1367.599993944112
 11
5962.899996695575
 21
1366.600006818711
  0
LINE
  5
224
100
AcDbEntity
  8
0
  6
CONTINUOUS
 62
           3
100
AcDbLine
 10
5962.899996695575
 20
1384.199999272898
 11
5962.899996695575
 21
1377.599999308603
  0
LINE
  5
223
100
AcDbEntity
  8
0
  6
CONTINUOUS
 62
           3
100
AcDbLine
 10
5962.899996695575
 20
1392.957426607592
 11
5962.899996695575
 21
1390.000000596096
  0
LINE
  5
222
100
AcDbEntity
  8
0
  6
CONTINUOUS
 62
           3
100
AcDbLine
 10
5962.899996695575
 20
1633.399993180994
 11
5962.899996695575
 21
1394.79284733549
  0
LINE
  5
221
100
AcDbEntity
  8
0
  6
CONTINUOUS
 62
           3
100
AcDbLine
 10
5962.899996695575
 20
1637.422651052291
 11
5962.899996695575
 21
1635.000005364194
  0
LINE
  5
220
100
AcDbEntity
  8
0
  6
CONTINUOUS
 62
           3
100
AcDbLine
 10
5968.899996747762
 20
1635.000005364194
 11
5968.899996747762
 21
1637.422651052291
  0
LINE
  5
21F
100
AcDbEntity
  8
0
  6
CONTINUOUS
 62
           3
100
AcDbLine
 10
5968.899996747762
 20
1394.79284733549
 11
5968.899996747762
 21
1633.399993180994
  0
LINE
  5
21E
100
AcDbEntity
  8
0
  6
CONTINUOUS
 62
           3
100
AcDbLine
 10
5968.899996747762
 20
1390.000000596096
 11
5968.899996747762
 21
1392.957426607592
  0
LINE
  5
21D
100
AcDbEntity
  8
0
  6
CONTINUOUS
 62
           3
100
AcDbLine
 10
5968.899996747762
 20
1377.599999308603
 11
5968.899996747762
 21
1384.199999272898
  0
LINE
  5
21C
100
AcDbEntity
  8
0
  6
CONTINUOUS
 62
           3
100
AcDbLine
 10
5968.899996747762
 20
1366.600006818711
 11
5968.899996747762
 21
1367.599993944112
  0
LINE
  5
21B
100
AcDbEntity
  8
0
  6
CONTINUOUS
 62
           3
100
AcDbLine
 10
5919.899996632413
 20
1635.000005364194
 11
5919.899996632413
 21
1665.000006556367
  0
LINE
  5
21A
100
AcDbEntity
  8
0
  6
CONTINUOUS
 62
           3
100
AcDbLine
 10
5919.899996632413
 20
1550.000000744962
 11
5919.899996632413
 21
1633.399993180994
  0
LINE
  5
219
100
AcDbEntity
  8
0
  6
CONTINUOUS
 62
           3
100
AcDbLine
 10
5919.899996632413
 20
1391.199998557591
 11
5919.899996632413
 21
1548.799999058063
  0
LINE
  5
218
100
AcDbEntity
  8
0
  6
CONTINUOUS
 62
           3
100
AcDbLine
 10
5919.899996632413
 20
1366.600006818711
 11
5919.899996632413
 21
1390.000000596096
  0
LINE
  5
217
100
AcDbEntity
  8
0
  6
CONTINUOUS
 62
           3
100
AcDbLine
 10
5911.899995321012
 20
1364.999994635813
 11
5911.899995321012
 21
1314.999997615954
  0
LINE
  5
216
100
AcDbEntity
  8
0
  6
CONTINUOUS
 62
           3
100
AcDbLine
 10
5911.899995321012
 20
1390.000000596096
 11
5911.899995321012
 21
1366.600006818711
  0
LINE
  5
215
100
AcDbEntity
  8
0
  6
CONTINUOUS
 62
           3
100
AcDbLine
 10
5911.899995321012
 20
1548.799999058063
 11
5911.899995321012
 21
1391.199998557591
  0
LINE
  5
214
100
AcDbEntity
  8
0
  6
CONTINUOUS
 62
           3
100
AcDbLine
 10
5911.899995321012
 20
1633.399993180994
 11
5911.899995321012
 21
1550.000000744962
  0
LINE
  5
213
100
AcDbEntity
  8
0
  6
CONTINUOUS
 62
           3
100
AcDbLine
 10
5911.899995321012
 20
1665.000006556367
 11
5911.899995321012
 21
1635.000005364194
  0
LINE
  5
212
100
AcDbEntity
  8
0
  6
CONTINUOUS
 62
           3
100
AcDbLine
 10
6019.899998122325
 20
1635.000005364194
 11
6019.899998122325
 21
1641.0
  0
LINE
  5
211
100
AcDbEntity
  8
0
  6
CONTINUOUS
 62
           3
100
AcDbLine
 10
6019.899998122325
 20
1550.000000744962
 11
6019.899998122325
 21
1633.399993180994
  0
LINE
  5
210
100
AcDbEntity
  8
0
  6
CONTINUOUS
 62
           3
100
AcDbLine
 10
6019.899998122325
 20
1391.199998557591
 11
6019.899998122325
 21
1548.799999058063
  0
LINE
  5
20F
100
AcDbEntity
  8
0
  6
CONTINUOUS
 62
           3
100
AcDbLine
 10
6019.899998122325
 20
1366.600006818711
 11
6019.899998122325
 21
1390.000000596096
  0
LINE
  5
20E
100
AcDbEntity
  8
0
  6
CONTINUOUS
 62
           3
100
AcDbLine
 10
6019.899998122325
 20
1314.999997615954
 11
6019.899998122325
 21
1364.999994635813
  0
LINE
  5
20D
100
AcDbEntity
  8
0
  6
CONTINUOUS
 62
           3
100
AcDbLine
 10
6011.899996810932
 20
1364.999994635813
 11
6011.899996810932
 21
1314.999997615954
  0
LINE
  5
20C
100
AcDbEntity
  8
0
  6
CONTINUOUS
 62
           3
100
AcDbLine
 10
6011.899996810932
 20
1390.000000596096
 11
6011.899996810932
 21
1366.600006818711
  0
LINE
  5
20B
100
AcDbEntity
  8
0
  6
CONTINUOUS
 62
           3
100
AcDbLine
 10
6011.899996810932
 20
1548.799999058063
 11
6011.899996810932
 21
1391.199998557591
  0
LINE
  5
20A
100
AcDbEntity
  8
0
  6
CONTINUOUS
 62
           3
100
AcDbLine
 10
6011.899996810932
 20
1633.399993180994
 11
6011.899996810932
 21
1550.000000744962
  0
LINE
  5
209
100
AcDbEntity
  8
0
  6
CONTINUOUS
 62
           3
100
AcDbLine
 10
6011.899996810932
 20
1640.999999999998
 11
6011.899996810932
 21
1635.000005364194
  0
LINE
  5
208
100
AcDbEntity
  8
0
  6
CONTINUOUS
 62
           3
100
AcDbLine
 10
5960.126493853973
 20
1368.04658174531
 11
5960.899996833473
 21
1367.599993944112
  0
LINE
  5
207
100
AcDbEntity
  8
0
  6
CONTINUOUS
 62
           3
100
AcDbLine
 10
5970.899996609865
 20
1367.599993944112
 11
5971.673499589365
 21
1368.04658174531
  0
LINE
  5
206
100
AcDbEntity
  8
0
  6
CONTINUOUS
 62
           3
100
AcDbLine
 10
5971.673499589365
 20
1372.153416276107
 11
5970.899996609865
 21
1372.600004077007
  0
LINE
  5
205
100
AcDbEntity
  8
0
  6
CONTINUOUS
 62
           3
100
AcDbLine
 10
5960.899996833473
 20
1372.600004077007
 11
5960.126493853973
 21
1372.153416276107
  0
LINE
  5
204
100
AcDbEntity
  8
0
  6
CONTINUOUS
 62
           3
100
AcDbLine
 10
5960.126493853973
 20
1373.046576976909
 11
5960.899996833473
 21
1372.600004077007
  0
LINE
  5
203
100
AcDbEntity
  8
0
  6
CONTINUOUS
 62
           3
100
AcDbLine
 10
5970.899996609865
 20
1372.600004077007
 11
5971.673499589365
 21
1373.046576976909
  0
LINE
  5
202
100
AcDbEntity
  8
0
  6
CONTINUOUS
 62
           3
100
AcDbLine
 10
5971.673499589365
 20
1377.153418958204
 11
5970.899996609865
 21
1377.599999308603
  0
LINE
  5
201
100
AcDbEntity
  8
0
  6
CONTINUOUS
 62
           3
100
AcDbLine
 10
5960.899996833473
 20
1377.599999308603
 11
5960.126493853973
 21
1377.153418958204
  0
LINE
  5
200
100
AcDbEntity
  8
0
  6
CONTINUOUS
 62
           3
100
AcDbLine
 10
5960.126493853973
 20
1360.446587205121
 11
5960.899996833473
 21
1359.999999403919
  0
LINE
  5
1FF
100
AcDbEntity
  8
0
  6
CONTINUOUS
 62
           3
100
AcDbLine
 10
5970.899996609865
 20
1359.999999403919
 11
5971.673499589365
 21
1360.446587205121
  0
LINE
  5
1FE
100
AcDbEntity
  8
0
  6
CONTINUOUS
 62
           3
100
AcDbLine
 10
5971.673499589365
 20
1364.553421735915
 11
5970.899996609865
 21
1364.999994635813
  0
LINE
  5
1FD
100
AcDbEntity
  8
0
  6
CONTINUOUS
 62
           3
100
AcDbLine
 10
5960.899996833473
 20
1364.999994635813
 11
5960.126493853973
 21
1364.553421735915
  0
LINE
  5
1FC
100
AcDbEntity
  8
0
  6
CONTINUOUS
 62
           3
100
AcDbLine
 10
5971.673499589365
 20
1359.553411603019
 11
5970.899996609865
 21
1359.999999403919
  0
LINE
  5
1FB
100
AcDbEntity
  8
0
  6
CONTINUOUS
 62
           3
100
AcDbLine
 10
5960.899996833473
 20
1359.999999403919
 11
5960.126493853973
 21
1359.553411603019
  0
LINE
  5
1FA
100
AcDbEntity
  8
0
  6
CONTINUOUS
 62
           3
100
AcDbLine
 10
5970.899996609865
 20
1355.00000417232
 11
5971.673499589365
 21
1355.446577072222
  0
LINE
  5
1F9
100
AcDbEntity
  8
0
  6
CONTINUOUS
 62
           3
100
AcDbLine
 10
5960.126493853973
 20
1355.446577072222
 11
5960.899996833473
 21
1355.00000417232
  0
LINE
  5
1F8
100
AcDbEntity
  8
0
  6
CONTINUOUS
 62
           3
100
AcDbLine
 10
5919.899996632413
 20
1314.999997615954
 11
5919.899996632413
 21
1364.999994635813
  0
LINE
  5
1F7
100
AcDbEntity
  8
1
  6
CONTINUOUS
 62
           3
100
AcDbLine
 10
6447.500000000001
 20
1928.999999999998
 11
6299.899996810932
 21
1928.999999999998
  0
LINE
  5
1F6
100
AcDbEntity
  8
1
  6
CONTINUOUS
 62
           3
100
AcDbLine
 10
6447.500000000001
 20
1921.0
 11
6299.899998122325
 21
1921.0
  0
LINE
  5
1F5
100
AcDbEntity
  8
1
  6
CONTINUOUS
 62
           2
100
AcDbLine
 10
6070.0
 20
1800.831132334582
 11
6070.0
 21
519.999999999998
  0
LINE
  5
1F4
100
AcDbEntity
  8
1
  6
CONTINUOUS
 62
           7
100
AcDbLine
 10
6050.0
 20
1784.157226830837
 11
6050.0
 21
1999.999999999998
  0
LINE
  5
1F3
100
AcDbEntity
  8
1
  6
CONTINUOUS
 62
           2
100
AcDbLine
 10
6030.0
 20
1741.488764155296
 11
6030.0
 21
1979.999999999998
  0
LINE
  5
1F2
100
AcDbEntity
  8
1
  6
DOT_CENTER
 62
           3
100
AcDbLine
 10
-1241.527744678122
 20
1340.200848327049
 11
-1241.527744678122
 21
1250.202277327051
  0
LINE
  5
1F1
100
AcDbEntity
  8
1
  6
DOT_CENTER
 62
           3
100
AcDbLine
 10
-1196.527744678122
 20
1295.200848327049
 11
-1286.525199678127
 21
1295.200848327049
  0
LINE
  5
1F0
100
AcDbEntity
  8
1
  6
CONTINUOUS
 62
           3
100
AcDbLine
 10
-1245.063339678116
 20
1323.33071132706
 11
-1247.451285678126
 21
1296.073587327061
  0
LINE
  5
1EF
100
AcDbEntity
  8
1
  6
CONTINUOUS
 62
           3
100
AcDbLine
 10
-1247.451285678126
 20
1294.32810932706
 11
-1245.063339678116
 21
1267.070985327058
  0
LINE
  5
1EE
100
AcDbEntity
  8
1
  6
CONTINUOUS
 62
           3
100
AcDbLine
 10
-1237.992149678107
 20
1323.33071132706
 11
-1235.604203678126
 21
1296.073587327061
  0
LINE
  5
1ED
100
AcDbEntity
  8
1
  6
CONTINUOUS
 62
           3
100
AcDbLine
 10
-1235.604203678126
 20
1294.32810932706
 11
-1237.992149678107
 21
1267.070985327058
  0
LINE
  5
1EC
100
AcDbEntity
  8
1
  6
CONTINUOUS
 62
           7
100
AcDbLine
 10
-1175.0
 20
1646.282992387802
 11
-2325.0
 21
1646.282992387802
  0
LINE
  5
1EB
100
AcDbEntity
  8
1
  6
CONTINUOUS
 62
           7
100
AcDbLine
 10
-2325.0
 20
941.513526798368
 11
-2325.0
 21
1646.282992387802
  0
LINE
  5
1EA
100
AcDbEntity
  8
1
  6
CONTINUOUS
 62
           7
100
AcDbLine
 10
-1175.0
 20
941.513526798368
 11
-1175.0
 21
1646.282992387802
  0
LINE
  5
1E9
100
AcDbEntity
  8
1
  6
CONTINUOUS
 62
           7
100
AcDbLine
 10
-2325.0
 20
941.513526798368
 11
-1175.0
 21
941.513526798368
  0
LINE
  5
1E8
100
AcDbEntity
  8
___S__
  6
DOT_CENTER
 62
           3
100
AcDbLine
 10
-2324.999999999976
 20
1621.052837286497
 11
-2324.999999999977
 21
1536.057127055388
  0
LINE
  5
1E7
100
AcDbEntity
  8
____
  6
CONTINUOUS
 62
           3
100
AcDbLine
 10
-2319.595947044857
 20
1614.449075506231
 11
-2319.595947044857
 21
1612.571144758109
  0
LINE
  5
1E6
100
AcDbEntity
  8
____
  6
CONTINUOUS
 62
           3
100
AcDbLine
 10
-2329.91277541372
 20
1614.918558193263
 11
-2320.087224586232
 21
1614.918558193263
  0
LINE
  5
1E5
100
AcDbEntity
  8
____
  6
CONTINUOUS
 62
           3
100
AcDbLine
 10
-2330.404052955095
 20
1612.571144758109
 11
-2330.404052955095
 21
1614.449075506231
  0
LINE
  5
1E4
100
AcDbEntity
  8
____
  6
CONTINUOUS
 62
           3
100
AcDbLine
 10
-2319.497691536592
 20
1576.890460543777
 11
-2330.502308463369
 21
1576.890460543777
  0
LINE
  5
1E3
100
AcDbEntity
  8
____
  6
CONTINUOUS
 62
           3
100
AcDbLine
 10
-2319.497691536591
 20
1612.571144758109
 11
-2319.497691536592
 21
1576.890460543777
  0
LINE
  5
1E2
100
AcDbEntity
  8
____
  6
CONTINUOUS
 62
           3
100
AcDbLine
 10
-2330.502308463368
 20
1612.571144758109
 11
-2319.497691536591
 21
1612.571144758109
  0
LINE
  5
1E1
100
AcDbEntity
  8
____
  6
CONTINUOUS
 62
           3
100
AcDbLine
 10
-2330.502308463369
 20
1576.890460543777
 11
-2330.502308463368
 21
1612.571144758109
  0
LINE
  5
1E0
100
AcDbEntity
  8
____
  6
CONTINUOUS
 62
           3
100
AcDbLine
 10
-2330.404052955096
 20
1538.392880207259
 11
-2330.404052955096
 21
1540.270810955382
  0
LINE
  5
1DF
100
AcDbEntity
  8
____
  6
CONTINUOUS
 62
           3
100
AcDbLine
 10
-2320.087224586232
 20
1537.92339752023
 11
-2329.912775413721
 21
1537.92339752023
  0
LINE
  5
1DE
100
AcDbEntity
  8
____
  6
CONTINUOUS
 62
           3
100
AcDbLine
 10
-2319.595947044858
 20
1540.270810955382
 11
-2319.595947044858
 21
1538.392880207259
  0
LINE
  5
1DD
100
AcDbEntity
  8
____
  6
CONTINUOUS
 62
           3
100
AcDbLine
 10
-2330.158414184408
 20
1576.890460543777
 11
-2330.158414184408
 21
1575.951495169715
  0
LINE
  5
1DC
100
AcDbEntity
  8
____
  6
CONTINUOUS
 62
           3
100
AcDbLine
 10
-2319.841585815545
 20
1576.890460543777
 11
-2330.158414184408
 21
1576.890460543777
  0
LINE
  5
1DB
100
AcDbEntity
  8
____
  6
CONTINUOUS
 62
           3
100
AcDbLine
 10
-2319.841585815545
 20
1575.951495169715
 11
-2319.841585815545
 21
1576.890460543777
  0
LINE
  5
1DA
100
AcDbEntity
  8
____
  6
CONTINUOUS
 62
           3
100
AcDbLine
 10
-2330.404052955095
 20
1614.449075506231
 11
-2319.595947044857
 21
1614.449075506231
  0
LINE
  5
1D9
100
AcDbEntity
  8
____
  6
CONTINUOUS
 62
           3
100
AcDbLine
 10
-2330.502308463369
 20
1575.951495169715
 11
-2319.497691536592
 21
1575.951495169715
  0
LINE
  5
1D8
100
AcDbEntity
  8
____
  6
CONTINUOUS
 62
           3
100
AcDbLine
 10
-2330.502308463369
 20
1540.270810955382
 11
-2330.502308463369
 21
1575.951495169715
  0
LINE
  5
1D7
100
AcDbEntity
  8
____
  6
CONTINUOUS
 62
           3
100
AcDbLine
 10
-2319.497691536592
 20
1540.270810955382
 11
-2330.502308463369
 21
1540.270810955382
  0
LINE
  5
1D6
100
AcDbEntity
  8
____
  6
CONTINUOUS
 62
           3
100
AcDbLine
 10
-2319.497691536592
 20
1575.951495169715
 11
-2319.497691536592
 21
1540.270810955382
  0
LINE
  5
1D5
100
AcDbEntity
  8
____
  6
CONTINUOUS
 62
           3
100
AcDbLine
 10
-2330.404052955095
 20
1614.449075506231
 11
-2329.91277541372
 21
1614.918558193263
  0
LINE
  5
1D4
100
AcDbEntity
  8
____
  6
CONTINUOUS
 62
           3
100
AcDbLine
 10
-2320.087224586232
 20
1614.918558193263
 11
-2319.595947044857
 21
1614.449075506231
  0
LINE
  5
1D3
100
AcDbEntity
  8
____
  6
CONTINUOUS
 62
           3
100
AcDbLine
 10
-2329.912775413721
 20
1537.92339752023
 11
-2330.404052955096
 21
1538.392880207259
  0
LINE
  5
1D2
100
AcDbEntity
  8
____
  6
CONTINUOUS
 62
           3
100
AcDbLine
 10
-2319.595947044858
 20
1538.392880207259
 11
-2320.087224586232
 21
1537.92339752023
  0
LINE
  5
1D1
100
AcDbEntity
  8
____
  6
CONTINUOUS
 62
           3
100
AcDbLine
 10
-2330.404052955096
 20
1538.392880207259
 11
-2319.595947044858
 21
1538.392880207259
  0
LINE
  5
1D0
100
AcDbEntity
  8
____
  6
CONTINUOUS
 62
           3
100
AcDbLine
 10
-2330.40405295512
 20
984.403309517205
 11
-2319.595947044882
 21
984.403309517205
  0
LINE
  5
1CF
100
AcDbEntity
  8
____
  6
CONTINUOUS
 62
           3
100
AcDbLine
 10
-2319.595947044882
 20
984.403309517205
 11
-2320.087224586257
 21
983.933826830174
  0
LINE
  5
1CE
100
AcDbEntity
  8
____
  6
CONTINUOUS
 62
           3
100
AcDbLine
 10
-2329.912775413746
 20
983.933826830174
 11
-2330.40405295512
 21
984.403309517205
  0
LINE
  5
1CD
100
AcDbEntity
  8
____
  6
CONTINUOUS
 62
           3
100
AcDbLine
 10
-2320.087224586255
 20
1060.928987503208
 11
-2319.59594704488
 21
1060.459504816177
  0
LINE
  5
1CC
100
AcDbEntity
  8
____
  6
CONTINUOUS
 62
           3
100
AcDbLine
 10
-2330.404052955118
 20
1060.459504816177
 11
-2329.912775413744
 21
1060.928987503208
  0
LINE
  5
1CB
100
AcDbEntity
  8
____
  6
CONTINUOUS
 62
           3
100
AcDbLine
 10
-2319.497691536608
 20
1021.961924479661
 11
-2319.497691536609
 21
986.281240265329
  0
LINE
  5
1CA
100
AcDbEntity
  8
____
  6
CONTINUOUS
 62
           3
100
AcDbLine
 10
-2319.497691536609
 20
986.281240265329
 11
-2330.502308463385
 21
986.281240265329
  0
LINE
  5
1C9
100
AcDbEntity
  8
____
  6
CONTINUOUS
 62
           3
100
AcDbLine
 10
-2330.502308463385
 20
986.281240265329
 11
-2330.502308463385
 21
1021.961924479661
  0
LINE
  5
1C8
100
AcDbEntity
  8
____
  6
CONTINUOUS
 62
           3
100
AcDbLine
 10
-2330.502308463385
 20
1021.961924479661
 11
-2319.497691536608
 21
1021.961924479661
  0
LINE
  5
1C7
100
AcDbEntity
  8
____
  6
CONTINUOUS
 62
           3
100
AcDbLine
 10
-2330.404052955118
 20
1060.459504816177
 11
-2319.59594704488
 21
1060.459504816177
  0
LINE
  5
1C6
100
AcDbEntity
  8
____
  6
CONTINUOUS
 62
           3
100
AcDbLine
 10
-2319.841585815569
 20
1021.961924479661
 11
-2319.841585815569
 21
1022.900889853721
  0
LINE
  5
1C5
100
AcDbEntity
  8
____
  6
CONTINUOUS
 62
           3
100
AcDbLine
 10
-2319.841585815569
 20
1022.900889853721
 11
-2330.158414184432
 21
1022.900889853723
  0
LINE
  5
1C4
100
AcDbEntity
  8
____
  6
CONTINUOUS
 62
           3
100
AcDbLine
 10
-2330.158414184432
 20
1022.900889853723
 11
-2330.158414184432
 21
1021.961924479661
  0
LINE
  5
1C3
100
AcDbEntity
  8
____
  6
CONTINUOUS
 62
           3
100
AcDbLine
 10
-2319.595947044882
 20
986.281240265329
 11
-2319.595947044882
 21
984.403309517205
  0
LINE
  5
1C2
100
AcDbEntity
  8
____
  6
CONTINUOUS
 62
           3
100
AcDbLine
 10
-2320.087224586257
 20
983.933826830174
 11
-2329.912775413746
 21
983.933826830174
  0
LINE
  5
1C1
100
AcDbEntity
  8
____
  6
CONTINUOUS
 62
           3
100
AcDbLine
 10
-2330.40405295512
 20
984.403309517205
 11
-2330.40405295512
 21
986.281240265329
  0
LINE
  5
1C0
100
AcDbEntity
  8
____
  6
CONTINUOUS
 62
           3
100
AcDbLine
 10
-2330.502308463385
 20
1022.900889853723
 11
-2330.502308463384
 21
1058.581574068056
  0
LINE
  5
1BF
100
AcDbEntity
  8
____
  6
CONTINUOUS
 62
           3
100
AcDbLine
 10
-2330.502308463384
 20
1058.581574068056
 11
-2319.497691536607
 21
1058.581574068056
  0
LINE
  5
1BE
100
AcDbEntity
  8
____
  6
CONTINUOUS
 62
           3
100
AcDbLine
 10
-2319.497691536607
 20
1058.581574068056
 11
-2319.497691536608
 21
1022.900889853721
  0
LINE
  5
1BD
100
AcDbEntity
  8
____
  6
CONTINUOUS
 62
           3
100
AcDbLine
 10
-2319.497691536608
 20
1022.900889853721
 11
-2330.502308463385
 21
1022.900889853723
  0
LINE
  5
1BC
100
AcDbEntity
  8
____
  6
CONTINUOUS
 62
           3
100
AcDbLine
 10
-2330.404052955118
 20
1058.581574068056
 11
-2330.404052955118
 21
1060.459504816177
  0
LINE
  5
1BB
100
AcDbEntity
  8
____
  6
CONTINUOUS
 62
           3
100
AcDbLine
 10
-2329.912775413744
 20
1060.928987503208
 11
-2320.087224586255
 21
1060.928987503208
  0
LINE
  5
1BA
100
AcDbEntity
  8
____
  6
CONTINUOUS
 62
           3
100
AcDbLine
 10
-2319.59594704488
 20
1060.459504816177
 11
-2319.59594704488
 21
1058.581574068056
  0
LINE
  5
1B9
100
AcDbEntity
  8
___S__
  6
DOT_CENTER
 62
           3
100
AcDbLine
 10
-2325.0
 20
1067.06326659646
 11
-2325.000000000001
 21
982.067556365335
  0
LINE
  5
1B8
100
AcDbEntity
  8
1
  6
CONTINUOUS
 62
           7
100
AcDbLine
 10
2500.0
 20
1763.744569986044
 11
-2500.0
 21
1763.744569986044
  0
LINE
  5
1B7
100
AcDbEntity
  8
1
  6
CONTINUOUS
 62
           2
100
AcDbLine
 10
6070.0
 20
1979.999999999998
 11
6070.0
 21
1814.464669216337
  0
LINE
  5
1B6
100
AcDbEntity
  8
1
  6
CONTINUOUS
 62
           7
100
AcDbLine
 10
1000.0
 20
2000.0
 11
1000.0
 21
500.0
  0
LINE
  5
1B5
100
AcDbEntity
  8
1
  6
CONTINUOUS
 62
           7
100
AcDbLine
 10
-1000.0
 20
500.0
 11
-1000.0
 21
2000.0
  0
LINE
  5
1B4
100
AcDbEntity
  8
1
  6
CONTINUOUS
 62
           7
100
AcDbLine
 10
5780.0
 20
1569.999999999998
 11
5780.0
 21
1329.999999999998
  0
LINE
  5
1B3
100
AcDbEntity
  8
1
  6
CONTINUOUS
 62
           2
100
AcDbLine
 10
6030.0
 20
519.999999999998
 11
6030.0
 21
1711.735001917828
  0
LINE
  5
1B2
100
AcDbEntity
  8
1
  6
CONTINUOUS
 62
           7
100
AcDbLine
 10
6050.0
 20
499.999999999998
 11
6050.0
 21
1767.293273528172
  0
LINE
  5
1B1
100
AcDbEntity
  8
1
  6
CONTINUOUS
 62
           7
100
AcDbLine
 10
-2319.497691536609
 20
986.513526798368
 11
-1175.0
 21
986.513526798368
  0
LINE
  5
1B0
100
AcDbEntity
  8
1
  6
CONTINUOUS
 62
           7
100
AcDbLine
 10
5600.0
 20
1619.999999999998
 11
5780.0
 21
1619.999999999998
  0
LINE
  5
1AF
100
AcDbEntity
  8
1
  6
CONTINUOUS
 62
           7
100
AcDbLine
 10
5780.0
 20
1619.999999999998
 11
5780.0
 21
1732.999999999998
  0
LINE
  5
1AE
100
AcDbEntity
  8
1
  6
CONTINUOUS
 62
           7
100
AcDbLine
 10
5780.0
 20
1732.999999999998
 11
5600.0
 21
1732.999999999998
  0
LINE
  5
1AD
100
AcDbEntity
  8
1
  6
CONTINUOUS
 62
           7
100
AcDbLine
 10
5600.0
 20
1732.999999999998
 11
5600.0
 21
1619.999999999998
  0
LINE
  5
1AC
100
AcDbEntity
  8
1
  6
CONTINUOUS
 62
           7
100
AcDbLine
 10
2500.0
 20
475.000000000001
 11
-2500.0
 21
475.000000000001
  0
LINE
  5
1AB
100
AcDbEntity
  8
1
  6
DOT_CENTER
 62
           2
100
AcDbLine
 10
0.0
 20
6599.216232355006
 11
0.0
 21
4305.91937581614
  0
LINE
  5
1AA
100
AcDbEntity
  8
1
  6
CONTINUOUS
 62
           7
100
AcDbLine
 10
2663.5
 20
4736.490190466975
 11
2680.0
 21
4736.490190466975
  0
LINE
  5
1A9
100
AcDbEntity
  8
1
  6
CONTINUOUS
 62
           7
100
AcDbLine
 10
2562.0
 20
4748.0
 11
2579.0
 21
4748.0
  0
LINE
  5
1A8
100
AcDbEntity
  8
1
  6
CONTINUOUS
 62
           7
100
AcDbLine
 10
2562.0
 20
4782.0
 11
2579.0
 21
4782.0
  0
LINE
  5
1A7
100
AcDbEntity
  8
1
  6
CONTINUOUS
 62
           7
100
AcDbLine
 10
2562.0
 20
4748.0
 11
2562.0
 21
4715.328579645837
  0
LINE
  5
1A6
100
AcDbEntity
  8
1
  6
CONTINUOUS
 62
           7
100
AcDbLine
 10
2633.0
 20
4746.971103189579
 11
2633.0
 21
4707.838834764832
  0
LINE
  5
1A5
100
AcDbEntity
  8
1
  6
CONTINUOUS
 62
           7
100
AcDbLine
 10
2618.0
 20
4746.971103189579
 11
2633.0
 21
4746.971103189579
  0
LINE
  5
1A4
100
AcDbEntity
  8
1
  6
CONTINUOUS
 62
           7
100
AcDbLine
 10
2613.338834764831
 20
4737.783322010193
 11
2613.338834764831
 21
4817.5
  0
LINE
  5
1A3
100
AcDbEntity
  8
1
  6
CONTINUOUS
 62
           7
100
AcDbLine
 10
2613.338834764831
 20
4737.783322010193
 11
2618.0
 21
4746.971103189579
  0
LINE
  5
1A2
100
AcDbEntity
  8
1
  6
CONTINUOUS
 62
           7
100
AcDbLine
 10
2562.0
 20
4737.783322010193
 11
2613.338834764831
 21
4737.783322010193
  0
LINE
  5
1A1
100
AcDbEntity
  8
1
  6
CONTINUOUS
 62
           7
100
AcDbLine
 10
2596.0
 20
4695.0
 11
2550.0
 21
4695.0
  0
LINE
  5
1A0
100
AcDbEntity
  8
1
  6
CONTINUOUS
 62
           7
100
AcDbLine
 10
2596.0
 20
4835.0
 11
2550.0
 21
4835.0
  0
LINE
  5
19F
100
AcDbEntity
  8
1
  6
CONTINUOUS
 62
           7
100
AcDbLine
 10
2680.0
 20
4793.482374189476
 11
2663.5
 21
4793.482374189476
  0
LINE
  5
19E
100
AcDbEntity
  8
1
  6
CONTINUOUS
 62
           7
100
AcDbLine
 10
2680.0
 20
4736.490190466975
 11
2680.0
 21
4793.482374189476
  0
LINE
  5
19D
100
AcDbEntity
  8
1
  6
CONTINUOUS
 62
           7
100
AcDbLine
 10
2663.5
 20
4728.5
 11
2663.5
 21
4801.5
  0
LINE
  5
19C
100
AcDbEntity
  8
1
  6
CONTINUOUS
 62
           7
100
AcDbLine
 10
2633.0
 20
4822.161165235168
 11
2633.0
 21
4783.028896810425
  0
LINE
  5
19B
100
AcDbEntity
  8
1
  6
CONTINUOUS
 62
           7
100
AcDbLine
 10
2633.0
 20
4822.161165235168
 11
2618.0
 21
4822.161165235168
  0
LINE
  5
19A
100
AcDbEntity
  8
1
  6
CONTINUOUS
 62
           7
100
AcDbLine
 10
2633.0
 20
4707.838834764832
 11
2618.0
 21
4707.838834764832
  0
LINE
  5
199
100
AcDbEntity
  8
1
  6
CONTINUOUS
 62
           7
100
AcDbLine
 10
2651.5
 20
4725.0
 11
2633.0
 21
4725.0
  0
LINE
  5
198
100
AcDbEntity
  8
1
  6
CONTINUOUS
 62
           7
100
AcDbLine
 10
2651.5
 20
4805.0
 11
2633.0
 21
4805.0
  0
LINE
  5
197
100
AcDbEntity
  8
1
  6
CONTINUOUS
 62
           7
100
AcDbLine
 10
2550.0
 20
4814.671420354163
 11
2562.0
 21
4814.671420354163
  0
LINE
  5
196
100
AcDbEntity
  8
1
  6
CONTINUOUS
 62
           7
100
AcDbLine
 10
2596.0
 20
4695.0
 11
2596.0
 21
4712.5
  0
LINE
  5
195
100
AcDbEntity
  8
1
  6
CONTINUOUS
 62
           7
100
AcDbLine
 10
2596.0
 20
4817.5
 11
2596.0
 21
4835.0
  0
LINE
  5
194
100
AcDbEntity
  8
1
  6
CONTINUOUS
 62
           7
100
AcDbLine
 10
2651.5
 20
4725.0
 11
2651.5
 21
4805.0
  0
LINE
  5
193
100
AcDbEntity
  8
1
  6
CONTINUOUS
 62
           7
100
AcDbLine
 10
2663.5
 20
4728.5
 11
2651.5
 21
4728.5
  0
LINE
  5
192
100
AcDbEntity
  8
1
  6
CONTINUOUS
 62
           7
100
AcDbLine
 10
2663.5
 20
4801.5
 11
2651.5
 21
4801.5
  0
LINE
  5
191
100
AcDbEntity
  8
1
  6
CONTINUOUS
 62
           7
100
AcDbLine
 10
2562.0
 20
4814.671420354163
 11
2562.0
 21
4782.0
  0
LINE
  5
190
100
AcDbEntity
  8
1
  6
CONTINUOUS
 62
           7
100
AcDbLine
 10
2618.0
 20
4707.838834764832
 11
2613.338834764831
 21
4712.5
  0
LINE
  5
18F
100
AcDbEntity
  8
1
  6
CONTINUOUS
 62
           7
100
AcDbLine
 10
2613.338834764831
 20
4712.5
 11
2613.338834764831
 21
4737.783322010193
  0
LINE
  5
18E
100
AcDbEntity
  8
1
  6
CONTINUOUS
 62
           7
100
AcDbLine
 10
2613.338834764831
 20
4817.5
 11
2618.0
 21
4822.161165235168
  0
LINE
  5
18D
100
AcDbEntity
  8
1
  6
CONTINUOUS
 62
           7
100
AcDbLine
 10
2613.338834764831
 20
4817.5
 11
2596.0
 21
4817.5
  0
LINE
  5
18C
100
AcDbEntity
  8
1
  6
CONTINUOUS
 62
           7
100
AcDbLine
 10
2613.338834764831
 20
4712.5
 11
2596.0
 21
4712.5
  0
LINE
  5
18B
100
AcDbEntity
  8
1
  6
CONTINUOUS
 62
           7
100
AcDbLine
 10
2618.0
 20
4783.028896810425
 11
2613.338834764831
 21
4792.216677989811
  0
LINE
  5
18A
100
AcDbEntity
  8
1
  6
CONTINUOUS
 62
           7
100
AcDbLine
 10
2613.338834764831
 20
4792.216677989811
 11
2562.0
 21
4792.216677989811
  0
LINE
  5
189
100
AcDbEntity
  8
1
  6
CONTINUOUS
 62
           7
100
AcDbLine
 10
2633.0
 20
4783.028896810425
 11
2618.0
 21
4783.028896810425
  0
LINE
  5
188
100
AcDbEntity
  8
1
  6
CONTINUOUS
 62
           7
100
AcDbLine
 10
2596.0
 20
4712.5
 11
2562.0
 21
4712.5
  0
LINE
  5
187
100
AcDbEntity
  8
1
  6
CONTINUOUS
 62
           7
100
AcDbLine
 10
2562.0
 20
4712.5
 11
2562.0
 21
4715.328579645837
  0
LINE
  5
186
100
AcDbEntity
  8
1
  6
CONTINUOUS
 62
           7
100
AcDbLine
 10
2596.0
 20
4817.5
 11
2562.0
 21
4817.5
  0
LINE
  5
185
100
AcDbEntity
  8
1
  6
CONTINUOUS
 62
           7
100
AcDbLine
 10
2562.0
 20
4817.5
 11
2562.0
 21
4796.378889924883
  0
LINE
  5
184
100
AcDbEntity
  8
1
  6
CONTINUOUS
 62
           7
100
AcDbLine
 10
2562.0
 20
4715.328579645837
 11
2550.0
 21
4715.328579645837
  0
LINE
  5
183
100
AcDbEntity
  8
1
  6
CONTINUOUS
 62
           7
100
AcDbLine
 10
-387.500000000002
 20
4670.0
 11
-407.573593128809
 21
4670.0
  0
LINE
  5
182
100
AcDbEntity
  8
1
  6
CONTINUOUS
 62
           7
100
AcDbLine
 10
-465.0
 20
4622.5
 11
-465.0
 21
4642.573593128807
  0
LINE
  5
181
100
AcDbEntity
  8
1
  6
CONTINUOUS
 62
           7
100
AcDbLine
 10
-512.5
 20
4700.0
 11
-492.426406871194
 21
4700.0
  0
LINE
  5
180
100
AcDbEntity
  8
1
  6
CONTINUOUS
 62
           7
100
AcDbLine
 10
-387.500000000002
 20
4700.0
 11
-387.500000000002
 21
4670.0
  0
LINE
  5
17F
100
AcDbEntity
  8
1
  6
CONTINUOUS
 62
           7
100
AcDbLine
 10
-435.0
 20
4622.5
 11
-465.0
 21
4622.5
  0
LINE
  5
17E
100
AcDbEntity
  8
1
  6
CONTINUOUS
 62
           7
100
AcDbLine
 10
-512.5
 20
4670.0
 11
-512.5
 21
4700.0
  0
LINE
  5
17D
100
AcDbEntity
  8
1
  6
CONTINUOUS
 62
           7
100
AcDbLine
 10
-407.573593128809
 20
4700.0
 11
-387.500000000002
 21
4700.0
  0
LINE
  5
17C
100
AcDbEntity
  8
1
  6
CONTINUOUS
 62
           7
100
AcDbLine
 10
-435.0
 20
4642.573593128807
 11
-435.0
 21
4622.5
  0
LINE
  5
17B
100
AcDbEntity
  8
1
  6
CONTINUOUS
 62
           7
100
AcDbLine
 10
-492.426406871194
 20
4670.0
 11
-512.5
 21
4670.0
  0
LINE
  5
17A
100
AcDbEntity
  8
1
  6
CONTINUOUS
 62
           7
100
AcDbLine
 10
-435.0
 20
4747.5
 11
-435.0
 21
4727.426406871193
  0
LINE
  5
179
100
AcDbEntity
  8
1
  6
CONTINUOUS
 62
           7
100
AcDbLine
 10
-465.0
 20
4747.5
 11
-435.0
 21
4747.5
  0
LINE
  5
178
100
AcDbEntity
  8
1
  6
CONTINUOUS
 62
           7
100
AcDbLine
 10
-465.0
 20
4727.426406871193
 11
-465.0
 21
4747.5
  0
LINE
  5
177
100
AcDbEntity
  8
1
  6
CONTINUOUS
 62
           7
100
AcDbLine
 10
2596.0
 20
1429.999999999999
 11
2550.0
 21
1429.999999999999
  0
LINE
  5
176
100
AcDbEntity
  8
1
  6
CONTINUOUS
 62
           7
100
AcDbLine
 10
2596.0
 20
1569.999999999998
 11
2550.0
 21
1569.999999999998
  0
LINE
  5
175
100
AcDbEntity
  8
1
  6
CONTINUOUS
 62
           7
100
AcDbLine
 10
2680.0
 20
1528.482374189475
 11
2663.5
 21
1528.482374189475
  0
LINE
  5
174
100
AcDbEntity
  8
1
  6
CONTINUOUS
 62
           7
100
AcDbLine
 10
2680.0
 20
1484.443650813895
 11
2663.5
 21
1484.443650813895
  0
LINE
  5
173
100
AcDbEntity
  8
1
  6
CONTINUOUS
 62
           7
100
AcDbLine
 10
2680.0
 20
1484.443650813895
 11
2680.0
 21
1528.482374189475
  0
LINE
  5
172
100
AcDbEntity
  8
1
  6
CONTINUOUS
 62
           7
100
AcDbLine
 10
2663.5
 20
1463.499999999998
 11
2663.5
 21
1536.499999999998
  0
LINE
  5
171
100
AcDbEntity
  8
1
  6
CONTINUOUS
 62
           7
100
AcDbLine
 10
2633.0
 20
1557.161165235166
 11
2633.0
 21
1515.556349186103
  0
LINE
  5
170
100
AcDbEntity
  8
1
  6
CONTINUOUS
 62
           7
100
AcDbLine
 10
2633.0
 20
1557.161165235166
 11
2618.0
 21
1557.161165235166
  0
LINE
  5
16F
100
AcDbEntity
  8
1
  6
CONTINUOUS
 62
           7
100
AcDbLine
 10
2633.0
 20
1442.838834764832
 11
2618.0
 21
1442.838834764832
  0
LINE
  5
16E
100
AcDbEntity
  8
1
  6
CONTINUOUS
 62
           7
100
AcDbLine
 10
2651.5
 20
1459.999999999998
 11
2633.0
 21
1459.999999999998
  0
LINE
  5
16D
100
AcDbEntity
  8
1
  6
CONTINUOUS
 62
           7
100
AcDbLine
 10
2651.5
 20
1539.999999999998
 11
2633.0
 21
1539.999999999998
  0
LINE
  5
16C
100
AcDbEntity
  8
1
  6
CONTINUOUS
 62
           7
100
AcDbLine
 10
2550.0
 20
1549.671420354162
 11
2562.0
 21
1549.671420354162
  0
LINE
  5
16B
100
AcDbEntity
  8
1
  6
CONTINUOUS
 62
           7
100
AcDbLine
 10
2596.0
 20
1429.999999999999
 11
2596.0
 21
1447.499999999999
  0
LINE
  5
16A
100
AcDbEntity
  8
1
  6
CONTINUOUS
 62
           7
100
AcDbLine
 10
2596.0
 20
1552.499999999998
 11
2596.0
 21
1569.999999999998
  0
LINE
  5
169
100
AcDbEntity
  8
1
  6
CONTINUOUS
 62
           7
100
AcDbLine
 10
2651.5
 20
1459.999999999998
 11
2651.5
 21
1539.999999999998
  0
LINE
  5
168
100
AcDbEntity
  8
1
  6
CONTINUOUS
 62
           7
100
AcDbLine
 10
2663.5
 20
1463.499999999998
 11
2651.5
 21
1463.499999999998
  0
LINE
  5
167
100
AcDbEntity
  8
1
  6
CONTINUOUS
 62
           7
100
AcDbLine
 10
2663.5
 20
1536.499999999998
 11
2651.5
 21
1536.499999999998
  0
LINE
  5
166
100
AcDbEntity
  8
1
  6
CONTINUOUS
 62
           7
100
AcDbLine
 10
2562.0
 20
1450.328579645834
 11
2562.0
 21
1481.971103189575
  0
LINE
  5
165
100
AcDbEntity
  8
1
  6
CONTINUOUS
 62
           7
100
AcDbLine
 10
2562.0
 20
1518.028896810422
 11
2562.0
 21
1549.671420354162
  0
LINE
  5
164
100
AcDbEntity
  8
1
  6
CONTINUOUS
 62
           7
100
AcDbLine
 10
2618.0
 20
1442.838834764832
 11
2613.338834764831
 21
1447.499999999999
  0
LINE
  5
163
100
AcDbEntity
  8
1
  6
CONTINUOUS
 62
           7
100
AcDbLine
 10
2613.338834764831
 20
1447.499999999999
 11
2613.338834764831
 21
1552.499999999998
  0
LINE
  5
162
100
AcDbEntity
  8
1
  6
CONTINUOUS
 62
           7
100
AcDbLine
 10
2613.338834764831
 20
1552.499999999998
 11
2618.0
 21
1557.161165235166
  0
LINE
  5
161
100
AcDbEntity
  8
1
  6
CONTINUOUS
 62
           7
100
AcDbLine
 10
2613.338834764831
 20
1552.499999999998
 11
2596.0
 21
1552.499999999998
  0
LINE
  5
160
100
AcDbEntity
  8
1
  6
CONTINUOUS
 62
           7
100
AcDbLine
 10
2613.338834764831
 20
1447.499999999999
 11
2596.0
 21
1447.499999999999
  0
LINE
  5
15F
100
AcDbEntity
  8
1
  6
CONTINUOUS
 62
           7
100
AcDbLine
 10
2633.0
 20
1484.443650813895
 11
2633.0
 21
1442.838834764832
  0
LINE
  5
15E
100
AcDbEntity
  8
1
  6
CONTINUOUS
 62
           7
100
AcDbLine
 10
2613.338834764831
 20
1481.971103189575
 11
2618.0
 21
1484.443650813895
  0
LINE
  5
15D
100
AcDbEntity
  8
1
  6
CONTINUOUS
 62
           7
100
AcDbLine
 10
2613.338834764831
 20
1481.971103189575
 11
2562.0
 21
1481.971103189575
  0
LINE
  5
15C
100
AcDbEntity
  8
1
  6
CONTINUOUS
 62
           7
100
AcDbLine
 10
2618.0
 20
1515.556349186103
 11
2613.338834764831
 21
1518.028896810422
  0
LINE
  5
15B
100
AcDbEntity
  8
1
  6
CONTINUOUS
 62
           7
100
AcDbLine
 10
2613.338834764831
 20
1518.028896810422
 11
2562.0
 21
1518.028896810422
  0
LINE
  5
15A
100
AcDbEntity
  8
1
  6
CONTINUOUS
 62
           7
100
AcDbLine
 10
2633.0
 20
1484.443650813895
 11
2618.0
 21
1484.443650813895
  0
LINE
  5
159
100
AcDbEntity
  8
1
  6
CONTINUOUS
 62
           7
100
AcDbLine
 10
2633.0
 20
1515.556349186103
 11
2618.0
 21
1515.556349186103
  0
LINE
  5
158
100
AcDbEntity
  8
1
  6
CONTINUOUS
 62
           7
100
AcDbLine
 10
2596.0
 20
1447.499999999999
 11
2562.0
 21
1447.499999999999
  0
LINE
  5
157
100
AcDbEntity
  8
1
  6
CONTINUOUS
 62
           7
100
AcDbLine
 10
2562.0
 20
1447.499999999999
 11
2562.0
 21
1450.328579645834
  0
LINE
  5
156
100
AcDbEntity
  8
1
  6
CONTINUOUS
 62
           7
100
AcDbLine
 10
2596.0
 20
1552.499999999998
 11
2562.0
 21
1552.499999999998
  0
LINE
  5
155
100
AcDbEntity
  8
1
  6
CONTINUOUS
 62
           7
100
AcDbLine
 10
2562.0
 20
1552.499999999998
 11
2562.0
 21
1531.378889924881
  0
LINE
  5
154
100
AcDbEntity
  8
1
  6
CONTINUOUS
 62
           7
100
AcDbLine
 10
2562.0
 20
1450.328579645834
 11
2550.0
 21
1450.328579645834
  0
LINE
  5
153
100
AcDbEntity
  8
1
  6
CONTINUOUS
 62
           7
100
AcDbLine
 10
2562.0
 20
4485.328579645837
 11
2550.0
 21
4485.328579645837
  0
LINE
  5
152
100
AcDbEntity
  8
1
  6
CONTINUOUS
 62
           7
100
AcDbLine
 10
2562.0
 20
4587.5
 11
2562.0
 21
4566.378889924883
  0
LINE
  5
151
100
AcDbEntity
  8
1
  6
CONTINUOUS
 62
           7
100
AcDbLine
 10
2596.0
 20
4587.5
 11
2562.0
 21
4587.5
  0
LINE
  5
150
100
AcDbEntity
  8
1
  6
CONTINUOUS
 62
           7
100
AcDbLine
 10
2562.0
 20
4482.5
 11
2562.0
 21
4485.328579645837
  0
LINE
  5
14F
100
AcDbEntity
  8
1
  6
CONTINUOUS
 62
           7
100
AcDbLine
 10
2596.0
 20
4482.5
 11
2562.0
 21
4482.5
  0
LINE
  5
14E
100
AcDbEntity
  8
1
  6
CONTINUOUS
 62
           7
100
AcDbLine
 10
2633.0
 20
4553.028896810425
 11
2618.0
 21
4553.028896810425
  0
LINE
  5
14D
100
AcDbEntity
  8
1
  6
CONTINUOUS
 62
           7
100
AcDbLine
 10
2613.338834764831
 20
4562.216677989811
 11
2562.0
 21
4562.216677989811
  0
LINE
  5
14C
100
AcDbEntity
  8
1
  6
CONTINUOUS
 62
           7
100
AcDbLine
 10
2618.0
 20
4553.028896810425
 11
2613.338834764831
 21
4562.216677989811
  0
LINE
  5
14B
100
AcDbEntity
  8
1
  6
CONTINUOUS
 62
           7
100
AcDbLine
 10
2613.338834764831
 20
4482.5
 11
2596.0
 21
4482.5
  0
LINE
  5
14A
100
AcDbEntity
  8
1
  6
CONTINUOUS
 62
           7
100
AcDbLine
 10
2613.338834764831
 20
4587.5
 11
2596.0
 21
4587.5
  0
LINE
  5
149
100
AcDbEntity
  8
1
  6
CONTINUOUS
 62
           7
100
AcDbLine
 10
2613.338834764831
 20
4587.5
 11
2618.0
 21
4592.161165235168
  0
LINE
  5
148
100
AcDbEntity
  8
1
  6
CONTINUOUS
 62
           7
100
AcDbLine
 10
2613.338834764831
 20
4482.5
 11
2613.338834764831
 21
4507.783322010193
  0
LINE
  5
147
100
AcDbEntity
  8
1
  6
CONTINUOUS
 62
           7
100
AcDbLine
 10
2618.0
 20
4477.838834764832
 11
2613.338834764831
 21
4482.5
  0
LINE
  5
146
100
AcDbEntity
  8
1
  6
CONTINUOUS
 62
           7
100
AcDbLine
 10
2562.0
 20
4584.671420354163
 11
2562.0
 21
4552.0
  0
LINE
  5
145
100
AcDbEntity
  8
1
  6
CONTINUOUS
 62
           7
100
AcDbLine
 10
2663.5
 20
4571.5
 11
2651.5
 21
4571.5
  0
LINE
  5
144
100
AcDbEntity
  8
1
  6
CONTINUOUS
 62
           7
100
AcDbLine
 10
2663.5
 20
4498.5
 11
2651.5
 21
4498.5
  0
LINE
  5
143
100
AcDbEntity
  8
1
  6
CONTINUOUS
 62
           7
100
AcDbLine
 10
2651.5
 20
4495.0
 11
2651.5
 21
4575.0
  0
LINE
  5
142
100
AcDbEntity
  8
1
  6
CONTINUOUS
 62
           7
100
AcDbLine
 10
2596.0
 20
4587.5
 11
2596.0
 21
4605.0
  0
LINE
  5
141
100
AcDbEntity
  8
1
  6
CONTINUOUS
 62
           7
100
AcDbLine
 10
2596.0
 20
4465.0
 11
2596.0
 21
4482.5
  0
LINE
  5
140
100
AcDbEntity
  8
1
  6
CONTINUOUS
 62
           7
100
AcDbLine
 10
2550.0
 20
4584.671420354163
 11
2562.0
 21
4584.671420354163
  0
LINE
  5
13F
100
AcDbEntity
  8
1
  6
CONTINUOUS
 62
           7
100
AcDbLine
 10
2651.5
 20
4575.0
 11
2633.0
 21
4575.0
  0
LINE
  5
13E
100
AcDbEntity
  8
1
  6
CONTINUOUS
 62
           7
100
AcDbLine
 10
2651.5
 20
4495.0
 11
2633.0
 21
4495.0
  0
LINE
  5
13D
100
AcDbEntity
  8
1
  6
CONTINUOUS
 62
           7
100
AcDbLine
 10
2633.0
 20
4477.838834764832
 11
2618.0
 21
4477.838834764832
  0
LINE
  5
13C
100
AcDbEntity
  8
1
  6
CONTINUOUS
 62
           7
100
AcDbLine
 10
2633.0
 20
4592.161165235168
 11
2618.0
 21
4592.161165235168
  0
LINE
  5
13B
100
AcDbEntity
  8
1
  6
CONTINUOUS
 62
           7
100
AcDbLine
 10
2633.0
 20
4592.161165235168
 11
2633.0
 21
4553.028896810425
  0
LINE
  5
13A
100
AcDbEntity
  8
1
  6
CONTINUOUS
 62
           7
100
AcDbLine
 10
2663.5
 20
4498.5
 11
2663.5
 21
4571.5
  0
LINE
  5
139
100
AcDbEntity
  8
1
  6
CONTINUOUS
 62
           7
100
AcDbLine
 10
2680.0
 20
4519.443650813897
 11
2680.0
 21
4563.482374189476
  0
LINE
  5
138
100
AcDbEntity
  8
1
  6
CONTINUOUS
 62
           7
100
AcDbLine
 10
2680.0
 20
4519.443650813897
 11
2663.5
 21
4519.443650813897
  0
LINE
  5
137
100
AcDbEntity
  8
1
  6
CONTINUOUS
 62
           7
100
AcDbLine
 10
2680.0
 20
4563.482374189476
 11
2663.5
 21
4563.482374189476
  0
LINE
  5
136
100
AcDbEntity
  8
1
  6
CONTINUOUS
 62
           7
100
AcDbLine
 10
2596.0
 20
4605.0
 11
2550.0
 21
4605.0
  0
LINE
  5
135
100
AcDbEntity
  8
1
  6
CONTINUOUS
 62
           7
100
AcDbLine
 10
2596.0
 20
4465.0
 11
2550.0
 21
4465.0
  0
LINE
  5
134
100
AcDbEntity
  8
1
  6
CONTINUOUS
 62
           7
100
AcDbLine
 10
2562.0
 20
4507.783322010193
 11
2613.338834764831
 21
4507.783322010193
  0
LINE
  5
133
100
AcDbEntity
  8
1
  6
CONTINUOUS
 62
           7
100
AcDbLine
 10
2613.338834764831
 20
4507.783322010193
 11
2618.0
 21
4516.971103189579
  0
LINE
  5
132
100
AcDbEntity
  8
1
  6
CONTINUOUS
 62
           7
100
AcDbLine
 10
2613.338834764831
 20
4507.783322010193
 11
2613.338834764831
 21
4587.5
  0
LINE
  5
131
100
AcDbEntity
  8
1
  6
CONTINUOUS
 62
           7
100
AcDbLine
 10
2618.0
 20
4516.971103189579
 11
2633.0
 21
4516.971103189579
  0
LINE
  5
130
100
AcDbEntity
  8
1
  6
CONTINUOUS
 62
           7
100
AcDbLine
 10
2633.0
 20
4516.971103189579
 11
2633.0
 21
4477.838834764832
  0
LINE
  5
12F
100
AcDbEntity
  8
1
  6
CONTINUOUS
 62
           7
100
AcDbLine
 10
2562.0
 20
4518.0
 11
2562.0
 21
4485.328579645837
  0
LINE
  5
12E
100
AcDbEntity
  8
1
  6
CONTINUOUS
 62
           7
100
AcDbLine
 10
2562.0
 20
4552.0
 11
2579.0
 21
4552.0
  0
LINE
  5
12D
100
AcDbEntity
  8
1
  6
CONTINUOUS
 62
           7
100
AcDbLine
 10
2562.0
 20
4518.0
 11
2579.0
 21
4518.0
  0
LINE
  5
12C
100
AcDbEntity
  8
1
  6
DOT_CENTER
 62
           2
100
AcDbLine
 10
-2430.912924024839
 20
4685.0
 11
2511.954190667042
 21
4685.0
  0
LINE
  5
12B
100
AcDbEntity
  8
1
  6
DOT_CENTER
 62
           2
100
AcDbLine
 10
0.0
 20
3342.695202158873
 11
0.0
 21
-121.234205307357
  0
LINE
  5
12A
100
AcDbEntity
  8
1
  6
CONTINUOUS
 62
           2
100
AcDbLine
 10
-980.000000000001
 20
5415.0
 11
-603.938614456554
 21
5415.0
  0
LINE
  5
129
100
AcDbEntity
  8
1
  6
CONTINUOUS
 62
           2
100
AcDbLine
 10
-980.000000000001
 20
5455.0
 11
-641.099621146522
 21
5455.0
  0
LINE
  5
128
100
AcDbEntity
  8
1
  6
CONTINUOUS
 62
           7
100
AcDbLine
 10
-2550.0
 20
4435.0
 11
-2550.0
 21
6435.0
  0
LINE
  5
127
100
AcDbEntity
  8
1
  6
CONTINUOUS
 62
           7
100
AcDbLine
 10
2550.0
 20
6435.0
 11
2550.0
 21
4435.0
  0
LINE
  5
126
100
AcDbEntity
  8
1
  6
CONTINUOUS
 62
           7
100
AcDbLine
 10
2550.0
 20
6435.0
 11
0.0
 21
6435.0
  0
LINE
  5
125
100
AcDbEntity
  8
1
  6
CONTINUOUS
 62
           2
100
AcDbLine
 10
-1020.0
 20
5415.0
 11
-2480.0
 21
5415.0
  0
LINE
  5
124
100
AcDbEntity
  8
1
  6
CONTINUOUS
 62
           2
100
AcDbLine
 10
-1020.0
 20
6415.0
 11
-2480.0
 21
6415.0
  0
LINE
  5
123
100
AcDbEntity
  8
1
  6
CONTINUOUS
 62
           2
100
AcDbLine
 10
-1020.0
 20
5455.0
 11
-1020.0
 21
6415.0
  0
LINE
  5
122
100
AcDbEntity
  8
1
  6
CONTINUOUS
 62
           2
100
AcDbLine
 10
-980.000000000001
 20
5455.0
 11
-980.000000000001
 21
6415.0
  0
LINE
  5
121
100
AcDbEntity
  8
1
  6
CONTINUOUS
 62
           2
100
AcDbLine
 10
-1020.0
 20
4485.0
 11
-1020.0
 21
5415.0
  0
LINE
  5
120
100
AcDbEntity
  8
1
  6
CONTINUOUS
 62
           7
100
AcDbLine
 10
-1000.0
 20
4485.0
 11
-1000.0
 21
6435.0
  0
LINE
  5
11F
100
AcDbEntity
  8
1
  6
CONTINUOUS
 62
           2
100
AcDbLine
 10
-980.000000000001
 20
4485.0
 11
-980.000000000001
 21
5415.0
  0
LINE
  5
11E
100
AcDbEntity
  8
1
  6
CONTINUOUS
 62
           2
100
AcDbLine
 10
979.999999999999
 20
5415.0
 11
979.999999999999
 21
4485.0
  0
LINE
  5
11D
100
AcDbEntity
  8
1
  6
CONTINUOUS
 62
           2
100
AcDbLine
 10
979.999999999999
 20
6415.0
 11
979.999999999999
 21
5455.0
  0
LINE
  5
11C
100
AcDbEntity
  8
1
  6
CONTINUOUS
 62
           2
100
AcDbLine
 10
1020.0
 20
6415.0
 11
1020.0
 21
5455.0
  0
LINE
  5
11B
100
AcDbEntity
  8
1
  6
CONTINUOUS
 62
           2
100
AcDbLine
 10
1020.0
 20
5415.0
 11
1020.0
 21
4485.0
  0
LINE
  5
11A
100
AcDbEntity
  8
1
  6
CONTINUOUS
 62
           7
100
AcDbLine
 10
999.999999999999
 20
6435.0
 11
999.999999999999
 21
4485.0
  0
LINE
  5
119
100
AcDbEntity
  8
1
  6
CONTINUOUS
 62
           7
100
AcDbLine
 10
-1015.0
 20
540.0
 11
-2485.0
 21
540.0
  0
LINE
  5
118
100
AcDbEntity
  8
1
  6
CONTINUOUS
 62
           7
100
AcDbLine
 10
984.999999999999
 20
540.0
 11
-985.000000000001
 21
540.0
  0
LINE
  5
117
100
AcDbEntity
  8
1
  6
CONTINUOUS
 62
           7
100
AcDbLine
 10
2500.0
 20
400.0
 11
-2500.0
 21
400.0
  0
LINE
  5
116
100
AcDbEntity
  8
1
  6
CONTINUOUS
 62
           7
100
AcDbLine
 10
-985.000000000001
 20
540.0
 11
-985.000000000001
 21
475.000000000001
  0
LINE
  5
115
100
AcDbEntity
  8
1
  6
CONTINUOUS
 62
           2
100
AcDbLine
 10
-1020.0
 20
5455.0
 11
-2480.0
 21
5455.0
  0
LINE
  5
114
100
AcDbEntity
  8
1
  6
CONTINUOUS
 62
           2
100
AcDbLine
 10
-2504.0
 20
6435.0
 11
-2504.0
 21
4485.0
  0
LINE
  5
113
100
AcDbEntity
  8
1
  6
CONTINUOUS
 62
           2
100
AcDbLine
 10
2480.0
 20
5455.0
 11
1020.0
 21
5455.0
  0
LINE
  5
112
100
AcDbEntity
  8
1
  6
CONTINUOUS
 62
           2
100
AcDbLine
 10
2480.0
 20
6415.0
 11
1020.0
 21
6415.0
  0
LINE
  5
111
100
AcDbEntity
  8
1
  6
CONTINUOUS
 62
           2
100
AcDbLine
 10
2504.0
 20
6435.0
 11
2504.0
 21
4485.0
  0
LINE
  5
110
100
AcDbEntity
  8
1
  6
CONTINUOUS
 62
           2
100
AcDbLine
 10
2480.0
 20
5415.0
 11
1020.0
 21
5415.0
  0
LINE
  5
10F
100
AcDbEntity
  8
1
  6
CONTINUOUS
 62
           2
100
AcDbLine
 10
2480.0
 20
5415.0
 11
2480.0
 21
4485.0
  0
LINE
  5
10E
100
AcDbEntity
  8
1
  6
CONTINUOUS
 62
           2
100
AcDbLine
 10
519.999999999999
 20
6415.0
 11
979.999999999999
 21
6415.0
  0
LINE
  5
10D
100
AcDbEntity
  8
1
  6
CONTINUOUS
 62
           2
100
AcDbLine
 10
2480.0
 20
6415.0
 11
2480.0
 21
5455.0
  0
LINE
  5
10C
100
AcDbEntity
  8
1
  6
CONTINUOUS
 62
           7
100
AcDbLine
 10
2485.0
 20
540.0
 11
1015.0
 21
540.0
  0
LINE
  5
10B
100
AcDbEntity
  8
1
  6
DOT_CENTER
 62
           2
100
AcDbLine
 10
6510.0
 20
1887.309178624823
 11
6510.0
 21
3342.695202158873
  0
LINE
  5
10A
100
AcDbEntity
  8
1
  6
CONTINUOUS
 62
           7
100
AcDbLine
 10
-2500.0
 20
500.0
 11
-2485.0
 21
500.0
  0
LINE
  5
109
100
AcDbEntity
  8
1
  6
CONTINUOUS
 62
           7
100
AcDbLine
 10
2485.0
 20
500.0
 11
2500.0
 21
500.0
  0
LINE
  5
108
100
AcDbEntity
  8
1
  6
CONTINUOUS
 62
           7
100
AcDbLine
 10
-2500.0
 20
800.0
 11
2500.0
 21
800.0
  0
LINE
  5
107
100
AcDbEntity
  8
1
  6
CONTINUOUS
 62
           7
100
AcDbLine
 10
2485.0
 20
540.0
 11
2485.0
 21
475.000000000001
  0
LINE
  5
106
100
AcDbEntity
  8
1
  6
CONTINUOUS
 62
           7
100
AcDbLine
 10
2500.0
 20
50.0
 11
-2500.0
 21
50.0
  0
LINE
  5
105
100
AcDbEntity
  8
1
  6
CONTINUOUS
 62
           2
100
AcDbLine
 10
2500.0
 20
1900.0
 11
-2500.0
 21
1900.0
  0
LINE
  5
104
100
AcDbEntity
  8
1
  6
CONTINUOUS
 62
           7
100
AcDbLine
 10
2500.0
 20
0.0
 11
2500.0
 21
2000.0
  0
LINE
  5
103
100
AcDbEntity
  8
1
  6
CONTINUOUS
 62
           7
100
AcDbLine
 10
-2500.0
 20
0.0
 11
-2500.0
 21
2000.0
  0
LINE
  5
102
100
AcDbEntity
  8
1
  6
CONTINUOUS
 62
           7
100
AcDbLine
 10
2550.0
 20
2000.0
 11
-2550.0
 21
2000.0
  0
LINE
  5
101
100
AcDbEntity
  8
1
  6
CONTINUOUS
 62
           7
100
AcDbLine
 10
-2550.0
 20
2150.0
 11
-2550.0
 21
0.0
  0
LINE
  5
100
100
AcDbEntity
  8
1
  6
CONTINUOUS
 62
           7
100
AcDbLine
 10
2550.0
 20
2150.0
 11
-2550.0
 21
2150.0
  0
LINE
  5
FF
100
AcDbEntity
  8
1
  6
CONTINUOUS
 62
           7
100
AcDbLine
 10
2550.0
 20
0.0
 11
2550.0
 21
2150.0
  0
LINE
  5
FE
100
AcDbEntity
  8
1
  6
CONTINUOUS
 62
           2
100
AcDbLine
 10
519.999999999999
 20
5455.0
 11
979.999999999999
 21
5455.0
  0
LINE
  5
FD
100
AcDbEntity
  8
1
  6
CONTINUOUS
 62
           2
100
AcDbLine
 10
-2480.0
 20
5455.0
 11
-2480.0
 21
6415.0
  0
LINE
  5
FC
100
AcDbEntity
  8
1
  6
CONTINUOUS
 62
           7
100
AcDbLine
 10
499.999999999999
 20
5435.0
 11
499.999999999999
 21
5510.927357258017
  0
LINE
  5
FB
100
AcDbEntity
  8
1
  6
CONTINUOUS
 62
           7
100
AcDbLine
 10
2500.0
 20
4485.0
 11
2500.0
 21
6435.0
  0
LINE
  5
FA
100
AcDbEntity
  8
1
  6
CONTINUOUS
 62
           7
100
AcDbLine
 10
-2500.0
 20
4485.0
 11
-2500.0
 21
6435.0
  0
LINE
  5
F9
100
AcDbEntity
  8
1
  6
CONTINUOUS
 62
           2
100
AcDbLine
 10
-2480.0
 20
5415.0
 11
-2480.0
 21
4485.0
  0
LINE
  5
F8
100
AcDbEntity
  8
1
  6
CONTINUOUS
 62
           7
100
AcDbLine
 10
-2550.0
 20
4485.0
 11
2550.0
 21
4485.0
  0
LINE
  5
F7
100
AcDbEntity
  8
1
  6
CONTINUOUS
 62
           7
100
AcDbLine
 10
-2550.0
 20
4435.0
 11
2550.0
 21
4435.0
  0
LINE
  5
F6
100
AcDbEntity
  8
1
  6
CONTINUOUS
 62
           7
100
AcDbLine
 10
3050.0
 20
0.0
 11
-3050.0
 21
0.0
  0
LINE
  5
F5
100
AcDbEntity
  8
1
  6
CONTINUOUS
 62
           7
100
AcDbLine
 10
-2485.0
 20
475.000000000001
 11
-2485.0
 21
540.0
  0
LINE
  5
F4
100
AcDbEntity
  8
1
  6
CONTINUOUS
 62
           7
100
AcDbLine
 10
-1015.0
 20
475.000000000001
 11
-1015.0
 21
540.0
  0
LINE
  5
F3
100
AcDbEntity
  8
1
  6
CONTINUOUS
 62
           7
100
AcDbLine
 10
-1015.0
 20
500.0
 11
-985.000000000001
 21
500.0
  0
LINE
  5
F2
100
AcDbEntity
  8
1
  6
CONTINUOUS
 62
           7
100
AcDbLine
 10
985.0
 20
475.000000000001
 11
984.999999999999
 21
540.0
  0
LINE
  5
F1
100
AcDbEntity
  8
1
  6
CONTINUOUS
 62
           7
100
AcDbLine
 10
1015.0
 20
540.0
 11
1015.0
 21
475.000000000001
  0
LINE
  5
F0
100
AcDbEntity
  8
1
  6
CONTINUOUS
 62
           7
100
AcDbLine
 10
984.999999999999
 20
500.0
 11
1015.0
 21
500.0
  0
LINE
  5
EF
100
AcDbEntity
  8
1
  6
CONTINUOUS
 62
           7
100
AcDbLine
 10
-1000.0
 20
475.000000000001
 11
-1000.0
 21
400.0
  0
LINE
  5
EE
100
AcDbEntity
  8
1
  6
CONTINUOUS
 62
           7
100
AcDbLine
 10
1000.0
 20
475.000000000001
 11
1000.0
 21
400.0
  0
LINE
  5
ED
100
AcDbEntity
  8
1
  6
CONTINUOUS
 62
           7
100
AcDbLine
 10
5344.177669529662
 20
1446.500000000002
 11
5361.971103189576
 21
1464.293433659912
  0
LINE
  5
EC
100
AcDbEntity
  8
1
  6
CONTINUOUS
 62
           7
100
AcDbLine
 10
5326.499999999998
 20
1535.822330470342
 11
5344.293433659914
 21
1518.028896810421
  0
LINE
  5
EB
100
AcDbEntity
  8
1
  6
CONTINUOUS
 62
           7
100
AcDbLine
 10
5415.822330470337
 20
1553.500000000002
 11
5398.028896810423
 21
1535.706566340092
  0
LINE
  5
EA
100
AcDbEntity
  8
1
  6
CONTINUOUS
 62
           7
100
AcDbLine
 10
5326.499999999998
 20
1464.177669529661
 11
5344.293433659914
 21
1481.971103189571
  0
LINE
  5
E9
100
AcDbEntity
  8
1
  6
CONTINUOUS
 62
           7
100
AcDbLine
 10
5344.177669529662
 20
1553.500000000002
 11
5361.971103189576
 21
1535.706566340092
  0
LINE
  5
E8
100
AcDbEntity
  8
1
  6
CONTINUOUS
 62
           7
100
AcDbLine
 10
5433.499999999998
 20
1535.822330470342
 11
5415.706566340088
 21
1518.028896810421
  0
LINE
  5
E7
100
AcDbEntity
  8
1
  6
CONTINUOUS
 62
           7
100
AcDbLine
 10
5415.822330470337
 20
1446.500000000002
 11
5398.028896810423
 21
1464.293433659912
  0
LINE
  5
E6
100
AcDbEntity
  8
1
  6
CONTINUOUS
 62
           7
100
AcDbLine
 10
5433.499999999998
 20
1464.177669529661
 11
5415.706566340088
 21
1481.971103189571
  0
LINE
  5
E5
100
AcDbEntity
  8
1
  6
CONTINUOUS
 62
           7
100
AcDbLine
 10
5339.999999999998
 20
1570.000000000002
 11
5339.999999999998
 21
1556.259593518791
  0
LINE
  5
E4
100
AcDbEntity
  8
1
  6
CONTINUOUS
 62
           7
100
AcDbLine
 10
5339.999999999998
 20
1570.000000000002
 11
5396.999999999998
 21
1570.000000000002
  0
LINE
  5
E3
100
AcDbEntity
  8
1
  6
CONTINUOUS
 62
           7
100
AcDbLine
 10
5419.999999999998
 20
1430.000000000002
 11
5419.999999999998
 21
1443.740406481202
  0
LINE
  5
E2
100
AcDbEntity
  8
1
  6
CONTINUOUS
 62
           7
100
AcDbLine
 10
5362.999999999998
 20
1570.000000000002
 11
5362.999999999998
 21
1549.671420354162
  0
LINE
  5
E1
100
AcDbEntity
  8
1
  6
CONTINUOUS
 62
           7
100
AcDbLine
 10
5396.999999999998
 20
1549.671420354162
 11
5396.999999999998
 21
1570.000000000002
  0
LINE
  5
E0
100
AcDbEntity
  8
1
  6
CONTINUOUS
 62
           7
100
AcDbLine
 10
5396.999999999998
 20
1430.000000000002
 11
5396.999999999998
 21
1450.328579645831
  0
LINE
  5
DF
100
AcDbEntity
  8
1
  6
CONTINUOUS
 62
           7
100
AcDbLine
 10
5362.999999999998
 20
1430.000000000002
 11
5419.999999999998
 21
1430.000000000002
  0
LINE
  5
DE
100
AcDbEntity
  8
1
  6
CONTINUOUS
 62
           7
100
AcDbLine
 10
5362.999999999998
 20
1450.328579645831
 11
5362.999999999998
 21
1430.000000000002
  0
LINE
  5
DD
100
AcDbEntity
  8
1
  6
CONTINUOUS
 62
           2
100
AcDbLine
 10
5069.999999999998
 20
1330.000000000002
 11
5069.999999999998
 21
20.000000000002
  0
LINE
  5
DC
100
AcDbEntity
  8
1
  6
CONTINUOUS
 62
           2
100
AcDbLine
 10
5529.999999999998
 20
1670.000000000002
 11
5529.999999999998
 21
1980.000000000002
  0
LINE
  5
DB
100
AcDbEntity
  8
1
  6
CONTINUOUS
 62
           7
100
AcDbLine
 10
5049.999999999998
 20
1670.000000000002
 11
5550.0
 21
1670.000000000002
  0
LINE
  5
DA
100
AcDbEntity
  8
1
  6
CONTINUOUS
 62
           7
100
AcDbLine
 10
5049.999999999998
 20
1330.000000000002
 11
5550.0
 21
1330.000000000002
  0
LINE
  5
D9
100
AcDbEntity
  8
1
  6
CONTINUOUS
 62
           7
100
AcDbLine
 10
5132.999999999998
 20
1450.328579645831
 11
5132.999999999998
 21
1430.000000000002
  0
LINE
  5
D8
100
AcDbEntity
  8
1
  6
CONTINUOUS
 62
           7
100
AcDbLine
 10
5132.999999999998
 20
1430.000000000002
 11
5189.999999999998
 21
1430.000000000002
  0
LINE
  5
D7
100
AcDbEntity
  8
1
  6
CONTINUOUS
 62
           7
100
AcDbLine
 10
5166.999999999998
 20
1430.000000000002
 11
5166.999999999998
 21
1450.328579645831
  0
LINE
  5
D6
100
AcDbEntity
  8
1
  6
CONTINUOUS
 62
           7
100
AcDbLine
 10
5166.999999999998
 20
1549.671420354162
 11
5166.999999999998
 21
1570.000000000002
  0
LINE
  5
D5
100
AcDbEntity
  8
1
  6
CONTINUOUS
 62
           7
100
AcDbLine
 10
5132.999999999998
 20
1570.000000000002
 11
5132.999999999998
 21
1549.671420354162
  0
LINE
  5
D4
100
AcDbEntity
  8
1
  6
CONTINUOUS
 62
           7
100
AcDbLine
 10
5189.999999999998
 20
1430.000000000002
 11
5189.999999999998
 21
1443.740406481202
  0
LINE
  5
D3
100
AcDbEntity
  8
1
  6
CONTINUOUS
 62
           7
100
AcDbLine
 10
5109.999999999998
 20
1570.000000000002
 11
5166.999999999998
 21
1570.000000000002
  0
LINE
  5
D2
100
AcDbEntity
  8
1
  6
CONTINUOUS
 62
           7
100
AcDbLine
 10
5109.999999999998
 20
1570.000000000002
 11
5109.999999999998
 21
1556.259593518791
  0
LINE
  5
D1
100
AcDbEntity
  8
1
  6
CONTINUOUS
 62
           7
100
AcDbLine
 10
5203.499999999998
 20
1464.177669529661
 11
5185.706566340087
 21
1481.971103189571
  0
LINE
  5
D0
100
AcDbEntity
  8
1
  6
CONTINUOUS
 62
           7
100
AcDbLine
 10
5185.822330470336
 20
1446.500000000002
 11
5168.028896810424
 21
1464.293433659912
  0
LINE
  5
CF
100
AcDbEntity
  8
1
  6
CONTINUOUS
 62
           7
100
AcDbLine
 10
5203.499999999998
 20
1535.822330470342
 11
5185.706566340087
 21
1518.028896810421
  0
LINE
  5
CE
100
AcDbEntity
  8
1
  6
CONTINUOUS
 62
           7
100
AcDbLine
 10
5114.177669529662
 20
1553.500000000002
 11
5131.971103189576
 21
1535.706566340092
  0
LINE
  5
CD
100
AcDbEntity
  8
1
  6
CONTINUOUS
 62
           7
100
AcDbLine
 10
5096.499999999998
 20
1464.177669529661
 11
5114.293433659914
 21
1481.971103189571
  0
LINE
  5
CC
100
AcDbEntity
  8
1
  6
CONTINUOUS
 62
           7
100
AcDbLine
 10
5185.822330470336
 20
1553.500000000002
 11
5168.028896810424
 21
1535.706566340092
  0
LINE
  5
CB
100
AcDbEntity
  8
1
  6
CONTINUOUS
 62
           7
100
AcDbLine
 10
5096.499999999998
 20
1535.822330470342
 11
5114.293433659914
 21
1518.028896810421
  0
LINE
  5
CA
100
AcDbEntity
  8
1
  6
CONTINUOUS
 62
           7
100
AcDbLine
 10
5114.177669529662
 20
1446.500000000002
 11
5131.971103189576
 21
1464.293433659912
  0
LINE
  5
C9
100
AcDbEntity
  8
1
  6
CONTINUOUS
 62
           7
100
AcDbLine
 10
5158.72599018079
 20
1496.930864068701
 11
5180.970921683688
 21
1474.685932565802
  0
LINE
  5
C8
100
AcDbEntity
  8
1
  6
CONTINUOUS
 62
           7
100
AcDbLine
 10
5153.069135931297
 20
1491.274009819212
 11
5175.314067434195
 21
1469.029078316311
  0
LINE
  5
C7
100
AcDbEntity
  8
1
  6
CONTINUOUS
 62
           7
100
AcDbLine
 10
5137.272077938644
 20
1515.556349186101
 11
5146.930864068703
 21
1508.725990180781
  0
LINE
  5
C6
100
AcDbEntity
  8
1
  6
CONTINUOUS
 62
           7
100
AcDbLine
 10
5134.443650813896
 20
1512.727922061362
 11
5141.274009819212
 21
1503.069135931302
  0
LINE
  5
C5
100
AcDbEntity
  8
1
  6
CONTINUOUS
 62
           7
100
AcDbLine
 10
5137.272077938644
 20
1515.556349186101
 11
5134.443650813896
 21
1512.727922061362
  0
LINE
  5
C4
100
AcDbEntity
  8
1
  6
DOT_CENTER
 62
           2
100
AcDbLine
 10
5299.999999999998
 20
2213.047564257502
 11
5299.999999999998
 21
1935.440799157821
  0
LINE
  5
C3
100
AcDbEntity
  8
1
  6
CONTINUOUS
 62
           2
100
AcDbLine
 10
7030.0
 20
1980.000000000002
 11
6070.0
 21
1980.000000000002
  0
LINE
  5
C2
100
AcDbEntity
  8
1
  6
CONTINUOUS
 62
           2
100
AcDbLine
 10
7030.0
 20
520.000000000002
 11
7030.0
 21
1980.000000000002
  0
LINE
  5
C1
100
AcDbEntity
  8
1
  6
CONTINUOUS
 62
           2
100
AcDbLine
 10
6070.0
 20
520.000000000002
 11
7030.0
 21
520.000000000002
  0
LINE
  5
C0
100
AcDbEntity
  8
1
  6
CONTINUOUS
 62
           2
100
AcDbLine
 10
5570.0
 20
520.000000000002
 11
6030.0
 21
520.000000000002
  0
LINE
  5
BF
100
AcDbEntity
  8
1
  6
CONTINUOUS
 62
           2
100
AcDbLine
 10
5570.0
 20
1980.000000000002
 11
5570.0
 21
520.000000000002
  0
LINE
  5
BE
100
AcDbEntity
  8
1
  6
CONTINUOUS
 62
           2
100
AcDbLine
 10
6030.0
 20
1980.000000000002
 11
5570.0
 21
1980.000000000002
  0
LINE
  5
BD
100
AcDbEntity
  8
1
  6
CONTINUOUS
 62
           7
100
AcDbLine
 10
6050.0
 20
2000.000000000002
 11
6050.0
 21
2075.000000000002
  0
LINE
  5
BC
100
AcDbEntity
  8
1
  6
CONTINUOUS
 62
           2
100
AcDbLine
 10
7029.433325304559
 20
20.000000000002
 11
7029.433325304559
 21
479.385061529882
  0
LINE
  5
BB
100
AcDbEntity
  8
1
  6
CONTINUOUS
 62
           2
100
AcDbLine
 10
5570.0
 20
20.000000000002
 11
7029.433325304559
 21
20.000000000002
  0
LINE
  5
BA
100
AcDbEntity
  8
1
  6
CONTINUOUS
 62
           2
100
AcDbLine
 10
5570.0
 20
479.385061529882
 11
5570.0
 21
20.000000000002
  0
LINE
  5
B9
100
AcDbEntity
  8
1
  6
CONTINUOUS
 62
           2
100
AcDbLine
 10
7029.433325304559
 20
479.385061529882
 11
5570.0
 21
479.385061529882
  0
LINE
  5
B8
100
AcDbEntity
  8
1
  6
CONTINUOUS
 62
           7
100
AcDbLine
 10
5550.0
 20
500.000000000002
 11
7050.0
 21
500.000000000002
  0
LINE
  5
B7
100
AcDbEntity
  8
1
  6
CONTINUOUS
 62
           7
100
AcDbLine
 10
5550.0
 20
-0.000000000002
 11
5550.0
 21
2000.000000000002
  0
LINE
  5
B6
100
AcDbEntity
  8
1
  6
CONTINUOUS
 62
           2
100
AcDbLine
 10
5069.999999999998
 20
1980.000000000002
 11
5069.999999999998
 21
1670.000000000002
  0
LINE
  5
B5
100
AcDbEntity
  8
1
  6
CONTINUOUS
 62
           2
100
AcDbLine
 10
5529.999999999998
 20
1980.000000000002
 11
5069.999999999998
 21
1980.000000000002
  0
LINE
  5
B4
100
AcDbEntity
  8
1
  6
CONTINUOUS
 62
           2
100
AcDbLine
 10
5529.999999999998
 20
20.000000000002
 11
5529.999999999998
 21
1330.000000000002
  0
LINE
  5
B3
100
AcDbEntity
  8
1
  6
CONTINUOUS
 62
           2
100
AcDbLine
 10
5069.999999999998
 20
20.000000000002
 11
5529.999999999998
 21
20.000000000002
  0
LINE
  5
B2
100
AcDbEntity
  8
1
  6
CONTINUOUS
 62
           7
100
AcDbLine
 10
5049.999999999998
 20
-0.000000000002
 11
5049.999999999998
 21
2150.000000000002
  0
LINE
  5
B1
100
AcDbEntity
  8
1
  6
CONTINUOUS
 62
           7
100
AcDbLine
 10
7050.0
 20
-0.000000000002
 11
7050.0
 21
2075.000000000002
  0
LINE
  5
B0
100
AcDbEntity
  8
1
  6
CONTINUOUS
 62
           7
100
AcDbLine
 10
7050.0
 20
2000.000000000002
 11
5049.999999999998
 21
2000.000000000002
  0
LINE
  5
AF
100
AcDbEntity
  8
1
  6
CONTINUOUS
 62
           7
100
AcDbLine
 10
5049.999999999998
 20
2150.000000000002
 11
5099.999999999998
 21
2150.000000000002
  0
LINE
  5
AE
100
AcDbEntity
  8
1
  6
CONTINUOUS
 62
           7
100
AcDbLine
 10
5099.999999999998
 20
2120.000000000002
 11
5099.999999999998
 21
2150.000000000002
  0
LINE
  5
AD
100
AcDbEntity
  8
1
  6
CONTINUOUS
 62
           2
100
AcDbLine
 10
5049.999999999998
 20
2004.000000000002
 11
7050.0
 21
2004.000000000002
  0
LINE
  5
AC
100
AcDbEntity
  8
1
  6
CONTINUOUS
 62
           7
100
AcDbLine
 10
5049.999999999998
 20
2050.000000000002
 11
7050.0
 21
2050.000000000002
  0
LINE
  5
AB
100
AcDbEntity
  8
1
  6
CONTINUOUS
 62
           7
100
AcDbLine
 10
6050.0
 20
2075.000000000002
 11
7050.0
 21
2075.000000000002
  0
LINE
  5
AA
100
AcDbEntity
  8
1
  6
DOT_CENTER
 62
           2
100
AcDbLine
 10
6275.0
 20
600.000000000002
 11
6425.0
 21
600.000000000002
  0
LINE
  5
A9
100
AcDbEntity
  8
1
  6
DOT_CENTER
 62
           2
100
AcDbLine
 10
6350.0
 20
675.000000000002
 11
6350.0
 21
525.000000000002
  0
LINE
  5
A8
100
AcDbEntity
  8
1
  6
CONTINUOUS
 62
           7
100
AcDbLine
 10
7549.999999999998
 20
-0.000000000002
 11
4549.999999999998
 21
-0.000000000002
  0
LINE
  5
A7
100
AcDbEntity
  8
1
  6
CONTINUOUS
 62
           7
100
AcDbLine
 10
5393.749999999998
 20
1537.562448003291
 11
5393.749999999998
 21
1462.437551996713
  0
LINE
  5
A6
100
AcDbEntity
  8
1
  6
CONTINUOUS
 62
           7
100
AcDbLine
 10
5366.249999999998
 20
1537.562448003291
 11
5366.249999999998
 21
1462.437551996713
  0
LINE
  5
A5
100
AcDbEntity
  8
1
  6
CONTINUOUS
 62
           7
100
AcDbLine
 10
5289.999999999998
 20
1862.000000000004
 11
5289.999999999998
 21
1950.000000000004
  0
LINE
  5
A4
100
AcDbEntity
  8
1
  6
CONTINUOUS
 62
           7
100
AcDbLine
 10
5099.999999999998
 20
1862.000000000004
 11
5289.999999999998
 21
1862.000000000004
  0
LINE
  5
A3
100
AcDbEntity
  8
1
  6
CONTINUOUS
 62
           7
100
AcDbLine
 10
5099.999999999998
 20
1950.000000000004
 11
5099.999999999998
 21
1862.000000000004
  0
LINE
  5
A2
100
AcDbEntity
  8
1
  6
CONTINUOUS
 62
           7
100
AcDbLine
 10
5289.999999999998
 20
1950.000000000004
 11
5099.999999999998
 21
1950.000000000004
  0
LINE
  5
A1
100
AcDbEntity
  8
1
  6
CONTINUOUS
 62
           7
100
AcDbLine
 10
5779.999999999998
 20
1330.000000000004
 11
5599.999999999998
 21
1330.000000000004
  0
LINE
  5
A0
100
AcDbEntity
  8
1
  6
CONTINUOUS
 62
           7
100
AcDbLine
 10
5599.999999999998
 20
1570.000000000004
 11
5779.999999999998
 21
1570.000000000004
  0
LINE
  5
9F
100
AcDbEntity
  8
1
  6
CONTINUOUS
 62
           7
100
AcDbLine
 10
5599.999999999998
 20
1330.000000000004
 11
5599.999999999998
 21
1570.000000000004
  0
LINE
  5
9E
100
AcDbEntity
  8
1
  6
CONTINUOUS
 62
           7
100
AcDbLine
 10
-814.000000000004
 20
6435.0
 11
-2550.0
 21
6435.0
  0
LINE
  5
9D
100
AcDbEntity
  8
1
  6
CONTINUOUS
 62
           2
100
AcDbLine
 10
-823.000000000004
 20
6415.0
 11
-980.000000000001
 21
6415.0
  0
LINE
  5
9C
100
AcDbEntity
  8
1
  6
CONTINUOUS
 62
           7
100
AcDbLine
 10
-623.19685970583
 20
5435.0
 11
-2550.0
 21
5435.0
  0
LINE
  5
9B
100
AcDbEntity
  8
1
  6
CONTINUOUS
 62
           7
100
AcDbLine
 10
446.624322731383
 20
5435.0
 11
2550.0
 21
5435.0
  0
LINE
  5
9A
100
AcDbEntity
  8
1
  6
CONTINUOUS
 62
           2
100
AcDbLine
 10
429.557347924135
 20
5415.0
 11
979.999999999999
 21
5415.0
  0
LINE
  5
99
100
AcDbEntity
  8
1
  6
CONTINUOUS
 62
           2
100
AcDbLine
 10
519.999999999999
 20
5546.908807219442
 11
519.999999999999
 21
5455.0
  0
LINE
  5
98
100
AcDbEntity
  8
1
  6
CONTINUOUS
 62
           7
100
AcDbLine
 10
499.999999999999
 20
6126.486630933534
 11
499.999999999999
 21
6435.0
  0
LINE
  5
97
100
AcDbEntity
  8
1
  6
CONTINUOUS
 62
           2
100
AcDbLine
 10
519.999999999999
 20
6415.0
 11
519.999999999999
 21
6103.32792990144
  0
LINE
  5
96
100
AcDbEntity
  8
1
  6
DOT_CENTER
 62
           2
100
AcDbLine
 10
-841.592492016163
 20
5895.0
 11
609.277679316332
 21
5895.0
  0
LINE
  5
95
100
AcDbEntity
  8
1
  6
CONTINUOUS
 62
           7
100
AcDbLine
 10
5174.000000000002
 20
2050.000000000001
 11
5174.000000000002
 21
2136.000000000001
  0
LINE
  5
94
100
AcDbEntity
  8
1
  6
CONTINUOUS
 62
           7
100
AcDbLine
 10
5174.000000000002
 20
2136.000000000001
 11
5426.000000000002
 21
2136.000000000001
  0
LINE
  5
93
100
AcDbEntity
  8
1
  6
CONTINUOUS
 62
           7
100
AcDbLine
 10
5426.000000000002
 20
2136.000000000001
 11
5426.000000000002
 21
2050.000000000001
  0
LINE
  5
92
100
AcDbEntity
  8
1
  6
CONTINUOUS
 62
           7
100
AcDbLine
 10
5255.000000000002
 20
2184.000000000001
 11
5345.000000000002
 21
2184.000000000001
  0
LINE
  5
91
100
AcDbEntity
  8
1
  6
CONTINUOUS
 62
           7
100
AcDbLine
 10
5262.500000000002
 20
2155.683280999347
 11
5262.500000000002
 21
2136.000000000001
  0
LINE
  5
90
100
AcDbEntity
  8
1
  6
CONTINUOUS
 62
           7
100
AcDbLine
 10
5337.500000000002
 20
2155.683280999347
 11
5337.500000000002
 21
2136.000000000001
  0
LINE
  5
8F
100
AcDbEntity
  8
1
  6
CONTINUOUS
 62
           7
100
AcDbLine
 10
5237.500000000002
 20
2171.000000000001
 11
5255.000000000002
 21
2171.000000000001
  0
LINE
  5
8E
100
AcDbEntity
  8
1
  6
CONTINUOUS
 62
           7
100
AcDbLine
 10
5237.500000000002
 20
2136.000000000001
 11
5237.500000000002
 21
2171.000000000001
  0
LINE
  5
8D
100
AcDbEntity
  8
1
  6
CONTINUOUS
 62
           7
100
AcDbLine
 10
5362.500000000002
 20
2171.000000000001
 11
5345.000000000002
 21
2171.000000000001
  0
LINE
  5
8C
100
AcDbEntity
  8
1
  6
CONTINUOUS
 62
           7
100
AcDbLine
 10
5362.500000000002
 20
2136.000000000001
 11
5362.500000000002
 21
2171.000000000001
  0
LINE
  5
8B
100
AcDbEntity
  8
1
  6
CONTINUOUS
 62
           7
100
AcDbLine
 10
5345.000000000002
 20
2171.000000000001
 11
5345.000000000002
 21
2188.000000000001
  0
LINE
  5
8A
100
AcDbEntity
  8
1
  6
CONTINUOUS
 62
           7
100
AcDbLine
 10
5337.000000000002
 20
2196.000000000001
 11
5263.000000000002
 21
2196.000000000001
  0
LINE
  5
89
100
AcDbEntity
  8
1
  6
CONTINUOUS
 62
           7
100
AcDbLine
 10
5255.000000000002
 20
2171.000000000001
 11
5255.000000000002
 21
2188.000000000001
  0
LINE
  5
88
100
AcDbEntity
  8
1
  6
CONTINUOUS
 62
           7
100
AcDbLine
 10
5315.000000000002
 20
2136.000000000001
 11
5315.000000000002
 21
2156.000000000001
  0
LINE
  5
87
100
AcDbEntity
  8
1
  6
CONTINUOUS
 62
           7
100
AcDbLine
 10
5285.000000000002
 20
2136.000000000001
 11
5285.000000000002
 21
2156.000000000001
  0
LINE
  5
86
100
AcDbEntity
  8
1
  6
CONTINUOUS
 62
           7
100
AcDbLine
 10
666.000000000002
 20
4508.999999999999
 11
-665.999999999995
 21
4508.999999999999
  0
LINE
  5
85
100
AcDbEntity
  8
1
  6
CONTINUOUS
 62
           7
100
AcDbLine
 10
-665.999999999995
 20
4508.999999999999
 11
-665.999999999995
 21
4861.000000000001
  0
LINE
  5
84
100
AcDbEntity
  8
1
  6
CONTINUOUS
 62
           7
100
AcDbLine
 10
616.000000000002
 20
4558.999999999999
 11
-615.999999999995
 21
4558.999999999999
  0
LINE
  5
83
100
AcDbEntity
  8
1
  6
CONTINUOUS
 62
           7
100
AcDbLine
 10
-615.999999999995
 20
4558.999999999999
 11
-615.999999999995
 21
4811.000000000001
  0
LINE
  5
82
100
AcDbEntity
  8
1
  6
CONTINUOUS
 62
           7
100
AcDbLine
 10
-615.999999999995
 20
4811.000000000001
 11
616.000000000002
 21
4811.000000000001
  0
LINE
  5
81
100
AcDbEntity
  8
1
  6
CONTINUOUS
 62
           7
100
AcDbLine
 10
616.000000000002
 20
4811.000000000001
 11
616.000000000002
 21
4558.999999999999
  0
LINE
  5
80
100
AcDbEntity
  8
1
  6
CONTINUOUS
 62
           7
100
AcDbLine
 10
-665.999999999995
 20
4861.000000000001
 11
666.000000000002
 21
4861.000000000001
  0
LINE
  5
7F
100
AcDbEntity
  8
1
  6
CONTINUOUS
 62
           7
100
AcDbLine
 10
666.000000000002
 20
4861.000000000001
 11
666.000000000002
 21
4508.999999999999
  0
LINE
  5
7E
100
AcDbEntity
  8
1
  6
DOT_CENTER
 62
           2
100
AcDbLine
 10
-449.999999999994
 20
2202.686878034487
 11
-449.999999999994
 21
2107.007003733831
  0
LINE
  5
7D
100
AcDbEntity
  8
1
  6
CONTINUOUS
 62
           7
100
AcDbLine
 10
-434.999999999994
 20
2156.000000000001
 11
-434.999999999994
 21
2150.000000000001
  0
LINE
  5
7C
100
AcDbEntity
  8
1
  6
CONTINUOUS
 62
           7
100
AcDbLine
 10
-464.999999999994
 20
2156.000000000001
 11
-464.999999999994
 21
2150.000000000001
  0
LINE
  5
7B
100
AcDbEntity
  8
1
  6
CONTINUOUS
 62
           7
100
AcDbLine
 10
-404.999999999994
 20
2188.000000000001
 11
-404.999999999994
 21
2171.000000000001
  0
LINE
  5
7A
100
AcDbEntity
  8
1
  6
CONTINUOUS
 62
           7
100
AcDbLine
 10
-412.999999999994
 20
2196.000000000001
 11
-486.999999999994
 21
2196.000000000001
  0
LINE
  5
79
100
AcDbEntity
  8
1
  6
CONTINUOUS
 62
           7
100
AcDbLine
 10
-494.999999999994
 20
2188.000000000001
 11
-494.999999999994
 21
2171.000000000001
  0
LINE
  5
78
100
AcDbEntity
  8
1
  6
CONTINUOUS
 62
           7
100
AcDbLine
 10
-512.499999999995
 20
2171.000000000001
 11
-512.499999999995
 21
2150.000000000001
  0
LINE
  5
77
100
AcDbEntity
  8
1
  6
CONTINUOUS
 62
           7
100
AcDbLine
 10
-494.999999999994
 20
2171.000000000001
 11
-512.499999999995
 21
2171.000000000001
  0
LINE
  5
76
100
AcDbEntity
  8
1
  6
CONTINUOUS
 62
           7
100
AcDbLine
 10
-404.999999999994
 20
2171.000000000001
 11
-387.499999999994
 21
2171.000000000001
  0
LINE
  5
75
100
AcDbEntity
  8
1
  6
CONTINUOUS
 62
           7
100
AcDbLine
 10
-494.999999999994
 20
2184.000000000001
 11
-404.999999999994
 21
2184.000000000001
  0
LINE
  5
74
100
AcDbEntity
  8
1
  6
CONTINUOUS
 62
           7
100
AcDbLine
 10
-387.499999999994
 20
2171.000000000001
 11
-387.499999999994
 21
2150.000000000001
  0
LINE
  5
73
100
AcDbEntity
  8
1
  6
CONTINUOUS
 62
           7
100
AcDbLine
 10
-412.499999999994
 20
2150.0
 11
-412.499999999994
 21
2155.683280999347
  0
LINE
  5
72
100
AcDbEntity
  8
1
  6
CONTINUOUS
 62
           7
100
AcDbLine
 10
-487.499999999994
 20
2150.000000000001
 11
-487.499999999994
 21
2155.683280999347
  0
LINE
  5
71
100
AcDbEntity
  8
1
  6
CONTINUOUS
 62
           7
100
AcDbLine
 10
2416.000000000002
 20
4861.000000000001
 11
2416.000000000002
 21
4508.999999999999
  0
LINE
  5
70
100
AcDbEntity
  8
1
  6
CONTINUOUS
 62
           7
100
AcDbLine
 10
1084.000000000006
 20
4861.000000000001
 11
2416.000000000002
 21
4861.000000000001
  0
LINE
  5
6F
100
AcDbEntity
  8
1
  6
CONTINUOUS
 62
           7
100
AcDbLine
 10
2366.000000000002
 20
4811.000000000001
 11
2366.000000000002
 21
4558.999999999999
  0
LINE
  5
6E
100
AcDbEntity
  8
1
  6
CONTINUOUS
 62
           7
100
AcDbLine
 10
1134.000000000006
 20
4811.000000000001
 11
2366.000000000002
 21
4811.000000000001
  0
LINE
  5
6D
100
AcDbEntity
  8
1
  6
CONTINUOUS
 62
           7
100
AcDbLine
 10
1134.000000000006
 20
4558.999999999999
 11
1134.000000000006
 21
4811.000000000001
  0
LINE
  5
6C
100
AcDbEntity
  8
1
  6
CONTINUOUS
 62
           7
100
AcDbLine
 10
2366.000000000002
 20
4558.999999999999
 11
1134.000000000006
 21
4558.999999999999
  0
LINE
  5
6B
100
AcDbEntity
  8
1
  6
CONTINUOUS
 62
           7
100
AcDbLine
 10
1084.000000000006
 20
4508.999999999999
 11
1084.000000000006
 21
4861.000000000001
  0
LINE
  5
6A
100
AcDbEntity
  8
1
  6
CONTINUOUS
 62
           7
100
AcDbLine
 10
2416.000000000002
 20
4508.999999999999
 11
1084.000000000006
 21
4508.999999999999
  0
LINE
  5
69
100
AcDbEntity
  8
1
  6
CONTINUOUS
 62
           7
100
AcDbLine
 10
1285.0
 20
4727.426406871193
 11
1285.0
 21
4747.5
  0
LINE
  5
68
100
AcDbEntity
  8
1
  6
CONTINUOUS
 62
           7
100
AcDbLine
 10
1285.0
 20
4747.5
 11
1315.0
 21
4747.5
  0
LINE
  5
67
100
AcDbEntity
  8
1
  6
CONTINUOUS
 62
           7
100
AcDbLine
 10
1315.0
 20
4747.5
 11
1315.0
 21
4727.426406871193
  0
LINE
  5
66
100
AcDbEntity
  8
1
  6
CONTINUOUS
 62
           7
100
AcDbLine
 10
1257.573593128806
 20
4670.0
 11
1237.5
 21
4670.0
  0
LINE
  5
65
100
AcDbEntity
  8
1
  6
CONTINUOUS
 62
           7
100
AcDbLine
 10
1315.0
 20
4642.573593128807
 11
1315.0
 21
4622.5
  0
LINE
  5
64
100
AcDbEntity
  8
1
  6
CONTINUOUS
 62
           7
100
AcDbLine
 10
1342.426406871191
 20
4700.0
 11
1362.499999999998
 21
4700.0
  0
LINE
  5
63
100
AcDbEntity
  8
1
  6
CONTINUOUS
 62
           7
100
AcDbLine
 10
1237.5
 20
4670.0
 11
1237.5
 21
4700.0
  0
LINE
  5
62
100
AcDbEntity
  8
1
  6
CONTINUOUS
 62
           7
100
AcDbLine
 10
1315.0
 20
4622.5
 11
1285.0
 21
4622.5
  0
LINE
  5
61
100
AcDbEntity
  8
1
  6
CONTINUOUS
 62
           7
100
AcDbLine
 10
1362.499999999998
 20
4700.0
 11
1362.499999999998
 21
4670.0
  0
LINE
  5
60
100
AcDbEntity
  8
1
  6
CONTINUOUS
 62
           7
100
AcDbLine
 10
1237.5
 20
4700.0
 11
1257.573593128806
 21
4700.0
  0
LINE
  5
5F
100
AcDbEntity
  8
1
  6
CONTINUOUS
 62
           7
100
AcDbLine
 10
1285.0
 20
4622.5
 11
1285.0
 21
4642.573593128807
  0
LINE
  5
5E
100
AcDbEntity
  8
1
  6
CONTINUOUS
 62
           7
100
AcDbLine
 10
1362.499999999998
 20
4670.0
 11
1342.426406871191
 21
4670.0
  0
LINE
  5
5D
100
AcDbEntity
  8
1
  6
CONTINUOUS
 62
           7
100
AcDbLine
 10
1262.500000000006
 20
2150.000000000001
 11
1262.500000000006
 21
2155.683280999347
  0
LINE
  5
5C
100
AcDbEntity
  8
1
  6
CONTINUOUS
 62
           7
100
AcDbLine
 10
1337.500000000006
 20
2150.0
 11
1337.500000000006
 21
2155.683280999347
  0
LINE
  5
5B
100
AcDbEntity
  8
1
  6
CONTINUOUS
 62
           7
100
AcDbLine
 10
1362.500000000006
 20
2171.000000000001
 11
1362.500000000006
 21
2150.000000000001
  0
LINE
  5
5A
100
AcDbEntity
  8
1
  6
CONTINUOUS
 62
           7
100
AcDbLine
 10
1255.000000000006
 20
2184.000000000001
 11
1345.000000000006
 21
2184.000000000001
  0
LINE
  5
59
100
AcDbEntity
  8
1
  6
CONTINUOUS
 62
           7
100
AcDbLine
 10
1345.000000000006
 20
2171.000000000001
 11
1362.500000000006
 21
2171.000000000001
  0
LINE
  5
58
100
AcDbEntity
  8
1
  6
CONTINUOUS
 62
           7
100
AcDbLine
 10
1255.000000000006
 20
2171.000000000001
 11
1237.500000000006
 21
2171.000000000001
  0
LINE
  5
57
100
AcDbEntity
  8
1
  6
CONTINUOUS
 62
           7
100
AcDbLine
 10
1237.500000000006
 20
2171.000000000001
 11
1237.500000000006
 21
2150.000000000001
  0
LINE
  5
56
100
AcDbEntity
  8
1
  6
CONTINUOUS
 62
           7
100
AcDbLine
 10
1255.000000000006
 20
2188.000000000001
 11
1255.000000000006
 21
2171.000000000001
  0
LINE
  5
55
100
AcDbEntity
  8
1
  6
CONTINUOUS
 62
           7
100
AcDbLine
 10
1337.000000000006
 20
2196.000000000001
 11
1263.000000000006
 21
2196.000000000001
  0
LINE
  5
54
100
AcDbEntity
  8
1
  6
CONTINUOUS
 62
           7
100
AcDbLine
 10
1345.000000000006
 20
2188.000000000001
 11
1345.000000000006
 21
2171.000000000001
  0
LINE
  5
53
100
AcDbEntity
  8
1
  6
CONTINUOUS
 62
           7
100
AcDbLine
 10
1285.000000000006
 20
2156.000000000001
 11
1285.000000000006
 21
2150.000000000001
  0
LINE
  5
52
100
AcDbEntity
  8
1
  6
CONTINUOUS
 62
           7
100
AcDbLine
 10
1315.000000000006
 20
2156.000000000001
 11
1315.000000000006
 21
2150.000000000001
  0
LINE
  5
51
100
AcDbEntity
  8
1
  6
DOT_CENTER
 62
           2
100
AcDbLine
 10
1300.000000000006
 20
2202.686878034487
 11
1300.000000000006
 21
2107.007003733831
  0
LINE
  5
50
100
AcDbEntity
  8
1
  6
CONTINUOUS
 62
           7
100
AcDbLine
 10
-1083.999999999998
 20
4861.000000000001
 11
-1083.999999999998
 21
4508.999999999999
  0
LINE
  5
4F
100
AcDbEntity
  8
1
  6
CONTINUOUS
 62
           7
100
AcDbLine
 10
-2415.999999999995
 20
4861.000000000001
 11
-1083.999999999998
 21
4861.000000000001
  0
LINE
  5
4E
100
AcDbEntity
  8
1
  6
CONTINUOUS
 62
           7
100
AcDbLine
 10
-1133.999999999998
 20
4811.000000000001
 11
-1133.999999999998
 21
4558.999999999999
  0
LINE
  5
4D
100
AcDbEntity
  8
1
  6
CONTINUOUS
 62
           7
100
AcDbLine
 10
-2365.999999999995
 20
4811.000000000001
 11
-1133.999999999998
 21
4811.000000000001
  0
LINE
  5
4C
100
AcDbEntity
  8
1
  6
CONTINUOUS
 62
           7
100
AcDbLine
 10
-2365.999999999995
 20
4558.999999999999
 11
-2365.999999999995
 21
4811.000000000001
  0
LINE
  5
4B
100
AcDbEntity
  8
1
  6
CONTINUOUS
 62
           7
100
AcDbLine
 10
-1133.999999999998
 20
4558.999999999999
 11
-2365.999999999995
 21
4558.999999999999
  0
LINE
  5
4A
100
AcDbEntity
  8
1
  6
CONTINUOUS
 62
           7
100
AcDbLine
 10
-2415.999999999995
 20
4508.999999999999
 11
-2415.999999999995
 21
4861.000000000001
  0
LINE
  5
49
100
AcDbEntity
  8
1
  6
CONTINUOUS
 62
           7
100
AcDbLine
 10
-1083.999999999998
 20
4508.999999999999
 11
-2415.999999999995
 21
4508.999999999999
  0
LINE
  5
48
100
AcDbEntity
  8
1
  6
CONTINUOUS
 62
           7
100
AcDbLine
 10
-2215.0
 20
4727.426406871193
 11
-2215.0
 21
4747.5
  0
LINE
  5
47
100
AcDbEntity
  8
1
  6
CONTINUOUS
 62
           7
100
AcDbLine
 10
-2215.0
 20
4747.5
 11
-2185.0
 21
4747.5
  0
LINE
  5
46
100
AcDbEntity
  8
1
  6
CONTINUOUS
 62
           7
100
AcDbLine
 10
-2185.0
 20
4747.5
 11
-2185.0
 21
4727.426406871193
  0
LINE
  5
45
100
AcDbEntity
  8
1
  6
CONTINUOUS
 62
           7
100
AcDbLine
 10
-2242.426406871194
 20
4670.0
 11
-2262.5
 21
4670.0
  0
LINE
  5
44
100
AcDbEntity
  8
1
  6
CONTINUOUS
 62
           7
100
AcDbLine
 10
-2185.0
 20
4642.573593128807
 11
-2185.0
 21
4622.5
  0
LINE
  5
43
100
AcDbEntity
  8
1
  6
CONTINUOUS
 62
           7
100
AcDbLine
 10
-2157.573593128809
 20
4700.0
 11
-2137.500000000002
 21
4700.0
  0
LINE
  5
42
100
AcDbEntity
  8
1
  6
CONTINUOUS
 62
           7
100
AcDbLine
 10
-2262.5
 20
4670.0
 11
-2262.5
 21
4700.0
  0
LINE
  5
41
100
AcDbEntity
  8
1
  6
CONTINUOUS
 62
           7
100
AcDbLine
 10
-2185.0
 20
4622.5
 11
-2215.0
 21
4622.5
  0
LINE
  5
40
100
AcDbEntity
  8
1
  6
CONTINUOUS
 62
           7
100
AcDbLine
 10
-2137.500000000002
 20
4700.0
 11
-2137.500000000002
 21
4670.0
  0
LINE
  5
3F
100
AcDbEntity
  8
1
  6
CONTINUOUS
 62
           7
100
AcDbLine
 10
-2262.5
 20
4700.0
 11
-2242.426406871194
 21
4700.0
  0
LINE
  5
3E
100
AcDbEntity
  8
1
  6
CONTINUOUS
 62
           7
100
AcDbLine
 10
-2215.0
 20
4622.5
 11
-2215.0
 21
4642.573593128807
  0
LINE
  5
3D
100
AcDbEntity
  8
1
  6
CONTINUOUS
 62
           7
100
AcDbLine
 10
-2137.500000000002
 20
4670.0
 11
-2157.573593128809
 21
4670.0
  0
LINE
  5
3C
100
AcDbEntity
  8
1
  6
CONTINUOUS
 62
           7
100
AcDbLine
 10
-2237.499999999995
 20
2150.000000000001
 11
-2237.499999999995
 21
2155.683280999347
  0
LINE
  5
3B
100
AcDbEntity
  8
1
  6
CONTINUOUS
 62
           7
100
AcDbLine
 10
-2162.499999999995
 20
2150.0
 11
-2162.499999999995
 21
2155.683280999347
  0
LINE
  5
3A
100
AcDbEntity
  8
1
  6
CONTINUOUS
 62
           7
100
AcDbLine
 10
-2137.499999999995
 20
2171.000000000001
 11
-2137.499999999995
 21
2150.000000000001
  0
LINE
  5
39
100
AcDbEntity
  8
1
  6
CONTINUOUS
 62
           7
100
AcDbLine
 10
-2244.999999999995
 20
2184.000000000001
 11
-2154.999999999995
 21
2184.000000000001
  0
LINE
  5
38
100
AcDbEntity
  8
1
  6
CONTINUOUS
 62
           7
100
AcDbLine
 10
-2154.999999999995
 20
2171.000000000001
 11
-2137.499999999995
 21
2171.000000000001
  0
LINE
  5
37
100
AcDbEntity
  8
1
  6
CONTINUOUS
 62
           7
100
AcDbLine
 10
-2244.999999999995
 20
2171.000000000001
 11
-2262.499999999995
 21
2171.000000000001
  0
LINE
  5
36
100
AcDbEntity
  8
1
  6
CONTINUOUS
 62
           7
100
AcDbLine
 10
-2262.499999999995
 20
2171.000000000001
 11
-2262.499999999995
 21
2150.000000000001
  0
LINE
  5
35
100
AcDbEntity
  8
1
  6
CONTINUOUS
 62
           7
100
AcDbLine
 10
-2244.999999999995
 20
2188.000000000001
 11
-2244.999999999995
 21
2171.000000000001
  0
LINE
  5
34
100
AcDbEntity
  8
1
  6
CONTINUOUS
 62
           7
100
AcDbLine
 10
-2162.999999999995
 20
2196.000000000001
 11
-2236.999999999995
 21
2196.000000000001
  0
LINE
  5
33
100
AcDbEntity
  8
1
  6
CONTINUOUS
 62
           7
100
AcDbLine
 10
-2154.999999999995
 20
2188.000000000001
 11
-2154.999999999995
 21
2171.000000000001
  0
LINE
  5
32
100
AcDbEntity
  8
1
  6
CONTINUOUS
 62
           7
100
AcDbLine
 10
-2214.999999999995
 20
2156.000000000001
 11
-2214.999999999995
 21
2150.000000000001
  0
LINE
  5
31
100
AcDbEntity
  8
1
  6
CONTINUOUS
 62
           7
100
AcDbLine
 10
-2184.999999999995
 20
2156.000000000001
 11
-2184.999999999995
 21
2150.000000000001
  0
LINE
  5
30
100
AcDbEntity
  8
1
  6
DOT_CENTER
 62
           2
100
AcDbLine
 10
-2199.999999999995
 20
2202.686878034487
 11
-2199.999999999995
 21
2107.007003733831
  0
POINT
  5
2F
100
AcDbEntity
  8
0
 62
           3
100
AcDbPoint
 10
5883.399996721732
 20
1365.000000000115
  0
ENDSEC
  0
SECTION
  2
OBJECTS
  0
DICTIONARY
  5
19
100
AcDbDictionary
  3
ACAD_GROUP
350
1A
  3
ACAD_MLINESTYLE
350
1B
  0
DICTIONARY
  5
1A
102
{ACAD_REACTORS
330
19
102
}
100
AcDbDictionary
  0
DICTIONARY
  5
1B
102
{ACAD_REACTORS
330
19
102
}
100
AcDbDictionary
  3
STANDARD
350
1C
  0
MLINESTYLE
  5
1C
102
{ACAD_REACTORS
330
1B
102
}
100
AcDbMlineStyle
  2
STANDARD
 70
           0
  3

 62
           0
 51
90.0
 52
90.0
 71
           2
 49
0.5
 62
         256
  6
BYLAYER
 49
-0.5
 62
         256
  6
BYLAYER
  0
ENDSEC
  0
EOF
