  0
SECTION
  2
HEADER
  9
$ACADVER
  1
AC1014
  9
$ACADMAINTVER
 70
           0
  9
$DWGCODEPAGE
  3
DOS932
  9
$INSBASE
 10
0.0
 20
0.0
 30
0.0
  9
$EXTMIN
 10
1.000000000000E+20
 20
1.000000000000E+20
 30
1.000000000000E+20
  9
$EXTMAX
 10
-1.000000000000E+20
 20
-1.000000000000E+20
 30
-1.000000000000E+20
  9
$LIMMIN
 10
0.0
 20
0.0
  9
$LIMMAX
 10
0.0
 20
0.0
  9
$ORTHOMODE
 70
           0
  9
$REGENMODE
 70
           1
  9
$FILLMODE
 70
           1
  9
$QTEXTMODE
 70
           0
  9
$MIRRTEXT
 70
           1
  9
$DRAGMODE
 70
           2
  9
$LTSCALE
 40
1.0
  9
$OSMODE
 70
           0
  9
$ATTMODE
 70
           1
  9
$TEXTSIZE
 40
0.2
  9
$TRACEWID
 40
0.05
  9
$TEXTSTYLE
  7
STANDARD
  9
$CLAYER
  8
0
  9
$CELTYPE
  6
CONTINUOUS
  9
$CECOLOR
 62
         256
  9
$CELTSCALE
 40
1.0
  9
$DELOBJ
 70
           1
  9
$DISPSILH
 70
           0
  9
$DIMSCALE
 40
1.0
  9
$DIMASZ
 40
0.18
  9
$DIMEXO
 40
0.0625
  9
$DIMDLI
 40
0.38
  9
$DIMRND
 40
0.0
  9
$DIMDLE
 40
0.0
  9
$DIMEXE
 40
0.18
  9
$DIMTP
 40
0.0
  9
$DIMTM
 40
0.0
  9
$DIMTXT
 40
0.18
  9
$DIMCEN
 40
0.09
  9
$DIMTSZ
 40
0.0
  9
$DIMTOL
 70
           0
  9
$DIMLIM
 70
           0
  9
$DIMTIH
 70
           1
  9
$DIMTOH
 70
           1
  9
$DIMSE1
 70
           0
  9
$DIMSE2
 70
           0
  9
$DIMTAD
 70
           0
  9
$DIMZIN
 70
           0
  9
$DIMBLK
  1

  9
$DIMASO
 70
           1
  9
$DIMSHO
 70
           1
  9
$DIMPOST
  1

  9
$DIMAPOST
  1

  9
$DIMALT
 70
           0
  9
$DIMALTD
 70
           2
  9
$DIMALTF
 40
25.4
  9
$DIMLFAC
 40
1.0
  9
$DIMTOFL
 70
           0
  9
$DIMTVP
 40
0.0
  9
$DIMTIX
 70
           0
  9
$DIMSOXD
 70
           0
  9
$DIMSAH
 70
           0
  9
$DIMBLK1
  1

  9
$DIMBLK2
  1

  9
$DIMSTYLE
  2
STANDARD
  9
$DIMCLRD
 70
           0
  9
$DIMCLRE
 70
           0
  9
$DIMCLRT
 70
           0
  9
$DIMTFAC
 40
1.0
  9
$DIMGAP
 40
0.09
  9
$DIMJUST
 70
           0
  9
$DIMSD1
 70
           0
  9
$DIMSD2
 70
           0
  9
$DIMTOLJ
 70
           1
  9
$DIMTZIN
 70
           0
  9
$DIMALTZ
 70
           0
  9
$DIMALTTZ
 70
           0
  9
$DIMFIT
 70
           3
  9
$DIMUPT
 70
           0
  9
$DIMUNIT
 70
           2
  9
$DIMDEC
 70
           4
  9
$DIMTDEC
 70
           4
  9
$DIMALTU
 70
           2
  9
$DIMALTTD
 70
           2
  9
$DIMTXSTY
  7
STANDARD
  9
$DIMAUNIT
 70
           0
  9
$LUNITS
 70
           2
  9
$LUPREC
 70
           4
  9
$SKETCHINC
 40
0.1
  9
$FILLETRAD
 40
0.0
  9
$AUNITS
 70
           0
  9
$AUPREC
 70
           0
  9
$MENU
  1
acad
  9
$ELEVATION
 40
0.0
  9
$PELEVATION
 40
0.0
  9
$THICKNESS
 40
0.0
  9
$LIMCHECK
 70
           0
  9
$BLIPMODE
 70
           1
  9
$CHAMFERA
 40
0.0
  9
$CHAMFERB
 40
0.0
  9
$CHAMFERC
 40
0.0
  9
$CHAMFERD
 40
0.0
  9
$SKPOLY
 70
           0
  9
$TDCREATE
 40
0.000000000
  9
$TDUPDATE
 40
0.000000000
  9
$TDINDWG
 40
0.0000000000
  9
$TDUSRTIMER
 40
0.0000000000
  9
$USRTIMER
 70
           1
  9
$ANGBASE
 50
0.0
  9
$ANGDIR
 70
           0
  9
$PDMODE
 70
           0
  9
$PDSIZE
 40
0.0
  9
$PLINEWID
 40
0.0
  9
$COORDS
 70
           0
  9
$SPLFRAME
 70
           0
  9
$SPLINETYPE
 70
           6
  9
$SPLINESEGS
 70
           8
  9
$ATTDIA
 70
           0
  9
$ATTREQ
 70
           1
  9
$HANDLING
 70
           1
  9
$HANDSEED
  5
380
  9
$SURFTAB1
 70
           6
  9
$SURFTAB2
 70
           6
  9
$SURFTYPE
 70
           6
  9
$SURFU
 70
           6
  9
$SURFV
 70
           6
  9
$UCSNAME
  2

  9
$UCSORG
 10
0.0
 20
0.0
 30
0.0
  9
$UCSXDIR
 10
1.0
 20
0.0
 30
0.0
  9
$UCSYDIR
 10
0.0
 20
1.0
 30
0.0
  9
$PUCSNAME
  2

  9
$PUCSORG
 10
0.0
 20
0.0
 30
0.0
  9
$PUCSXDIR
 10
1.0
 20
0.0
 30
0.0
  9
$PUCSYDIR
 10
0.0
 20
1.0
 30
0.0
  9
$USERI1
 70
           0
  9
$USERI2
 70
           0
  9
$USERI3
 70
           0
  9
$USERI4
 70
           0
  9
$USERI5
 70
           0
  9
$USERR1
 40
0.0
  9
$USERR2
 40
0.0
  9
$USERR3
 40
0.0
  9
$USERR4
 40
0.0
  9
$USERR5
 40
0.0
  9
$WORLDVIEW
 70
           1
  9
$SHADEDGE
 70
           3
  9
$SHADEDIF
 70
          70
  9
$TILEMODE
 70
           1
  9
$MAXACTVP
 70
          16
  9
$PINSBASE
 10
0.0
 20
0.0
 30
0.0
  9
$PLIMCHECK
 70
           0
  9
$PEXTMIN
 10
1.000000000000E+20
 20
1.000000000000E+20
 30
1.000000000000E+20
  9
$PEXTMAX
 10
-1.000000000000E+20
 20
-1.000000000000E+20
 30
-1.000000000000E+20
  9
$PLIMMIN
 10
0.0
 20
0.0
  9
$PLIMMAX
 10
12.0
 20
9.0
  9
$UNITMODE
 70
           0
  9
$VISRETAIN
 70
           0
  9
$PLINEGEN
 70
           1
  9
$PSLTSCALE
 70
           0
  9
$TREEDEPTH
 70
        3020
  9
$PICKSTYLE
 70
           1
  9
$CMLSTYLE
  2
STANDARD
  9
$CMLJUST
 70
           0
  9
$CMLSCALE
 40
1.0
  9
$PROXYGRAPHICS
 70
           0
  9
$MEASUREMENT
 70
           0
  0
ENDSEC
  0
SECTION
  2
CLASSES
  0
CLASS
  1
LWPOLYLINE
  2
AcDbPolyline
  3
"AutoCAD"
 90
        0
280
           0
281
           1
  0
CLASS
  1
IMAGE
  2
AcDbRasterImage
  3
ISM
 90
      127
280
           0
281
           1
  0
CLASS
  1
OLE2FRAME
  2
AcDbOle2Frame
  3
""
 90
        0
280
           0
281
           1
  0
CLASS
  1
HATCH
  2
AcDbHatch
  3
"ACAD_SEDONA"
 90
        0
280
           0
281
           1
  0
CLASS
  1
DICTIONARYVAR
  2
AcDbDictionaryVar
  3
"AutoCAD"
 90
        0
280
           0
281
           0
  0
CLASS
  1
RASTERVARIABLES
  2
AcDbRasterVariables
  3
ISM
 90
        0
280
           0
281
           0
  0
CLASS
  1
IMAGEDEF
  2
AcDbRasterImageDef
  3
ISM
 90
        0
280
           0
281
           0
  0
CLASS
  1
IMAGEDEF_REACTOR
  2
AcDbRasterImageDefReactor
  3
ISM
 90
        1
280
           0
281
           0
  0
CLASS
  1
IDBUFFER
  2
AcDbIdBuffer
  3
"Acad"
 90
        0
280
           0
281
           0
  0
CLASS
  1
SPATIAL_FILTER
  2
AcDbSpatialFilter
  3
"Acad"
 90
        0
280
           0
281
           0
  0
CLASS
  1
XRECORD
  2
AcDbXrecord
  3
"<Built In>"
 90
        0
280
           0
281
           0
  0
CLASS
  1
SORTENTSTABLE
  2
AcDbSortentsTable
  3
"AutoCAD"
 90
        0
280
           0
281
           0
  0
CLASS
  1
LAYER_INDEX
  2
AcDbLayerIndex
  3
"Acad"
 90
        0
280
           0
281
           0
  0
CLASS
  1
SPATIAL_INDEX
  2
AcDbSpatialIndex
  3
"Acad"
 90
        0
280
           0
281
           0
  0
CLASS
  1
OBJECT_PTR
  2
CAseDLPNTableRecord
  3
"ASE-LPNTableRecord"
 90
        1
280
           0
281
           0
  0
CLASS
  1
LAYOUT
  2
AcDbLayout
  3
"AutoCAD 2000"
 90
        1
280
           0
281
           0
  0
CLASS
  1
PLOTSETTINGS
  2
AcDbPlotSettings
  3
"AutoCAD 2000"
 90
        1
280
           0
281
           0
  0
CLASS
  1
ACDBDICTIONARYWDFLT
  2
AcDbDictionaryWithDefault
  3
"AutoCAD 2000"
 90
        1
280
           0
281
           0
  0
CLASS
  1
ACDBPLACEHOLDER
  2
AcDbPlaceHolder
  3
"AutoCAD 2000"
 90
        1
280
           0
281
           0
  0
CLASS
  1
VBA_PROJECT
  2
AcDbVbaProject
  3
"acadvba"
 90
        1
280
           0
281
           0
  0
CLASS
  1
WIPEOUT
  2
AcDbWipeout
  3
WipeOut|AutoCAD Express Tool|expresstools@autodesk.com
 90
      127
280
           0
281
           1
  0
CLASS
  1
WIPEOUTVARIABLES
  2
AcDbWipeoutVariables
  3
WipeOut|AutoCAD Express Tool|expresstools@autodesk.com
 90
        0
280
           0
281
           0
  0
CLASS
  1
RTEXT
  2
RText
  3
RText|AutoCAD Express Tool|expresstools@autodesk.com
 90
        0
280
           0
281
           1
  0
CLASS
  1
ARCALIGNEDTEXT
  2
AcDbArcAlignedText
  3
ATEXT|AutoCAD Express Tool|expresstools@autodesk.com
 90
        0
280
           0
281
           1
  0
ENDSEC
  0
SECTION
  2
TABLES
  0
TABLE
  2
VPORT
  5
7
100
AcDbSymbolTable
 70
           1
  0
VPORT
  5
15
100
AcDbSymbolTableRecord
100
AcDbViewportTableRecord
  2
*ACTIVE
 70
           0
 10
0.0
 20
0.0
 11
1.0
 21
1.0
 12
6.591288
 22
4.579184
 13
0.0
 23
0.0
 14
1.0
 24
1.0
 15
0.0
 25
0.0
 16
0.0
 26
0.0
 36
1.0
 17
0.0
 27
0.0
 37
0.0
 40
9.158369
 41
0.688564
 42
50.0
 43
0.0
 44
0.0
 50
0.0
 51
0.0
 71
           0
 72
         100
 73
           1
 74
           1
 75
           0
 76
           0
 77
           0
 78
           0
  0
ENDTAB
  0
TABLE
  2
LTYPE
  5
4
100
AcDbSymbolTable
 70
          10
  0
LTYPE
  5
11
100
AcDbSymbolTableRecord
100
AcDbLinetypeTableRecord
  2
BYBLOCK
 70
          64
  3

 72
          65
 73
           0
 40
0.0
  0
LTYPE
  5
12
100
AcDbSymbolTableRecord
100
AcDbLinetypeTableRecord
  2
BYLAYER
 70
          64
  3

 72
          65
 73
           0
 40
0.0
  0
LTYPE
  5
13
100
AcDbSymbolTableRecord
100
AcDbLinetypeTableRecord
  2
CONTINUOUS
 70
          64
  3
Solid line
 72
          65
 73
           0
 40
0.0
  0
LTYPE
  5
1D
100
AcDbSymbolTableRecord
100
AcDbLinetypeTableRecord
  2
DASHED
 70
          64
  3
Dashed
 72
          65
 73
           2
 40
15.0
 49
12.0
 74
           0
 49
-3.0
 74
           0
  0
LTYPE
  5
1E
100
AcDbSymbolTableRecord
100
AcDbLinetypeTableRecord
  2
DOTTED
 70
          64
  3
Dotted
 72
          65
 73
           2
 40
3.5
 49
0.5
 74
           0
 49
-3.0
 74
           0
  0
LTYPE
  5
1F
100
AcDbSymbolTableRecord
100
AcDbLinetypeTableRecord
  2
DOT_CENTER
 70
          64
  3
Dot_Center
 72
          65
 73
           4
 40
2.0
 49
1.25
 74
           0
 49
-0.25
 74
           0
 49
0.25
 74
           0
 49
-0.25
 74
           0
  0
LTYPE
  5
20
100
AcDbSymbolTableRecord
100
AcDbLinetypeTableRecord
  2
LONG_DASHED
 70
          64
  3
Long_Dashed
 72
          65
 73
           2
 40
2.0
 49
1.5
 74
           0
 49
-0.5
 74
           0
  0
LTYPE
  5
21
100
AcDbSymbolTableRecord
100
AcDbLinetypeTableRecord
  2
DASH_CENTER
 70
          64
  3
Dash_Center
 72
          65
 73
           4
 40
36.0
 49
24.0
 74
           0
 49
-3.0
 74
           0
 49
6.0
 74
           0
 49
-3.0
 74
           0
  0
LTYPE
  5
22
100
AcDbSymbolTableRecord
100
AcDbLinetypeTableRecord
  2
PHANTOM
 70
          64
  3
Phantom
 72
          65
 73
           6
 40
2.5
 49
1.25
 74
           0
 49
-0.25
 74
           0
 49
0.25
 74
           0
 49
-0.25
 74
           0
 49
0.25
 74
           0
 49
-0.25
 74
           0
  0
LTYPE
  5
23
100
AcDbSymbolTableRecord
100
AcDbLinetypeTableRecord
  2
CENTER_DASH_DASH
 70
          64
  3
Center_Dash_Dash
 72
          65
 73
           6
 40
22.0
 49
12.0
 74
           0
 49
-3.0
 74
           0
 49
0.5
 74
           0
 49
-3.0
 74
           0
 49
0.5
 74
           0
 49
-3.0
 74
           0
  0
ENDTAB
  0
TABLE
  2
LAYER
  5
2
100
AcDbSymbolTable
 70
           7
  0
LAYER
  5
14
100
AcDbSymbolTableRecord
100
AcDbLayerTableRecord
  2
0
 70
           0
 62
           7
  6
CONTINUOUS
  0
LAYER
  5
24
100
AcDbSymbolTableRecord
100
AcDbLayerTableRecord
  2
___S__
 70
           0
 62
           7
  6
CONTINUOUS
  0
LAYER
  5
25
100
AcDbSymbolTableRecord
100
AcDbLayerTableRecord
  2
FORMAT
 70
           0
 62
           7
  6
CONTINUOUS
  0
LAYER
  5
26
100
AcDbSymbolTableRecord
100
AcDbLayerTableRecord
  2
1
 70
           0
 62
           7
  6
CONTINUOUS
  0
LAYER
  5
27
100
AcDbSymbolTableRecord
100
AcDbLayerTableRecord
  2
2
 70
           0
 62
           7
  6
CONTINUOUS
  0
LAYER
  5
28
100
AcDbSymbolTableRecord
100
AcDbLayerTableRecord
  2
7
 70
           0
 62
           7
  6
CONTINUOUS
  0
LAYER
  5
29
100
AcDbSymbolTableRecord
100
AcDbLayerTableRecord
  2
____
 70
           0
 62
           7
  6
CONTINUOUS
  0
ENDTAB
  0
TABLE
  2
STYLE
  5
3
100
AcDbSymbolTable
 70
           1
  0
STYLE
  5
17
100
AcDbSymbolTableRecord
100
AcDbTextStyleTableRecord
  2
STANDARD
 70
           0
 40
0.0
 41
1.0
 50
0.0
 71
           0
 42
0.0
  3
txt
  4

  0
ENDTAB
  0
TABLE
  2
VIEW
  5
5
100
AcDbSymbolTable
 70
           0
  0
ENDTAB
  0
TABLE
  2
UCS
  5
6
100
AcDbSymbolTable
 70
           0
  0
ENDTAB
  0
TABLE
  2
APPID
  5
8
100
AcDbSymbolTable
 70
           1
  0
APPID
  5
16
100
AcDbSymbolTableRecord
100
AcDbRegAppTableRecord
  2
ACAD
 70
           0
  0
ENDTAB
  0
TABLE
  2
DIMSTYLE
  5
9
100
AcDbSymbolTable
 70
           1
  0
DIMSTYLE
105
18
100
AcDbSymbolTableRecord
100
AcDbDimStyleTableRecord
  2
STANDARD
 70
           0
  3

  4

  5

  6

  7

 40
1.0
 41
0.18
 42
0.0625
 43
0.38
 44
0.18
 45
0.0
 46
0.0
 47
0.0
 48
0.0
 71
           0
 72
           0
 73
           1
 74
           1
 75
           0
 76
           0
 77
           0
 78
           0
140
0.18
141
0.09
142
0.0
143
25.4
144
1.0
145
0.0
146
1.0
147
0.09
170
           0
171
           2
172
           0
173
           0
174
           0
175
           0
176
           0
177
           0
178
           0
270
           2
271
           4
272
           4
273
           2
274
           2
275
           0
280
           0
281
           0
282
           0
283
           1
284
           0
285
           0
286
           0
287
           0
288
           0
340
17
  0
ENDTAB
  0
TABLE
  2
BLOCK_RECORD
  5
1
100
AcDbSymbolTable
 70
           0
  0
BLOCK_RECORD
  5
A
100
AcDbSymbolTableRecord
100
AcDbBlockTableRecord
  2
*MODEL_SPACE
  0
BLOCK_RECORD
  5
B
100
AcDbSymbolTableRecord
100
AcDbBlockTableRecord
  2
*PAPER_SPACE
  0
ENDTAB
  0
ENDSEC
  0
SECTION
  2
BLOCKS
  0
BLOCK
  5
D
100
AcDbEntity
  8
0
100
AcDbBlockBegin
  2
*MODEL_SPACE
 70
           0
 10
0.0
 20
0.0
 30
0.0
  3
*MODEL_SPACE
  1

  0
ENDBLK
  5
E
100
AcDbEntity
  8
0
100
AcDbBlockEnd
  0
BLOCK
  5
F
100
AcDbEntity
 67
           1
  8
0
100
AcDbBlockBegin
  2
*PAPER_SPACE
 70
           0
 10
0.0
 20
0.0
 30
0.0
  3
*PAPER_SPACE
  1

  0
ENDBLK
  5
10
100
AcDbEntity
 67
           1
  8
0
100
AcDbBlockEnd
  0
ENDSEC
  0
SECTION
  2
ENTITIES
  0
HATCH
  5
37E
100
AcDbEntity
  8
0
  6
CONTINUOUS
 62
           2
100
AcDbHatch
 10
0.0
 20
0.0
 30
0.0
210
0.0
220
0.0
230
1.0
  2
USER
 70
           0
 71
           1
 91
        1
 92
        1
 93
        8
 72
           1
 10
3449.6088397789999
 20
1219.750000000003
 11
3449.6088397789999
 21
1239.750000000003
 72
           1
 10
3371.6088397790049
 20
1219.750000000003
 11
3449.6088397789999
 21
1219.750000000003
 72
           2
 10
3371.6088397790049
 20
1256.750000000003
 40
37.0
 50
180.0
 51
-90.0
 73
           1
 72
           1
 10
3334.6088397790049
 20
1270.000000000003
 11
3334.6088397790049
 21
1256.750000000003
 72
           1
 10
3354.6088397790049
 20
1256.750000000003
 11
3354.6088397790049
 21
1270.000000000003
 72
           1
 10
3354.6088397790049
 20
1270.000000000003
 11
3334.6088397790049
 21
1270.000000000003
 72
           2
 10
3371.6088397790049
 20
1256.750000000003
 40
17.0
 50
180.0
 51
-90.0
 73
           1
 72
           1
 10
3371.6088397790049
 20
1239.750000000003
 11
3449.6088397789999
 21
1239.750000000003
 97
        7
330
367
330
3E
330
2FC
330
3C
330
366
330
2FD
330
3D
 75
           1
 76
           0
 52
45.0
 41
10.0
 77
           0
 78
           1
 53
45.0
 43
0.0
 44
0.0
 45
-7.0710678118654746
 46
7.0710678118654755
 79
           0
 98
        1
 10
0.0
 20
0.0
  0
ARC
  5
37D
100
AcDbEntity
  8
1
  6
CONTINUOUS
 62
           7
100
AcDbCircle
 10
156.5
 20
5218.418221991704
 40
10.0
100
AcDbArc
 50
0.0
 51
90.0
  0
ARC
  5
37C
100
AcDbEntity
  8
1
  6
CONTINUOUS
 62
           7
100
AcDbCircle
 10
156.5
 20
5150.918221991704
 40
10.0
100
AcDbArc
 50
-90.0
 51
0.0
  0
ARC
  5
37B
100
AcDbEntity
  8
1
  6
CONTINUOUS
 62
           7
100
AcDbCircle
 10
123.946258446662
 20
5218.418221991704
 40
10.0
100
AcDbArc
 50
90.0
 51
180.0
  0
ARC
  5
37A
100
AcDbEntity
  8
1
  6
CONTINUOUS
 62
           7
100
AcDbCircle
 10
123.946258446662
 20
5150.918221991704
 40
10.0
100
AcDbArc
 50
180.0
 51
-90.0
  0
ARC
  5
379
100
AcDbEntity
  8
1
  6
CONTINUOUS
 62
           4
100
AcDbCircle
 10
109.265668111722
 20
5155.918221991704
 40
10.0
100
AcDbArc
 50
-120.430594205705
 51
-90.0
  0
ARC
  5
378
100
AcDbEntity
  8
1
  6
CONTINUOUS
 62
           4
100
AcDbCircle
 10
109.265668111722
 20
5213.418221991704
 40
10.0
100
AcDbArc
 50
90.0
 51
120.430594205711
  0
ARC
  5
377
100
AcDbEntity
  8
1
  6
CONTINUOUS
 62
           7
100
AcDbCircle
 10
156.5
 20
2795.000000000001
 40
10.0
100
AcDbArc
 50
0.0
 51
90.0
  0
ARC
  5
376
100
AcDbEntity
  8
1
  6
CONTINUOUS
 62
           7
100
AcDbCircle
 10
156.5
 20
2735.000000000001
 40
10.0
100
AcDbArc
 50
-90.0
 51
0.0
  0
ARC
  5
375
100
AcDbEntity
  8
1
  6
CONTINUOUS
 62
           7
100
AcDbCircle
 10
118.613664
 20
2795.000000000001
 40
10.0
100
AcDbArc
 50
90.0
 51
180.0
  0
ARC
  5
374
100
AcDbEntity
  8
1
  6
CONTINUOUS
 62
           7
100
AcDbCircle
 10
118.613664
 20
2735.000000000001
 40
10.0
100
AcDbArc
 50
180.0
 51
-90.0
  0
ARC
  5
373
100
AcDbEntity
  8
1
  6
CONTINUOUS
 62
           7
100
AcDbCircle
 10
4475.858839779005
 20
2795.000000000001
 40
10.0
100
AcDbArc
 50
90.0
 51
180.0
  0
ARC
  5
372
100
AcDbEntity
  8
1
  6
CONTINUOUS
 62
           7
100
AcDbCircle
 10
4543.358839779005
 20
2795.000000000001
 40
10.0
100
AcDbArc
 50
0.0
 51
90.0
  0
ARC
  5
371
100
AcDbEntity
  8
1
  6
CONTINUOUS
 62
           7
100
AcDbCircle
 10
4475.858839779005
 20
2735.000000000001
 40
10.0
100
AcDbArc
 50
180.0
 51
-90.0
  0
ARC
  5
370
100
AcDbEntity
  8
1
  6
CONTINUOUS
 62
           7
100
AcDbCircle
 10
4543.358839779005
 20
2735.000000000001
 40
10.0
100
AcDbArc
 50
-90.0
 51
0.0
  0
ARC
  5
36F
100
AcDbEntity
  8
1
  6
CONTINUOUS
 62
           4
100
AcDbCircle
 10
5025.108839779005
 20
2610.500000000002
 40
1.0
100
AcDbArc
 50
180.0
 51
-90.0
  0
ARC
  5
36E
100
AcDbEntity
  8
1
  6
CONTINUOUS
 62
           4
100
AcDbCircle
 10
5014.108839779005
 20
2610.500000000002
 40
1.0
100
AcDbArc
 50
-90.0
 51
0.0
  0
ARC
  5
36D
100
AcDbEntity
  8
1
  6
CONTINUOUS
 62
           4
100
AcDbCircle
 10
5025.108839779005
 20
2159.5
 40
1.0
100
AcDbArc
 50
90.0
 51
180.0
  0
ARC
  5
36C
100
AcDbEntity
  8
1
  6
CONTINUOUS
 62
           4
100
AcDbCircle
 10
5014.108839779005
 20
2159.5
 40
1.0
100
AcDbArc
 50
0.0
 51
90.0
  0
ARC
  5
36B
100
AcDbEntity
  8
1
  6
CONTINUOUS
 62
           3
100
AcDbCircle
 10
4367.77240747004
 20
1917.80625341996
 40
0.5
100
AcDbArc
 50
180.0
 51
-90.0
  0
ARC
  5
36A
100
AcDbEntity
  8
1
  6
CONTINUOUS
 62
           3
100
AcDbCircle
 10
4367.77240747004
 20
1932.19374658004
 40
0.5
100
AcDbArc
 50
90.0
 51
180.0
  0
ARC
  5
369
100
AcDbEntity
  8
1
  6
CONTINUOUS
 62
           3
100
AcDbCircle
 10
4219.508837901327
 20
1641.000000000001
 40
280.0
100
AcDbArc
 50
90.0
 51
180.0
  0
ARC
  5
368
100
AcDbEntity
  8
1
  6
CONTINUOUS
 62
           3
100
AcDbCircle
 10
4219.508836589932
 20
1641.0
 40
288.0
100
AcDbArc
 50
90.0
 51
180.0
  0
LWPOLYLINE
  5
367
100
AcDbEntity
  8
1
  6
CONTINUOUS
 62
           7
 60
           1
100
AcDbPolyline
 90
        2
 70
           0
 10
3449.608839779
 20
1219.750000000003
 10
3449.608839779
 20
1239.750000000003
  0
LWPOLYLINE
  5
366
100
AcDbEntity
  8
1
  6
CONTINUOUS
 62
           7
 60
           1
100
AcDbPolyline
 90
        3
 70
           0
 10
3354.608839779005
 20
1256.750000000003
 10
3354.608839779005
 20
1270.000000000003
 10
3334.608839779005
 20
1270.000000000003
  0
SPLINE
  5
365
100
AcDbEntity
  8
0
  6
CONTINUOUS
 62
           3
100
AcDbSpline
210
0.0
220
0.0
230
1.0
 70
           0
 71
           3
 72
           8
 73
           5
 74
           7
 42
0.00000000001
 43
0.00000000001
 44
0.00000000001
 40
0.0
 40
0.0
 40
0.0
 40
0.2989651950314283
 40
0.4296296276529574
 40
0.4465803504019732
 40
0.4465803504019732
 40
0.4465803504019732
 10
3890.508836388864
 20
1384.6465796233019
 30
0.0
 10
3890.5088363889099
 20
1384.4669365634261
 30
0.0
 10
3890.5088363889099
 20
1384.2282922931149
 30
0.0
 10
3890.5088363889099
 20
1384.205607698183
 30
0.0
 10
3890.5088363889099
 20
1384.1999992729
 30
0.0
 11
3890.508836388864
 21
1384.6465796233019
 31
0.0
 11
3890.5088363888981
 21
1384.4703311443234
 31
0.0
 11
3890.5088363889099
 21
1384.3008718271403
 31
0.0
 11
3890.5088363889099
 21
1384.2414172487579
 31
0.0
 11
3890.5088363889099
 21
1384.2082125816614
 31
0.0
 11
3890.5088363889099
 21
1384.2048568127318
 31
0.0
 11
3890.5088363889099
 21
1384.1999992729
 31
0.0
  0
SPLINE
  5
364
100
AcDbEntity
  8
0
  6
CONTINUOUS
 62
           3
100
AcDbSpline
210
0.0
220
0.0
230
1.0
 70
           0
 71
           3
 72
           8
 73
           5
 74
           7
 42
0.00000000001
 43
0.00000000001
 44
0.00000000001
 40
0.0
 40
0.0
 40
0.0
 40
0.0169507227490158
 40
0.1476151553705449
 40
0.4465803504019732
 40
0.4465803504019732
 40
0.4465803504019732
 10
3880.508836612436
 20
1384.1999992729
 30
0.0
 10
3880.508836612436
 20
1384.205607698183
 30
0.0
 10
3880.508836612436
 20
1384.2282922931149
 30
0.0
 10
3880.508836612436
 20
1384.4669365634261
 30
0.0
 10
3880.5088366124742
 20
1384.6465796233019
 30
0.0
 11
3880.508836612436
 21
1384.1999992729
 31
0.0
 11
3880.508836612436
 21
1384.2048568127318
 31
0.0
 11
3880.508836612436
 21
1384.2082125816612
 31
0.0
 11
3880.5088366124364
 21
1384.2414172487579
 31
0.0
 11
3880.508836612436
 21
1384.3008718271403
 31
0.0
 11
3880.508836612446
 21
1384.4703311443236
 31
0.0
 11
3880.5088366124742
 21
1384.6465796233019
 31
0.0
  0
SPLINE
  5
363
100
AcDbEntity
  8
0
  6
CONTINUOUS
 62
           3
100
AcDbSpline
210
0.0
220
0.0
230
1.0
 70
           0
 71
           3
 72
           8
 73
           5
 74
           7
 42
0.00000000001
 43
0.00000000001
 44
0.00000000001
 40
0.0
 40
0.0
 40
0.0
 40
0.4813883392780891
 40
1.3325653926380829
 40
2.5594910488247495
 40
2.5594910488247495
 40
2.5594910488247495
 10
3888.008836444767
 20
1384.1999992729
 30
0.0
 10
3888.068101250944
 20
1384.2004449713099
 30
0.0
 10
3888.9123210922912
 20
1384.2067938900659
 30
0.0
 10
3889.7396171117812
 20
1384.4346858415561
 30
0.0
 10
3890.508836388864
 20
1384.6465796233019
 30
0.0
 11
3888.008836444767
 21
1384.1999992729
 31
0.0
 11
3888.1295285098818
 21
1384.2009069323501
 31
0.0
 11
3888.3730750928707
 21
1384.2027385138806
 31
0.0
 11
3888.8622233297419
 21
1384.2291158030616
 31
0.0
 11
3889.2511760415155
 21
1384.3001369182343
 31
0.0
 11
3889.809811663486
 21
1384.4540220561621
 31
0.0
 11
3890.508836388864
 21
1384.6465796233019
 31
0.0
  0
SPLINE
  5
362
100
AcDbEntity
  8
0
  6
CONTINUOUS
 62
           3
100
AcDbSpline
210
0.0
220
0.0
230
1.0
 70
           0
 71
           3
 72
           8
 73
           5
 74
           7
 42
0.00000000001
 43
0.00000000001
 44
0.00000000001
 40
0.0
 40
0.0
 40
0.0
 40
0.4813884775015331
 40
1.3325655942391104
 40
2.5594910572490956
 40
2.5594910572490956
 40
2.5594910572490956
 10
3883.0088365565571
 20
1384.1999992729
 30
0.0
 10
3883.0681013633889
 20
1384.2004449715539
 30
0.0
 10
3883.912321479836
 20
1384.206793895828
 30
0.0
 10
3884.739617346961
 20
1384.4346858417271
 30
0.0
 10
3885.5088365006732
 20
1384.646579623296
 30
0.0
 11
3883.0088365565571
 21
1384.1999992729
 31
0.0
 11
3883.129528657365
 21
1384.2009069331093
 31
0.0
 11
3883.3730753461255
 21
1384.2027385164295
 31
0.0
 11
3883.8622236797119
 21
1384.2291158106432
 31
0.0
 11
3884.2511764130486
 21
1384.3001369344865
 31
0.0
 11
3884.8098119019105
 21
1384.4540220603092
 31
0.0
 11
3885.5088365006732
 21
1384.646579623296
 31
0.0
  0
SPLINE
  5
361
100
AcDbEntity
  8
0
  6
CONTINUOUS
 62
           3
100
AcDbSpline
210
0.0
220
0.0
230
1.0
 70
           0
 71
           3
 72
           8
 73
           5
 74
           7
 42
0.00000000001
 43
0.00000000001
 44
0.00000000001
 40
0.0
 40
0.0
 40
0.0
 40
0.2779454797521051
 40
0.7862825386932313
 40
1.5429638907256438
 40
1.5429638907256438
 40
1.5429638907256438
 10
3881.1787094663409
 20
1367.5999939442561
 30
0.0
 10
3881.2129260109209
 20
1367.6004396365131
 30
0.0
 10
3881.7003367290349
 20
1367.606788471174
 30
0.0
 10
3882.177976196188
 20
1367.834684325677
 30
0.0
 10
3882.6220850668419
 20
1368.046581745235
 30
0.0
 11
3881.1787094663409
 21
1367.5999939442561
 31
0.0
 11
3881.2474459604946
 21
1367.6008892808161
 31
0.0
 11
3881.3852223537951
 21
1367.6026839059823
 31
0.0
 11
3881.6695419906105
 21
1367.6286568402284
 31
0.0
 11
3881.8922721505751
 21
1367.6983665125827
 31
0.0
 11
3882.2175774024477
 21
1367.8535792272928
 31
0.0
 11
3882.6220850668419
 21
1368.046581745235
 31
0.0
  0
SPLINE
  5
360
100
AcDbEntity
  8
0
  6
CONTINUOUS
 62
           3
100
AcDbSpline
210
0.0
220
0.0
230
1.0
 70
           0
 71
           3
 72
           8
 73
           5
 74
           7
 42
0.00000000001
 43
0.00000000001
 44
0.00000000001
 40
0.0
 40
0.0
 40
0.0
 40
0.2779464854274467
 40
0.7862840843647366
 40
1.5429642658513054
 40
1.5429642658513054
 40
1.5429642658513054
 10
3881.1787094663409
 20
1372.6000040770409
 30
0.0
 10
3881.1444929169829
 20
1372.5995583816691
 30
0.0
 10
3880.657080197891
 20
1372.59320947744
 30
0.0
 10
3880.179441718346
 20
1372.365313693474
 30
0.0
 10
3879.7353336329729
 20
1372.1534162761091
 30
0.0
 11
3881.1787094663409
 21
1372.6000040770409
 31
0.0
 11
3881.1099727205924
 21
1372.5991087310697
 31
0.0
 11
3880.9721955820651
 21
1372.5973140838996
 31
0.0
 11
3880.687875212875
 21
1372.5713410900566
 31
0.0
 11
3880.4651448736531
 21
1372.5016313214473
 31
0.0
 11
3880.1398404858296
 21
1372.3464187461261
 31
0.0
 11
3879.7353336329729
 21
1372.1534162761091
 31
0.0
  0
SPLINE
  5
35F
100
AcDbEntity
  8
0
  6
CONTINUOUS
 62
           3
100
AcDbSpline
210
0.0
220
0.0
230
1.0
 70
           0
 71
           3
 72
           8
 73
           5
 74
           7
 42
0.00000000001
 43
0.00000000001
 44
0.00000000001
 40
0.0
 40
0.0
 40
0.0
 40
0.2779464854250376
 40
0.7862840843589642
 40
1.542964265892306
 40
1.542964265892306
 40
1.542964265892306
 10
3889.838963535009
 20
1367.5999939442561
 30
0.0
 10
3889.873180084367
 20
1367.6004396396349
 30
0.0
 10
3890.360592803454
 20
1367.606788543864
 30
0.0
 10
3890.8382312829999
 20
1367.8346843278241
 30
0.0
 10
3891.282339368367
 20
1368.0465817453121
 30
0.0
 11
3889.838963535009
 21
1367.5999939442561
 31
0.0
 11
3889.9077002807567
 21
1367.6008892902328
 31
0.0
 11
3890.0454774192826
 21
1367.6026839374044
 31
0.0
 11
3890.3297977884686
 21
1367.6286569312458
 31
0.0
 11
3890.5525281276841
 21
1367.6983666998506
 31
0.0
 11
3890.8778325155131
 21
1367.8535792752027
 31
0.0
 11
3891.282339368367
 21
1368.0465817453121
 31
0.0
  0
SPLINE
  5
35E
100
AcDbEntity
  8
0
  6
CONTINUOUS
 62
           3
100
AcDbSpline
210
0.0
220
0.0
230
1.0
 70
           0
 71
           3
 72
           8
 73
           5
 74
           7
 42
0.00000000001
 43
0.00000000001
 44
0.00000000001
 40
0.0
 40
0.0
 40
0.0
 40
0.2779454797536699
 40
0.7862825386980631
 40
1.5429638907305361
 40
1.5429638907305361
 40
1.5429638907305361
 10
3889.838963535009
 20
1372.6000040770409
 30
0.0
 10
3889.8047469904291
 20
1372.5995583847839
 30
0.0
 10
3889.3173362723119
 20
1372.5932095501271
 30
0.0
 10
3888.839696805157
 20
1372.36531369562
 30
0.0
 10
3888.3955879345049
 20
1372.153416276062
 30
0.0
 11
3889.838963535009
 21
1372.6000040770409
 31
0.0
 11
3889.7702270408554
 21
1372.5991087404811
 31
0.0
 11
3889.6324506475539
 21
1372.5973141153163
 31
0.0
 11
3889.3481310107368
 21
1372.5713411810716
 31
0.0
 11
3889.1254008507694
 21
1372.5016315087164
 31
0.0
 11
3888.8000955988978
 21
1372.3464187940046
 31
0.0
 11
3888.3955879345049
 21
1372.153416276062
 31
0.0
  0
SPLINE
  5
35D
100
AcDbEntity
  8
0
  6
CONTINUOUS
 62
           3
100
AcDbSpline
210
0.0
220
0.0
230
1.0
 70
           0
 71
           3
 72
           8
 73
           5
 74
           7
 42
0.00000000001
 43
0.00000000001
 44
0.00000000001
 40
0.0
 40
0.0
 40
0.0
 40
0.7097107189166457
 40
1.6878556121226929
 40
2.9354150974118727
 40
2.9354150974118727
 40
2.9354150974118727
 10
3882.6220850668419
 20
1368.046581745235
 30
0.0
 10
3882.8354416484949
 20
1367.986940602696
 30
0.0
 10
3883.7757443294649
 20
1367.724090842953
 30
0.0
 10
3884.753181670686
 20
1367.654102099867
 30
0.0
 10
3885.5088365006732
 20
1367.5999939442561
 30
0.0
 11
3882.6220850668419
 21
1368.046581745235
 31
0.0
 11
3882.8809472867997
 21
1367.9742200752128
 31
0.0
 11
3883.2308207833671
 21
1367.8764173502245
 31
0.0
 11
3883.7469036418565
 21
1367.7544828668417
 31
0.0
 11
3884.2053051251314
 21
1367.6933324312372
 31
0.0
 11
3884.8051262417939
 21
1367.6503826438068
 31
0.0
 11
3885.5088365006732
 21
1367.5999939442561
 31
0.0
  0
SPLINE
  5
35C
100
AcDbEntity
  8
0
  6
CONTINUOUS
 62
           3
100
AcDbSpline
210
0.0
220
0.0
230
1.0
 70
           0
 71
           3
 72
           8
 73
           5
 74
           7
 42
0.00000000001
 43
0.00000000001
 44
0.00000000001
 40
0.0
 40
0.0
 40
0.0
 40
0.7273681394915992
 40
1.7065914567908544
 40
2.9387223240359952
 40
2.9387223240359952
 40
2.9387223240359952
 10
3885.5088365006732
 20
1367.5999939442561
 30
0.0
 10
3885.7475592800329
 20
1367.6054734833269
 30
0.0
 10
3886.7244669259799
 20
1367.6278969974519
 30
0.0
 10
3887.676328635247
 20
1367.8663776207211
 30
0.0
 10
3888.395587934368
 20
1368.0465817453121
 30
0.0
 11
3885.5088365006732
 21
1367.5999939442561
 31
0.0
 11
3885.7919707939727
 21
1367.6064928859432
 31
0.0
 11
3886.1639281151511
 21
1367.6150306328632
 31
0.0
 11
3886.6897071545109
 21
1367.6510811733847
 31
0.0
 11
3887.1459666509327
 21
1367.7335000657715
 31
0.0
 11
3887.7235529639488
 21
1367.8782092631316
 31
0.0
 11
3888.395587934368
 21
1368.0465817453121
 31
0.0
  0
SPLINE
  5
35B
100
AcDbEntity
  8
0
  6
CONTINUOUS
 62
           3
100
AcDbSpline
210
0.0
220
0.0
230
1.0
 70
           0
 71
           3
 72
           8
 73
           5
 74
           7
 42
0.00000000001
 43
0.00000000001
 44
0.00000000001
 40
0.0
 40
0.0
 40
0.0
 40
1.23213086736004
 40
2.2113541846593336
 40
2.9387223241508882
 40
2.9387223241508882
 40
2.9387223241508882
 10
3888.3955879345049
 20
1372.153416276062
 30
0.0
 10
3887.676328635247
 20
1372.3336204005791
 30
0.0
 10
3886.7244669259799
 20
1372.572101023849
 30
0.0
 10
3885.7475592800329
 20
1372.5945245379701
 30
0.0
 10
3885.5088365006732
 20
1372.6000040770409
 30
0.0
 11
3888.3955879345049
 21
1372.153416276062
 31
0.0
 11
3887.7235529639775
 21
1372.3217887581889
 31
0.0
 11
3887.1459666509104
 21
1372.4664979555346
 31
0.0
 11
3886.6897071545054
 21
1372.5489168479169
 31
0.0
 11
3886.1639281151515
 21
1372.5849673884354
 31
0.0
 11
3885.7919707939727
 21
1372.593505135354
 31
0.0
 11
3885.5088365006732
 21
1372.6000040770409
 31
0.0
  0
SPLINE
  5
35A
100
AcDbEntity
  8
0
  6
CONTINUOUS
 62
           3
100
AcDbSpline
210
0.0
220
0.0
230
1.0
 70
           0
 71
           3
 72
           8
 73
           5
 74
           7
 42
0.00000000001
 43
0.00000000001
 44
0.00000000001
 40
0.0
 40
0.0
 40
0.0
 40
1.2475616964944451
 40
2.2257084622402519
 40
2.9354211178800975
 40
2.9354211178800975
 40
2.9354211178800975
 10
3885.5088365006732
 20
1372.6000040770409
 30
0.0
 10
3884.7531798432492
 20
1372.5459088094731
 30
0.0
 10
3883.7757386915819
 20
1372.475936633469
 30
0.0
 10
3882.835441482765
 20
1372.2130631111611
 30
0.0
 10
3882.6220850668419
 20
1372.153416276062
 30
0.0
 11
3885.5088365006732
 21
1372.6000040770409
 31
0.0
 11
3884.8051243458003
 21
1372.5496273656936
 31
0.0
 11
3884.2053011960293
 21
1372.5066877667875
 31
0.0
 11
3883.7468992706308
 21
1372.4455393603082
 31
0.0
 11
3883.2308185033303
 21
1372.3235964075072
 31
0.0
 11
3882.8809466339262
 21
1372.225784726473
 31
0.0
 11
3882.6220850668419
 21
1372.153416276062
 31
0.0
  0
SPLINE
  5
359
100
AcDbEntity
  8
0
  6
CONTINUOUS
 62
           3
100
AcDbSpline
210
0.0
220
0.0
230
1.0
 70
           0
 71
           3
 72
           8
 73
           5
 74
           7
 42
0.00000000001
 43
0.00000000001
 44
0.00000000001
 40
0.0
 40
0.0
 40
0.0
 40
0.277945269555519
 40
0.7862805426586419
 40
1.5429573555003102
 40
1.5429573555003102
 40
1.5429573555003102
 10
3881.1787094663409
 20
1372.6000040770409
 30
0.0
 10
3881.21292600987
 20
1372.6004497818101
 30
0.0
 10
3881.7003363070789
 20
1372.6067987893659
 30
0.0
 10
3882.1779760073609
 20
1372.834686833085
 30
0.0
 10
3882.6220850668419
 20
1373.04657697686
 30
0.0
 11
3881.1787094663409
 21
1372.6000040770409
 31
0.0
 11
3881.2474459992818
 21
1372.6008994392644
 31
0.0
 11
3881.385222511045
 21
1372.6026941163966
 31
0.0
 11
3881.6695418082209
 21
1372.628666380841
 31
0.0
 11
3881.8922721076815
 21
1372.6983738282356
 31
0.0
 11
3882.2175772973114
 21
1372.8535811178162
 31
0.0
 11
3882.6220850668419
 21
1373.04657697686
 31
0.0
  0
SPLINE
  5
358
100
AcDbEntity
  8
0
  6
CONTINUOUS
 62
           3
100
AcDbSpline
210
0.0
220
0.0
230
1.0
 70
           0
 71
           3
 72
           8
 73
           5
 74
           7
 42
0.00000000001
 43
0.00000000001
 44
0.00000000001
 40
0.0
 40
0.0
 40
0.0
 40
0.2779463803294253
 40
0.786283086336226
 40
1.5429609982557779
 40
1.5429609982557779
 40
1.5429609982557779
 10
3881.1787094663409
 20
1377.5999993086671
 30
0.0
 10
3881.144492917505
 20
1377.599553607037
 30
0.0
 10
3880.6570804088719
 20
1377.593204616358
 30
0.0
 10
3880.1794418127629
 20
1377.3653127377879
 30
0.0
 10
3879.7353336329729
 20
1377.1534189582051
 30
0.0
 11
3881.1787094663409
 21
1377.5999993086671
 31
0.0
 11
3881.109972701197
 21
1377.5991039498622
 31
0.0
 11
3880.9721955034361
 21
1377.5973092767078
 31
0.0
 11
3880.6878753040728
 21
1377.5713366177661
 31
0.0
 11
3880.4651448951104
 21
1377.5016279616407
 31
0.0
 11
3880.139840538402
 21
1377.3464180988553
 31
0.0
 11
3879.7353336329729
 21
1377.1534189582051
 31
0.0
  0
SPLINE
  5
357
100
AcDbEntity
  8
0
  6
CONTINUOUS
 62
           3
100
AcDbSpline
210
0.0
220
0.0
230
1.0
 70
           0
 71
           3
 72
           8
 73
           5
 74
           7
 42
0.00000000001
 43
0.00000000001
 44
0.00000000001
 40
0.0
 40
0.0
 40
0.0
 40
0.277946275230917
 40
0.7862820883210144
 40
1.5429577306476236
 40
1.5429577306476236
 40
1.5429577306476236
 10
3889.838963535009
 20
1372.6000040770409
 30
0.0
 10
3889.8731800833202
 20
1372.6004497849281
 30
0.0
 10
3890.3605923814989
 20
1372.606798862053
 30
0.0
 10
3890.838231094167
 20
1372.8346868352351
 30
0.0
 10
3891.282339368367
 20
1373.046576976911
 30
0.0
 11
3889.838963535009
 21
1372.6000040770409
 31
0.0
 11
3889.9077003195471
 21
1372.6008994486783
 31
0.0
 11
3890.0454775765393
 21
1372.6026941478153
 31
0.0
 11
3890.3297976060812
 21
1372.628666471855
 31
0.0
 11
3890.5525280847905
 21
1372.6983740154992
 31
0.0
 11
3890.8778324103728
 21
1372.85358116572
 31
0.0
 11
3891.282339368367
 21
1373.046576976911
 31
0.0
  0
SPLINE
  5
356
100
AcDbEntity
  8
0
  6
CONTINUOUS
 62
           3
100
AcDbSpline
210
0.0
220
0.0
230
1.0
 70
           0
 71
           3
 72
           8
 73
           5
 74
           7
 42
0.00000000001
 43
0.00000000001
 44
0.00000000001
 40
0.0
 40
0.0
 40
0.0
 40
0.27794537465565
 40
0.7862815406708823
 40
1.5429606230925017
 40
1.5429606230925017
 40
1.5429606230925017
 10
3889.838963535009
 20
1377.5999993086671
 30
0.0
 10
3889.8047469909529
 20
1377.5995536101509
 30
0.0
 10
3889.317336483291
 20
1377.593204689045
 30
0.0
 10
3888.8396968995739
 20
1377.365312739938
 30
0.0
 10
3888.3955879345049
 20
1377.153418958268
 30
0.0
 11
3889.838963535009
 21
1377.5999993086671
 31
0.0
 11
3889.77022702146
 21
1377.5991039592732
 31
0.0
 11
3889.6324505689263
 21
1377.5973093081241
 31
0.0
 11
3889.3481311019314
 21
1377.5713367087801
 31
0.0
 11
3889.1254008722194
 21
1377.5016281489061
 31
0.0
 11
3888.8000956514679
 21
1377.3464181467625
 31
0.0
 11
3888.3955879345049
 21
1377.153418958268
 31
0.0
  0
SPLINE
  5
355
100
AcDbEntity
  8
0
  6
CONTINUOUS
 62
           3
100
AcDbSpline
210
0.0
220
0.0
230
1.0
 70
           0
 71
           3
 72
           8
 73
           5
 74
           7
 42
0.00000000001
 43
0.00000000001
 44
0.00000000001
 40
0.0
 40
0.0
 40
0.0
 40
0.7097104926827146
 40
1.6878550560218195
 40
2.9354142011753939
 40
2.9354142011753939
 40
2.9354142011753939
 10
3882.6220850668419
 20
1373.04657697686
 30
0.0
 10
3882.835441627954
 20
1372.9869356693489
 30
0.0
 10
3883.775743630651
 20
1372.7240853468579
 30
0.0
 10
3884.753181444175
 20
1372.654105412621
 30
0.0
 10
3885.5088365006732
 20
1372.6000040770409
 30
0.0
 11
3882.6220850668419
 21
1373.04657697686
 31
0.0
 11
3882.8809472011517
 21
1372.9742151236567
 31
0.0
 11
3883.2308204818573
 21
1372.8764121790698
 31
0.0
 11
3883.7469030903721
 21
1372.7544784200809
 31
0.0
 11
3884.20530461833
 21
1372.6933308075381
 31
0.0
 11
3884.8051260018383
 21
1372.6503864274555
 31
0.0
 11
3885.5088365006732
 21
1372.6000040770409
 31
0.0
  0
SPLINE
  5
354
100
AcDbEntity
  8
0
  6
CONTINUOUS
 62
           3
100
AcDbSpline
210
0.0
220
0.0
230
1.0
 70
           0
 71
           3
 72
           8
 73
           5
 74
           7
 42
0.00000000001
 43
0.00000000001
 44
0.00000000001
 40
0.0
 40
0.0
 40
0.0
 40
0.7273675739582365
 40
1.7065896374655487
 40
2.9387184666077002
 40
2.9387184666077002
 40
2.9387184666077002
 10
3885.5088365006732
 20
1372.6000040770409
 30
0.0
 10
3885.7475592441519
 20
1372.6054838012651
 30
0.0
 10
3886.724465805099
 20
1372.6279080515201
 30
0.0
 10
3887.6763282800489
 20
1372.866379694286
 30
0.0
 10
3888.395587934368
 20
1373.046576976911
 30
0.0
 11
3885.5088365006732
 21
1372.6000040770409
 31
0.0
 11
3885.7919706814882
 21
1372.6065032367196
 31
0.0
 11
3886.1639277369759
 21
1372.615041267306
 31
0.0
 11
3886.6897063260139
 21
1372.651091133866
 31
0.0
 11
3887.1459659568814
 21
1372.7335071651178
 31
0.0
 11
3887.7235526128366
 21
1372.8782108826499
 31
0.0
 11
3888.395587934368
 21
1373.046576976911
 31
0.0
  0
SPLINE
  5
353
100
AcDbEntity
  8
0
  6
CONTINUOUS
 62
           3
100
AcDbSpline
210
0.0
220
0.0
230
1.0
 70
           0
 71
           3
 72
           8
 73
           5
 74
           7
 42
0.00000000001
 43
0.00000000001
 44
0.00000000001
 40
0.0
 40
0.0
 40
0.0
 40
1.2321298483011978
 40
2.2113525386976463
 40
2.9387203954219734
 40
2.9387203954219734
 40
2.9387203954219734
 10
3888.3955879345049
 20
1377.153418958268
 30
0.0
 10
3887.6763284576459
 20
1377.333619661815
 30
0.0
 10
3886.724466365537
 20
1377.5720957948331
 30
0.0
 10
3885.747559262094
 20
1377.5945196770231
 30
0.0
 10
3885.5088365006732
 20
1377.5999993086671
 30
0.0
 11
3888.3955879345049
 21
1377.153418958268
 31
0.0
 11
3887.72355278842
 21
1377.3217882464442
 31
0.0
 11
3887.1459663038827
 21
1377.4664947038796
 31
0.0
 11
3886.6897067402551
 21
1377.5489121656949
 31
0.0
 11
3886.1639279260648
 21
1377.5849623692345
 31
0.0
 11
3885.7919707377314
 21
1377.5935002579868
 31
0.0
 11
3885.5088365006732
 21
1377.5999993086671
 31
0.0
  0
SPLINE
  5
352
100
AcDbEntity
  8
0
  6
CONTINUOUS
 62
           3
100
AcDbSpline
210
0.0
220
0.0
230
1.0
 70
           0
 71
           3
 72
           8
 73
           5
 74
           7
 42
0.00000000001
 43
0.00000000001
 44
0.00000000001
 40
0.0
 40
0.0
 40
0.0
 40
1.247560420782388
 40
2.225706085294985
 40
2.9354176594308692
 40
2.9354176594308692
 40
2.9354176594308692
 10
3885.5088365006732
 20
1377.5999993086671
 30
0.0
 10
3884.753180643726
 20
1377.5459010071061
 30
0.0
 10
3883.7757411611619
 20
1377.4759249520071
 30
0.0
 10
3882.8354415553599
 20
1377.2130630295719
 30
0.0
 10
3882.6220850668419
 20
1377.153418958268
 30
0.0
 11
3885.5088365006732
 21
1377.5999993086671
 31
0.0
 11
3884.8051251738339
 21
1377.5496197777989
 31
0.0
 11
3884.2053029072122
 21
1377.5066777883169
 31
0.0
 11
3883.746901180537
 21
1377.4455297788072
 31
0.0
 11
3883.2308194926118
 21
1377.3235914228981
 31
0.0
 11
3882.8809469175435
 21
1377.2257841100775
 31
0.0
 11
3882.6220850668419
 21
1377.153418958268
 31
0.0
  0
SPLINE
  5
351
100
AcDbEntity
  8
0
  6
CONTINUOUS
 62
           3
100
AcDbSpline
210
0.0
220
0.0
230
1.0
 70
           0
 71
           3
 72
           8
 73
           5
 74
           7
 42
0.00000000001
 43
0.00000000001
 44
0.00000000001
 40
0.0
 40
0.0
 40
0.0
 40
0.27794547975208
 40
0.7862825386940133
 40
1.5429638907259853
 40
1.5429638907259853
 40
1.5429638907259853
 10
3881.1787094663409
 20
1359.999999404049
 30
0.0
 10
3881.2129260109209
 20
1360.0004450963061
 30
0.0
 10
3881.7003367290349
 20
1360.0067939309631
 30
0.0
 10
3882.177976196188
 20
1360.23468978547
 30
0.0
 10
3882.6220850668419
 20
1360.446587205025
 30
0.0
 11
3881.1787094663409
 21
1359.999999404049
 31
0.0
 11
3881.2474459604946
 21
1360.0008947406088
 31
0.0
 11
3881.3852223537947
 21
1360.0026893657739
 31
0.0
 11
3881.66954199061
 21
1360.0286623000181
 31
0.0
 11
3881.8922721505751
 21
1360.0983719723736
 31
0.0
 11
3882.2175774024481
 21
1360.2535846870846
 31
0.0
 11
3882.6220850668419
 21
1360.446587205025
 31
0.0
  0
SPLINE
  5
350
100
AcDbEntity
  8
0
  6
CONTINUOUS
 62
           3
100
AcDbSpline
210
0.0
220
0.0
230
1.0
 70
           0
 71
           3
 72
           8
 73
           5
 74
           7
 42
0.00000000001
 43
0.00000000001
 44
0.00000000001
 40
0.0
 40
0.0
 40
0.0
 40
0.2779462752338371
 40
0.7862820883244067
 40
1.5429577306088651
 40
1.5429577306088651
 40
1.5429577306088651
 10
3881.1787094663409
 20
1364.9999946356729
 30
0.0
 10
3881.1444929180279
 20
1364.9995489277901
 30
0.0
 10
3880.657080619847
 20
1364.993199850662
 30
0.0
 10
3880.1794419071789
 20
1364.7653118774831
 30
0.0
 10
3879.7353336329729
 20
1364.5534217359159
 30
0.0
 11
3881.1787094663409
 21
1364.9999946356729
 31
0.0
 11
3881.1099726818011
 21
1364.9990992640385
 31
0.0
 11
3880.9721954248075
 21
1364.9973045649017
 31
0.0
 11
3880.6878753952628
 21
1364.97133224086
 31
0.0
 11
3880.4651449165485
 21
1364.9016246972139
 31
0.0
 11
3880.1398405909699
 21
1364.7464175470241
 31
0.0
 11
3879.7353336329729
 21
1364.5534217359159
 31
0.0
  0
SPLINE
  5
34F
100
AcDbEntity
  8
0
  6
CONTINUOUS
 62
           3
100
AcDbSpline
210
0.0
220
0.0
230
1.0
 70
           0
 71
           3
 72
           8
 73
           5
 74
           7
 42
0.00000000001
 43
0.00000000001
 44
0.00000000001
 40
0.0
 40
0.0
 40
0.0
 40
0.2779464854707613
 40
0.7862840844052754
 40
1.5429642659469396
 40
1.5429642659469396
 40
1.5429642659469396
 10
3889.8389635349649
 20
1359.999999403921
 30
0.0
 10
3889.873180084367
 20
1360.000445099424
 30
0.0
 10
3890.360592803454
 20
1360.0067940036531
 30
0.0
 10
3890.8382312829999
 20
1360.2346897876159
 30
0.0
 10
3891.282339368367
 20
1360.4465872051219
 30
0.0
 11
3889.8389635349649
 21
1359.999999403921
 31
0.0
 11
3889.9077002807499
 21
1360.0008947499907
 31
0.0
 11
3890.0454774193013
 21
1360.0026893971938
 31
0.0
 11
3890.3297977884731
 21
1360.0286623910351
 31
0.0
 11
3890.5525281276832
 21
1360.0983721596403
 31
0.0
 11
3890.8778325155126
 21
1360.2535847349986
 31
0.0
 11
3891.282339368367
 21
1360.4465872051219
 31
0.0
  0
SPLINE
  5
34E
100
AcDbEntity
  8
0
  6
CONTINUOUS
 62
           3
100
AcDbSpline
210
0.0
220
0.0
230
1.0
 70
           0
 71
           3
 72
           8
 73
           5
 74
           7
 42
0.00000000001
 43
0.00000000001
 44
0.00000000001
 40
0.0
 40
0.0
 40
0.0
 40
0.2779452695588953
 40
0.7862805426605912
 40
1.542957355503197
 40
1.542957355503197
 40
1.542957355503197
 10
3889.838963535009
 20
1364.9999946356729
 30
0.0
 10
3889.804746991475
 20
1364.999548930904
 30
0.0
 10
3889.3173366942692
 20
1364.9931999233529
 30
0.0
 10
3888.8396969939872
 20
1364.7653118796329
 30
0.0
 10
3888.3955879345049
 20
1364.553421735859
 30
0.0
 11
3889.838963535009
 21
1364.9999946356729
 31
0.0
 11
3889.770227002065
 21
1364.9990992734502
 31
0.0
 11
3889.6324504902996
 21
1364.9973045963193
 31
0.0
 11
3889.3481311931264
 21
1364.971332331877
 31
0.0
 11
3889.1254008936667
 21
1364.9016248844832
 31
0.0
 11
3888.8000957040367
 21
1364.7464175949021
 31
0.0
 11
3888.3955879345049
 21
1364.553421735859
 31
0.0
  0
SPLINE
  5
34D
100
AcDbEntity
  8
0
  6
CONTINUOUS
 62
           3
100
AcDbSpline
210
0.0
220
0.0
230
1.0
 70
           0
 71
           3
 72
           8
 73
           5
 74
           7
 42
0.00000000001
 43
0.00000000001
 44
0.00000000001
 40
0.0
 40
0.0
 40
0.0
 40
0.7097126556391414
 40
1.6878594213850688
 40
2.9354211178794816
 40
2.9354211178794816
 40
2.9354211178794816
 10
3882.6220850668419
 20
1360.446587205025
 30
0.0
 10
3882.835441482765
 20
1360.3869403699291
 30
0.0
 10
3883.7757386915819
 20
1360.12406684762
 30
0.0
 10
3884.7531798432492
 20
1360.0540946716169
 30
0.0
 10
3885.5088365006732
 20
1359.999999404049
 30
0.0
 11
3882.6220850668419
 21
1360.446587205025
 31
0.0
 11
3882.8809466339249
 21
1360.3742187546163
 31
0.0
 11
3883.2308185033298
 21
1360.2764070735825
 31
0.0
 11
3883.7468992706304
 21
1360.1544641207811
 31
0.0
 11
3884.2053011960297
 21
1360.0933157143018
 31
0.0
 11
3884.8051243457994
 21
1360.0503761153959
 31
0.0
 11
3885.5088365006732
 21
1359.999999404049
 31
0.0
  0
SPLINE
  5
34C
100
AcDbEntity
  8
0
  6
CONTINUOUS
 62
           3
100
AcDbSpline
210
0.0
220
0.0
230
1.0
 70
           0
 71
           3
 72
           8
 73
           5
 74
           7
 42
0.00000000001
 43
0.00000000001
 44
0.00000000001
 40
0.0
 40
0.0
 40
0.0
 40
0.7273681394915104
 40
1.7065914567908762
 40
2.9387223240409353
 40
2.9387223240409353
 40
2.9387223240409353
 10
3885.5088365006732
 20
1359.999999404049
 30
0.0
 10
3885.7475592800329
 20
1360.005478943116
 30
0.0
 10
3886.7244669259799
 20
1360.027902457241
 30
0.0
 10
3887.676328635247
 20
1360.2663830805111
 30
0.0
 10
3888.395587934368
 20
1360.4465872051219
 30
0.0
 11
3885.5088365006732
 21
1359.999999404049
 31
0.0
 11
3885.7919707939727
 21
1360.0064983457335
 31
0.0
 11
3886.1639281151511
 21
1360.0150360926523
 31
0.0
 11
3886.6897071545113
 21
1360.051086633174
 31
0.0
 11
3887.1459666509318
 21
1360.1335055255608
 31
0.0
 11
3887.7235529639488
 21
1360.2782147229264
 31
0.0
 11
3888.395587934368
 21
1360.4465872051219
 31
0.0
  0
SPLINE
  5
34B
100
AcDbEntity
  8
0
  6
CONTINUOUS
 62
           3
100
AcDbSpline
210
0.0
220
0.0
230
1.0
 70
           0
 71
           3
 72
           8
 73
           5
 74
           7
 42
0.00000000001
 43
0.00000000001
 44
0.00000000001
 40
0.0
 40
0.0
 40
0.0
 40
1.2321288292619421
 40
2.2113508927696515
 40
2.9387184667277784
 40
2.9387184667277784
 40
2.9387184667277784
 10
3888.3955879345049
 20
1364.553421735859
 30
0.0
 10
3887.6763282800489
 20
1364.733619018429
 30
0.0
 10
3886.724465805099
 20
1364.9720906611981
 30
0.0
 10
3885.7475592441519
 20
1364.994514911454
 30
0.0
 10
3885.5088365006732
 20
1364.9999946356729
 30
0.0
 11
3888.3955879345049
 21
1364.553421735859
 31
0.0
 11
3887.7235526128652
 21
1364.7217878300805
 31
0.0
 11
3887.1459659568586
 21
1364.8664915476047
 31
0.0
 11
3886.689706326008
 21
1364.9489075788533
 31
0.0
 11
3886.1639277369759
 21
1364.9849574454129
 31
0.0
 11
3885.7919706814882
 21
1364.9934954759983
 31
0.0
 11
3885.5088365006732
 21
1364.9999946356729
 31
0.0
  0
SPLINE
  5
34A
100
AcDbEntity
  8
0
  6
CONTINUOUS
 62
           3
100
AcDbSpline
210
0.0
220
0.0
230
1.0
 70
           0
 71
           3
 72
           8
 73
           5
 74
           7
 42
0.00000000001
 43
0.00000000001
 44
0.00000000001
 40
0.0
 40
0.0
 40
0.0
 40
1.247559145155567
 40
2.2257037084947102
 40
2.935414201174352
 40
2.935414201174352
 40
2.935414201174352
 10
3885.5088365006732
 20
1364.9999946356729
 30
0.0
 10
3884.753181444175
 20
1364.9458933000931
 30
0.0
 10
3883.775743630647
 20
1364.8759133658571
 30
0.0
 10
3882.835441627954
 20
1364.6130630433661
 30
0.0
 10
3882.6220850668419
 20
1364.553421735859
 30
0.0
 11
3885.5088365006732
 21
1364.9999946356729
 31
0.0
 11
3884.8051260018374
 21
1364.9496122852588
 31
0.0
 11
3884.2053046183264
 21
1364.9066679051762
 31
0.0
 11
3883.7469030903685
 21
1364.8455202926336
 31
0.0
 11
3883.2308204818542
 21
1364.7235865336449
 31
0.0
 11
3882.8809472011508
 21
1364.625783589059
 31
0.0
 11
3882.6220850668419
 21
1364.553421735859
 31
0.0
  0
SPLINE
  5
349
100
AcDbEntity
  8
0
  6
CONTINUOUS
 62
           3
100
AcDbSpline
210
0.0
220
0.0
230
1.0
 70
           0
 71
           3
 72
           8
 73
           5
 74
           7
 42
0.00000000001
 43
0.00000000001
 44
0.00000000001
 40
0.0
 40
0.0
 40
0.0
 40
0.2779464854674207
 40
0.7862840844020164
 40
1.5429642659234617
 40
1.5429642659234617
 40
1.5429642659234617
 10
3889.8389635349649
 20
1359.999999403921
 30
0.0
 10
3889.873180084367
 20
1359.999553708677
 30
0.0
 10
3890.360592803454
 20
1359.9932048044429
 30
0.0
 10
3890.8382312829999
 20
1359.7653090204799
 30
0.0
 10
3891.282339368367
 20
1359.553411603021
 30
0.0
 11
3889.8389635349649
 21
1359.999999403921
 31
0.0
 11
3889.9077002807494
 21
1359.9991040580451
 31
0.0
 11
3890.0454774192995
 21
1359.9973094109055
 31
0.0
 11
3890.3297977884736
 21
1359.9713364170616
 31
0.0
 11
3890.5525281276859
 21
1359.9016266484541
 31
0.0
 11
3890.8778325155131
 21
1359.7464140731086
 31
0.0
 11
3891.282339368367
 21
1359.553411603021
 31
0.0
  0
SPLINE
  5
348
100
AcDbEntity
  8
0
  6
CONTINUOUS
 62
           3
100
AcDbSpline
210
0.0
220
0.0
230
1.0
 70
           0
 71
           3
 72
           8
 73
           5
 74
           7
 42
0.00000000001
 43
0.00000000001
 44
0.00000000001
 40
0.0
 40
0.0
 40
0.0
 40
0.3778155284995374
 40
0.8942062234001893
 40
1.5357514174621136
 40
1.5357514174621136
 40
1.5357514174621136
 10
3879.7353336329729
 20
1359.553411603021
 30
0.0
 10
3879.8298516760319
 20
1359.6064716909059
 30
0.0
 10
3880.2997215739069
 20
1359.8702450113749
 30
0.0
 10
3880.7883625133049
 20
1359.9423771861991
 30
0.0
 10
3881.1787094663409
 20
1359.999999404049
 30
0.0
 11
3879.7353336329729
 21
1359.553411603021
 31
0.0
 11
3879.8558539334058
 21
1359.6210687140281
 31
0.0
 11
3880.0283787485869
 21
1359.7179198712799
 31
0.0
 11
3880.2863641933327
 21
1359.8402057052372
 31
0.0
 11
3880.5176348769301
 21
1359.9024129269196
 31
0.0
 11
3880.8182673424699
 21
1359.9467916758415
 31
0.0
 11
3881.1787094663409
 21
1359.999999404049
 31
0.0
  0
SPLINE
  5
347
100
AcDbEntity
  8
0
  6
CONTINUOUS
 62
           3
100
AcDbSpline
210
0.0
220
0.0
230
1.0
 70
           0
 71
           3
 72
           8
 73
           5
 74
           7
 42
0.00000000001
 43
0.00000000001
 44
0.00000000001
 40
0.0
 40
0.0
 40
0.0
 40
0.6415450374699313
 40
1.1579303686027762
 40
1.5357381749008612
 40
1.5357381749008612
 40
1.5357381749008612
 10
3881.1787094663409
 20
1355.0000041724199
 30
0.0
 10
3880.788363487613
 20
1355.0576336938759
 30
0.0
 10
3880.299724408364
 20
1355.1297749168839
 30
0.0
 10
3879.8298517411149
 20
1355.3935224482559
 30
0.0
 10
3879.7353336329729
 20
1355.446577072224
 30
0.0
 11
3881.1787094663409
 21
1355.0000041724199
 31
0.0
 11
3880.8182680247028
 21
1355.0532186767991
 31
0.0
 11
3880.5176356572474
 21
1355.097603147025
 31
0.0
 11
3880.2863658263232
 21
1355.1598096979619
 31
0.0
 11
3880.0283788313168
 21
1355.282085811054
 31
0.0
 11
3879.8558539866299
 21
1355.3789269449476
 31
0.0
 11
3879.7353336329729
 21
1355.446577072224
 31
0.0
  0
SPLINE
  5
346
100
AcDbEntity
  8
0
  6
CONTINUOUS
 62
           3
100
AcDbSpline
210
0.0
220
0.0
230
1.0
 70
           0
 71
           3
 72
           8
 73
           5
 74
           7
 42
0.00000000001
 43
0.00000000001
 44
0.00000000001
 40
0.0
 40
0.0
 40
0.0
 40
0.3539460334978724
 40
0.8643414136627015
 40
1.5431068114059792
 40
1.5431068114059792
 40
1.5431068114059792
 10
3881.1787094663409
 20
1359.999999404049
 30
0.0
 10
3881.288163621422
 20
1359.9953935078311
 30
0.0
 10
3881.7765214500409
 20
1359.97484311874
 30
0.0
 10
3882.2526611274452
 20
1359.7375336343539
 30
0.0
 10
3882.622085066972
 20
1359.553411603021
 30
0.0
 11
3881.1787094663409
 21
1359.999999404049
 31
0.0
 11
3881.3107954645793
 21
1359.9944411463553
 31
0.0
 11
3881.4881451491319
 21
1359.9869781657098
 31
0.0
 11
3881.755517920385
 21
1359.9524131949256
 31
0.0
 11
3881.9808836323255
 21
1359.8729883765131
 31
0.0
 11
3882.2770727385473
 21
1359.7253668120604
 31
0.0
 11
3882.622085066972
 21
1359.553411603021
 31
0.0
  0
SPLINE
  5
345
100
AcDbEntity
  8
0
  6
CONTINUOUS
 62
           3
100
AcDbSpline
210
0.0
220
0.0
230
1.0
 70
           0
 71
           3
 72
           8
 73
           5
 74
           7
 42
0.00000000001
 43
0.00000000001
 44
0.00000000001
 40
0.0
 40
0.0
 40
0.0
 40
0.6787700534894813
 40
1.1891668948802716
 40
1.5431123743491968
 40
1.5431123743491968
 40
1.5431123743491968
 10
3882.6220850668419
 20
1355.446577072242
 30
0.0
 10
3882.2526612534052
 20
1355.2624483716061
 30
0.0
 10
3881.7765218296249
 20
1355.0251303367841
 30
0.0
 10
3881.2881636315842
 20
1355.0046045512611
 30
0.0
 10
3881.1787094663409
 20
1355.0000041724199
 30
0.0
 11
3882.6220850668419
 21
1355.446577072242
 31
0.0
 11
3882.2770727526386
 21
1355.2746155830071
 31
0.0
 11
3881.9808834369023
 21
1355.1269885165734
 31
0.0
 11
3881.7555179709493
 21
1355.0475647466085
 31
0.0
 11
3881.4881447876451
 21
1355.0130097962933
 31
0.0
 11
3881.3107953792887
 21
1355.0055557678088
 31
0.0
 11
3881.1787094663409
 21
1355.0000041724199
 31
0.0
  0
SPLINE
  5
344
100
AcDbEntity
  8
0
  6
CONTINUOUS
 62
           3
100
AcDbSpline
210
0.0
220
0.0
230
1.0
 70
           0
 71
           3
 72
           8
 73
           5
 74
           7
 42
0.00000000001
 43
0.00000000001
 44
0.00000000001
 40
0.0
 40
0.0
 40
0.0
 40
0.2779452695589234
 40
0.7862805426612811
 40
1.5429573556208163
 40
1.5429573556208163
 40
1.5429573556208163
 10
3889.838963535009
 20
1355.0000041724199
 30
0.0
 10
3889.804746991475
 20
1355.0004498771891
 30
0.0
 10
3889.3173366942692
 20
1355.0067988847441
 30
0.0
 10
3888.8396969939872
 20
1355.234686928467
 30
0.0
 10
3888.395587934368
 20
1355.446577072224
 30
0.0
 11
3889.838963535009
 21
1355.0000041724199
 31
0.0
 11
3889.7702270020645
 21
1355.0008995346434
 31
0.0
 11
3889.6324504902996
 21
1355.0026942117752
 31
0.0
 11
3889.3481311931305
 21
1355.0286664762175
 31
0.0
 11
3889.1254008936849
 21
1355.0983739236067
 31
0.0
 11
3888.8000957040067
 21
1355.2535812131912
 31
0.0
 11
3888.395587934368
 21
1355.446577072224
 31
0.0
  0
SPLINE
  5
343
100
AcDbEntity
  8
0
  6
CONTINUOUS
 62
           3
100
AcDbSpline
210
0.0
220
0.0
230
1.0
 70
           0
 71
           3
 72
           8
 73
           5
 74
           7
 42
0.00000000001
 43
0.00000000001
 44
0.00000000001
 40
0.0
 40
0.0
 40
0.0
 40
0.555855849062399
 40
1.5343195422001079
 40
2.9385037456608467
 40
2.9385037456608467
 40
2.9385037456608467
 10
3885.50883650067
 20
1355.000004172322
 30
0.0
 10
3885.440403415294
 20
1355.0004498783021
 30
0.0
 10
3884.4655814662419
 20
1355.0067989106681
 30
0.0
 10
3883.5103026952629
 20
1355.234686929231
 30
0.0
 10
3882.6220850668419
 20
1355.446577072242
 30
0.0
 11
3885.50883650067
 21
1355.000004172322
 31
0.0
 11
3885.3692216552481
 21
1355.0009134863224
 31
0.0
 11
3885.0872432897322
 21
1355.0027500163631
 31
0.0
 11
3884.5229226750166
 21
1355.0291829422185
 31
0.0
 11
3884.0732844778522
 21
1355.1003839311754
 31
0.0
 11
3883.4289937338049
 21
1355.2540837154697
 31
0.0
 11
3882.6220850668419
 21
1355.446577072242
 31
0.0
  0
SPLINE
  5
342
100
AcDbEntity
  8
0
  6
CONTINUOUS
 62
           3
100
AcDbSpline
210
0.0
220
0.0
230
1.0
 70
           0
 71
           3
 72
           8
 73
           5
 74
           7
 42
0.00000000001
 43
0.00000000001
 44
0.00000000001
 40
0.0
 40
0.0
 40
0.0
 40
0.5558562714156268
 40
1.5343210643718257
 40
2.9385072682969593
 40
2.9385072682969593
 40
2.9385072682969593
 10
3885.5088365006732
 20
1359.999999404049
 30
0.0
 10
3885.5772695881469
 20
1359.999553710677
 30
0.0
 10
3886.5520923790182
 20
1359.993204851213
 30
0.0
 10
3887.507370683747
 20
1359.765309021863
 30
0.0
 10
3888.3955879345049
 20
1359.553411603069
 30
0.0
 11
3885.5088365006732
 21
1359.999999404049
 31
0.0
 11
3885.6484514034064
 21
1359.999090115298
 31
0.0
 11
3885.9304299366599
 21
1359.9972536357895
 31
0.0
 11
3886.4947509502827
 21
1359.9708199944766
 31
0.0
 11
3886.9443891064348
 21
1359.8996166396905
 31
0.0
 11
3887.5886796021082
 21
1359.7459115716213
 31
0.0
 11
3888.3955879345049
 21
1359.553411603069
 31
0.0
  0
CIRCLE
  5
341
100
AcDbEntity
  8
1
  6
CONTINUOUS
 62
           4
100
AcDbCircle
 10
0.0
 20
5184.668221991704
 40
110.699999999999
  0
CIRCLE
  5
340
100
AcDbEntity
  8
1
  6
CONTINUOUS
 62
           4
100
AcDbCircle
 10
0.0
 20
5184.668221991704
 40
84.123
  0
CIRCLE
  5
33F
100
AcDbEntity
  8
1
  6
CONTINUOUS
 62
           7
100
AcDbCircle
 10
0.0
 20
5184.668221991704
 40
360.000000000002
  0
CIRCLE
  5
33E
100
AcDbEntity
  8
1
  6
CONTINUOUS
 62
           3
100
AcDbCircle
 10
508.472255321878
 20
1295.200848327053
 40
40.0
  0
CIRCLE
  5
33D
100
AcDbEntity
  8
1
  6
CONTINUOUS
 62
           7
100
AcDbCircle
 10
4269.608839779001
 20
600.0
 40
15.000000000002
  0
CIRCLE
  5
33C
100
AcDbEntity
  8
1
  6
CONTINUOUS
 62
           2
100
AcDbCircle
 10
4269.608839779001
 20
600.0
 40
8.350000000004
  0
CIRCLE
  5
33B
100
AcDbEntity
  8
1
  6
CONTINUOUS
 62
           7
100
AcDbCircle
 10
4269.608839779001
 20
600.0
 40
7.500000000002
  0
ARC
  5
33A
100
AcDbEntity
  8
1
  6
CONTINUOUS
 62
           7
100
AcDbCircle
 10
0.0
 20
5184.668221991704
 40
124.999999999998
100
AcDbArc
 50
90.0
 51
-19.47546158221
  0
ARC
  5
339
100
AcDbEntity
  8
1
  6
CONTINUOUS
 62
           7
100
AcDbCircle
 10
0.0
 20
5184.668221991704
 40
125.000000000002
100
AcDbArc
 50
19.47546158221
 51
90.0
  0
ARC
  5
338
100
AcDbEntity
  8
1
  6
CONTINUOUS
 62
           7
100
AcDbCircle
 10
18.000000000003
 20
5129.668007412633
 40
459.999999999998
100
AcDbArc
 50
71.463109290188
 51
88.271493544498
  0
ARC
  5
337
100
AcDbEntity
  8
1
  6
CONTINUOUS
 62
           7
100
AcDbCircle
 10
-46.999999999997
 20
5139.668221991704
 40
525.000000000001
100
AcDbArc
 50
-2.792103456718
 51
-0.563719865862
  0
ARC
  5
336
100
AcDbEntity
  8
1
  6
CONTINUOUS
 62
           7
100
AcDbCircle
 10
-39.999999999997
 20
5234.668221991704
 40
620.000000000001
100
AcDbArc
 50
-174.912285430339
 51
-90.336887134984
  0
ARC
  5
335
100
AcDbEntity
  8
1
  6
CONTINUOUS
 62
           7
100
AcDbCircle
 10
452.450424338096
 20
5280.839528515151
 40
5.0
100
AcDbArc
 50
109.497261771664
 51
-90.0
  0
ARC
  5
334
100
AcDbEntity
  8
1
  6
CONTINUOUS
 62
           7
100
AcDbCircle
 10
18.000000000003
 20
5129.668007412633
 40
460.0
100
AcDbArc
 50
0.602232686388
 51
18.563086854737
  0
ARC
  5
333
100
AcDbEntity
  8
1
  6
CONTINUOUS
 62
           7
100
AcDbCircle
 10
452.450424338096
 20
5280.839528515151
 40
5.0
100
AcDbArc
 50
-90.0
 51
-71.125521506262
  0
ARC
  5
332
100
AcDbEntity
  8
1
  6
CONTINUOUS
 62
           7
100
AcDbCircle
 10
477.10941262802
 20
5109.101514699045
 40
5.000000000003
100
AcDbArc
 50
86.935058466829
 51
-93.610617686046
  0
ARC
  5
331
100
AcDbEntity
  8
1
  6
CONTINUOUS
 62
           7
100
AcDbCircle
 10
-46.999999999997
 20
5139.668221991704
 40
525.000000000001
100
AcDbArc
 50
-89.633899153763
 51
-3.883455762483
  0
ARC
  5
330
100
AcDbEntity
  8
1
  6
CONTINUOUS
 62
           7
100
AcDbCircle
 10
18.000000000003
 20
5129.668007412633
 40
459.999999999999
100
AcDbArc
 50
19.808653410673
 51
70.217542734251
  0
ARC
  5
32F
100
AcDbEntity
  8
1
  6
CONTINUOUS
 62
           7
100
AcDbCircle
 10
168.972870673507
 20
5564.187503316558
 40
5.0
100
AcDbArc
 50
161.151717651222
 51
-19.471065626773
  0
ARC
  5
32E
100
AcDbEntity
  8
1
  6
CONTINUOUS
 62
           7
100
AcDbCircle
 10
-39.999999999997
 20
5234.668221991704
 40
620.0
100
AcDbArc
 50
-179.999999999999
 51
-175.836413410616
  0
ARC
  5
32D
100
AcDbEntity
  8
1
  6
CONTINUOUS
 62
           7
100
AcDbCircle
 10
-657.980582219212
 20
5184.668221991704
 40
4.999999999996
100
AcDbArc
 50
-85.143317425416
 51
94.39461858444
  0
ARC
  5
32C
100
AcDbEntity
  8
7
  6
CONTINUOUS
 62
           7
100
AcDbCircle
 10
108.800000000001
 20
2940.3
 40
3.199999999999
100
AcDbArc
 50
0.0
 51
90.0
  0
ARC
  5
32B
100
AcDbEntity
  8
7
  6
CONTINUOUS
 62
           7
100
AcDbCircle
 10
107.923187
 20
2945.5
 40
2.0
100
AcDbArc
 50
-124.999999999983
 51
-90.0
  0
ARC
  5
32A
100
AcDbEntity
  8
7
  6
CONTINUOUS
 62
           7
100
AcDbCircle
 10
87.300000000001
 20
2962.041134000001
 40
2.0
100
AcDbArc
 50
180.0
 51
-124.999999999971
  0
ARC
  5
329
100
AcDbEntity
  8
7
  6
CONTINUOUS
 62
           7
100
AcDbCircle
 10
82.1
 20
2961.8
 40
3.200000000001
100
AcDbArc
 50
0.0
 51
90.0
  0
ARC
  5
328
100
AcDbEntity
  8
7
  6
CONTINUOUS
 62
           7
100
AcDbCircle
 10
-89.8
 20
2962.041134000001
 40
2.0
100
AcDbArc
 50
-55.000000000028
 51
0.0
  0
ARC
  5
327
100
AcDbEntity
  8
7
  6
CONTINUOUS
 62
           7
100
AcDbCircle
 10
-84.599999999999
 20
2961.8
 40
3.2
100
AcDbArc
 50
90.0
 51
180.0
  0
ARC
  5
326
100
AcDbEntity
  8
7
  6
CONTINUOUS
 62
           7
100
AcDbCircle
 10
-105.8
 20
2940.111357000001
 40
6.199999999999
100
AcDbArc
 50
122.681915000007
 51
180.0
  0
ARC
  5
325
100
AcDbEntity
  8
7
  6
CONTINUOUS
 62
           7
100
AcDbCircle
 10
4400.808839779003
 20
2940.299999999998
 40
3.200000000002
100
AcDbArc
 50
90.0
 51
180.0
  0
ARC
  5
324
100
AcDbEntity
  8
7
  6
CONTINUOUS
 62
           7
100
AcDbCircle
 10
4401.685652779002
 20
2945.5
 40
2.0
100
AcDbArc
 50
-90.0
 51
-54.999999999985
  0
ARC
  5
323
100
AcDbEntity
  8
7
  6
CONTINUOUS
 62
           7
100
AcDbCircle
 10
4422.308839779003
 20
2962.041134000001
 40
2.000000000002
100
AcDbArc
 50
-55.0
 51
0.0
  0
ARC
  5
322
100
AcDbEntity
  8
7
  6
CONTINUOUS
 62
           7
100
AcDbCircle
 10
4427.508839779002
 20
2961.799999999998
 40
3.200000000002
100
AcDbArc
 50
90.0
 51
180.0
  0
ARC
  5
321
100
AcDbEntity
  8
7
  6
CONTINUOUS
 62
           7
100
AcDbCircle
 10
4599.408839779004
 20
2962.041134000001
 40
2.0
100
AcDbArc
 50
180.0
 51
-124.999999999957
  0
ARC
  5
320
100
AcDbEntity
  8
7
  6
CONTINUOUS
 62
           7
100
AcDbCircle
 10
4594.208839779003
 20
2961.799999999998
 40
3.200000000001
100
AcDbArc
 50
0.0
 51
90.0
  0
ARC
  5
31F
100
AcDbEntity
  8
7
  6
CONTINUOUS
 62
           7
100
AcDbCircle
 10
4615.408839779004
 20
2940.111356999998
 40
6.200000000002
100
AcDbArc
 50
0.0
 51
57.318085000002
  0
ARC
  5
31E
100
AcDbEntity
  8
1
  6
CONTINUOUS
 62
           3
100
AcDbCircle
 10
4389.77240747004
 20
1925.0
 40
9.499999999999
100
AcDbArc
 50
-124.797812779177
 51
0.0
  0
ARC
  5
31D
100
AcDbEntity
  8
1
  6
CONTINUOUS
 62
           3
100
AcDbCircle
 10
4389.77240747004
 20
1925.0
 40
9.5
100
AcDbArc
 50
0.0
 51
125.916957371423
  0
ARC
  5
31C
100
AcDbEntity
  8
1
  6
CONTINUOUS
 62
           3
100
AcDbCircle
 10
4389.77240747004
 20
1925.0
 40
5.871834995067
100
AcDbArc
 50
0.0
 51
38.599713917946
  0
ARC
  5
31B
100
AcDbEntity
  8
1
  6
CONTINUOUS
 62
           3
100
AcDbCircle
 10
4389.77240747004
 20
1925.0
 40
5.871834995066
100
AcDbArc
 50
38.599713917946
 51
90.0
  0
ARC
  5
31A
100
AcDbEntity
  8
1
  6
CONTINUOUS
 62
           3
100
AcDbCircle
 10
4389.77240747004
 20
1925.0
 40
5.871834995066
100
AcDbArc
 50
-90.0
 51
0.0
  0
ARC
  5
319
100
AcDbEntity
  8
0
  6
CONTINUOUS
 62
           3
100
AcDbCircle
 10
3948.008836500519
 20
1368.000000000113
 40
2.499999999996
100
AcDbArc
 50
0.0
 51
180.0
  0
ARC
  5
318
100
AcDbEntity
  8
0
  6
CONTINUOUS
 62
           3
100
AcDbCircle
 10
3948.008836500519
 20
1631.999999999899
 40
2.499999999999
100
AcDbArc
 50
180.0
 51
0.0
  0
ARC
  5
317
100
AcDbEntity
  8
0
  6
CONTINUOUS
 62
           3
100
AcDbCircle
 10
3823.008836500821
 20
1631.999999999899
 40
2.499999999996
100
AcDbArc
 50
180.0
 51
0.0
  0
ARC
  5
316
100
AcDbEntity
  8
0
  6
CONTINUOUS
 62
           3
100
AcDbCircle
 10
3823.008836500821
 20
1368.000000000113
 40
2.499999999995
100
AcDbArc
 50
0.0
 51
180.0
  0
ARC
  5
315
100
AcDbEntity
  8
0
  6
CONTINUOUS
 62
           3
100
AcDbCircle
 10
3827.508836500816
 20
1508.999999999996
 40
0.999999999996
100
AcDbArc
 50
-90.0
 51
90.0
  0
ARC
  5
314
100
AcDbEntity
  8
0
  6
CONTINUOUS
 62
           3
100
AcDbCircle
 10
3827.508836500816
 20
1431.000000000062
 40
1.0
100
AcDbArc
 50
-90.0
 51
90.0
  0
ARC
  5
313
100
AcDbEntity
  8
0
  6
CONTINUOUS
 62
           3
100
AcDbCircle
 10
3827.508836500816
 20
1409.000000000178
 40
0.999999999996
100
AcDbArc
 50
-90.0
 51
90.0
  0
ARC
  5
312
100
AcDbEntity
  8
0
  6
CONTINUOUS
 62
           3
100
AcDbCircle
 10
3943.508836500522
 20
1409.000000000178
 40
1.0
100
AcDbArc
 50
90.0
 51
-90.0
  0
ARC
  5
311
100
AcDbEntity
  8
0
  6
CONTINUOUS
 62
           3
100
AcDbCircle
 10
3943.508836500522
 20
1431.000000000062
 40
0.999999999997
100
AcDbArc
 50
90.0
 51
-90.0
  0
ARC
  5
310
100
AcDbEntity
  8
0
  6
CONTINUOUS
 62
           3
100
AcDbCircle
 10
3943.508836500522
 20
1508.999999999996
 40
1.0
100
AcDbArc
 50
90.0
 51
-90.0
  0
ARC
  5
30F
100
AcDbEntity
  8
0
  6
CONTINUOUS
 62
           3
100
AcDbCircle
 10
3943.508836500522
 20
1530.99999999988
 40
1.0
100
AcDbArc
 50
90.0
 51
-90.0
  0
ARC
  5
30E
100
AcDbEntity
  8
0
  6
CONTINUOUS
 62
           3
100
AcDbCircle
 10
3827.508836500816
 20
1530.99999999988
 40
0.999999999996
100
AcDbArc
 50
-90.0
 51
90.0
  0
ARC
  5
30D
100
AcDbEntity
  8
0
  6
CONTINUOUS
 62
           3
100
AcDbCircle
 10
3891.982339192466
 20
1389.999999999996
 40
0.900000000001
100
AcDbArc
 50
-90.0
 51
-62.73395554943
  0
ARC
  5
30C
100
AcDbEntity
  8
0
  6
CONTINUOUS
 62
           3
100
AcDbCircle
 10
3879.035333808874
 20
1389.999999999996
 40
0.900000000001
100
AcDbArc
 50
-117.266044450518
 51
-90.0
  0
ARC
  5
30B
100
AcDbEntity
  8
0
  6
CONTINUOUS
 62
           3
100
AcDbCircle
 10
3885.50883650067
 20
1315.000000000059
 40
53.999999999957
100
AcDbArc
 50
180.0
 51
0.0
  0
ARC
  5
30A
100
AcDbEntity
  8
0
  6
CONTINUOUS
 62
           3
100
AcDbCircle
 10
3885.50883650067
 20
1315.000000000059
 40
45.999999999962
100
AcDbArc
 50
180.0
 51
0.0
  0
ARC
  5
309
100
AcDbEntity
  8
0
  6
CONTINUOUS
 62
           3
100
AcDbCircle
 10
3885.50883650067
 20
1355.000000000222
 40
3.999999999997
100
AcDbArc
 50
180.0
 51
0.0
  0
ARC
  5
308
100
AcDbEntity
  8
1
  6
CONTINUOUS
 62
           3
100
AcDbCircle
 10
511.509758321877
 20
1267.114622327062
 40
0.500000000002
100
AcDbArc
 50
-83.827497998172
 51
-5.006793000224
  0
ARC
  5
307
100
AcDbEntity
  8
1
  6
CONTINUOUS
 62
           3
100
AcDbCircle
 10
505.434752321878
 20
1267.114622327062
 40
0.499999999996
100
AcDbArc
 50
-174.993206999703
 51
-96.172501999341
  0
ARC
  5
306
100
AcDbEntity
  8
1
  6
CONTINUOUS
 62
           3
100
AcDbCircle
 10
511.509758321877
 20
1323.287074327053
 40
0.500000000004
100
AcDbArc
 50
5.006793001366
 51
83.827497998172
  0
ARC
  5
305
100
AcDbEntity
  8
1
  6
CONTINUOUS
 62
           3
100
AcDbCircle
 10
505.434752321878
 20
1323.287074327053
 40
0.5
100
AcDbArc
 50
96.172501999341
 51
174.993206998561
  0
ARC
  5
304
100
AcDbEntity
  8
1
  6
CONTINUOUS
 62
           3
100
AcDbCircle
 10
504.433952321884
 20
1295.200848327053
 40
9.999999999999
100
AcDbArc
 50
-5.006792999978
 51
5.006793000023
  0
ARC
  5
303
100
AcDbEntity
  8
1
  6
CONTINUOUS
 62
           3
100
AcDbCircle
 10
512.510557321878
 20
1295.200848327053
 40
10.0
100
AcDbArc
 50
174.993206999977
 51
-174.993207000021
  0
ARC
  5
302
100
AcDbEntity
  8
1
  6
CONTINUOUS
 62
           3
100
AcDbCircle
 10
508.472255321878
 20
1295.200848327053
 40
10.749999999989
100
AcDbArc
 50
118.77350699997
 51
-118.773506999949
  0
ARC
  5
301
100
AcDbEntity
  8
1
  6
CONTINUOUS
 62
           3
100
AcDbCircle
 10
508.472255321878
 20
1295.200848327053
 40
10.75
100
AcDbArc
 50
-61.226493000017
 51
0.0
  0
ARC
  5
300
100
AcDbEntity
  8
1
  6
CONTINUOUS
 62
           3
100
AcDbCircle
 10
508.472255321878
 20
1295.200848327053
 40
10.75
100
AcDbArc
 50
0.0
 51
61.226492999996
  0
ARC
  5
2FF
100
AcDbEntity
  8
1
  6
CONTINUOUS
 62
           3
100
AcDbCircle
 10
508.472255321878
 20
1295.200848327053
 40
28.749999999988
100
AcDbArc
 50
-96.172501999992
 51
-83.827497999993
  0
ARC
  5
2FE
100
AcDbEntity
  8
1
  6
CONTINUOUS
 62
           3
100
AcDbCircle
 10
508.472255321878
 20
1295.200848327053
 40
28.750000000009
100
AcDbArc
 50
83.827497999997
 51
96.172501999988
  0
ARC
  5
2FD
100
AcDbEntity
  8
1
  6
CONTINUOUS
 62
           7
100
AcDbCircle
 10
3371.608839779005
 20
1256.750000000003
 40
17.0
100
AcDbArc
 50
180.0
 51
-90.0
  0
ARC
  5
2FC
100
AcDbEntity
  8
1
  6
CONTINUOUS
 62
           7
100
AcDbCircle
 10
3371.608839779005
 20
1256.750000000003
 40
37.0
100
AcDbArc
 50
180.0
 51
-90.0
  0
LINE
  5
2FB
100
AcDbEntity
  8
1
  6
CONTINUOUS
 62
           4
100
AcDbLine
 10
-689.999999999997
 20
5690.168221991704
 11
40.000000000003
 21
5690.168221991704
  0
LINE
  5
2FA
100
AcDbEntity
  8
1
  6
CONTINUOUS
 62
           7
100
AcDbLine
 10
40.000000000003
 20
5694.668221991704
 11
-689.999999999997
 21
5694.668221991704
  0
LINE
  5
2F9
100
AcDbEntity
  8
1
  6
CONTINUOUS
 62
           4
100
AcDbLine
 10
40.000000000003
 20
5699.168221991704
 11
-689.999999999997
 21
5699.168221991704
  0
LINE
  5
2F8
100
AcDbEntity
  8
1
  6
DOT_CENTER
 62
           2
100
AcDbLine
 10
-324.999999999997
 20
5803.557190914653
 11
-324.999999999997
 21
5371.320094447763
  0
LINE
  5
2F7
100
AcDbEntity
  8
1
  6
CONTINUOUS
 62
           7
100
AcDbLine
 10
166.5
 20
5218.418221991704
 11
166.5
 21
5150.918221991704
  0
LINE
  5
2F6
100
AcDbEntity
  8
1
  6
CONTINUOUS
 62
           7
100
AcDbLine
 10
113.946258446662
 20
5150.918221991704
 11
113.946258446662
 21
5218.418221991704
  0
LINE
  5
2F5
100
AcDbEntity
  8
1
  6
CONTINUOUS
 62
           7
100
AcDbLine
 10
123.946258446662
 20
5228.418221991704
 11
156.5
 21
5228.418221991704
  0
LINE
  5
2F4
100
AcDbEntity
  8
1
  6
CONTINUOUS
 62
           7
100
AcDbLine
 10
156.5
 20
5140.918221991704
 11
123.946258446662
 21
5140.918221991704
  0
LINE
  5
2F3
100
AcDbEntity
  8
1
  6
CONTINUOUS
 62
           4
100
AcDbLine
 10
115.286004408819
 20
5223.418221991704
 11
109.265668111722
 21
5223.418221991704
  0
LINE
  5
2F2
100
AcDbEntity
  8
1
  6
CONTINUOUS
 62
           4
100
AcDbLine
 10
115.286004408819
 20
5145.918221991704
 11
109.265668111722
 21
5145.918221991704
  0
LINE
  5
2F1
100
AcDbEntity
  8
1
  6
CONTINUOUS
 62
           7
100
AcDbLine
 10
0.000000000001
 20
5644.668221991704
 11
0.000000000003
 21
5654.668221991704
  0
LINE
  5
2F0
100
AcDbEntity
  8
1
  6
CONTINUOUS
 62
           7
100
AcDbLine
 10
-649.999999999997
 20
5654.668221991704
 11
-649.999999999997
 21
5644.668221991704
  0
LINE
  5
2EF
100
AcDbEntity
  8
1
  6
CONTINUOUS
 62
           7
100
AcDbLine
 10
-659.999999999997
 20
5634.668221991704
 11
-649.999999999997
 21
5644.668221991704
  0
LINE
  5
2EE
100
AcDbEntity
  8
1
  6
CONTINUOUS
 62
           7
100
AcDbLine
 10
31.875234341348
 20
5589.458696609328
 11
0.000000000001
 21
5644.668221991704
  0
LINE
  5
2ED
100
AcDbEntity
  8
1
  6
CONTINUOUS
 62
           7
100
AcDbLine
 10
-659.999999999997
 20
5634.668221991704
 11
-659.999999999997
 21
5234.668221991702
  0
LINE
  5
2EC
100
AcDbEntity
  8
1
  6
CONTINUOUS
 62
           7
100
AcDbLine
 10
-689.999999999997
 20
5729.668221991704
 11
-689.999999999997
 21
5694.668221991704
  0
LINE
  5
2EB
100
AcDbEntity
  8
1
  6
CONTINUOUS
 62
           7
100
AcDbLine
 10
-689.999999999997
 20
5729.668221991704
 11
-684.999999999997
 21
5734.668221991704
  0
LINE
  5
2EA
100
AcDbEntity
  8
1
  6
CONTINUOUS
 62
           7
100
AcDbLine
 10
35.000000000003
 20
5734.668221991704
 11
-684.999999999997
 21
5734.668221991704
  0
LINE
  5
2E9
100
AcDbEntity
  8
1
  6
CONTINUOUS
 62
           7
100
AcDbLine
 10
35.000000000003
 20
5734.668221991704
 11
40.000000000003
 21
5729.668221991704
  0
LINE
  5
2E8
100
AcDbEntity
  8
1
  6
CONTINUOUS
 62
           7
100
AcDbLine
 10
40.000000000003
 20
5694.668221991704
 11
40.000000000003
 21
5729.668221991704
  0
LINE
  5
2E7
100
AcDbEntity
  8
1
  6
CONTINUOUS
 62
           7
100
AcDbLine
 10
40.000000000003
 20
5659.668221991704
 11
40.000000000003
 21
5694.668221991704
  0
LINE
  5
2E6
100
AcDbEntity
  8
1
  6
CONTINUOUS
 62
           7
100
AcDbLine
 10
40.000000000003
 20
5659.668221991704
 11
35.000000000003
 21
5654.668221991704
  0
LINE
  5
2E5
100
AcDbEntity
  8
1
  6
CONTINUOUS
 62
           7
100
AcDbLine
 10
-684.999999999997
 20
5654.668221991704
 11
35.000000000003
 21
5654.668221991704
  0
LINE
  5
2E4
100
AcDbEntity
  8
1
  6
CONTINUOUS
 62
           7
100
AcDbLine
 10
-684.999999999997
 20
5654.668221991704
 11
-689.999999999997
 21
5659.668221991704
  0
LINE
  5
2E3
100
AcDbEntity
  8
1
  6
CONTINUOUS
 62
           7
100
AcDbLine
 10
-689.999999999997
 20
5694.668221991704
 11
-689.999999999997
 21
5659.668221991704
  0
LINE
  5
2E2
100
AcDbEntity
  8
1
  6
CONTINUOUS
 62
           7
100
AcDbLine
 10
445.000000000003
 20
5284.668221991704
 11
170.000000200063
 21
5559.668221991704
  0
LINE
  5
2E1
100
AcDbEntity
  8
1
  6
CONTINUOUS
 62
           7
100
AcDbLine
 10
-645.983368801932
 20
5180.199571815534
 11
-56.963420073539
 21
4591.179623087137
  0
LINE
  5
2E0
100
AcDbEntity
  8
1
  6
CONTINUOUS
 62
           7
100
AcDbLine
 10
-179.999999999997
 20
5654.668221991704
 11
-649.999999999999
 21
5184.668221991704
  0
LINE
  5
2DF
100
AcDbEntity
  8
1
  6
CONTINUOUS
 62
           7
100
AcDbLine
 10
-650.226009489052
 20
5184.442212502654
 11
-645.983368801932
 21
5180.199571815534
  0
LINE
  5
2DE
100
AcDbEntity
  8
1
  6
CONTINUOUS
 62
           7
100
AcDbLine
 10
-52.720779386419
 20
4586.936982400017
 11
470.538238691626
 21
5110.196000478061
  0
LINE
  5
2DD
100
AcDbEntity
  8
1
  6
CONTINUOUS
 62
           7
100
AcDbLine
 10
-56.963420073539
 20
4591.179623087137
 11
-52.720779386419
 21
4586.936982400017
  0
LINE
  5
2DC
100
AcDbEntity
  8
1
  6
CONTINUOUS
 62
           7
100
AcDbLine
 10
-649.999999999999
 20
5184.668221991704
 11
-650.226009489052
 21
5184.442212502654
  0
LINE
  5
2DB
100
AcDbEntity
  8
1
  6
CONTINUOUS
 62
           7
100
AcDbLine
 10
216.0
 20
4968.668221991706
 11
216.000000000003
 21
5454.668221991704
  0
LINE
  5
2DA
100
AcDbEntity
  8
1
  6
CONTINUOUS
 62
           7
100
AcDbLine
 10
-215.999999999997
 20
4968.668221991706
 11
270.000000000003
 21
4968.668221991706
  0
LINE
  5
2D9
100
AcDbEntity
  8
1
  6
CONTINUOUS
 62
           7
100
AcDbLine
 10
-215.999999999999
 20
5400.668221991706
 11
-215.999999999997
 21
4914.668221991704
  0
LINE
  5
2D8
100
AcDbEntity
  8
1
  6
CONTINUOUS
 62
           7
100
AcDbLine
 10
216.000000000005
 20
5400.668221991706
 11
-269.999999999997
 21
5400.668221991706
  0
LINE
  5
2D7
100
AcDbEntity
  8
1
  6
CONTINUOUS
 62
           7
100
AcDbLine
 10
166.5
 20
2795.000000000001
 11
166.5
 21
2735.000000000001
  0
LINE
  5
2D6
100
AcDbEntity
  8
1
  6
CONTINUOUS
 62
           7
100
AcDbLine
 10
108.613664
 20
2735.000000000001
 11
108.613664
 21
2795.000000000001
  0
LINE
  5
2D5
100
AcDbEntity
  8
1
  6
CONTINUOUS
 62
           7
100
AcDbLine
 10
118.613664
 20
2805.000000000001
 11
156.5
 21
2805.000000000001
  0
LINE
  5
2D4
100
AcDbEntity
  8
1
  6
CONTINUOUS
 62
           7
100
AcDbLine
 10
156.5
 20
2725.000000000001
 11
118.613664
 21
2725.000000000001
  0
LINE
  5
2D3
100
AcDbEntity
  8
1
  6
DOT_CENTER
 62
           2
100
AcDbLine
 10
0.0
 20
3015.668407282449
 11
0.0
 21
2041.28830218332
  0
LINE
  5
2D2
100
AcDbEntity
  8
7
  6
CONTINUOUS
 62
           7
100
AcDbLine
 10
115.0
 20
2905.537538373369
 11
115.0
 21
2878.0
  0
LINE
  5
2D1
100
AcDbEntity
  8
7
  6
CONTINUOUS
 62
           7
100
AcDbLine
 10
-115.000000000001
 20
2905.537538373369
 11
-112.000000000001
 21
2940.111357000001
  0
LINE
  5
2D0
100
AcDbEntity
  8
1
  6
CONTINUOUS
 62
           4
100
AcDbLine
 10
115.0
 20
2905.537538373369
 11
-115.000000000001
 21
2905.537538373369
  0
LINE
  5
2CF
100
AcDbEntity
  8
2
  6
CONTINUOUS
 62
           7
100
AcDbLine
 10
-97.568642000001
 20
2650.7
 11
-108.613663999999
 21
2677.2
  0
LINE
  5
2CE
100
AcDbEntity
  8
2
  6
CONTINUOUS
 62
           7
100
AcDbLine
 10
-103.820541
 20
2878.0
 11
-108.613663999999
 21
2866.5
  0
LINE
  5
2CD
100
AcDbEntity
  8
2
  6
CONTINUOUS
 62
           7
100
AcDbLine
 10
-108.613663999999
 20
2677.2
 11
-108.613663999999
 21
2866.5
  0
LINE
  5
2CC
100
AcDbEntity
  8
2
  6
CONTINUOUS
 62
           7
100
AcDbLine
 10
108.613664
 20
2866.5
 11
103.820541000001
 21
2878.0
  0
LINE
  5
2CB
100
AcDbEntity
  8
2
  6
CONTINUOUS
 62
           7
100
AcDbLine
 10
108.613664
 20
2677.2
 11
108.613664
 21
2866.5
  0
LINE
  5
2CA
100
AcDbEntity
  8
2
  6
CONTINUOUS
 62
           7
100
AcDbLine
 10
108.613664
 20
2677.2
 11
97.568642
 21
2650.7
  0
LINE
  5
2C9
100
AcDbEntity
  8
7
  6
CONTINUOUS
 62
           7
100
AcDbLine
 10
0.0
 20
2965.0
 11
82.1
 21
2965.0
  0
LINE
  5
2C8
100
AcDbEntity
  8
7
  6
CONTINUOUS
 62
           7
100
AcDbLine
 10
86.152847000001
 20
2960.40283
 11
106.776034
 21
2943.861696
  0
LINE
  5
2C7
100
AcDbEntity
  8
7
  6
CONTINUOUS
 62
           4
100
AcDbLine
 10
-110.992022999999
 20
2943.5
 11
108.800000000001
 21
2943.5
  0
LINE
  5
2C6
100
AcDbEntity
  8
7
  6
CONTINUOUS
 62
           7
100
AcDbLine
 10
112.0
 20
2940.3
 11
115.0
 21
2905.537538373369
  0
LINE
  5
2C5
100
AcDbEntity
  8
7
  6
CONTINUOUS
 62
           7
100
AcDbLine
 10
115.0
 20
2878.0
 11
0.0
 21
2878.0
  0
LINE
  5
2C4
100
AcDbEntity
  8
7
  6
CONTINUOUS
 62
           7
100
AcDbLine
 10
-115.000000000001
 20
2878.0
 11
-115.000000000001
 21
2905.537538373369
  0
LINE
  5
2C3
100
AcDbEntity
  8
7
  6
CONTINUOUS
 62
           7
100
AcDbLine
 10
0.0
 20
2965.0
 11
-84.599999999999
 21
2965.0
  0
LINE
  5
2C2
100
AcDbEntity
  8
7
  6
CONTINUOUS
 62
           7
100
AcDbLine
 10
-88.652848
 20
2960.40283
 11
-109.147842999999
 21
2945.329780999999
  0
LINE
  5
2C1
100
AcDbEntity
  8
7
  6
CONTINUOUS
 62
           7
100
AcDbLine
 10
0.0
 20
2878.0
 11
-115.000000000001
 21
2878.0
  0
LINE
  5
2C0
100
AcDbEntity
  8
1
  6
CONTINUOUS
 62
           7
100
AcDbLine
 10
4465.858839779005
 20
2735.000000000001
 11
4465.858839779005
 21
2795.000000000001
  0
LINE
  5
2BF
100
AcDbEntity
  8
1
  6
CONTINUOUS
 62
           7
100
AcDbLine
 10
4553.358839779005
 20
2795.000000000001
 11
4553.358839779005
 21
2735.000000000001
  0
LINE
  5
2BE
100
AcDbEntity
  8
1
  6
CONTINUOUS
 62
           7
100
AcDbLine
 10
4475.858839779005
 20
2805.000000000001
 11
4543.358839779005
 21
2805.000000000001
  0
LINE
  5
2BD
100
AcDbEntity
  8
1
  6
CONTINUOUS
 62
           7
100
AcDbLine
 10
4543.358839779005
 20
2725.000000000001
 11
4475.858839779005
 21
2725.000000000001
  0
LINE
  5
2BC
100
AcDbEntity
  8
1
  6
CONTINUOUS
 62
           7
100
AcDbLine
 10
4435.136618265362
 20
2127.299999999999
 11
3911.877600187318
 21
2127.299999999999
  0
LINE
  5
2BB
100
AcDbEntity
  8
1
  6
CONTINUOUS
 62
           7
100
AcDbLine
 10
4435.136618265362
 20
2165.299999999999
 11
4435.136618265362
 21
2127.299999999999
  0
LINE
  5
2BA
100
AcDbEntity
  8
1
  6
CONTINUOUS
 62
           7
100
AcDbLine
 10
4609.608839779005
 20
2165.299999999999
 11
4609.608839779005
 21
2127.299999999999
  0
LINE
  5
2B9
100
AcDbEntity
  8
1
  6
CONTINUOUS
 62
           7
100
AcDbLine
 10
4884.608839779005
 20
2165.299999999999
 11
4884.608839779005
 21
2127.299999999999
  0
LINE
  5
2B8
100
AcDbEntity
  8
1
  6
CONTINUOUS
 62
           7
100
AcDbLine
 10
4884.608839779005
 20
2642.7
 11
4884.608839779005
 21
2604.7
  0
LINE
  5
2B7
100
AcDbEntity
  8
1
  6
CONTINUOUS
 62
           7
100
AcDbLine
 10
4609.608839779005
 20
2642.7
 11
4976.073305873073
 21
2642.7
  0
LINE
  5
2B6
100
AcDbEntity
  8
1
  6
CONTINUOUS
 62
           7
100
AcDbLine
 10
4435.136618265362
 20
2642.7
 11
4435.136618265362
 21
2604.7
  0
LINE
  5
2B5
100
AcDbEntity
  8
1
  6
CONTINUOUS
 62
           7
100
AcDbLine
 10
4609.608839779005
 20
2642.7
 11
4609.608839779005
 21
2604.7
  0
LINE
  5
2B4
100
AcDbEntity
  8
1
  6
DOT_CENTER
 62
           2
100
AcDbLine
 10
4509.608839779005
 20
2041.288302183322
 11
4509.608839779005
 21
3015.66840728245
  0
LINE
  5
2B3
100
AcDbEntity
  8
1
  6
DOT_CENTER
 62
           2
100
AcDbLine
 10
5120.196922055609
 20
2385.0
 11
3885.600634649069
 21
2385.0
  0
LINE
  5
2B2
100
AcDbEntity
  8
1
  6
CONTINUOUS
 62
           7
100
AcDbLine
 10
3949.619748255361
 20
2165.299999999999
 11
3949.619748255361
 21
2604.7
  0
LINE
  5
2B1
100
AcDbEntity
  8
2
  6
CONTINUOUS
 62
           4
100
AcDbLine
 10
4416.358839779001
 20
2650.699999999999
 11
4416.358839779001
 21
2648.7
  0
LINE
  5
2B0
100
AcDbEntity
  8
7
  6
CONTINUOUS
 62
           7
100
AcDbLine
 10
4394.608839779005
 20
2878.0
 11
4394.608839779005
 21
2905.537538373368
  0
LINE
  5
2AF
100
AcDbEntity
  8
7
  6
CONTINUOUS
 62
           7
100
AcDbLine
 10
4621.608839779005
 20
2940.111356999998
 11
4624.608839779005
 21
2905.537538373368
  0
LINE
  5
2AE
100
AcDbEntity
  8
1
  6
CONTINUOUS
 62
           4
100
AcDbLine
 10
4624.608839779005
 20
2905.537538373368
 11
4394.608839779005
 21
2905.537538373368
  0
LINE
  5
2AD
100
AcDbEntity
  8
2
  6
CONTINUOUS
 62
           7
100
AcDbLine
 10
4618.222503779001
 20
2677.199999999999
 11
4607.177481779003
 21
2650.699999999999
  0
LINE
  5
2AC
100
AcDbEntity
  8
2
  6
CONTINUOUS
 62
           4
100
AcDbLine
 10
4607.177481779003
 20
2650.699999999999
 11
4412.040197779003
 21
2650.699999999999
  0
LINE
  5
2AB
100
AcDbEntity
  8
2
  6
CONTINUOUS
 62
           7
100
AcDbLine
 10
4618.222503779001
 20
2866.5
 11
4613.429380779002
 21
2878.0
  0
LINE
  5
2AA
100
AcDbEntity
  8
2
  6
CONTINUOUS
 62
           7
100
AcDbLine
 10
4618.222503779001
 20
2866.5
 11
4618.222503779001
 21
2677.199999999999
  0
LINE
  5
2A9
100
AcDbEntity
  8
2
  6
CONTINUOUS
 62
           4
100
AcDbLine
 10
4602.858839779005
 20
2648.7
 11
4602.858839779005
 21
2650.699999999999
  0
LINE
  5
2A8
100
AcDbEntity
  8
2
  6
CONTINUOUS
 62
           7
100
AcDbLine
 10
4405.788298779004
 20
2878.0
 11
4400.995175779
 21
2866.5
  0
LINE
  5
2A7
100
AcDbEntity
  8
2
  6
CONTINUOUS
 62
           7
100
AcDbLine
 10
4400.995175779
 20
2866.5
 11
4400.995175779
 21
2677.199999999999
  0
LINE
  5
2A6
100
AcDbEntity
  8
2
  6
CONTINUOUS
 62
           7
100
AcDbLine
 10
4412.040197779003
 20
2650.699999999999
 11
4400.995175779
 21
2677.199999999999
  0
LINE
  5
2A5
100
AcDbEntity
  8
7
  6
CONTINUOUS
 62
           7
100
AcDbLine
 10
4427.508839779002
 20
2965.0
 11
4509.608839779005
 21
2965.0
  0
LINE
  5
2A4
100
AcDbEntity
  8
7
  6
CONTINUOUS
 62
           7
100
AcDbLine
 10
4402.832805779
 20
2943.861695999999
 11
4423.455992779002
 21
2960.402829999999
  0
LINE
  5
2A3
100
AcDbEntity
  8
7
  6
CONTINUOUS
 62
           4
100
AcDbLine
 10
4400.808839779003
 20
2943.5
 11
4620.600862779003
 21
2943.5
  0
LINE
  5
2A2
100
AcDbEntity
  8
7
  6
CONTINUOUS
 62
           7
100
AcDbLine
 10
4394.608839779005
 20
2905.537538373368
 11
4397.608839779005
 21
2940.299999999998
  0
LINE
  5
2A1
100
AcDbEntity
  8
7
  6
CONTINUOUS
 62
           7
100
AcDbLine
 10
4509.608839779005
 20
2878.0
 11
4394.608839779005
 21
2878.0
  0
LINE
  5
2A0
100
AcDbEntity
  8
7
  6
CONTINUOUS
 62
           7
100
AcDbLine
 10
4624.608839779005
 20
2905.537538373368
 11
4624.608839779005
 21
2878.0
  0
LINE
  5
29F
100
AcDbEntity
  8
7
  6
CONTINUOUS
 62
           7
100
AcDbLine
 10
4594.208839779003
 20
2965.0
 11
4509.608839779005
 21
2965.0
  0
LINE
  5
29E
100
AcDbEntity
  8
7
  6
CONTINUOUS
 62
           7
100
AcDbLine
 10
4618.756682779003
 20
2945.329780999998
 11
4598.261687779004
 21
2960.402829999999
  0
LINE
  5
29D
100
AcDbEntity
  8
7
  6
CONTINUOUS
 62
           7
100
AcDbLine
 10
4624.608839779005
 20
2878.0
 11
4509.608839779005
 21
2878.0
  0
LINE
  5
29C
100
AcDbEntity
  8
1
  6
CONTINUOUS
 62
           4
100
AcDbLine
 10
4849.608839779005
 20
2075.0
 11
4849.608839779005
 21
2081.0
  0
LINE
  5
29B
100
AcDbEntity
  8
1
  6
CONTINUOUS
 62
           4
100
AcDbLine
 10
4169.608839779005
 20
2081.0
 11
4169.608839779005
 21
2075.0
  0
LINE
  5
29A
100
AcDbEntity
  8
1
  6
CONTINUOUS
 62
           7
100
AcDbLine
 10
4169.608839779005
 20
2075.0
 11
4849.608839779005
 21
2075.0
  0
LINE
  5
299
100
AcDbEntity
  8
1
  6
CONTINUOUS
 62
           4
100
AcDbLine
 10
4849.608839779005
 20
2081.0
 11
4169.608839779005
 21
2081.0
  0
LINE
  5
298
100
AcDbEntity
  8
0
  6
CONTINUOUS
 62
           7
100
AcDbLine
 10
4829.608839779005
 20
2165.299999999999
 11
4763.820556123319
 21
2165.299999999999
  0
LINE
  5
297
100
AcDbEntity
  8
0
  6
CONTINUOUS
 62
           7
100
AcDbLine
 10
4211.408839779004
 20
2127.299999999999
 11
4211.408839779004
 21
2081.0
  0
LINE
  5
296
100
AcDbEntity
  8
0
  6
CONTINUOUS
 62
           7
100
AcDbLine
 10
4807.808839779005
 20
2081.0
 11
4807.808839779005
 21
2127.299999999999
  0
LINE
  5
295
100
AcDbEntity
  8
1
  6
CONTINUOUS
 62
           4
100
AcDbLine
 10
4239.608839779005
 20
2643.699999999999
 11
4239.608839779005
 21
2642.7
  0
LINE
  5
294
100
AcDbEntity
  8
1
  6
CONTINUOUS
 62
           4
100
AcDbLine
 10
4774.601903514613
 20
2648.7
 11
4244.608839779005
 21
2648.7
  0
LINE
  5
293
100
AcDbEntity
  8
1
  6
CONTINUOUS
 62
           4
100
AcDbLine
 10
4244.608839779005
 20
2648.7
 11
4239.608839779005
 21
2643.699999999999
  0
LINE
  5
292
100
AcDbEntity
  8
1
  6
CONTINUOUS
 62
           4
100
AcDbLine
 10
4779.608839779005
 20
2643.699999999999
 11
4774.601903514613
 21
2648.7
  0
LINE
  5
291
100
AcDbEntity
  8
1
  6
CONTINUOUS
 62
           4
100
AcDbLine
 10
4779.608839779005
 20
2642.7
 11
4779.608839779005
 21
2643.699999999999
  0
LINE
  5
290
100
AcDbEntity
  8
1
  6
CONTINUOUS
 62
           7
100
AcDbLine
 10
4979.608839779005
 20
2165.299999999999
 11
3911.877600187318
 21
2165.299999999999
  0
LINE
  5
28F
100
AcDbEntity
  8
1
  6
CONTINUOUS
 62
           7
100
AcDbLine
 10
4979.608839779005
 20
2604.7
 11
3911.877600187318
 21
2604.7
  0
LINE
  5
28E
100
AcDbEntity
  8
1
  6
CONTINUOUS
 62
           7
100
AcDbLine
 10
3911.877600187318
 20
2127.299999999999
 11
3911.877600187318
 21
2165.299999999999
  0
LINE
  5
28D
100
AcDbEntity
  8
1
  6
CONTINUOUS
 62
           7
100
AcDbLine
 10
4979.608839779005
 20
2132.299999999999
 11
4976.073305873073
 21
2127.299999999999
  0
LINE
  5
28C
100
AcDbEntity
  8
1
  6
CONTINUOUS
 62
           7
100
AcDbLine
 10
4976.073305873073
 20
2642.7
 11
4979.608839779005
 21
2637.7
  0
LINE
  5
28B
100
AcDbEntity
  8
1
  6
CONTINUOUS
 62
           7
100
AcDbLine
 10
3911.877600187318
 20
2604.7
 11
3911.877600187318
 21
2642.7
  0
LINE
  5
28A
100
AcDbEntity
  8
1
  6
CONTINUOUS
 62
           7
100
AcDbLine
 10
3911.877600187318
 20
2642.7
 11
4435.136618265362
 21
2642.7
  0
LINE
  5
289
100
AcDbEntity
  8
1
  6
CONTINUOUS
 62
           7
100
AcDbLine
 10
4979.608839779005
 20
2637.7
 11
4979.608839779005
 21
2604.7
  0
LINE
  5
288
100
AcDbEntity
  8
1
  6
CONTINUOUS
 62
           7
100
AcDbLine
 10
4979.608839779005
 20
2165.299999999999
 11
4979.608839779005
 21
2132.299999999999
  0
LINE
  5
287
100
AcDbEntity
  8
1
  6
CONTINUOUS
 62
           7
100
AcDbLine
 10
4976.073305873073
 20
2127.299999999999
 11
4609.608839779005
 21
2127.299999999999
  0
LINE
  5
286
100
AcDbEntity
  8
1
  6
CONTINUOUS
 62
           7
100
AcDbLine
 10
4979.608839779005
 20
2165.0
 11
5014.108839779001
 21
2165.0
  0
LINE
  5
285
100
AcDbEntity
  8
1
  6
CONTINUOUS
 62
           7
100
AcDbLine
 10
4979.608839779005
 20
2604.999999999999
 11
4979.608839779005
 21
2165.0
  0
LINE
  5
284
100
AcDbEntity
  8
1
  6
CONTINUOUS
 62
           4
100
AcDbLine
 10
5015.108839779005
 20
2605.000000000002
 11
5015.108839779005
 21
2165.0
  0
LINE
  5
283
100
AcDbEntity
  8
1
  6
CONTINUOUS
 62
           4
100
AcDbLine
 10
5015.108839779005
 20
2125.0
 11
5015.108839779005
 21
2159.5
  0
LINE
  5
282
100
AcDbEntity
  8
1
  6
CONTINUOUS
 62
           4
100
AcDbLine
 10
5015.108839779005
 20
2610.500000000002
 11
5015.108839779005
 21
2645.000000000002
  0
LINE
  5
281
100
AcDbEntity
  8
1
  6
CONTINUOUS
 62
           7
100
AcDbLine
 10
5014.108839779023
 20
2605.000000000002
 11
4979.608839779005
 21
2604.999999999999
  0
LINE
  5
280
100
AcDbEntity
  8
1
  6
CONTINUOUS
 62
           7
100
AcDbLine
 10
5059.608839779005
 20
2604.999999999999
 11
5025.108839779005
 21
2605.000000000002
  0
LINE
  5
27F
100
AcDbEntity
  8
1
  6
CONTINUOUS
 62
           4
100
AcDbLine
 10
5024.108839779005
 20
2645.000000000002
 11
5024.108839779005
 21
2610.500000000002
  0
LINE
  5
27E
100
AcDbEntity
  8
1
  6
CONTINUOUS
 62
           4
100
AcDbLine
 10
5024.108839779005
 20
2159.5
 11
5024.108839779005
 21
2125.0
  0
LINE
  5
27D
100
AcDbEntity
  8
1
  6
CONTINUOUS
 62
           4
100
AcDbLine
 10
5024.108839779005
 20
2165.0
 11
5024.108839779005
 21
2605.000000000001
  0
LINE
  5
27C
100
AcDbEntity
  8
1
  6
CONTINUOUS
 62
           7
100
AcDbLine
 10
5059.608839779005
 20
2165.0
 11
5059.608839779005
 21
2604.999999999999
  0
LINE
  5
27B
100
AcDbEntity
  8
1
  6
CONTINUOUS
 62
           7
100
AcDbLine
 10
5025.108839779001
 20
2165.0
 11
5059.608839779005
 21
2165.0
  0
LINE
  5
27A
100
AcDbEntity
  8
1
  6
CONTINUOUS
 62
           7
100
AcDbLine
 10
5019.608839779005
 20
2125.0
 11
5019.608839779005
 21
2645.000000000002
  0
LINE
  5
279
100
AcDbEntity
  8
1
  6
CONTINUOUS
 62
           4
100
AcDbLine
 10
4979.608839779005
 20
2609.499999999999
 11
5014.108839779005
 21
2609.500000000002
  0
LINE
  5
278
100
AcDbEntity
  8
1
  6
CONTINUOUS
 62
           7
100
AcDbLine
 10
4979.608839779005
 20
2604.999999999999
 11
4979.608839779005
 21
2609.499999999999
  0
LINE
  5
277
100
AcDbEntity
  8
1
  6
CONTINUOUS
 62
           4
100
AcDbLine
 10
5059.608839779005
 20
2609.500000000004
 11
5025.108839779005
 21
2609.500000000002
  0
LINE
  5
276
100
AcDbEntity
  8
1
  6
CONTINUOUS
 62
           7
100
AcDbLine
 10
5059.608839779005
 20
2604.999999999999
 11
5059.608839779005
 21
2609.500000000004
  0
LINE
  5
275
100
AcDbEntity
  8
1
  6
CONTINUOUS
 62
           4
100
AcDbLine
 10
5015.108839779005
 20
2645.000000000002
 11
5024.108839779005
 21
2645.000000000002
  0
LINE
  5
274
100
AcDbEntity
  8
1
  6
CONTINUOUS
 62
           7
100
AcDbLine
 10
5025.108839779005
 20
2605.000000000002
 11
5014.108839779023
 21
2605.000000000002
  0
LINE
  5
273
100
AcDbEntity
  8
1
  6
CONTINUOUS
 62
           4
100
AcDbLine
 10
5015.108839779005
 20
2125.0
 11
5024.108839779005
 21
2125.0
  0
LINE
  5
272
100
AcDbEntity
  8
1
  6
CONTINUOUS
 62
           7
100
AcDbLine
 10
4979.608839779001
 20
2160.5
 11
4979.608839779005
 21
2165.0
  0
LINE
  5
271
100
AcDbEntity
  8
1
  6
CONTINUOUS
 62
           4
100
AcDbLine
 10
5059.608839779005
 20
2160.5
 11
5025.108839779005
 21
2160.5
  0
LINE
  5
270
100
AcDbEntity
  8
1
  6
CONTINUOUS
 62
           7
100
AcDbLine
 10
5059.608839779005
 20
2165.0
 11
5059.608839779005
 21
2160.5
  0
LINE
  5
26F
100
AcDbEntity
  8
1
  6
CONTINUOUS
 62
           4
100
AcDbLine
 10
5014.108839779005
 20
2160.5
 11
4979.608839779001
 21
2160.5
  0
LINE
  5
26E
100
AcDbEntity
  8
1
  6
CONTINUOUS
 62
           7
100
AcDbLine
 10
5025.108839779001
 20
2165.0
 11
5014.108839779001
 21
2165.0
  0
LINE
  5
26D
100
AcDbEntity
  8
1
  6
CONTINUOUS
 62
           2
100
AcDbLine
 10
4662.141102522706
 20
2205.0
 11
4662.141102522706
 21
2565.000000000001
  0
LINE
  5
26C
100
AcDbEntity
  8
1
  6
CONTINUOUS
 62
           2
100
AcDbLine
 10
4662.141102522706
 20
2565.000000000001
 11
4254.928402551421
 21
2565.000000000001
  0
LINE
  5
26B
100
AcDbEntity
  8
1
  6
CONTINUOUS
 62
           2
100
AcDbLine
 10
4254.928402551421
 20
2565.000000000001
 11
4254.928402551421
 21
2205.0
  0
LINE
  5
26A
100
AcDbEntity
  8
1
  6
CONTINUOUS
 62
           2
100
AcDbLine
 10
4254.928402551421
 20
2205.0
 11
4662.141102522706
 21
2205.0
  0
LINE
  5
269
100
AcDbEntity
  8
1
  6
CONTINUOUS
 62
           3
100
AcDbLine
 10
4389.77240747004
 20
1935.969655114603
 11
4384.098367447228
 21
1932.69374658004
  0
LINE
  5
268
100
AcDbEntity
  8
1
  6
CONTINUOUS
 62
           3
100
AcDbLine
 10
4399.27240747004
 20
1930.484827557302
 11
4389.77240747004
 21
1935.969655114603
  0
LINE
  5
267
100
AcDbEntity
  8
1
  6
CONTINUOUS
 62
           3
100
AcDbLine
 10
4399.27240747004
 20
1919.515172442699
 11
4399.27240747004
 21
1930.484827557302
  0
LINE
  5
266
100
AcDbEntity
  8
1
  6
CONTINUOUS
 62
           3
100
AcDbLine
 10
4389.77240747004
 20
1914.030344885398
 11
4399.27240747004
 21
1919.515172442699
  0
LINE
  5
265
100
AcDbEntity
  8
1
  6
CONTINUOUS
 62
           3
100
AcDbLine
 10
4384.098367447228
 20
1917.30625341996
 11
4389.77240747004
 21
1914.030344885398
  0
LINE
  5
264
100
AcDbEntity
  8
1
  6
DOT_CENTER
 62
           3
100
AcDbLine
 10
4365.827359337623
 20
1925.0
 11
4407.276535041448
 21
1925.0
  0
LINE
  5
263
100
AcDbEntity
  8
1
  6
CONTINUOUS
 62
           3
100
AcDbLine
 10
4378.998054650941
 20
1916.75
 11
4378.998054650941
 21
1917.30625341996
  0
LINE
  5
262
100
AcDbEntity
  8
1
  6
CONTINUOUS
 62
           3
100
AcDbLine
 10
4378.998054650941
 20
1916.75
 11
4369.323443685644
 21
1916.75
  0
LINE
  5
261
100
AcDbEntity
  8
1
  6
CONTINUOUS
 62
           3
100
AcDbLine
 10
4369.323443685644
 20
1916.75
 11
4369.323443685644
 21
1925.0
  0
LINE
  5
260
100
AcDbEntity
  8
1
  6
CONTINUOUS
 62
           3
100
AcDbLine
 10
4369.323443685644
 20
1919.0
 11
4368.477638163464
 21
1919.0
  0
LINE
  5
25F
100
AcDbEntity
  8
1
  6
CONTINUOUS
 62
           3
100
AcDbLine
 10
4368.477638163464
 20
1917.30625341996
 11
4368.477638163464
 21
1925.0
  0
LINE
  5
25E
100
AcDbEntity
  8
1
  6
CONTINUOUS
 62
           3
100
AcDbLine
 10
4368.477638163464
 20
1917.30625341996
 11
4367.77240747004
 21
1917.30625341996
  0
LINE
  5
25D
100
AcDbEntity
  8
1
  6
CONTINUOUS
 62
           3
100
AcDbLine
 10
4367.27240747004
 20
1925.0
 11
4367.27240747004
 21
1917.80625341996
  0
LINE
  5
25C
100
AcDbEntity
  8
1
  6
CONTINUOUS
 62
           3
100
AcDbLine
 10
4367.27240747004
 20
1932.19374658004
 11
4367.27240747004
 21
1925.0
  0
LINE
  5
25B
100
AcDbEntity
  8
1
  6
CONTINUOUS
 62
           3
100
AcDbLine
 10
4367.77240747004
 20
1932.69374658004
 11
4368.477638163464
 21
1932.69374658004
  0
LINE
  5
25A
100
AcDbEntity
  8
1
  6
CONTINUOUS
 62
           3
100
AcDbLine
 10
4368.477638163464
 20
1925.0
 11
4368.477638163464
 21
1932.69374658004
  0
LINE
  5
259
100
AcDbEntity
  8
1
  6
CONTINUOUS
 62
           3
100
AcDbLine
 10
4368.477638163464
 20
1931.0
 11
4369.323443685644
 21
1931.0
  0
LINE
  5
258
100
AcDbEntity
  8
1
  6
CONTINUOUS
 62
           3
100
AcDbLine
 10
4369.323443685644
 20
1933.25
 11
4378.998054650941
 21
1933.25
  0
LINE
  5
257
100
AcDbEntity
  8
1
  6
CONTINUOUS
 62
           3
100
AcDbLine
 10
4369.323443685644
 20
1925.0
 11
4369.323443685644
 21
1933.25
  0
LINE
  5
256
100
AcDbEntity
  8
1
  6
CONTINUOUS
 62
           3
100
AcDbLine
 10
4378.998054650941
 20
1932.69374658004
 11
4378.998054650941
 21
1933.25
  0
LINE
  5
255
100
AcDbEntity
  8
1
  6
CONTINUOUS
 62
           3
100
AcDbLine
 10
4378.998054650941
 20
1917.30625341996
 11
4378.998054650941
 21
1932.69374658004
  0
LINE
  5
254
100
AcDbEntity
  8
1
  6
CONTINUOUS
 62
           3
100
AcDbLine
 10
4384.863170197628
 20
1917.30625341996
 11
4384.863170197628
 21
1932.69374658004
  0
LINE
  5
253
100
AcDbEntity
  8
1
  6
CONTINUOUS
 62
           3
100
AcDbLine
 10
4384.863170197628
 20
1917.30625341996
 11
4378.998054650941
 21
1917.30625341996
  0
LINE
  5
252
100
AcDbEntity
  8
1
  6
CONTINUOUS
 62
           3
100
AcDbLine
 10
4384.863170197628
 20
1932.69374658004
 11
4378.998054650941
 21
1932.69374658004
  0
LINE
  5
251
100
AcDbEntity
  8
1
  6
CONTINUOUS
 62
           3
100
AcDbLine
 10
4384.863170197628
 20
1930.871834995069
 11
4389.77240747004
 21
1930.871834995069
  0
LINE
  5
250
100
AcDbEntity
  8
1
  6
DOT_CENTER
 62
           3
100
AcDbLine
 10
4389.77240747004
 20
1938.643555804874
 11
4389.77240747004
 21
1907.508008255125
  0
LINE
  5
24F
100
AcDbEntity
  8
1
  6
CONTINUOUS
 62
           3
100
AcDbLine
 10
4389.77240747004
 20
1919.128165004934
 11
4384.863170197628
 21
1919.128165004934
  0
LINE
  5
24E
100
AcDbEntity
  8
0
  6
CONTINUOUS
 62
           3
100
AcDbLine
 10
3884.45356327317
 20
1393.116392195192
 11
3885.50883650067
 21
1393.131740391393
  0
LINE
  5
24D
100
AcDbEntity
  8
0
  6
CONTINUOUS
 62
           3
100
AcDbLine
 10
3883.512645282272
 20
1393.072016537194
 11
3884.45356327317
 21
1393.116392195192
  0
LINE
  5
24C
100
AcDbEntity
  8
0
  6
CONTINUOUS
 62
           3
100
AcDbLine
 10
3882.788045352574
 20
1393.003411590992
 11
3883.512645282272
 21
1393.072016537194
  0
LINE
  5
24B
100
AcDbEntity
  8
0
  6
CONTINUOUS
 62
           3
100
AcDbLine
 10
3882.358285619373
 20
1392.918020486792
 11
3882.788045352574
 21
1393.003411590992
  0
LINE
  5
24A
100
AcDbEntity
  8
0
  6
CONTINUOUS
 62
           3
100
AcDbLine
 10
3882.269936867373
 20
1392.825089394992
 11
3882.358285619373
 21
1392.918020486792
  0
LINE
  5
249
100
AcDbEntity
  8
0
  6
CONTINUOUS
 62
           3
100
AcDbLine
 10
3882.508836474573
 20
1392.739541828793
 11
3882.269936867373
 21
1392.825089394992
  0
LINE
  5
248
100
AcDbEntity
  8
0
  6
CONTINUOUS
 62
           3
100
AcDbLine
 10
3888.747736133968
 20
1392.825089394992
 11
3888.508836526768
 21
1392.739541828793
  0
LINE
  5
247
100
AcDbEntity
  8
0
  6
CONTINUOUS
 62
           3
100
AcDbLine
 10
3888.659387381967
 20
1392.918020486792
 11
3888.747736133968
 21
1392.825089394992
  0
LINE
  5
246
100
AcDbEntity
  8
0
  6
CONTINUOUS
 62
           3
100
AcDbLine
 10
3888.229627648768
 20
1393.003411590992
 11
3888.659387381967
 21
1392.918020486792
  0
LINE
  5
245
100
AcDbEntity
  8
0
  6
CONTINUOUS
 62
           3
100
AcDbLine
 10
3887.505027719069
 20
1393.072016537194
 11
3888.229627648768
 21
1393.003411590992
  0
LINE
  5
244
100
AcDbEntity
  8
0
  6
CONTINUOUS
 62
           3
100
AcDbLine
 10
3886.56410972817
 20
1393.116392195192
 11
3887.505027719069
 21
1393.072016537194
  0
LINE
  5
243
100
AcDbEntity
  8
0
  6
CONTINUOUS
 62
           3
100
AcDbLine
 10
3885.50883650067
 20
1393.131740391393
 11
3886.56410972817
 21
1393.116392195192
  0
LINE
  5
242
100
AcDbEntity
  8
FORMAT
  6
CONTINUOUS
 62
           3
100
AcDbLine
 10
3882.008836500574
 20
1392.596845102893
 11
3871.50883650058
 21
1392.596845102893
  0
LINE
  5
241
100
AcDbEntity
  8
FORMAT
  6
DOT_CENTER
 62
           3
100
AcDbLine
 10
3885.50883650067
 20
1249.759397252256
 11
3885.50883650067
 21
1725.394390768569
  0
LINE
  5
240
100
AcDbEntity
  8
FORMAT
  6
CONTINUOUS
 62
           3
100
AcDbLine
 10
3889.008836500766
 20
1392.596845102893
 11
3882.008836500574
 21
1392.596845102893
  0
LINE
  5
23F
100
AcDbEntity
  8
FORMAT
  6
CONTINUOUS
 62
           3
100
AcDbLine
 10
3899.50883650076
 20
1392.596845102893
 11
3889.008836500766
 21
1392.596845102893
  0
LINE
  5
23E
100
AcDbEntity
  8
FORMAT
  6
DOT_CENTER
 62
           3
100
AcDbLine
 10
3810.608836500633
 20
1375.000000000007
 11
3797.008836500741
 21
1375.000000000007
  0
LINE
  5
23D
100
AcDbEntity
  8
FORMAT
  6
DOT_CENTER
 62
           3
100
AcDbLine
 10
3810.608836500633
 20
1625.0
 11
3797.008836500741
 21
1625.0
  0
LINE
  5
23C
100
AcDbEntity
  8
0
  6
CONTINUOUS
 62
           3
100
AcDbLine
 10
3820.508838885024
 20
1364.999994635815
 11
3805.108838968235
 21
1364.999994635815
  0
LINE
  5
23B
100
AcDbEntity
  8
0
  6
CONTINUOUS
 62
           3
100
AcDbLine
 10
3824.00883480212
 20
1590.000003576231
 11
3824.00883480212
 21
1509.999999776395
  0
LINE
  5
23A
100
AcDbEntity
  8
0
  6
CONTINUOUS
 62
           3
100
AcDbLine
 10
3827.008837156518
 20
1590.000003576231
 11
3824.00883480212
 21
1590.000003576231
  0
LINE
  5
239
100
AcDbEntity
  8
0
  6
CONTINUOUS
 62
           3
100
AcDbLine
 10
3827.008837156518
 20
1550.000000744964
 11
3827.008837156518
 21
1590.000003576231
  0
LINE
  5
238
100
AcDbEntity
  8
0
  6
CONTINUOUS
 62
           3
100
AcDbLine
 10
3827.008837156518
 20
1529.999999329481
 11
3827.008837156518
 21
1532.000001519879
  0
LINE
  5
237
100
AcDbEntity
  8
0
  6
CONTINUOUS
 62
           3
100
AcDbLine
 10
3824.00883480212
 20
1509.999999776395
 11
3825.584029101321
 21
1509.999999776395
  0
LINE
  5
236
100
AcDbEntity
  8
0
  6
CONTINUOUS
 62
           3
100
AcDbLine
 10
3945.508835159621
 20
1368.000000715314
 11
3945.508835159621
 21
1367.300003767014
  0
LINE
  5
235
100
AcDbEntity
  8
0
  6
CONTINUOUS
 62
           3
100
AcDbLine
 10
3950.508834116316
 20
1364.999994635815
 11
3950.508834116316
 21
1368.000000715314
  0
LINE
  5
234
100
AcDbEntity
  8
0
  6
CONTINUOUS
 62
           3
100
AcDbLine
 10
3950.508834116316
 20
1635.000005364197
 11
3950.508834116316
 21
1631.999999284697
  0
LINE
  5
233
100
AcDbEntity
  8
0
  6
CONTINUOUS
 62
           3
100
AcDbLine
 10
3945.508835159621
 20
1631.999999284697
 11
3945.508835159621
 21
1632.699996232994
  0
LINE
  5
232
100
AcDbEntity
  8
0
  6
CONTINUOUS
 62
           3
100
AcDbLine
 10
3825.508837841719
 20
1631.999999284697
 11
3825.508837841719
 21
1632.699996232994
  0
LINE
  5
231
100
AcDbEntity
  8
0
  6
CONTINUOUS
 62
           3
100
AcDbLine
 10
3820.508838885024
 20
1635.000005364197
 11
3820.508838885024
 21
1631.999999284697
  0
LINE
  5
230
100
AcDbEntity
  8
0
  6
CONTINUOUS
 62
           3
100
AcDbLine
 10
3820.508838885024
 20
1635.000005364197
 11
3805.108838968235
 21
1635.000005364197
  0
LINE
  5
22F
100
AcDbEntity
  8
0
  6
CONTINUOUS
 62
           3
100
AcDbLine
 10
3820.508838885024
 20
1364.999994635815
 11
3820.508838885024
 21
1368.000000715314
  0
LINE
  5
22E
100
AcDbEntity
  8
0
  6
CONTINUOUS
 62
           3
100
AcDbLine
 10
3825.508837841719
 20
1368.000000715314
 11
3825.508837841719
 21
1367.300003767014
  0
LINE
  5
22D
100
AcDbEntity
  8
0
  6
CONTINUOUS
 62
           3
100
AcDbLine
 10
3824.00883480212
 20
1409.99999642378
 11
3824.00883480212
 21
1490.000000223612
  0
LINE
  5
22C
100
AcDbEntity
  8
0
  6
CONTINUOUS
 62
           3
100
AcDbLine
 10
3824.00883480212
 20
1490.000000223612
 11
3825.508837841719
 21
1490.000000223612
  0
LINE
  5
22B
100
AcDbEntity
  8
0
  6
CONTINUOUS
 62
           3
100
AcDbLine
 10
3827.008837156518
 20
1431.999996304559
 11
3827.008837156518
 21
1429.999999701963
  0
LINE
  5
22A
100
AcDbEntity
  8
0
  6
CONTINUOUS
 62
           3
100
AcDbLine
 10
3825.584029101321
 20
1409.99999642378
 11
3824.00883480212
 21
1409.99999642378
  0
LINE
  5
229
100
AcDbEntity
  8
0
  6
CONTINUOUS
 62
           3
100
AcDbLine
 10
3947.008838199218
 20
1590.000003576231
 11
3947.008838199218
 21
1509.999999776395
  0
LINE
  5
228
100
AcDbEntity
  8
0
  6
CONTINUOUS
 62
           3
100
AcDbLine
 10
3947.008838199218
 20
1509.999999776395
 11
3945.43364390002
 21
1509.999999776395
  0
LINE
  5
227
100
AcDbEntity
  8
0
  6
CONTINUOUS
 62
           3
100
AcDbLine
 10
3944.008835845123
 20
1550.000000744964
 11
3944.008835845123
 21
1590.000003576231
  0
LINE
  5
226
100
AcDbEntity
  8
0
  6
CONTINUOUS
 62
           3
100
AcDbLine
 10
3944.008835845123
 20
1529.999999329481
 11
3944.008835845123
 21
1532.000001519879
  0
LINE
  5
225
100
AcDbEntity
  8
0
  6
CONTINUOUS
 62
           3
100
AcDbLine
 10
3944.008835845123
 20
1590.000003576231
 11
3947.008838199218
 21
1590.000003576231
  0
LINE
  5
224
100
AcDbEntity
  8
0
  6
CONTINUOUS
 62
           3
100
AcDbLine
 10
3947.008838199218
 20
1409.99999642378
 11
3947.008838199218
 21
1490.000000223612
  0
LINE
  5
223
100
AcDbEntity
  8
0
  6
CONTINUOUS
 62
           3
100
AcDbLine
 10
3945.43364390002
 20
1409.99999642378
 11
3947.008838199218
 21
1409.99999642378
  0
LINE
  5
222
100
AcDbEntity
  8
0
  6
CONTINUOUS
 62
           3
100
AcDbLine
 10
3944.008835845123
 20
1431.999996304559
 11
3944.008835845123
 21
1429.999999701963
  0
LINE
  5
221
100
AcDbEntity
  8
0
  6
CONTINUOUS
 62
           3
100
AcDbLine
 10
3947.008838199218
 20
1490.000000223612
 11
3945.508835159621
 21
1490.000000223612
  0
LINE
  5
220
100
AcDbEntity
  8
0
  6
CONTINUOUS
 62
           3
100
AcDbLine
 10
3805.108838968235
 20
1635.000005364197
 11
3803.008833222339
 21
1635.000005364197
  0
LINE
  5
21F
100
AcDbEntity
  8
0
  6
CONTINUOUS
 62
           3
100
AcDbLine
 10
3803.008833222339
 20
1635.000005364197
 11
3803.008833222339
 21
1364.999994635815
  0
LINE
  5
21E
100
AcDbEntity
  8
0
  6
CONTINUOUS
 62
           3
100
AcDbLine
 10
3805.108838968235
 20
1364.999994635815
 11
3803.008833222339
 21
1364.999994635815
  0
LINE
  5
21D
100
AcDbEntity
  8
0
  6
CONTINUOUS
 62
           3
100
AcDbLine
 10
3825.508837841719
 20
1366.600006818714
 11
3825.508837841719
 21
1367.300003767014
  0
LINE
  5
21C
100
AcDbEntity
  8
0
  6
CONTINUOUS
 62
           3
100
AcDbLine
 10
3945.508835159621
 20
1366.600006818714
 11
3945.508835159621
 21
1367.300003767014
  0
LINE
  5
21B
100
AcDbEntity
  8
0
  6
CONTINUOUS
 62
           3
100
AcDbLine
 10
3825.508837841719
 20
1633.399993180996
 11
3825.508837841719
 21
1632.699996232994
  0
LINE
  5
21A
100
AcDbEntity
  8
0
  6
CONTINUOUS
 62
           3
100
AcDbLine
 10
3945.508835159621
 20
1633.399993180996
 11
3945.508835159621
 21
1632.699996232994
  0
LINE
  5
219
100
AcDbEntity
  8
0
  6
CONTINUOUS
 62
           3
100
AcDbLine
 10
3940.508836202625
 20
1633.399993180996
 11
3945.508835159621
 21
1633.399993180996
  0
LINE
  5
218
100
AcDbEntity
  8
0
  6
CONTINUOUS
 62
           3
100
AcDbLine
 10
3945.508835159621
 20
1635.000005364197
 11
3940.508836202625
 21
1635.000005364197
  0
LINE
  5
217
100
AcDbEntity
  8
0
  6
CONTINUOUS
 62
           3
100
AcDbLine
 10
3945.508835159621
 20
1633.399993180996
 11
3945.508835159621
 21
1635.000005364197
  0
LINE
  5
216
100
AcDbEntity
  8
0
  6
CONTINUOUS
 62
           3
100
AcDbLine
 10
3940.508836202625
 20
1366.600006818714
 11
3945.508835159621
 21
1366.600006818714
  0
LINE
  5
215
100
AcDbEntity
  8
0
  6
CONTINUOUS
 62
           3
100
AcDbLine
 10
3945.508835159621
 20
1364.999994635815
 11
3940.508836202625
 21
1364.999994635815
  0
LINE
  5
214
100
AcDbEntity
  8
0
  6
CONTINUOUS
 62
           3
100
AcDbLine
 10
3945.508835159621
 20
1366.600006818714
 11
3945.508835159621
 21
1364.999994635815
  0
LINE
  5
213
100
AcDbEntity
  8
0
  6
CONTINUOUS
 62
           3
100
AcDbLine
 10
3930.508838288632
 20
1366.600006818714
 11
3932.50883489123
 21
1366.600006818714
  0
LINE
  5
212
100
AcDbEntity
  8
0
  6
CONTINUOUS
 62
           3
100
AcDbLine
 10
3932.50883489123
 20
1364.999994635815
 11
3930.508838288632
 21
1364.999994635815
  0
LINE
  5
211
100
AcDbEntity
  8
0
  6
CONTINUOUS
 62
           3
100
AcDbLine
 10
3932.50883489123
 20
1366.600006818714
 11
3932.50883489123
 21
1364.999994635815
  0
LINE
  5
210
100
AcDbEntity
  8
0
  6
CONTINUOUS
 62
           3
100
AcDbLine
 10
3930.508838288632
 20
1633.399993180996
 11
3932.50883489123
 21
1633.399993180996
  0
LINE
  5
20F
100
AcDbEntity
  8
0
  6
CONTINUOUS
 62
           3
100
AcDbLine
 10
3932.50883489123
 20
1635.000005364197
 11
3930.508838288632
 21
1635.000005364197
  0
LINE
  5
20E
100
AcDbEntity
  8
0
  6
CONTINUOUS
 62
           3
100
AcDbLine
 10
3932.50883489123
 20
1633.399993180996
 11
3932.50883489123
 21
1635.000005364197
  0
LINE
  5
20D
100
AcDbEntity
  8
0
  6
CONTINUOUS
 62
           3
100
AcDbLine
 10
3938.508835874925
 20
1366.600006818714
 11
3940.508836202625
 21
1366.600006818714
  0
LINE
  5
20C
100
AcDbEntity
  8
0
  6
CONTINUOUS
 62
           3
100
AcDbLine
 10
3940.508836202625
 20
1364.999994635815
 11
3938.508835874925
 21
1364.999994635815
  0
LINE
  5
20B
100
AcDbEntity
  8
0
  6
CONTINUOUS
 62
           3
100
AcDbLine
 10
3938.508835874925
 20
1364.999994635815
 11
3938.508835874925
 21
1366.600006818714
  0
LINE
  5
20A
100
AcDbEntity
  8
0
  6
CONTINUOUS
 62
           3
100
AcDbLine
 10
3938.508835874925
 20
1633.399993180996
 11
3940.508836202625
 21
1633.399993180996
  0
LINE
  5
209
100
AcDbEntity
  8
0
  6
CONTINUOUS
 62
           3
100
AcDbLine
 10
3940.508836202625
 20
1635.000005364197
 11
3938.508835874925
 21
1635.000005364197
  0
LINE
  5
208
100
AcDbEntity
  8
0
  6
CONTINUOUS
 62
           3
100
AcDbLine
 10
3938.508835874925
 20
1635.000005364197
 11
3938.508835874925
 21
1633.399993180996
  0
LINE
  5
207
100
AcDbEntity
  8
0
  6
CONTINUOUS
 62
           3
100
AcDbLine
 10
3830.508836798716
 20
1633.399993180996
 11
3825.508837841719
 21
1633.399993180996
  0
LINE
  5
206
100
AcDbEntity
  8
0
  6
CONTINUOUS
 62
           3
100
AcDbLine
 10
3825.508837841719
 20
1635.000005364197
 11
3830.508836798716
 21
1635.000005364197
  0
LINE
  5
205
100
AcDbEntity
  8
0
  6
CONTINUOUS
 62
           3
100
AcDbLine
 10
3825.508837841719
 20
1633.399993180996
 11
3825.508837841719
 21
1635.000005364197
  0
LINE
  5
204
100
AcDbEntity
  8
0
  6
CONTINUOUS
 62
           3
100
AcDbLine
 10
3830.508836798716
 20
1366.600006818714
 11
3825.508837841719
 21
1366.600006818714
  0
LINE
  5
203
100
AcDbEntity
  8
0
  6
CONTINUOUS
 62
           3
100
AcDbLine
 10
3825.508837841719
 20
1364.999994635815
 11
3830.508836798716
 21
1364.999994635815
  0
LINE
  5
202
100
AcDbEntity
  8
0
  6
CONTINUOUS
 62
           3
100
AcDbLine
 10
3825.508837841719
 20
1366.600006818714
 11
3825.508837841719
 21
1364.999994635815
  0
LINE
  5
201
100
AcDbEntity
  8
0
  6
CONTINUOUS
 62
           3
100
AcDbLine
 10
3840.508834712708
 20
1633.399993180996
 11
3930.508838288632
 21
1633.399993180996
  0
LINE
  5
200
100
AcDbEntity
  8
0
  6
CONTINUOUS
 62
           3
100
AcDbLine
 10
3840.508834712708
 20
1635.000005364197
 11
3930.508838288632
 21
1635.000005364197
  0
LINE
  5
1FF
100
AcDbEntity
  8
0
  6
CONTINUOUS
 62
           3
100
AcDbLine
 10
3840.508834712708
 20
1366.600006818714
 11
3930.508838288632
 21
1366.600006818714
  0
LINE
  5
1FE
100
AcDbEntity
  8
0
  6
CONTINUOUS
 62
           3
100
AcDbLine
 10
3840.508834712708
 20
1364.999994635815
 11
3930.508838288632
 21
1364.999994635815
  0
LINE
  5
1FD
100
AcDbEntity
  8
0
  6
CONTINUOUS
 62
           3
100
AcDbLine
 10
3840.508834712708
 20
1366.600006818714
 11
3838.508838110108
 21
1366.600006818714
  0
LINE
  5
1FC
100
AcDbEntity
  8
0
  6
CONTINUOUS
 62
           3
100
AcDbLine
 10
3838.508838110108
 20
1366.600006818714
 11
3838.508838110108
 21
1364.999994635815
  0
LINE
  5
1FB
100
AcDbEntity
  8
0
  6
CONTINUOUS
 62
           3
100
AcDbLine
 10
3838.508838110108
 20
1364.999994635815
 11
3840.508834712708
 21
1364.999994635815
  0
LINE
  5
1FA
100
AcDbEntity
  8
0
  6
CONTINUOUS
 62
           3
100
AcDbLine
 10
3840.508834712708
 20
1633.399993180996
 11
3838.508838110108
 21
1633.399993180996
  0
LINE
  5
1F9
100
AcDbEntity
  8
0
  6
CONTINUOUS
 62
           3
100
AcDbLine
 10
3838.508838110108
 20
1635.000005364197
 11
3840.508834712708
 21
1635.000005364197
  0
LINE
  5
1F8
100
AcDbEntity
  8
0
  6
CONTINUOUS
 62
           3
100
AcDbLine
 10
3838.508838110108
 20
1633.399993180996
 11
3838.508838110108
 21
1635.000005364197
  0
LINE
  5
1F7
100
AcDbEntity
  8
0
  6
CONTINUOUS
 62
           3
100
AcDbLine
 10
3832.508837126713
 20
1633.399993180996
 11
3830.508836798716
 21
1633.399993180996
  0
LINE
  5
1F6
100
AcDbEntity
  8
0
  6
CONTINUOUS
 62
           3
100
AcDbLine
 10
3832.508837126713
 20
1635.000005364197
 11
3832.508837126713
 21
1633.399993180996
  0
LINE
  5
1F5
100
AcDbEntity
  8
0
  6
CONTINUOUS
 62
           3
100
AcDbLine
 10
3830.508836798716
 20
1635.000005364197
 11
3832.508837126713
 21
1635.000005364197
  0
LINE
  5
1F4
100
AcDbEntity
  8
0
  6
CONTINUOUS
 62
           3
100
AcDbLine
 10
3832.508837126713
 20
1366.600006818714
 11
3830.508836798716
 21
1366.600006818714
  0
LINE
  5
1F3
100
AcDbEntity
  8
0
  6
CONTINUOUS
 62
           3
100
AcDbLine
 10
3830.508836798716
 20
1364.999994635815
 11
3832.508837126713
 21
1364.999994635815
  0
LINE
  5
1F2
100
AcDbEntity
  8
0
  6
CONTINUOUS
 62
           3
100
AcDbLine
 10
3832.508837126713
 20
1364.999994635815
 11
3832.508837126713
 21
1366.600006818714
  0
LINE
  5
1F1
100
AcDbEntity
  8
0
  6
CONTINUOUS
 62
           3
100
AcDbLine
 10
3945.43364390002
 20
1409.99999642378
 11
3943.808836184621
 21
1409.99999642378
  0
LINE
  5
1F0
100
AcDbEntity
  8
0
  6
CONTINUOUS
 62
           3
100
AcDbLine
 10
3943.808836184621
 20
1429.999999701963
 11
3945.508835159621
 21
1429.999999701963
  0
LINE
  5
1EF
100
AcDbEntity
  8
0
  6
CONTINUOUS
 62
           3
100
AcDbLine
 10
3945.508835159621
 20
1429.999999701963
 11
3945.508835159621
 21
1409.99999642378
  0
LINE
  5
1EE
100
AcDbEntity
  8
0
  6
CONTINUOUS
 62
           3
100
AcDbLine
 10
3825.508837841719
 20
1529.999999329481
 11
3827.208836816717
 21
1529.999999329481
  0
LINE
  5
1ED
100
AcDbEntity
  8
0
  6
CONTINUOUS
 62
           3
100
AcDbLine
 10
3825.508837841719
 20
1509.999999776395
 11
3825.508837841719
 21
1529.999999329481
  0
LINE
  5
1EC
100
AcDbEntity
  8
0
  6
CONTINUOUS
 62
           3
100
AcDbLine
 10
3827.208836816717
 20
1509.999999776395
 11
3825.584029101321
 21
1509.999999776395
  0
LINE
  5
1EB
100
AcDbEntity
  8
0
  6
CONTINUOUS
 62
           3
100
AcDbLine
 10
3825.584029101321
 20
1409.99999642378
 11
3827.208836816717
 21
1409.99999642378
  0
LINE
  5
1EA
100
AcDbEntity
  8
0
  6
CONTINUOUS
 62
           3
100
AcDbLine
 10
3827.208836816717
 20
1429.999999701963
 11
3825.508837841719
 21
1429.999999701963
  0
LINE
  5
1E9
100
AcDbEntity
  8
0
  6
CONTINUOUS
 62
           3
100
AcDbLine
 10
3825.508837841719
 20
1429.999999701963
 11
3825.508837841719
 21
1409.99999642378
  0
LINE
  5
1E8
100
AcDbEntity
  8
0
  6
CONTINUOUS
 62
           3
100
AcDbLine
 10
3827.208836816717
 20
1529.999999329481
 11
3827.508838169717
 21
1529.999999329481
  0
LINE
  5
1E7
100
AcDbEntity
  8
0
  6
CONTINUOUS
 62
           3
100
AcDbLine
 10
3827.508838169717
 20
1509.999999776395
 11
3827.208836816717
 21
1509.999999776395
  0
LINE
  5
1E6
100
AcDbEntity
  8
0
  6
CONTINUOUS
 62
           3
100
AcDbLine
 10
3825.508837841719
 20
1508.0000003799
 11
3827.508838169717
 21
1508.0000003799
  0
LINE
  5
1E5
100
AcDbEntity
  8
0
  6
CONTINUOUS
 62
           3
100
AcDbLine
 10
3825.508837841719
 20
1508.0000003799
 11
3825.508837841719
 21
1431.999996304559
  0
LINE
  5
1E4
100
AcDbEntity
  8
0
  6
CONTINUOUS
 62
           3
100
AcDbLine
 10
3825.508837841719
 20
1431.999996304559
 11
3827.508838169717
 21
1431.999996304559
  0
LINE
  5
1E3
100
AcDbEntity
  8
0
  6
CONTINUOUS
 62
           3
100
AcDbLine
 10
3827.508838169717
 20
1429.999999701963
 11
3827.208836816717
 21
1429.999999701963
  0
LINE
  5
1E2
100
AcDbEntity
  8
0
  6
CONTINUOUS
 62
           3
100
AcDbLine
 10
3827.208836816717
 20
1409.99999642378
 11
3827.508838169717
 21
1409.99999642378
  0
LINE
  5
1E1
100
AcDbEntity
  8
0
  6
CONTINUOUS
 62
           3
100
AcDbLine
 10
3827.508838169717
 20
1407.999999821183
 11
3825.508837841719
 21
1407.999999821183
  0
LINE
  5
1E0
100
AcDbEntity
  8
0
  6
CONTINUOUS
 62
           3
100
AcDbLine
 10
3825.508837841719
 20
1391.699999570792
 11
3825.508837841719
 21
1407.999999821183
  0
LINE
  5
1DF
100
AcDbEntity
  8
0
  6
CONTINUOUS
 62
           3
100
AcDbLine
 10
3945.508835159621
 20
1391.699999570792
 11
3945.508835159621
 21
1407.999999821183
  0
LINE
  5
1DE
100
AcDbEntity
  8
0
  6
CONTINUOUS
 62
           3
100
AcDbLine
 10
3943.508834831624
 20
1407.999999821183
 11
3945.508835159621
 21
1407.999999821183
  0
LINE
  5
1DD
100
AcDbEntity
  8
0
  6
CONTINUOUS
 62
           3
100
AcDbLine
 10
3943.808836184621
 20
1409.99999642378
 11
3943.508834831624
 21
1409.99999642378
  0
LINE
  5
1DC
100
AcDbEntity
  8
0
  6
CONTINUOUS
 62
           3
100
AcDbLine
 10
3943.508834831624
 20
1429.999999701963
 11
3943.808836184621
 21
1429.999999701963
  0
LINE
  5
1DB
100
AcDbEntity
  8
0
  6
CONTINUOUS
 62
           3
100
AcDbLine
 10
3945.508835159621
 20
1431.999996304559
 11
3943.508834831624
 21
1431.999996304559
  0
LINE
  5
1DA
100
AcDbEntity
  8
0
  6
CONTINUOUS
 62
           3
100
AcDbLine
 10
3945.508835159621
 20
1508.0000003799
 11
3945.508835159621
 21
1431.999996304559
  0
LINE
  5
1D9
100
AcDbEntity
  8
0
  6
CONTINUOUS
 62
           3
100
AcDbLine
 10
3945.508835159621
 20
1508.0000003799
 11
3943.508834831624
 21
1508.0000003799
  0
LINE
  5
1D8
100
AcDbEntity
  8
0
  6
CONTINUOUS
 62
           3
100
AcDbLine
 10
3943.508834831624
 20
1509.999999776395
 11
3943.808836184621
 21
1509.999999776395
  0
LINE
  5
1D7
100
AcDbEntity
  8
0
  6
CONTINUOUS
 62
           3
100
AcDbLine
 10
3943.808836184621
 20
1529.999999329481
 11
3943.508834831624
 21
1529.999999329481
  0
LINE
  5
1D6
100
AcDbEntity
  8
0
  6
CONTINUOUS
 62
           3
100
AcDbLine
 10
3943.508834831624
 20
1532.000001519879
 11
3945.508835159621
 21
1532.000001519879
  0
LINE
  5
1D5
100
AcDbEntity
  8
0
  6
CONTINUOUS
 62
           3
100
AcDbLine
 10
3945.508835159621
 20
1548.300001770265
 11
3945.508835159621
 21
1532.000001519879
  0
LINE
  5
1D4
100
AcDbEntity
  8
0
  6
CONTINUOUS
 62
           3
100
AcDbLine
 10
3825.508837841719
 20
1548.300001770265
 11
3825.508837841719
 21
1532.000001519879
  0
LINE
  5
1D3
100
AcDbEntity
  8
0
  6
CONTINUOUS
 62
           3
100
AcDbLine
 10
3827.508838169717
 20
1532.000001519879
 11
3825.508837841719
 21
1532.000001519879
  0
LINE
  5
1D2
100
AcDbEntity
  8
0
  6
CONTINUOUS
 62
           3
100
AcDbLine
 10
3943.808836184621
 20
1509.999999776395
 11
3945.43364390002
 21
1509.999999776395
  0
LINE
  5
1D1
100
AcDbEntity
  8
0
  6
CONTINUOUS
 62
           3
100
AcDbLine
 10
3945.508835159621
 20
1509.999999776395
 11
3945.508835159621
 21
1529.999999329481
  0
LINE
  5
1D0
100
AcDbEntity
  8
0
  6
CONTINUOUS
 62
           3
100
AcDbLine
 10
3945.508835159621
 20
1529.999999329481
 11
3943.808836184621
 21
1529.999999329481
  0
LINE
  5
1CF
100
AcDbEntity
  8
0
  6
CONTINUOUS
 62
           3
100
AcDbLine
 10
3945.508835159621
 20
1548.799999058065
 11
3945.508835159621
 21
1548.300001770265
  0
LINE
  5
1CE
100
AcDbEntity
  8
0
  6
CONTINUOUS
 62
           3
100
AcDbLine
 10
3825.508837841719
 20
1548.799999058065
 11
3825.508837841719
 21
1548.300001770265
  0
LINE
  5
1CD
100
AcDbEntity
  8
0
  6
CONTINUOUS
 62
           3
100
AcDbLine
 10
3825.508837841719
 20
1391.199998557593
 11
3825.508837841719
 21
1391.699999570792
  0
LINE
  5
1CC
100
AcDbEntity
  8
0
  6
CONTINUOUS
 62
           3
100
AcDbLine
 10
3945.508835159621
 20
1391.199998557593
 11
3945.508835159621
 21
1391.699999570792
  0
LINE
  5
1CB
100
AcDbEntity
  8
0
  6
CONTINUOUS
 62
           3
100
AcDbLine
 10
3888.508836526768
 20
1550.000000744964
 11
3888.758836567768
 21
1550.000000744964
  0
LINE
  5
1CA
100
AcDbEntity
  8
0
  6
CONTINUOUS
 62
           3
100
AcDbLine
 10
3882.258836433573
 20
1550.000000744964
 11
3882.508836474573
 21
1550.000000744964
  0
LINE
  5
1C9
100
AcDbEntity
  8
0
  6
CONTINUOUS
 62
           3
100
AcDbLine
 10
3888.508836526768
 20
1548.799999058065
 11
3888.758836567768
 21
1548.799999058065
  0
LINE
  5
1C8
100
AcDbEntity
  8
0
  6
CONTINUOUS
 62
           3
100
AcDbLine
 10
3882.258836433573
 20
1548.799999058065
 11
3882.508836474573
 21
1548.799999058065
  0
LINE
  5
1C7
100
AcDbEntity
  8
0
  6
CONTINUOUS
 62
           3
100
AcDbLine
 10
3882.508836474573
 20
1391.199998557593
 11
3882.258836433573
 21
1391.199998557593
  0
LINE
  5
1C6
100
AcDbEntity
  8
0
  6
CONTINUOUS
 62
           3
100
AcDbLine
 10
3888.758836567768
 20
1391.199998557593
 11
3888.508836526768
 21
1391.199998557593
  0
LINE
  5
1C5
100
AcDbEntity
  8
0
  6
CONTINUOUS
 62
           3
100
AcDbLine
 10
3830.508836798716
 20
1391.199998557593
 11
3825.508837841719
 21
1391.199998557593
  0
LINE
  5
1C4
100
AcDbEntity
  8
0
  6
CONTINUOUS
 62
           3
100
AcDbLine
 10
3825.508837841719
 20
1390.000000596097
 11
3830.508836798716
 21
1390.000000596097
  0
LINE
  5
1C3
100
AcDbEntity
  8
0
  6
CONTINUOUS
 62
           3
100
AcDbLine
 10
3825.508837841719
 20
1391.199998557593
 11
3825.508837841719
 21
1390.000000596097
  0
LINE
  5
1C2
100
AcDbEntity
  8
0
  6
CONTINUOUS
 62
           3
100
AcDbLine
 10
3825.508837841719
 20
1550.000000744964
 11
3830.508836798716
 21
1550.000000744964
  0
LINE
  5
1C1
100
AcDbEntity
  8
0
  6
CONTINUOUS
 62
           3
100
AcDbLine
 10
3830.508836798716
 20
1548.799999058065
 11
3825.508837841719
 21
1548.799999058065
  0
LINE
  5
1C0
100
AcDbEntity
  8
0
  6
CONTINUOUS
 62
           3
100
AcDbLine
 10
3825.508837841719
 20
1548.799999058065
 11
3825.508837841719
 21
1550.000000744964
  0
LINE
  5
1BF
100
AcDbEntity
  8
0
  6
CONTINUOUS
 62
           3
100
AcDbLine
 10
3930.508838288632
 20
1550.000000744964
 11
3915.508835830145
 21
1550.000000744964
  0
LINE
  5
1BE
100
AcDbEntity
  8
0
  6
CONTINUOUS
 62
           3
100
AcDbLine
 10
3930.508838288632
 20
1548.799999058065
 11
3915.508835830145
 21
1548.799999058065
  0
LINE
  5
1BD
100
AcDbEntity
  8
0
  6
CONTINUOUS
 62
           3
100
AcDbLine
 10
3945.508835159621
 20
1550.000000744964
 11
3940.508836202625
 21
1550.000000744964
  0
LINE
  5
1BC
100
AcDbEntity
  8
0
  6
CONTINUOUS
 62
           3
100
AcDbLine
 10
3940.508836202625
 20
1548.799999058065
 11
3945.508835159621
 21
1548.799999058065
  0
LINE
  5
1BB
100
AcDbEntity
  8
0
  6
CONTINUOUS
 62
           3
100
AcDbLine
 10
3945.508835159621
 20
1548.799999058065
 11
3945.508835159621
 21
1550.000000744964
  0
LINE
  5
1BA
100
AcDbEntity
  8
0
  6
CONTINUOUS
 62
           3
100
AcDbLine
 10
3930.508838288632
 20
1391.199998557593
 11
3915.508835830145
 21
1391.199998557593
  0
LINE
  5
1B9
100
AcDbEntity
  8
0
  6
CONTINUOUS
 62
           3
100
AcDbLine
 10
3930.508838288632
 20
1390.000000596097
 11
3915.508835830145
 21
1390.000000596097
  0
LINE
  5
1B8
100
AcDbEntity
  8
0
  6
CONTINUOUS
 62
           3
100
AcDbLine
 10
3840.508834712708
 20
1550.000000744964
 11
3855.508837171195
 21
1550.000000744964
  0
LINE
  5
1B7
100
AcDbEntity
  8
0
  6
CONTINUOUS
 62
           3
100
AcDbLine
 10
3840.508834712708
 20
1548.799999058065
 11
3855.508837171195
 21
1548.799999058065
  0
LINE
  5
1B6
100
AcDbEntity
  8
0
  6
CONTINUOUS
 62
           3
100
AcDbLine
 10
3940.508836202625
 20
1391.199998557593
 11
3945.508835159621
 21
1391.199998557593
  0
LINE
  5
1B5
100
AcDbEntity
  8
0
  6
CONTINUOUS
 62
           3
100
AcDbLine
 10
3945.508835159621
 20
1390.000000596097
 11
3940.508836202625
 21
1390.000000596097
  0
LINE
  5
1B4
100
AcDbEntity
  8
0
  6
CONTINUOUS
 62
           3
100
AcDbLine
 10
3945.508835159621
 20
1391.199998557593
 11
3945.508835159621
 21
1390.000000596097
  0
LINE
  5
1B3
100
AcDbEntity
  8
0
  6
CONTINUOUS
 62
           3
100
AcDbLine
 10
3840.508834712708
 20
1391.199998557593
 11
3855.508837171195
 21
1391.199998557593
  0
LINE
  5
1B2
100
AcDbEntity
  8
0
  6
CONTINUOUS
 62
           3
100
AcDbLine
 10
3840.508834712708
 20
1390.000000596097
 11
3855.508837171195
 21
1390.000000596097
  0
LINE
  5
1B1
100
AcDbEntity
  8
0
  6
CONTINUOUS
 62
           3
100
AcDbLine
 10
3838.508838110108
 20
1550.000000744964
 11
3840.508834712708
 21
1550.000000744964
  0
LINE
  5
1B0
100
AcDbEntity
  8
0
  6
CONTINUOUS
 62
           3
100
AcDbLine
 10
3840.508834712708
 20
1548.799999058065
 11
3838.508838110108
 21
1548.799999058065
  0
LINE
  5
1AF
100
AcDbEntity
  8
0
  6
CONTINUOUS
 62
           3
100
AcDbLine
 10
3838.508838110108
 20
1548.799999058065
 11
3838.508838110108
 21
1550.000000744964
  0
LINE
  5
1AE
100
AcDbEntity
  8
0
  6
CONTINUOUS
 62
           3
100
AcDbLine
 10
3830.508836798716
 20
1550.000000744964
 11
3832.508837126713
 21
1550.000000744964
  0
LINE
  5
1AD
100
AcDbEntity
  8
0
  6
CONTINUOUS
 62
           3
100
AcDbLine
 10
3832.508837126713
 20
1548.799999058065
 11
3830.508836798716
 21
1548.799999058065
  0
LINE
  5
1AC
100
AcDbEntity
  8
0
  6
CONTINUOUS
 62
           3
100
AcDbLine
 10
3832.508837126713
 20
1550.000000744964
 11
3832.508837126713
 21
1548.799999058065
  0
LINE
  5
1AB
100
AcDbEntity
  8
0
  6
CONTINUOUS
 62
           3
100
AcDbLine
 10
3930.508838288632
 20
1391.199998557593
 11
3932.50883489123
 21
1391.199998557593
  0
LINE
  5
1AA
100
AcDbEntity
  8
0
  6
CONTINUOUS
 62
           3
100
AcDbLine
 10
3932.50883489123
 20
1390.000000596097
 11
3930.508838288632
 21
1390.000000596097
  0
LINE
  5
1A9
100
AcDbEntity
  8
0
  6
CONTINUOUS
 62
           3
100
AcDbLine
 10
3932.50883489123
 20
1391.199998557593
 11
3932.50883489123
 21
1390.000000596097
  0
LINE
  5
1A8
100
AcDbEntity
  8
0
  6
CONTINUOUS
 62
           3
100
AcDbLine
 10
3938.508835874925
 20
1391.199998557593
 11
3940.508836202625
 21
1391.199998557593
  0
LINE
  5
1A7
100
AcDbEntity
  8
0
  6
CONTINUOUS
 62
           3
100
AcDbLine
 10
3940.508836202625
 20
1390.000000596097
 11
3938.508835874925
 21
1390.000000596097
  0
LINE
  5
1A6
100
AcDbEntity
  8
0
  6
CONTINUOUS
 62
           3
100
AcDbLine
 10
3938.508835874925
 20
1390.000000596097
 11
3938.508835874925
 21
1391.199998557593
  0
LINE
  5
1A5
100
AcDbEntity
  8
0
  6
CONTINUOUS
 62
           3
100
AcDbLine
 10
3932.50883489123
 20
1550.000000744964
 11
3930.508838288632
 21
1550.000000744964
  0
LINE
  5
1A4
100
AcDbEntity
  8
0
  6
CONTINUOUS
 62
           3
100
AcDbLine
 10
3930.508838288632
 20
1548.799999058065
 11
3932.50883489123
 21
1548.799999058065
  0
LINE
  5
1A3
100
AcDbEntity
  8
0
  6
CONTINUOUS
 62
           3
100
AcDbLine
 10
3932.50883489123
 20
1548.799999058065
 11
3932.50883489123
 21
1550.000000744964
  0
LINE
  5
1A2
100
AcDbEntity
  8
0
  6
CONTINUOUS
 62
           3
100
AcDbLine
 10
3940.508836202625
 20
1550.000000744964
 11
3938.508835874925
 21
1550.000000744964
  0
LINE
  5
1A1
100
AcDbEntity
  8
0
  6
CONTINUOUS
 62
           3
100
AcDbLine
 10
3938.508835874925
 20
1548.799999058065
 11
3940.508836202625
 21
1548.799999058065
  0
LINE
  5
1A0
100
AcDbEntity
  8
0
  6
CONTINUOUS
 62
           3
100
AcDbLine
 10
3938.508835874925
 20
1550.000000744964
 11
3938.508835874925
 21
1548.799999058065
  0
LINE
  5
19F
100
AcDbEntity
  8
0
  6
CONTINUOUS
 62
           3
100
AcDbLine
 10
3840.508834712708
 20
1391.199998557593
 11
3838.508838110108
 21
1391.199998557593
  0
LINE
  5
19E
100
AcDbEntity
  8
0
  6
CONTINUOUS
 62
           3
100
AcDbLine
 10
3838.508838110108
 20
1390.000000596097
 11
3840.508834712708
 21
1390.000000596097
  0
LINE
  5
19D
100
AcDbEntity
  8
0
  6
CONTINUOUS
 62
           3
100
AcDbLine
 10
3838.508838110108
 20
1391.199998557593
 11
3838.508838110108
 21
1390.000000596097
  0
LINE
  5
19C
100
AcDbEntity
  8
0
  6
CONTINUOUS
 62
           3
100
AcDbLine
 10
3832.508837126713
 20
1391.199998557593
 11
3830.508836798716
 21
1391.199998557593
  0
LINE
  5
19B
100
AcDbEntity
  8
0
  6
CONTINUOUS
 62
           3
100
AcDbLine
 10
3830.508836798716
 20
1390.000000596097
 11
3832.508837126713
 21
1390.000000596097
  0
LINE
  5
19A
100
AcDbEntity
  8
0
  6
CONTINUOUS
 62
           3
100
AcDbLine
 10
3832.508837126713
 20
1390.000000596097
 11
3832.508837126713
 21
1391.199998557593
  0
LINE
  5
199
100
AcDbEntity
  8
0
  6
CONTINUOUS
 62
           3
100
AcDbLine
 10
3882.008836392572
 20
1391.199998557593
 11
3882.258836433573
 21
1391.199998557593
  0
LINE
  5
198
100
AcDbEntity
  8
0
  6
CONTINUOUS
 62
           3
100
AcDbLine
 10
3882.258836433573
 20
1391.199998557593
 11
3882.258836433573
 21
1390.000000596097
  0
LINE
  5
197
100
AcDbEntity
  8
0
  6
CONTINUOUS
 62
           3
100
AcDbLine
 10
3915.508835830145
 20
1391.199998557593
 11
3905.508836053753
 21
1391.199998557593
  0
LINE
  5
196
100
AcDbEntity
  8
0
  6
CONTINUOUS
 62
           3
100
AcDbLine
 10
3915.508835830145
 20
1390.000000596097
 11
3905.508836053753
 21
1390.000000596097
  0
LINE
  5
195
100
AcDbEntity
  8
0
  6
CONTINUOUS
 62
           3
100
AcDbLine
 10
3915.508835830145
 20
1391.199998557593
 11
3915.508835830145
 21
1390.000000596097
  0
LINE
  5
194
100
AcDbEntity
  8
0
  6
CONTINUOUS
 62
           3
100
AcDbLine
 10
3880.258836571475
 20
1550.000000744964
 11
3882.258836433573
 21
1550.000000744964
  0
LINE
  5
193
100
AcDbEntity
  8
0
  6
CONTINUOUS
 62
           3
100
AcDbLine
 10
3882.258836433573
 20
1548.799999058065
 11
3880.258836571475
 21
1548.799999058065
  0
LINE
  5
192
100
AcDbEntity
  8
0
  6
CONTINUOUS
 62
           3
100
AcDbLine
 10
3882.258836433573
 20
1550.000000744964
 11
3882.258836433573
 21
1548.799999058065
  0
LINE
  5
191
100
AcDbEntity
  8
0
  6
CONTINUOUS
 62
           3
100
AcDbLine
 10
3893.508836880561
 20
1391.199998557593
 11
3905.508836053753
 21
1391.199998557593
  0
LINE
  5
190
100
AcDbEntity
  8
0
  6
CONTINUOUS
 62
           3
100
AcDbLine
 10
3893.508836880561
 20
1390.000000596097
 11
3905.508836053753
 21
1390.000000596097
  0
LINE
  5
18F
100
AcDbEntity
  8
0
  6
CONTINUOUS
 62
           3
100
AcDbLine
 10
3905.508836053753
 20
1391.199998557593
 11
3905.508836053753
 21
1390.000000596097
  0
LINE
  5
18E
100
AcDbEntity
  8
0
  6
CONTINUOUS
 62
           3
100
AcDbLine
 10
3855.508837171195
 20
1391.199998557593
 11
3865.508836947587
 21
1391.199998557593
  0
LINE
  5
18D
100
AcDbEntity
  8
0
  6
CONTINUOUS
 62
           3
100
AcDbLine
 10
3855.508837171195
 20
1390.000000596097
 11
3865.508836947587
 21
1390.000000596097
  0
LINE
  5
18C
100
AcDbEntity
  8
0
  6
CONTINUOUS
 62
           3
100
AcDbLine
 10
3855.508837171195
 20
1391.199998557593
 11
3855.508837171195
 21
1390.000000596097
  0
LINE
  5
18B
100
AcDbEntity
  8
0
  6
CONTINUOUS
 62
           3
100
AcDbLine
 10
3888.758836567768
 20
1550.000000744964
 11
3890.758836429865
 21
1550.000000744964
  0
LINE
  5
18A
100
AcDbEntity
  8
0
  6
CONTINUOUS
 62
           3
100
AcDbLine
 10
3890.758836429865
 20
1548.799999058065
 11
3888.758836567768
 21
1548.799999058065
  0
LINE
  5
189
100
AcDbEntity
  8
0
  6
CONTINUOUS
 62
           3
100
AcDbLine
 10
3888.758836567768
 20
1548.799999058065
 11
3888.758836567768
 21
1550.000000744964
  0
LINE
  5
188
100
AcDbEntity
  8
0
  6
CONTINUOUS
 62
           3
100
AcDbLine
 10
3915.508835830145
 20
1550.000000744964
 11
3905.508836053753
 21
1550.000000744964
  0
LINE
  5
187
100
AcDbEntity
  8
0
  6
CONTINUOUS
 62
           3
100
AcDbLine
 10
3915.508835830145
 20
1548.799999058065
 11
3905.508836053753
 21
1548.799999058065
  0
LINE
  5
186
100
AcDbEntity
  8
0
  6
CONTINUOUS
 62
           3
100
AcDbLine
 10
3915.508835830145
 20
1548.799999058065
 11
3915.508835830145
 21
1550.000000744964
  0
LINE
  5
185
100
AcDbEntity
  8
0
  6
CONTINUOUS
 62
           3
100
AcDbLine
 10
3888.758836567768
 20
1391.199998557593
 11
3889.008836608768
 21
1391.199998557593
  0
LINE
  5
184
100
AcDbEntity
  8
0
  6
CONTINUOUS
 62
           3
100
AcDbLine
 10
3888.758836567768
 20
1390.000000596097
 11
3888.758836567768
 21
1391.199998557593
  0
LINE
  5
183
100
AcDbEntity
  8
0
  6
CONTINUOUS
 62
           3
100
AcDbLine
 10
3865.508836947587
 20
1391.199998557593
 11
3877.508836120775
 21
1391.199998557593
  0
LINE
  5
182
100
AcDbEntity
  8
0
  6
CONTINUOUS
 62
           3
100
AcDbLine
 10
3865.508836947587
 20
1390.000000596097
 11
3877.508836120775
 21
1390.000000596097
  0
LINE
  5
181
100
AcDbEntity
  8
0
  6
CONTINUOUS
 62
           3
100
AcDbLine
 10
3865.508836947587
 20
1391.199998557593
 11
3865.508836947587
 21
1390.000000596097
  0
LINE
  5
180
100
AcDbEntity
  8
0
  6
CONTINUOUS
 62
           3
100
AcDbLine
 10
3865.508836947587
 20
1550.000000744964
 11
3880.258836571475
 21
1550.000000744964
  0
LINE
  5
17F
100
AcDbEntity
  8
0
  6
CONTINUOUS
 62
           3
100
AcDbLine
 10
3865.508836947587
 20
1548.799999058065
 11
3880.258836571475
 21
1548.799999058065
  0
LINE
  5
17E
100
AcDbEntity
  8
0
  6
CONTINUOUS
 62
           3
100
AcDbLine
 10
3890.758836429865
 20
1550.000000744964
 11
3905.508836053753
 21
1550.000000744964
  0
LINE
  5
17D
100
AcDbEntity
  8
0
  6
CONTINUOUS
 62
           3
100
AcDbLine
 10
3890.758836429865
 20
1548.799999058065
 11
3905.508836053753
 21
1548.799999058065
  0
LINE
  5
17C
100
AcDbEntity
  8
0
  6
CONTINUOUS
 62
           3
100
AcDbLine
 10
3905.508836053753
 20
1548.799999058065
 11
3905.508836053753
 21
1550.000000744964
  0
LINE
  5
17B
100
AcDbEntity
  8
0
  6
CONTINUOUS
 62
           3
100
AcDbLine
 10
3855.508837171195
 20
1548.799999058065
 11
3855.508837171195
 21
1550.000000744964
  0
LINE
  5
17A
100
AcDbEntity
  8
0
  6
CONTINUOUS
 62
           3
100
AcDbLine
 10
3855.508837171195
 20
1548.799999058065
 11
3865.508836947587
 21
1548.799999058065
  0
LINE
  5
179
100
AcDbEntity
  8
0
  6
CONTINUOUS
 62
           3
100
AcDbLine
 10
3865.508836947587
 20
1548.799999058065
 11
3865.508836947587
 21
1550.000000744964
  0
LINE
  5
178
100
AcDbEntity
  8
0
  6
CONTINUOUS
 62
           3
100
AcDbLine
 10
3855.508837171195
 20
1550.000000744964
 11
3865.508836947587
 21
1550.000000744964
  0
LINE
  5
177
100
AcDbEntity
  8
0
  6
CONTINUOUS
 62
           3
100
AcDbLine
 10
3893.508836880561
 20
1389.200001954996
 11
3893.508836880561
 21
1388.276241719796
  0
LINE
  5
176
100
AcDbEntity
  8
0
  6
CONTINUOUS
 62
           3
100
AcDbLine
 10
3877.508836120775
 20
1389.200001954996
 11
3877.508836120775
 21
1388.276241719796
  0
LINE
  5
175
100
AcDbEntity
  8
0
  6
CONTINUOUS
 62
           3
100
AcDbLine
 10
3880.508836612474
 20
1388.276241719796
 11
3877.508836120775
 21
1388.276241719796
  0
LINE
  5
174
100
AcDbEntity
  8
0
  6
CONTINUOUS
 62
           3
100
AcDbLine
 10
3893.508836880561
 20
1388.276241719796
 11
3890.508836388864
 21
1388.276241719796
  0
LINE
  5
173
100
AcDbEntity
  8
0
  6
CONTINUOUS
 62
           3
100
AcDbLine
 10
3888.008836444767
 20
1384.1999992729
 11
3890.50883638891
 21
1384.1999992729
  0
LINE
  5
172
100
AcDbEntity
  8
0
  6
CONTINUOUS
 62
           3
100
AcDbLine
 10
3880.508836612436
 20
1384.1999992729
 11
3883.008836556557
 21
1384.1999992729
  0
LINE
  5
171
100
AcDbEntity
  8
0
  6
CONTINUOUS
 62
           3
100
AcDbLine
 10
3890.508836388864
 20
1384.646579623302
 11
3890.508836388864
 21
1389.100000262195
  0
LINE
  5
170
100
AcDbEntity
  8
0
  6
CONTINUOUS
 62
           3
100
AcDbLine
 10
3880.508836612474
 20
1384.646579623302
 11
3880.508836612474
 21
1389.100000262195
  0
LINE
  5
16F
100
AcDbEntity
  8
0
  6
CONTINUOUS
 62
           3
100
AcDbLine
 10
3880.508836612474
 20
1384.646579623302
 11
3883.008836556557
 21
1384.1999992729
  0
LINE
  5
16E
100
AcDbEntity
  8
0
  6
CONTINUOUS
 62
           3
100
AcDbLine
 10
3885.508836500673
 20
1384.646579623296
 11
3885.50883650067
 21
1389.100000262195
  0
LINE
  5
16D
100
AcDbEntity
  8
0
  6
CONTINUOUS
 62
           3
100
AcDbLine
 10
3883.008836556557
 20
1384.1999992729
 11
3888.008836444767
 21
1384.1999992729
  0
LINE
  5
16C
100
AcDbEntity
  8
0
  6
CONTINUOUS
 62
           3
100
AcDbLine
 10
3885.508836500673
 20
1384.646579623296
 11
3888.008836444767
 21
1384.1999992729
  0
LINE
  5
16B
100
AcDbEntity
  8
0
  6
CONTINUOUS
 62
           3
100
AcDbLine
 10
3882.008836392572
 20
1389.200001954996
 11
3889.008836608768
 21
1389.200001954996
  0
LINE
  5
16A
100
AcDbEntity
  8
0
  6
CONTINUOUS
 62
           3
100
AcDbLine
 10
3882.008836392572
 20
1390.000000596097
 11
3889.008836608768
 21
1390.000000596097
  0
LINE
  5
169
100
AcDbEntity
  8
0
  6
CONTINUOUS
 62
           3
100
AcDbLine
 10
3889.008836608768
 20
1393.990144133492
 11
3882.008836392572
 21
1393.990144133492
  0
LINE
  5
168
100
AcDbEntity
  8
0
  6
CONTINUOUS
 62
           3
100
AcDbLine
 10
3882.508836474573
 20
1392.246469855294
 11
3882.008836392572
 21
1392.246469855294
  0
LINE
  5
167
100
AcDbEntity
  8
0
  6
CONTINUOUS
 62
           3
100
AcDbLine
 10
3889.008836608768
 20
1392.246469855294
 11
3888.508836526768
 21
1392.246469855294
  0
LINE
  5
166
100
AcDbEntity
  8
0
  6
CONTINUOUS
 62
           3
100
AcDbLine
 10
3893.508836880561
 20
1394.799999892894
 11
3893.508836880561
 21
1389.200001954996
  0
LINE
  5
165
100
AcDbEntity
  8
0
  6
CONTINUOUS
 62
           3
100
AcDbLine
 10
3877.508836120775
 20
1394.799999892894
 11
3877.508836120775
 21
1389.200001954996
  0
LINE
  5
164
100
AcDbEntity
  8
0
  6
CONTINUOUS
 62
           3
100
AcDbLine
 10
3882.008836392572
 20
1389.200001954996
 11
3882.008836392572
 21
1394.799999892894
  0
LINE
  5
163
100
AcDbEntity
  8
0
  6
CONTINUOUS
 62
           3
100
AcDbLine
 10
3889.008836608768
 20
1394.799999892894
 11
3889.008836608768
 21
1389.200001954996
  0
LINE
  5
162
100
AcDbEntity
  8
0
  6
CONTINUOUS
 62
           3
100
AcDbLine
 10
3882.008836392572
 20
1389.200001954996
 11
3877.508836120775
 21
1389.200001954996
  0
LINE
  5
161
100
AcDbEntity
  8
0
  6
CONTINUOUS
 62
           3
100
AcDbLine
 10
3882.008836392572
 20
1394.792847335491
 11
3889.008836608768
 21
1394.792847335491
  0
LINE
  5
160
100
AcDbEntity
  8
0
  6
CONTINUOUS
 62
           3
100
AcDbLine
 10
3893.508836880561
 20
1389.200001954996
 11
3889.008836608768
 21
1389.200001954996
  0
LINE
  5
15F
100
AcDbEntity
  8
0
  6
CONTINUOUS
 62
           3
100
AcDbLine
 10
3887.508836595569
 20
1638.422653078993
 11
3883.508836405772
 21
1638.422653078993
  0
LINE
  5
15E
100
AcDbEntity
  8
0
  6
CONTINUOUS
 62
           3
100
AcDbLine
 10
3882.508836474573
 20
1637.422651052293
 11
3888.508836526768
 21
1637.422651052293
  0
LINE
  5
15D
100
AcDbEntity
  8
0
  6
CONTINUOUS
 62
           3
100
AcDbLine
 10
3831.508835100015
 20
1665.000006556369
 11
3835.508835755711
 21
1665.000006556369
  0
LINE
  5
15C
100
AcDbEntity
  8
0
  6
CONTINUOUS
 62
           3
100
AcDbLine
 10
3835.508835755711
 20
1665.000006556369
 11
3839.508836411409
 21
1665.000006556369
  0
LINE
  5
15B
100
AcDbEntity
  8
0
  6
CONTINUOUS
 62
           3
100
AcDbLine
 10
3881.178709466341
 20
1367.599993944256
 11
3880.508836612474
 21
1367.599993944114
  0
LINE
  5
15A
100
AcDbEntity
  8
0
  6
CONTINUOUS
 62
           3
100
AcDbLine
 10
3890.508836388864
 20
1367.599993944114
 11
3889.838963535009
 21
1367.599993944256
  0
LINE
  5
159
100
AcDbEntity
  8
0
  6
CONTINUOUS
 62
           3
100
AcDbLine
 10
3881.178709466341
 20
1372.600004077041
 11
3880.508836612474
 21
1372.600004077009
  0
LINE
  5
158
100
AcDbEntity
  8
0
  6
CONTINUOUS
 62
           3
100
AcDbLine
 10
3889.838963535009
 20
1367.599993944256
 11
3885.508836500673
 21
1367.599993944256
  0
LINE
  5
157
100
AcDbEntity
  8
0
  6
CONTINUOUS
 62
           3
100
AcDbLine
 10
3885.508836500673
 20
1367.599993944256
 11
3881.178709466341
 21
1367.599993944256
  0
LINE
  5
156
100
AcDbEntity
  8
0
  6
CONTINUOUS
 62
           3
100
AcDbLine
 10
3879.735333632973
 20
1372.153416276109
 11
3879.735333632973
 21
1368.046581745312
  0
LINE
  5
155
100
AcDbEntity
  8
0
  6
CONTINUOUS
 62
           3
100
AcDbLine
 10
3879.735333632973
 20
1368.046581745312
 11
3881.178709466341
 21
1367.599993944256
  0
LINE
  5
154
100
AcDbEntity
  8
0
  6
CONTINUOUS
 62
           3
100
AcDbLine
 10
3882.622085066842
 20
1372.153416276062
 11
3881.178709466341
 21
1372.600004077041
  0
LINE
  5
153
100
AcDbEntity
  8
0
  6
CONTINUOUS
 62
           3
100
AcDbLine
 10
3888.395587934368
 20
1368.046581745312
 11
3889.838963535009
 21
1367.599993944256
  0
LINE
  5
152
100
AcDbEntity
  8
0
  6
CONTINUOUS
 62
           3
100
AcDbLine
 10
3891.282339368367
 20
1372.153416276109
 11
3891.282339368367
 21
1368.046581745312
  0
LINE
  5
151
100
AcDbEntity
  8
0
  6
CONTINUOUS
 62
           3
100
AcDbLine
 10
3891.282339368367
 20
1372.153416276109
 11
3889.838963535009
 21
1372.600004077041
  0
LINE
  5
150
100
AcDbEntity
  8
0
  6
CONTINUOUS
 62
           3
100
AcDbLine
 10
3882.622085066842
 20
1372.153416276062
 11
3882.622085066842
 21
1368.046581745235
  0
LINE
  5
14F
100
AcDbEntity
  8
0
  6
CONTINUOUS
 62
           3
100
AcDbLine
 10
3888.395587934505
 20
1372.153416276062
 11
3888.395587934368
 21
1368.046581745312
  0
LINE
  5
14E
100
AcDbEntity
  8
0
  6
CONTINUOUS
 62
           3
100
AcDbLine
 10
3890.508836388864
 20
1372.600004077009
 11
3889.838963535009
 21
1372.600004077041
  0
LINE
  5
14D
100
AcDbEntity
  8
0
  6
CONTINUOUS
 62
           3
100
AcDbLine
 10
3890.508836388864
 20
1377.599999308604
 11
3889.838963535009
 21
1377.599999308667
  0
LINE
  5
14C
100
AcDbEntity
  8
0
  6
CONTINUOUS
 62
           3
100
AcDbLine
 10
3881.178709466341
 20
1377.599999308667
 11
3880.508836612474
 21
1377.599999308604
  0
LINE
  5
14B
100
AcDbEntity
  8
0
  6
CONTINUOUS
 62
           3
100
AcDbLine
 10
3885.508836500673
 20
1372.600004077041
 11
3881.178709466341
 21
1372.600004077041
  0
LINE
  5
14A
100
AcDbEntity
  8
0
  6
CONTINUOUS
 62
           3
100
AcDbLine
 10
3889.838963535009
 20
1372.600004077041
 11
3885.508836500673
 21
1372.600004077041
  0
LINE
  5
149
100
AcDbEntity
  8
0
  6
CONTINUOUS
 62
           3
100
AcDbLine
 10
3885.508836500673
 20
1377.599999308667
 11
3881.178709466341
 21
1377.599999308667
  0
LINE
  5
148
100
AcDbEntity
  8
0
  6
CONTINUOUS
 62
           3
100
AcDbLine
 10
3879.735333632973
 20
1377.153418958205
 11
3879.735333632973
 21
1373.046576976911
  0
LINE
  5
147
100
AcDbEntity
  8
0
  6
CONTINUOUS
 62
           3
100
AcDbLine
 10
3879.735333632973
 20
1373.046576976911
 11
3881.178709466341
 21
1372.600004077041
  0
LINE
  5
146
100
AcDbEntity
  8
0
  6
CONTINUOUS
 62
           3
100
AcDbLine
 10
3882.622085066842
 20
1377.153418958268
 11
3881.178709466341
 21
1377.599999308667
  0
LINE
  5
145
100
AcDbEntity
  8
0
  6
CONTINUOUS
 62
           3
100
AcDbLine
 10
3889.838963535009
 20
1377.599999308667
 11
3885.508836500673
 21
1377.599999308667
  0
LINE
  5
144
100
AcDbEntity
  8
0
  6
CONTINUOUS
 62
           3
100
AcDbLine
 10
3888.395587934368
 20
1373.046576976911
 11
3889.838963535009
 21
1372.600004077041
  0
LINE
  5
143
100
AcDbEntity
  8
0
  6
CONTINUOUS
 62
           3
100
AcDbLine
 10
3891.282339368367
 20
1377.153418958205
 11
3891.282339368367
 21
1373.046576976911
  0
LINE
  5
142
100
AcDbEntity
  8
0
  6
CONTINUOUS
 62
           3
100
AcDbLine
 10
3891.282339368367
 20
1377.153418958205
 11
3889.838963535009
 21
1377.599999308667
  0
LINE
  5
141
100
AcDbEntity
  8
0
  6
CONTINUOUS
 62
           3
100
AcDbLine
 10
3882.622085066842
 20
1377.153418958268
 11
3882.622085066842
 21
1373.04657697686
  0
LINE
  5
140
100
AcDbEntity
  8
0
  6
CONTINUOUS
 62
           3
100
AcDbLine
 10
3888.395587934505
 20
1377.153418958268
 11
3888.395587934368
 21
1373.046576976911
  0
LINE
  5
13F
100
AcDbEntity
  8
0
  6
CONTINUOUS
 62
           3
100
AcDbLine
 10
3879.735333632973
 20
1364.553421735916
 11
3879.735333632973
 21
1360.446587205122
  0
LINE
  5
13E
100
AcDbEntity
  8
0
  6
CONTINUOUS
 62
           3
100
AcDbLine
 10
3879.735333632973
 20
1360.446587205122
 11
3881.178709466341
 21
1359.999999404049
  0
LINE
  5
13D
100
AcDbEntity
  8
0
  6
CONTINUOUS
 62
           3
100
AcDbLine
 10
3882.622085066842
 20
1364.553421735859
 11
3881.178709466341
 21
1364.999994635673
  0
LINE
  5
13C
100
AcDbEntity
  8
0
  6
CONTINUOUS
 62
           3
100
AcDbLine
 10
3888.395587934368
 20
1360.446587205122
 11
3889.838963534965
 21
1359.999999403921
  0
LINE
  5
13B
100
AcDbEntity
  8
0
  6
CONTINUOUS
 62
           3
100
AcDbLine
 10
3891.282339368367
 20
1364.553421735916
 11
3891.282339368367
 21
1360.446587205122
  0
LINE
  5
13A
100
AcDbEntity
  8
0
  6
CONTINUOUS
 62
           3
100
AcDbLine
 10
3891.282339368367
 20
1364.553421735916
 11
3889.838963535009
 21
1364.999994635673
  0
LINE
  5
139
100
AcDbEntity
  8
0
  6
CONTINUOUS
 62
           3
100
AcDbLine
 10
3882.622085066842
 20
1364.553421735859
 11
3882.622085066842
 21
1360.446587205025
  0
LINE
  5
138
100
AcDbEntity
  8
0
  6
CONTINUOUS
 62
           3
100
AcDbLine
 10
3888.395587934505
 20
1364.553421735859
 11
3888.395587934368
 21
1360.446587205122
  0
LINE
  5
137
100
AcDbEntity
  8
0
  6
CONTINUOUS
 62
           3
100
AcDbLine
 10
3880.508836612474
 20
1359.999999403921
 11
3881.178709466341
 21
1359.999999404049
  0
LINE
  5
136
100
AcDbEntity
  8
0
  6
CONTINUOUS
 62
           3
100
AcDbLine
 10
3890.508836388864
 20
1355.000004172322
 11
3889.838963535009
 21
1355.00000417242
  0
LINE
  5
135
100
AcDbEntity
  8
0
  6
CONTINUOUS
 62
           3
100
AcDbLine
 10
3880.508836612474
 20
1355.000004172322
 11
3881.178709466341
 21
1355.00000417242
  0
LINE
  5
134
100
AcDbEntity
  8
0
  6
CONTINUOUS
 62
           3
100
AcDbLine
 10
3891.282339368367
 20
1355.446577072224
 11
3889.838963535009
 21
1355.00000417242
  0
LINE
  5
133
100
AcDbEntity
  8
0
  6
CONTINUOUS
 62
           3
100
AcDbLine
 10
3891.282339368367
 20
1355.446577072224
 11
3891.282339368367
 21
1359.553411603021
  0
LINE
  5
132
100
AcDbEntity
  8
0
  6
CONTINUOUS
 62
           3
100
AcDbLine
 10
3879.735333632973
 20
1355.446577072224
 11
3879.735333632973
 21
1359.553411603021
  0
LINE
  5
131
100
AcDbEntity
  8
0
  6
CONTINUOUS
 62
           3
100
AcDbLine
 10
3885.508836500673
 20
1359.999999404049
 11
3889.838963534965
 21
1359.999999403921
  0
LINE
  5
130
100
AcDbEntity
  8
0
  6
CONTINUOUS
 62
           3
100
AcDbLine
 10
3888.395587934505
 20
1359.553411603069
 11
3889.838963534965
 21
1359.999999403921
  0
LINE
  5
12F
100
AcDbEntity
  8
0
  6
CONTINUOUS
 62
           3
100
AcDbLine
 10
3881.178709466341
 20
1359.999999404049
 11
3885.508836500673
 21
1359.999999404049
  0
LINE
  5
12E
100
AcDbEntity
  8
0
  6
CONTINUOUS
 62
           3
100
AcDbLine
 10
3881.178709466341
 20
1355.00000417242
 11
3885.50883650067
 21
1355.000004172322
  0
LINE
  5
12D
100
AcDbEntity
  8
0
  6
CONTINUOUS
 62
           3
100
AcDbLine
 10
3885.50883650067
 20
1355.000004172322
 11
3889.838963535009
 21
1355.00000417242
  0
LINE
  5
12C
100
AcDbEntity
  8
0
  6
CONTINUOUS
 62
           3
100
AcDbLine
 10
3882.622085066972
 20
1359.553411603021
 11
3885.508836500673
 21
1359.999999404049
  0
LINE
  5
12B
100
AcDbEntity
  8
0
  6
CONTINUOUS
 62
           3
100
AcDbLine
 10
3882.622085066842
 20
1355.446577072242
 11
3882.622085066972
 21
1359.553411603021
  0
LINE
  5
12A
100
AcDbEntity
  8
0
  6
CONTINUOUS
 62
           3
100
AcDbLine
 10
3888.395587934368
 20
1355.446577072224
 11
3885.50883650067
 21
1355.000004172322
  0
LINE
  5
129
100
AcDbEntity
  8
0
  6
CONTINUOUS
 62
           3
100
AcDbLine
 10
3888.395587934368
 20
1355.446577072224
 11
3888.395587934505
 21
1359.553411603069
  0
LINE
  5
128
100
AcDbEntity
  8
0
  6
CONTINUOUS
 62
           3
100
AcDbLine
 10
3942.508836530324
 20
1393.799997866194
 11
3942.508836530324
 21
1543.800000101368
  0
LINE
  5
127
100
AcDbEntity
  8
0
  6
CONTINUOUS
 62
           3
100
AcDbLine
 10
3831.508835100015
 20
1543.800000101368
 11
3828.508836471016
 21
1543.800000101368
  0
LINE
  5
126
100
AcDbEntity
  8
0
  6
CONTINUOUS
 62
           3
100
AcDbLine
 10
3882.508836474573
 20
1543.800000101368
 11
3839.508836411409
 21
1543.800000101368
  0
LINE
  5
125
100
AcDbEntity
  8
0
  6
CONTINUOUS
 62
           3
100
AcDbLine
 10
3931.508836589931
 20
1543.800000101368
 11
3888.508836526768
 21
1543.800000101368
  0
LINE
  5
124
100
AcDbEntity
  8
0
  6
CONTINUOUS
 62
           3
100
AcDbLine
 10
3942.508836530324
 20
1543.800000101368
 11
3939.508837901326
 21
1543.800000101368
  0
LINE
  5
123
100
AcDbEntity
  8
0
  6
CONTINUOUS
 62
           3
100
AcDbLine
 10
3828.508836471016
 20
1543.800000101368
 11
3828.508836471016
 21
1393.799997866194
  0
LINE
  5
122
100
AcDbEntity
  8
0
  6
CONTINUOUS
 62
           3
100
AcDbLine
 10
3939.508837901326
 20
1393.799997866194
 11
3942.508836530324
 21
1393.799997866194
  0
LINE
  5
121
100
AcDbEntity
  8
0
  6
CONTINUOUS
 62
           3
100
AcDbLine
 10
3893.508836880561
 20
1393.799997866194
 11
3931.508836589931
 21
1393.799997866194
  0
LINE
  5
120
100
AcDbEntity
  8
0
  6
CONTINUOUS
 62
           3
100
AcDbLine
 10
3839.508836411409
 20
1393.799997866194
 11
3877.508836120775
 21
1393.799997866194
  0
LINE
  5
11F
100
AcDbEntity
  8
0
  6
CONTINUOUS
 62
           3
100
AcDbLine
 10
3828.508836471016
 20
1393.799997866194
 11
3831.508835100015
 21
1393.799997866194
  0
LINE
  5
11E
100
AcDbEntity
  8
0
  6
CONTINUOUS
 62
           3
100
AcDbLine
 10
3879.035333808874
 20
1389.099999999995
 11
3891.982339192466
 21
1389.099999999995
  0
LINE
  5
11D
100
AcDbEntity
  8
0
  6
CONTINUOUS
 62
           3
100
AcDbLine
 10
3893.508836880561
 20
1394.799999892894
 11
3889.008836608768
 21
1394.799999892894
  0
LINE
  5
11C
100
AcDbEntity
  8
0
  6
CONTINUOUS
 62
           3
100
AcDbLine
 10
3882.008836392572
 20
1394.799999892894
 11
3877.508836120775
 21
1394.799999892894
  0
LINE
  5
11B
100
AcDbEntity
  8
0
  6
CONTINUOUS
 62
           3
100
AcDbLine
 10
3883.508836405772
 20
1638.422653078993
 11
3882.508836474573
 21
1637.422651052293
  0
LINE
  5
11A
100
AcDbEntity
  8
0
  6
CONTINUOUS
 62
           3
100
AcDbLine
 10
3888.508836526768
 20
1637.422651052293
 11
3887.508836595569
 21
1638.422653078993
  0
LINE
  5
119
100
AcDbEntity
  8
0
  6
CONTINUOUS
 62
           3
100
AcDbLine
 10
3882.508836474573
 20
1367.599993944114
 11
3882.508836474573
 21
1366.600006818714
  0
LINE
  5
118
100
AcDbEntity
  8
0
  6
CONTINUOUS
 62
           3
100
AcDbLine
 10
3882.508836474573
 20
1384.1999992729
 11
3882.508836474573
 21
1377.599999308604
  0
LINE
  5
117
100
AcDbEntity
  8
0
  6
CONTINUOUS
 62
           3
100
AcDbLine
 10
3882.508836474573
 20
1392.957426607594
 11
3882.508836474573
 21
1390.000000596097
  0
LINE
  5
116
100
AcDbEntity
  8
0
  6
CONTINUOUS
 62
           3
100
AcDbLine
 10
3882.508836474573
 20
1633.399993180996
 11
3882.508836474573
 21
1394.792847335491
  0
LINE
  5
115
100
AcDbEntity
  8
0
  6
CONTINUOUS
 62
           3
100
AcDbLine
 10
3882.508836474573
 20
1637.422651052293
 11
3882.508836474573
 21
1635.000005364197
  0
LINE
  5
114
100
AcDbEntity
  8
0
  6
CONTINUOUS
 62
           3
100
AcDbLine
 10
3888.508836526768
 20
1635.000005364197
 11
3888.508836526768
 21
1637.422651052293
  0
LINE
  5
113
100
AcDbEntity
  8
0
  6
CONTINUOUS
 62
           3
100
AcDbLine
 10
3888.508836526768
 20
1394.792847335491
 11
3888.508836526768
 21
1633.399993180996
  0
LINE
  5
112
100
AcDbEntity
  8
0
  6
CONTINUOUS
 62
           3
100
AcDbLine
 10
3888.508836526768
 20
1390.000000596097
 11
3888.508836526768
 21
1392.957426607594
  0
LINE
  5
111
100
AcDbEntity
  8
0
  6
CONTINUOUS
 62
           3
100
AcDbLine
 10
3888.508836526768
 20
1377.599999308604
 11
3888.508836526768
 21
1384.1999992729
  0
LINE
  5
110
100
AcDbEntity
  8
0
  6
CONTINUOUS
 62
           3
100
AcDbLine
 10
3888.508836526768
 20
1366.600006818714
 11
3888.508836526768
 21
1367.599993944114
  0
LINE
  5
10F
100
AcDbEntity
  8
0
  6
CONTINUOUS
 62
           3
100
AcDbLine
 10
3839.508836411409
 20
1635.000005364197
 11
3839.508836411409
 21
1665.000006556369
  0
LINE
  5
10E
100
AcDbEntity
  8
0
  6
CONTINUOUS
 62
           3
100
AcDbLine
 10
3839.508836411409
 20
1550.000000744964
 11
3839.508836411409
 21
1633.399993180996
  0
LINE
  5
10D
100
AcDbEntity
  8
0
  6
CONTINUOUS
 62
           3
100
AcDbLine
 10
3839.508836411409
 20
1391.199998557593
 11
3839.508836411409
 21
1548.799999058065
  0
LINE
  5
10C
100
AcDbEntity
  8
0
  6
CONTINUOUS
 62
           3
100
AcDbLine
 10
3839.508836411409
 20
1366.600006818714
 11
3839.508836411409
 21
1390.000000596097
  0
LINE
  5
10B
100
AcDbEntity
  8
0
  6
CONTINUOUS
 62
           3
100
AcDbLine
 10
3831.508835100015
 20
1364.999994635815
 11
3831.508835100015
 21
1314.999997615956
  0
LINE
  5
10A
100
AcDbEntity
  8
0
  6
CONTINUOUS
 62
           3
100
AcDbLine
 10
3831.508835100015
 20
1390.000000596097
 11
3831.508835100015
 21
1366.600006818714
  0
LINE
  5
109
100
AcDbEntity
  8
0
  6
CONTINUOUS
 62
           3
100
AcDbLine
 10
3831.508835100015
 20
1548.799999058065
 11
3831.508835100015
 21
1391.199998557593
  0
LINE
  5
108
100
AcDbEntity
  8
0
  6
CONTINUOUS
 62
           3
100
AcDbLine
 10
3831.508835100015
 20
1633.399993180996
 11
3831.508835100015
 21
1550.000000744964
  0
LINE
  5
107
100
AcDbEntity
  8
0
  6
CONTINUOUS
 62
           3
100
AcDbLine
 10
3831.508835100015
 20
1665.000006556369
 11
3831.508835100015
 21
1635.000005364197
  0
LINE
  5
106
100
AcDbEntity
  8
0
  6
CONTINUOUS
 62
           3
100
AcDbLine
 10
3939.508837901326
 20
1635.000005364197
 11
3939.508837901326
 21
1641.000000000001
  0
LINE
  5
105
100
AcDbEntity
  8
0
  6
CONTINUOUS
 62
           3
100
AcDbLine
 10
3939.508837901326
 20
1550.000000744964
 11
3939.508837901326
 21
1633.399993180996
  0
LINE
  5
104
100
AcDbEntity
  8
0
  6
CONTINUOUS
 62
           3
100
AcDbLine
 10
3939.508837901326
 20
1391.199998557593
 11
3939.508837901326
 21
1548.799999058065
  0
LINE
  5
103
100
AcDbEntity
  8
0
  6
CONTINUOUS
 62
           3
100
AcDbLine
 10
3939.508837901326
 20
1366.600006818714
 11
3939.508837901326
 21
1390.000000596097
  0
LINE
  5
102
100
AcDbEntity
  8
0
  6
CONTINUOUS
 62
           3
100
AcDbLine
 10
3939.508837901326
 20
1314.999997615956
 11
3939.508837901326
 21
1364.999994635815
  0
LINE
  5
101
100
AcDbEntity
  8
0
  6
CONTINUOUS
 62
           3
100
AcDbLine
 10
3931.508836589931
 20
1364.999994635815
 11
3931.508836589931
 21
1314.999997615956
  0
LINE
  5
100
100
AcDbEntity
  8
0
  6
CONTINUOUS
 62
           3
100
AcDbLine
 10
3931.508836589931
 20
1390.000000596097
 11
3931.508836589931
 21
1366.600006818714
  0
LINE
  5
FF
100
AcDbEntity
  8
0
  6
CONTINUOUS
 62
           3
100
AcDbLine
 10
3931.508836589931
 20
1548.799999058065
 11
3931.508836589931
 21
1391.199998557593
  0
LINE
  5
FE
100
AcDbEntity
  8
0
  6
CONTINUOUS
 62
           3
100
AcDbLine
 10
3931.508836589931
 20
1633.399993180996
 11
3931.508836589931
 21
1550.000000744964
  0
LINE
  5
FD
100
AcDbEntity
  8
0
  6
CONTINUOUS
 62
           3
100
AcDbLine
 10
3931.508836589931
 20
1641.0
 11
3931.508836589931
 21
1635.000005364197
  0
LINE
  5
FC
100
AcDbEntity
  8
0
  6
CONTINUOUS
 62
           3
100
AcDbLine
 10
3879.735333632973
 20
1368.046581745312
 11
3880.508836612474
 21
1367.599993944114
  0
LINE
  5
FB
100
AcDbEntity
  8
0
  6
CONTINUOUS
 62
           3
100
AcDbLine
 10
3890.508836388864
 20
1367.599993944114
 11
3891.282339368367
 21
1368.046581745312
  0
LINE
  5
FA
100
AcDbEntity
  8
0
  6
CONTINUOUS
 62
           3
100
AcDbLine
 10
3891.282339368367
 20
1372.153416276109
 11
3890.508836388864
 21
1372.600004077009
  0
LINE
  5
F9
100
AcDbEntity
  8
0
  6
CONTINUOUS
 62
           3
100
AcDbLine
 10
3880.508836612474
 20
1372.600004077009
 11
3879.735333632973
 21
1372.153416276109
  0
LINE
  5
F8
100
AcDbEntity
  8
0
  6
CONTINUOUS
 62
           3
100
AcDbLine
 10
3879.735333632973
 20
1373.046576976911
 11
3880.508836612474
 21
1372.600004077009
  0
LINE
  5
F7
100
AcDbEntity
  8
0
  6
CONTINUOUS
 62
           3
100
AcDbLine
 10
3890.508836388864
 20
1372.600004077009
 11
3891.282339368367
 21
1373.046576976911
  0
LINE
  5
F6
100
AcDbEntity
  8
0
  6
CONTINUOUS
 62
           3
100
AcDbLine
 10
3891.282339368367
 20
1377.153418958205
 11
3890.508836388864
 21
1377.599999308604
  0
LINE
  5
F5
100
AcDbEntity
  8
0
  6
CONTINUOUS
 62
           3
100
AcDbLine
 10
3880.508836612474
 20
1377.599999308604
 11
3879.735333632973
 21
1377.153418958205
  0
LINE
  5
F4
100
AcDbEntity
  8
0
  6
CONTINUOUS
 62
           3
100
AcDbLine
 10
3879.735333632973
 20
1360.446587205122
 11
3880.508836612474
 21
1359.999999403921
  0
LINE
  5
F3
100
AcDbEntity
  8
0
  6
CONTINUOUS
 62
           3
100
AcDbLine
 10
3890.508836388864
 20
1359.999999403921
 11
3891.282339368367
 21
1360.446587205122
  0
LINE
  5
F2
100
AcDbEntity
  8
0
  6
CONTINUOUS
 62
           3
100
AcDbLine
 10
3891.282339368367
 20
1364.553421735916
 11
3890.508836388864
 21
1364.999994635815
  0
LINE
  5
F1
100
AcDbEntity
  8
0
  6
CONTINUOUS
 62
           3
100
AcDbLine
 10
3880.508836612474
 20
1364.999994635815
 11
3879.735333632973
 21
1364.553421735916
  0
LINE
  5
F0
100
AcDbEntity
  8
0
  6
CONTINUOUS
 62
           3
100
AcDbLine
 10
3891.282339368367
 20
1359.553411603021
 11
3890.508836388864
 21
1359.999999403921
  0
LINE
  5
EF
100
AcDbEntity
  8
0
  6
CONTINUOUS
 62
           3
100
AcDbLine
 10
3880.508836612474
 20
1359.999999403921
 11
3879.735333632973
 21
1359.553411603021
  0
LINE
  5
EE
100
AcDbEntity
  8
0
  6
CONTINUOUS
 62
           3
100
AcDbLine
 10
3890.508836388864
 20
1355.000004172322
 11
3891.282339368367
 21
1355.446577072224
  0
LINE
  5
ED
100
AcDbEntity
  8
0
  6
CONTINUOUS
 62
           3
100
AcDbLine
 10
3879.735333632973
 20
1355.446577072224
 11
3880.508836612474
 21
1355.000004172322
  0
LINE
  5
EC
100
AcDbEntity
  8
0
  6
CONTINUOUS
 62
           3
100
AcDbLine
 10
3839.508836411409
 20
1314.999997615956
 11
3839.508836411409
 21
1364.999994635815
  0
LINE
  5
EB
100
AcDbEntity
  8
1
  6
CONTINUOUS
 62
           3
100
AcDbLine
 10
4367.108839779003
 20
1929.0
 11
4219.508836589932
 21
1929.0
  0
LINE
  5
EA
100
AcDbEntity
  8
1
  6
CONTINUOUS
 62
           3
100
AcDbLine
 10
4367.108839779003
 20
1921.000000000001
 11
4219.508837901327
 21
1921.000000000001
  0
LINE
  5
E9
100
AcDbEntity
  8
1
  6
CONTINUOUS
 62
           3
100
AcDbLine
 10
514.395796321874
 20
1294.328109327063
 11
512.007850321893
 21
1267.070985327062
  0
LINE
  5
E8
100
AcDbEntity
  8
1
  6
CONTINUOUS
 62
           3
100
AcDbLine
 10
512.007850321893
 20
1323.330711327063
 11
514.395796321874
 21
1296.073587327063
  0
LINE
  5
E7
100
AcDbEntity
  8
1
  6
CONTINUOUS
 62
           3
100
AcDbLine
 10
502.548714321874
 20
1294.328109327063
 11
504.936660321884
 21
1267.070985327062
  0
LINE
  5
E6
100
AcDbEntity
  8
1
  6
CONTINUOUS
 62
           3
100
AcDbLine
 10
504.936660321884
 20
1323.330711327063
 11
502.548714321874
 21
1296.073587327063
  0
LINE
  5
E5
100
AcDbEntity
  8
1
  6
DOT_CENTER
 62
           3
100
AcDbLine
 10
553.472255321877
 20
1295.200848327053
 11
463.474800321873
 21
1295.200848327053
  0
LINE
  5
E4
100
AcDbEntity
  8
1
  6
DOT_CENTER
 62
           3
100
AcDbLine
 10
508.472255321878
 20
1340.200848327053
 11
508.472255321878
 21
1250.202277327053
  0
LINE
  5
E3
100
AcDbEntity
  8
1
  6
CONTINUOUS
 62
           7
100
AcDbLine
 10
3699.608839779004
 20
1640.0
 11
3519.608839779002
 21
1639.999999999999
  0
LINE
  5
E2
100
AcDbEntity
  8
1
  6
CONTINUOUS
 62
           7
100
AcDbLine
 10
3519.608839779004
 20
1753.0
 11
3699.608839779004
 21
1753.0
  0
LINE
  5
E1
100
AcDbEntity
  8
1
  6
CONTINUOUS
 62
           7
100
AcDbLine
 10
3699.608839779004
 20
1753.0
 11
3699.608839779004
 21
1640.0
  0
LINE
  5
E0
100
AcDbEntity
  8
1
  6
CONTINUOUS
 62
           7
100
AcDbLine
 10
3519.608839779002
 20
1639.999999999999
 11
3519.608839779004
 21
1753.0
  0
LINE
  5
DF
100
AcDbEntity
  8
1
  6
CONTINUOUS
 62
           7
100
AcDbLine
 10
-569.497691536609
 20
986.513526798368
 11
575.0
 21
986.513526798368
  0
LINE
  5
DE
100
AcDbEntity
  8
1
  6
CONTINUOUS
 62
           4
100
AcDbLine
 10
3989.608839779004
 20
1800.831132334586
 11
3989.608839779002
 21
520.0
  0
LINE
  5
DD
100
AcDbEntity
  8
1
  6
CONTINUOUS
 62
           7
100
AcDbLine
 10
3969.608839779004
 20
1784.157226830845
 11
3969.608839779002
 21
2000.0
  0
LINE
  5
DC
100
AcDbEntity
  8
1
  6
CONTINUOUS
 62
           4
100
AcDbLine
 10
3949.608839779004
 20
1741.488764155307
 11
3949.608839779002
 21
1980.0
  0
LINE
  5
DB
100
AcDbEntity
  8
1
  6
CONTINUOUS
 62
           4
100
AcDbLine
 10
3989.608839779002
 20
1980.0
 11
3989.608839779004
 21
1814.464669216343
  0
LINE
  5
DA
100
AcDbEntity
  8
1
  6
CONTINUOUS
 62
           4
100
AcDbLine
 10
3949.608839779002
 20
520.0
 11
3949.608839779004
 21
1715.525103244275
  0
LINE
  5
D9
100
AcDbEntity
  8
1
  6
CONTINUOUS
 62
           7
100
AcDbLine
 10
3969.608839779002
 20
500.000000000001
 11
3969.608839779004
 21
1767.293273528177
  0
LINE
  5
D8
100
AcDbEntity
  8
1
  6
CONTINUOUS
 62
           4
100
AcDbLine
 10
4949.042165083563
 20
20.0
 11
4949.042165083563
 21
479.385061529882
  0
LINE
  5
D7
100
AcDbEntity
  8
___S__
  6
DOT_CENTER
 62
           3
100
AcDbLine
 10
-574.999999999999
 20
1067.063266596461
 11
-575.000000000001
 21
982.067556365336
  0
LINE
  5
D6
100
AcDbEntity
  8
____
  6
CONTINUOUS
 62
           3
100
AcDbLine
 10
-569.59594704488
 20
1060.45950481618
 11
-569.59594704488
 21
1058.581574068057
  0
LINE
  5
D5
100
AcDbEntity
  8
____
  6
CONTINUOUS
 62
           3
100
AcDbLine
 10
-579.912775413744
 20
1060.92898750321
 11
-570.087224586255
 21
1060.92898750321
  0
LINE
  5
D4
100
AcDbEntity
  8
____
  6
CONTINUOUS
 62
           3
100
AcDbLine
 10
-580.404052955118
 20
1058.581574068057
 11
-580.404052955118
 21
1060.45950481618
  0
LINE
  5
D3
100
AcDbEntity
  8
____
  6
CONTINUOUS
 62
           3
100
AcDbLine
 10
-569.497691536608
 20
1022.900889853724
 11
-580.502308463384
 21
1022.900889853724
  0
LINE
  5
D2
100
AcDbEntity
  8
____
  6
CONTINUOUS
 62
           3
100
AcDbLine
 10
-569.497691536607
 20
1058.581574068057
 11
-569.497691536608
 21
1022.900889853724
  0
LINE
  5
D1
100
AcDbEntity
  8
____
  6
CONTINUOUS
 62
           3
100
AcDbLine
 10
-580.502308463383
 20
1058.581574068057
 11
-569.497691536607
 21
1058.581574068057
  0
LINE
  5
D0
100
AcDbEntity
  8
____
  6
CONTINUOUS
 62
           3
100
AcDbLine
 10
-580.502308463384
 20
1022.900889853724
 11
-580.502308463383
 21
1058.581574068057
  0
LINE
  5
CF
100
AcDbEntity
  8
____
  6
CONTINUOUS
 62
           3
100
AcDbLine
 10
-580.40405295512
 20
984.403309517208
 11
-580.40405295512
 21
986.28124026533
  0
LINE
  5
CE
100
AcDbEntity
  8
____
  6
CONTINUOUS
 62
           3
100
AcDbLine
 10
-570.087224586257
 20
983.933826830176
 11
-579.912775413746
 21
983.933826830176
  0
LINE
  5
CD
100
AcDbEntity
  8
____
  6
CONTINUOUS
 62
           3
100
AcDbLine
 10
-569.595947044882
 20
986.28124026533
 11
-569.595947044882
 21
984.403309517208
  0
LINE
  5
CC
100
AcDbEntity
  8
____
  6
CONTINUOUS
 62
           3
100
AcDbLine
 10
-580.158414184432
 20
1022.900889853724
 11
-580.158414184432
 21
1021.961924479662
  0
LINE
  5
CB
100
AcDbEntity
  8
____
  6
CONTINUOUS
 62
           3
100
AcDbLine
 10
-569.841585815569
 20
1022.900889853724
 11
-580.158414184432
 21
1022.900889853724
  0
LINE
  5
CA
100
AcDbEntity
  8
____
  6
CONTINUOUS
 62
           3
100
AcDbLine
 10
-569.841585815569
 20
1021.961924479662
 11
-569.841585815569
 21
1022.900889853724
  0
LINE
  5
C9
100
AcDbEntity
  8
____
  6
CONTINUOUS
 62
           3
100
AcDbLine
 10
-580.404052955118
 20
1060.45950481618
 11
-569.59594704488
 21
1060.45950481618
  0
LINE
  5
C8
100
AcDbEntity
  8
____
  6
CONTINUOUS
 62
           3
100
AcDbLine
 10
-580.502308463384
 20
1021.961924479662
 11
-569.497691536608
 21
1021.961924479662
  0
LINE
  5
C7
100
AcDbEntity
  8
____
  6
CONTINUOUS
 62
           3
100
AcDbLine
 10
-580.502308463385
 20
986.28124026533
 11
-580.502308463384
 21
1021.961924479662
  0
LINE
  5
C6
100
AcDbEntity
  8
____
  6
CONTINUOUS
 62
           3
100
AcDbLine
 10
-569.497691536609
 20
986.28124026533
 11
-580.502308463385
 21
986.28124026533
  0
LINE
  5
C5
100
AcDbEntity
  8
____
  6
CONTINUOUS
 62
           3
100
AcDbLine
 10
-569.497691536608
 20
1021.961924479662
 11
-569.497691536609
 21
986.28124026533
  0
LINE
  5
C4
100
AcDbEntity
  8
____
  6
CONTINUOUS
 62
           3
100
AcDbLine
 10
-580.404052955118
 20
1060.45950481618
 11
-579.912775413744
 21
1060.92898750321
  0
LINE
  5
C3
100
AcDbEntity
  8
____
  6
CONTINUOUS
 62
           3
100
AcDbLine
 10
-570.087224586255
 20
1060.92898750321
 11
-569.59594704488
 21
1060.45950481618
  0
LINE
  5
C2
100
AcDbEntity
  8
____
  6
CONTINUOUS
 62
           3
100
AcDbLine
 10
-579.912775413746
 20
983.933826830176
 11
-580.40405295512
 21
984.403309517208
  0
LINE
  5
C1
100
AcDbEntity
  8
____
  6
CONTINUOUS
 62
           3
100
AcDbLine
 10
-569.595947044882
 20
984.403309517208
 11
-570.087224586257
 21
983.933826830176
  0
LINE
  5
C0
100
AcDbEntity
  8
____
  6
CONTINUOUS
 62
           3
100
AcDbLine
 10
-580.40405295512
 20
984.403309517208
 11
-569.595947044882
 21
984.403309517208
  0
LINE
  5
BF
100
AcDbEntity
  8
____
  6
CONTINUOUS
 62
           3
100
AcDbLine
 10
-580.404052955096
 20
1538.39288020726
 11
-569.595947044858
 21
1538.39288020726
  0
LINE
  5
BE
100
AcDbEntity
  8
____
  6
CONTINUOUS
 62
           3
100
AcDbLine
 10
-569.595947044858
 20
1538.39288020726
 11
-570.087224586232
 21
1537.923397520231
  0
LINE
  5
BD
100
AcDbEntity
  8
____
  6
CONTINUOUS
 62
           3
100
AcDbLine
 10
-579.912775413721
 20
1537.923397520231
 11
-580.404052955096
 21
1538.39288020726
  0
LINE
  5
BC
100
AcDbEntity
  8
____
  6
CONTINUOUS
 62
           3
100
AcDbLine
 10
-570.087224586231
 20
1614.918558193264
 11
-569.595947044857
 21
1614.449075506232
  0
LINE
  5
BB
100
AcDbEntity
  8
____
  6
CONTINUOUS
 62
           3
100
AcDbLine
 10
-580.404052955095
 20
1614.449075506232
 11
-579.91277541372
 21
1614.918558193264
  0
LINE
  5
BA
100
AcDbEntity
  8
____
  6
CONTINUOUS
 62
           3
100
AcDbLine
 10
-569.497691536592
 20
1575.951495169716
 11
-569.497691536592
 21
1540.270810955383
  0
LINE
  5
B9
100
AcDbEntity
  8
____
  6
CONTINUOUS
 62
           3
100
AcDbLine
 10
-569.497691536592
 20
1540.270810955383
 11
-580.502308463369
 21
1540.270810955383
  0
LINE
  5
B8
100
AcDbEntity
  8
____
  6
CONTINUOUS
 62
           3
100
AcDbLine
 10
-580.502308463369
 20
1540.270810955383
 11
-580.502308463369
 21
1575.951495169716
  0
LINE
  5
B7
100
AcDbEntity
  8
____
  6
CONTINUOUS
 62
           3
100
AcDbLine
 10
-580.502308463369
 20
1575.951495169716
 11
-569.497691536592
 21
1575.951495169716
  0
LINE
  5
B6
100
AcDbEntity
  8
____
  6
CONTINUOUS
 62
           3
100
AcDbLine
 10
-580.404052955095
 20
1614.449075506232
 11
-569.595947044857
 21
1614.449075506232
  0
LINE
  5
B5
100
AcDbEntity
  8
____
  6
CONTINUOUS
 62
           3
100
AcDbLine
 10
-569.841585815545
 20
1575.951495169716
 11
-569.841585815545
 21
1576.890460543778
  0
LINE
  5
B4
100
AcDbEntity
  8
____
  6
CONTINUOUS
 62
           3
100
AcDbLine
 10
-569.841585815545
 20
1576.890460543778
 11
-580.158414184408
 21
1576.890460543778
  0
LINE
  5
B3
100
AcDbEntity
  8
____
  6
CONTINUOUS
 62
           3
100
AcDbLine
 10
-580.158414184408
 20
1576.890460543778
 11
-580.158414184408
 21
1575.951495169716
  0
LINE
  5
B2
100
AcDbEntity
  8
____
  6
CONTINUOUS
 62
           3
100
AcDbLine
 10
-569.595947044858
 20
1540.270810955383
 11
-569.595947044858
 21
1538.39288020726
  0
LINE
  5
B1
100
AcDbEntity
  8
____
  6
CONTINUOUS
 62
           3
100
AcDbLine
 10
-570.087224586232
 20
1537.923397520231
 11
-579.912775413721
 21
1537.923397520231
  0
LINE
  5
B0
100
AcDbEntity
  8
____
  6
CONTINUOUS
 62
           3
100
AcDbLine
 10
-580.404052955096
 20
1538.39288020726
 11
-580.404052955096
 21
1540.270810955383
  0
LINE
  5
AF
100
AcDbEntity
  8
____
  6
CONTINUOUS
 62
           3
100
AcDbLine
 10
-580.502308463369
 20
1576.890460543778
 11
-580.502308463368
 21
1612.57114475811
  0
LINE
  5
AE
100
AcDbEntity
  8
____
  6
CONTINUOUS
 62
           3
100
AcDbLine
 10
-580.502308463368
 20
1612.57114475811
 11
-569.497691536591
 21
1612.571144758109
  0
LINE
  5
AD
100
AcDbEntity
  8
____
  6
CONTINUOUS
 62
           3
100
AcDbLine
 10
-569.497691536591
 20
1612.571144758109
 11
-569.497691536592
 21
1576.890460543778
  0
LINE
  5
AC
100
AcDbEntity
  8
____
  6
CONTINUOUS
 62
           3
100
AcDbLine
 10
-569.497691536592
 20
1576.890460543778
 11
-580.502308463369
 21
1576.890460543778
  0
LINE
  5
AB
100
AcDbEntity
  8
____
  6
CONTINUOUS
 62
           3
100
AcDbLine
 10
-580.404052955095
 20
1612.57114475811
 11
-580.404052955095
 21
1614.449075506232
  0
LINE
  5
AA
100
AcDbEntity
  8
____
  6
CONTINUOUS
 62
           3
100
AcDbLine
 10
-579.91277541372
 20
1614.918558193264
 11
-570.087224586231
 21
1614.918558193264
  0
LINE
  5
A9
100
AcDbEntity
  8
____
  6
CONTINUOUS
 62
           3
100
AcDbLine
 10
-569.595947044857
 20
1614.449075506232
 11
-569.595947044857
 21
1612.571144758109
  0
LINE
  5
A8
100
AcDbEntity
  8
___S__
  6
DOT_CENTER
 62
           3
100
AcDbLine
 10
-574.999999999976
 20
1621.052837286498
 11
-574.999999999977
 21
1536.05712705539
  0
LINE
  5
A7
100
AcDbEntity
  8
1
  6
CONTINUOUS
 62
           7
100
AcDbLine
 10
-575.0
 20
941.513526798368
 11
575.0
 21
941.513526798368
  0
LINE
  5
A6
100
AcDbEntity
  8
1
  6
CONTINUOUS
 62
           7
100
AcDbLine
 10
575.0
 20
941.513526798368
 11
575.0
 21
1646.282992387803
  0
LINE
  5
A5
100
AcDbEntity
  8
1
  6
CONTINUOUS
 62
           7
100
AcDbLine
 10
-575.0
 20
941.513526798368
 11
-575.0
 21
1646.282992387803
  0
LINE
  5
A4
100
AcDbEntity
  8
1
  6
CONTINUOUS
 62
           7
100
AcDbLine
 10
575.0
 20
1646.282992387803
 11
-575.0
 21
1646.282992387803
  0
LINE
  5
A3
100
AcDbEntity
  8
1
  6
CONTINUOUS
 62
           7
100
AcDbLine
 10
1000.000000000001
 20
1763.744569986044
 11
-1000.0
 21
1763.744569986044
  0
LINE
  5
A2
100
AcDbEntity
  8
1
  6
CONTINUOUS
 62
           4
100
AcDbLine
 10
3419.608839779005
 20
1700.000000000002
 11
3449.608839779002
 21
1700.000000000002
  0
LINE
  5
A1
100
AcDbEntity
  8
1
  6
CONTINUOUS
 62
           7
100
AcDbLine
 10
1210.000000000001
 20
3894.668221991705
 11
1050.000000000001
 21
3894.668221991705
  0
LINE
  5
A0
100
AcDbEntity
  8
1
  6
CONTINUOUS
 62
           7
100
AcDbLine
 10
1210.000000000001
 20
4094.668221991705
 11
1210.000000000001
 21
3894.668221991705
  0
LINE
  5
9F
100
AcDbEntity
  8
1
  6
CONTINUOUS
 62
           7
100
AcDbLine
 10
1050.000000000001
 20
4094.668221991705
 11
1210.000000000001
 21
4094.668221991705
  0
LINE
  5
9E
100
AcDbEntity
  8
1
  6
CONTINUOUS
 62
           7
100
AcDbLine
 10
1210.000000000001
 20
1700.000000000002
 11
1050.000000000001
 21
1700.000000000002
  0
LINE
  5
9D
100
AcDbEntity
  8
1
  6
CONTINUOUS
 62
           7
100
AcDbLine
 10
1210.000000000001
 20
1300.000000000003
 11
1210.000000000001
 21
1700.000000000002
  0
LINE
  5
9C
100
AcDbEntity
  8
1
  6
CONTINUOUS
 62
           7
100
AcDbLine
 10
1050.000000000001
 20
1300.000000000003
 11
1210.000000000001
 21
1300.000000000003
  0
LINE
  5
9B
100
AcDbEntity
  8
1
  6
CONTINUOUS
 62
           4
100
AcDbLine
 10
3419.608839779005
 20
1300.000000000002
 11
3449.608839779002
 21
1300.000000000003
  0
LINE
  5
9A
100
AcDbEntity
  8
1
  6
CONTINUOUS
 62
           7
100
AcDbLine
 10
3219.608839779005
 20
1700.000000000002
 11
3219.608839779005
 21
1300.000000000002
  0
LINE
  5
99
100
AcDbEntity
  8
1
  6
CONTINUOUS
 62
           7
100
AcDbLine
 10
3419.608839779005
 20
1700.000000000002
 11
3219.608839779005
 21
1700.000000000002
  0
LINE
  5
98
100
AcDbEntity
  8
1
  6
CONTINUOUS
 62
           7
100
AcDbLine
 10
3419.608839779005
 20
1300.000000000002
 11
3419.608839779005
 21
1700.000000000002
  0
LINE
  5
97
100
AcDbEntity
  8
1
  6
CONTINUOUS
 62
           7
100
AcDbLine
 10
3219.608839779005
 20
1300.000000000002
 11
3419.608839779005
 21
1300.000000000002
  0
LINE
  5
96
100
AcDbEntity
  8
1
  6
CONTINUOUS
 62
           7
100
AcDbLine
 10
3469.608839779005
 20
2500.0
 11
2969.608839779004
 21
2500.0
  0
LINE
  5
95
100
AcDbEntity
  8
1
  6
CONTINUOUS
 62
           7
100
AcDbLine
 10
3469.608839779004
 20
2550.0
 11
3969.608839779002
 21
2050.0
  0
LINE
  5
94
100
AcDbEntity
  8
1
  6
CONTINUOUS
 62
           7
100
AcDbLine
 10
3969.608839779002
 20
2050.0
 11
4969.608839779003
 21
2050.0
  0
LINE
  5
93
100
AcDbEntity
  8
1
  6
CONTINUOUS
 62
           4
100
AcDbLine
 10
3969.608839779002
 20
2003.0
 11
4969.608839779003
 21
2003.0
  0
LINE
  5
92
100
AcDbEntity
  8
1
  6
CONTINUOUS
 62
           4
100
AcDbLine
 10
3969.608839779002
 20
2040.0
 11
4969.608839779003
 21
2040.0
  0
LINE
  5
91
100
AcDbEntity
  8
1
  6
CONTINUOUS
 62
           7
100
AcDbLine
 10
-1050.0
 20
2515.0
 11
-1050.0
 21
2500.0
  0
LINE
  5
90
100
AcDbEntity
  8
1
  6
CONTINUOUS
 62
           7
100
AcDbLine
 10
1000.000000000001
 20
2000.0
 11
-1000.0
 21
2000.0
  0
LINE
  5
8F
100
AcDbEntity
  8
1
  6
CONTINUOUS
 62
           4
100
AcDbLine
 10
1040.000000000001
 20
4644.668221991706
 11
1040.000000000001
 21
5644.668221991706
  0
LINE
  5
8E
100
AcDbEntity
  8
1
  6
CONTINUOUS
 62
           4
100
AcDbLine
 10
-1040.0
 20
4144.668221991706
 11
-1040.0
 21
3664.668221991706
  0
LINE
  5
8D
100
AcDbEntity
  8
1
  6
CONTINUOUS
 62
           4
100
AcDbLine
 10
-1002.999999999999
 20
4144.668221991706
 11
-1002.999999999999
 21
3664.668221991706
  0
LINE
  5
8C
100
AcDbEntity
  8
1
  6
CONTINUOUS
 62
           4
100
AcDbLine
 10
1003.000000000001
 20
4144.668221991706
 11
1003.000000000001
 21
3664.668221991706
  0
LINE
  5
8B
100
AcDbEntity
  8
1
  6
CONTINUOUS
 62
           7
100
AcDbLine
 10
-1050.0
 20
4144.668221991706
 11
1050.000000000001
 21
4144.668221991706
  0
LINE
  5
8A
100
AcDbEntity
  8
1
  6
CONTINUOUS
 62
           7
100
AcDbLine
 10
3969.608839779002
 20
2075.0
 11
4969.608839779003
 21
2075.0
  0
LINE
  5
89
100
AcDbEntity
  8
1
  6
CONTINUOUS
 62
           7
100
AcDbLine
 10
-1050.0
 20
2500.0
 11
-1050.0
 21
0.0
  0
LINE
  5
88
100
AcDbEntity
  8
1
  6
CONTINUOUS
 62
           7
100
AcDbLine
 10
3699.608839779005
 20
1589.999999999999
 11
3699.608839779005
 21
1350.0
  0
LINE
  5
87
100
AcDbEntity
  8
1
  6
CONTINUOUS
 62
           7
100
AcDbLine
 10
3519.608839779005
 20
1589.999999999999
 11
3699.608839779005
 21
1589.999999999999
  0
LINE
  5
86
100
AcDbEntity
  8
1
  6
CONTINUOUS
 62
           7
100
AcDbLine
 10
3699.608839779005
 20
1350.0
 11
3519.608839779005
 21
1350.0
  0
LINE
  5
85
100
AcDbEntity
  8
1
  6
CONTINUOUS
 62
           7
100
AcDbLine
 10
3209.608839779002
 20
1950.0
 11
3019.608839779002
 21
1950.0
  0
LINE
  5
84
100
AcDbEntity
  8
1
  6
CONTINUOUS
 62
           7
100
AcDbLine
 10
3019.608839779002
 20
1950.0
 11
3019.608839779002
 21
1862.0
  0
LINE
  5
83
100
AcDbEntity
  8
1
  6
CONTINUOUS
 62
           7
100
AcDbLine
 10
3019.608839779002
 20
1862.0
 11
3209.608839779002
 21
1862.0
  0
LINE
  5
82
100
AcDbEntity
  8
1
  6
CONTINUOUS
 62
           7
100
AcDbLine
 10
3209.608839779002
 20
1862.0
 11
3209.608839779002
 21
1950.0
  0
LINE
  5
81
100
AcDbEntity
  8
1
  6
CONTINUOUS
 62
           4
100
AcDbLine
 10
-1040.0
 20
5644.668221991706
 11
-1040.0
 21
4644.668221991706
  0
LINE
  5
80
100
AcDbEntity
  8
1
  6
CONTINUOUS
 62
           4
100
AcDbLine
 10
2969.608839779004
 20
2540.0
 11
3469.608839779004
 21
2540.0
  0
LINE
  5
7F
100
AcDbEntity
  8
1
  6
CONTINUOUS
 62
           7
100
AcDbLine
 10
5469.608839779003
 20
0.0
 11
2469.608839779004
 21
0.0
  0
LINE
  5
7E
100
AcDbEntity
  8
1
  6
CONTINUOUS
 62
           4
100
AcDbLine
 10
-980.0
 20
4124.668221991706
 11
980.0
 21
4124.668221991706
  0
LINE
  5
7D
100
AcDbEntity
  8
1
  6
CONTINUOUS
 62
           4
100
AcDbLine
 10
-1002.999999999999
 20
5644.668221991706
 11
-1002.999999999999
 21
4644.668221991706
  0
LINE
  5
7C
100
AcDbEntity
  8
1
  6
CONTINUOUS
 62
           4
100
AcDbLine
 10
980.0
 20
4664.668221991706
 11
520.0
 21
4664.668221991706
  0
LINE
  5
7B
100
AcDbEntity
  8
1
  6
CONTINUOUS
 62
           4
100
AcDbLine
 10
980.0
 20
5624.668221991706
 11
520.0
 21
5624.668221991706
  0
LINE
  5
7A
100
AcDbEntity
  8
1
  6
CONTINUOUS
 62
           4
100
AcDbLine
 10
1003.000000000001
 20
5644.668221991706
 11
1003.000000000001
 21
4644.668221991706
  0
LINE
  5
79
100
AcDbEntity
  8
1
  6
CONTINUOUS
 62
           4
100
AcDbLine
 10
980.0
 20
4124.668221991706
 11
980.0
 21
3664.668221991706
  0
LINE
  5
78
100
AcDbEntity
  8
1
  6
CONTINUOUS
 62
           4
100
AcDbLine
 10
980.0
 20
5624.668221991706
 11
980.0
 21
4664.668221991706
  0
LINE
  5
77
100
AcDbEntity
  8
1
  6
CONTINUOUS
 62
           7
100
AcDbLine
 10
1050.000000000001
 20
3644.668221991706
 11
1050.000000000001
 21
5644.668221991706
  0
LINE
  5
76
100
AcDbEntity
  8
1
  6
DOT_CENTER
 62
           2
100
AcDbLine
 10
4269.608839779001
 20
675.0
 11
4269.608839779001
 21
525.0
  0
LINE
  5
75
100
AcDbEntity
  8
1
  6
DOT_CENTER
 62
           2
100
AcDbLine
 10
4194.608839779003
 20
600.0
 11
4344.608839779003
 21
600.0
  0
LINE
  5
74
100
AcDbEntity
  8
1
  6
DOT_CENTER
 62
           2
100
AcDbLine
 10
0.0
 20
3000.668407282447
 11
0.0
 21
-130.0
  0
LINE
  5
73
100
AcDbEntity
  8
1
  6
CONTINUOUS
 62
           7
100
AcDbLine
 10
-1000.0
 20
500.0
 11
-985.0
 21
500.0
  0
LINE
  5
72
100
AcDbEntity
  8
1
  6
CONTINUOUS
 62
           7
100
AcDbLine
 10
985.0
 20
500.0
 11
1000.000000000001
 21
500.0
  0
LINE
  5
71
100
AcDbEntity
  8
1
  6
CONTINUOUS
 62
           7
100
AcDbLine
 10
-1000.0
 20
800.0
 11
1000.000000000001
 21
800.0
  0
LINE
  5
70
100
AcDbEntity
  8
1
  6
CONTINUOUS
 62
           7
100
AcDbLine
 10
-1000.0
 20
513.85332266763
 11
-1000.0
 21
572.607085651512
  0
LINE
  5
6F
100
AcDbEntity
  8
1
  6
CONTINUOUS
 62
           7
100
AcDbLine
 10
985.0
 20
540.0
 11
985.0
 21
475.000000000001
  0
LINE
  5
6E
100
AcDbEntity
  8
1
  6
CONTINUOUS
 62
           7
100
AcDbLine
 10
-1000.0
 20
400.0
 11
1000.000000000001
 21
400.0
  0
LINE
  5
6D
100
AcDbEntity
  8
1
  6
CONTINUOUS
 62
           7
100
AcDbLine
 10
1000.000000000001
 20
50.0
 11
-1000.0
 21
50.0
  0
LINE
  5
6C
100
AcDbEntity
  8
1
  6
CONTINUOUS
 62
           7
100
AcDbLine
 10
1000.000000000001
 20
1900.0
 11
-1000.0
 21
1900.0
  0
LINE
  5
6B
100
AcDbEntity
  8
1
  6
CONTINUOUS
 62
           7
100
AcDbLine
 10
1000.000000000001
 20
0.0
 11
1000.000000000001
 21
2500.0
  0
LINE
  5
6A
100
AcDbEntity
  8
1
  6
CONTINUOUS
 62
           7
100
AcDbLine
 10
-1000.0
 20
0.0
 11
-1000.0
 21
2500.0
  0
LINE
  5
69
100
AcDbEntity
  8
1
  6
CONTINUOUS
 62
           7
100
AcDbLine
 10
3969.608839779002
 20
2000.0
 11
3969.608839779002
 21
2075.0
  0
LINE
  5
68
100
AcDbEntity
  8
1
  6
CONTINUOUS
 62
           7
100
AcDbLine
 10
2969.608839779004
 20
2550.0
 11
3469.608839779004
 21
2550.0
  0
LINE
  5
67
100
AcDbEntity
  8
1
  6
CONTINUOUS
 62
           4
100
AcDbLine
 10
2969.608839779005
 20
2503.0
 11
3469.608839779004
 21
2503.000000000001
  0
LINE
  5
66
100
AcDbEntity
  8
1
  6
CONTINUOUS
 62
           7
100
AcDbLine
 10
4969.608839779003
 20
2000.0
 11
3469.608839779005
 21
2000.0
  0
LINE
  5
65
100
AcDbEntity
  8
1
  6
CONTINUOUS
 62
           7
100
AcDbLine
 10
4969.608839779003
 20
0.0
 11
4969.608839779003
 21
2075.0
  0
LINE
  5
64
100
AcDbEntity
  8
1
  6
CONTINUOUS
 62
           7
100
AcDbLine
 10
2969.608839779004
 20
0.0
 11
2969.608839779004
 21
2550.0
  0
LINE
  5
63
100
AcDbEntity
  8
1
  6
CONTINUOUS
 62
           7
100
AcDbLine
 10
1050.000000000001
 20
2500.0
 11
-1050.0
 21
2500.0
  0
LINE
  5
62
100
AcDbEntity
  8
1
  6
CONTINUOUS
 62
           7
100
AcDbLine
 10
1050.000000000001
 20
0.0
 11
1050.000000000001
 21
2650.0
  0
LINE
  5
61
100
AcDbEntity
  8
1
  6
CONTINUOUS
 62
           7
100
AcDbLine
 10
1050.000000000001
 20
5644.668221991706
 11
1.000000000001
 21
5644.668221991706
  0
LINE
  5
60
100
AcDbEntity
  8
1
  6
CONTINUOUS
 62
           4
100
AcDbLine
 10
-980.0
 20
4664.668221991706
 11
-980.0
 21
5624.668221991706
  0
LINE
  5
5F
100
AcDbEntity
  8
1
  6
CONTINUOUS
 62
           4
100
AcDbLine
 10
-980.0
 20
4664.668221991706
 11
-520.0
 21
4664.668221991706
  0
LINE
  5
5E
100
AcDbEntity
  8
1
  6
CONTINUOUS
 62
           4
100
AcDbLine
 10
-980.0
 20
4124.668221991706
 11
-980.0
 21
3664.668221991706
  0
LINE
  5
5D
100
AcDbEntity
  8
1
  6
CONTINUOUS
 62
           7
100
AcDbLine
 10
-1050.0
 20
4644.668221991706
 11
-230.525588832581
 21
4644.668221991706
  0
LINE
  5
5C
100
AcDbEntity
  8
1
  6
CONTINUOUS
 62
           7
100
AcDbLine
 10
-1050.0
 20
5644.668221991706
 11
-1050.0
 21
3644.668221991706
  0
LINE
  5
5B
100
AcDbEntity
  8
1
  6
CONTINUOUS
 62
           7
100
AcDbLine
 10
-1050.0
 20
3644.668221991706
 11
1050.000000000001
 21
3644.668221991706
  0
LINE
  5
5A
100
AcDbEntity
  8
1
  6
CONTINUOUS
 62
           4
100
AcDbLine
 10
2989.608839779005
 20
20.0
 11
3449.608839779002
 21
20.0
  0
LINE
  5
59
100
AcDbEntity
  8
1
  6
CONTINUOUS
 62
           4
100
AcDbLine
 10
3449.608839779002
 20
20.0
 11
3449.608839779002
 21
2480.0
  0
LINE
  5
58
100
AcDbEntity
  8
1
  6
CONTINUOUS
 62
           4
100
AcDbLine
 10
3449.608839779002
 20
2480.0
 11
2989.608839779005
 21
2480.0
  0
LINE
  5
57
100
AcDbEntity
  8
1
  6
CONTINUOUS
 62
           4
100
AcDbLine
 10
2989.608839779005
 20
2480.0
 11
2989.608839779005
 21
20.0
  0
LINE
  5
56
100
AcDbEntity
  8
1
  6
CONTINUOUS
 62
           7
100
AcDbLine
 10
3469.608839779004
 20
0.0
 11
3469.608839779004
 21
2550.0
  0
LINE
  5
55
100
AcDbEntity
  8
1
  6
CONTINUOUS
 62
           7
100
AcDbLine
 10
3469.608839779002
 20
500.0
 11
4969.608839779003
 21
500.0
  0
LINE
  5
54
100
AcDbEntity
  8
1
  6
CONTINUOUS
 62
           4
100
AcDbLine
 10
4949.042165083563
 20
479.385061529882
 11
3489.608839779002
 21
479.385061529882
  0
LINE
  5
53
100
AcDbEntity
  8
1
  6
CONTINUOUS
 62
           4
100
AcDbLine
 10
3489.608839779002
 20
479.385061529882
 11
3489.608839779005
 21
20.0
  0
LINE
  5
52
100
AcDbEntity
  8
1
  6
CONTINUOUS
 62
           4
100
AcDbLine
 10
3489.608839779005
 20
20.0
 11
4949.042165083563
 21
20.0
  0
LINE
  5
51
100
AcDbEntity
  8
1
  6
CONTINUOUS
 62
           4
100
AcDbLine
 10
4949.042165083563
 20
20.0
 11
4949.042165083563
 21
479.385061529882
  0
LINE
  5
50
100
AcDbEntity
  8
1
  6
CONTINUOUS
 62
           4
100
AcDbLine
 10
3949.608839779002
 20
1980.0
 11
3489.608839779002
 21
1980.0
  0
LINE
  5
4F
100
AcDbEntity
  8
1
  6
CONTINUOUS
 62
           4
100
AcDbLine
 10
3489.608839779002
 20
1980.0
 11
3489.608839779002
 21
520.0
  0
LINE
  5
4E
100
AcDbEntity
  8
1
  6
CONTINUOUS
 62
           4
100
AcDbLine
 10
3489.608839779002
 20
520.0
 11
3949.608839779002
 21
520.0
  0
LINE
  5
4D
100
AcDbEntity
  8
1
  6
CONTINUOUS
 62
           4
100
AcDbLine
 10
3989.608839779002
 20
520.0
 11
4949.608839779003
 21
520.0
  0
LINE
  5
4C
100
AcDbEntity
  8
1
  6
CONTINUOUS
 62
           4
100
AcDbLine
 10
4949.608839779003
 20
520.0
 11
4949.608839779003
 21
1980.0
  0
LINE
  5
4B
100
AcDbEntity
  8
1
  6
CONTINUOUS
 62
           4
100
AcDbLine
 10
4949.608839779003
 20
1980.0
 11
3989.608839779002
 21
1980.0
  0
LINE
  5
4A
100
AcDbEntity
  8
1
  6
CONTINUOUS
 62
           7
100
AcDbLine
 10
-1000.0
 20
475.000000000001
 11
1000.000000000001
 21
475.000000000001
  0
LINE
  5
49
100
AcDbEntity
  8
1
  6
CONTINUOUS
 62
           7
100
AcDbLine
 10
-985.0
 20
475.000000000001
 11
-984.999999999999
 21
540.0
  0
LINE
  5
48
100
AcDbEntity
  8
1
  6
CONTINUOUS
 62
           7
100
AcDbLine
 10
985.0
 20
540.0
 11
-984.999999999999
 21
540.0
  0
LINE
  5
47
100
AcDbEntity
  8
1
  6
CONTINUOUS
 62
           4
100
AcDbLine
 10
520.0
 20
5624.668221991706
 11
520.0
 21
4664.668221991706
  0
LINE
  5
46
100
AcDbEntity
  8
1
  6
CONTINUOUS
 62
           7
100
AcDbLine
 10
500.0
 20
4644.668221991706
 11
500.0
 21
5644.668221991706
  0
LINE
  5
45
100
AcDbEntity
  8
1
  6
CONTINUOUS
 62
           4
100
AcDbLine
 10
-520.0
 20
4664.668221991706
 11
-520.0
 21
4842.239884584735
  0
LINE
  5
44
100
AcDbEntity
  8
1
  6
CONTINUOUS
 62
           7
100
AcDbLine
 10
-500.0
 20
4644.668221991706
 11
-500.0
 21
4818.976028175173
  0
LINE
  5
43
100
AcDbEntity
  8
1
  6
CONTINUOUS
 62
           7
100
AcDbLine
 10
1550.000000000001
 20
0.0
 11
-1500.0
 21
0.0
  0
LINE
  5
42
100
AcDbEntity
  8
1
  6
DOT_CENTER
 62
           2
100
AcDbLine
 10
500.0
 20
5184.668221991706
 11
-684.888003224811
 21
5184.668221991706
  0
LINE
  5
41
100
AcDbEntity
  8
1
  6
CONTINUOUS
 62
           7
100
AcDbLine
 10
127.928556845363
 20
4644.668221991706
 11
1050.000000000001
 21
4644.668221991706
  0
LINE
  5
40
100
AcDbEntity
  8
1
  6
CONTINUOUS
 62
           7
100
AcDbLine
 10
-650.999999999999
 20
5644.668221991706
 11
-1050.0
 21
5644.668221991706
  0
LINE
  5
3F
100
AcDbEntity
  8
1
  6
CONTINUOUS
 62
           4
100
AcDbLine
 10
-659.999999999997
 20
5624.668221991706
 11
-980.0
 21
5624.668221991706
  0
LINE
  5
3E
100
AcDbEntity
  8
1
  6
CONTINUOUS
 62
           7
100
AcDbLine
 10
3371.608839779005
 20
1219.750000000003
 11
3449.608839779
 21
1219.750000000003
  0
LINE
  5
3D
100
AcDbEntity
  8
1
  6
CONTINUOUS
 62
           7
100
AcDbLine
 10
3371.608839779005
 20
1239.750000000003
 11
3449.608839779
 21
1239.750000000003
  0
LINE
  5
3C
100
AcDbEntity
  8
1
  6
CONTINUOUS
 62
           7
100
AcDbLine
 10
3334.608839779005
 20
1270.000000000003
 11
3334.608839779005
 21
1256.750000000003
  0
LINE
  5
3B
100
AcDbEntity
  8
1
  6
CONTINUOUS
 62
           7
100
AcDbLine
 10
3332.108839779005
 20
1270.000000000003
 11
3357.108839779005
 21
1270.000000000003
  0
LINE
  5
3A
100
AcDbEntity
  8
1
  6
CONTINUOUS
 62
           7
100
AcDbLine
 10
3357.108839779005
 20
1300.000000000003
 11
3357.108839779005
 21
1270.000000000003
  0
LINE
  5
39
100
AcDbEntity
  8
1
  6
CONTINUOUS
 62
           7
100
AcDbLine
 10
3332.108839779005
 20
1300.000000000003
 11
3332.108839779005
 21
1270.000000000003
  0
LINE
  5
38
100
AcDbEntity
  8
1
  6
CONTINUOUS
 62
           7
100
AcDbLine
 10
3354.608839779005
 20
1256.750000000003
 11
3354.608839779005
 21
1270.000000000003
  0
LINE
  5
37
100
AcDbEntity
  8
1
  6
CONTINUOUS
 62
           7
100
AcDbLine
 10
3519.608839779005
 20
1350.0
 11
3519.608839779005
 21
1589.999999999999
  0
LINE
  5
36
100
AcDbEntity
  8
1
  6
CONTINUOUS
 62
           4
100
AcDbLine
 10
1040.000000000001
 20
4144.668221991706
 11
1040.000000000001
 21
3664.668221991706
  0
LINE
  5
35
100
AcDbEntity
  8
1
  6
CONTINUOUS
 62
           7
100
AcDbLine
 10
-1050.0
 20
2500.0
 11
-1050.0
 21
2650.0
  0
LINE
  5
34
100
AcDbEntity
  8
1
  6
CONTINUOUS
 62
           7
100
AcDbLine
 10
-1050.0
 20
2650.0
 11
1050.000000000001
 21
2650.0
  0
LINE
  5
33
100
AcDbEntity
  8
1
  6
CONTINUOUS
 62
           7
100
AcDbLine
 10
-1050.0
 20
3664.668221991706
 11
1050.000000000001
 21
3664.668221991706
  0
LINE
  5
32
100
AcDbEntity
  8
1
  6
CONTINUOUS
 62
           7
100
AcDbLine
 10
-1000.0
 20
3664.668221991706
 11
-1000.0
 21
5644.668221991706
  0
LINE
  5
31
100
AcDbEntity
  8
1
  6
CONTINUOUS
 62
           7
100
AcDbLine
 10
1000.000000000001
 20
3664.668221991706
 11
1000.000000000001
 21
5644.668221991706
  0
LINE
  5
30
100
AcDbEntity
  8
1
  6
CONTINUOUS
 62
           7
100
AcDbLine
 10
2969.608839779004
 20
2550.0
 11
2969.608839779005
 21
2650.0
  0
LINE
  5
2F
100
AcDbEntity
  8
1
  6
CONTINUOUS
 62
           7
100
AcDbLine
 10
2969.608839779005
 20
2650.0
 11
2989.608839779005
 21
2650.0
  0
LINE
  5
2E
100
AcDbEntity
  8
1
  6
DOT_CENTER
 62
           2
100
AcDbLine
 10
0.0
 20
5841.97487623652
 11
0.0
 21
3519.348898239374
  0
POINT
  5
2D
100
AcDbEntity
  8
0
 62
           3
100
AcDbPoint
 10
3803.008836500736
 20
1365.000000000117
  0
ENDSEC
  0
SECTION
  2
OBJECTS
  0
DICTIONARY
  5
19
100
AcDbDictionary
  3
ACAD_GROUP
350
1A
  3
ACAD_MLINESTYLE
350
1B
  0
DICTIONARY
  5
1A
102
{ACAD_REACTORS
330
19
102
}
100
AcDbDictionary
  0
DICTIONARY
  5
1B
102
{ACAD_REACTORS
330
19
102
}
100
AcDbDictionary
  3
STANDARD
350
1C
  0
MLINESTYLE
  5
1C
102
{ACAD_REACTORS
330
1B
102
}
100
AcDbMlineStyle
  2
STANDARD
 70
           0
  3

 62
           0
 51
90.0
 52
90.0
 71
           2
 49
0.5
 62
         256
  6
BYLAYER
 49
-0.5
 62
         256
  6
BYLAYER
  0
ENDSEC
  0
EOF
