  0
SECTION
  2
HEADER
  9
$ACADVER
  1
AC1014
  9
$ACADMAINTVER
 70
           0
  9
$DWGCODEPAGE
  3
DOS932
  9
$INSBASE
 10
0.0
 20
0.0
 30
0.0
  9
$EXTMIN
 10
1.000000000000E+20
 20
1.000000000000E+20
 30
1.000000000000E+20
  9
$EXTMAX
 10
-1.000000000000E+20
 20
-1.000000000000E+20
 30
-1.000000000000E+20
  9
$LIMMIN
 10
0.0
 20
0.0
  9
$LIMMAX
 10
0.0
 20
0.0
  9
$ORTHOMODE
 70
           0
  9
$REGENMODE
 70
           1
  9
$FILLMODE
 70
           1
  9
$QTEXTMODE
 70
           0
  9
$MIRRTEXT
 70
           1
  9
$DRAGMODE
 70
           2
  9
$LTSCALE
 40
1.0
  9
$OSMODE
 70
           0
  9
$ATTMODE
 70
           1
  9
$TEXTSIZE
 40
0.2
  9
$TRACEWID
 40
0.05
  9
$TEXTSTYLE
  7
STANDARD
  9
$CLAYER
  8
0
  9
$CELTYPE
  6
CONTINUOUS
  9
$CECOLOR
 62
         256
  9
$CELTSCALE
 40
1.0
  9
$DELOBJ
 70
           1
  9
$DISPSILH
 70
           0
  9
$DIMSCALE
 40
1.0
  9
$DIMASZ
 40
0.18
  9
$DIMEXO
 40
0.0625
  9
$DIMDLI
 40
0.38
  9
$DIMRND
 40
0.0
  9
$DIMDLE
 40
0.0
  9
$DIMEXE
 40
0.18
  9
$DIMTP
 40
0.0
  9
$DIMTM
 40
0.0
  9
$DIMTXT
 40
0.18
  9
$DIMCEN
 40
0.09
  9
$DIMTSZ
 40
0.0
  9
$DIMTOL
 70
           0
  9
$DIMLIM
 70
           0
  9
$DIMTIH
 70
           1
  9
$DIMTOH
 70
           1
  9
$DIMSE1
 70
           0
  9
$DIMSE2
 70
           0
  9
$DIMTAD
 70
           0
  9
$DIMZIN
 70
           0
  9
$DIMBLK
  1

  9
$DIMASO
 70
           1
  9
$DIMSHO
 70
           1
  9
$DIMPOST
  1

  9
$DIMAPOST
  1

  9
$DIMALT
 70
           0
  9
$DIMALTD
 70
           2
  9
$DIMALTF
 40
25.4
  9
$DIMLFAC
 40
1.0
  9
$DIMTOFL
 70
           0
  9
$DIMTVP
 40
0.0
  9
$DIMTIX
 70
           0
  9
$DIMSOXD
 70
           0
  9
$DIMSAH
 70
           0
  9
$DIMBLK1
  1

  9
$DIMBLK2
  1

  9
$DIMSTYLE
  2
STANDARD
  9
$DIMCLRD
 70
           0
  9
$DIMCLRE
 70
           0
  9
$DIMCLRT
 70
           0
  9
$DIMTFAC
 40
1.0
  9
$DIMGAP
 40
0.09
  9
$DIMJUST
 70
           0
  9
$DIMSD1
 70
           0
  9
$DIMSD2
 70
           0
  9
$DIMTOLJ
 70
           1
  9
$DIMTZIN
 70
           0
  9
$DIMALTZ
 70
           0
  9
$DIMALTTZ
 70
           0
  9
$DIMFIT
 70
           3
  9
$DIMUPT
 70
           0
  9
$DIMUNIT
 70
           2
  9
$DIMDEC
 70
           4
  9
$DIMTDEC
 70
           4
  9
$DIMALTU
 70
           2
  9
$DIMALTTD
 70
           2
  9
$DIMTXSTY
  7
STANDARD
  9
$DIMAUNIT
 70
           0
  9
$LUNITS
 70
           2
  9
$LUPREC
 70
           4
  9
$SKETCHINC
 40
0.1
  9
$FILLETRAD
 40
0.0
  9
$AUNITS
 70
           0
  9
$AUPREC
 70
           0
  9
$MENU
  1
acad
  9
$ELEVATION
 40
0.0
  9
$PELEVATION
 40
0.0
  9
$THICKNESS
 40
0.0
  9
$LIMCHECK
 70
           0
  9
$BLIPMODE
 70
           1
  9
$CHAMFERA
 40
0.0
  9
$CHAMFERB
 40
0.0
  9
$CHAMFERC
 40
0.0
  9
$CHAMFERD
 40
0.0
  9
$SKPOLY
 70
           0
  9
$TDCREATE
 40
0.000000000
  9
$TDUPDATE
 40
0.000000000
  9
$TDINDWG
 40
0.0000000000
  9
$TDUSRTIMER
 40
0.0000000000
  9
$USRTIMER
 70
           1
  9
$ANGBASE
 50
0.0
  9
$ANGDIR
 70
           0
  9
$PDMODE
 70
           0
  9
$PDSIZE
 40
0.0
  9
$PLINEWID
 40
0.0
  9
$COORDS
 70
           0
  9
$SPLFRAME
 70
           0
  9
$SPLINETYPE
 70
           6
  9
$SPLINESEGS
 70
           8
  9
$ATTDIA
 70
           0
  9
$ATTREQ
 70
           1
  9
$HANDLING
 70
           1
  9
$HANDSEED
  5
395
  9
$SURFTAB1
 70
           6
  9
$SURFTAB2
 70
           6
  9
$SURFTYPE
 70
           6
  9
$SURFU
 70
           6
  9
$SURFV
 70
           6
  9
$UCSNAME
  2

  9
$UCSORG
 10
0.0
 20
0.0
 30
0.0
  9
$UCSXDIR
 10
1.0
 20
0.0
 30
0.0
  9
$UCSYDIR
 10
0.0
 20
1.0
 30
0.0
  9
$PUCSNAME
  2

  9
$PUCSORG
 10
0.0
 20
0.0
 30
0.0
  9
$PUCSXDIR
 10
1.0
 20
0.0
 30
0.0
  9
$PUCSYDIR
 10
0.0
 20
1.0
 30
0.0
  9
$USERI1
 70
           0
  9
$USERI2
 70
           0
  9
$USERI3
 70
           0
  9
$USERI4
 70
           0
  9
$USERI5
 70
           0
  9
$USERR1
 40
0.0
  9
$USERR2
 40
0.0
  9
$USERR3
 40
0.0
  9
$USERR4
 40
0.0
  9
$USERR5
 40
0.0
  9
$WORLDVIEW
 70
           1
  9
$SHADEDGE
 70
           3
  9
$SHADEDIF
 70
          70
  9
$TILEMODE
 70
           1
  9
$MAXACTVP
 70
          16
  9
$PINSBASE
 10
0.0
 20
0.0
 30
0.0
  9
$PLIMCHECK
 70
           0
  9
$PEXTMIN
 10
1.000000000000E+20
 20
1.000000000000E+20
 30
1.000000000000E+20
  9
$PEXTMAX
 10
-1.000000000000E+20
 20
-1.000000000000E+20
 30
-1.000000000000E+20
  9
$PLIMMIN
 10
0.0
 20
0.0
  9
$PLIMMAX
 10
12.0
 20
9.0
  9
$UNITMODE
 70
           0
  9
$VISRETAIN
 70
           0
  9
$PLINEGEN
 70
           1
  9
$PSLTSCALE
 70
           0
  9
$TREEDEPTH
 70
        3020
  9
$PICKSTYLE
 70
           1
  9
$CMLSTYLE
  2
STANDARD
  9
$CMLJUST
 70
           0
  9
$CMLSCALE
 40
1.0
  9
$PROXYGRAPHICS
 70
           0
  9
$MEASUREMENT
 70
           0
  0
ENDSEC
  0
SECTION
  2
CLASSES
  0
CLASS
  1
LWPOLYLINE
  2
AcDbPolyline
  3
"AutoCAD"
 90
        0
280
           0
281
           1
  0
CLASS
  1
IMAGE
  2
AcDbRasterImage
  3
ISM
 90
      127
280
           0
281
           1
  0
CLASS
  1
OLE2FRAME
  2
AcDbOle2Frame
  3
""
 90
        0
280
           0
281
           1
  0
CLASS
  1
HATCH
  2
AcDbHatch
  3
"ACAD_SEDONA"
 90
        0
280
           0
281
           1
  0
CLASS
  1
DICTIONARYVAR
  2
AcDbDictionaryVar
  3
"AutoCAD"
 90
        0
280
           0
281
           0
  0
CLASS
  1
RASTERVARIABLES
  2
AcDbRasterVariables
  3
ISM
 90
        0
280
           0
281
           0
  0
CLASS
  1
IMAGEDEF
  2
AcDbRasterImageDef
  3
ISM
 90
        0
280
           0
281
           0
  0
CLASS
  1
IMAGEDEF_REACTOR
  2
AcDbRasterImageDefReactor
  3
ISM
 90
        1
280
           0
281
           0
  0
CLASS
  1
IDBUFFER
  2
AcDbIdBuffer
  3
"Acad"
 90
        0
280
           0
281
           0
  0
CLASS
  1
SPATIAL_FILTER
  2
AcDbSpatialFilter
  3
"Acad"
 90
        0
280
           0
281
           0
  0
CLASS
  1
XRECORD
  2
AcDbXrecord
  3
"<Built In>"
 90
        0
280
           0
281
           0
  0
CLASS
  1
SORTENTSTABLE
  2
AcDbSortentsTable
  3
"AutoCAD"
 90
        0
280
           0
281
           0
  0
CLASS
  1
LAYER_INDEX
  2
AcDbLayerIndex
  3
"Acad"
 90
        0
280
           0
281
           0
  0
CLASS
  1
SPATIAL_INDEX
  2
AcDbSpatialIndex
  3
"Acad"
 90
        0
280
           0
281
           0
  0
CLASS
  1
OBJECT_PTR
  2
CAseDLPNTableRecord
  3
"ASE-LPNTableRecord"
 90
        1
280
           0
281
           0
  0
CLASS
  1
LAYOUT
  2
AcDbLayout
  3
"AutoCAD 2000"
 90
        1
280
           0
281
           0
  0
CLASS
  1
PLOTSETTINGS
  2
AcDbPlotSettings
  3
"AutoCAD 2000"
 90
        1
280
           0
281
           0
  0
CLASS
  1
ACDBDICTIONARYWDFLT
  2
AcDbDictionaryWithDefault
  3
"AutoCAD 2000"
 90
        1
280
           0
281
           0
  0
CLASS
  1
ACDBPLACEHOLDER
  2
AcDbPlaceHolder
  3
"AutoCAD 2000"
 90
        1
280
           0
281
           0
  0
CLASS
  1
VBA_PROJECT
  2
AcDbVbaProject
  3
"acadvba"
 90
        1
280
           0
281
           0
  0
CLASS
  1
WIPEOUT
  2
AcDbWipeout
  3
WipeOut|AutoCAD Express Tool|expresstools@autodesk.com
 90
      127
280
           0
281
           1
  0
CLASS
  1
WIPEOUTVARIABLES
  2
AcDbWipeoutVariables
  3
WipeOut|AutoCAD Express Tool|expresstools@autodesk.com
 90
        0
280
           0
281
           0
  0
CLASS
  1
RTEXT
  2
RText
  3
RText|AutoCAD Express Tool|expresstools@autodesk.com
 90
        0
280
           0
281
           1
  0
CLASS
  1
ARCALIGNEDTEXT
  2
AcDbArcAlignedText
  3
ATEXT|AutoCAD Express Tool|expresstools@autodesk.com
 90
        0
280
           0
281
           1
  0
ENDSEC
  0
SECTION
  2
TABLES
  0
TABLE
  2
VPORT
  5
7
100
AcDbSymbolTable
 70
           1
  0
VPORT
  5
15
100
AcDbSymbolTableRecord
100
AcDbViewportTableRecord
  2
*ACTIVE
 70
           0
 10
0.0
 20
0.0
 11
1.0
 21
1.0
 12
6.591288
 22
4.579184
 13
0.0
 23
0.0
 14
1.0
 24
1.0
 15
0.0
 25
0.0
 16
0.0
 26
0.0
 36
1.0
 17
0.0
 27
0.0
 37
0.0
 40
9.158369
 41
0.688564
 42
50.0
 43
0.0
 44
0.0
 50
0.0
 51
0.0
 71
           0
 72
         100
 73
           1
 74
           1
 75
           0
 76
           0
 77
           0
 78
           0
  0
ENDTAB
  0
TABLE
  2
LTYPE
  5
4
100
AcDbSymbolTable
 70
          10
  0
LTYPE
  5
11
100
AcDbSymbolTableRecord
100
AcDbLinetypeTableRecord
  2
BYBLOCK
 70
          64
  3

 72
          65
 73
           0
 40
0.0
  0
LTYPE
  5
12
100
AcDbSymbolTableRecord
100
AcDbLinetypeTableRecord
  2
BYLAYER
 70
          64
  3

 72
          65
 73
           0
 40
0.0
  0
LTYPE
  5
13
100
AcDbSymbolTableRecord
100
AcDbLinetypeTableRecord
  2
CONTINUOUS
 70
          64
  3
Solid line
 72
          65
 73
           0
 40
0.0
  0
LTYPE
  5
1D
100
AcDbSymbolTableRecord
100
AcDbLinetypeTableRecord
  2
DASHED
 70
          64
  3
Dashed
 72
          65
 73
           2
 40
15.0
 49
12.0
 74
           0
 49
-3.0
 74
           0
  0
LTYPE
  5
1E
100
AcDbSymbolTableRecord
100
AcDbLinetypeTableRecord
  2
DOTTED
 70
          64
  3
Dotted
 72
          65
 73
           2
 40
3.5
 49
0.5
 74
           0
 49
-3.0
 74
           0
  0
LTYPE
  5
1F
100
AcDbSymbolTableRecord
100
AcDbLinetypeTableRecord
  2
DOT_CENTER
 70
          64
  3
Dot_Center
 72
          65
 73
           4
 40
2.0
 49
1.25
 74
           0
 49
-0.25
 74
           0
 49
0.25
 74
           0
 49
-0.25
 74
           0
  0
LTYPE
  5
20
100
AcDbSymbolTableRecord
100
AcDbLinetypeTableRecord
  2
LONG_DASHED
 70
          64
  3
Long_Dashed
 72
          65
 73
           2
 40
2.0
 49
1.5
 74
           0
 49
-0.5
 74
           0
  0
LTYPE
  5
21
100
AcDbSymbolTableRecord
100
AcDbLinetypeTableRecord
  2
DASH_CENTER
 70
          64
  3
Dash_Center
 72
          65
 73
           4
 40
36.0
 49
24.0
 74
           0
 49
-3.0
 74
           0
 49
6.0
 74
           0
 49
-3.0
 74
           0
  0
LTYPE
  5
22
100
AcDbSymbolTableRecord
100
AcDbLinetypeTableRecord
  2
PHANTOM
 70
          64
  3
Phantom
 72
          65
 73
           6
 40
2.5
 49
1.25
 74
           0
 49
-0.25
 74
           0
 49
0.25
 74
           0
 49
-0.25
 74
           0
 49
0.25
 74
           0
 49
-0.25
 74
           0
  0
LTYPE
  5
23
100
AcDbSymbolTableRecord
100
AcDbLinetypeTableRecord
  2
CENTER_DASH_DASH
 70
          64
  3
Center_Dash_Dash
 72
          65
 73
           6
 40
22.0
 49
12.0
 74
           0
 49
-3.0
 74
           0
 49
0.5
 74
           0
 49
-3.0
 74
           0
 49
0.5
 74
           0
 49
-3.0
 74
           0
  0
ENDTAB
  0
TABLE
  2
LAYER
  5
2
100
AcDbSymbolTable
 70
           7
  0
LAYER
  5
14
100
AcDbSymbolTableRecord
100
AcDbLayerTableRecord
  2
0
 70
           0
 62
           7
  6
CONTINUOUS
  0
LAYER
  5
24
100
AcDbSymbolTableRecord
100
AcDbLayerTableRecord
  2
___S__
 70
           0
 62
           7
  6
CONTINUOUS
  0
LAYER
  5
25
100
AcDbSymbolTableRecord
100
AcDbLayerTableRecord
  2
FORMAT
 70
           0
 62
           7
  6
CONTINUOUS
  0
LAYER
  5
26
100
AcDbSymbolTableRecord
100
AcDbLayerTableRecord
  2
1
 70
           0
 62
           7
  6
CONTINUOUS
  0
LAYER
  5
27
100
AcDbSymbolTableRecord
100
AcDbLayerTableRecord
  2
2
 70
           0
 62
           7
  6
CONTINUOUS
  0
LAYER
  5
28
100
AcDbSymbolTableRecord
100
AcDbLayerTableRecord
  2
7
 70
           0
 62
           7
  6
CONTINUOUS
  0
LAYER
  5
29
100
AcDbSymbolTableRecord
100
AcDbLayerTableRecord
  2
____
 70
           0
 62
           7
  6
CONTINUOUS
  0
ENDTAB
  0
TABLE
  2
STYLE
  5
3
100
AcDbSymbolTable
 70
           1
  0
STYLE
  5
17
100
AcDbSymbolTableRecord
100
AcDbTextStyleTableRecord
  2
STANDARD
 70
           0
 40
0.0
 41
1.0
 50
0.0
 71
           0
 42
0.0
  3
txt
  4

  0
ENDTAB
  0
TABLE
  2
VIEW
  5
5
100
AcDbSymbolTable
 70
           0
  0
ENDTAB
  0
TABLE
  2
UCS
  5
6
100
AcDbSymbolTable
 70
           0
  0
ENDTAB
  0
TABLE
  2
APPID
  5
8
100
AcDbSymbolTable
 70
           1
  0
APPID
  5
16
100
AcDbSymbolTableRecord
100
AcDbRegAppTableRecord
  2
ACAD
 70
           0
  0
ENDTAB
  0
TABLE
  2
DIMSTYLE
  5
9
100
AcDbSymbolTable
 70
           1
  0
DIMSTYLE
105
18
100
AcDbSymbolTableRecord
100
AcDbDimStyleTableRecord
  2
STANDARD
 70
           0
  3

  4

  5

  6

  7

 40
1.0
 41
0.18
 42
0.0625
 43
0.38
 44
0.18
 45
0.0
 46
0.0
 47
0.0
 48
0.0
 71
           0
 72
           0
 73
           1
 74
           1
 75
           0
 76
           0
 77
           0
 78
           0
140
0.18
141
0.09
142
0.0
143
25.4
144
1.0
145
0.0
146
1.0
147
0.09
170
           0
171
           2
172
           0
173
           0
174
           0
175
           0
176
           0
177
           0
178
           0
270
           2
271
           4
272
           4
273
           2
274
           2
275
           0
280
           0
281
           0
282
           0
283
           1
284
           0
285
           0
286
           0
287
           0
288
           0
340
17
  0
ENDTAB
  0
TABLE
  2
BLOCK_RECORD
  5
1
100
AcDbSymbolTable
 70
           0
  0
BLOCK_RECORD
  5
A
100
AcDbSymbolTableRecord
100
AcDbBlockTableRecord
  2
*MODEL_SPACE
  0
BLOCK_RECORD
  5
B
100
AcDbSymbolTableRecord
100
AcDbBlockTableRecord
  2
*PAPER_SPACE
  0
ENDTAB
  0
ENDSEC
  0
SECTION
  2
BLOCKS
  0
BLOCK
  5
D
100
AcDbEntity
  8
0
100
AcDbBlockBegin
  2
*MODEL_SPACE
 70
           0
 10
0.0
 20
0.0
 30
0.0
  3
*MODEL_SPACE
  1

  0
ENDBLK
  5
E
100
AcDbEntity
  8
0
100
AcDbBlockEnd
  0
BLOCK
  5
F
100
AcDbEntity
 67
           1
  8
0
100
AcDbBlockBegin
  2
*PAPER_SPACE
 70
           0
 10
0.0
 20
0.0
 30
0.0
  3
*PAPER_SPACE
  1

  0
ENDBLK
  5
10
100
AcDbEntity
 67
           1
  8
0
100
AcDbBlockEnd
  0
ENDSEC
  0
SECTION
  2
ENTITIES
  0
HATCH
  5
393
100
AcDbEntity
  8
0
  6
CONTINUOUS
 62
           2
100
AcDbHatch
 10
0.0
 20
0.0
 30
0.0
210
0.0
220
0.0
230
1.0
  2
USER
 70
           0
 71
           1
 91
        1
 92
        1
 93
        8
 72
           1
 10
3152.0000000000041
 20
1619.039449200003
 11
3230.0000000000041
 21
1619.039449200003
 72
           2
 10
3152.0000000000041
 20
1636.039449200003
 40
17.0
 50
180.0
 51
-90.0
 73
           1
 72
           1
 10
3135.0000000000041
 20
1636.039449200003
 11
3135.0000000000041
 21
1649.289449200003
 72
           1
 10
3135.0000000000041
 20
1649.289449200003
 11
3115.0000000000041
 21
1649.289449200003
 72
           1
 10
3115.0000000000041
 20
1649.289449200003
 11
3115.0000000000041
 21
1636.039449200003
 72
           2
 10
3152.0000000000041
 20
1636.039449200003
 40
37.0
 50
180.0
 51
-90.0
 73
           1
 72
           1
 10
3152.0000000000041
 20
1599.039449200003
 11
3230.0000000000041
 21
1599.039449200003
 72
           1
 10
3230.0000000000041
 20
1599.039449200003
 11
3230.0000000000041
 21
1619.039449200003
 97
        7
330
43
330
311
330
37C
330
44
330
312
330
42
330
37B
 75
           1
 76
           0
 52
45.0
 41
10.0
 77
           0
 78
           1
 53
45.0
 43
0.0
 44
0.0
 45
-7.0710678118654746
 46
7.0710678118654755
 79
           0
 98
        1
 10
0.0
 20
0.0
  0
ARC
  5
392
100
AcDbEntity
  8
1
  6
CONTINUOUS
 62
           4
100
AcDbCircle
 10
4794.5
 20
2538.789449200002
 40
1.0
100
AcDbArc
 50
0.0
 51
90.0
  0
ARC
  5
391
100
AcDbEntity
  8
1
  6
CONTINUOUS
 62
           4
100
AcDbCircle
 10
4805.5
 20
2538.789449200002
 40
1.0
100
AcDbArc
 50
90.0
 51
180.0
  0
ARC
  5
390
100
AcDbEntity
  8
1
  6
CONTINUOUS
 62
           4
100
AcDbCircle
 10
4794.5
 20
2989.789449200004
 40
1.0
100
AcDbArc
 50
-90.0
 51
0.0
  0
ARC
  5
38F
100
AcDbEntity
  8
1
  6
CONTINUOUS
 62
           4
100
AcDbCircle
 10
4805.5
 20
2989.789449200004
 40
1.0
100
AcDbArc
 50
180.0
 51
-90.0
  0
ARC
  5
38E
100
AcDbEntity
  8
1
  6
CONTINUOUS
 62
           7
100
AcDbCircle
 10
4341.500000000002
 20
3167.5894492
 40
12.0
100
AcDbArc
 50
0.0
 51
90.0
  0
ARC
  5
38D
100
AcDbEntity
  8
1
  6
CONTINUOUS
 62
           7
100
AcDbCircle
 10
4341.500000000002
 20
3091.5894492
 40
12.0
100
AcDbArc
 50
-90.0
 51
0.0
  0
ARC
  5
38C
100
AcDbEntity
  8
1
  6
CONTINUOUS
 62
           7
100
AcDbCircle
 10
4238.500000000002
 20
3167.5894492
 40
12.0
100
AcDbArc
 50
90.0
 51
180.0
  0
ARC
  5
38B
100
AcDbEntity
  8
1
  6
CONTINUOUS
 62
           7
100
AcDbCircle
 10
4238.500000000002
 20
3091.5894492
 40
12.0
100
AcDbArc
 50
180.0
 51
-90.0
  0
ARC
  5
38A
100
AcDbEntity
  8
1
  6
CONTINUOUS
 62
           7
100
AcDbCircle
 10
134.496396800001
 20
3091.5894492
 40
12.0
100
AcDbArc
 50
180.0
 51
-90.0
  0
ARC
  5
389
100
AcDbEntity
  8
1
  6
CONTINUOUS
 62
           7
100
AcDbCircle
 10
134.496396800001
 20
3167.589449200001
 40
11.999999999999
100
AcDbArc
 50
90.0
 51
180.0
  0
ARC
  5
388
100
AcDbEntity
  8
1
  6
CONTINUOUS
 62
           7
100
AcDbCircle
 10
185.000000000002
 20
3091.5894492
 40
12.0
100
AcDbArc
 50
-90.0
 51
0.0
  0
ARC
  5
387
100
AcDbEntity
  8
1
  6
CONTINUOUS
 62
           7
100
AcDbCircle
 10
185.000000000002
 20
3167.589449200001
 40
12.0
100
AcDbArc
 50
0.0
 51
90.0
  0
ARC
  5
386
100
AcDbEntity
  8
1
  6
CONTINUOUS
 62
           7
100
AcDbCircle
 10
185.000000000002
 20
5780.805165759571
 40
12.0
100
AcDbArc
 50
0.0
 51
90.0
  0
ARC
  5
385
100
AcDbEntity
  8
1
  6
CONTINUOUS
 62
           7
100
AcDbCircle
 10
185.000000000002
 20
5677.805165759571
 40
12.0
100
AcDbArc
 50
-90.0
 51
0.0
  0
ARC
  5
384
100
AcDbEntity
  8
1
  6
CONTINUOUS
 62
           7
100
AcDbCircle
 10
144.824966598198
 20
5780.805165759571
 40
12.0
100
AcDbArc
 50
90.0
 51
180.0
  0
ARC
  5
383
100
AcDbEntity
  8
1
  6
CONTINUOUS
 62
           7
100
AcDbCircle
 10
144.824966598198
 20
5677.805165759571
 40
12.0
100
AcDbArc
 50
180.0
 51
-90.0
  0
ARC
  5
382
100
AcDbEntity
  8
1
  6
CONTINUOUS
 62
           4
100
AcDbCircle
 10
117.908702762048
 20
5683.805165759571
 40
12.000000000001
100
AcDbArc
 50
-120.430594205703
 51
-90.0
  0
ARC
  5
381
100
AcDbEntity
  8
1
  6
CONTINUOUS
 62
           4
100
AcDbCircle
 10
117.908702762048
 20
5774.805165759571
 40
12.0
100
AcDbArc
 50
90.0
 51
120.430594205707
  0
ARC
  5
380
100
AcDbEntity
  8
1
  6
CONTINUOUS
 62
           3
100
AcDbCircle
 10
4148.163567691046
 20
2297.095702619961
 40
0.5
100
AcDbArc
 50
180.0
 51
-90.0
  0
ARC
  5
37F
100
AcDbEntity
  8
1
  6
CONTINUOUS
 62
           3
100
AcDbCircle
 10
4148.163567691046
 20
2311.483195780042
 40
0.5
100
AcDbArc
 50
90.0
 51
180.0
  0
ARC
  5
37E
100
AcDbEntity
  8
1
  6
CONTINUOUS
 62
           3
100
AcDbCircle
 10
3999.899998122329
 20
2020.289449200001
 40
280.000000000001
100
AcDbArc
 50
90.0
 51
180.0
  0
ARC
  5
37D
100
AcDbEntity
  8
1
  6
CONTINUOUS
 62
           3
100
AcDbCircle
 10
3999.899996810936
 20
2020.289449200001
 40
288.0
100
AcDbArc
 50
90.0
 51
180.0
  0
LWPOLYLINE
  5
37C
100
AcDbEntity
  8
1
  6
CONTINUOUS
 62
           7
 60
           1
100
AcDbPolyline
 90
        3
 70
           0
 10
3135.000000000004
 20
1636.039449200003
 10
3135.000000000004
 20
1649.289449200003
 10
3115.000000000004
 20
1649.289449200003
  0
LWPOLYLINE
  5
37B
100
AcDbEntity
  8
1
  6
CONTINUOUS
 62
           7
 60
           1
100
AcDbPolyline
 90
        2
 70
           0
 10
3230.000000000004
 20
1599.039449200003
 10
3230.000000000004
 20
1619.039449200003
  0
SPLINE
  5
37A
100
AcDbEntity
  8
0
  6
CONTINUOUS
 62
           3
100
AcDbSpline
210
0.0
220
0.0
230
1.0
 70
           0
 71
           3
 72
           8
 73
           5
 74
           7
 42
0.00000000001
 43
0.00000000001
 44
0.00000000001
 40
0.0
 40
0.0
 40
0.0
 40
0.298965195031542
 40
0.4296296276535259
 40
0.4465803504031101
 40
0.4465803504031101
 40
0.4465803504031101
 10
3670.8999966098681
 20
1763.936028823304
 30
0.0
 10
3670.899996609915
 20
1763.7563857634279
 30
0.0
 10
3670.899996609915
 20
1763.517741493117
 30
0.0
 10
3670.899996609915
 20
1763.495056898184
 30
0.0
 10
3670.899996609915
 20
1763.4894484729009
 30
0.0
 11
3670.8999966098681
 21
1763.936028823304
 31
0.0
 11
3670.8999966099036
 21
1763.7597803443257
 31
0.0
 11
3670.8999966099154
 21
1763.5903210271426
 31
0.0
 11
3670.8999966099154
 21
1763.5308664487598
 31
0.0
 11
3670.8999966099154
 21
1763.4976617816624
 31
0.0
 11
3670.899996609915
 21
1763.494306012733
 31
0.0
 11
3670.899996609915
 21
1763.4894484729009
 31
0.0
  0
SPLINE
  5
379
100
AcDbEntity
  8
0
  6
CONTINUOUS
 62
           3
100
AcDbSpline
210
0.0
220
0.0
230
1.0
 70
           0
 71
           3
 72
           8
 73
           5
 74
           7
 42
0.00000000001
 43
0.00000000001
 44
0.00000000001
 40
0.0
 40
0.0
 40
0.0
 40
0.0169507227495842
 40
0.1476151553715681
 40
0.4465803504031101
 40
0.4465803504031101
 40
0.4465803504031101
 10
3660.8999968334369
 20
1763.4894484729009
 30
0.0
 10
3660.8999968334369
 20
1763.495056898184
 30
0.0
 10
3660.8999968334369
 20
1763.517741493117
 30
0.0
 10
3660.8999968334369
 20
1763.7563857634279
 30
0.0
 10
3660.899996833477
 20
1763.936028823304
 30
0.0
 11
3660.8999968334369
 21
1763.4894484729009
 31
0.0
 11
3660.8999968334374
 21
1763.494306012733
 31
0.0
 11
3660.8999968334369
 21
1763.4976617816624
 31
0.0
 11
3660.8999968334369
 21
1763.53086644876
 31
0.0
 11
3660.8999968334369
 21
1763.5903210271426
 31
0.0
 11
3660.8999968334469
 21
1763.7597803443255
 31
0.0
 11
3660.899996833477
 21
1763.936028823304
 31
0.0
  0
SPLINE
  5
378
100
AcDbEntity
  8
0
  6
CONTINUOUS
 62
           3
100
AcDbSpline
210
0.0
220
0.0
230
1.0
 70
           0
 71
           3
 72
           8
 73
           5
 74
           7
 42
0.00000000001
 43
0.00000000001
 44
0.00000000001
 40
0.0
 40
0.0
 40
0.0
 40
0.4813883392833201
 40
1.3325653926421634
 40
2.5594910488299787
 40
2.5594910488299787
 40
2.5594910488299787
 10
3668.3999966657661
 20
1763.4894484729009
 30
0.0
 10
3668.459261471949
 20
1763.4898941713111
 30
0.0
 10
3669.3034813132949
 20
1763.4962430900671
 30
0.0
 10
3670.130777332784
 20
1763.724135041557
 30
0.0
 10
3670.8999966098681
 20
1763.936028823304
 30
0.0
 11
3668.3999966657661
 21
1763.4894484729009
 31
0.0
 11
3668.5206887308855
 21
1763.4903561323513
 31
0.0
 11
3668.7642353138781
 21
1763.4921877138818
 31
0.0
 11
3669.2533835507465
 21
1763.5185650030626
 31
0.0
 11
3669.6423362625183
 21
1763.5895861182353
 31
0.0
 11
3670.2009718844893
 21
1763.7434712561633
 31
0.0
 11
3670.8999966098681
 21
1763.936028823304
 31
0.0
  0
SPLINE
  5
377
100
AcDbEntity
  8
0
  6
CONTINUOUS
 62
           3
100
AcDbSpline
210
0.0
220
0.0
230
1.0
 70
           0
 71
           3
 72
           8
 73
           5
 74
           7
 42
0.00000000001
 43
0.00000000001
 44
0.00000000001
 40
0.0
 40
0.0
 40
0.0
 40
0.4813884775060812
 40
1.332565594239516
 40
2.5594910572547622
 40
2.5594910572547622
 40
2.5594910572547622
 10
3663.3999967775571
 20
1763.4894484729009
 30
0.0
 10
3663.459261584399
 20
1763.4898941715551
 30
0.0
 10
3664.3034817008352
 20
1763.496243095829
 30
0.0
 10
3665.1307775679629
 20
1763.724135041728
 30
0.0
 10
3665.8999967216791
 20
1763.936028823297
 30
0.0
 11
3663.3999967775571
 21
1763.4894484729009
 31
0.0
 11
3663.5206888783728
 21
1763.4903561331107
 31
0.0
 11
3663.7642355671342
 21
1763.4921877164306
 31
0.0
 11
3664.2533839007124
 21
1763.5185650106439
 31
0.0
 11
3664.6423366340468
 21
1763.589586134487
 31
0.0
 11
3665.2009721229128
 21
1763.7434712603103
 31
0.0
 11
3665.8999967216791
 21
1763.936028823297
 31
0.0
  0
SPLINE
  5
376
100
AcDbEntity
  8
0
  6
CONTINUOUS
 62
           3
100
AcDbSpline
210
0.0
220
0.0
230
1.0
 70
           0
 71
           3
 72
           8
 73
           5
 74
           7
 42
0.00000000001
 43
0.00000000001
 44
0.00000000001
 40
0.0
 40
0.0
 40
0.0
 40
0.2779454797455059
 40
0.7862825386890504
 40
1.5429638907210526
 40
1.5429638907210526
 40
1.5429638907210526
 10
3661.5698696873501
 20
1746.8894431442579
 30
0.0
 10
3661.604086231926
 20
1746.889888836515
 30
0.0
 10
3662.091496950035
 20
1746.896237671175
 30
0.0
 10
3662.5691364171989
 20
1747.124133525678
 30
0.0
 10
3663.013245287847
 20
1747.336030945236
 30
0.0
 11
3661.5698696873501
 21
1746.8894431442579
 31
0.0
 11
3661.6386061814987
 21
1746.8903384808177
 31
0.0
 11
3661.7763825747952
 21
1746.8921331059837
 31
0.0
 11
3662.0607022116114
 21
1746.9181060402293
 31
0.0
 11
3662.2834323715806
 21
1746.9878157125841
 31
0.0
 11
3662.6087376234564
 21
1747.1430284272938
 31
0.0
 11
3663.013245287847
 21
1747.336030945236
 31
0.0
  0
SPLINE
  5
375
100
AcDbEntity
  8
0
  6
CONTINUOUS
 62
           3
100
AcDbSpline
210
0.0
220
0.0
230
1.0
 70
           0
 71
           3
 72
           8
 73
           5
 74
           7
 42
0.00000000001
 43
0.00000000001
 44
0.00000000001
 40
0.0
 40
0.0
 40
0.0
 40
0.2779464854379138
 40
0.7862840843774994
 40
1.5429642658577254
 40
1.5429642658577254
 40
1.5429642658577254
 10
3661.5698696873501
 20
1751.889453277043
 30
0.0
 10
3661.5356531379862
 20
1751.889007581671
 30
0.0
 10
3661.0482404188851
 20
1751.882658677441
 30
0.0
 10
3660.5706019393451
 20
1751.654762893475
 30
0.0
 10
3660.1264938539762
 20
1751.4428654761109
 30
0.0
 11
3661.5698696873501
 21
1751.889453277043
 31
0.0
 11
3661.5011329415961
 21
1751.8885579310713
 31
0.0
 11
3661.3633558030615
 21
1751.886763283901
 31
0.0
 11
3661.0790354338701
 21
1751.8607902900578
 31
0.0
 11
3660.8563050946482
 21
1751.7910805214476
 31
0.0
 11
3660.5310007068283
 21
1751.6358679461271
 31
0.0
 11
3660.1264938539762
 21
1751.4428654761109
 31
0.0
  0
SPLINE
  5
374
100
AcDbEntity
  8
0
  6
CONTINUOUS
 62
           3
100
AcDbSpline
210
0.0
220
0.0
230
1.0
 70
           0
 71
           3
 72
           8
 73
           5
 74
           7
 42
0.00000000001
 43
0.00000000001
 44
0.00000000001
 40
0.0
 40
0.0
 40
0.0
 40
0.277946485426852
 40
0.7862840843624765
 40
1.5429642658949392
 40
1.5429642658949392
 40
1.5429642658949392
 10
3670.2301237560082
 20
1746.8894431442579
 30
0.0
 10
3670.2643403053671
 20
1746.8898888396359
 30
0.0
 10
3670.7517530244559
 20
1746.8962377438661
 30
0.0
 10
3671.2293915040041
 20
1747.1241335278251
 30
0.0
 10
3671.6734995893689
 20
1747.336030945314
 30
0.0
 11
3670.2301237560082
 21
1746.8894431442579
 31
0.0
 11
3670.2988605017563
 21
1746.8903384902337
 31
0.0
 11
3670.4366376402841
 21
1746.8921331374058
 31
0.0
 11
3670.7209580094705
 21
1746.9181061312474
 31
0.0
 11
3670.9436883486874
 21
1746.9878158998526
 31
0.0
 11
3671.2689927365163
 21
1747.1430284752041
 31
0.0
 11
3671.6734995893689
 21
1747.336030945314
 31
0.0
  0
SPLINE
  5
373
100
AcDbEntity
  8
0
  6
CONTINUOUS
 62
           3
100
AcDbSpline
210
0.0
220
0.0
230
1.0
 70
           0
 71
           3
 72
           8
 73
           5
 74
           7
 42
0.00000000001
 43
0.00000000001
 44
0.00000000001
 40
0.0
 40
0.0
 40
0.0
 40
0.2779454797516371
 40
0.786282538695422
 40
1.5429638907293313
 40
1.5429638907293313
 40
1.5429638907293313
 10
3670.2301237560082
 20
1751.889453277043
 30
0.0
 10
3670.1959072114282
 20
1751.8890075847851
 30
0.0
 10
3669.7084964933151
 20
1751.882658750128
 30
0.0
 10
3669.2308570261571
 20
1751.6547628956209
 30
0.0
 10
3668.7867481555049
 20
1751.4428654760629
 30
0.0
 11
3670.2301237560082
 21
1751.889453277043
 31
0.0
 11
3670.1613872618545
 21
1751.8885579404825
 31
0.0
 11
3670.0236108685554
 21
1751.8867633153172
 31
0.0
 11
3669.7392912317391
 21
1751.8607903810725
 31
0.0
 11
3669.5165610717722
 21
1751.7910807087176
 31
0.0
 11
3669.1912558198974
 21
1751.6358679940054
 31
0.0
 11
3668.7867481555049
 21
1751.4428654760629
 31
0.0
  0
SPLINE
  5
372
100
AcDbEntity
  8
0
  6
CONTINUOUS
 62
           3
100
AcDbSpline
210
0.0
220
0.0
230
1.0
 70
           0
 71
           3
 72
           8
 73
           5
 74
           7
 42
0.00000000001
 43
0.00000000001
 44
0.00000000001
 40
0.0
 40
0.0
 40
0.0
 40
0.709710718913799
 40
1.6878556121187511
 40
2.9354150974128554
 40
2.9354150974128554
 40
2.9354150974128554
 10
3663.013245287847
 20
1747.336030945236
 30
0.0
 10
3663.2266018694982
 20
1747.2763898026969
 30
0.0
 10
3664.1669045504659
 20
1747.013540042954
 30
0.0
 10
3665.144341891687
 20
1746.943551299868
 30
0.0
 10
3665.8999967216791
 20
1746.8894431442579
 30
0.0
 11
3663.013245287847
 21
1747.336030945236
 31
0.0
 11
3663.2721075078034
 21
1747.2636692752137
 31
0.0
 11
3663.6219810043685
 21
1747.1658665502255
 31
0.0
 11
3664.138063862858
 21
1747.0439320668431
 31
0.0
 11
3664.5964653461306
 21
1746.9827816312381
 31
0.0
 11
3665.1962864627958
 21
1746.9398318438077
 31
0.0
 11
3665.8999967216791
 21
1746.8894431442579
 31
0.0
  0
SPLINE
  5
371
100
AcDbEntity
  8
0
  6
CONTINUOUS
 62
           3
100
AcDbSpline
210
0.0
220
0.0
230
1.0
 70
           0
 71
           3
 72
           8
 73
           5
 74
           7
 42
0.00000000001
 43
0.00000000001
 44
0.00000000001
 40
0.0
 40
0.0
 40
0.0
 40
0.7273681394901935
 40
1.7065914567876983
 40
2.9387223240297522
 40
2.9387223240297522
 40
2.9387223240297522
 10
3665.8999967216791
 20
1746.8894431442579
 30
0.0
 10
3666.138719501037
 20
1746.894922683327
 30
0.0
 10
3667.1156271469849
 20
1746.9173461974519
 30
0.0
 10
3668.0674888562471
 20
1747.155826820723
 30
0.0
 10
3668.7867481553671
 20
1747.336030945314
 30
0.0
 11
3665.8999967216791
 21
1746.8894431442579
 31
0.0
 11
3666.1831310149773
 21
1746.8959420859437
 31
0.0
 11
3666.5550883361557
 21
1746.9044798328632
 31
0.0
 11
3667.080867375515
 21
1746.9405303733847
 31
0.0
 11
3667.5371268719355
 21
1747.0229492657722
 31
0.0
 11
3668.1147131849489
 21
1747.1676584631327
 31
0.0
 11
3668.7867481553671
 21
1747.336030945314
 31
0.0
  0
SPLINE
  5
370
100
AcDbEntity
  8
0
  6
CONTINUOUS
 62
           3
100
AcDbSpline
210
0.0
220
0.0
230
1.0
 70
           0
 71
           3
 72
           8
 73
           5
 74
           7
 42
0.00000000001
 43
0.00000000001
 44
0.00000000001
 40
0.0
 40
0.0
 40
0.0
 40
1.2321308673577245
 40
2.2113541846549261
 40
2.9387223241451532
 40
2.9387223241451532
 40
2.9387223241451532
 10
3668.7867481555049
 20
1751.4428654760629
 30
0.0
 10
3668.0674888562471
 20
1751.6230696005809
 30
0.0
 10
3667.1156271469849
 20
1751.8615502238499
 30
0.0
 10
3666.138719501037
 20
1751.8839737379701
 30
0.0
 10
3665.8999967216791
 20
1751.889453277043
 30
0.0
 11
3668.7867481555049
 21
1751.4428654760629
 31
0.0
 11
3668.114713184978
 21
1751.6112379581903
 31
0.0
 11
3667.5371268719136
 21
1751.755947155536
 31
0.0
 11
3667.08086737551
 21
1751.838366047918
 31
0.0
 11
3666.5550883361561
 21
1751.8744165884359
 31
0.0
 11
3666.1831310149773
 21
1751.882954335355
 31
0.0
 11
3665.8999967216791
 21
1751.889453277043
 31
0.0
  0
SPLINE
  5
36F
100
AcDbEntity
  8
0
  6
CONTINUOUS
 62
           3
100
AcDbSpline
210
0.0
220
0.0
230
1.0
 70
           0
 71
           3
 72
           8
 73
           5
 74
           7
 42
0.00000000001
 43
0.00000000001
 44
0.00000000001
 40
0.0
 40
0.0
 40
0.0
 40
1.2475616964940324
 40
2.2257084622431607
 40
2.9354211178813108
 40
2.9354211178813108
 40
2.9354211178813108
 10
3665.8999967216791
 20
1751.889453277043
 30
0.0
 10
3665.144340064257
 20
1751.835358009474
 30
0.0
 10
3664.1668989125869
 20
1751.7653858334711
 30
0.0
 10
3663.2266017037659
 20
1751.5025123111629
 30
0.0
 10
3663.013245287847
 20
1751.4428654760629
 30
0.0
 11
3665.8999967216791
 21
1751.889453277043
 31
0.0
 11
3665.1962845668077
 21
1751.839076565695
 31
0.0
 11
3664.5964614170362
 21
1751.7961369667892
 31
0.0
 11
3664.138059491635
 21
1751.7349885603101
 31
0.0
 11
3663.6219787243308
 21
1751.6130456075089
 31
0.0
 11
3663.2721068549276
 21
1751.5152339264744
 31
0.0
 11
3663.013245287847
 21
1751.4428654760629
 31
0.0
  0
SPLINE
  5
36E
100
AcDbEntity
  8
0
  6
CONTINUOUS
 62
           3
100
AcDbSpline
210
0.0
220
0.0
230
1.0
 70
           0
 71
           3
 72
           8
 73
           5
 74
           7
 42
0.00000000001
 43
0.00000000001
 44
0.00000000001
 40
0.0
 40
0.0
 40
0.0
 40
0.2779452695534654
 40
0.7862805426566457
 40
1.5429573554964182
 40
1.5429573554964182
 40
1.5429573554964182
 10
3661.5698696873501
 20
1751.889453277043
 30
0.0
 10
3661.604086230876
 20
1751.8898989818119
 30
0.0
 10
3662.0914965280872
 20
1751.8962479893671
 30
0.0
 10
3662.5691362283669
 20
1752.124136033086
 30
0.0
 10
3663.013245287847
 20
1752.336026176861
 30
0.0
 11
3661.5698696873501
 21
1751.889453277043
 31
0.0
 11
3661.6386062202882
 21
1751.8903486392662
 31
0.0
 11
3661.7763827320505
 21
1751.892143316398
 31
0.0
 11
3662.0607020292282
 21
1751.9181155808421
 31
0.0
 11
3662.2834323286888
 21
1751.9878230282366
 31
0.0
 11
3662.6087375183179
 21
1752.1430303178174
 31
0.0
 11
3663.013245287847
 21
1752.336026176861
 31
0.0
  0
SPLINE
  5
36D
100
AcDbEntity
  8
0
  6
CONTINUOUS
 62
           3
100
AcDbSpline
210
0.0
220
0.0
230
1.0
 70
           0
 71
           3
 72
           8
 73
           5
 74
           7
 42
0.00000000001
 43
0.00000000001
 44
0.00000000001
 40
0.0
 40
0.0
 40
0.0
 40
0.2779463803335177
 40
0.7862830863405914
 40
1.5429609982610319
 40
1.5429609982610319
 40
1.5429609982610319
 10
3661.5698696873501
 20
1756.889448508668
 30
0.0
 10
3661.5356531385091
 20
1756.889002807038
 30
0.0
 10
3661.0482406298779
 20
1756.8826538163589
 30
0.0
 10
3660.5706020337661
 20
1756.6547619377891
 30
0.0
 10
3660.1264938539762
 20
1756.4428681582069
 30
0.0
 11
3661.5698696873501
 21
1756.889448508668
 31
0.0
 11
3661.5011329222016
 21
1756.8885531498629
 31
0.0
 11
3661.3633557244393
 21
1756.8867584767086
 31
0.0
 11
3661.0790355250774
 21
1756.8607858177672
 31
0.0
 11
3660.856305116115
 21
1756.7910771616421
 31
0.0
 11
3660.5310007594057
 21
1756.6358672988567
 31
0.0
 11
3660.1264938539762
 21
1756.4428681582069
 31
0.0
  0
SPLINE
  5
36C
100
AcDbEntity
  8
0
  6
CONTINUOUS
 62
           3
100
AcDbSpline
210
0.0
220
0.0
230
1.0
 70
           0
 71
           3
 72
           8
 73
           5
 74
           7
 42
0.00000000001
 43
0.00000000001
 44
0.00000000001
 40
0.0
 40
0.0
 40
0.0
 40
0.2779462752402296
 40
0.7862820883278083
 40
1.542957730651134
 40
1.542957730651134
 40
1.542957730651134
 10
3670.2301237560082
 20
1751.889453277043
 30
0.0
 10
3670.2643403043271
 20
1751.8898989849299
 30
0.0
 10
3670.751752602509
 20
1751.8962480620539
 30
0.0
 10
3671.229391315168
 20
1752.124136035236
 30
0.0
 10
3671.6734995893689
 20
1752.3360261769119
 30
0.0
 11
3670.2301237560082
 21
1751.889453277043
 31
0.0
 11
3670.2988605405531
 21
1751.8903486486797
 31
0.0
 11
3670.4366377975512
 21
1751.892143347817
 31
0.0
 11
3670.7209578270918
 21
1751.9181156718562
 31
0.0
 11
3670.943688305797
 21
1751.9878232155002
 31
0.0
 11
3671.2689926313756
 21
1752.1430303657212
 31
0.0
 11
3671.6734995893689
 21
1752.3360261769119
 31
0.0
  0
SPLINE
  5
36B
100
AcDbEntity
  8
0
  6
CONTINUOUS
 62
           3
100
AcDbSpline
210
0.0
220
0.0
230
1.0
 70
           0
 71
           3
 72
           8
 73
           5
 74
           7
 42
0.00000000001
 43
0.00000000001
 44
0.00000000001
 40
0.0
 40
0.0
 40
0.0
 40
0.2779453746522456
 40
0.7862815406658805
 40
1.5429606230911939
 40
1.5429606230911939
 40
1.5429606230911939
 10
3670.2301237560082
 20
1756.889448508668
 30
0.0
 10
3670.1959072119539
 20
1756.8890028101509
 30
0.0
 10
3669.7084967042952
 20
1756.882653889046
 30
0.0
 10
3669.2308571205781
 20
1756.6547619399389
 30
0.0
 10
3668.7867481555049
 20
1756.442868158269
 30
0.0
 11
3670.2301237560082
 21
1756.889448508668
 31
0.0
 11
3670.1613872424614
 21
1756.8885531592734
 31
0.0
 11
3670.0236107899291
 21
1756.8867585081243
 31
0.0
 11
3669.739291322936
 21
1756.8607859087811
 31
0.0
 11
3669.5165610932245
 21
1756.7910773489075
 31
0.0
 11
3669.1912558724707
 21
1756.6358673467635
 31
0.0
 11
3668.7867481555049
 21
1756.442868158269
 31
0.0
  0
SPLINE
  5
36A
100
AcDbEntity
  8
0
  6
CONTINUOUS
 62
           3
100
AcDbSpline
210
0.0
220
0.0
230
1.0
 70
           0
 71
           3
 72
           8
 73
           5
 74
           7
 42
0.00000000001
 43
0.00000000001
 44
0.00000000001
 40
0.0
 40
0.0
 40
0.0
 40
0.7097104926828064
 40
1.6878550560201475
 40
2.9354142011761439
 40
2.9354142011761439
 40
2.9354142011761439
 10
3663.013245287847
 20
1752.336026176861
 30
0.0
 10
3663.2266018489581
 20
1752.2763848693489
 30
0.0
 10
3664.166903851657
 20
1752.0135345468591
 30
0.0
 10
3665.1443416651759
 20
1751.9435546126219
 30
0.0
 10
3665.8999967216791
 20
1751.889453277043
 30
0.0
 11
3663.013245287847
 21
1752.336026176861
 31
0.0
 11
3663.2721074221563
 21
1752.2636643236572
 31
0.0
 11
3663.6219807028624
 21
1752.1658613790701
 31
0.0
 11
3664.1380633113768
 21
1752.0439276200818
 31
0.0
 11
3664.5964648393328
 21
1751.9827800075395
 31
0.0
 11
3665.1962862228411
 21
1751.9398356274567
 31
0.0
 11
3665.8999967216791
 21
1751.889453277043
 31
0.0
  0
SPLINE
  5
369
100
AcDbEntity
  8
0
  6
CONTINUOUS
 62
           3
100
AcDbSpline
210
0.0
220
0.0
230
1.0
 70
           0
 71
           3
 72
           8
 73
           5
 74
           7
 42
0.00000000001
 43
0.00000000001
 44
0.00000000001
 40
0.0
 40
0.0
 40
0.0
 40
0.7273675739548008
 40
1.7065896374619443
 40
2.9387184666007879
 40
2.9387184666007879
 40
2.9387184666007879
 10
3665.8999967216791
 20
1751.889453277043
 30
0.0
 10
3666.1387194651602
 20
1751.8949330012661
 30
0.0
 10
3667.1156260260959
 20
1751.917357251521
 30
0.0
 10
3668.0674885010571
 20
1752.155828894287
 30
0.0
 10
3668.7867481553671
 20
1752.3360261769119
 30
0.0
 11
3665.8999967216791
 21
1751.889453277043
 31
0.0
 11
3666.1831309024947
 21
1751.8959524367206
 31
0.0
 11
3666.5550879579778
 21
1751.9044904673069
 31
0.0
 11
3667.0808665470136
 21
1751.9405403338671
 31
0.0
 11
3667.5371261778837
 21
1752.0229563651187
 31
0.0
 11
3668.1147128338416
 21
1752.1676600826513
 31
0.0
 11
3668.7867481553671
 21
1752.3360261769119
 31
0.0
  0
SPLINE
  5
368
100
AcDbEntity
  8
0
  6
CONTINUOUS
 62
           3
100
AcDbSpline
210
0.0
220
0.0
230
1.0
 70
           0
 71
           3
 72
           8
 73
           5
 74
           7
 42
0.00000000001
 43
0.00000000001
 44
0.00000000001
 40
0.0
 40
0.0
 40
0.0
 40
1.2321298483008671
 40
2.211352538697402
 40
2.9387203954162633
 40
2.9387203954162633
 40
2.9387203954162633
 10
3668.7867481555049
 20
1756.442868158269
 30
0.0
 10
3668.0674886786469
 20
1756.6230688618159
 30
0.0
 10
3667.115626586537
 20
1756.861544994835
 30
0.0
 10
3666.138719483095
 20
1756.883968877024
 30
0.0
 10
3665.8999967216791
 20
1756.889448508668
 30
0.0
 11
3668.7867481555049
 21
1756.442868158269
 31
0.0
 11
3668.11471300942
 21
1756.6112374464456
 31
0.0
 11
3667.5371265248832
 21
1756.755943903881
 31
0.0
 11
3667.0808669612547
 21
1756.8383613656965
 31
0.0
 11
3666.5550881470635
 21
1756.8744115692359
 31
0.0
 11
3666.1831309587328
 21
1756.8829494579882
 31
0.0
 11
3665.8999967216791
 21
1756.889448508668
 31
0.0
  0
SPLINE
  5
367
100
AcDbEntity
  8
0
  6
CONTINUOUS
 62
           3
100
AcDbSpline
210
0.0
220
0.0
230
1.0
 70
           0
 71
           3
 72
           8
 73
           5
 74
           7
 42
0.00000000001
 43
0.00000000001
 44
0.00000000001
 40
0.0
 40
0.0
 40
0.0
 40
1.2475604207866644
 40
2.2257060852962396
 40
2.9354176594318386
 40
2.9354176594318386
 40
2.9354176594318386
 10
3665.8999967216791
 20
1756.889448508668
 30
0.0
 10
3665.144340864726
 20
1756.8353502071079
 30
0.0
 10
3664.1669013821652
 20
1756.765374152008
 30
0.0
 10
3663.2266017763659
 20
1756.502512229574
 30
0.0
 10
3663.013245287847
 20
1756.442868158269
 30
0.0
 11
3665.8999967216791
 21
1756.889448508668
 31
0.0
 11
3665.1962853948353
 21
1756.8390689778003
 31
0.0
 11
3664.5964631282122
 21
1756.7961269883181
 31
0.0
 11
3664.1380614015397
 21
1756.7349789788082
 31
0.0
 11
3663.6219797136173
 21
1756.6130406228999
 31
0.0
 11
3663.2721071385486
 21
1756.5152333100791
 31
0.0
 11
3663.013245287847
 21
1756.442868158269
 31
0.0
  0
SPLINE
  5
366
100
AcDbEntity
  8
0
  6
CONTINUOUS
 62
           3
100
AcDbSpline
210
0.0
220
0.0
230
1.0
 70
           0
 71
           3
 72
           8
 73
           5
 74
           7
 42
0.00000000001
 43
0.00000000001
 44
0.00000000001
 40
0.0
 40
0.0
 40
0.0
 40
0.2779454797454852
 40
0.786282538690074
 40
1.5429638907218803
 40
1.5429638907218803
 40
1.5429638907218803
 10
3661.5698696873501
 20
1739.28944860405
 30
0.0
 10
3661.604086231926
 20
1739.2898942963079
 30
0.0
 10
3662.091496950035
 20
1739.2962431309629
 30
0.0
 10
3662.5691364171989
 20
1739.5241389854709
 30
0.0
 10
3663.013245287847
 20
1739.736036405026
 30
0.0
 11
3661.5698696873501
 21
1739.28944860405
 31
0.0
 11
3661.6386061814987
 21
1739.29034394061
 31
0.0
 11
3661.7763825747943
 21
1739.2921385657751
 31
0.0
 11
3662.060702211611
 21
1739.3181115000186
 31
0.0
 11
3662.2834323715806
 21
1739.3878211723741
 31
0.0
 11
3662.6087376234555
 21
1739.5430338870851
 31
0.0
 11
3663.013245287847
 21
1739.736036405026
 31
0.0
  0
SPLINE
  5
365
100
AcDbEntity
  8
0
  6
CONTINUOUS
 62
           3
100
AcDbSpline
210
0.0
220
0.0
230
1.0
 70
           0
 71
           3
 72
           8
 73
           5
 74
           7
 42
0.00000000001
 43
0.00000000001
 44
0.00000000001
 40
0.0
 40
0.0
 40
0.0
 40
0.2779462752383797
 40
0.7862820883301265
 40
1.5429577306144961
 40
1.5429577306144961
 40
1.5429577306144961
 10
3661.5698696873501
 20
1744.289443835673
 30
0.0
 10
3661.5356531390362
 20
1744.2889981277899
 30
0.0
 10
3661.0482408408479
 20
1744.2826490506629
 30
0.0
 10
3660.5706021281849
 20
1744.054761077485
 30
0.0
 10
3660.1264938539762
 20
1743.842870935918
 30
0.0
 11
3661.5698696873501
 21
1744.289443835673
 31
0.0
 11
3661.5011329028084
 21
1744.2885484640387
 31
0.0
 11
3661.3633556458112
 21
1744.2867537649017
 31
0.0
 11
3661.0790356162647
 21
1744.2607814408607
 31
0.0
 11
3660.8563051375513
 21
1744.1910738972151
 31
0.0
 11
3660.5310008119741
 21
1744.0358667470255
 31
0.0
 11
3660.1264938539762
 21
1743.842870935918
 31
0.0
  0
SPLINE
  5
364
100
AcDbEntity
  8
0
  6
CONTINUOUS
 62
           3
100
AcDbSpline
210
0.0
220
0.0
230
1.0
 70
           0
 71
           3
 72
           8
 73
           5
 74
           7
 42
0.00000000001
 43
0.00000000001
 44
0.00000000001
 40
0.0
 40
0.0
 40
0.0
 40
0.2779464854684937
 40
0.7862840844045576
 40
1.5429642659456855
 40
1.5429642659456855
 40
1.5429642659456855
 10
3670.2301237559682
 20
1739.289448603922
 30
0.0
 10
3670.2643403053671
 20
1739.289894299425
 30
0.0
 10
3670.7517530244559
 20
1739.296243203655
 30
0.0
 10
3671.2293915040041
 20
1739.524138987616
 30
0.0
 10
3671.6734995893689
 20
1739.736036405124
 30
0.0
 11
3670.2301237559682
 21
1739.289448603922
 31
0.0
 11
3670.2988605017504
 21
1739.2903439499919
 31
0.0
 11
3670.4366376403004
 21
1739.2921385971949
 31
0.0
 11
3670.7209580094745
 21
1739.3181115910363
 31
0.0
 11
3670.943688348686
 21
1739.3878213596415
 31
0.0
 11
3671.2689927365163
 21
1739.5430339349996
 31
0.0
 11
3671.6734995893689
 21
1739.736036405124
 31
0.0
  0
SPLINE
  5
363
100
AcDbEntity
  8
0
  6
CONTINUOUS
 62
           3
100
AcDbSpline
210
0.0
220
0.0
230
1.0
 70
           0
 71
           3
 72
           8
 73
           5
 74
           7
 42
0.00000000001
 43
0.00000000001
 44
0.00000000001
 40
0.0
 40
0.0
 40
0.0
 40
0.2779452695536528
 40
0.7862805426563445
 40
1.5429573555017067
 40
1.5429573555017067
 40
1.5429573555017067
 10
3670.2301237560082
 20
1744.289443835673
 30
0.0
 10
3670.1959072124769
 20
1744.2889981309049
 30
0.0
 10
3669.7084969152761
 20
1744.2826491233541
 30
0.0
 10
3669.2308572149859
 20
1744.054761079635
 30
0.0
 10
3668.7867481555049
 20
1743.84287093586
 30
0.0
 11
3670.2301237560082
 21
1744.289443835673
 31
0.0
 11
3670.1613872230669
 21
1744.2885484734506
 31
0.0
 11
3670.023610711306
 21
1744.2867537963202
 31
0.0
 11
3669.7392914141324
 21
1744.2607815318784
 31
0.0
 11
3669.5165611146708
 21
1744.1910740844846
 31
0.0
 11
3669.1912559250368
 21
1744.0358667949035
 31
0.0
 11
3668.7867481555049
 21
1743.84287093586
 31
0.0
  0
SPLINE
  5
362
100
AcDbEntity
  8
0
  6
CONTINUOUS
 62
           3
100
AcDbSpline
210
0.0
220
0.0
230
1.0
 70
           0
 71
           3
 72
           8
 73
           5
 74
           7
 42
0.00000000001
 43
0.00000000001
 44
0.00000000001
 40
0.0
 40
0.0
 40
0.0
 40
0.7097126556370482
 40
1.6878594213861766
 40
2.9354211178802085
 40
2.9354211178802085
 40
2.9354211178802085
 10
3663.013245287847
 20
1739.736036405026
 30
0.0
 10
3663.2266017037659
 20
1739.6763895699301
 30
0.0
 10
3664.1668989125869
 20
1739.4135160476219
 30
0.0
 10
3665.144340064257
 20
1739.343543871619
 30
0.0
 10
3665.8999967216791
 20
1739.28944860405
 30
0.0
 11
3663.013245287847
 21
1739.736036405026
 31
0.0
 11
3663.2721068549276
 21
1739.6636679546175
 31
0.0
 11
3663.6219787243308
 21
1739.5658562735841
 31
0.0
 11
3664.1380594916354
 21
1739.4439133207832
 31
0.0
 11
3664.5964614170371
 21
1739.3827649143036
 31
0.0
 11
3665.1962845668077
 21
1739.3398253153978
 31
0.0
 11
3665.8999967216791
 21
1739.28944860405
 31
0.0
  0
SPLINE
  5
361
100
AcDbEntity
  8
0
  6
CONTINUOUS
 62
           3
100
AcDbSpline
210
0.0
220
0.0
230
1.0
 70
           0
 71
           3
 72
           8
 73
           5
 74
           7
 42
0.00000000001
 43
0.00000000001
 44
0.00000000001
 40
0.0
 40
0.0
 40
0.0
 40
0.7273681394901466
 40
1.7065914567876512
 40
2.9387223240345679
 40
2.9387223240345679
 40
2.9387223240345679
 10
3665.8999967216791
 20
1739.28944860405
 30
0.0
 10
3666.138719501037
 20
1739.294928143117
 30
0.0
 10
3667.1156271469849
 20
1739.3173516572419
 30
0.0
 10
3668.0674888562471
 20
1739.555832280513
 30
0.0
 10
3668.7867481553671
 20
1739.736036405124
 30
0.0
 11
3665.8999967216791
 21
1739.28944860405
 31
0.0
 11
3666.1831310149769
 21
1739.295947545734
 31
0.0
 11
3666.5550883361557
 21
1739.3044852926532
 31
0.0
 11
3667.0808673755146
 21
1739.3405358331747
 31
0.0
 11
3667.5371268719346
 21
1739.4229547255622
 31
0.0
 11
3668.1147131849493
 21
1739.567663922928
 31
0.0
 11
3668.7867481553671
 21
1739.736036405124
 31
0.0
  0
SPLINE
  5
360
100
AcDbEntity
  8
0
  6
CONTINUOUS
 62
           3
100
AcDbSpline
210
0.0
220
0.0
230
1.0
 70
           0
 71
           3
 72
           8
 73
           5
 74
           7
 42
0.00000000001
 43
0.00000000001
 44
0.00000000001
 40
0.0
 40
0.0
 40
0.0
 40
1.2321288292596262
 40
2.2113508927672667
 40
2.9387184667219528
 40
2.9387184667219528
 40
2.9387184667219528
 10
3668.7867481555049
 20
1743.84287093586
 30
0.0
 10
3668.0674885010571
 20
1744.0230682184299
 30
0.0
 10
3667.1156260260959
 20
1744.2615398611999
 30
0.0
 10
3666.1387194651602
 20
1744.2839641114549
 30
0.0
 10
3665.8999967216791
 20
1744.289443835673
 30
0.0
 11
3668.7867481555049
 21
1743.84287093586
 31
0.0
 11
3668.1147128338703
 21
1744.0112370300817
 31
0.0
 11
3667.537126177861
 21
1744.1559407476061
 31
0.0
 11
3667.0808665470072
 21
1744.2383567788549
 31
0.0
 11
3666.5550879579778
 21
1744.2744066454138
 31
0.0
 11
3666.1831309024938
 21
1744.2829446759993
 31
0.0
 11
3665.8999967216791
 21
1744.289443835673
 31
0.0
  0
SPLINE
  5
35F
100
AcDbEntity
  8
0
  6
CONTINUOUS
 62
           3
100
AcDbSpline
210
0.0
220
0.0
230
1.0
 70
           0
 71
           3
 72
           8
 73
           5
 74
           7
 42
0.00000000001
 43
0.00000000001
 44
0.00000000001
 40
0.0
 40
0.0
 40
0.0
 40
1.2475591451559231
 40
2.2257037084932869
 40
2.9354142011750222
 40
2.9354142011750222
 40
2.9354142011750222
 10
3665.8999967216791
 20
1744.289443835673
 30
0.0
 10
3665.1443416651759
 20
1744.2353425000949
 30
0.0
 10
3664.166903851657
 20
1744.165362565858
 30
0.0
 10
3663.2266018489581
 20
1743.9025122433679
 30
0.0
 10
3663.013245287847
 20
1743.84287093586
 30
0.0
 11
3665.8999967216791
 21
1744.289443835673
 31
0.0
 11
3665.1962862228406
 21
1744.2390614852598
 31
0.0
 11
3664.5964648393328
 21
1744.1961171051776
 31
0.0
 11
3664.1380633113768
 21
1744.134969492635
 31
0.0
 11
3663.6219807028624
 21
1744.0130357336468
 31
0.0
 11
3663.2721074221558
 21
1743.9152327890604
 31
0.0
 11
3663.013245287847
 21
1743.84287093586
 31
0.0
  0
SPLINE
  5
35E
100
AcDbEntity
  8
0
  6
CONTINUOUS
 62
           3
100
AcDbSpline
210
0.0
220
0.0
230
1.0
 70
           0
 71
           3
 72
           8
 73
           5
 74
           7
 42
0.00000000001
 43
0.00000000001
 44
0.00000000001
 40
0.0
 40
0.0
 40
0.0
 40
0.2779464854651531
 40
0.7862840844012495
 40
1.5429642659212282
 40
1.5429642659212282
 40
1.5429642659212282
 10
3670.2301237559682
 20
1739.289448603922
 30
0.0
 10
3670.2643403053671
 20
1739.289002908678
 30
0.0
 10
3670.7517530244559
 20
1739.282654004443
 30
0.0
 10
3671.2293915040041
 20
1739.054758220482
 30
0.0
 10
3671.6734995893689
 20
1738.8428608030231
 30
0.0
 11
3670.2301237559682
 21
1739.289448603922
 31
0.0
 11
3670.2988605017504
 21
1739.288553258046
 31
0.0
 11
3670.4366376402995
 21
1739.286758610906
 31
0.0
 11
3670.720958009475
 21
1739.2607856170619
 31
0.0
 11
3670.9436883486896
 21
1739.1910758484546
 31
0.0
 11
3671.2689927365163
 21
1739.0358632731104
 31
0.0
 11
3671.6734995893689
 21
1738.8428608030231
 31
0.0
  0
SPLINE
  5
35D
100
AcDbEntity
  8
0
  6
CONTINUOUS
 62
           3
100
AcDbSpline
210
0.0
220
0.0
230
1.0
 70
           0
 71
           3
 72
           8
 73
           5
 74
           7
 42
0.00000000001
 43
0.00000000001
 44
0.00000000001
 40
0.0
 40
0.0
 40
0.0
 40
0.377815528497426
 40
0.8942062233967815
 40
1.5357514174680702
 40
1.5357514174680702
 40
1.5357514174680702
 10
3660.1264938539762
 20
1738.8428608030231
 30
0.0
 10
3660.221011897037
 20
1738.8959208909059
 30
0.0
 10
3660.6908817949052
 20
1739.1596942113761
 30
0.0
 10
3661.1795227343059
 20
1739.231826386201
 30
0.0
 10
3661.5698696873501
 20
1739.28944860405
 30
0.0
 11
3660.1264938539762
 21
1738.8428608030231
 31
0.0
 11
3660.2470141544095
 21
1738.9105179140288
 31
0.0
 11
3660.4195389695883
 21
1739.0073690712802
 31
0.0
 11
3660.6775244143314
 21
1739.1296549052383
 31
0.0
 11
3660.9087950979274
 21
1739.1918621269206
 31
0.0
 11
3661.2094275634713
 21
1739.2362408758427
 31
0.0
 11
3661.5698696873501
 21
1739.28944860405
 31
0.0
  0
SPLINE
  5
35C
100
AcDbEntity
  8
0
  6
CONTINUOUS
 62
           3
100
AcDbSpline
210
0.0
220
0.0
230
1.0
 70
           0
 71
           3
 72
           8
 73
           5
 74
           7
 42
0.00000000001
 43
0.00000000001
 44
0.00000000001
 40
0.0
 40
0.0
 40
0.0
 40
0.6415450374774538
 40
1.1579303686103293
 40
1.5357381749066923
 40
1.5357381749066923
 40
1.5357381749066923
 10
3661.5698696873501
 20
1734.2894533724209
 30
0.0
 10
3661.1795237086162
 20
1734.3470828938771
 30
0.0
 10
3660.6908846293641
 20
1734.419224116886
 30
0.0
 10
3660.2210119621182
 20
1734.6829716482571
 30
0.0
 10
3660.1264938539762
 20
1734.736026272225
 30
0.0
 11
3661.5698696873501
 21
1734.2894533724209
 31
0.0
 11
3661.2094282457074
 21
1734.3426678768005
 31
0.0
 11
3660.9087958782479
 21
1734.3870523470268
 31
0.0
 11
3660.6775260473232
 21
1734.4492588979635
 31
0.0
 11
3660.4195390523178
 21
1734.5715350110559
 31
0.0
 11
3660.2470142076327
 21
1734.6683761449488
 31
0.0
 11
3660.1264938539762
 21
1734.736026272225
 31
0.0
  0
SPLINE
  5
35B
100
AcDbEntity
  8
0
  6
CONTINUOUS
 62
           3
100
AcDbSpline
210
0.0
220
0.0
230
1.0
 70
           0
 71
           3
 72
           8
 73
           5
 74
           7
 42
0.00000000001
 43
0.00000000001
 44
0.00000000001
 40
0.0
 40
0.0
 40
0.0
 40
0.3539460334938023
 40
0.8643414136585417
 40
1.5431068113974473
 40
1.5431068113974473
 40
1.5431068113974473
 10
3661.5698696873501
 20
1739.28944860405
 30
0.0
 10
3661.6793238424261
 20
1739.284842707832
 30
0.0
 10
3662.1676816710469
 20
1739.26429231874
 30
0.0
 10
3662.6438213484489
 20
1739.0269828343539
 30
0.0
 10
3663.0132452879729
 20
1738.8428608030231
 30
0.0
 11
3661.5698696873501
 21
1739.28944860405
 31
0.0
 11
3661.7019556855848
 21
1739.283890346356
 31
0.0
 11
3661.8793053701356
 21
1739.2764273657103
 31
0.0
 11
3662.1466781413901
 21
1739.2418623949256
 31
0.0
 11
3662.372043853331
 21
1739.162437576513
 31
0.0
 11
3662.6682329595501
 21
1739.0148160120607
 31
0.0
 11
3663.0132452879729
 21
1738.8428608030231
 31
0.0
  0
SPLINE
  5
35A
100
AcDbEntity
  8
0
  6
CONTINUOUS
 62
           3
100
AcDbSpline
210
0.0
220
0.0
230
1.0
 70
           0
 71
           3
 72
           8
 73
           5
 74
           7
 42
0.00000000001
 43
0.00000000001
 44
0.00000000001
 40
0.0
 40
0.0
 40
0.0
 40
0.6787700534927385
 40
1.1891668948825682
 40
1.5431123743442192
 40
1.5431123743442192
 40
1.5431123743442192
 10
3663.013245287847
 20
1734.736026272243
 30
0.0
 10
3662.6438214744071
 20
1734.5518975716079
 30
0.0
 10
3662.167682050625
 20
1734.3145795367859
 30
0.0
 10
3661.6793238525879
 20
1734.2940537512609
 30
0.0
 10
3661.5698696873501
 20
1734.2894533724209
 30
0.0
 11
3663.013245287847
 21
1734.736026272243
 31
0.0
 11
3662.6682329736404
 21
1734.5640647830085
 31
0.0
 11
3662.3720436579033
 21
1734.4164377165748
 31
0.0
 11
3662.1466781919494
 21
1734.3370139466103
 31
0.0
 11
3661.8793050086451
 21
1734.3024589962936
 31
0.0
 11
3661.7019556002924
 21
1734.2950049678088
 31
0.0
 11
3661.5698696873501
 21
1734.2894533724209
 31
0.0
  0
SPLINE
  5
359
100
AcDbEntity
  8
0
  6
CONTINUOUS
 62
           3
100
AcDbSpline
210
0.0
220
0.0
230
1.0
 70
           0
 71
           3
 72
           8
 73
           5
 74
           7
 42
0.00000000001
 43
0.00000000001
 44
0.00000000001
 40
0.0
 40
0.0
 40
0.0
 40
0.2779452695537002
 40
0.7862805426570608
 40
1.5429573556196836
 40
1.5429573556196836
 40
1.5429573556196836
 10
3670.2301237560082
 20
1734.2894533724209
 30
0.0
 10
3670.1959072124769
 20
1734.2898990771901
 30
0.0
 10
3669.7084969152761
 20
1734.2962480847459
 30
0.0
 10
3669.2308572149859
 20
1734.5241361284679
 30
0.0
 10
3668.7867481553671
 20
1734.736026272225
 30
0.0
 11
3670.2301237560082
 21
1734.2894533724209
 31
0.0
 11
3670.1613872230669
 21
1734.2903487346446
 31
0.0
 11
3670.023610711306
 21
1734.2921434117766
 31
0.0
 11
3669.7392914141365
 21
1734.3181156762191
 31
0.0
 11
3669.5165611146886
 21
1734.3878231236081
 31
0.0
 11
3669.1912559250072
 21
1734.5430304131924
 31
0.0
 11
3668.7867481553671
 21
1734.736026272225
 31
0.0
  0
SPLINE
  5
358
100
AcDbEntity
  8
0
  6
CONTINUOUS
 62
           3
100
AcDbSpline
210
0.0
220
0.0
230
1.0
 70
           0
 71
           3
 72
           8
 73
           5
 74
           7
 42
0.00000000001
 43
0.00000000001
 44
0.00000000001
 40
0.0
 40
0.0
 40
0.0
 40
0.5558558490694467
 40
1.5343195422050351
 40
2.938503745664784
 40
2.938503745664784
 40
2.938503745664784
 10
3665.8999967216791
 20
1734.2894533723229
 30
0.0
 10
3665.831563636295
 20
1734.2898990783019
 30
0.0
 10
3664.8567416872452
 20
1734.2962481106699
 30
0.0
 10
3663.901462916268
 20
1734.5241361292319
 30
0.0
 10
3663.013245287847
 20
1734.736026272243
 30
0.0
 11
3665.8999967216791
 21
1734.2894533723229
 31
0.0
 11
3665.76038187625
 21
1734.2903626863226
 31
0.0
 11
3665.4784035107309
 21
1734.2921992163633
 31
0.0
 11
3664.9140828960194
 21
1734.3186321422197
 31
0.0
 11
3664.4644446988568
 21
1734.3898331311768
 31
0.0
 11
3663.8201539548099
 21
1734.5435329154707
 31
0.0
 11
3663.013245287847
 21
1734.736026272243
 31
0.0
  0
SPLINE
  5
357
100
AcDbEntity
  8
0
  6
CONTINUOUS
 62
           3
100
AcDbSpline
210
0.0
220
0.0
230
1.0
 70
           0
 71
           3
 72
           8
 73
           5
 74
           7
 42
0.00000000001
 43
0.00000000001
 44
0.00000000001
 40
0.0
 40
0.0
 40
0.0
 40
0.5558562714140353
 40
1.5343210643703518
 40
2.9385072682912829
 40
2.9385072682912829
 40
2.9385072682912829
 10
3665.8999967216791
 20
1739.28944860405
 30
0.0
 10
3665.968429809147
 20
1739.2890029106779
 30
0.0
 10
3666.9432526000269
 20
1739.282654051214
 30
0.0
 10
3667.8985309047471
 20
1739.0547582218639
 30
0.0
 10
3668.7867481555049
 20
1738.8428608030699
 30
0.0
 11
3665.8999967216791
 21
1739.28944860405
 31
0.0
 11
3666.0396116244087
 21
1739.2885393152992
 31
0.0
 11
3666.3215901576627
 21
1739.2867028357905
 31
0.0
 11
3666.8859111712886
 21
1739.2602691944771
 31
0.0
 11
3667.3355493274403
 21
1739.1890658396915
 31
0.0
 11
3667.9798398231096
 21
1739.035360771622
 31
0.0
 11
3668.7867481555049
 21
1738.8428608030699
 31
0.0
  0
CIRCLE
  5
356
100
AcDbEntity
  8
1
  6
CONTINUOUS
 62
           7
100
AcDbCircle
 10
0.000000000002
 20
5729.305165759571
 40
360.000000000002
  0
CIRCLE
  5
355
100
AcDbEntity
  8
1
  6
CONTINUOUS
 62
           4
100
AcDbCircle
 10
0.000000000002
 20
5729.305165759571
 40
125.0
  0
CIRCLE
  5
354
100
AcDbEntity
  8
1
  6
CONTINUOUS
 62
           4
100
AcDbCircle
 10
0.000000000002
 20
5729.305165759571
 40
100.9476
  0
CIRCLE
  5
353
100
AcDbEntity
  8
1
  6
CONTINUOUS
 62
           3
100
AcDbCircle
 10
8.472255321879
 20
1674.490297527052
 40
40.0
  0
CIRCLE
  5
352
100
AcDbEntity
  8
1
  6
CONTINUOUS
 62
           7
100
AcDbCircle
 10
4050.000000000003
 20
979.289449200001
 40
15.0
  0
CIRCLE
  5
351
100
AcDbEntity
  8
1
  6
CONTINUOUS
 62
           2
100
AcDbCircle
 10
4050.000000000003
 20
979.289449200001
 40
8.350000000001
  0
CIRCLE
  5
350
100
AcDbEntity
  8
1
  6
CONTINUOUS
 62
           7
100
AcDbCircle
 10
4050.000000000003
 20
979.289449200001
 40
7.5
  0
ARC
  5
34F
100
AcDbEntity
  8
7
  6
CONTINUOUS
 62
           7
100
AcDbCircle
 10
4407.560000000001
 20
3357.649449200002
 40
3.840000000001
100
AcDbArc
 50
0.0
 51
90.0
  0
ARC
  5
34E
100
AcDbEntity
  8
7
  6
CONTINUOUS
 62
           7
100
AcDbCircle
 10
4406.507824400003
 20
3363.889449200004
 40
2.400000000002
100
AcDbArc
 50
-124.999999999983
 51
-90.0
  0
ARC
  5
34D
100
AcDbEntity
  8
7
  6
CONTINUOUS
 62
           7
100
AcDbCircle
 10
4381.760000000002
 20
3383.738810000003
 40
2.400000000001
100
AcDbArc
 50
180.0
 51
-124.999999999995
  0
ARC
  5
34C
100
AcDbEntity
  8
7
  6
CONTINUOUS
 62
           7
100
AcDbCircle
 10
4375.52
 20
3383.449449200002
 40
3.84
100
AcDbArc
 50
0.0
 51
90.0
  0
ARC
  5
34B
100
AcDbEntity
  8
7
  6
CONTINUOUS
 62
           7
100
AcDbCircle
 10
4195.24
 20
3383.738810000003
 40
2.400000000002
100
AcDbArc
 50
-55.000000000005
 51
0.0
  0
ARC
  5
34A
100
AcDbEntity
  8
7
  6
CONTINUOUS
 62
           7
100
AcDbCircle
 10
4201.48
 20
3383.449449200002
 40
3.839999999999
100
AcDbArc
 50
90.0
 51
180.0
  0
ARC
  5
349
100
AcDbEntity
  8
7
  6
CONTINUOUS
 62
           7
100
AcDbCircle
 10
4176.040000000001
 20
3357.423077600003
 40
7.44
100
AcDbArc
 50
122.681915000008
 51
180.0
  0
ARC
  5
348
100
AcDbEntity
  8
7
  6
CONTINUOUS
 62
           7
100
AcDbCircle
 10
-113.959999999999
 20
3357.423077600002
 40
7.439999999999
100
AcDbArc
 50
122.681915000012
 51
180.0
  0
ARC
  5
347
100
AcDbEntity
  8
7
  6
CONTINUOUS
 62
           7
100
AcDbCircle
 10
-88.52
 20
3383.449449200001
 40
3.84
100
AcDbArc
 50
90.0
 51
180.0
  0
ARC
  5
346
100
AcDbEntity
  8
7
  6
CONTINUOUS
 62
           7
100
AcDbCircle
 10
-94.76
 20
3383.738810000001
 40
2.4
100
AcDbArc
 50
-54.99999999998
 51
0.0
  0
ARC
  5
345
100
AcDbEntity
  8
7
  6
CONTINUOUS
 62
           7
100
AcDbCircle
 10
85.52
 20
3383.449449200001
 40
3.84
100
AcDbArc
 50
0.0
 51
90.0
  0
ARC
  5
344
100
AcDbEntity
  8
7
  6
CONTINUOUS
 62
           7
100
AcDbCircle
 10
91.76
 20
3383.738810000001
 40
2.4
100
AcDbArc
 50
180.0
 51
-124.999999999984
  0
ARC
  5
343
100
AcDbEntity
  8
7
  6
CONTINUOUS
 62
           7
100
AcDbCircle
 10
116.5078244
 20
3363.889449200002
 40
2.400000000001
100
AcDbArc
 50
-124.999999999959
 51
-90.0
  0
ARC
  5
342
100
AcDbEntity
  8
7
  6
CONTINUOUS
 62
           7
100
AcDbCircle
 10
117.560000000001
 20
3357.649449200001
 40
3.839999999998
100
AcDbArc
 50
0.0
 51
90.0
  0
ARC
  5
341
100
AcDbEntity
  8
1
  6
CONTINUOUS
 62
           7
100
AcDbCircle
 10
-657.98058221921
 20
5729.305165759571
 40
4.999999999997
100
AcDbArc
 50
-85.143317425439
 51
94.394618584461
  0
ARC
  5
340
100
AcDbEntity
  8
1
  6
CONTINUOUS
 62
           7
100
AcDbCircle
 10
-39.999999999996
 20
5779.305165759571
 40
620.0
100
AcDbArc
 50
-179.999999999999
 51
-175.836413410616
  0
ARC
  5
33F
100
AcDbEntity
  8
1
  6
CONTINUOUS
 62
           7
100
AcDbCircle
 10
168.97287067351
 20
6108.824447084425
 40
5.0
100
AcDbArc
 50
161.151717651222
 51
-19.47106562678
  0
ARC
  5
33E
100
AcDbEntity
  8
1
  6
CONTINUOUS
 62
           7
100
AcDbCircle
 10
18.000000000005
 20
5674.304951180499
 40
459.999999999998
100
AcDbArc
 50
19.808653410673
 51
70.217542734251
  0
ARC
  5
33D
100
AcDbEntity
  8
1
  6
CONTINUOUS
 62
           7
100
AcDbCircle
 10
-46.999999999996
 20
5684.305165759571
 40
525.0
100
AcDbArc
 50
-89.633899153762
 51
-3.883455762483
  0
ARC
  5
33C
100
AcDbEntity
  8
1
  6
CONTINUOUS
 62
           7
100
AcDbCircle
 10
477.109412628022
 20
5653.738458466912
 40
5.000000000002
100
AcDbArc
 50
86.935058466849
 51
-93.610617686068
  0
ARC
  5
33B
100
AcDbEntity
  8
1
  6
CONTINUOUS
 62
           7
100
AcDbCircle
 10
452.450424338098
 20
5825.476472283018
 40
5.0
100
AcDbArc
 50
-90.0
 51
-71.125521506268
  0
ARC
  5
33A
100
AcDbEntity
  8
1
  6
CONTINUOUS
 62
           7
100
AcDbCircle
 10
18.000000000005
 20
5674.304951180499
 40
460.0
100
AcDbArc
 50
0.602232686388
 51
18.563086854737
  0
ARC
  5
339
100
AcDbEntity
  8
1
  6
CONTINUOUS
 62
           7
100
AcDbCircle
 10
452.450424338098
 20
5825.476472283018
 40
5.0
100
AcDbArc
 50
109.497261771684
 51
-90.0
  0
ARC
  5
338
100
AcDbEntity
  8
1
  6
CONTINUOUS
 62
           7
100
AcDbCircle
 10
-39.999999999996
 20
5779.305165759571
 40
620.000000000001
100
AcDbArc
 50
-174.912285430338
 51
-90.336887134984
  0
ARC
  5
337
100
AcDbEntity
  8
1
  6
CONTINUOUS
 62
           7
100
AcDbCircle
 10
-46.999999999996
 20
5684.305165759571
 40
525.000000000001
100
AcDbArc
 50
-2.792103456718
 51
-0.563719865862
  0
ARC
  5
336
100
AcDbEntity
  8
1
  6
CONTINUOUS
 62
           7
100
AcDbCircle
 10
18.000000000005
 20
5674.304951180499
 40
459.999999999998
100
AcDbArc
 50
71.463109290188
 51
88.271493544498
  0
ARC
  5
335
100
AcDbEntity
  8
1
  6
CONTINUOUS
 62
           7
100
AcDbCircle
 10
0.000000000002
 20
5729.305165759571
 40
150.000000000002
100
AcDbArc
 50
-90.0
 51
-23.882765003117
  0
ARC
  5
334
100
AcDbEntity
  8
1
  6
CONTINUOUS
 62
           7
100
AcDbCircle
 10
0.000000000002
 20
5729.305165759571
 40
150.0
100
AcDbArc
 50
23.882765003116
 51
-90.0
  0
ARC
  5
333
100
AcDbEntity
  8
1
  6
CONTINUOUS
 62
           3
100
AcDbCircle
 10
4170.163567691046
 20
2304.289449200001
 40
9.499999999997
100
AcDbArc
 50
-124.797812779177
 51
0.0
  0
ARC
  5
332
100
AcDbEntity
  8
1
  6
CONTINUOUS
 62
           3
100
AcDbCircle
 10
4170.163567691046
 20
2304.289449200001
 40
9.5
100
AcDbArc
 50
0.0
 51
125.916957371437
  0
ARC
  5
331
100
AcDbEntity
  8
1
  6
CONTINUOUS
 62
           3
100
AcDbCircle
 10
4170.163567691046
 20
2304.289449200001
 40
5.87183499506
100
AcDbArc
 50
0.0
 51
38.599713917931
  0
ARC
  5
330
100
AcDbEntity
  8
1
  6
CONTINUOUS
 62
           3
100
AcDbCircle
 10
4170.163567691046
 20
2304.289449200001
 40
5.871834995068
100
AcDbArc
 50
38.599713917931
 51
90.0
  0
ARC
  5
32F
100
AcDbEntity
  8
1
  6
CONTINUOUS
 62
           3
100
AcDbCircle
 10
4170.163567691046
 20
2304.289449200001
 40
5.871834995065
100
AcDbArc
 50
-90.0
 51
0.0
  0
ARC
  5
32E
100
AcDbEntity
  8
0
  6
CONTINUOUS
 62
           3
100
AcDbCircle
 10
3728.399996721518
 20
1747.289449200114
 40
2.5
100
AcDbArc
 50
0.0
 51
180.0
  0
ARC
  5
32D
100
AcDbEntity
  8
0
  6
CONTINUOUS
 62
           3
100
AcDbCircle
 10
3728.399996721518
 20
2011.2894491999
 40
2.499999999993
100
AcDbArc
 50
180.0
 51
0.0
  0
ARC
  5
32C
100
AcDbEntity
  8
0
  6
CONTINUOUS
 62
           3
100
AcDbCircle
 10
3603.399996721827
 20
2011.2894491999
 40
2.5
100
AcDbArc
 50
180.0
 51
0.0
  0
ARC
  5
32B
100
AcDbEntity
  8
0
  6
CONTINUOUS
 62
           3
100
AcDbCircle
 10
3603.399996721827
 20
1747.289449200114
 40
2.49999999999
100
AcDbArc
 50
0.0
 51
180.0
  0
ARC
  5
32A
100
AcDbEntity
  8
0
  6
CONTINUOUS
 62
           3
100
AcDbCircle
 10
3607.899996721817
 20
1888.289449199998
 40
0.999999999997
100
AcDbArc
 50
-90.0
 51
90.0
  0
ARC
  5
329
100
AcDbEntity
  8
0
  6
CONTINUOUS
 62
           3
100
AcDbCircle
 10
3607.899996721817
 20
1810.289449200062
 40
1.0
100
AcDbArc
 50
-90.0
 51
90.0
  0
ARC
  5
328
100
AcDbEntity
  8
0
  6
CONTINUOUS
 62
           3
100
AcDbCircle
 10
3607.899996721817
 20
1788.28944920018
 40
0.999999999998
100
AcDbArc
 50
-90.0
 51
90.0
  0
ARC
  5
327
100
AcDbEntity
  8
0
  6
CONTINUOUS
 62
           3
100
AcDbCircle
 10
3723.899996721525
 20
1788.28944920018
 40
1.0
100
AcDbArc
 50
90.0
 51
-90.0
  0
ARC
  5
326
100
AcDbEntity
  8
0
  6
CONTINUOUS
 62
           3
100
AcDbCircle
 10
3723.899996721525
 20
1810.289449200062
 40
0.999999999998
100
AcDbArc
 50
90.0
 51
-90.0
  0
ARC
  5
325
100
AcDbEntity
  8
0
  6
CONTINUOUS
 62
           3
100
AcDbCircle
 10
3723.899996721525
 20
1888.289449199998
 40
1.0
100
AcDbArc
 50
90.0
 51
-90.0
  0
ARC
  5
324
100
AcDbEntity
  8
0
  6
CONTINUOUS
 62
           3
100
AcDbCircle
 10
3723.899996721525
 20
1910.28944919988
 40
1.0
100
AcDbArc
 50
90.0
 51
-90.0
  0
ARC
  5
323
100
AcDbEntity
  8
0
  6
CONTINUOUS
 62
           3
100
AcDbCircle
 10
3607.899996721817
 20
1910.28944919988
 40
0.999999999995
100
AcDbArc
 50
-90.0
 51
90.0
  0
ARC
  5
322
100
AcDbEntity
  8
0
  6
CONTINUOUS
 62
           3
100
AcDbCircle
 10
3672.373499413466
 20
1769.289449199998
 40
0.900000000003
100
AcDbArc
 50
-90.0
 51
-62.733955549559
  0
ARC
  5
321
100
AcDbEntity
  8
0
  6
CONTINUOUS
 62
           3
100
AcDbCircle
 10
3659.426494029874
 20
1769.289449199998
 40
0.9
100
AcDbArc
 50
-117.266044450312
 51
-90.0
  0
ARC
  5
320
100
AcDbEntity
  8
0
  6
CONTINUOUS
 62
           3
100
AcDbCircle
 10
3665.899996721679
 20
1694.28944920006
 40
53.999999999965
100
AcDbArc
 50
180.0
 51
0.0
  0
ARC
  5
31F
100
AcDbEntity
  8
0
  6
CONTINUOUS
 62
           3
100
AcDbCircle
 10
3665.899996721679
 20
1694.28944920006
 40
45.999999999972
100
AcDbArc
 50
180.0
 51
0.0
  0
ARC
  5
31E
100
AcDbEntity
  8
0
  6
CONTINUOUS
 62
           3
100
AcDbCircle
 10
3665.899996721679
 20
1734.289449200222
 40
4.0
100
AcDbArc
 50
180.0
 51
0.0
  0
ARC
  5
31D
100
AcDbEntity
  8
1
  6
CONTINUOUS
 62
           3
100
AcDbCircle
 10
8.472255321879
 20
1674.490297527052
 40
28.750000000008
100
AcDbArc
 50
83.827497999998
 51
96.17250199999
  0
ARC
  5
31C
100
AcDbEntity
  8
1
  6
CONTINUOUS
 62
           3
100
AcDbCircle
 10
8.472255321879
 20
1674.490297527052
 40
28.749999999989
100
AcDbArc
 50
-96.172501999994
 51
-83.827497999994
  0
ARC
  5
31B
100
AcDbEntity
  8
1
  6
CONTINUOUS
 62
           3
100
AcDbCircle
 10
8.472255321879
 20
1674.490297527052
 40
10.75
100
AcDbArc
 50
0.0
 51
61.226492999998
  0
ARC
  5
31A
100
AcDbEntity
  8
1
  6
CONTINUOUS
 62
           3
100
AcDbCircle
 10
8.472255321879
 20
1674.490297527052
 40
10.750000000001
100
AcDbArc
 50
-61.226493000023
 51
0.0
  0
ARC
  5
319
100
AcDbEntity
  8
1
  6
CONTINUOUS
 62
           3
100
AcDbCircle
 10
8.472255321879
 20
1674.490297527052
 40
10.749999999989
100
AcDbArc
 50
118.773506999974
 51
-118.773506999949
  0
ARC
  5
318
100
AcDbEntity
  8
1
  6
CONTINUOUS
 62
           3
100
AcDbCircle
 10
12.510557321878
 20
1674.490297527052
 40
10.0
100
AcDbArc
 50
174.993206999977
 51
-174.993207000022
  0
ARC
  5
317
100
AcDbEntity
  8
1
  6
CONTINUOUS
 62
           3
100
AcDbCircle
 10
4.433952321884
 20
1674.490297527052
 40
9.999999999999
100
AcDbArc
 50
-5.006792999977
 51
5.006793000023
  0
ARC
  5
316
100
AcDbEntity
  8
1
  6
CONTINUOUS
 62
           3
100
AcDbCircle
 10
5.434752321879
 20
1702.576523527052
 40
0.499999999999
100
AcDbArc
 50
96.172501999333
 51
174.993206998559
  0
ARC
  5
315
100
AcDbEntity
  8
1
  6
CONTINUOUS
 62
           3
100
AcDbCircle
 10
11.509758321877
 20
1702.576523527052
 40
0.500000000005
100
AcDbArc
 50
5.006793001362
 51
83.827497998167
  0
ARC
  5
314
100
AcDbEntity
  8
1
  6
CONTINUOUS
 62
           3
100
AcDbCircle
 10
5.434752321879
 20
1646.404071527059
 40
0.499999999996
100
AcDbArc
 50
-174.993206999935
 51
-96.172501999336
  0
ARC
  5
313
100
AcDbEntity
  8
1
  6
CONTINUOUS
 62
           3
100
AcDbCircle
 10
11.509758321877
 20
1646.404071527059
 40
0.500000000001
100
AcDbArc
 50
-83.827497998164
 51
-5.006792999986
  0
ARC
  5
312
100
AcDbEntity
  8
1
  6
CONTINUOUS
 62
           7
100
AcDbCircle
 10
3152.000000000004
 20
1636.039449200003
 40
37.0
100
AcDbArc
 50
180.0
 51
-90.0
  0
ARC
  5
311
100
AcDbEntity
  8
1
  6
CONTINUOUS
 62
           7
100
AcDbCircle
 10
3152.000000000004
 20
1636.039449200003
 40
17.0
100
AcDbArc
 50
180.0
 51
-90.0
  0
LINE
  5
310
100
AcDbEntity
  8
1
  6
CONTINUOUS
 62
           2
100
AcDbLine
 10
4035.31956277242
 20
2584.289449200001
 11
4442.532262743705
 21
2584.289449200001
  0
LINE
  5
30F
100
AcDbEntity
  8
1
  6
CONTINUOUS
 62
           2
100
AcDbLine
 10
4035.31956277242
 20
2944.289449200001
 11
4035.31956277242
 21
2584.289449200001
  0
LINE
  5
30E
100
AcDbEntity
  8
1
  6
CONTINUOUS
 62
           2
100
AcDbLine
 10
4442.532262743705
 20
2944.289449200001
 11
4035.31956277242
 21
2944.289449200001
  0
LINE
  5
30D
100
AcDbEntity
  8
1
  6
CONTINUOUS
 62
           2
100
AcDbLine
 10
4442.532262743705
 20
2584.289449200001
 11
4442.532262743705
 21
2944.289449200001
  0
LINE
  5
30C
100
AcDbEntity
  8
1
  6
CONTINUOUS
 62
           7
100
AcDbLine
 10
4805.5
 20
2544.289449200001
 11
4794.5
 21
2544.289449200001
  0
LINE
  5
30B
100
AcDbEntity
  8
1
  6
CONTINUOUS
 62
           4
100
AcDbLine
 10
4794.5
 20
2539.789449200002
 11
4760.0
 21
2539.789449200001
  0
LINE
  5
30A
100
AcDbEntity
  8
1
  6
CONTINUOUS
 62
           7
100
AcDbLine
 10
4840.0
 20
2544.289449200002
 11
4840.0
 21
2539.789449200002
  0
LINE
  5
309
100
AcDbEntity
  8
1
  6
CONTINUOUS
 62
           4
100
AcDbLine
 10
4840.0
 20
2539.789449200002
 11
4805.5
 21
2539.789449200002
  0
LINE
  5
308
100
AcDbEntity
  8
1
  6
CONTINUOUS
 62
           7
100
AcDbLine
 10
4760.0
 20
2539.789449200001
 11
4760.0
 21
2544.289449200002
  0
LINE
  5
307
100
AcDbEntity
  8
1
  6
CONTINUOUS
 62
           4
100
AcDbLine
 10
4795.5
 20
2504.289449200001
 11
4804.500000000004
 21
2504.289449200001
  0
LINE
  5
306
100
AcDbEntity
  8
1
  6
CONTINUOUS
 62
           7
100
AcDbLine
 10
4805.5
 20
2984.289449200004
 11
4794.500000000022
 21
2984.289449200004
  0
LINE
  5
305
100
AcDbEntity
  8
1
  6
CONTINUOUS
 62
           4
100
AcDbLine
 10
4795.5
 20
3024.289449200004
 11
4804.500000000004
 21
3024.289449200004
  0
LINE
  5
304
100
AcDbEntity
  8
1
  6
CONTINUOUS
 62
           7
100
AcDbLine
 10
4840.0
 20
2984.289449200001
 11
4840.0
 21
2988.789449200006
  0
LINE
  5
303
100
AcDbEntity
  8
1
  6
CONTINUOUS
 62
           4
100
AcDbLine
 10
4840.0
 20
2988.789449200006
 11
4805.5
 21
2988.789449200004
  0
LINE
  5
302
100
AcDbEntity
  8
1
  6
CONTINUOUS
 62
           7
100
AcDbLine
 10
4760.0
 20
2984.289449200001
 11
4760.0
 21
2988.789449200001
  0
LINE
  5
301
100
AcDbEntity
  8
1
  6
CONTINUOUS
 62
           4
100
AcDbLine
 10
4760.0
 20
2988.789449200001
 11
4794.5
 21
2988.789449200004
  0
LINE
  5
300
100
AcDbEntity
  8
1
  6
CONTINUOUS
 62
           7
100
AcDbLine
 10
4800.0
 20
2504.289449200002
 11
4800.0
 21
3024.289449200004
  0
LINE
  5
2FF
100
AcDbEntity
  8
1
  6
CONTINUOUS
 62
           7
100
AcDbLine
 10
4805.5
 20
2544.289449200001
 11
4840.0
 21
2544.289449200002
  0
LINE
  5
2FE
100
AcDbEntity
  8
1
  6
CONTINUOUS
 62
           7
100
AcDbLine
 10
4840.0
 20
2544.289449200002
 11
4840.0
 21
2984.289449200001
  0
LINE
  5
2FD
100
AcDbEntity
  8
1
  6
CONTINUOUS
 62
           4
100
AcDbLine
 10
4804.5
 20
2544.289449200001
 11
4804.5
 21
2984.289449200004
  0
LINE
  5
2FC
100
AcDbEntity
  8
1
  6
CONTINUOUS
 62
           4
100
AcDbLine
 10
4804.5
 20
2538.789449200002
 11
4804.500000000004
 21
2504.289449200001
  0
LINE
  5
2FB
100
AcDbEntity
  8
1
  6
CONTINUOUS
 62
           4
100
AcDbLine
 10
4804.500000000004
 20
3024.289449200004
 11
4804.5
 21
2989.789449200004
  0
LINE
  5
2FA
100
AcDbEntity
  8
1
  6
CONTINUOUS
 62
           7
100
AcDbLine
 10
4840.0
 20
2984.289449200001
 11
4805.5
 21
2984.289449200004
  0
LINE
  5
2F9
100
AcDbEntity
  8
1
  6
CONTINUOUS
 62
           7
100
AcDbLine
 10
4794.500000000022
 20
2984.289449200004
 11
4760.0
 21
2984.289449200001
  0
LINE
  5
2F8
100
AcDbEntity
  8
1
  6
CONTINUOUS
 62
           4
100
AcDbLine
 10
4795.5
 20
2989.789449200004
 11
4795.5
 21
3024.289449200004
  0
LINE
  5
2F7
100
AcDbEntity
  8
1
  6
CONTINUOUS
 62
           4
100
AcDbLine
 10
4795.5
 20
2504.289449200001
 11
4795.5
 21
2538.789449200002
  0
LINE
  5
2F6
100
AcDbEntity
  8
1
  6
CONTINUOUS
 62
           4
100
AcDbLine
 10
4795.5
 20
2984.289449200004
 11
4795.5
 21
2544.289449200001
  0
LINE
  5
2F5
100
AcDbEntity
  8
1
  6
CONTINUOUS
 62
           7
100
AcDbLine
 10
4760.0
 20
2984.289449200001
 11
4760.0
 21
2544.289449200002
  0
LINE
  5
2F4
100
AcDbEntity
  8
1
  6
CONTINUOUS
 62
           7
100
AcDbLine
 10
4760.0
 20
2544.289449200002
 11
4794.5
 21
2544.289449200001
  0
LINE
  5
2F3
100
AcDbEntity
  8
1
  6
CONTINUOUS
 62
           7
100
AcDbLine
 10
4756.464466094069
 20
2506.289449200001
 11
4390.0
 21
2506.289449200001
  0
LINE
  5
2F2
100
AcDbEntity
  8
1
  6
CONTINUOUS
 62
           7
100
AcDbLine
 10
4760.0
 20
2544.289449200002
 11
4760.0
 21
2511.289449200001
  0
LINE
  5
2F1
100
AcDbEntity
  8
1
  6
CONTINUOUS
 62
           7
100
AcDbLine
 10
4760.0
 20
3017.289449200001
 11
4760.0
 21
2984.289449200001
  0
LINE
  5
2F0
100
AcDbEntity
  8
1
  6
CONTINUOUS
 62
           7
100
AcDbLine
 10
3692.268760408317
 20
3022.289449200001
 11
4215.527778486359
 21
3022.289449200001
  0
LINE
  5
2EF
100
AcDbEntity
  8
1
  6
CONTINUOUS
 62
           7
100
AcDbLine
 10
3692.268760408317
 20
2984.289449200001
 11
3692.268760408317
 21
3022.289449200001
  0
LINE
  5
2EE
100
AcDbEntity
  8
1
  6
CONTINUOUS
 62
           7
100
AcDbLine
 10
4756.464466094069
 20
3022.289449200002
 11
4760.0
 21
3017.289449200001
  0
LINE
  5
2ED
100
AcDbEntity
  8
1
  6
CONTINUOUS
 62
           7
100
AcDbLine
 10
4760.0
 20
2511.289449200001
 11
4756.464466094069
 21
2506.289449200001
  0
LINE
  5
2EC
100
AcDbEntity
  8
1
  6
CONTINUOUS
 62
           7
100
AcDbLine
 10
3692.268760408317
 20
2506.289449200001
 11
3692.268760408319
 21
2544.289449200001
  0
LINE
  5
2EB
100
AcDbEntity
  8
1
  6
CONTINUOUS
 62
           7
100
AcDbLine
 10
4760.0
 20
2984.289449200001
 11
3692.268760408317
 21
2984.289449200001
  0
LINE
  5
2EA
100
AcDbEntity
  8
1
  6
CONTINUOUS
 62
           7
100
AcDbLine
 10
4760.0
 20
2544.289449200002
 11
3692.268760408319
 21
2544.289449200001
  0
LINE
  5
2E9
100
AcDbEntity
  8
1
  6
CONTINUOUS
 62
           4
100
AcDbLine
 10
4560.000000000004
 20
3022.289449200001
 11
4560.000000000004
 21
3023.289449199999
  0
LINE
  5
2E8
100
AcDbEntity
  8
1
  6
CONTINUOUS
 62
           4
100
AcDbLine
 10
4560.000000000004
 20
3023.289449199999
 11
4554.993063735608
 21
3028.289449200001
  0
LINE
  5
2E7
100
AcDbEntity
  8
1
  6
CONTINUOUS
 62
           4
100
AcDbLine
 10
4025.000000000002
 20
3028.289449200001
 11
4020.000000000002
 21
3023.289449199999
  0
LINE
  5
2E6
100
AcDbEntity
  8
1
  6
CONTINUOUS
 62
           4
100
AcDbLine
 10
4554.993063735608
 20
3028.289449200001
 11
4025.000000000002
 21
3028.289449200001
  0
LINE
  5
2E5
100
AcDbEntity
  8
1
  6
CONTINUOUS
 62
           4
100
AcDbLine
 10
4020.000000000002
 20
3023.289449199999
 11
4020.000000000002
 21
3022.289449200001
  0
LINE
  5
2E4
100
AcDbEntity
  8
0
  6
CONTINUOUS
 62
           7
100
AcDbLine
 10
4588.200000000004
 20
2460.289449200001
 11
4588.200000000004
 21
2506.289449200001
  0
LINE
  5
2E3
100
AcDbEntity
  8
0
  6
CONTINUOUS
 62
           7
100
AcDbLine
 10
3991.800000000003
 20
2506.289449200001
 11
3991.800000000003
 21
2460.289449200001
  0
LINE
  5
2E2
100
AcDbEntity
  8
0
  6
CONTINUOUS
 62
           7
100
AcDbLine
 10
4610.0
 20
2544.289449199999
 11
4544.211716344318
 21
2544.289449199999
  0
LINE
  5
2E1
100
AcDbEntity
  8
1
  6
CONTINUOUS
 62
           4
100
AcDbLine
 10
4630.0
 20
2460.289449200001
 11
3950.000000000002
 21
2460.289449200001
  0
LINE
  5
2E0
100
AcDbEntity
  8
1
  6
CONTINUOUS
 62
           7
100
AcDbLine
 10
3950.000000000002
 20
2454.289449200001
 11
4630.0
 21
2454.289449200001
  0
LINE
  5
2DF
100
AcDbEntity
  8
1
  6
CONTINUOUS
 62
           4
100
AcDbLine
 10
3950.000000000002
 20
2460.289449200001
 11
3950.000000000002
 21
2454.289449200001
  0
LINE
  5
2DE
100
AcDbEntity
  8
1
  6
CONTINUOUS
 62
           4
100
AcDbLine
 10
4630.0
 20
2454.289449200001
 11
4630.0
 21
2460.289449200001
  0
LINE
  5
2DD
100
AcDbEntity
  8
1
  6
CONTINUOUS
 62
           7
100
AcDbLine
 10
3730.010908476359
 20
2544.289449200001
 11
3730.010908476359
 21
2984.289449200001
  0
LINE
  5
2DC
100
AcDbEntity
  8
1
  6
DOT_CENTER
 62
           2
100
AcDbLine
 10
4290.000000000002
 20
2420.577751383322
 11
4290.000000000002
 21
3487.285453986783
  0
LINE
  5
2DB
100
AcDbEntity
  8
1
  6
CONTINUOUS
 62
           7
100
AcDbLine
 10
4390.0
 20
3022.289449200001
 11
4390.0
 21
2984.289449200001
  0
LINE
  5
2DA
100
AcDbEntity
  8
1
  6
CONTINUOUS
 62
           7
100
AcDbLine
 10
4215.527778486359
 20
3022.289449200001
 11
4215.527778486359
 21
2984.289449200001
  0
LINE
  5
2D9
100
AcDbEntity
  8
1
  6
CONTINUOUS
 62
           7
100
AcDbLine
 10
4390.0
 20
3022.289449200001
 11
4756.464466094069
 21
3022.289449200002
  0
LINE
  5
2D8
100
AcDbEntity
  8
1
  6
CONTINUOUS
 62
           7
100
AcDbLine
 10
4665.0
 20
3021.989449200003
 11
4665.0
 21
2984.289449200001
  0
LINE
  5
2D7
100
AcDbEntity
  8
1
  6
CONTINUOUS
 62
           7
100
AcDbLine
 10
4665.0
 20
2544.289449200001
 11
4665.0
 21
2506.289449200001
  0
LINE
  5
2D6
100
AcDbEntity
  8
1
  6
CONTINUOUS
 62
           7
100
AcDbLine
 10
4390.0
 20
2544.289449200001
 11
4390.0
 21
2506.289449200001
  0
LINE
  5
2D5
100
AcDbEntity
  8
1
  6
CONTINUOUS
 62
           7
100
AcDbLine
 10
4215.527778486359
 20
2544.289449200001
 11
4215.527778486359
 21
2506.289449200001
  0
LINE
  5
2D4
100
AcDbEntity
  8
1
  6
CONTINUOUS
 62
           7
100
AcDbLine
 10
4215.527778486359
 20
2506.289449200001
 11
3692.268760408317
 21
2506.289449200001
  0
LINE
  5
2D3
100
AcDbEntity
  8
1
  6
CONTINUOUS
 62
           7
100
AcDbLine
 10
4353.500000000002
 20
3167.5894492
 11
4353.500000000002
 21
3091.5894492
  0
LINE
  5
2D2
100
AcDbEntity
  8
1
  6
CONTINUOUS
 62
           7
100
AcDbLine
 10
4226.500000000002
 20
3091.5894492
 11
4226.500000000002
 21
3167.5894492
  0
LINE
  5
2D1
100
AcDbEntity
  8
1
  6
CONTINUOUS
 62
           7
100
AcDbLine
 10
4238.500000000002
 20
3179.5894492
 11
4341.500000000002
 21
3179.5894492
  0
LINE
  5
2D0
100
AcDbEntity
  8
1
  6
CONTINUOUS
 62
           7
100
AcDbLine
 10
4341.500000000002
 20
3079.5894492
 11
4238.500000000002
 21
3079.5894492
  0
LINE
  5
2CF
100
AcDbEntity
  8
2
  6
CONTINUOUS
 62
           4
100
AcDbLine
 10
4399.242370399999
 20
3038.3894492
 11
4177.757629600001
 21
3038.3894492
  0
LINE
  5
2CE
100
AcDbEntity
  8
7
  6
CONTINUOUS
 62
           7
100
AcDbLine
 10
4415.0
 20
3324.521314448044
 11
4415.0
 21
3291.476268400002
  0
LINE
  5
2CD
100
AcDbEntity
  8
7
  6
CONTINUOUS
 62
           7
100
AcDbLine
 10
4165.000000000002
 20
3324.521314448044
 11
4168.600000000002
 21
3357.423077600003
  0
LINE
  5
2CC
100
AcDbEntity
  8
1
  6
CONTINUOUS
 62
           4
100
AcDbLine
 10
4415.0
 20
3324.521314448044
 11
4165.000000000002
 21
3324.521314448044
  0
LINE
  5
2CB
100
AcDbEntity
  8
2
  6
CONTINUOUS
 62
           7
100
AcDbLine
 10
4177.757629600001
 20
3038.3894492
 11
4164.503603200001
 21
3070.189449200003
  0
LINE
  5
2CA
100
AcDbEntity
  8
2
  6
CONTINUOUS
 62
           7
100
AcDbLine
 10
4164.503603200001
 20
3145.439449200003
 11
4164.503603200001
 21
3070.189449200003
  0
LINE
  5
2C9
100
AcDbEntity
  8
2
  6
CONTINUOUS
 62
           7
100
AcDbLine
 10
4170.2553508
 20
3291.476268400002
 11
4164.503603200001
 21
3277.676268400001
  0
LINE
  5
2C8
100
AcDbEntity
  8
2
  6
CONTINUOUS
 62
           7
100
AcDbLine
 10
4164.503603200001
 20
3145.439449200003
 11
4164.503603200001
 21
3277.676268400001
  0
LINE
  5
2C7
100
AcDbEntity
  8
2
  6
CONTINUOUS
 62
           4
100
AcDbLine
 10
4182.940000000002
 20
3038.3894492
 11
4182.940000000002
 21
3028.289449200001
  0
LINE
  5
2C6
100
AcDbEntity
  8
2
  6
CONTINUOUS
 62
           7
100
AcDbLine
 10
4412.496396800001
 20
3277.676268400001
 11
4412.496396800001
 21
3145.439449200003
  0
LINE
  5
2C5
100
AcDbEntity
  8
2
  6
CONTINUOUS
 62
           7
100
AcDbLine
 10
4412.496396800001
 20
3277.676268400001
 11
4406.744649200002
 21
3291.476268400002
  0
LINE
  5
2C4
100
AcDbEntity
  8
2
  6
CONTINUOUS
 62
           7
100
AcDbLine
 10
4412.496396800001
 20
3070.189449200003
 11
4412.496396800001
 21
3145.439449200003
  0
LINE
  5
2C3
100
AcDbEntity
  8
2
  6
CONTINUOUS
 62
           7
100
AcDbLine
 10
4412.496396800001
 20
3070.189449200003
 11
4399.242370399999
 21
3038.3894492
  0
LINE
  5
2C2
100
AcDbEntity
  8
7
  6
CONTINUOUS
 62
           7
100
AcDbLine
 10
4290.000000000002
 20
3387.289449200001
 11
4375.52
 21
3387.289449200001
  0
LINE
  5
2C1
100
AcDbEntity
  8
7
  6
CONTINUOUS
 62
           7
100
AcDbLine
 10
4380.3834164
 20
3381.772845200002
 11
4405.131240800001
 21
3361.923484400003
  0
LINE
  5
2C0
100
AcDbEntity
  8
7
  6
CONTINUOUS
 62
           4
100
AcDbLine
 10
4169.809572400001
 20
3361.489449200003
 11
4407.560000000001
 21
3361.489449200003
  0
LINE
  5
2BF
100
AcDbEntity
  8
7
  6
CONTINUOUS
 62
           7
100
AcDbLine
 10
4411.400000000002
 20
3357.649449200002
 11
4415.0
 21
3324.521314448044
  0
LINE
  5
2BE
100
AcDbEntity
  8
7
  6
CONTINUOUS
 62
           7
100
AcDbLine
 10
4415.0
 20
3291.476268400002
 11
4165.000000000002
 21
3291.476268400002
  0
LINE
  5
2BD
100
AcDbEntity
  8
7
  6
CONTINUOUS
 62
           7
100
AcDbLine
 10
4165.000000000002
 20
3291.476268400002
 11
4165.000000000002
 21
3324.521314448044
  0
LINE
  5
2BC
100
AcDbEntity
  8
7
  6
CONTINUOUS
 62
           7
100
AcDbLine
 10
4290.000000000002
 20
3387.289449200001
 11
4201.48
 21
3387.289449200001
  0
LINE
  5
2BB
100
AcDbEntity
  8
7
  6
CONTINUOUS
 62
           7
100
AcDbLine
 10
4196.6165824
 20
3381.772845200002
 11
4172.022588399999
 21
3363.685186400001
  0
LINE
  5
2BA
100
AcDbEntity
  8
2
  6
CONTINUOUS
 62
           4
100
AcDbLine
 10
4394.060000000001
 20
3028.289449200001
 11
4394.060000000001
 21
3038.3894492
  0
LINE
  5
2B9
100
AcDbEntity
  8
1
  6
DOT_CENTER
 62
           2
100
AcDbLine
 10
4900.588082276605
 20
2764.289449200001
 11
3665.991794870068
 21
2764.289449200001
  0
LINE
  5
2B8
100
AcDbEntity
  8
1
  6
DOT_CENTER
 62
           2
100
AcDbLine
 10
0.0
 20
3439.110821641355
 11
0.0
 21
2420.57775138332
  0
LINE
  5
2B7
100
AcDbEntity
  8
7
  6
CONTINUOUS
 62
           7
100
AcDbLine
 10
-93.383417599998
 20
3381.7728452
 11
-117.977411600001
 21
3363.685186400001
  0
LINE
  5
2B6
100
AcDbEntity
  8
7
  6
CONTINUOUS
 62
           7
100
AcDbLine
 10
0.0
 20
3387.289449200001
 11
-88.52
 21
3387.289449200001
  0
LINE
  5
2B5
100
AcDbEntity
  8
7
  6
CONTINUOUS
 62
           7
100
AcDbLine
 10
-125.0
 20
3291.4762684
 11
-125.0
 21
3324.521314448043
  0
LINE
  5
2B4
100
AcDbEntity
  8
7
  6
CONTINUOUS
 62
           7
100
AcDbLine
 10
125.0
 20
3291.4762684
 11
-125.0
 21
3291.4762684
  0
LINE
  5
2B3
100
AcDbEntity
  8
7
  6
CONTINUOUS
 62
           7
100
AcDbLine
 10
121.4
 20
3357.649449200001
 11
125.0
 21
3324.521314448043
  0
LINE
  5
2B2
100
AcDbEntity
  8
7
  6
CONTINUOUS
 62
           4
100
AcDbLine
 10
-120.190427599999
 20
3361.489449200001
 11
117.560000000001
 21
3361.489449200001
  0
LINE
  5
2B1
100
AcDbEntity
  8
7
  6
CONTINUOUS
 62
           7
100
AcDbLine
 10
90.3834164
 20
3381.7728452
 11
115.131240799999
 21
3361.923484400001
  0
LINE
  5
2B0
100
AcDbEntity
  8
7
  6
CONTINUOUS
 62
           7
100
AcDbLine
 10
0.0
 20
3387.289449200001
 11
85.52
 21
3387.289449200001
  0
LINE
  5
2AF
100
AcDbEntity
  8
2
  6
CONTINUOUS
 62
           7
100
AcDbLine
 10
122.496396800001
 20
3070.189449200002
 11
109.242370400001
 21
3038.3894492
  0
LINE
  5
2AE
100
AcDbEntity
  8
2
  6
CONTINUOUS
 62
           7
100
AcDbLine
 10
122.496396800001
 20
3070.189449200002
 11
122.496396800001
 21
3145.439449200002
  0
LINE
  5
2AD
100
AcDbEntity
  8
2
  6
CONTINUOUS
 62
           7
100
AcDbLine
 10
122.496396800001
 20
3277.676268400001
 11
116.7446492
 21
3291.4762684
  0
LINE
  5
2AC
100
AcDbEntity
  8
2
  6
CONTINUOUS
 62
           7
100
AcDbLine
 10
122.496396800001
 20
3277.676268400001
 11
122.496396800001
 21
3145.439449200002
  0
LINE
  5
2AB
100
AcDbEntity
  8
2
  6
CONTINUOUS
 62
           4
100
AcDbLine
 10
104.060000000001
 20
3028.289449200001
 11
104.060000000001
 21
3038.3894492
  0
LINE
  5
2AA
100
AcDbEntity
  8
2
  6
CONTINUOUS
 62
           4
100
AcDbLine
 10
-107.06
 20
3038.3894492
 11
-107.06
 21
3028.289449200001
  0
LINE
  5
2A9
100
AcDbEntity
  8
2
  6
CONTINUOUS
 62
           7
100
AcDbLine
 10
-125.496396800001
 20
3145.439449200002
 11
-125.496396800001
 21
3277.676268400001
  0
LINE
  5
2A8
100
AcDbEntity
  8
2
  6
CONTINUOUS
 62
           7
100
AcDbLine
 10
-119.7446492
 20
3291.4762684
 11
-125.496396800001
 21
3277.676268400001
  0
LINE
  5
2A7
100
AcDbEntity
  8
2
  6
CONTINUOUS
 62
           7
100
AcDbLine
 10
-125.496396800001
 20
3145.439449200002
 11
-125.496396800001
 21
3070.189449200002
  0
LINE
  5
2A6
100
AcDbEntity
  8
2
  6
CONTINUOUS
 62
           7
100
AcDbLine
 10
-112.242370399999
 20
3038.3894492
 11
-125.496396800001
 21
3070.189449200002
  0
LINE
  5
2A5
100
AcDbEntity
  8
1
  6
CONTINUOUS
 62
           4
100
AcDbLine
 10
125.0
 20
3324.521314448043
 11
-125.0
 21
3324.521314448043
  0
LINE
  5
2A4
100
AcDbEntity
  8
7
  6
CONTINUOUS
 62
           7
100
AcDbLine
 10
-125.0
 20
3324.521314448043
 11
-121.4
 21
3357.423077600002
  0
LINE
  5
2A3
100
AcDbEntity
  8
7
  6
CONTINUOUS
 62
           7
100
AcDbLine
 10
125.0
 20
3324.521314448043
 11
125.0
 21
3291.4762684
  0
LINE
  5
2A2
100
AcDbEntity
  8
2
  6
CONTINUOUS
 62
           4
100
AcDbLine
 10
109.242370400001
 20
3038.3894492
 11
-112.242370399999
 21
3038.3894492
  0
LINE
  5
2A1
100
AcDbEntity
  8
1
  6
CONTINUOUS
 62
           7
100
AcDbLine
 10
185.000000000002
 20
3079.5894492
 11
134.496396800001
 21
3079.5894492
  0
LINE
  5
2A0
100
AcDbEntity
  8
1
  6
CONTINUOUS
 62
           7
100
AcDbLine
 10
134.496396800001
 20
3179.5894492
 11
185.000000000002
 21
3179.5894492
  0
LINE
  5
29F
100
AcDbEntity
  8
1
  6
CONTINUOUS
 62
           7
100
AcDbLine
 10
122.496396800001
 20
3091.5894492
 11
122.496396800001
 21
3167.589449200001
  0
LINE
  5
29E
100
AcDbEntity
  8
1
  6
CONTINUOUS
 62
           7
100
AcDbLine
 10
197.000000000002
 20
3167.589449200001
 11
197.000000000002
 21
3091.5894492
  0
LINE
  5
29D
100
AcDbEntity
  8
1
  6
CONTINUOUS
 62
           7
100
AcDbLine
 10
216.000000000006
 20
5945.305165759572
 11
-269.999999999996
 21
5945.305165759572
  0
LINE
  5
29C
100
AcDbEntity
  8
1
  6
CONTINUOUS
 62
           7
100
AcDbLine
 10
-215.999999999998
 20
5945.305165759572
 11
-215.999999999996
 21
5459.305165759571
  0
LINE
  5
29B
100
AcDbEntity
  8
1
  6
CONTINUOUS
 62
           7
100
AcDbLine
 10
-215.999999999996
 20
5513.305165759572
 11
270.000000000006
 21
5513.305165759572
  0
LINE
  5
29A
100
AcDbEntity
  8
1
  6
CONTINUOUS
 62
           7
100
AcDbLine
 10
216.000000000002
 20
5513.305165759572
 11
216.000000000006
 21
5999.305165759571
  0
LINE
  5
299
100
AcDbEntity
  8
1
  6
CONTINUOUS
 62
           7
100
AcDbLine
 10
-649.999999999996
 20
5729.305165759571
 11
-650.226009489052
 21
5729.079156270519
  0
LINE
  5
298
100
AcDbEntity
  8
1
  6
CONTINUOUS
 62
           7
100
AcDbLine
 10
-56.963420073538
 20
5135.816566855004
 11
-52.720779386416
 21
5131.573926167884
  0
LINE
  5
297
100
AcDbEntity
  8
1
  6
CONTINUOUS
 62
           7
100
AcDbLine
 10
-52.720779386416
 20
5131.573926167884
 11
470.538238691628
 21
5654.832944245928
  0
LINE
  5
296
100
AcDbEntity
  8
1
  6
CONTINUOUS
 62
           7
100
AcDbLine
 10
-650.226009489052
 20
5729.079156270519
 11
-645.983368801932
 21
5724.836515583399
  0
LINE
  5
295
100
AcDbEntity
  8
1
  6
CONTINUOUS
 62
           7
100
AcDbLine
 10
-179.999999999996
 20
6199.305165759571
 11
-649.999999999996
 21
5729.305165759571
  0
LINE
  5
294
100
AcDbEntity
  8
1
  6
CONTINUOUS
 62
           7
100
AcDbLine
 10
-645.983368801932
 20
5724.836515583399
 11
-56.963420073538
 21
5135.816566855004
  0
LINE
  5
293
100
AcDbEntity
  8
1
  6
CONTINUOUS
 62
           7
100
AcDbLine
 10
445.000000000006
 20
5829.305165759571
 11
170.000000200065
 21
6104.305165759571
  0
LINE
  5
292
100
AcDbEntity
  8
1
  6
CONTINUOUS
 62
           7
100
AcDbLine
 10
-689.999999999996
 20
6239.305165759571
 11
-689.999999999996
 21
6204.305165759571
  0
LINE
  5
291
100
AcDbEntity
  8
1
  6
CONTINUOUS
 62
           7
100
AcDbLine
 10
-684.999999999996
 20
6199.305165759571
 11
-689.999999999996
 21
6204.305165759571
  0
LINE
  5
290
100
AcDbEntity
  8
1
  6
CONTINUOUS
 62
           7
100
AcDbLine
 10
-684.999999999996
 20
6199.305165759571
 11
35.000000000004
 21
6199.305165759571
  0
LINE
  5
28F
100
AcDbEntity
  8
1
  6
CONTINUOUS
 62
           7
100
AcDbLine
 10
40.000000000004
 20
6204.305165759571
 11
35.000000000004
 21
6199.305165759571
  0
LINE
  5
28E
100
AcDbEntity
  8
1
  6
CONTINUOUS
 62
           7
100
AcDbLine
 10
40.000000000004
 20
6204.305165759571
 11
40.000000000004
 21
6239.305165759571
  0
LINE
  5
28D
100
AcDbEntity
  8
1
  6
CONTINUOUS
 62
           7
100
AcDbLine
 10
40.000000000004
 20
6239.305165759571
 11
40.000000000004
 21
6274.305165759571
  0
LINE
  5
28C
100
AcDbEntity
  8
1
  6
CONTINUOUS
 62
           7
100
AcDbLine
 10
35.000000000004
 20
6279.305165759571
 11
40.000000000004
 21
6274.305165759571
  0
LINE
  5
28B
100
AcDbEntity
  8
1
  6
CONTINUOUS
 62
           7
100
AcDbLine
 10
35.000000000004
 20
6279.305165759571
 11
-684.999999999996
 21
6279.305165759571
  0
LINE
  5
28A
100
AcDbEntity
  8
1
  6
CONTINUOUS
 62
           7
100
AcDbLine
 10
-689.999999999996
 20
6274.305165759571
 11
-684.999999999996
 21
6279.305165759571
  0
LINE
  5
289
100
AcDbEntity
  8
1
  6
CONTINUOUS
 62
           7
100
AcDbLine
 10
-689.999999999996
 20
6274.305165759571
 11
-689.999999999996
 21
6239.305165759571
  0
LINE
  5
288
100
AcDbEntity
  8
1
  6
CONTINUOUS
 62
           7
100
AcDbLine
 10
-659.999999999996
 20
6179.305165759571
 11
-659.999999999996
 21
5779.305165759567
  0
LINE
  5
287
100
AcDbEntity
  8
1
  6
CONTINUOUS
 62
           7
100
AcDbLine
 10
31.875234341349
 20
6134.095640377195
 11
0.000000000004
 21
6189.305165759571
  0
LINE
  5
286
100
AcDbEntity
  8
1
  6
CONTINUOUS
 62
           7
100
AcDbLine
 10
-659.999999999996
 20
6179.305165759571
 11
-649.999999999996
 21
6189.305165759571
  0
LINE
  5
285
100
AcDbEntity
  8
1
  6
CONTINUOUS
 62
           7
100
AcDbLine
 10
-649.999999999996
 20
6199.305165759571
 11
-649.999999999996
 21
6189.305165759571
  0
LINE
  5
284
100
AcDbEntity
  8
1
  6
CONTINUOUS
 62
           7
100
AcDbLine
 10
0.000000000004
 20
6189.305165759571
 11
0.000000000004
 21
6199.305165759571
  0
LINE
  5
283
100
AcDbEntity
  8
1
  6
DOT_CENTER
 62
           2
100
AcDbLine
 10
-324.999999999996
 20
6348.19413468252
 11
-324.999999999996
 21
5915.95703821563
  0
LINE
  5
282
100
AcDbEntity
  8
1
  6
CONTINUOUS
 62
           4
100
AcDbLine
 10
40.000000000004
 20
6243.805165759571
 11
-689.999999999996
 21
6243.805165759571
  0
LINE
  5
281
100
AcDbEntity
  8
1
  6
CONTINUOUS
 62
           7
100
AcDbLine
 10
40.000000000004
 20
6239.305165759571
 11
-689.999999999996
 21
6239.305165759571
  0
LINE
  5
280
100
AcDbEntity
  8
1
  6
CONTINUOUS
 62
           4
100
AcDbLine
 10
-689.999999999996
 20
6234.805165759571
 11
40.000000000005
 21
6234.805165759571
  0
LINE
  5
27F
100
AcDbEntity
  8
1
  6
CONTINUOUS
 62
           7
100
AcDbLine
 10
197.000000000002
 20
5780.805165759571
 11
197.000000000002
 21
5677.805165759571
  0
LINE
  5
27E
100
AcDbEntity
  8
1
  6
CONTINUOUS
 62
           7
100
AcDbLine
 10
132.824966598198
 20
5677.805165759571
 11
132.824966598198
 21
5780.805165759571
  0
LINE
  5
27D
100
AcDbEntity
  8
1
  6
CONTINUOUS
 62
           7
100
AcDbLine
 10
144.824966598198
 20
5792.805165759571
 11
185.000000000002
 21
5792.805165759571
  0
LINE
  5
27C
100
AcDbEntity
  8
1
  6
CONTINUOUS
 62
           7
100
AcDbLine
 10
185.000000000002
 20
5665.805165759571
 11
144.824966598198
 21
5665.805165759571
  0
LINE
  5
27B
100
AcDbEntity
  8
1
  6
CONTINUOUS
 62
           4
100
AcDbLine
 10
134.432661752786
 20
5786.805165759571
 11
117.908702762048
 21
5786.805165759571
  0
LINE
  5
27A
100
AcDbEntity
  8
1
  6
CONTINUOUS
 62
           4
100
AcDbLine
 10
134.432661752786
 20
5671.805165759571
 11
117.908702762048
 21
5671.805165759571
  0
LINE
  5
279
100
AcDbEntity
  8
1
  6
CONTINUOUS
 62
           3
100
AcDbLine
 10
4170.163567691046
 20
2315.259104314604
 11
4164.489527668226
 21
2311.983195780042
  0
LINE
  5
278
100
AcDbEntity
  8
1
  6
CONTINUOUS
 62
           3
100
AcDbLine
 10
4179.663567691046
 20
2309.774276757304
 11
4170.163567691046
 21
2315.259104314604
  0
LINE
  5
277
100
AcDbEntity
  8
1
  6
CONTINUOUS
 62
           3
100
AcDbLine
 10
4179.663567691046
 20
2298.804621642701
 11
4179.663567691046
 21
2309.774276757304
  0
LINE
  5
276
100
AcDbEntity
  8
1
  6
CONTINUOUS
 62
           3
100
AcDbLine
 10
4170.163567691046
 20
2293.3197940854
 11
4179.663567691046
 21
2298.804621642701
  0
LINE
  5
275
100
AcDbEntity
  8
1
  6
CONTINUOUS
 62
           3
100
AcDbLine
 10
4164.489527668233
 20
2296.595702619961
 11
4170.163567691046
 21
2293.3197940854
  0
LINE
  5
274
100
AcDbEntity
  8
1
  6
DOT_CENTER
 62
           3
100
AcDbLine
 10
4146.218519558624
 20
2304.289449200001
 11
4187.667695262444
 21
2304.289449200001
  0
LINE
  5
273
100
AcDbEntity
  8
1
  6
CONTINUOUS
 62
           3
100
AcDbLine
 10
4159.389214871946
 20
2296.039449200001
 11
4159.389214871946
 21
2296.595702619961
  0
LINE
  5
272
100
AcDbEntity
  8
1
  6
CONTINUOUS
 62
           3
100
AcDbLine
 10
4159.389214871946
 20
2296.039449200001
 11
4149.714603906647
 21
2296.039449200001
  0
LINE
  5
271
100
AcDbEntity
  8
1
  6
CONTINUOUS
 62
           3
100
AcDbLine
 10
4149.714603906647
 20
2296.039449200001
 11
4149.714603906647
 21
2304.289449200001
  0
LINE
  5
270
100
AcDbEntity
  8
1
  6
CONTINUOUS
 62
           3
100
AcDbLine
 10
4149.714603906647
 20
2298.289449200001
 11
4148.868798384465
 21
2298.289449200001
  0
LINE
  5
26F
100
AcDbEntity
  8
1
  6
CONTINUOUS
 62
           3
100
AcDbLine
 10
4148.868798384465
 20
2296.595702619961
 11
4148.868798384465
 21
2304.289449200001
  0
LINE
  5
26E
100
AcDbEntity
  8
1
  6
CONTINUOUS
 62
           3
100
AcDbLine
 10
4148.868798384465
 20
2296.595702619961
 11
4148.163567691046
 21
2296.595702619961
  0
LINE
  5
26D
100
AcDbEntity
  8
1
  6
CONTINUOUS
 62
           3
100
AcDbLine
 10
4147.663567691046
 20
2304.289449200001
 11
4147.663567691046
 21
2297.095702619961
  0
LINE
  5
26C
100
AcDbEntity
  8
1
  6
CONTINUOUS
 62
           3
100
AcDbLine
 10
4147.663567691046
 20
2311.483195780042
 11
4147.663567691046
 21
2304.289449200001
  0
LINE
  5
26B
100
AcDbEntity
  8
1
  6
CONTINUOUS
 62
           3
100
AcDbLine
 10
4148.163567691046
 20
2311.983195780042
 11
4148.868798384465
 21
2311.983195780042
  0
LINE
  5
26A
100
AcDbEntity
  8
1
  6
CONTINUOUS
 62
           3
100
AcDbLine
 10
4148.868798384465
 20
2304.289449200001
 11
4148.868798384465
 21
2311.983195780042
  0
LINE
  5
269
100
AcDbEntity
  8
1
  6
CONTINUOUS
 62
           3
100
AcDbLine
 10
4148.868798384465
 20
2310.289449200001
 11
4149.714603906647
 21
2310.289449200001
  0
LINE
  5
268
100
AcDbEntity
  8
1
  6
CONTINUOUS
 62
           3
100
AcDbLine
 10
4149.714603906647
 20
2312.539449200001
 11
4159.389214871946
 21
2312.539449200001
  0
LINE
  5
267
100
AcDbEntity
  8
1
  6
CONTINUOUS
 62
           3
100
AcDbLine
 10
4149.714603906647
 20
2304.289449200001
 11
4149.714603906647
 21
2312.539449200001
  0
LINE
  5
266
100
AcDbEntity
  8
1
  6
CONTINUOUS
 62
           3
100
AcDbLine
 10
4159.389214871946
 20
2311.983195780042
 11
4159.389214871946
 21
2312.539449200001
  0
LINE
  5
265
100
AcDbEntity
  8
1
  6
CONTINUOUS
 62
           3
100
AcDbLine
 10
4159.389214871946
 20
2296.595702619961
 11
4159.389214871946
 21
2311.983195780042
  0
LINE
  5
264
100
AcDbEntity
  8
1
  6
CONTINUOUS
 62
           3
100
AcDbLine
 10
4165.254330418637
 20
2296.595702619961
 11
4165.254330418637
 21
2311.983195780042
  0
LINE
  5
263
100
AcDbEntity
  8
1
  6
CONTINUOUS
 62
           3
100
AcDbLine
 10
4165.254330418637
 20
2296.595702619961
 11
4159.389214871946
 21
2296.595702619961
  0
LINE
  5
262
100
AcDbEntity
  8
1
  6
CONTINUOUS
 62
           3
100
AcDbLine
 10
4165.254330418637
 20
2311.983195780042
 11
4159.389214871946
 21
2311.983195780042
  0
LINE
  5
261
100
AcDbEntity
  8
1
  6
CONTINUOUS
 62
           3
100
AcDbLine
 10
4165.254330418637
 20
2310.16128419507
 11
4170.163567691046
 21
2310.16128419507
  0
LINE
  5
260
100
AcDbEntity
  8
1
  6
DOT_CENTER
 62
           3
100
AcDbLine
 10
4170.163567691046
 20
2317.933005004876
 11
4170.163567691046
 21
2286.797457455126
  0
LINE
  5
25F
100
AcDbEntity
  8
1
  6
CONTINUOUS
 62
           3
100
AcDbLine
 10
4170.163567691046
 20
2298.417614204936
 11
4165.254330418637
 21
2298.417614204936
  0
LINE
  5
25E
100
AcDbEntity
  8
0
  6
CONTINUOUS
 62
           3
100
AcDbLine
 10
3664.844723494176
 20
1772.405841395193
 11
3665.899996721679
 21
1772.421189591394
  0
LINE
  5
25D
100
AcDbEntity
  8
0
  6
CONTINUOUS
 62
           3
100
AcDbLine
 10
3663.903805503278
 20
1772.361465737195
 11
3664.844723494176
 21
1772.405841395193
  0
LINE
  5
25C
100
AcDbEntity
  8
0
  6
CONTINUOUS
 62
           3
100
AcDbLine
 10
3663.179205573576
 20
1772.292860790993
 11
3663.903805503278
 21
1772.361465737195
  0
LINE
  5
25B
100
AcDbEntity
  8
0
  6
CONTINUOUS
 62
           3
100
AcDbLine
 10
3662.749445840379
 20
1772.207469686793
 11
3663.179205573576
 21
1772.292860790993
  0
LINE
  5
25A
100
AcDbEntity
  8
0
  6
CONTINUOUS
 62
           3
100
AcDbLine
 10
3662.661097088376
 20
1772.114538594993
 11
3662.749445840379
 21
1772.207469686793
  0
LINE
  5
259
100
AcDbEntity
  8
0
  6
CONTINUOUS
 62
           3
100
AcDbLine
 10
3662.899996695579
 20
1772.028991028795
 11
3662.661097088376
 21
1772.114538594993
  0
LINE
  5
258
100
AcDbEntity
  8
0
  6
CONTINUOUS
 62
           3
100
AcDbLine
 10
3669.138896354966
 20
1772.114538594993
 11
3668.899996747767
 21
1772.028991028795
  0
LINE
  5
257
100
AcDbEntity
  8
0
  6
CONTINUOUS
 62
           3
100
AcDbLine
 10
3669.050547602966
 20
1772.207469686793
 11
3669.138896354966
 21
1772.114538594993
  0
LINE
  5
256
100
AcDbEntity
  8
0
  6
CONTINUOUS
 62
           3
100
AcDbLine
 10
3668.620787869766
 20
1772.292860790993
 11
3669.050547602966
 21
1772.207469686793
  0
LINE
  5
255
100
AcDbEntity
  8
0
  6
CONTINUOUS
 62
           3
100
AcDbLine
 10
3667.896187940065
 20
1772.361465737195
 11
3668.620787869766
 21
1772.292860790993
  0
LINE
  5
254
100
AcDbEntity
  8
0
  6
CONTINUOUS
 62
           3
100
AcDbLine
 10
3666.955269949177
 20
1772.405841395193
 11
3667.896187940065
 21
1772.361465737195
  0
LINE
  5
253
100
AcDbEntity
  8
0
  6
CONTINUOUS
 62
           3
100
AcDbLine
 10
3665.899996721679
 20
1772.421189591394
 11
3666.955269949177
 21
1772.405841395193
  0
LINE
  5
252
100
AcDbEntity
  8
FORMAT
  6
CONTINUOUS
 62
           3
100
AcDbLine
 10
3662.399996721576
 20
1771.886294302894
 11
3651.899996721588
 21
1771.886294302894
  0
LINE
  5
251
100
AcDbEntity
  8
FORMAT
  6
DOT_CENTER
 62
           3
100
AcDbLine
 10
3665.899996721679
 20
1629.048846452257
 11
3665.899996721679
 21
2104.683839968569
  0
LINE
  5
250
100
AcDbEntity
  8
FORMAT
  6
CONTINUOUS
 62
           3
100
AcDbLine
 10
3669.399996721767
 20
1771.886294302894
 11
3662.399996721576
 21
1771.886294302894
  0
LINE
  5
24F
100
AcDbEntity
  8
FORMAT
  6
CONTINUOUS
 62
           3
100
AcDbLine
 10
3679.899996721759
 20
1771.886294302894
 11
3669.399996721767
 21
1771.886294302894
  0
LINE
  5
24E
100
AcDbEntity
  8
FORMAT
  6
DOT_CENTER
 62
           3
100
AcDbLine
 10
3590.999996721635
 20
1754.289449200009
 11
3577.399996721747
 21
1754.289449200009
  0
LINE
  5
24D
100
AcDbEntity
  8
FORMAT
  6
DOT_CENTER
 62
           3
100
AcDbLine
 10
3590.999996721635
 20
2004.289449200001
 11
3577.399996721747
 21
2004.289449200001
  0
LINE
  5
24C
100
AcDbEntity
  8
0
  6
CONTINUOUS
 62
           3
100
AcDbLine
 10
3600.899999106024
 20
1744.289443835816
 11
3585.499999189236
 21
1744.289443835816
  0
LINE
  5
24B
100
AcDbEntity
  8
0
  6
CONTINUOUS
 62
           3
100
AcDbLine
 10
3604.399995023126
 20
1969.289452776233
 11
3604.399995023126
 21
1889.289448976397
  0
LINE
  5
24A
100
AcDbEntity
  8
0
  6
CONTINUOUS
 62
           3
100
AcDbLine
 10
3607.399997377519
 20
1969.289452776233
 11
3604.399995023126
 21
1969.289452776233
  0
LINE
  5
249
100
AcDbEntity
  8
0
  6
CONTINUOUS
 62
           3
100
AcDbLine
 10
3607.399997377519
 20
1929.289449944965
 11
3607.399997377519
 21
1969.289452776233
  0
LINE
  5
248
100
AcDbEntity
  8
0
  6
CONTINUOUS
 62
           3
100
AcDbLine
 10
3607.399997377519
 20
1909.289448529482
 11
3607.399997377519
 21
1911.289450719881
  0
LINE
  5
247
100
AcDbEntity
  8
0
  6
CONTINUOUS
 62
           3
100
AcDbLine
 10
3604.399995023126
 20
1889.289448976397
 11
3605.975189322327
 21
1889.289448976397
  0
LINE
  5
246
100
AcDbEntity
  8
0
  6
CONTINUOUS
 62
           3
100
AcDbLine
 10
3725.899995380624
 20
1747.289449915314
 11
3725.899995380624
 21
1746.589452967015
  0
LINE
  5
245
100
AcDbEntity
  8
0
  6
CONTINUOUS
 62
           3
100
AcDbLine
 10
3730.899994337317
 20
1744.289443835816
 11
3730.899994337317
 21
1747.289449915314
  0
LINE
  5
244
100
AcDbEntity
  8
0
  6
CONTINUOUS
 62
           3
100
AcDbLine
 10
3730.899994337317
 20
2014.289454564198
 11
3730.899994337317
 21
2011.289448484698
  0
LINE
  5
243
100
AcDbEntity
  8
0
  6
CONTINUOUS
 62
           3
100
AcDbLine
 10
3725.899995380624
 20
2011.289448484698
 11
3725.899995380624
 21
2011.989445432995
  0
LINE
  5
242
100
AcDbEntity
  8
0
  6
CONTINUOUS
 62
           3
100
AcDbLine
 10
3605.899998062718
 20
2011.289448484698
 11
3605.899998062718
 21
2011.989445432995
  0
LINE
  5
241
100
AcDbEntity
  8
0
  6
CONTINUOUS
 62
           3
100
AcDbLine
 10
3600.899999106024
 20
2014.289454564198
 11
3600.899999106024
 21
2011.289448484698
  0
LINE
  5
240
100
AcDbEntity
  8
0
  6
CONTINUOUS
 62
           3
100
AcDbLine
 10
3600.899999106024
 20
2014.289454564198
 11
3585.499999189236
 21
2014.289454564198
  0
LINE
  5
23F
100
AcDbEntity
  8
0
  6
CONTINUOUS
 62
           3
100
AcDbLine
 10
3600.899999106024
 20
1744.289443835816
 11
3600.899999106024
 21
1747.289449915314
  0
LINE
  5
23E
100
AcDbEntity
  8
0
  6
CONTINUOUS
 62
           3
100
AcDbLine
 10
3605.899998062718
 20
1747.289449915314
 11
3605.899998062718
 21
1746.589452967015
  0
LINE
  5
23D
100
AcDbEntity
  8
0
  6
CONTINUOUS
 62
           3
100
AcDbLine
 10
3604.399995023126
 20
1789.289445623781
 11
3604.399995023126
 21
1869.289449423613
  0
LINE
  5
23C
100
AcDbEntity
  8
0
  6
CONTINUOUS
 62
           3
100
AcDbLine
 10
3604.399995023126
 20
1869.289449423613
 11
3605.899998062718
 21
1869.289449423613
  0
LINE
  5
23B
100
AcDbEntity
  8
0
  6
CONTINUOUS
 62
           3
100
AcDbLine
 10
3607.399997377519
 20
1811.289445504561
 11
3607.399997377519
 21
1809.289448901964
  0
LINE
  5
23A
100
AcDbEntity
  8
0
  6
CONTINUOUS
 62
           3
100
AcDbLine
 10
3605.975189322327
 20
1789.289445623781
 11
3604.399995023126
 21
1789.289445623781
  0
LINE
  5
239
100
AcDbEntity
  8
0
  6
CONTINUOUS
 62
           3
100
AcDbLine
 10
3727.399998420227
 20
1969.289452776233
 11
3727.399998420227
 21
1889.289448976397
  0
LINE
  5
238
100
AcDbEntity
  8
0
  6
CONTINUOUS
 62
           3
100
AcDbLine
 10
3727.399998420227
 20
1889.289448976397
 11
3725.824804121025
 21
1889.289448976397
  0
LINE
  5
237
100
AcDbEntity
  8
0
  6
CONTINUOUS
 62
           3
100
AcDbLine
 10
3724.399996066129
 20
1929.289449944965
 11
3724.399996066129
 21
1969.289452776233
  0
LINE
  5
236
100
AcDbEntity
  8
0
  6
CONTINUOUS
 62
           3
100
AcDbLine
 10
3724.399996066129
 20
1909.289448529482
 11
3724.399996066129
 21
1911.289450719881
  0
LINE
  5
235
100
AcDbEntity
  8
0
  6
CONTINUOUS
 62
           3
100
AcDbLine
 10
3724.399996066129
 20
1969.289452776233
 11
3727.399998420227
 21
1969.289452776233
  0
LINE
  5
234
100
AcDbEntity
  8
0
  6
CONTINUOUS
 62
           3
100
AcDbLine
 10
3727.399998420227
 20
1789.289445623781
 11
3727.399998420227
 21
1869.289449423613
  0
LINE
  5
233
100
AcDbEntity
  8
0
  6
CONTINUOUS
 62
           3
100
AcDbLine
 10
3725.824804121025
 20
1789.289445623781
 11
3727.399998420227
 21
1789.289445623781
  0
LINE
  5
232
100
AcDbEntity
  8
0
  6
CONTINUOUS
 62
           3
100
AcDbLine
 10
3724.399996066129
 20
1811.289445504561
 11
3724.399996066129
 21
1809.289448901964
  0
LINE
  5
231
100
AcDbEntity
  8
0
  6
CONTINUOUS
 62
           3
100
AcDbLine
 10
3727.399998420227
 20
1869.289449423613
 11
3725.899995380624
 21
1869.289449423613
  0
LINE
  5
230
100
AcDbEntity
  8
0
  6
CONTINUOUS
 62
           3
100
AcDbLine
 10
3585.499999189236
 20
2014.289454564198
 11
3583.399993443336
 21
2014.289454564198
  0
LINE
  5
22F
100
AcDbEntity
  8
0
  6
CONTINUOUS
 62
           3
100
AcDbLine
 10
3583.399993443336
 20
2014.289454564198
 11
3583.399993443336
 21
1744.289443835816
  0
LINE
  5
22E
100
AcDbEntity
  8
0
  6
CONTINUOUS
 62
           3
100
AcDbLine
 10
3585.499999189236
 20
1744.289443835816
 11
3583.399993443336
 21
1744.289443835816
  0
LINE
  5
22D
100
AcDbEntity
  8
0
  6
CONTINUOUS
 62
           3
100
AcDbLine
 10
3605.899998062718
 20
1745.889456018715
 11
3605.899998062718
 21
1746.589452967015
  0
LINE
  5
22C
100
AcDbEntity
  8
0
  6
CONTINUOUS
 62
           3
100
AcDbLine
 10
3725.899995380624
 20
1745.889456018715
 11
3725.899995380624
 21
1746.589452967015
  0
LINE
  5
22B
100
AcDbEntity
  8
0
  6
CONTINUOUS
 62
           3
100
AcDbLine
 10
3605.899998062718
 20
2012.689442380997
 11
3605.899998062718
 21
2011.989445432995
  0
LINE
  5
22A
100
AcDbEntity
  8
0
  6
CONTINUOUS
 62
           3
100
AcDbLine
 10
3725.899995380624
 20
2012.689442380997
 11
3725.899995380624
 21
2011.989445432995
  0
LINE
  5
229
100
AcDbEntity
  8
0
  6
CONTINUOUS
 62
           3
100
AcDbLine
 10
3720.899996423626
 20
2012.689442380997
 11
3725.899995380624
 21
2012.689442380997
  0
LINE
  5
228
100
AcDbEntity
  8
0
  6
CONTINUOUS
 62
           3
100
AcDbLine
 10
3725.899995380624
 20
2014.289454564198
 11
3720.899996423626
 21
2014.289454564198
  0
LINE
  5
227
100
AcDbEntity
  8
0
  6
CONTINUOUS
 62
           3
100
AcDbLine
 10
3725.899995380624
 20
2012.689442380997
 11
3725.899995380624
 21
2014.289454564198
  0
LINE
  5
226
100
AcDbEntity
  8
0
  6
CONTINUOUS
 62
           3
100
AcDbLine
 10
3720.899996423626
 20
1745.889456018715
 11
3725.899995380624
 21
1745.889456018715
  0
LINE
  5
225
100
AcDbEntity
  8
0
  6
CONTINUOUS
 62
           3
100
AcDbLine
 10
3725.899995380624
 20
1744.289443835816
 11
3720.899996423626
 21
1744.289443835816
  0
LINE
  5
224
100
AcDbEntity
  8
0
  6
CONTINUOUS
 62
           3
100
AcDbLine
 10
3725.899995380624
 20
1745.889456018715
 11
3725.899995380624
 21
1744.289443835816
  0
LINE
  5
223
100
AcDbEntity
  8
0
  6
CONTINUOUS
 62
           3
100
AcDbLine
 10
3710.899998509635
 20
1745.889456018715
 11
3712.899995112236
 21
1745.889456018715
  0
LINE
  5
222
100
AcDbEntity
  8
0
  6
CONTINUOUS
 62
           3
100
AcDbLine
 10
3712.899995112236
 20
1744.289443835816
 11
3710.899998509635
 21
1744.289443835816
  0
LINE
  5
221
100
AcDbEntity
  8
0
  6
CONTINUOUS
 62
           3
100
AcDbLine
 10
3712.899995112236
 20
1745.889456018715
 11
3712.899995112236
 21
1744.289443835816
  0
LINE
  5
220
100
AcDbEntity
  8
0
  6
CONTINUOUS
 62
           3
100
AcDbLine
 10
3710.899998509635
 20
2012.689442380997
 11
3712.899995112236
 21
2012.689442380997
  0
LINE
  5
21F
100
AcDbEntity
  8
0
  6
CONTINUOUS
 62
           3
100
AcDbLine
 10
3712.899995112236
 20
2014.289454564198
 11
3710.899998509635
 21
2014.289454564198
  0
LINE
  5
21E
100
AcDbEntity
  8
0
  6
CONTINUOUS
 62
           3
100
AcDbLine
 10
3712.899995112236
 20
2012.689442380997
 11
3712.899995112236
 21
2014.289454564198
  0
LINE
  5
21D
100
AcDbEntity
  8
0
  6
CONTINUOUS
 62
           3
100
AcDbLine
 10
3718.899996095924
 20
1745.889456018715
 11
3720.899996423626
 21
1745.889456018715
  0
LINE
  5
21C
100
AcDbEntity
  8
0
  6
CONTINUOUS
 62
           3
100
AcDbLine
 10
3720.899996423626
 20
1744.289443835816
 11
3718.899996095924
 21
1744.289443835816
  0
LINE
  5
21B
100
AcDbEntity
  8
0
  6
CONTINUOUS
 62
           3
100
AcDbLine
 10
3718.899996095924
 20
1744.289443835816
 11
3718.899996095924
 21
1745.889456018715
  0
LINE
  5
21A
100
AcDbEntity
  8
0
  6
CONTINUOUS
 62
           3
100
AcDbLine
 10
3718.899996095924
 20
2012.689442380997
 11
3720.899996423626
 21
2012.689442380997
  0
LINE
  5
219
100
AcDbEntity
  8
0
  6
CONTINUOUS
 62
           3
100
AcDbLine
 10
3720.899996423626
 20
2014.289454564198
 11
3718.899996095924
 21
2014.289454564198
  0
LINE
  5
218
100
AcDbEntity
  8
0
  6
CONTINUOUS
 62
           3
100
AcDbLine
 10
3718.899996095924
 20
2014.289454564198
 11
3718.899996095924
 21
2012.689442380997
  0
LINE
  5
217
100
AcDbEntity
  8
0
  6
CONTINUOUS
 62
           3
100
AcDbLine
 10
3610.899997019716
 20
2012.689442380997
 11
3605.899998062718
 21
2012.689442380997
  0
LINE
  5
216
100
AcDbEntity
  8
0
  6
CONTINUOUS
 62
           3
100
AcDbLine
 10
3605.899998062718
 20
2014.289454564198
 11
3610.899997019716
 21
2014.289454564198
  0
LINE
  5
215
100
AcDbEntity
  8
0
  6
CONTINUOUS
 62
           3
100
AcDbLine
 10
3605.899998062718
 20
2012.689442380997
 11
3605.899998062718
 21
2014.289454564198
  0
LINE
  5
214
100
AcDbEntity
  8
0
  6
CONTINUOUS
 62
           3
100
AcDbLine
 10
3610.899997019716
 20
1745.889456018715
 11
3605.899998062718
 21
1745.889456018715
  0
LINE
  5
213
100
AcDbEntity
  8
0
  6
CONTINUOUS
 62
           3
100
AcDbLine
 10
3605.899998062718
 20
1744.289443835816
 11
3610.899997019716
 21
1744.289443835816
  0
LINE
  5
212
100
AcDbEntity
  8
0
  6
CONTINUOUS
 62
           3
100
AcDbLine
 10
3605.899998062718
 20
1745.889456018715
 11
3605.899998062718
 21
1744.289443835816
  0
LINE
  5
211
100
AcDbEntity
  8
0
  6
CONTINUOUS
 62
           3
100
AcDbLine
 10
3620.899994933707
 20
2012.689442380997
 11
3710.899998509635
 21
2012.689442380997
  0
LINE
  5
210
100
AcDbEntity
  8
0
  6
CONTINUOUS
 62
           3
100
AcDbLine
 10
3620.899994933707
 20
2014.289454564198
 11
3710.899998509635
 21
2014.289454564198
  0
LINE
  5
20F
100
AcDbEntity
  8
0
  6
CONTINUOUS
 62
           3
100
AcDbLine
 10
3620.899994933707
 20
1745.889456018715
 11
3710.899998509635
 21
1745.889456018715
  0
LINE
  5
20E
100
AcDbEntity
  8
0
  6
CONTINUOUS
 62
           3
100
AcDbLine
 10
3620.899994933707
 20
1744.289443835816
 11
3710.899998509635
 21
1744.289443835816
  0
LINE
  5
20D
100
AcDbEntity
  8
0
  6
CONTINUOUS
 62
           3
100
AcDbLine
 10
3620.899994933707
 20
1745.889456018715
 11
3618.899998331106
 21
1745.889456018715
  0
LINE
  5
20C
100
AcDbEntity
  8
0
  6
CONTINUOUS
 62
           3
100
AcDbLine
 10
3618.899998331106
 20
1745.889456018715
 11
3618.899998331106
 21
1744.289443835816
  0
LINE
  5
20B
100
AcDbEntity
  8
0
  6
CONTINUOUS
 62
           3
100
AcDbLine
 10
3618.899998331106
 20
1744.289443835816
 11
3620.899994933707
 21
1744.289443835816
  0
LINE
  5
20A
100
AcDbEntity
  8
0
  6
CONTINUOUS
 62
           3
100
AcDbLine
 10
3620.899994933707
 20
2012.689442380997
 11
3618.899998331106
 21
2012.689442380997
  0
LINE
  5
209
100
AcDbEntity
  8
0
  6
CONTINUOUS
 62
           3
100
AcDbLine
 10
3618.899998331106
 20
2014.289454564198
 11
3620.899994933707
 21
2014.289454564198
  0
LINE
  5
208
100
AcDbEntity
  8
0
  6
CONTINUOUS
 62
           3
100
AcDbLine
 10
3618.899998331106
 20
2012.689442380997
 11
3618.899998331106
 21
2014.289454564198
  0
LINE
  5
207
100
AcDbEntity
  8
0
  6
CONTINUOUS
 62
           3
100
AcDbLine
 10
3612.899997347717
 20
2012.689442380997
 11
3610.899997019716
 21
2012.689442380997
  0
LINE
  5
206
100
AcDbEntity
  8
0
  6
CONTINUOUS
 62
           3
100
AcDbLine
 10
3612.899997347717
 20
2014.289454564198
 11
3612.899997347717
 21
2012.689442380997
  0
LINE
  5
205
100
AcDbEntity
  8
0
  6
CONTINUOUS
 62
           3
100
AcDbLine
 10
3610.899997019716
 20
2014.289454564198
 11
3612.899997347717
 21
2014.289454564198
  0
LINE
  5
204
100
AcDbEntity
  8
0
  6
CONTINUOUS
 62
           3
100
AcDbLine
 10
3612.899997347717
 20
1745.889456018715
 11
3610.899997019716
 21
1745.889456018715
  0
LINE
  5
203
100
AcDbEntity
  8
0
  6
CONTINUOUS
 62
           3
100
AcDbLine
 10
3610.899997019716
 20
1744.289443835816
 11
3612.899997347717
 21
1744.289443835816
  0
LINE
  5
202
100
AcDbEntity
  8
0
  6
CONTINUOUS
 62
           3
100
AcDbLine
 10
3612.899997347717
 20
1744.289443835816
 11
3612.899997347717
 21
1745.889456018715
  0
LINE
  5
201
100
AcDbEntity
  8
0
  6
CONTINUOUS
 62
           3
100
AcDbLine
 10
3725.824804121025
 20
1789.289445623781
 11
3724.199996405628
 21
1789.289445623781
  0
LINE
  5
200
100
AcDbEntity
  8
0
  6
CONTINUOUS
 62
           3
100
AcDbLine
 10
3724.199996405628
 20
1809.289448901964
 11
3725.899995380624
 21
1809.289448901964
  0
LINE
  5
1FF
100
AcDbEntity
  8
0
  6
CONTINUOUS
 62
           3
100
AcDbLine
 10
3725.899995380624
 20
1809.289448901964
 11
3725.899995380624
 21
1789.289445623781
  0
LINE
  5
1FE
100
AcDbEntity
  8
0
  6
CONTINUOUS
 62
           3
100
AcDbLine
 10
3605.899998062718
 20
1909.289448529482
 11
3607.599997037718
 21
1909.289448529482
  0
LINE
  5
1FD
100
AcDbEntity
  8
0
  6
CONTINUOUS
 62
           3
100
AcDbLine
 10
3605.899998062718
 20
1889.289448976397
 11
3605.899998062718
 21
1909.289448529482
  0
LINE
  5
1FC
100
AcDbEntity
  8
0
  6
CONTINUOUS
 62
           3
100
AcDbLine
 10
3607.599997037718
 20
1889.289448976397
 11
3605.975189322327
 21
1889.289448976397
  0
LINE
  5
1FB
100
AcDbEntity
  8
0
  6
CONTINUOUS
 62
           3
100
AcDbLine
 10
3605.975189322327
 20
1789.289445623781
 11
3607.599997037718
 21
1789.289445623781
  0
LINE
  5
1FA
100
AcDbEntity
  8
0
  6
CONTINUOUS
 62
           3
100
AcDbLine
 10
3607.599997037718
 20
1809.289448901964
 11
3605.899998062718
 21
1809.289448901964
  0
LINE
  5
1F9
100
AcDbEntity
  8
0
  6
CONTINUOUS
 62
           3
100
AcDbLine
 10
3605.899998062718
 20
1809.289448901964
 11
3605.899998062718
 21
1789.289445623781
  0
LINE
  5
1F8
100
AcDbEntity
  8
0
  6
CONTINUOUS
 62
           3
100
AcDbLine
 10
3607.599997037718
 20
1909.289448529482
 11
3607.899998390717
 21
1909.289448529482
  0
LINE
  5
1F7
100
AcDbEntity
  8
0
  6
CONTINUOUS
 62
           3
100
AcDbLine
 10
3607.899998390717
 20
1889.289448976397
 11
3607.599997037718
 21
1889.289448976397
  0
LINE
  5
1F6
100
AcDbEntity
  8
0
  6
CONTINUOUS
 62
           3
100
AcDbLine
 10
3605.899998062718
 20
1887.289449579901
 11
3607.899998390717
 21
1887.289449579901
  0
LINE
  5
1F5
100
AcDbEntity
  8
0
  6
CONTINUOUS
 62
           3
100
AcDbLine
 10
3605.899998062718
 20
1887.289449579901
 11
3605.899998062718
 21
1811.289445504561
  0
LINE
  5
1F4
100
AcDbEntity
  8
0
  6
CONTINUOUS
 62
           3
100
AcDbLine
 10
3605.899998062718
 20
1811.289445504561
 11
3607.899998390717
 21
1811.289445504561
  0
LINE
  5
1F3
100
AcDbEntity
  8
0
  6
CONTINUOUS
 62
           3
100
AcDbLine
 10
3607.899998390717
 20
1809.289448901964
 11
3607.599997037718
 21
1809.289448901964
  0
LINE
  5
1F2
100
AcDbEntity
  8
0
  6
CONTINUOUS
 62
           3
100
AcDbLine
 10
3607.599997037718
 20
1789.289445623781
 11
3607.899998390717
 21
1789.289445623781
  0
LINE
  5
1F1
100
AcDbEntity
  8
0
  6
CONTINUOUS
 62
           3
100
AcDbLine
 10
3607.899998390717
 20
1787.289449021185
 11
3605.899998062718
 21
1787.289449021185
  0
LINE
  5
1F0
100
AcDbEntity
  8
0
  6
CONTINUOUS
 62
           3
100
AcDbLine
 10
3605.899998062718
 20
1770.989448770793
 11
3605.899998062718
 21
1787.289449021185
  0
LINE
  5
1EF
100
AcDbEntity
  8
0
  6
CONTINUOUS
 62
           3
100
AcDbLine
 10
3725.899995380624
 20
1770.989448770793
 11
3725.899995380624
 21
1787.289449021185
  0
LINE
  5
1EE
100
AcDbEntity
  8
0
  6
CONTINUOUS
 62
           3
100
AcDbLine
 10
3723.899995052625
 20
1787.289449021185
 11
3725.899995380624
 21
1787.289449021185
  0
LINE
  5
1ED
100
AcDbEntity
  8
0
  6
CONTINUOUS
 62
           3
100
AcDbLine
 10
3724.199996405628
 20
1789.289445623781
 11
3723.899995052625
 21
1789.289445623781
  0
LINE
  5
1EC
100
AcDbEntity
  8
0
  6
CONTINUOUS
 62
           3
100
AcDbLine
 10
3723.899995052625
 20
1809.289448901964
 11
3724.199996405628
 21
1809.289448901964
  0
LINE
  5
1EB
100
AcDbEntity
  8
0
  6
CONTINUOUS
 62
           3
100
AcDbLine
 10
3725.899995380624
 20
1811.289445504561
 11
3723.899995052625
 21
1811.289445504561
  0
LINE
  5
1EA
100
AcDbEntity
  8
0
  6
CONTINUOUS
 62
           3
100
AcDbLine
 10
3725.899995380624
 20
1887.289449579901
 11
3725.899995380624
 21
1811.289445504561
  0
LINE
  5
1E9
100
AcDbEntity
  8
0
  6
CONTINUOUS
 62
           3
100
AcDbLine
 10
3725.899995380624
 20
1887.289449579901
 11
3723.899995052625
 21
1887.289449579901
  0
LINE
  5
1E8
100
AcDbEntity
  8
0
  6
CONTINUOUS
 62
           3
100
AcDbLine
 10
3723.899995052625
 20
1889.289448976397
 11
3724.199996405628
 21
1889.289448976397
  0
LINE
  5
1E7
100
AcDbEntity
  8
0
  6
CONTINUOUS
 62
           3
100
AcDbLine
 10
3724.199996405628
 20
1909.289448529482
 11
3723.899995052625
 21
1909.289448529482
  0
LINE
  5
1E6
100
AcDbEntity
  8
0
  6
CONTINUOUS
 62
           3
100
AcDbLine
 10
3723.899995052625
 20
1911.289450719881
 11
3725.899995380624
 21
1911.289450719881
  0
LINE
  5
1E5
100
AcDbEntity
  8
0
  6
CONTINUOUS
 62
           3
100
AcDbLine
 10
3725.899995380624
 20
1927.589450970267
 11
3725.899995380624
 21
1911.289450719881
  0
LINE
  5
1E4
100
AcDbEntity
  8
0
  6
CONTINUOUS
 62
           3
100
AcDbLine
 10
3605.899998062718
 20
1927.589450970267
 11
3605.899998062718
 21
1911.289450719881
  0
LINE
  5
1E3
100
AcDbEntity
  8
0
  6
CONTINUOUS
 62
           3
100
AcDbLine
 10
3607.899998390717
 20
1911.289450719881
 11
3605.899998062718
 21
1911.289450719881
  0
LINE
  5
1E2
100
AcDbEntity
  8
0
  6
CONTINUOUS
 62
           3
100
AcDbLine
 10
3724.199996405628
 20
1889.289448976397
 11
3725.824804121025
 21
1889.289448976397
  0
LINE
  5
1E1
100
AcDbEntity
  8
0
  6
CONTINUOUS
 62
           3
100
AcDbLine
 10
3725.899995380624
 20
1889.289448976397
 11
3725.899995380624
 21
1909.289448529482
  0
LINE
  5
1E0
100
AcDbEntity
  8
0
  6
CONTINUOUS
 62
           3
100
AcDbLine
 10
3725.899995380624
 20
1909.289448529482
 11
3724.199996405628
 21
1909.289448529482
  0
LINE
  5
1DF
100
AcDbEntity
  8
0
  6
CONTINUOUS
 62
           3
100
AcDbLine
 10
3725.899995380624
 20
1928.089448258066
 11
3725.899995380624
 21
1927.589450970267
  0
LINE
  5
1DE
100
AcDbEntity
  8
0
  6
CONTINUOUS
 62
           3
100
AcDbLine
 10
3605.899998062718
 20
1928.089448258066
 11
3605.899998062718
 21
1927.589450970267
  0
LINE
  5
1DD
100
AcDbEntity
  8
0
  6
CONTINUOUS
 62
           3
100
AcDbLine
 10
3605.899998062718
 20
1770.489447757595
 11
3605.899998062718
 21
1770.989448770793
  0
LINE
  5
1DC
100
AcDbEntity
  8
0
  6
CONTINUOUS
 62
           3
100
AcDbLine
 10
3725.899995380624
 20
1770.489447757595
 11
3725.899995380624
 21
1770.989448770793
  0
LINE
  5
1DB
100
AcDbEntity
  8
0
  6
CONTINUOUS
 62
           3
100
AcDbLine
 10
3668.899996747767
 20
1929.289449944965
 11
3669.149996788767
 21
1929.289449944965
  0
LINE
  5
1DA
100
AcDbEntity
  8
0
  6
CONTINUOUS
 62
           3
100
AcDbLine
 10
3662.649996654579
 20
1929.289449944965
 11
3662.899996695579
 21
1929.289449944965
  0
LINE
  5
1D9
100
AcDbEntity
  8
0
  6
CONTINUOUS
 62
           3
100
AcDbLine
 10
3668.899996747767
 20
1928.089448258066
 11
3669.149996788767
 21
1928.089448258066
  0
LINE
  5
1D8
100
AcDbEntity
  8
0
  6
CONTINUOUS
 62
           3
100
AcDbLine
 10
3662.649996654579
 20
1928.089448258066
 11
3662.899996695579
 21
1928.089448258066
  0
LINE
  5
1D7
100
AcDbEntity
  8
0
  6
CONTINUOUS
 62
           3
100
AcDbLine
 10
3662.899996695579
 20
1770.489447757595
 11
3662.649996654579
 21
1770.489447757595
  0
LINE
  5
1D6
100
AcDbEntity
  8
0
  6
CONTINUOUS
 62
           3
100
AcDbLine
 10
3669.149996788767
 20
1770.489447757595
 11
3668.899996747767
 21
1770.489447757595
  0
LINE
  5
1D5
100
AcDbEntity
  8
0
  6
CONTINUOUS
 62
           3
100
AcDbLine
 10
3610.899997019716
 20
1770.489447757595
 11
3605.899998062718
 21
1770.489447757595
  0
LINE
  5
1D4
100
AcDbEntity
  8
0
  6
CONTINUOUS
 62
           3
100
AcDbLine
 10
3605.899998062718
 20
1769.289449796099
 11
3610.899997019716
 21
1769.289449796099
  0
LINE
  5
1D3
100
AcDbEntity
  8
0
  6
CONTINUOUS
 62
           3
100
AcDbLine
 10
3605.899998062718
 20
1770.489447757595
 11
3605.899998062718
 21
1769.289449796099
  0
LINE
  5
1D2
100
AcDbEntity
  8
0
  6
CONTINUOUS
 62
           3
100
AcDbLine
 10
3605.899998062718
 20
1929.289449944965
 11
3610.899997019716
 21
1929.289449944965
  0
LINE
  5
1D1
100
AcDbEntity
  8
0
  6
CONTINUOUS
 62
           3
100
AcDbLine
 10
3610.899997019716
 20
1928.089448258066
 11
3605.899998062718
 21
1928.089448258066
  0
LINE
  5
1D0
100
AcDbEntity
  8
0
  6
CONTINUOUS
 62
           3
100
AcDbLine
 10
3605.899998062718
 20
1928.089448258066
 11
3605.899998062718
 21
1929.289449944965
  0
LINE
  5
1CF
100
AcDbEntity
  8
0
  6
CONTINUOUS
 62
           3
100
AcDbLine
 10
3710.899998509635
 20
1929.289449944965
 11
3695.899996051146
 21
1929.289449944965
  0
LINE
  5
1CE
100
AcDbEntity
  8
0
  6
CONTINUOUS
 62
           3
100
AcDbLine
 10
3710.899998509635
 20
1928.089448258066
 11
3695.899996051146
 21
1928.089448258066
  0
LINE
  5
1CD
100
AcDbEntity
  8
0
  6
CONTINUOUS
 62
           3
100
AcDbLine
 10
3725.899995380624
 20
1929.289449944965
 11
3720.899996423626
 21
1929.289449944965
  0
LINE
  5
1CC
100
AcDbEntity
  8
0
  6
CONTINUOUS
 62
           3
100
AcDbLine
 10
3720.899996423626
 20
1928.089448258066
 11
3725.899995380624
 21
1928.089448258066
  0
LINE
  5
1CB
100
AcDbEntity
  8
0
  6
CONTINUOUS
 62
           3
100
AcDbLine
 10
3725.899995380624
 20
1928.089448258066
 11
3725.899995380624
 21
1929.289449944965
  0
LINE
  5
1CA
100
AcDbEntity
  8
0
  6
CONTINUOUS
 62
           3
100
AcDbLine
 10
3710.899998509635
 20
1770.489447757595
 11
3695.899996051146
 21
1770.489447757595
  0
LINE
  5
1C9
100
AcDbEntity
  8
0
  6
CONTINUOUS
 62
           3
100
AcDbLine
 10
3710.899998509635
 20
1769.289449796099
 11
3695.899996051146
 21
1769.289449796099
  0
LINE
  5
1C8
100
AcDbEntity
  8
0
  6
CONTINUOUS
 62
           3
100
AcDbLine
 10
3620.899994933707
 20
1929.289449944965
 11
3635.899997392194
 21
1929.289449944965
  0
LINE
  5
1C7
100
AcDbEntity
  8
0
  6
CONTINUOUS
 62
           3
100
AcDbLine
 10
3620.899994933707
 20
1928.089448258066
 11
3635.899997392194
 21
1928.089448258066
  0
LINE
  5
1C6
100
AcDbEntity
  8
0
  6
CONTINUOUS
 62
           3
100
AcDbLine
 10
3720.899996423626
 20
1770.489447757595
 11
3725.899995380624
 21
1770.489447757595
  0
LINE
  5
1C5
100
AcDbEntity
  8
0
  6
CONTINUOUS
 62
           3
100
AcDbLine
 10
3725.899995380624
 20
1769.289449796099
 11
3720.899996423626
 21
1769.289449796099
  0
LINE
  5
1C4
100
AcDbEntity
  8
0
  6
CONTINUOUS
 62
           3
100
AcDbLine
 10
3725.899995380624
 20
1770.489447757595
 11
3725.899995380624
 21
1769.289449796099
  0
LINE
  5
1C3
100
AcDbEntity
  8
0
  6
CONTINUOUS
 62
           3
100
AcDbLine
 10
3620.899994933707
 20
1770.489447757595
 11
3635.899997392194
 21
1770.489447757595
  0
LINE
  5
1C2
100
AcDbEntity
  8
0
  6
CONTINUOUS
 62
           3
100
AcDbLine
 10
3620.899994933707
 20
1769.289449796099
 11
3635.899997392194
 21
1769.289449796099
  0
LINE
  5
1C1
100
AcDbEntity
  8
0
  6
CONTINUOUS
 62
           3
100
AcDbLine
 10
3618.899998331106
 20
1929.289449944965
 11
3620.899994933707
 21
1929.289449944965
  0
LINE
  5
1C0
100
AcDbEntity
  8
0
  6
CONTINUOUS
 62
           3
100
AcDbLine
 10
3620.899994933707
 20
1928.089448258066
 11
3618.899998331106
 21
1928.089448258066
  0
LINE
  5
1BF
100
AcDbEntity
  8
0
  6
CONTINUOUS
 62
           3
100
AcDbLine
 10
3618.899998331106
 20
1928.089448258066
 11
3618.899998331106
 21
1929.289449944965
  0
LINE
  5
1BE
100
AcDbEntity
  8
0
  6
CONTINUOUS
 62
           3
100
AcDbLine
 10
3610.899997019716
 20
1929.289449944965
 11
3612.899997347717
 21
1929.289449944965
  0
LINE
  5
1BD
100
AcDbEntity
  8
0
  6
CONTINUOUS
 62
           3
100
AcDbLine
 10
3612.899997347717
 20
1928.089448258066
 11
3610.899997019716
 21
1928.089448258066
  0
LINE
  5
1BC
100
AcDbEntity
  8
0
  6
CONTINUOUS
 62
           3
100
AcDbLine
 10
3612.899997347717
 20
1929.289449944965
 11
3612.899997347717
 21
1928.089448258066
  0
LINE
  5
1BB
100
AcDbEntity
  8
0
  6
CONTINUOUS
 62
           3
100
AcDbLine
 10
3710.899998509635
 20
1770.489447757595
 11
3712.899995112236
 21
1770.489447757595
  0
LINE
  5
1BA
100
AcDbEntity
  8
0
  6
CONTINUOUS
 62
           3
100
AcDbLine
 10
3712.899995112236
 20
1769.289449796099
 11
3710.899998509635
 21
1769.289449796099
  0
LINE
  5
1B9
100
AcDbEntity
  8
0
  6
CONTINUOUS
 62
           3
100
AcDbLine
 10
3712.899995112236
 20
1770.489447757595
 11
3712.899995112236
 21
1769.289449796099
  0
LINE
  5
1B8
100
AcDbEntity
  8
0
  6
CONTINUOUS
 62
           3
100
AcDbLine
 10
3718.899996095924
 20
1770.489447757595
 11
3720.899996423626
 21
1770.489447757595
  0
LINE
  5
1B7
100
AcDbEntity
  8
0
  6
CONTINUOUS
 62
           3
100
AcDbLine
 10
3720.899996423626
 20
1769.289449796099
 11
3718.899996095924
 21
1769.289449796099
  0
LINE
  5
1B6
100
AcDbEntity
  8
0
  6
CONTINUOUS
 62
           3
100
AcDbLine
 10
3718.899996095924
 20
1769.289449796099
 11
3718.899996095924
 21
1770.489447757595
  0
LINE
  5
1B5
100
AcDbEntity
  8
0
  6
CONTINUOUS
 62
           3
100
AcDbLine
 10
3712.899995112236
 20
1929.289449944965
 11
3710.899998509635
 21
1929.289449944965
  0
LINE
  5
1B4
100
AcDbEntity
  8
0
  6
CONTINUOUS
 62
           3
100
AcDbLine
 10
3710.899998509635
 20
1928.089448258066
 11
3712.899995112236
 21
1928.089448258066
  0
LINE
  5
1B3
100
AcDbEntity
  8
0
  6
CONTINUOUS
 62
           3
100
AcDbLine
 10
3712.899995112236
 20
1928.089448258066
 11
3712.899995112236
 21
1929.289449944965
  0
LINE
  5
1B2
100
AcDbEntity
  8
0
  6
CONTINUOUS
 62
           3
100
AcDbLine
 10
3720.899996423626
 20
1929.289449944965
 11
3718.899996095924
 21
1929.289449944965
  0
LINE
  5
1B1
100
AcDbEntity
  8
0
  6
CONTINUOUS
 62
           3
100
AcDbLine
 10
3718.899996095924
 20
1928.089448258066
 11
3720.899996423626
 21
1928.089448258066
  0
LINE
  5
1B0
100
AcDbEntity
  8
0
  6
CONTINUOUS
 62
           3
100
AcDbLine
 10
3718.899996095924
 20
1929.289449944965
 11
3718.899996095924
 21
1928.089448258066
  0
LINE
  5
1AF
100
AcDbEntity
  8
0
  6
CONTINUOUS
 62
           3
100
AcDbLine
 10
3620.899994933707
 20
1770.489447757595
 11
3618.899998331106
 21
1770.489447757595
  0
LINE
  5
1AE
100
AcDbEntity
  8
0
  6
CONTINUOUS
 62
           3
100
AcDbLine
 10
3618.899998331106
 20
1769.289449796099
 11
3620.899994933707
 21
1769.289449796099
  0
LINE
  5
1AD
100
AcDbEntity
  8
0
  6
CONTINUOUS
 62
           3
100
AcDbLine
 10
3618.899998331106
 20
1770.489447757595
 11
3618.899998331106
 21
1769.289449796099
  0
LINE
  5
1AC
100
AcDbEntity
  8
0
  6
CONTINUOUS
 62
           3
100
AcDbLine
 10
3612.899997347717
 20
1770.489447757595
 11
3610.899997019716
 21
1770.489447757595
  0
LINE
  5
1AB
100
AcDbEntity
  8
0
  6
CONTINUOUS
 62
           3
100
AcDbLine
 10
3610.899997019716
 20
1769.289449796099
 11
3612.899997347717
 21
1769.289449796099
  0
LINE
  5
1AA
100
AcDbEntity
  8
0
  6
CONTINUOUS
 62
           3
100
AcDbLine
 10
3612.899997347717
 20
1769.289449796099
 11
3612.899997347717
 21
1770.489447757595
  0
LINE
  5
1A9
100
AcDbEntity
  8
0
  6
CONTINUOUS
 62
           3
100
AcDbLine
 10
3662.399996613579
 20
1770.489447757595
 11
3662.649996654579
 21
1770.489447757595
  0
LINE
  5
1A8
100
AcDbEntity
  8
0
  6
CONTINUOUS
 62
           3
100
AcDbLine
 10
3662.649996654579
 20
1770.489447757595
 11
3662.649996654579
 21
1769.289449796099
  0
LINE
  5
1A7
100
AcDbEntity
  8
0
  6
CONTINUOUS
 62
           3
100
AcDbLine
 10
3695.899996051146
 20
1770.489447757595
 11
3685.899996274756
 21
1770.489447757595
  0
LINE
  5
1A6
100
AcDbEntity
  8
0
  6
CONTINUOUS
 62
           3
100
AcDbLine
 10
3695.899996051146
 20
1769.289449796099
 11
3685.899996274756
 21
1769.289449796099
  0
LINE
  5
1A5
100
AcDbEntity
  8
0
  6
CONTINUOUS
 62
           3
100
AcDbLine
 10
3695.899996051146
 20
1770.489447757595
 11
3695.899996051146
 21
1769.289449796099
  0
LINE
  5
1A4
100
AcDbEntity
  8
0
  6
CONTINUOUS
 62
           3
100
AcDbLine
 10
3660.649996792477
 20
1929.289449944965
 11
3662.649996654579
 21
1929.289449944965
  0
LINE
  5
1A3
100
AcDbEntity
  8
0
  6
CONTINUOUS
 62
           3
100
AcDbLine
 10
3662.649996654579
 20
1928.089448258066
 11
3660.649996792477
 21
1928.089448258066
  0
LINE
  5
1A2
100
AcDbEntity
  8
0
  6
CONTINUOUS
 62
           3
100
AcDbLine
 10
3662.649996654579
 20
1929.289449944965
 11
3662.649996654579
 21
1928.089448258066
  0
LINE
  5
1A1
100
AcDbEntity
  8
0
  6
CONTINUOUS
 62
           3
100
AcDbLine
 10
3673.899997101566
 20
1770.489447757595
 11
3685.899996274756
 21
1770.489447757595
  0
LINE
  5
1A0
100
AcDbEntity
  8
0
  6
CONTINUOUS
 62
           3
100
AcDbLine
 10
3673.899997101566
 20
1769.289449796099
 11
3685.899996274756
 21
1769.289449796099
  0
LINE
  5
19F
100
AcDbEntity
  8
0
  6
CONTINUOUS
 62
           3
100
AcDbLine
 10
3685.899996274756
 20
1770.489447757595
 11
3685.899996274756
 21
1769.289449796099
  0
LINE
  5
19E
100
AcDbEntity
  8
0
  6
CONTINUOUS
 62
           3
100
AcDbLine
 10
3635.899997392194
 20
1770.489447757595
 11
3645.899997168589
 21
1770.489447757595
  0
LINE
  5
19D
100
AcDbEntity
  8
0
  6
CONTINUOUS
 62
           3
100
AcDbLine
 10
3635.899997392194
 20
1769.289449796099
 11
3645.899997168589
 21
1769.289449796099
  0
LINE
  5
19C
100
AcDbEntity
  8
0
  6
CONTINUOUS
 62
           3
100
AcDbLine
 10
3635.899997392194
 20
1770.489447757595
 11
3635.899997392194
 21
1769.289449796099
  0
LINE
  5
19B
100
AcDbEntity
  8
0
  6
CONTINUOUS
 62
           3
100
AcDbLine
 10
3669.149996788767
 20
1929.289449944965
 11
3671.149996650868
 21
1929.289449944965
  0
LINE
  5
19A
100
AcDbEntity
  8
0
  6
CONTINUOUS
 62
           3
100
AcDbLine
 10
3671.149996650868
 20
1928.089448258066
 11
3669.149996788767
 21
1928.089448258066
  0
LINE
  5
199
100
AcDbEntity
  8
0
  6
CONTINUOUS
 62
           3
100
AcDbLine
 10
3669.149996788767
 20
1928.089448258066
 11
3669.149996788767
 21
1929.289449944965
  0
LINE
  5
198
100
AcDbEntity
  8
0
  6
CONTINUOUS
 62
           3
100
AcDbLine
 10
3695.899996051146
 20
1929.289449944965
 11
3685.899996274756
 21
1929.289449944965
  0
LINE
  5
197
100
AcDbEntity
  8
0
  6
CONTINUOUS
 62
           3
100
AcDbLine
 10
3695.899996051146
 20
1928.089448258066
 11
3685.899996274756
 21
1928.089448258066
  0
LINE
  5
196
100
AcDbEntity
  8
0
  6
CONTINUOUS
 62
           3
100
AcDbLine
 10
3695.899996051146
 20
1928.089448258066
 11
3695.899996051146
 21
1929.289449944965
  0
LINE
  5
195
100
AcDbEntity
  8
0
  6
CONTINUOUS
 62
           3
100
AcDbLine
 10
3669.149996788767
 20
1770.489447757595
 11
3669.399996829767
 21
1770.489447757595
  0
LINE
  5
194
100
AcDbEntity
  8
0
  6
CONTINUOUS
 62
           3
100
AcDbLine
 10
3669.149996788767
 20
1769.289449796099
 11
3669.149996788767
 21
1770.489447757595
  0
LINE
  5
193
100
AcDbEntity
  8
0
  6
CONTINUOUS
 62
           3
100
AcDbLine
 10
3645.899997168589
 20
1770.489447757595
 11
3657.899996341778
 21
1770.489447757595
  0
LINE
  5
192
100
AcDbEntity
  8
0
  6
CONTINUOUS
 62
           3
100
AcDbLine
 10
3645.899997168589
 20
1769.289449796099
 11
3657.899996341778
 21
1769.289449796099
  0
LINE
  5
191
100
AcDbEntity
  8
0
  6
CONTINUOUS
 62
           3
100
AcDbLine
 10
3645.899997168589
 20
1770.489447757595
 11
3645.899997168589
 21
1769.289449796099
  0
LINE
  5
190
100
AcDbEntity
  8
0
  6
CONTINUOUS
 62
           3
100
AcDbLine
 10
3645.899997168589
 20
1929.289449944965
 11
3660.649996792477
 21
1929.289449944965
  0
LINE
  5
18F
100
AcDbEntity
  8
0
  6
CONTINUOUS
 62
           3
100
AcDbLine
 10
3645.899997168589
 20
1928.089448258066
 11
3660.649996792477
 21
1928.089448258066
  0
LINE
  5
18E
100
AcDbEntity
  8
0
  6
CONTINUOUS
 62
           3
100
AcDbLine
 10
3671.149996650868
 20
1929.289449944965
 11
3685.899996274756
 21
1929.289449944965
  0
LINE
  5
18D
100
AcDbEntity
  8
0
  6
CONTINUOUS
 62
           3
100
AcDbLine
 10
3671.149996650868
 20
1928.089448258066
 11
3685.899996274756
 21
1928.089448258066
  0
LINE
  5
18C
100
AcDbEntity
  8
0
  6
CONTINUOUS
 62
           3
100
AcDbLine
 10
3685.899996274756
 20
1928.089448258066
 11
3685.899996274756
 21
1929.289449944965
  0
LINE
  5
18B
100
AcDbEntity
  8
0
  6
CONTINUOUS
 62
           3
100
AcDbLine
 10
3635.899997392194
 20
1928.089448258066
 11
3635.899997392194
 21
1929.289449944965
  0
LINE
  5
18A
100
AcDbEntity
  8
0
  6
CONTINUOUS
 62
           3
100
AcDbLine
 10
3635.899997392194
 20
1928.089448258066
 11
3645.899997168589
 21
1928.089448258066
  0
LINE
  5
189
100
AcDbEntity
  8
0
  6
CONTINUOUS
 62
           3
100
AcDbLine
 10
3645.899997168589
 20
1928.089448258066
 11
3645.899997168589
 21
1929.289449944965
  0
LINE
  5
188
100
AcDbEntity
  8
0
  6
CONTINUOUS
 62
           3
100
AcDbLine
 10
3635.899997392194
 20
1929.289449944965
 11
3645.899997168589
 21
1929.289449944965
  0
LINE
  5
187
100
AcDbEntity
  8
0
  6
CONTINUOUS
 62
           3
100
AcDbLine
 10
3673.899997101566
 20
1768.489451154997
 11
3673.899997101566
 21
1767.565690919797
  0
LINE
  5
186
100
AcDbEntity
  8
0
  6
CONTINUOUS
 62
           3
100
AcDbLine
 10
3657.899996341778
 20
1768.489451154997
 11
3657.899996341778
 21
1767.565690919797
  0
LINE
  5
185
100
AcDbEntity
  8
0
  6
CONTINUOUS
 62
           3
100
AcDbLine
 10
3660.899996833477
 20
1767.565690919797
 11
3657.899996341778
 21
1767.565690919797
  0
LINE
  5
184
100
AcDbEntity
  8
0
  6
CONTINUOUS
 62
           3
100
AcDbLine
 10
3673.899997101566
 20
1767.565690919797
 11
3670.899996609868
 21
1767.565690919797
  0
LINE
  5
183
100
AcDbEntity
  8
0
  6
CONTINUOUS
 62
           3
100
AcDbLine
 10
3668.399996665766
 20
1763.489448472901
 11
3670.899996609915
 21
1763.489448472901
  0
LINE
  5
182
100
AcDbEntity
  8
0
  6
CONTINUOUS
 62
           3
100
AcDbLine
 10
3660.899996833437
 20
1763.489448472901
 11
3663.399996777557
 21
1763.489448472901
  0
LINE
  5
181
100
AcDbEntity
  8
0
  6
CONTINUOUS
 62
           3
100
AcDbLine
 10
3670.899996609868
 20
1763.936028823304
 11
3670.899996609868
 21
1768.389449462195
  0
LINE
  5
180
100
AcDbEntity
  8
0
  6
CONTINUOUS
 62
           3
100
AcDbLine
 10
3660.899996833477
 20
1763.936028823304
 11
3660.899996833477
 21
1768.389449462195
  0
LINE
  5
17F
100
AcDbEntity
  8
0
  6
CONTINUOUS
 62
           3
100
AcDbLine
 10
3660.899996833477
 20
1763.936028823304
 11
3663.399996777557
 21
1763.489448472901
  0
LINE
  5
17E
100
AcDbEntity
  8
0
  6
CONTINUOUS
 62
           3
100
AcDbLine
 10
3665.899996721679
 20
1763.936028823297
 11
3665.899996721679
 21
1768.389449462195
  0
LINE
  5
17D
100
AcDbEntity
  8
0
  6
CONTINUOUS
 62
           3
100
AcDbLine
 10
3663.399996777557
 20
1763.489448472901
 11
3668.399996665766
 21
1763.489448472901
  0
LINE
  5
17C
100
AcDbEntity
  8
0
  6
CONTINUOUS
 62
           3
100
AcDbLine
 10
3665.899996721679
 20
1763.936028823297
 11
3668.399996665766
 21
1763.489448472901
  0
LINE
  5
17B
100
AcDbEntity
  8
0
  6
CONTINUOUS
 62
           3
100
AcDbLine
 10
3662.399996613579
 20
1768.489451154997
 11
3669.399996829767
 21
1768.489451154997
  0
LINE
  5
17A
100
AcDbEntity
  8
0
  6
CONTINUOUS
 62
           3
100
AcDbLine
 10
3662.399996613579
 20
1769.289449796099
 11
3669.399996829767
 21
1769.289449796099
  0
LINE
  5
179
100
AcDbEntity
  8
0
  6
CONTINUOUS
 62
           3
100
AcDbLine
 10
3669.399996829767
 20
1773.279593333494
 11
3662.399996613579
 21
1773.279593333494
  0
LINE
  5
178
100
AcDbEntity
  8
0
  6
CONTINUOUS
 62
           3
100
AcDbLine
 10
3662.899996695579
 20
1771.535919055295
 11
3662.399996613579
 21
1771.535919055295
  0
LINE
  5
177
100
AcDbEntity
  8
0
  6
CONTINUOUS
 62
           3
100
AcDbLine
 10
3669.399996829767
 20
1771.535919055295
 11
3668.899996747767
 21
1771.535919055295
  0
LINE
  5
176
100
AcDbEntity
  8
0
  6
CONTINUOUS
 62
           3
100
AcDbLine
 10
3673.899997101566
 20
1774.089449092895
 11
3673.899997101566
 21
1768.489451154997
  0
LINE
  5
175
100
AcDbEntity
  8
0
  6
CONTINUOUS
 62
           3
100
AcDbLine
 10
3657.899996341778
 20
1774.089449092895
 11
3657.899996341778
 21
1768.489451154997
  0
LINE
  5
174
100
AcDbEntity
  8
0
  6
CONTINUOUS
 62
           3
100
AcDbLine
 10
3662.399996613579
 20
1768.489451154997
 11
3662.399996613579
 21
1774.089449092895
  0
LINE
  5
173
100
AcDbEntity
  8
0
  6
CONTINUOUS
 62
           3
100
AcDbLine
 10
3669.399996829767
 20
1774.089449092895
 11
3669.399996829767
 21
1768.489451154997
  0
LINE
  5
172
100
AcDbEntity
  8
0
  6
CONTINUOUS
 62
           3
100
AcDbLine
 10
3662.399996613579
 20
1768.489451154997
 11
3657.899996341778
 21
1768.489451154997
  0
LINE
  5
171
100
AcDbEntity
  8
0
  6
CONTINUOUS
 62
           3
100
AcDbLine
 10
3662.399996613579
 20
1774.082296535493
 11
3669.399996829767
 21
1774.082296535493
  0
LINE
  5
170
100
AcDbEntity
  8
0
  6
CONTINUOUS
 62
           3
100
AcDbLine
 10
3673.899997101566
 20
1768.489451154997
 11
3669.399996829767
 21
1768.489451154997
  0
LINE
  5
16F
100
AcDbEntity
  8
0
  6
CONTINUOUS
 62
           3
100
AcDbLine
 10
3667.899996816564
 20
2017.712102278993
 11
3663.899996626778
 21
2017.712102278993
  0
LINE
  5
16E
100
AcDbEntity
  8
0
  6
CONTINUOUS
 62
           3
100
AcDbLine
 10
3662.899996695579
 20
2016.712100252295
 11
3668.899996747767
 21
2016.712100252295
  0
LINE
  5
16D
100
AcDbEntity
  8
0
  6
CONTINUOUS
 62
           3
100
AcDbLine
 10
3611.899995321016
 20
2044.28945575637
 11
3615.899995976713
 21
2044.28945575637
  0
LINE
  5
16C
100
AcDbEntity
  8
0
  6
CONTINUOUS
 62
           3
100
AcDbLine
 10
3615.899995976713
 20
2044.28945575637
 11
3619.899996632415
 21
2044.28945575637
  0
LINE
  5
16B
100
AcDbEntity
  8
0
  6
CONTINUOUS
 62
           3
100
AcDbLine
 10
3661.56986968735
 20
1746.889443144258
 11
3660.899996833477
 21
1746.889443144115
  0
LINE
  5
16A
100
AcDbEntity
  8
0
  6
CONTINUOUS
 62
           3
100
AcDbLine
 10
3670.899996609868
 20
1746.889443144115
 11
3670.230123756008
 21
1746.889443144258
  0
LINE
  5
169
100
AcDbEntity
  8
0
  6
CONTINUOUS
 62
           3
100
AcDbLine
 10
3661.56986968735
 20
1751.889453277043
 11
3660.899996833477
 21
1751.88945327701
  0
LINE
  5
168
100
AcDbEntity
  8
0
  6
CONTINUOUS
 62
           3
100
AcDbLine
 10
3670.230123756008
 20
1746.889443144258
 11
3665.899996721679
 21
1746.889443144258
  0
LINE
  5
167
100
AcDbEntity
  8
0
  6
CONTINUOUS
 62
           3
100
AcDbLine
 10
3665.899996721679
 20
1746.889443144258
 11
3661.56986968735
 21
1746.889443144258
  0
LINE
  5
166
100
AcDbEntity
  8
0
  6
CONTINUOUS
 62
           3
100
AcDbLine
 10
3660.126493853976
 20
1751.442865476111
 11
3660.126493853976
 21
1747.336030945314
  0
LINE
  5
165
100
AcDbEntity
  8
0
  6
CONTINUOUS
 62
           3
100
AcDbLine
 10
3660.126493853976
 20
1747.336030945314
 11
3661.56986968735
 21
1746.889443144258
  0
LINE
  5
164
100
AcDbEntity
  8
0
  6
CONTINUOUS
 62
           3
100
AcDbLine
 10
3663.013245287847
 20
1751.442865476063
 11
3661.56986968735
 21
1751.889453277043
  0
LINE
  5
163
100
AcDbEntity
  8
0
  6
CONTINUOUS
 62
           3
100
AcDbLine
 10
3668.786748155367
 20
1747.336030945314
 11
3670.230123756008
 21
1746.889443144258
  0
LINE
  5
162
100
AcDbEntity
  8
0
  6
CONTINUOUS
 62
           3
100
AcDbLine
 10
3671.673499589369
 20
1751.442865476111
 11
3671.673499589369
 21
1747.336030945314
  0
LINE
  5
161
100
AcDbEntity
  8
0
  6
CONTINUOUS
 62
           3
100
AcDbLine
 10
3671.673499589369
 20
1751.442865476111
 11
3670.230123756008
 21
1751.889453277043
  0
LINE
  5
160
100
AcDbEntity
  8
0
  6
CONTINUOUS
 62
           3
100
AcDbLine
 10
3663.013245287847
 20
1751.442865476063
 11
3663.013245287847
 21
1747.336030945236
  0
LINE
  5
15F
100
AcDbEntity
  8
0
  6
CONTINUOUS
 62
           3
100
AcDbLine
 10
3668.786748155505
 20
1751.442865476063
 11
3668.786748155367
 21
1747.336030945314
  0
LINE
  5
15E
100
AcDbEntity
  8
0
  6
CONTINUOUS
 62
           3
100
AcDbLine
 10
3670.899996609868
 20
1751.88945327701
 11
3670.230123756008
 21
1751.889453277043
  0
LINE
  5
15D
100
AcDbEntity
  8
0
  6
CONTINUOUS
 62
           3
100
AcDbLine
 10
3670.899996609868
 20
1756.889448508606
 11
3670.230123756008
 21
1756.889448508668
  0
LINE
  5
15C
100
AcDbEntity
  8
0
  6
CONTINUOUS
 62
           3
100
AcDbLine
 10
3661.56986968735
 20
1756.889448508668
 11
3660.899996833477
 21
1756.889448508606
  0
LINE
  5
15B
100
AcDbEntity
  8
0
  6
CONTINUOUS
 62
           3
100
AcDbLine
 10
3665.899996721679
 20
1751.889453277043
 11
3661.56986968735
 21
1751.889453277043
  0
LINE
  5
15A
100
AcDbEntity
  8
0
  6
CONTINUOUS
 62
           3
100
AcDbLine
 10
3670.230123756008
 20
1751.889453277043
 11
3665.899996721679
 21
1751.889453277043
  0
LINE
  5
159
100
AcDbEntity
  8
0
  6
CONTINUOUS
 62
           3
100
AcDbLine
 10
3665.899996721679
 20
1756.889448508668
 11
3661.56986968735
 21
1756.889448508668
  0
LINE
  5
158
100
AcDbEntity
  8
0
  6
CONTINUOUS
 62
           3
100
AcDbLine
 10
3660.126493853976
 20
1756.442868158207
 11
3660.126493853976
 21
1752.336026176912
  0
LINE
  5
157
100
AcDbEntity
  8
0
  6
CONTINUOUS
 62
           3
100
AcDbLine
 10
3660.126493853976
 20
1752.336026176912
 11
3661.56986968735
 21
1751.889453277043
  0
LINE
  5
156
100
AcDbEntity
  8
0
  6
CONTINUOUS
 62
           3
100
AcDbLine
 10
3663.013245287847
 20
1756.442868158269
 11
3661.56986968735
 21
1756.889448508668
  0
LINE
  5
155
100
AcDbEntity
  8
0
  6
CONTINUOUS
 62
           3
100
AcDbLine
 10
3670.230123756008
 20
1756.889448508668
 11
3665.899996721679
 21
1756.889448508668
  0
LINE
  5
154
100
AcDbEntity
  8
0
  6
CONTINUOUS
 62
           3
100
AcDbLine
 10
3668.786748155367
 20
1752.336026176912
 11
3670.230123756008
 21
1751.889453277043
  0
LINE
  5
153
100
AcDbEntity
  8
0
  6
CONTINUOUS
 62
           3
100
AcDbLine
 10
3671.673499589369
 20
1756.442868158207
 11
3671.673499589369
 21
1752.336026176912
  0
LINE
  5
152
100
AcDbEntity
  8
0
  6
CONTINUOUS
 62
           3
100
AcDbLine
 10
3671.673499589369
 20
1756.442868158207
 11
3670.230123756008
 21
1756.889448508668
  0
LINE
  5
151
100
AcDbEntity
  8
0
  6
CONTINUOUS
 62
           3
100
AcDbLine
 10
3663.013245287847
 20
1756.442868158269
 11
3663.013245287847
 21
1752.336026176861
  0
LINE
  5
150
100
AcDbEntity
  8
0
  6
CONTINUOUS
 62
           3
100
AcDbLine
 10
3668.786748155505
 20
1756.442868158269
 11
3668.786748155367
 21
1752.336026176912
  0
LINE
  5
14F
100
AcDbEntity
  8
0
  6
CONTINUOUS
 62
           3
100
AcDbLine
 10
3660.126493853976
 20
1743.842870935918
 11
3660.126493853976
 21
1739.736036405124
  0
LINE
  5
14E
100
AcDbEntity
  8
0
  6
CONTINUOUS
 62
           3
100
AcDbLine
 10
3660.126493853976
 20
1739.736036405124
 11
3661.56986968735
 21
1739.28944860405
  0
LINE
  5
14D
100
AcDbEntity
  8
0
  6
CONTINUOUS
 62
           3
100
AcDbLine
 10
3663.013245287847
 20
1743.84287093586
 11
3661.56986968735
 21
1744.289443835673
  0
LINE
  5
14C
100
AcDbEntity
  8
0
  6
CONTINUOUS
 62
           3
100
AcDbLine
 10
3668.786748155367
 20
1739.736036405124
 11
3670.230123755968
 21
1739.289448603922
  0
LINE
  5
14B
100
AcDbEntity
  8
0
  6
CONTINUOUS
 62
           3
100
AcDbLine
 10
3671.673499589369
 20
1743.842870935918
 11
3671.673499589369
 21
1739.736036405124
  0
LINE
  5
14A
100
AcDbEntity
  8
0
  6
CONTINUOUS
 62
           3
100
AcDbLine
 10
3671.673499589369
 20
1743.842870935918
 11
3670.230123756008
 21
1744.289443835673
  0
LINE
  5
149
100
AcDbEntity
  8
0
  6
CONTINUOUS
 62
           3
100
AcDbLine
 10
3663.013245287847
 20
1743.84287093586
 11
3663.013245287847
 21
1739.736036405026
  0
LINE
  5
148
100
AcDbEntity
  8
0
  6
CONTINUOUS
 62
           3
100
AcDbLine
 10
3668.786748155505
 20
1743.84287093586
 11
3668.786748155367
 21
1739.736036405124
  0
LINE
  5
147
100
AcDbEntity
  8
0
  6
CONTINUOUS
 62
           3
100
AcDbLine
 10
3660.899996833477
 20
1739.289448603922
 11
3661.56986968735
 21
1739.28944860405
  0
LINE
  5
146
100
AcDbEntity
  8
0
  6
CONTINUOUS
 62
           3
100
AcDbLine
 10
3670.899996609868
 20
1734.289453372323
 11
3670.230123756008
 21
1734.289453372421
  0
LINE
  5
145
100
AcDbEntity
  8
0
  6
CONTINUOUS
 62
           3
100
AcDbLine
 10
3660.899996833477
 20
1734.289453372323
 11
3661.56986968735
 21
1734.289453372421
  0
LINE
  5
144
100
AcDbEntity
  8
0
  6
CONTINUOUS
 62
           3
100
AcDbLine
 10
3671.673499589369
 20
1734.736026272225
 11
3670.230123756008
 21
1734.289453372421
  0
LINE
  5
143
100
AcDbEntity
  8
0
  6
CONTINUOUS
 62
           3
100
AcDbLine
 10
3671.673499589369
 20
1734.736026272225
 11
3671.673499589369
 21
1738.842860803023
  0
LINE
  5
142
100
AcDbEntity
  8
0
  6
CONTINUOUS
 62
           3
100
AcDbLine
 10
3660.126493853976
 20
1734.736026272225
 11
3660.126493853976
 21
1738.842860803023
  0
LINE
  5
141
100
AcDbEntity
  8
0
  6
CONTINUOUS
 62
           3
100
AcDbLine
 10
3665.899996721679
 20
1739.28944860405
 11
3670.230123755968
 21
1739.289448603922
  0
LINE
  5
140
100
AcDbEntity
  8
0
  6
CONTINUOUS
 62
           3
100
AcDbLine
 10
3668.786748155505
 20
1738.84286080307
 11
3670.230123755968
 21
1739.289448603922
  0
LINE
  5
13F
100
AcDbEntity
  8
0
  6
CONTINUOUS
 62
           3
100
AcDbLine
 10
3661.56986968735
 20
1739.28944860405
 11
3665.899996721679
 21
1739.28944860405
  0
LINE
  5
13E
100
AcDbEntity
  8
0
  6
CONTINUOUS
 62
           3
100
AcDbLine
 10
3661.56986968735
 20
1734.289453372421
 11
3665.899996721679
 21
1734.289453372323
  0
LINE
  5
13D
100
AcDbEntity
  8
0
  6
CONTINUOUS
 62
           3
100
AcDbLine
 10
3665.899996721679
 20
1734.289453372323
 11
3670.230123756008
 21
1734.289453372421
  0
LINE
  5
13C
100
AcDbEntity
  8
0
  6
CONTINUOUS
 62
           3
100
AcDbLine
 10
3663.013245287973
 20
1738.842860803023
 11
3665.899996721679
 21
1739.28944860405
  0
LINE
  5
13B
100
AcDbEntity
  8
0
  6
CONTINUOUS
 62
           3
100
AcDbLine
 10
3663.013245287847
 20
1734.736026272243
 11
3663.013245287973
 21
1738.842860803023
  0
LINE
  5
13A
100
AcDbEntity
  8
0
  6
CONTINUOUS
 62
           3
100
AcDbLine
 10
3668.786748155367
 20
1734.736026272225
 11
3665.899996721679
 21
1734.289453372323
  0
LINE
  5
139
100
AcDbEntity
  8
0
  6
CONTINUOUS
 62
           3
100
AcDbLine
 10
3668.786748155367
 20
1734.736026272225
 11
3668.786748155505
 21
1738.84286080307
  0
LINE
  5
138
100
AcDbEntity
  8
0
  6
CONTINUOUS
 62
           3
100
AcDbLine
 10
3722.899996751326
 20
1773.089447066195
 11
3722.899996751326
 21
1923.089449301368
  0
LINE
  5
137
100
AcDbEntity
  8
0
  6
CONTINUOUS
 62
           3
100
AcDbLine
 10
3611.899995321016
 20
1923.089449301368
 11
3608.899996692014
 21
1923.089449301368
  0
LINE
  5
136
100
AcDbEntity
  8
0
  6
CONTINUOUS
 62
           3
100
AcDbLine
 10
3662.899996695579
 20
1923.089449301368
 11
3619.899996632415
 21
1923.089449301368
  0
LINE
  5
135
100
AcDbEntity
  8
0
  6
CONTINUOUS
 62
           3
100
AcDbLine
 10
3711.899996810936
 20
1923.089449301368
 11
3668.899996747767
 21
1923.089449301368
  0
LINE
  5
134
100
AcDbEntity
  8
0
  6
CONTINUOUS
 62
           3
100
AcDbLine
 10
3722.899996751326
 20
1923.089449301368
 11
3719.89999812233
 21
1923.089449301368
  0
LINE
  5
133
100
AcDbEntity
  8
0
  6
CONTINUOUS
 62
           3
100
AcDbLine
 10
3608.899996692014
 20
1923.089449301368
 11
3608.899996692014
 21
1773.089447066195
  0
LINE
  5
132
100
AcDbEntity
  8
0
  6
CONTINUOUS
 62
           3
100
AcDbLine
 10
3719.89999812233
 20
1773.089447066195
 11
3722.899996751326
 21
1773.089447066195
  0
LINE
  5
131
100
AcDbEntity
  8
0
  6
CONTINUOUS
 62
           3
100
AcDbLine
 10
3673.899997101566
 20
1773.089447066195
 11
3711.899996810936
 21
1773.089447066195
  0
LINE
  5
130
100
AcDbEntity
  8
0
  6
CONTINUOUS
 62
           3
100
AcDbLine
 10
3619.899996632415
 20
1773.089447066195
 11
3657.899996341778
 21
1773.089447066195
  0
LINE
  5
12F
100
AcDbEntity
  8
0
  6
CONTINUOUS
 62
           3
100
AcDbLine
 10
3608.899996692014
 20
1773.089447066195
 11
3611.899995321016
 21
1773.089447066195
  0
LINE
  5
12E
100
AcDbEntity
  8
0
  6
CONTINUOUS
 62
           3
100
AcDbLine
 10
3659.426494029874
 20
1768.389449199995
 11
3672.373499413466
 21
1768.389449199995
  0
LINE
  5
12D
100
AcDbEntity
  8
0
  6
CONTINUOUS
 62
           3
100
AcDbLine
 10
3673.899997101566
 20
1774.089449092895
 11
3669.399996829767
 21
1774.089449092895
  0
LINE
  5
12C
100
AcDbEntity
  8
0
  6
CONTINUOUS
 62
           3
100
AcDbLine
 10
3662.399996613579
 20
1774.089449092895
 11
3657.899996341778
 21
1774.089449092895
  0
LINE
  5
12B
100
AcDbEntity
  8
0
  6
CONTINUOUS
 62
           3
100
AcDbLine
 10
3663.899996626778
 20
2017.712102278993
 11
3662.899996695579
 21
2016.712100252295
  0
LINE
  5
12A
100
AcDbEntity
  8
0
  6
CONTINUOUS
 62
           3
100
AcDbLine
 10
3668.899996747767
 20
2016.712100252295
 11
3667.899996816564
 21
2017.712102278993
  0
LINE
  5
129
100
AcDbEntity
  8
0
  6
CONTINUOUS
 62
           3
100
AcDbLine
 10
3662.899996695579
 20
1746.889443144115
 11
3662.899996695579
 21
1745.889456018715
  0
LINE
  5
128
100
AcDbEntity
  8
0
  6
CONTINUOUS
 62
           3
100
AcDbLine
 10
3662.899996695579
 20
1763.489448472901
 11
3662.899996695579
 21
1756.889448508606
  0
LINE
  5
127
100
AcDbEntity
  8
0
  6
CONTINUOUS
 62
           3
100
AcDbLine
 10
3662.899996695579
 20
1772.246875807596
 11
3662.899996695579
 21
1769.289449796099
  0
LINE
  5
126
100
AcDbEntity
  8
0
  6
CONTINUOUS
 62
           3
100
AcDbLine
 10
3662.899996695579
 20
2012.689442380997
 11
3662.899996695579
 21
1774.082296535493
  0
LINE
  5
125
100
AcDbEntity
  8
0
  6
CONTINUOUS
 62
           3
100
AcDbLine
 10
3662.899996695579
 20
2016.712100252295
 11
3662.899996695579
 21
2014.289454564198
  0
LINE
  5
124
100
AcDbEntity
  8
0
  6
CONTINUOUS
 62
           3
100
AcDbLine
 10
3668.899996747767
 20
2014.289454564198
 11
3668.899996747767
 21
2016.712100252295
  0
LINE
  5
123
100
AcDbEntity
  8
0
  6
CONTINUOUS
 62
           3
100
AcDbLine
 10
3668.899996747767
 20
1774.082296535493
 11
3668.899996747767
 21
2012.689442380997
  0
LINE
  5
122
100
AcDbEntity
  8
0
  6
CONTINUOUS
 62
           3
100
AcDbLine
 10
3668.899996747767
 20
1769.289449796099
 11
3668.899996747767
 21
1772.246875807596
  0
LINE
  5
121
100
AcDbEntity
  8
0
  6
CONTINUOUS
 62
           3
100
AcDbLine
 10
3668.899996747767
 20
1756.889448508606
 11
3668.899996747767
 21
1763.489448472901
  0
LINE
  5
120
100
AcDbEntity
  8
0
  6
CONTINUOUS
 62
           3
100
AcDbLine
 10
3668.899996747767
 20
1745.889456018715
 11
3668.899996747767
 21
1746.889443144115
  0
LINE
  5
11F
100
AcDbEntity
  8
0
  6
CONTINUOUS
 62
           3
100
AcDbLine
 10
3619.899996632415
 20
2014.289454564198
 11
3619.899996632415
 21
2044.28945575637
  0
LINE
  5
11E
100
AcDbEntity
  8
0
  6
CONTINUOUS
 62
           3
100
AcDbLine
 10
3619.899996632415
 20
1929.289449944965
 11
3619.899996632415
 21
2012.689442380997
  0
LINE
  5
11D
100
AcDbEntity
  8
0
  6
CONTINUOUS
 62
           3
100
AcDbLine
 10
3619.899996632415
 20
1770.489447757595
 11
3619.899996632415
 21
1928.089448258066
  0
LINE
  5
11C
100
AcDbEntity
  8
0
  6
CONTINUOUS
 62
           3
100
AcDbLine
 10
3619.899996632415
 20
1745.889456018715
 11
3619.899996632415
 21
1769.289449796099
  0
LINE
  5
11B
100
AcDbEntity
  8
0
  6
CONTINUOUS
 62
           3
100
AcDbLine
 10
3611.899995321016
 20
1744.289443835816
 11
3611.899995321016
 21
1694.289446815958
  0
LINE
  5
11A
100
AcDbEntity
  8
0
  6
CONTINUOUS
 62
           3
100
AcDbLine
 10
3611.899995321016
 20
1769.289449796099
 11
3611.899995321016
 21
1745.889456018715
  0
LINE
  5
119
100
AcDbEntity
  8
0
  6
CONTINUOUS
 62
           3
100
AcDbLine
 10
3611.899995321016
 20
1928.089448258066
 11
3611.899995321016
 21
1770.489447757595
  0
LINE
  5
118
100
AcDbEntity
  8
0
  6
CONTINUOUS
 62
           3
100
AcDbLine
 10
3611.899995321016
 20
2012.689442380997
 11
3611.899995321016
 21
1929.289449944965
  0
LINE
  5
117
100
AcDbEntity
  8
0
  6
CONTINUOUS
 62
           3
100
AcDbLine
 10
3611.899995321016
 20
2044.28945575637
 11
3611.899995321016
 21
2014.289454564198
  0
LINE
  5
116
100
AcDbEntity
  8
0
  6
CONTINUOUS
 62
           3
100
AcDbLine
 10
3719.89999812233
 20
2014.289454564198
 11
3719.89999812233
 21
2020.289449200001
  0
LINE
  5
115
100
AcDbEntity
  8
0
  6
CONTINUOUS
 62
           3
100
AcDbLine
 10
3719.89999812233
 20
1929.289449944965
 11
3719.89999812233
 21
2012.689442380997
  0
LINE
  5
114
100
AcDbEntity
  8
0
  6
CONTINUOUS
 62
           3
100
AcDbLine
 10
3719.89999812233
 20
1770.489447757595
 11
3719.89999812233
 21
1928.089448258066
  0
LINE
  5
113
100
AcDbEntity
  8
0
  6
CONTINUOUS
 62
           3
100
AcDbLine
 10
3719.89999812233
 20
1745.889456018715
 11
3719.89999812233
 21
1769.289449796099
  0
LINE
  5
112
100
AcDbEntity
  8
0
  6
CONTINUOUS
 62
           3
100
AcDbLine
 10
3719.89999812233
 20
1694.289446815958
 11
3719.89999812233
 21
1744.289443835816
  0
LINE
  5
111
100
AcDbEntity
  8
0
  6
CONTINUOUS
 62
           3
100
AcDbLine
 10
3711.899996810936
 20
1744.289443835816
 11
3711.899996810936
 21
1694.289446815958
  0
LINE
  5
110
100
AcDbEntity
  8
0
  6
CONTINUOUS
 62
           3
100
AcDbLine
 10
3711.899996810936
 20
1769.289449796099
 11
3711.899996810936
 21
1745.889456018715
  0
LINE
  5
10F
100
AcDbEntity
  8
0
  6
CONTINUOUS
 62
           3
100
AcDbLine
 10
3711.899996810936
 20
1928.089448258066
 11
3711.899996810936
 21
1770.489447757595
  0
LINE
  5
10E
100
AcDbEntity
  8
0
  6
CONTINUOUS
 62
           3
100
AcDbLine
 10
3711.899996810936
 20
2012.689442380997
 11
3711.899996810936
 21
1929.289449944965
  0
LINE
  5
10D
100
AcDbEntity
  8
0
  6
CONTINUOUS
 62
           3
100
AcDbLine
 10
3711.899996810936
 20
2020.289449200001
 11
3711.899996810936
 21
2014.289454564198
  0
LINE
  5
10C
100
AcDbEntity
  8
0
  6
CONTINUOUS
 62
           3
100
AcDbLine
 10
3660.126493853976
 20
1747.336030945314
 11
3660.899996833477
 21
1746.889443144115
  0
LINE
  5
10B
100
AcDbEntity
  8
0
  6
CONTINUOUS
 62
           3
100
AcDbLine
 10
3670.899996609868
 20
1746.889443144115
 11
3671.673499589369
 21
1747.336030945314
  0
LINE
  5
10A
100
AcDbEntity
  8
0
  6
CONTINUOUS
 62
           3
100
AcDbLine
 10
3671.673499589369
 20
1751.442865476111
 11
3670.899996609868
 21
1751.88945327701
  0
LINE
  5
109
100
AcDbEntity
  8
0
  6
CONTINUOUS
 62
           3
100
AcDbLine
 10
3660.899996833477
 20
1751.88945327701
 11
3660.126493853976
 21
1751.442865476111
  0
LINE
  5
108
100
AcDbEntity
  8
0
  6
CONTINUOUS
 62
           3
100
AcDbLine
 10
3660.126493853976
 20
1752.336026176912
 11
3660.899996833477
 21
1751.88945327701
  0
LINE
  5
107
100
AcDbEntity
  8
0
  6
CONTINUOUS
 62
           3
100
AcDbLine
 10
3670.899996609868
 20
1751.88945327701
 11
3671.673499589369
 21
1752.336026176912
  0
LINE
  5
106
100
AcDbEntity
  8
0
  6
CONTINUOUS
 62
           3
100
AcDbLine
 10
3671.673499589369
 20
1756.442868158207
 11
3670.899996609868
 21
1756.889448508606
  0
LINE
  5
105
100
AcDbEntity
  8
0
  6
CONTINUOUS
 62
           3
100
AcDbLine
 10
3660.899996833477
 20
1756.889448508606
 11
3660.126493853976
 21
1756.442868158207
  0
LINE
  5
104
100
AcDbEntity
  8
0
  6
CONTINUOUS
 62
           3
100
AcDbLine
 10
3660.126493853976
 20
1739.736036405124
 11
3660.899996833477
 21
1739.289448603922
  0
LINE
  5
103
100
AcDbEntity
  8
0
  6
CONTINUOUS
 62
           3
100
AcDbLine
 10
3670.899996609868
 20
1739.289448603922
 11
3671.673499589369
 21
1739.736036405124
  0
LINE
  5
102
100
AcDbEntity
  8
0
  6
CONTINUOUS
 62
           3
100
AcDbLine
 10
3671.673499589369
 20
1743.842870935918
 11
3670.899996609868
 21
1744.289443835816
  0
LINE
  5
101
100
AcDbEntity
  8
0
  6
CONTINUOUS
 62
           3
100
AcDbLine
 10
3660.899996833477
 20
1744.289443835816
 11
3660.126493853976
 21
1743.842870935918
  0
LINE
  5
100
100
AcDbEntity
  8
0
  6
CONTINUOUS
 62
           3
100
AcDbLine
 10
3671.673499589369
 20
1738.842860803023
 11
3670.899996609868
 21
1739.289448603922
  0
LINE
  5
FF
100
AcDbEntity
  8
0
  6
CONTINUOUS
 62
           3
100
AcDbLine
 10
3660.899996833477
 20
1739.289448603922
 11
3660.126493853976
 21
1738.842860803023
  0
LINE
  5
FE
100
AcDbEntity
  8
0
  6
CONTINUOUS
 62
           3
100
AcDbLine
 10
3670.899996609868
 20
1734.289453372323
 11
3671.673499589369
 21
1734.736026272225
  0
LINE
  5
FD
100
AcDbEntity
  8
0
  6
CONTINUOUS
 62
           3
100
AcDbLine
 10
3660.126493853976
 20
1734.736026272225
 11
3660.899996833477
 21
1734.289453372323
  0
LINE
  5
FC
100
AcDbEntity
  8
0
  6
CONTINUOUS
 62
           3
100
AcDbLine
 10
3619.899996632415
 20
1694.289446815958
 11
3619.899996632415
 21
1744.289443835816
  0
LINE
  5
FB
100
AcDbEntity
  8
1
  6
CONTINUOUS
 62
           3
100
AcDbLine
 10
4147.500000000004
 20
2308.289449200001
 11
3999.899996810936
 21
2308.289449200001
  0
LINE
  5
FA
100
AcDbEntity
  8
1
  6
CONTINUOUS
 62
           3
100
AcDbLine
 10
4147.500000000004
 20
2300.289449200002
 11
3999.899998122329
 21
2300.289449200002
  0
LINE
  5
F9
100
AcDbEntity
  8
1
  6
CONTINUOUS
 62
           7
100
AcDbLine
 10
3300.000000000005
 20
2132.289449200001
 11
3300.000000000005
 21
2019.289449200001
  0
LINE
  5
F8
100
AcDbEntity
  8
1
  6
CONTINUOUS
 62
           7
100
AcDbLine
 10
3480.000000000005
 20
2132.289449200002
 11
3300.000000000005
 21
2132.289449200001
  0
LINE
  5
F7
100
AcDbEntity
  8
1
  6
CONTINUOUS
 62
           7
100
AcDbLine
 10
3480.000000000005
 20
2019.289449200001
 11
3480.000000000005
 21
2132.289449200002
  0
LINE
  5
F6
100
AcDbEntity
  8
1
  6
CONTINUOUS
 62
           7
100
AcDbLine
 10
3300.000000000005
 20
2019.289449200001
 11
3480.000000000005
 21
2019.289449200001
  0
LINE
  5
F5
100
AcDbEntity
  8
1
  6
CONTINUOUS
 62
           4
100
AcDbLine
 10
3730.000000000004
 20
2120.778213355298
 11
3730.000000000004
 21
2359.289449200002
  0
LINE
  5
F4
100
AcDbEntity
  8
1
  6
CONTINUOUS
 62
           7
100
AcDbLine
 10
3750.000000000004
 20
2163.446676030839
 11
3750.000000000003
 21
2379.289449200002
  0
LINE
  5
F3
100
AcDbEntity
  8
1
  6
CONTINUOUS
 62
           4
100
AcDbLine
 10
3770.000000000003
 20
2180.120581534582
 11
3770.000000000004
 21
899.289449200001
  0
LINE
  5
F2
100
AcDbEntity
  8
1
  6
CONTINUOUS
 62
           7
100
AcDbLine
 10
-250.0
 20
2379.289449200001
 11
-250.0
 21
2143.034019186045
  0
LINE
  5
F1
100
AcDbEntity
  8
1
  6
CONTINUOUS
 62
           7
100
AcDbLine
 10
250.0
 20
2143.034019186045
 11
250.0
 21
1179.289449200001
  0
LINE
  5
F0
100
AcDbEntity
  8
1
  6
DOT_CENTER
 62
           3
100
AcDbLine
 10
8.472255321879
 20
1719.490297527052
 11
8.472255321879
 21
1629.491726527052
  0
LINE
  5
EF
100
AcDbEntity
  8
1
  6
DOT_CENTER
 62
           3
100
AcDbLine
 10
53.472255321879
 20
1674.490297527052
 11
-36.525199678127
 21
1674.490297527052
  0
LINE
  5
EE
100
AcDbEntity
  8
1
  6
CONTINUOUS
 62
           3
100
AcDbLine
 10
4.936660321884
 20
1702.620160527062
 11
2.548714321875
 21
1675.363036527062
  0
LINE
  5
ED
100
AcDbEntity
  8
1
  6
CONTINUOUS
 62
           3
100
AcDbLine
 10
2.548714321875
 20
1673.617558527061
 11
4.936660321884
 21
1646.360434527061
  0
LINE
  5
EC
100
AcDbEntity
  8
1
  6
CONTINUOUS
 62
           3
100
AcDbLine
 10
12.007850321894
 20
1702.620160527062
 11
14.395796321875
 21
1675.363036527062
  0
LINE
  5
EB
100
AcDbEntity
  8
1
  6
CONTINUOUS
 62
           3
100
AcDbLine
 10
14.395796321875
 20
1673.617558527061
 11
12.007850321894
 21
1646.360434527061
  0
LINE
  5
EA
100
AcDbEntity
  8
1
  6
CONTINUOUS
 62
           7
100
AcDbLine
 10
75.0
 20
2025.572441587803
 11
-1075.0
 21
2025.572441587803
  0
LINE
  5
E9
100
AcDbEntity
  8
1
  6
CONTINUOUS
 62
           7
100
AcDbLine
 10
-1075.0
 20
1320.802975998367
 11
-1075.0
 21
2025.572441587803
  0
LINE
  5
E8
100
AcDbEntity
  8
1
  6
CONTINUOUS
 62
           7
100
AcDbLine
 10
75.0
 20
1320.802975998367
 11
75.0
 21
2025.572441587803
  0
LINE
  5
E7
100
AcDbEntity
  8
1
  6
CONTINUOUS
 62
           7
100
AcDbLine
 10
-1075.0
 20
1320.802975998367
 11
75.0
 21
1320.802975998367
  0
LINE
  5
E6
100
AcDbEntity
  8
___S__
  6
DOT_CENTER
 62
           3
100
AcDbLine
 10
-1074.999999999975
 20
2000.342286486499
 11
-1074.999999999976
 21
1915.346576255391
  0
LINE
  5
E5
100
AcDbEntity
  8
____
  6
CONTINUOUS
 62
           3
100
AcDbLine
 10
-1069.595947044857
 20
1993.738524706232
 11
-1069.595947044857
 21
1991.860593958108
  0
LINE
  5
E4
100
AcDbEntity
  8
____
  6
CONTINUOUS
 62
           3
100
AcDbLine
 10
-1079.912775413719
 20
1994.208007393265
 11
-1070.087224586232
 21
1994.208007393265
  0
LINE
  5
E3
100
AcDbEntity
  8
____
  6
CONTINUOUS
 62
           3
100
AcDbLine
 10
-1080.404052955094
 20
1991.860593958109
 11
-1080.404052955094
 21
1993.738524706232
  0
LINE
  5
E2
100
AcDbEntity
  8
____
  6
CONTINUOUS
 62
           3
100
AcDbLine
 10
-1069.497691536591
 20
1956.179909743778
 11
-1080.502308463369
 21
1956.179909743778
  0
LINE
  5
E1
100
AcDbEntity
  8
____
  6
CONTINUOUS
 62
           3
100
AcDbLine
 10
-1069.497691536591
 20
1991.860593958108
 11
-1069.497691536591
 21
1956.179909743778
  0
LINE
  5
E0
100
AcDbEntity
  8
____
  6
CONTINUOUS
 62
           3
100
AcDbLine
 10
-1080.502308463368
 20
1991.860593958109
 11
-1069.497691536591
 21
1991.860593958108
  0
LINE
  5
DF
100
AcDbEntity
  8
____
  6
CONTINUOUS
 62
           3
100
AcDbLine
 10
-1080.502308463369
 20
1956.179909743778
 11
-1080.502308463368
 21
1991.860593958109
  0
LINE
  5
DE
100
AcDbEntity
  8
____
  6
CONTINUOUS
 62
           3
100
AcDbLine
 10
-1080.404052955096
 20
1917.68232940726
 11
-1080.404052955096
 21
1919.560260155384
  0
LINE
  5
DD
100
AcDbEntity
  8
____
  6
CONTINUOUS
 62
           3
100
AcDbLine
 10
-1070.087224586232
 20
1917.212846720231
 11
-1079.912775413721
 21
1917.212846720231
  0
LINE
  5
DC
100
AcDbEntity
  8
____
  6
CONTINUOUS
 62
           3
100
AcDbLine
 10
-1069.595947044857
 20
1919.560260155384
 11
-1069.595947044857
 21
1917.68232940726
  0
LINE
  5
DB
100
AcDbEntity
  8
____
  6
CONTINUOUS
 62
           3
100
AcDbLine
 10
-1080.158414184408
 20
1956.179909743778
 11
-1080.158414184408
 21
1955.240944369716
  0
LINE
  5
DA
100
AcDbEntity
  8
____
  6
CONTINUOUS
 62
           3
100
AcDbLine
 10
-1069.841585815545
 20
1956.179909743778
 11
-1080.158414184408
 21
1956.179909743778
  0
LINE
  5
D9
100
AcDbEntity
  8
____
  6
CONTINUOUS
 62
           3
100
AcDbLine
 10
-1069.841585815545
 20
1955.240944369716
 11
-1069.841585815545
 21
1956.179909743778
  0
LINE
  5
D8
100
AcDbEntity
  8
____
  6
CONTINUOUS
 62
           3
100
AcDbLine
 10
-1080.404052955094
 20
1993.738524706232
 11
-1069.595947044857
 21
1993.738524706232
  0
LINE
  5
D7
100
AcDbEntity
  8
____
  6
CONTINUOUS
 62
           3
100
AcDbLine
 10
-1080.502308463369
 20
1955.240944369716
 11
-1069.497691536591
 21
1955.240944369716
  0
LINE
  5
D6
100
AcDbEntity
  8
____
  6
CONTINUOUS
 62
           3
100
AcDbLine
 10
-1080.502308463369
 20
1919.560260155384
 11
-1080.502308463369
 21
1955.240944369716
  0
LINE
  5
D5
100
AcDbEntity
  8
____
  6
CONTINUOUS
 62
           3
100
AcDbLine
 10
-1069.497691536591
 20
1919.560260155384
 11
-1080.502308463369
 21
1919.560260155384
  0
LINE
  5
D4
100
AcDbEntity
  8
____
  6
CONTINUOUS
 62
           3
100
AcDbLine
 10
-1069.497691536591
 20
1955.240944369716
 11
-1069.497691536591
 21
1919.560260155384
  0
LINE
  5
D3
100
AcDbEntity
  8
____
  6
CONTINUOUS
 62
           3
100
AcDbLine
 10
-1080.404052955094
 20
1993.738524706232
 11
-1079.912775413719
 21
1994.208007393265
  0
LINE
  5
D2
100
AcDbEntity
  8
____
  6
CONTINUOUS
 62
           3
100
AcDbLine
 10
-1070.087224586232
 20
1994.208007393265
 11
-1069.595947044857
 21
1993.738524706232
  0
LINE
  5
D1
100
AcDbEntity
  8
____
  6
CONTINUOUS
 62
           3
100
AcDbLine
 10
-1079.912775413721
 20
1917.212846720231
 11
-1080.404052955096
 21
1917.68232940726
  0
LINE
  5
D0
100
AcDbEntity
  8
____
  6
CONTINUOUS
 62
           3
100
AcDbLine
 10
-1069.595947044857
 20
1917.68232940726
 11
-1070.087224586232
 21
1917.212846720231
  0
LINE
  5
CF
100
AcDbEntity
  8
____
  6
CONTINUOUS
 62
           3
100
AcDbLine
 10
-1080.404052955096
 20
1917.68232940726
 11
-1069.595947044857
 21
1917.68232940726
  0
LINE
  5
CE
100
AcDbEntity
  8
____
  6
CONTINUOUS
 62
           3
100
AcDbLine
 10
-1080.404052955119
 20
1363.692758717207
 11
-1069.595947044882
 21
1363.692758717207
  0
LINE
  5
CD
100
AcDbEntity
  8
____
  6
CONTINUOUS
 62
           3
100
AcDbLine
 10
-1069.595947044882
 20
1363.692758717207
 11
-1070.087224586257
 21
1363.223276030176
  0
LINE
  5
CC
100
AcDbEntity
  8
____
  6
CONTINUOUS
 62
           3
100
AcDbLine
 10
-1079.912775413746
 20
1363.223276030176
 11
-1080.404052955119
 21
1363.692758717207
  0
LINE
  5
CB
100
AcDbEntity
  8
____
  6
CONTINUOUS
 62
           3
100
AcDbLine
 10
-1070.087224586255
 20
1440.218436703211
 11
-1069.59594704488
 21
1439.74895401618
  0
LINE
  5
CA
100
AcDbEntity
  8
____
  6
CONTINUOUS
 62
           3
100
AcDbLine
 10
-1080.404052955118
 20
1439.74895401618
 11
-1079.912775413744
 21
1440.218436703211
  0
LINE
  5
C9
100
AcDbEntity
  8
____
  6
CONTINUOUS
 62
           3
100
AcDbLine
 10
-1069.497691536607
 20
1401.251373679663
 11
-1069.497691536609
 21
1365.57068946533
  0
LINE
  5
C8
100
AcDbEntity
  8
____
  6
CONTINUOUS
 62
           3
100
AcDbLine
 10
-1069.497691536609
 20
1365.57068946533
 11
-1080.502308463385
 21
1365.57068946533
  0
LINE
  5
C7
100
AcDbEntity
  8
____
  6
CONTINUOUS
 62
           3
100
AcDbLine
 10
-1080.502308463385
 20
1365.57068946533
 11
-1080.502308463385
 21
1401.251373679663
  0
LINE
  5
C6
100
AcDbEntity
  8
____
  6
CONTINUOUS
 62
           3
100
AcDbLine
 10
-1080.502308463385
 20
1401.251373679663
 11
-1069.497691536607
 21
1401.251373679663
  0
LINE
  5
C5
100
AcDbEntity
  8
____
  6
CONTINUOUS
 62
           3
100
AcDbLine
 10
-1080.404052955118
 20
1439.74895401618
 11
-1069.59594704488
 21
1439.74895401618
  0
LINE
  5
C4
100
AcDbEntity
  8
____
  6
CONTINUOUS
 62
           3
100
AcDbLine
 10
-1069.841585815569
 20
1401.251373679663
 11
-1069.841585815569
 21
1402.190339053724
  0
LINE
  5
C3
100
AcDbEntity
  8
____
  6
CONTINUOUS
 62
           3
100
AcDbLine
 10
-1069.841585815569
 20
1402.190339053724
 11
-1080.158414184431
 21
1402.190339053725
  0
LINE
  5
C2
100
AcDbEntity
  8
____
  6
CONTINUOUS
 62
           3
100
AcDbLine
 10
-1080.158414184431
 20
1402.190339053725
 11
-1080.158414184431
 21
1401.251373679663
  0
LINE
  5
C1
100
AcDbEntity
  8
____
  6
CONTINUOUS
 62
           3
100
AcDbLine
 10
-1069.595947044882
 20
1365.57068946533
 11
-1069.595947044882
 21
1363.692758717207
  0
LINE
  5
C0
100
AcDbEntity
  8
____
  6
CONTINUOUS
 62
           3
100
AcDbLine
 10
-1070.087224586257
 20
1363.223276030176
 11
-1079.912775413746
 21
1363.223276030176
  0
LINE
  5
BF
100
AcDbEntity
  8
____
  6
CONTINUOUS
 62
           3
100
AcDbLine
 10
-1080.404052955119
 20
1363.692758717207
 11
-1080.404052955119
 21
1365.57068946533
  0
LINE
  5
BE
100
AcDbEntity
  8
____
  6
CONTINUOUS
 62
           3
100
AcDbLine
 10
-1080.502308463385
 20
1402.190339053725
 11
-1080.502308463384
 21
1437.871023268057
  0
LINE
  5
BD
100
AcDbEntity
  8
____
  6
CONTINUOUS
 62
           3
100
AcDbLine
 10
-1080.502308463384
 20
1437.871023268057
 11
-1069.497691536607
 21
1437.871023268057
  0
LINE
  5
BC
100
AcDbEntity
  8
____
  6
CONTINUOUS
 62
           3
100
AcDbLine
 10
-1069.497691536607
 20
1437.871023268057
 11
-1069.497691536607
 21
1402.190339053724
  0
LINE
  5
BB
100
AcDbEntity
  8
____
  6
CONTINUOUS
 62
           3
100
AcDbLine
 10
-1069.497691536607
 20
1402.190339053724
 11
-1080.502308463385
 21
1402.190339053725
  0
LINE
  5
BA
100
AcDbEntity
  8
____
  6
CONTINUOUS
 62
           3
100
AcDbLine
 10
-1080.404052955118
 20
1437.871023268057
 11
-1080.404052955118
 21
1439.74895401618
  0
LINE
  5
B9
100
AcDbEntity
  8
____
  6
CONTINUOUS
 62
           3
100
AcDbLine
 10
-1079.912775413744
 20
1440.218436703211
 11
-1070.087224586255
 21
1440.218436703211
  0
LINE
  5
B8
100
AcDbEntity
  8
____
  6
CONTINUOUS
 62
           3
100
AcDbLine
 10
-1069.59594704488
 20
1439.74895401618
 11
-1069.59594704488
 21
1437.871023268057
  0
LINE
  5
B7
100
AcDbEntity
  8
___S__
  6
DOT_CENTER
 62
           3
100
AcDbLine
 10
-1075.0
 20
1446.352715796462
 11
-1075.000000000001
 21
1361.357005565336
  0
LINE
  5
B6
100
AcDbEntity
  8
1
  6
CONTINUOUS
 62
           7
100
AcDbLine
 10
-1069.497691536609
 20
1365.802975998369
 11
75.0
 21
1365.802975998369
  0
LINE
  5
B5
100
AcDbEntity
  8
1
  6
CONTINUOUS
 62
           7
100
AcDbLine
 10
1250.000000000001
 20
2143.034019186042
 11
-1250.0
 21
2143.034019186042
  0
LINE
  5
B4
100
AcDbEntity
  8
1
  6
CONTINUOUS
 62
           7
100
AcDbLine
 10
3750.000000000003
 20
879.289449200001
 11
3750.000000000004
 21
2146.582722728173
  0
LINE
  5
B3
100
AcDbEntity
  8
1
  6
CONTINUOUS
 62
           4
100
AcDbLine
 10
3730.000000000004
 20
899.289449200001
 11
3730.000000000004
 21
2094.814552444268
  0
LINE
  5
B2
100
AcDbEntity
  8
1
  6
CONTINUOUS
 62
           4
100
AcDbLine
 10
3770.000000000004
 20
2359.289449200002
 11
3770.000000000003
 21
2193.754118416337
  0
LINE
  5
B1
100
AcDbEntity
  8
1
  6
CONTINUOUS
 62
           7
100
AcDbLine
 10
-1249.999999999996
 20
4209.305165759572
 11
-1249.999999999996
 21
5189.305165759571
  0
LINE
  5
B0
100
AcDbEntity
  8
1
  6
CONTINUOUS
 62
           7
100
AcDbLine
 10
1250.000000000003
 20
4209.305165759572
 11
1250.000000000003
 21
5189.305165759571
  0
LINE
  5
AF
100
AcDbEntity
  8
1
  6
CONTINUOUS
 62
           7
100
AcDbLine
 10
-1299.999999999996
 20
4209.305165759572
 11
1300.000000000003
 21
4209.305165759572
  0
LINE
  5
AE
100
AcDbEntity
  8
1
  6
CONTINUOUS
 62
           7
100
AcDbLine
 10
-1249.999999999999
 20
2865.45368490481
 11
-1249.999999999999
 21
2879.289449200001
  0
LINE
  5
AD
100
AcDbEntity
  8
1
  6
CONTINUOUS
 62
           7
100
AcDbLine
 10
2750.000000000004
 20
3029.289449200001
 11
2770.000000000004
 21
3029.289449200001
  0
LINE
  5
AC
100
AcDbEntity
  8
1
  6
CONTINUOUS
 62
           7
100
AcDbLine
 10
2750.000000000003
 20
2929.289449200002
 11
2750.000000000004
 21
3029.289449200001
  0
LINE
  5
AB
100
AcDbEntity
  8
1
  6
CONTINUOUS
 62
           7
100
AcDbLine
 10
-1299.999999999999
 20
3029.289449200001
 11
1300.000000000001
 21
3029.289449200001
  0
LINE
  5
AA
100
AcDbEntity
  8
1
  6
CONTINUOUS
 62
           7
100
AcDbLine
 10
1300.000000000001
 20
2879.289449200001
 11
1300.000000000001
 21
3029.289449200001
  0
LINE
  5
A9
100
AcDbEntity
  8
1
  6
CONTINUOUS
 62
           7
100
AcDbLine
 10
-1299.999999999999
 20
2879.289449200001
 11
-1299.999999999999
 21
3029.289449200001
  0
LINE
  5
A8
100
AcDbEntity
  8
1
  6
CONTINUOUS
 62
           7
100
AcDbLine
 10
1800.000000000001
 20
379.2894492
 11
-1799.999999999999
 21
379.2894492
  0
LINE
  5
A7
100
AcDbEntity
  8
1
  6
CONTINUOUS
 62
           7
100
AcDbLine
 10
1250.000000000001
 20
2279.289449200001
 11
-1249.999999999999
 21
2279.289449200001
  0
LINE
  5
A6
100
AcDbEntity
  8
1
  6
CONTINUOUS
 62
           7
100
AcDbLine
 10
-249.999999999999
 20
854.289449200001
 11
-249.999999999999
 21
779.2894492
  0
LINE
  5
A5
100
AcDbEntity
  8
1
  6
DOT_CENTER
 62
           2
100
AcDbLine
 10
0.0
 20
879.2894492
 11
0.0
 21
249.2894492
  0
LINE
  5
A4
100
AcDbEntity
  8
1
  6
DOT_CENTER
 62
           2
100
AcDbLine
 10
0.0
 20
3436.090018538091
 11
0.0
 21
879.2894492
  0
LINE
  5
A3
100
AcDbEntity
  8
1
  6
CONTINUOUS
 62
           7
100
AcDbLine
 10
1235.000000000001
 20
919.2894492
 11
15.0
 21
919.2894492
  0
LINE
  5
A2
100
AcDbEntity
  8
1
  6
CONTINUOUS
 62
           7
100
AcDbLine
 10
-1249.999999999999
 20
879.2894492
 11
-1234.999999999999
 21
879.2894492
  0
LINE
  5
A1
100
AcDbEntity
  8
1
  6
CONTINUOUS
 62
           7
100
AcDbLine
 10
1235.000000000001
 20
879.2894492
 11
1250.000000000001
 21
879.2894492
  0
LINE
  5
A0
100
AcDbEntity
  8
1
  6
CONTINUOUS
 62
           7
100
AcDbLine
 10
-1249.999999999999
 20
1179.289449200001
 11
1250.000000000001
 21
1179.289449200001
  0
LINE
  5
9F
100
AcDbEntity
  8
1
  6
CONTINUOUS
 62
           7
100
AcDbLine
 10
-1249.999999999999
 20
893.14277186763
 11
-1249.999999999999
 21
951.896534851513
  0
LINE
  5
9E
100
AcDbEntity
  8
1
  6
CONTINUOUS
 62
           7
100
AcDbLine
 10
15.0
 20
919.2894492
 11
15.0
 21
854.289449200001
  0
LINE
  5
9D
100
AcDbEntity
  8
1
  6
CONTINUOUS
 62
           7
100
AcDbLine
 10
1235.000000000001
 20
919.2894492
 11
1235.000000000001
 21
854.289449200001
  0
LINE
  5
9C
100
AcDbEntity
  8
1
  6
CONTINUOUS
 62
           7
100
AcDbLine
 10
-1249.999999999999
 20
779.2894492
 11
1250.000000000001
 21
779.2894492
  0
LINE
  5
9B
100
AcDbEntity
  8
1
  6
CONTINUOUS
 62
           7
100
AcDbLine
 10
1250.000000000001
 20
429.2894492
 11
-1249.999999999999
 21
429.2894492
  0
LINE
  5
9A
100
AcDbEntity
  8
1
  6
CONTINUOUS
 62
           7
100
AcDbLine
 10
1250.000000000001
 20
379.2894492
 11
1250.000000000001
 21
2879.289449200001
  0
LINE
  5
99
100
AcDbEntity
  8
1
  6
CONTINUOUS
 62
           7
100
AcDbLine
 10
-1249.999999999999
 20
379.2894492
 11
-1249.999999999999
 21
2865.45368490481
  0
LINE
  5
98
100
AcDbEntity
  8
1
  6
CONTINUOUS
 62
           7
100
AcDbLine
 10
1300.000000000001
 20
2879.289449200001
 11
-1299.999999999999
 21
2879.289449200001
  0
LINE
  5
97
100
AcDbEntity
  8
1
  6
CONTINUOUS
 62
           7
100
AcDbLine
 10
-1299.999999999999
 20
2894.289449200001
 11
-1299.999999999999
 21
379.2894492
  0
LINE
  5
96
100
AcDbEntity
  8
1
  6
CONTINUOUS
 62
           7
100
AcDbLine
 10
1300.000000000001
 20
379.2894492
 11
1300.000000000001
 21
2894.289449200001
  0
LINE
  5
95
100
AcDbEntity
  8
1
  6
CONTINUOUS
 62
           7
100
AcDbLine
 10
-1249.999999999999
 20
854.289449200001
 11
1250.000000000001
 21
854.289449200001
  0
LINE
  5
94
100
AcDbEntity
  8
1
  6
CONTINUOUS
 62
           7
100
AcDbLine
 10
-1234.999999999999
 20
854.289449200001
 11
-1234.999999999999
 21
919.2894492
  0
LINE
  5
93
100
AcDbEntity
  8
1
  6
CONTINUOUS
 62
           7
100
AcDbLine
 10
-15.0
 20
854.289449200001
 11
-15.0
 21
919.2894492
  0
LINE
  5
92
100
AcDbEntity
  8
1
  6
CONTINUOUS
 62
           7
100
AcDbLine
 10
-15.0
 20
919.2894492
 11
-1234.999999999999
 21
919.2894492
  0
LINE
  5
91
100
AcDbEntity
  8
1
  6
CONTINUOUS
 62
           7
100
AcDbLine
 10
-15.0
 20
879.2894492
 11
15.0
 21
879.2894492
  0
LINE
  5
90
100
AcDbEntity
  8
1
  6
CONTINUOUS
 62
           7
100
AcDbLine
 10
0.0
 20
879.2894492
 11
0.0
 21
1179.289449200001
  0
LINE
  5
8F
100
AcDbEntity
  8
1
  6
CONTINUOUS
 62
           7
100
AcDbLine
 10
-650.999999999998
 20
6189.305165759571
 11
-1299.999999999996
 21
6189.305165759571
  0
LINE
  5
8E
100
AcDbEntity
  8
1
  6
CONTINUOUS
 62
           7
100
AcDbLine
 10
0.000000000002
 20
5169.305165759571
 11
0.000000000002
 21
5189.305165759571
  0
LINE
  5
8D
100
AcDbEntity
  8
1
  6
DOT_CENTER
 62
           2
100
AcDbLine
 10
0.000000000002
 20
4086.948798670051
 11
0.000000000002
 21
6353.118619103964
  0
LINE
  5
8C
100
AcDbEntity
  8
1
  6
DOT_CENTER
 62
           2
100
AcDbLine
 10
-734.950114327327
 20
5729.305165759571
 11
570.119328732424
 21
5729.305165759571
  0
LINE
  5
8B
100
AcDbEntity
  8
1
  6
CONTINUOUS
 62
           7
100
AcDbLine
 10
3480.000000000004
 20
1969.289449200001
 11
3480.000000000004
 21
1729.289449200001
  0
LINE
  5
8A
100
AcDbEntity
  8
1
  6
CONTINUOUS
 62
           7
100
AcDbLine
 10
3300.000000000004
 20
1729.289449200001
 11
3300.000000000004
 21
1969.289449200001
  0
LINE
  5
89
100
AcDbEntity
  8
1
  6
CONTINUOUS
 62
           7
100
AcDbLine
 10
3300.000000000004
 20
1969.289449200001
 11
3480.000000000004
 21
1969.289449200001
  0
LINE
  5
88
100
AcDbEntity
  8
1
  6
CONTINUOUS
 62
           7
100
AcDbLine
 10
3480.000000000004
 20
1729.289449200001
 11
3300.000000000004
 21
1729.289449200001
  0
LINE
  5
87
100
AcDbEntity
  8
1
  6
CONTINUOUS
 62
           7
100
AcDbLine
 10
2990.000000000003
 20
2329.289449200002
 11
2800.000000000003
 21
2329.289449200002
  0
LINE
  5
86
100
AcDbEntity
  8
1
  6
CONTINUOUS
 62
           7
100
AcDbLine
 10
2800.000000000003
 20
2329.289449200002
 11
2800.000000000003
 21
2241.289449200002
  0
LINE
  5
85
100
AcDbEntity
  8
1
  6
CONTINUOUS
 62
           7
100
AcDbLine
 10
2800.000000000003
 20
2241.289449200002
 11
2990.000000000003
 21
2241.289449200002
  0
LINE
  5
84
100
AcDbEntity
  8
1
  6
CONTINUOUS
 62
           7
100
AcDbLine
 10
2990.000000000003
 20
2241.289449200002
 11
2990.000000000003
 21
2329.289449200002
  0
LINE
  5
83
100
AcDbEntity
  8
1
  6
CONTINUOUS
 62
           4
100
AcDbLine
 10
-1289.999999999996
 20
4689.305165759572
 11
-1289.999999999996
 21
4209.305165759572
  0
LINE
  5
82
100
AcDbEntity
  8
1
  6
CONTINUOUS
 62
           4
100
AcDbLine
 10
1290.000000000003
 20
4689.305165759572
 11
1290.000000000003
 21
4209.305165759572
  0
LINE
  5
81
100
AcDbEntity
  8
1
  6
CONTINUOUS
 62
           4
100
AcDbLine
 10
2750.000000000003
 20
2919.289449200002
 11
3250.000000000003
 21
2919.289449200002
  0
LINE
  5
80
100
AcDbEntity
  8
1
  6
CONTINUOUS
 62
           4
100
AcDbLine
 10
1230.000000000003
 20
4669.305165759571
 11
-1230.0
 21
4669.305165759571
  0
LINE
  5
7F
100
AcDbEntity
  8
1
  6
CONTINUOUS
 62
           4
100
AcDbLine
 10
-1230.0
 20
4669.305165759571
 11
-1229.999999999997
 21
4209.305165759572
  0
LINE
  5
7E
100
AcDbEntity
  8
1
  6
CONTINUOUS
 62
           7
100
AcDbLine
 10
5250.000000000004
 20
379.2894492
 11
2250.000000000004
 21
379.2894492
  0
LINE
  5
7D
100
AcDbEntity
  8
1
  6
CONTINUOUS
 62
           4
100
AcDbLine
 10
-1252.999999999996
 20
4689.305165759572
 11
-1252.999999999996
 21
4209.305165759572
  0
LINE
  5
7C
100
AcDbEntity
  8
1
  6
CONTINUOUS
 62
           4
100
AcDbLine
 10
980.000000000003
 20
5209.305165759571
 11
520.000000000002
 21
5209.305165759571
  0
LINE
  5
7B
100
AcDbEntity
  8
1
  6
CONTINUOUS
 62
           4
100
AcDbLine
 10
980.000000000003
 20
6169.305165759571
 11
520.000000000002
 21
6169.305165759571
  0
LINE
  5
7A
100
AcDbEntity
  8
1
  6
CONTINUOUS
 62
           4
100
AcDbLine
 10
1253.000000000003
 20
4689.305165759572
 11
1253.000000000003
 21
4209.305165759572
  0
LINE
  5
79
100
AcDbEntity
  8
1
  6
CONTINUOUS
 62
           4
100
AcDbLine
 10
1230.000000000003
 20
4669.305165759571
 11
1230.000000000003
 21
4209.305165759572
  0
LINE
  5
78
100
AcDbEntity
  8
1
  6
CONTINUOUS
 62
           4
100
AcDbLine
 10
980.000000000003
 20
6169.305165759571
 11
980.000000000003
 21
5209.305165759571
  0
LINE
  5
77
100
AcDbEntity
  8
1
  6
CONTINUOUS
 62
           7
100
AcDbLine
 10
1300.000000000003
 20
4189.305165759572
 11
1300.000000000003
 21
6189.305165759571
  0
LINE
  5
76
100
AcDbEntity
  8
1
  6
DOT_CENTER
 62
           2
100
AcDbLine
 10
4050.000000000003
 20
1054.289449200001
 11
4050.000000000003
 21
904.289449200001
  0
LINE
  5
75
100
AcDbEntity
  8
1
  6
DOT_CENTER
 62
           2
100
AcDbLine
 10
3975.000000000003
 20
979.289449200001
 11
4125.000000000003
 21
979.289449200001
  0
LINE
  5
74
100
AcDbEntity
  8
1
  6
CONTINUOUS
 62
           7
100
AcDbLine
 10
3750.000000000003
 20
2454.289449200001
 11
4750.000000000004
 21
2454.289449200001
  0
LINE
  5
73
100
AcDbEntity
  8
1
  6
CONTINUOUS
 62
           7
100
AcDbLine
 10
3750.000000000003
 20
2379.289449200002
 11
3750.000000000003
 21
2454.289449200001
  0
LINE
  5
72
100
AcDbEntity
  8
1
  6
CONTINUOUS
 62
           7
100
AcDbLine
 10
2750.000000000003
 20
2929.289449200002
 11
3250.000000000003
 21
2929.289449200002
  0
LINE
  5
71
100
AcDbEntity
  8
1
  6
CONTINUOUS
 62
           4
100
AcDbLine
 10
2750.000000000004
 20
2882.289449200002
 11
3250.000000000004
 21
2882.289449200002
  0
LINE
  5
70
100
AcDbEntity
  8
1
  6
CONTINUOUS
 62
           7
100
AcDbLine
 10
4750.000000000004
 20
2379.289449200002
 11
3250.000000000004
 21
2379.289449200002
  0
LINE
  5
6F
100
AcDbEntity
  8
1
  6
CONTINUOUS
 62
           7
100
AcDbLine
 10
4750.000000000004
 20
379.2894492
 11
4750.000000000004
 21
2454.289449200001
  0
LINE
  5
6E
100
AcDbEntity
  8
1
  6
CONTINUOUS
 62
           7
100
AcDbLine
 10
2750.000000000003
 20
379.2894492
 11
2750.000000000003
 21
2929.289449200002
  0
LINE
  5
6D
100
AcDbEntity
  8
1
  6
CONTINUOUS
 62
           7
100
AcDbLine
 10
1300.000000000003
 20
6189.305165759571
 11
1.000000000002
 21
6189.305165759571
  0
LINE
  5
6C
100
AcDbEntity
  8
1
  6
CONTINUOUS
 62
           4
100
AcDbLine
 10
-979.999999999996
 20
5209.30516575957
 11
-979.999999999996
 21
6169.305165759571
  0
LINE
  5
6B
100
AcDbEntity
  8
1
  6
CONTINUOUS
 62
           4
100
AcDbLine
 10
-979.999999999996
 20
5209.30516575957
 11
-519.999999999998
 21
5209.305165759571
  0
LINE
  5
6A
100
AcDbEntity
  8
1
  6
CONTINUOUS
 62
           7
100
AcDbLine
 10
-1299.999999999996
 20
5189.305165759571
 11
-230.525588832577
 21
5189.305165759571
  0
LINE
  5
69
100
AcDbEntity
  8
1
  6
CONTINUOUS
 62
           7
100
AcDbLine
 10
-1299.999999999996
 20
6189.305165759571
 11
-1299.999999999996
 21
4189.305165759572
  0
LINE
  5
68
100
AcDbEntity
  8
1
  6
CONTINUOUS
 62
           7
100
AcDbLine
 10
-1299.999999999996
 20
4189.305165759572
 11
1300.000000000003
 21
4189.305165759572
  0
LINE
  5
67
100
AcDbEntity
  8
1
  6
CONTINUOUS
 62
           4
100
AcDbLine
 10
2770.000000000004
 20
399.2894492
 11
3230.000000000004
 21
399.2894492
  0
LINE
  5
66
100
AcDbEntity
  8
1
  6
CONTINUOUS
 62
           4
100
AcDbLine
 10
3230.000000000004
 20
399.2894492
 11
3230.000000000004
 21
2859.289449200001
  0
LINE
  5
65
100
AcDbEntity
  8
1
  6
CONTINUOUS
 62
           4
100
AcDbLine
 10
3230.000000000004
 20
2859.289449200001
 11
2770.000000000004
 21
2859.289449200002
  0
LINE
  5
64
100
AcDbEntity
  8
1
  6
CONTINUOUS
 62
           4
100
AcDbLine
 10
2770.000000000004
 20
2859.289449200002
 11
2770.000000000004
 21
399.2894492
  0
LINE
  5
63
100
AcDbEntity
  8
1
  6
CONTINUOUS
 62
           7
100
AcDbLine
 10
3250.000000000003
 20
379.2894492
 11
3250.000000000003
 21
2929.289449200002
  0
LINE
  5
62
100
AcDbEntity
  8
1
  6
CONTINUOUS
 62
           7
100
AcDbLine
 10
3250.000000000003
 20
879.289449200001
 11
4750.000000000004
 21
879.289449200001
  0
LINE
  5
61
100
AcDbEntity
  8
1
  6
CONTINUOUS
 62
           4
100
AcDbLine
 10
4729.433325304563
 20
858.674510729885
 11
3270.000000000004
 21
858.674510729885
  0
LINE
  5
60
100
AcDbEntity
  8
1
  6
CONTINUOUS
 62
           4
100
AcDbLine
 10
3270.000000000004
 20
858.674510729885
 11
3270.000000000004
 21
399.2894492
  0
LINE
  5
5F
100
AcDbEntity
  8
1
  6
CONTINUOUS
 62
           4
100
AcDbLine
 10
3270.000000000004
 20
399.2894492
 11
4729.433325304563
 21
399.2894492
  0
LINE
  5
5E
100
AcDbEntity
  8
1
  6
CONTINUOUS
 62
           4
100
AcDbLine
 10
4729.433325304563
 20
399.2894492
 11
4729.433325304563
 21
858.674510729885
  0
LINE
  5
5D
100
AcDbEntity
  8
1
  6
CONTINUOUS
 62
           4
100
AcDbLine
 10
3730.000000000004
 20
2359.289449200002
 11
3270.000000000004
 21
2359.289449200002
  0
LINE
  5
5C
100
AcDbEntity
  8
1
  6
CONTINUOUS
 62
           4
100
AcDbLine
 10
3270.000000000004
 20
2359.289449200002
 11
3270.000000000004
 21
899.289449200001
  0
LINE
  5
5B
100
AcDbEntity
  8
1
  6
CONTINUOUS
 62
           4
100
AcDbLine
 10
3270.000000000004
 20
899.289449200001
 11
3730.000000000004
 21
899.289449200001
  0
LINE
  5
5A
100
AcDbEntity
  8
1
  6
CONTINUOUS
 62
           4
100
AcDbLine
 10
3770.000000000004
 20
899.289449200001
 11
4730.000000000003
 21
899.289449200001
  0
LINE
  5
59
100
AcDbEntity
  8
1
  6
CONTINUOUS
 62
           4
100
AcDbLine
 10
4730.000000000003
 20
899.289449200001
 11
4730.000000000003
 21
2359.289449200002
  0
LINE
  5
58
100
AcDbEntity
  8
1
  6
CONTINUOUS
 62
           4
100
AcDbLine
 10
4730.000000000003
 20
2359.289449200002
 11
3770.000000000004
 21
2359.289449200002
  0
LINE
  5
57
100
AcDbEntity
  8
1
  6
CONTINUOUS
 62
           4
100
AcDbLine
 10
520.000000000002
 20
6169.305165759571
 11
520.000000000002
 21
5209.305165759571
  0
LINE
  5
56
100
AcDbEntity
  8
1
  6
CONTINUOUS
 62
           7
100
AcDbLine
 10
500.000000000002
 20
5189.305165759571
 11
500.000000000002
 21
6189.305165759571
  0
LINE
  5
55
100
AcDbEntity
  8
1
  6
CONTINUOUS
 62
           4
100
AcDbLine
 10
-519.999999999998
 20
5209.305165759571
 11
-519.999999999998
 21
5386.876828352598
  0
LINE
  5
54
100
AcDbEntity
  8
1
  6
CONTINUOUS
 62
           7
100
AcDbLine
 10
-499.999999999998
 20
5189.305165759571
 11
-499.999999999998
 21
5363.612971943039
  0
LINE
  5
53
100
AcDbEntity
  8
1
  6
CONTINUOUS
 62
           7
100
AcDbLine
 10
-1299.999999999996
 20
4689.305165759572
 11
1300.000000000003
 21
4689.305165759572
  0
LINE
  5
52
100
AcDbEntity
  8
1
  6
CONTINUOUS
 62
           7
100
AcDbLine
 10
1000.0
 20
5189.305165759571
 11
1000.0
 21
6189.305165759571
  0
LINE
  5
51
100
AcDbEntity
  8
1
  6
CONTINUOUS
 62
           7
100
AcDbLine
 10
-1000.0
 20
5189.305165759571
 11
-1000.0
 21
6189.305165759571
  0
LINE
  5
50
100
AcDbEntity
  8
1
  6
CONTINUOUS
 62
           4
100
AcDbLine
 10
1020.0
 20
6169.305165759571
 11
1280.000000000003
 21
6169.305165759571
  0
LINE
  5
4F
100
AcDbEntity
  8
1
  6
CONTINUOUS
 62
           4
100
AcDbLine
 10
1280.000000000003
 20
6169.305165759571
 11
1280.000000000003
 21
5209.305165759571
  0
LINE
  5
4E
100
AcDbEntity
  8
1
  6
CONTINUOUS
 62
           4
100
AcDbLine
 10
1280.000000000003
 20
5209.305165759571
 11
1020.0
 21
5209.305165759571
  0
LINE
  5
4D
100
AcDbEntity
  8
1
  6
CONTINUOUS
 62
           4
100
AcDbLine
 10
1020.0
 20
5209.305165759571
 11
1020.0
 21
6169.305165759571
  0
LINE
  5
4C
100
AcDbEntity
  8
1
  6
CONTINUOUS
 62
           4
100
AcDbLine
 10
-1019.999999999996
 20
5209.305165759571
 11
-1280.0
 21
5209.305165759571
  0
LINE
  5
4B
100
AcDbEntity
  8
1
  6
CONTINUOUS
 62
           4
100
AcDbLine
 10
-1280.0
 20
5209.305165759571
 11
-1280.0
 21
6169.305165759571
  0
LINE
  5
4A
100
AcDbEntity
  8
1
  6
CONTINUOUS
 62
           4
100
AcDbLine
 10
-1280.0
 20
6169.305165759571
 11
-1019.999999999996
 21
6169.305165759571
  0
LINE
  5
49
100
AcDbEntity
  8
1
  6
CONTINUOUS
 62
           4
100
AcDbLine
 10
-1019.999999999996
 20
6169.305165759571
 11
-1019.999999999996
 21
5209.305165759571
  0
LINE
  5
48
100
AcDbEntity
  8
1
  6
CONTINUOUS
 62
           7
100
AcDbLine
 10
3135.000000000004
 20
1636.039449200003
 11
3135.000000000004
 21
1649.289449200003
  0
LINE
  5
47
100
AcDbEntity
  8
1
  6
CONTINUOUS
 62
           7
100
AcDbLine
 10
3112.500000000004
 20
1679.289449200003
 11
3112.500000000004
 21
1649.289449200003
  0
LINE
  5
46
100
AcDbEntity
  8
1
  6
CONTINUOUS
 62
           7
100
AcDbLine
 10
3137.500000000004
 20
1679.289449200003
 11
3137.500000000004
 21
1649.289449200003
  0
LINE
  5
45
100
AcDbEntity
  8
1
  6
CONTINUOUS
 62
           7
100
AcDbLine
 10
3112.500000000004
 20
1649.289449200003
 11
3137.500000000004
 21
1649.289449200003
  0
LINE
  5
44
100
AcDbEntity
  8
1
  6
CONTINUOUS
 62
           7
100
AcDbLine
 10
3115.000000000004
 20
1649.289449200003
 11
3115.000000000004
 21
1636.039449200003
  0
LINE
  5
43
100
AcDbEntity
  8
1
  6
CONTINUOUS
 62
           7
100
AcDbLine
 10
3152.000000000004
 20
1619.039449200003
 11
3230.000000000004
 21
1619.039449200003
  0
LINE
  5
42
100
AcDbEntity
  8
1
  6
CONTINUOUS
 62
           7
100
AcDbLine
 10
3152.000000000004
 20
1599.039449200003
 11
3230.000000000004
 21
1599.039449200003
  0
LINE
  5
41
100
AcDbEntity
  8
1
  6
CONTINUOUS
 62
           7
100
AcDbLine
 10
1250.000000000001
 20
2379.289449200001
 11
-1249.999999999999
 21
2379.289449200001
  0
LINE
  5
40
100
AcDbEntity
  8
1
  6
CONTINUOUS
 62
           7
100
AcDbLine
 10
3250.000000000003
 20
2929.289449200002
 11
3750.000000000004
 21
2429.289449200002
  0
LINE
  5
3F
100
AcDbEntity
  8
1
  6
CONTINUOUS
 62
           7
100
AcDbLine
 10
3750.000000000004
 20
2429.289449200002
 11
4750.000000000004
 21
2429.289449200002
  0
LINE
  5
3E
100
AcDbEntity
  8
1
  6
CONTINUOUS
 62
           7
100
AcDbLine
 10
3250.000000000004
 20
2879.289449200002
 11
2750.000000000003
 21
2879.289449200002
  0
LINE
  5
3D
100
AcDbEntity
  8
1
  6
CONTINUOUS
 62
           7
100
AcDbLine
 10
-249.999999999996
 20
5189.305165759571
 11
-249.999999999996
 21
4689.305165759572
  0
LINE
  5
3C
100
AcDbEntity
  8
1
  6
CONTINUOUS
 62
           7
100
AcDbLine
 10
-249.999999999996
 20
2879.289449200001
 11
-249.999999999996
 21
2379.289449200001
  0
LINE
  5
3B
100
AcDbEntity
  8
1
  6
CONTINUOUS
 62
           7
100
AcDbLine
 10
127.928556845359
 20
5189.305165759571
 11
1300.000000000003
 21
5189.305165759571
  0
LINE
  5
3A
100
AcDbEntity
  8
1
  6
CONTINUOUS
 62
           4
100
AcDbLine
 10
-659.999999999998
 20
6169.305165759571
 11
-979.999999999996
 21
6169.305165759571
  0
LINE
  5
39
100
AcDbEntity
  8
1
  6
CONTINUOUS
 62
           7
100
AcDbLine
 10
3000.000000000004
 20
1679.289449200003
 11
3200.000000000004
 21
1679.289449200003
  0
LINE
  5
38
100
AcDbEntity
  8
1
  6
CONTINUOUS
 62
           7
100
AcDbLine
 10
3200.000000000004
 20
1679.289449200003
 11
3200.000000000004
 21
2079.289449200002
  0
LINE
  5
37
100
AcDbEntity
  8
1
  6
CONTINUOUS
 62
           7
100
AcDbLine
 10
3200.000000000004
 20
2079.289449200002
 11
3000.000000000004
 21
2079.289449200002
  0
LINE
  5
36
100
AcDbEntity
  8
1
  6
CONTINUOUS
 62
           7
100
AcDbLine
 10
3000.000000000004
 20
2079.289449200002
 11
3000.000000000004
 21
1679.289449200003
  0
LINE
  5
35
100
AcDbEntity
  8
1
  6
CONTINUOUS
 62
           4
100
AcDbLine
 10
3200.000000000004
 20
2079.289449200002
 11
3230.000000000005
 21
2079.289449200002
  0
LINE
  5
34
100
AcDbEntity
  8
1
  6
CONTINUOUS
 62
           4
100
AcDbLine
 10
3200.000000000004
 20
1679.289449200003
 11
3230.000000000005
 21
1679.289449200003
  0
LINE
  5
33
100
AcDbEntity
  8
1
  6
CONTINUOUS
 62
           7
100
AcDbLine
 10
1300.000000000001
 20
2079.289449200002
 11
1460.000000000001
 21
2079.289449200002
  0
LINE
  5
32
100
AcDbEntity
  8
1
  6
CONTINUOUS
 62
           7
100
AcDbLine
 10
1460.000000000001
 20
2079.289449200002
 11
1460.000000000001
 21
1679.289449200003
  0
LINE
  5
31
100
AcDbEntity
  8
1
  6
CONTINUOUS
 62
           7
100
AcDbLine
 10
1460.000000000001
 20
1679.289449200003
 11
1300.000000000001
 21
1679.289449200003
  0
LINE
  5
30
100
AcDbEntity
  8
1
  6
CONTINUOUS
 62
           7
100
AcDbLine
 10
1300.000000000003
 20
4639.305165759572
 11
1460.000000000001
 21
4639.305165759572
  0
LINE
  5
2F
100
AcDbEntity
  8
1
  6
CONTINUOUS
 62
           7
100
AcDbLine
 10
1460.000000000001
 20
4639.305165759572
 11
1460.000000000001
 21
4439.305165759572
  0
LINE
  5
2E
100
AcDbEntity
  8
1
  6
CONTINUOUS
 62
           7
100
AcDbLine
 10
1460.000000000001
 20
4439.305165759572
 11
1300.000000000003
 21
4439.305165759572
  0
POINT
  5
2D
100
AcDbEntity
  8
0
 62
           3
100
AcDbPoint
 10
3583.399996721736
 20
1744.289449200119
  0
ENDSEC
  0
SECTION
  2
OBJECTS
  0
DICTIONARY
  5
19
100
AcDbDictionary
  3
ACAD_GROUP
350
1A
  3
ACAD_MLINESTYLE
350
1B
  0
DICTIONARY
  5
1A
102
{ACAD_REACTORS
330
19
102
}
100
AcDbDictionary
  0
DICTIONARY
  5
1B
102
{ACAD_REACTORS
330
19
102
}
100
AcDbDictionary
  3
STANDARD
350
1C
  0
MLINESTYLE
  5
1C
102
{ACAD_REACTORS
330
1B
102
}
100
AcDbMlineStyle
  2
STANDARD
 70
           0
  3

 62
           0
 51
90.0
 52
90.0
 71
           2
 49
0.5
 62
         256
  6
BYLAYER
 49
-0.5
 62
         256
  6
BYLAYER
  0
ENDSEC
  0
EOF
