  0
SECTION
  2
HEADER
  9
$ACADVER
  1
AC1014
  9
$ACADMAINTVER
 70
           0
  9
$DWGCODEPAGE
  3
DOS932
  9
$INSBASE
 10
0.0
 20
0.0
 30
0.0
  9
$EXTMIN
 10
1.000000000000E+20
 20
1.000000000000E+20
 30
1.000000000000E+20
  9
$EXTMAX
 10
-1.000000000000E+20
 20
-1.000000000000E+20
 30
-1.000000000000E+20
  9
$LIMMIN
 10
0.0
 20
0.0
  9
$LIMMAX
 10
0.0
 20
0.0
  9
$ORTHOMODE
 70
           0
  9
$REGENMODE
 70
           1
  9
$FILLMODE
 70
           1
  9
$QTEXTMODE
 70
           0
  9
$MIRRTEXT
 70
           1
  9
$DRAGMODE
 70
           2
  9
$LTSCALE
 40
1.0
  9
$OSMODE
 70
           0
  9
$ATTMODE
 70
           1
  9
$TEXTSIZE
 40
0.2
  9
$TRACEWID
 40
0.05
  9
$TEXTSTYLE
  7
STANDARD
  9
$CLAYER
  8
0
  9
$CELTYPE
  6
CONTINUOUS
  9
$CECOLOR
 62
         256
  9
$CELTSCALE
 40
1.0
  9
$DELOBJ
 70
           1
  9
$DISPSILH
 70
           0
  9
$DIMSCALE
 40
1.0
  9
$DIMASZ
 40
0.18
  9
$DIMEXO
 40
0.0625
  9
$DIMDLI
 40
0.38
  9
$DIMRND
 40
0.0
  9
$DIMDLE
 40
0.0
  9
$DIMEXE
 40
0.18
  9
$DIMTP
 40
0.0
  9
$DIMTM
 40
0.0
  9
$DIMTXT
 40
0.18
  9
$DIMCEN
 40
0.09
  9
$DIMTSZ
 40
0.0
  9
$DIMTOL
 70
           0
  9
$DIMLIM
 70
           0
  9
$DIMTIH
 70
           1
  9
$DIMTOH
 70
           1
  9
$DIMSE1
 70
           0
  9
$DIMSE2
 70
           0
  9
$DIMTAD
 70
           0
  9
$DIMZIN
 70
           0
  9
$DIMBLK
  1

  9
$DIMASO
 70
           1
  9
$DIMSHO
 70
           1
  9
$DIMPOST
  1

  9
$DIMAPOST
  1

  9
$DIMALT
 70
           0
  9
$DIMALTD
 70
           2
  9
$DIMALTF
 40
25.4
  9
$DIMLFAC
 40
1.0
  9
$DIMTOFL
 70
           0
  9
$DIMTVP
 40
0.0
  9
$DIMTIX
 70
           0
  9
$DIMSOXD
 70
           0
  9
$DIMSAH
 70
           0
  9
$DIMBLK1
  1

  9
$DIMBLK2
  1

  9
$DIMSTYLE
  2
STANDARD
  9
$DIMCLRD
 70
           0
  9
$DIMCLRE
 70
           0
  9
$DIMCLRT
 70
           0
  9
$DIMTFAC
 40
1.0
  9
$DIMGAP
 40
0.09
  9
$DIMJUST
 70
           0
  9
$DIMSD1
 70
           0
  9
$DIMSD2
 70
           0
  9
$DIMTOLJ
 70
           1
  9
$DIMTZIN
 70
           0
  9
$DIMALTZ
 70
           0
  9
$DIMALTTZ
 70
           0
  9
$DIMFIT
 70
           3
  9
$DIMUPT
 70
           0
  9
$DIMUNIT
 70
           2
  9
$DIMDEC
 70
           4
  9
$DIMTDEC
 70
           4
  9
$DIMALTU
 70
           2
  9
$DIMALTTD
 70
           2
  9
$DIMTXSTY
  7
STANDARD
  9
$DIMAUNIT
 70
           0
  9
$LUNITS
 70
           2
  9
$LUPREC
 70
           4
  9
$SKETCHINC
 40
0.1
  9
$FILLETRAD
 40
0.0
  9
$AUNITS
 70
           0
  9
$AUPREC
 70
           0
  9
$MENU
  1
acad
  9
$ELEVATION
 40
0.0
  9
$PELEVATION
 40
0.0
  9
$THICKNESS
 40
0.0
  9
$LIMCHECK
 70
           0
  9
$BLIPMODE
 70
           1
  9
$CHAMFERA
 40
0.0
  9
$CHAMFERB
 40
0.0
  9
$CHAMFERC
 40
0.0
  9
$CHAMFERD
 40
0.0
  9
$SKPOLY
 70
           0
  9
$TDCREATE
 40
0.000000000
  9
$TDUPDATE
 40
0.000000000
  9
$TDINDWG
 40
0.0000000000
  9
$TDUSRTIMER
 40
0.0000000000
  9
$USRTIMER
 70
           1
  9
$ANGBASE
 50
0.0
  9
$ANGDIR
 70
           0
  9
$PDMODE
 70
           0
  9
$PDSIZE
 40
0.0
  9
$PLINEWID
 40
0.0
  9
$COORDS
 70
           0
  9
$SPLFRAME
 70
           0
  9
$SPLINETYPE
 70
           6
  9
$SPLINESEGS
 70
           8
  9
$ATTDIA
 70
           0
  9
$ATTREQ
 70
           1
  9
$HANDLING
 70
           1
  9
$HANDSEED
  5
388
  9
$SURFTAB1
 70
           6
  9
$SURFTAB2
 70
           6
  9
$SURFTYPE
 70
           6
  9
$SURFU
 70
           6
  9
$SURFV
 70
           6
  9
$UCSNAME
  2

  9
$UCSORG
 10
0.0
 20
0.0
 30
0.0
  9
$UCSXDIR
 10
1.0
 20
0.0
 30
0.0
  9
$UCSYDIR
 10
0.0
 20
1.0
 30
0.0
  9
$PUCSNAME
  2

  9
$PUCSORG
 10
0.0
 20
0.0
 30
0.0
  9
$PUCSXDIR
 10
1.0
 20
0.0
 30
0.0
  9
$PUCSYDIR
 10
0.0
 20
1.0
 30
0.0
  9
$USERI1
 70
           0
  9
$USERI2
 70
           0
  9
$USERI3
 70
           0
  9
$USERI4
 70
           0
  9
$USERI5
 70
           0
  9
$USERR1
 40
0.0
  9
$USERR2
 40
0.0
  9
$USERR3
 40
0.0
  9
$USERR4
 40
0.0
  9
$USERR5
 40
0.0
  9
$WORLDVIEW
 70
           1
  9
$SHADEDGE
 70
           3
  9
$SHADEDIF
 70
          70
  9
$TILEMODE
 70
           1
  9
$MAXACTVP
 70
          16
  9
$PINSBASE
 10
0.0
 20
0.0
 30
0.0
  9
$PLIMCHECK
 70
           0
  9
$PEXTMIN
 10
1.000000000000E+20
 20
1.000000000000E+20
 30
1.000000000000E+20
  9
$PEXTMAX
 10
-1.000000000000E+20
 20
-1.000000000000E+20
 30
-1.000000000000E+20
  9
$PLIMMIN
 10
0.0
 20
0.0
  9
$PLIMMAX
 10
12.0
 20
9.0
  9
$UNITMODE
 70
           0
  9
$VISRETAIN
 70
           0
  9
$PLINEGEN
 70
           1
  9
$PSLTSCALE
 70
           0
  9
$TREEDEPTH
 70
        3020
  9
$PICKSTYLE
 70
           1
  9
$CMLSTYLE
  2
STANDARD
  9
$CMLJUST
 70
           0
  9
$CMLSCALE
 40
1.0
  9
$PROXYGRAPHICS
 70
           0
  9
$MEASUREMENT
 70
           0
  0
ENDSEC
  0
SECTION
  2
CLASSES
  0
CLASS
  1
LWPOLYLINE
  2
AcDbPolyline
  3
"AutoCAD"
 90
        0
280
           0
281
           1
  0
CLASS
  1
IMAGE
  2
AcDbRasterImage
  3
ISM
 90
      127
280
           0
281
           1
  0
CLASS
  1
OLE2FRAME
  2
AcDbOle2Frame
  3
""
 90
        0
280
           0
281
           1
  0
CLASS
  1
HATCH
  2
AcDbHatch
  3
"ACAD_SEDONA"
 90
        0
280
           0
281
           1
  0
CLASS
  1
DICTIONARYVAR
  2
AcDbDictionaryVar
  3
"AutoCAD"
 90
        0
280
           0
281
           0
  0
CLASS
  1
RASTERVARIABLES
  2
AcDbRasterVariables
  3
ISM
 90
        0
280
           0
281
           0
  0
CLASS
  1
IMAGEDEF
  2
AcDbRasterImageDef
  3
ISM
 90
        0
280
           0
281
           0
  0
CLASS
  1
IMAGEDEF_REACTOR
  2
AcDbRasterImageDefReactor
  3
ISM
 90
        1
280
           0
281
           0
  0
CLASS
  1
IDBUFFER
  2
AcDbIdBuffer
  3
"Acad"
 90
        0
280
           0
281
           0
  0
CLASS
  1
SPATIAL_FILTER
  2
AcDbSpatialFilter
  3
"Acad"
 90
        0
280
           0
281
           0
  0
CLASS
  1
XRECORD
  2
AcDbXrecord
  3
"<Built In>"
 90
        0
280
           0
281
           0
  0
CLASS
  1
SORTENTSTABLE
  2
AcDbSortentsTable
  3
"AutoCAD"
 90
        0
280
           0
281
           0
  0
CLASS
  1
LAYER_INDEX
  2
AcDbLayerIndex
  3
"Acad"
 90
        0
280
           0
281
           0
  0
CLASS
  1
SPATIAL_INDEX
  2
AcDbSpatialIndex
  3
"Acad"
 90
        0
280
           0
281
           0
  0
CLASS
  1
OBJECT_PTR
  2
CAseDLPNTableRecord
  3
"ASE-LPNTableRecord"
 90
        1
280
           0
281
           0
  0
CLASS
  1
LAYOUT
  2
AcDbLayout
  3
"AutoCAD 2000"
 90
        1
280
           0
281
           0
  0
CLASS
  1
PLOTSETTINGS
  2
AcDbPlotSettings
  3
"AutoCAD 2000"
 90
        1
280
           0
281
           0
  0
CLASS
  1
ACDBDICTIONARYWDFLT
  2
AcDbDictionaryWithDefault
  3
"AutoCAD 2000"
 90
        1
280
           0
281
           0
  0
CLASS
  1
ACDBPLACEHOLDER
  2
AcDbPlaceHolder
  3
"AutoCAD 2000"
 90
        1
280
           0
281
           0
  0
CLASS
  1
VBA_PROJECT
  2
AcDbVbaProject
  3
"acadvba"
 90
        1
280
           0
281
           0
  0
CLASS
  1
WIPEOUT
  2
AcDbWipeout
  3
WipeOut|AutoCAD Express Tool|expresstools@autodesk.com
 90
      127
280
           0
281
           1
  0
CLASS
  1
WIPEOUTVARIABLES
  2
AcDbWipeoutVariables
  3
WipeOut|AutoCAD Express Tool|expresstools@autodesk.com
 90
        0
280
           0
281
           0
  0
CLASS
  1
RTEXT
  2
RText
  3
RText|AutoCAD Express Tool|expresstools@autodesk.com
 90
        0
280
           0
281
           1
  0
CLASS
  1
ARCALIGNEDTEXT
  2
AcDbArcAlignedText
  3
ATEXT|AutoCAD Express Tool|expresstools@autodesk.com
 90
        0
280
           0
281
           1
  0
ENDSEC
  0
SECTION
  2
TABLES
  0
TABLE
  2
VPORT
  5
7
100
AcDbSymbolTable
 70
           1
  0
VPORT
  5
15
100
AcDbSymbolTableRecord
100
AcDbViewportTableRecord
  2
*ACTIVE
 70
           0
 10
0.0
 20
0.0
 11
1.0
 21
1.0
 12
6.591288
 22
4.579184
 13
0.0
 23
0.0
 14
1.0
 24
1.0
 15
0.0
 25
0.0
 16
0.0
 26
0.0
 36
1.0
 17
0.0
 27
0.0
 37
0.0
 40
9.158369
 41
0.688564
 42
50.0
 43
0.0
 44
0.0
 50
0.0
 51
0.0
 71
           0
 72
         100
 73
           1
 74
           1
 75
           0
 76
           0
 77
           0
 78
           0
  0
ENDTAB
  0
TABLE
  2
LTYPE
  5
4
100
AcDbSymbolTable
 70
          10
  0
LTYPE
  5
11
100
AcDbSymbolTableRecord
100
AcDbLinetypeTableRecord
  2
BYBLOCK
 70
          64
  3

 72
          65
 73
           0
 40
0.0
  0
LTYPE
  5
12
100
AcDbSymbolTableRecord
100
AcDbLinetypeTableRecord
  2
BYLAYER
 70
          64
  3

 72
          65
 73
           0
 40
0.0
  0
LTYPE
  5
13
100
AcDbSymbolTableRecord
100
AcDbLinetypeTableRecord
  2
CONTINUOUS
 70
          64
  3
Solid line
 72
          65
 73
           0
 40
0.0
  0
LTYPE
  5
1D
100
AcDbSymbolTableRecord
100
AcDbLinetypeTableRecord
  2
DASHED
 70
          64
  3
Dashed
 72
          65
 73
           2
 40
15.0
 49
12.0
 74
           0
 49
-3.0
 74
           0
  0
LTYPE
  5
1E
100
AcDbSymbolTableRecord
100
AcDbLinetypeTableRecord
  2
DOTTED
 70
          64
  3
Dotted
 72
          65
 73
           2
 40
3.5
 49
0.5
 74
           0
 49
-3.0
 74
           0
  0
LTYPE
  5
1F
100
AcDbSymbolTableRecord
100
AcDbLinetypeTableRecord
  2
DOT_CENTER
 70
          64
  3
Dot_Center
 72
          65
 73
           4
 40
2.0
 49
1.25
 74
           0
 49
-0.25
 74
           0
 49
0.25
 74
           0
 49
-0.25
 74
           0
  0
LTYPE
  5
20
100
AcDbSymbolTableRecord
100
AcDbLinetypeTableRecord
  2
LONG_DASHED
 70
          64
  3
Long_Dashed
 72
          65
 73
           2
 40
2.0
 49
1.5
 74
           0
 49
-0.5
 74
           0
  0
LTYPE
  5
21
100
AcDbSymbolTableRecord
100
AcDbLinetypeTableRecord
  2
DASH_CENTER
 70
          64
  3
Dash_Center
 72
          65
 73
           4
 40
36.0
 49
24.0
 74
           0
 49
-3.0
 74
           0
 49
6.0
 74
           0
 49
-3.0
 74
           0
  0
LTYPE
  5
22
100
AcDbSymbolTableRecord
100
AcDbLinetypeTableRecord
  2
PHANTOM
 70
          64
  3
Phantom
 72
          65
 73
           6
 40
2.5
 49
1.25
 74
           0
 49
-0.25
 74
           0
 49
0.25
 74
           0
 49
-0.25
 74
           0
 49
0.25
 74
           0
 49
-0.25
 74
           0
  0
LTYPE
  5
23
100
AcDbSymbolTableRecord
100
AcDbLinetypeTableRecord
  2
CENTER_DASH_DASH
 70
          64
  3
Center_Dash_Dash
 72
          65
 73
           6
 40
22.0
 49
12.0
 74
           0
 49
-3.0
 74
           0
 49
0.5
 74
           0
 49
-3.0
 74
           0
 49
0.5
 74
           0
 49
-3.0
 74
           0
  0
ENDTAB
  0
TABLE
  2
LAYER
  5
2
100
AcDbSymbolTable
 70
           7
  0
LAYER
  5
14
100
AcDbSymbolTableRecord
100
AcDbLayerTableRecord
  2
0
 70
           0
 62
           7
  6
CONTINUOUS
  0
LAYER
  5
24
100
AcDbSymbolTableRecord
100
AcDbLayerTableRecord
  2
___S__
 70
           0
 62
           7
  6
CONTINUOUS
  0
LAYER
  5
25
100
AcDbSymbolTableRecord
100
AcDbLayerTableRecord
  2
FORMAT
 70
           0
 62
           7
  6
CONTINUOUS
  0
LAYER
  5
26
100
AcDbSymbolTableRecord
100
AcDbLayerTableRecord
  2
1
 70
           0
 62
           7
  6
CONTINUOUS
  0
LAYER
  5
27
100
AcDbSymbolTableRecord
100
AcDbLayerTableRecord
  2
2
 70
           0
 62
           7
  6
CONTINUOUS
  0
LAYER
  5
28
100
AcDbSymbolTableRecord
100
AcDbLayerTableRecord
  2
7
 70
           0
 62
           7
  6
CONTINUOUS
  0
LAYER
  5
29
100
AcDbSymbolTableRecord
100
AcDbLayerTableRecord
  2
____
 70
           0
 62
           7
  6
CONTINUOUS
  0
ENDTAB
  0
TABLE
  2
STYLE
  5
3
100
AcDbSymbolTable
 70
           1
  0
STYLE
  5
17
100
AcDbSymbolTableRecord
100
AcDbTextStyleTableRecord
  2
STANDARD
 70
           0
 40
0.0
 41
1.0
 50
0.0
 71
           0
 42
0.0
  3
txt
  4

  0
ENDTAB
  0
TABLE
  2
VIEW
  5
5
100
AcDbSymbolTable
 70
           0
  0
ENDTAB
  0
TABLE
  2
UCS
  5
6
100
AcDbSymbolTable
 70
           0
  0
ENDTAB
  0
TABLE
  2
APPID
  5
8
100
AcDbSymbolTable
 70
           1
  0
APPID
  5
16
100
AcDbSymbolTableRecord
100
AcDbRegAppTableRecord
  2
ACAD
 70
           0
  0
ENDTAB
  0
TABLE
  2
DIMSTYLE
  5
9
100
AcDbSymbolTable
 70
           1
  0
DIMSTYLE
105
18
100
AcDbSymbolTableRecord
100
AcDbDimStyleTableRecord
  2
STANDARD
 70
           0
  3

  4

  5

  6

  7

 40
1.0
 41
0.18
 42
0.0625
 43
0.38
 44
0.18
 45
0.0
 46
0.0
 47
0.0
 48
0.0
 71
           0
 72
           0
 73
           1
 74
           1
 75
           0
 76
           0
 77
           0
 78
           0
140
0.18
141
0.09
142
0.0
143
25.4
144
1.0
145
0.0
146
1.0
147
0.09
170
           0
171
           2
172
           0
173
           0
174
           0
175
           0
176
           0
177
           0
178
           0
270
           2
271
           4
272
           4
273
           2
274
           2
275
           0
280
           0
281
           0
282
           0
283
           1
284
           0
285
           0
286
           0
287
           0
288
           0
340
17
  0
ENDTAB
  0
TABLE
  2
BLOCK_RECORD
  5
1
100
AcDbSymbolTable
 70
           0
  0
BLOCK_RECORD
  5
A
100
AcDbSymbolTableRecord
100
AcDbBlockTableRecord
  2
*MODEL_SPACE
  0
BLOCK_RECORD
  5
B
100
AcDbSymbolTableRecord
100
AcDbBlockTableRecord
  2
*PAPER_SPACE
  0
ENDTAB
  0
ENDSEC
  0
SECTION
  2
BLOCKS
  0
BLOCK
  5
D
100
AcDbEntity
  8
0
100
AcDbBlockBegin
  2
*MODEL_SPACE
 70
           0
 10
0.0
 20
0.0
 30
0.0
  3
*MODEL_SPACE
  1

  0
ENDBLK
  5
E
100
AcDbEntity
  8
0
100
AcDbBlockEnd
  0
BLOCK
  5
F
100
AcDbEntity
 67
           1
  8
0
100
AcDbBlockBegin
  2
*PAPER_SPACE
 70
           0
 10
0.0
 20
0.0
 30
0.0
  3
*PAPER_SPACE
  1

  0
ENDBLK
  5
10
100
AcDbEntity
 67
           1
  8
0
100
AcDbBlockEnd
  0
ENDSEC
  0
SECTION
  2
ENTITIES
  0
HATCH
  5
386
100
AcDbEntity
  8
0
  6
CONTINUOUS
 62
           2
100
AcDbHatch
 10
0.0
 20
0.0
 30
0.0
210
0.0
220
0.0
230
1.0
  2
USER
 70
           0
 71
           1
 91
        1
 92
        1
 93
        8
 72
           1
 10
3323.5878453038749
 20
1619.039449200003
 11
3401.5878453038749
 21
1619.039449200003
 72
           2
 10
3323.5878453038749
 20
1636.039449200003
 40
17.0
 50
180.0
 51
-90.0
 73
           1
 72
           1
 10
3306.5878453038749
 20
1636.039449200003
 11
3306.5878453038749
 21
1649.289449200003
 72
           1
 10
3306.5878453038749
 20
1649.289449200003
 11
3286.5878453038749
 21
1649.289449200003
 72
           1
 10
3286.5878453038749
 20
1649.289449200003
 11
3286.5878453038749
 21
1636.039449200003
 72
           2
 10
3323.5878453038749
 20
1636.039449200003
 40
37.0
 50
180.0
 51
-90.0
 73
           1
 72
           1
 10
3323.5878453038749
 20
1599.039449200003
 11
3401.5878453038749
 21
1599.039449200003
 72
           1
 10
3401.5878453038749
 20
1599.039449200003
 11
3401.5878453038749
 21
1619.039449200003
 97
        7
330
48
330
302
330
36F
330
49
330
303
330
47
330
36E
 75
           1
 76
           0
 52
45.0
 41
10.0
 77
           0
 78
           1
 53
45.0
 43
0.0
 44
0.0
 45
-7.0710678118654746
 46
7.0710678118654755
 79
           0
 98
        1
 10
0.0
 20
0.0
  0
ARC
  5
385
100
AcDbEntity
  8
1
  6
CONTINUOUS
 62
           7
100
AcDbCircle
 10
118.613664
 20
3060.589449200003
 40
10.0
100
AcDbArc
 50
180.0
 51
-90.0
  0
ARC
  5
384
100
AcDbEntity
  8
1
  6
CONTINUOUS
 62
           7
100
AcDbCircle
 10
118.613664
 20
3120.589449200003
 40
10.0
100
AcDbArc
 50
90.0
 51
180.0
  0
ARC
  5
383
100
AcDbEntity
  8
1
  6
CONTINUOUS
 62
           7
100
AcDbCircle
 10
156.499999999998
 20
3060.589449200003
 40
10.0
100
AcDbArc
 50
-90.0
 51
0.0
  0
ARC
  5
382
100
AcDbEntity
  8
1
  6
CONTINUOUS
 62
           7
100
AcDbCircle
 10
156.499999999998
 20
3120.589449200003
 40
10.0
100
AcDbArc
 50
0.0
 51
90.0
  0
ARC
  5
381
100
AcDbEntity
  8
1
  6
CONTINUOUS
 62
           7
100
AcDbCircle
 10
156.499999999998
 20
5833.055165759572
 40
10.0
100
AcDbArc
 50
0.0
 51
90.0
  0
ARC
  5
380
100
AcDbEntity
  8
1
  6
CONTINUOUS
 62
           7
100
AcDbCircle
 10
156.499999999998
 20
5765.555165759572
 40
10.0
100
AcDbArc
 50
-90.0
 51
0.0
  0
ARC
  5
37F
100
AcDbEntity
  8
1
  6
CONTINUOUS
 62
           7
100
AcDbCircle
 10
123.94625844666
 20
5833.055165759572
 40
10.0
100
AcDbArc
 50
90.0
 51
180.0
  0
ARC
  5
37E
100
AcDbEntity
  8
1
  6
CONTINUOUS
 62
           7
100
AcDbCircle
 10
123.94625844666
 20
5765.555165759572
 40
10.0
100
AcDbArc
 50
180.0
 51
-90.0
  0
ARC
  5
37D
100
AcDbEntity
  8
1
  6
CONTINUOUS
 62
           4
100
AcDbCircle
 10
109.265668111721
 20
5770.555165759572
 40
10.000000000002
100
AcDbArc
 50
-120.430594205712
 51
-90.0
  0
ARC
  5
37C
100
AcDbEntity
  8
1
  6
CONTINUOUS
 62
           4
100
AcDbCircle
 10
109.265668111721
 20
5828.055165759572
 40
10.0
100
AcDbArc
 50
90.0
 51
120.430594205718
  0
ARC
  5
37B
100
AcDbEntity
  8
1
  6
CONTINUOUS
 62
           7
100
AcDbCircle
 10
4497.837845303872
 20
3119.289449200001
 40
10.000000000001
100
AcDbArc
 50
90.0
 51
180.0
  0
ARC
  5
37A
100
AcDbEntity
  8
1
  6
CONTINUOUS
 62
           7
100
AcDbCircle
 10
4565.337845303872
 20
3119.289449200001
 40
10.0
100
AcDbArc
 50
0.0
 51
90.0
  0
ARC
  5
379
100
AcDbEntity
  8
1
  6
CONTINUOUS
 62
           7
100
AcDbCircle
 10
4497.837845303872
 20
3059.289449200001
 40
10.0
100
AcDbArc
 50
180.0
 51
-90.0
  0
ARC
  5
378
100
AcDbEntity
  8
1
  6
CONTINUOUS
 62
           7
100
AcDbCircle
 10
4565.337845303872
 20
3059.289449200001
 40
10.0
100
AcDbArc
 50
-90.0
 51
0.0
  0
ARC
  5
377
100
AcDbEntity
  8
1
  6
CONTINUOUS
 62
           4
100
AcDbCircle
 10
4966.087845303874
 20
2539.289449200004
 40
1.0
100
AcDbArc
 50
0.0
 51
90.0
  0
ARC
  5
376
100
AcDbEntity
  8
1
  6
CONTINUOUS
 62
           4
100
AcDbCircle
 10
4977.087845303874
 20
2539.289449200004
 40
1.0
100
AcDbArc
 50
90.0
 51
180.0
  0
ARC
  5
375
100
AcDbEntity
  8
1
  6
CONTINUOUS
 62
           4
100
AcDbCircle
 10
4966.087845303874
 20
2935.289449200003
 40
1.0
100
AcDbArc
 50
-90.0
 51
0.0
  0
ARC
  5
374
100
AcDbEntity
  8
1
  6
CONTINUOUS
 62
           4
100
AcDbCircle
 10
4977.087845303874
 20
2935.289449200003
 40
1.0
100
AcDbArc
 50
180.0
 51
-90.0
  0
ARC
  5
373
100
AcDbEntity
  8
1
  6
CONTINUOUS
 62
           3
100
AcDbCircle
 10
4319.751412994917
 20
2297.095702619962
 40
0.5
100
AcDbArc
 50
180.0
 51
-90.0
  0
ARC
  5
372
100
AcDbEntity
  8
1
  6
CONTINUOUS
 62
           3
100
AcDbCircle
 10
4319.751412994917
 20
2311.483195780043
 40
0.5
100
AcDbArc
 50
90.0
 51
180.0
  0
ARC
  5
371
100
AcDbEntity
  8
1
  6
CONTINUOUS
 62
           3
100
AcDbCircle
 10
4171.487843426201
 20
2020.289449200002
 40
280.000000000001
100
AcDbArc
 50
90.0
 51
180.0
  0
ARC
  5
370
100
AcDbEntity
  8
1
  6
CONTINUOUS
 62
           3
100
AcDbCircle
 10
4171.487842114808
 20
2020.289449200002
 40
288.0
100
AcDbArc
 50
90.0
 51
180.0
  0
LWPOLYLINE
  5
36F
100
AcDbEntity
  8
1
  6
CONTINUOUS
 62
           7
 60
           1
100
AcDbPolyline
 90
        3
 70
           0
 10
3306.587845303875
 20
1636.039449200003
 10
3306.587845303875
 20
1649.289449200003
 10
3286.587845303875
 20
1649.289449200003
  0
LWPOLYLINE
  5
36E
100
AcDbEntity
  8
1
  6
CONTINUOUS
 62
           7
 60
           1
100
AcDbPolyline
 90
        2
 70
           0
 10
3401.587845303875
 20
1599.039449200003
 10
3401.587845303875
 20
1619.039449200003
  0
SPLINE
  5
36D
100
AcDbEntity
  8
0
  6
CONTINUOUS
 62
           3
100
AcDbSpline
210
0.0
220
0.0
230
1.0
 70
           0
 71
           3
 72
           8
 73
           5
 74
           7
 42
0.00000000001
 43
0.00000000001
 44
0.00000000001
 40
0.0
 40
0.0
 40
0.0
 40
0.2989651950314283
 40
0.4296296276534122
 40
0.4465803504028827
 40
0.4465803504028827
 40
0.4465803504028827
 10
3842.487841913739
 20
1763.9360288233049
 30
0.0
 10
3842.4878419137849
 20
1763.7563857634291
 30
0.0
 10
3842.4878419137849
 20
1763.5177414931179
 30
0.0
 10
3842.4878419137849
 20
1763.4950568981851
 30
0.0
 10
3842.4878419137849
 20
1763.489448472902
 30
0.0
 11
3842.487841913739
 21
1763.9360288233049
 31
0.0
 11
3842.4878419137735
 21
1763.7597803443268
 31
0.0
 11
3842.4878419137849
 21
1763.5903210271433
 31
0.0
 11
3842.4878419137849
 21
1763.5308664487609
 31
0.0
 11
3842.4878419137849
 21
1763.4976617816635
 31
0.0
 11
3842.4878419137849
 21
1763.4943060127339
 31
0.0
 11
3842.4878419137849
 21
1763.489448472902
 31
0.0
  0
SPLINE
  5
36C
100
AcDbEntity
  8
0
  6
CONTINUOUS
 62
           3
100
AcDbSpline
210
0.0
220
0.0
230
1.0
 70
           0
 71
           3
 72
           8
 73
           5
 74
           7
 42
0.00000000001
 43
0.00000000001
 44
0.00000000001
 40
0.0
 40
0.0
 40
0.0
 40
0.0169507227494705
 40
0.1476151553714544
 40
0.4465803504028827
 40
0.4465803504028827
 40
0.4465803504028827
 10
3832.4878421373069
 20
1763.489448472902
 30
0.0
 10
3832.4878421373069
 20
1763.4950568981851
 30
0.0
 10
3832.4878421373069
 20
1763.5177414931179
 30
0.0
 10
3832.4878421373069
 20
1763.7563857634291
 30
0.0
 10
3832.4878421373469
 20
1763.9360288233049
 30
0.0
 11
3832.4878421373069
 21
1763.489448472902
 31
0.0
 11
3832.4878421373069
 21
1763.4943060127339
 31
0.0
 11
3832.4878421373069
 21
1763.4976617816635
 31
0.0
 11
3832.4878421373073
 21
1763.5308664487609
 31
0.0
 11
3832.4878421373069
 21
1763.5903210271435
 31
0.0
 11
3832.4878421373169
 21
1763.7597803443266
 31
0.0
 11
3832.4878421373469
 21
1763.9360288233049
 31
0.0
  0
SPLINE
  5
36B
100
AcDbEntity
  8
0
  6
CONTINUOUS
 62
           3
100
AcDbSpline
210
0.0
220
0.0
230
1.0
 70
           0
 71
           3
 72
           8
 73
           5
 74
           7
 42
0.00000000001
 43
0.00000000001
 44
0.00000000001
 40
0.0
 40
0.0
 40
0.0
 40
0.4813883392828637
 40
1.3325653926412522
 40
2.5594910488299445
 40
2.5594910488299445
 40
2.5594910488299445
 10
3839.987841969637
 20
1763.489448472902
 30
0.0
 10
3840.0471067758199
 20
1763.489894171312
 30
0.0
 10
3840.8913266171649
 20
1763.496243090068
 30
0.0
 10
3841.7186226366539
 20
1763.7241350415579
 30
0.0
 10
3842.487841913739
 20
1763.9360288233049
 30
0.0
 11
3839.987841969637
 21
1763.489448472902
 31
0.0
 11
3840.1085340347558
 21
1763.490356132352
 31
0.0
 11
3840.3520806177485
 21
1763.4921877138827
 31
0.0
 11
3840.841228854616
 21
1763.5185650030635
 31
0.0
 11
3841.2301815663877
 21
1763.5895861182357
 31
0.0
 11
3841.7888171883578
 21
1763.7434712561637
 31
0.0
 11
3842.487841913739
 21
1763.9360288233049
 31
0.0
  0
SPLINE
  5
36A
100
AcDbEntity
  8
0
  6
CONTINUOUS
 62
           3
100
AcDbSpline
210
0.0
220
0.0
230
1.0
 70
           0
 71
           3
 72
           8
 73
           5
 74
           7
 42
0.00000000001
 43
0.00000000001
 44
0.00000000001
 40
0.0
 40
0.0
 40
0.0
 40
0.4813884775060803
 40
1.332565594240176
 40
2.5594910572544931
 40
2.5594910572544931
 40
2.5594910572544931
 10
3834.987842081428
 20
1763.489448472902
 30
0.0
 10
3835.0471068882689
 20
1763.489894171556
 30
0.0
 10
3835.8913270047069
 20
1763.4962430958301
 30
0.0
 10
3836.7186228718342
 20
1763.7241350417289
 30
0.0
 10
3837.48784202555
 20
1763.936028823297
 30
0.0
 11
3834.987842081428
 21
1763.489448472902
 31
0.0
 11
3835.1085341822422
 21
1763.4903561331109
 31
0.0
 11
3835.3520808710045
 21
1763.4921877164318
 31
0.0
 11
3835.8412292045841
 21
1763.5185650106448
 31
0.0
 11
3836.2301819379181
 21
1763.5895861344884
 31
0.0
 11
3836.7888174267846
 21
1763.7434712603108
 31
0.0
 11
3837.48784202555
 21
1763.936028823297
 31
0.0
  0
SPLINE
  5
369
100
AcDbEntity
  8
0
  6
CONTINUOUS
 62
           3
100
AcDbSpline
210
0.0
220
0.0
230
1.0
 70
           0
 71
           3
 72
           8
 73
           5
 74
           7
 42
0.00000000001
 43
0.00000000001
 44
0.00000000001
 40
0.0
 40
0.0
 40
0.0
 40
0.2779454797450512
 40
0.7862825386887566
 40
1.542963890720964
 40
1.542963890720964
 40
1.542963890720964
 10
3833.1577149912209
 20
1746.8894431442591
 30
0.0
 10
3833.1919315357968
 20
1746.8898888365161
 30
0.0
 10
3833.6793422539049
 20
1746.8962376711761
 30
0.0
 10
3834.1569817210702
 20
1747.1241335256791
 30
0.0
 10
3834.6010905917178
 20
1747.3360309452371
 30
0.0
 11
3833.1577149912209
 21
1746.8894431442591
 31
0.0
 11
3833.2264514853696
 21
1746.8903384808193
 31
0.0
 11
3833.3642278786656
 21
1746.8921331059851
 31
0.0
 11
3833.6485475154814
 21
1746.9181060402307
 31
0.0
 11
3833.871277675451
 21
1746.987815712585
 31
0.0
 11
3834.1965829273272
 21
1747.1430284272951
 31
0.0
 11
3834.6010905917178
 21
1747.3360309452371
 31
0.0
  0
SPLINE
  5
368
100
AcDbEntity
  8
0
  6
CONTINUOUS
 62
           3
100
AcDbSpline
210
0.0
220
0.0
230
1.0
 70
           0
 71
           3
 72
           8
 73
           5
 74
           7
 42
0.00000000001
 43
0.00000000001
 44
0.00000000001
 40
0.0
 40
0.0
 40
0.0
 40
0.2779464854374577
 40
0.7862840843774994
 40
1.5429642658581171
 40
1.5429642658581171
 40
1.5429642658581171
 10
3833.1577149912209
 20
1751.8894532770439
 30
0.0
 10
3833.1234984418579
 20
1751.8890075816721
 30
0.0
 10
3832.636085722756
 20
1751.8826586774419
 30
0.0
 10
3832.158447243216
 20
1751.6547628934759
 30
0.0
 10
3831.714339157847
 20
1751.4428654761109
 30
0.0
 11
3833.1577149912209
 21
1751.8894532770439
 31
0.0
 11
3833.0889782454674
 21
1751.8885579310725
 31
0.0
 11
3832.9512011069332
 21
1751.8867632839022
 31
0.0
 11
3832.6668807377409
 21
1751.8607902900585
 31
0.0
 11
3832.444150398519
 21
1751.7910805214483
 31
0.0
 11
3832.1188460106991
 21
1751.6358679461277
 31
0.0
 11
3831.714339157847
 21
1751.4428654761109
 31
0.0
  0
SPLINE
  5
367
100
AcDbEntity
  8
0
  6
CONTINUOUS
 62
           3
100
AcDbSpline
210
0.0
220
0.0
230
1.0
 70
           0
 71
           3
 72
           8
 73
           5
 74
           7
 42
0.00000000001
 43
0.00000000001
 44
0.00000000001
 40
0.0
 40
0.0
 40
0.0
 40
0.2779464854261684
 40
0.7862840843618137
 40
1.542964265893348
 40
1.542964265893348
 40
1.542964265893348
 10
3841.8179690598799
 20
1746.8894431442591
 30
0.0
 10
3841.8521856092379
 20
1746.889888839637
 30
0.0
 10
3842.3395983283272
 20
1746.896237743867
 30
0.0
 10
3842.8172368078749
 20
1747.124133527826
 30
0.0
 10
3843.2613448932389
 20
1747.3360309453151
 30
0.0
 11
3841.8179690598799
 21
1746.8894431442591
 31
0.0
 11
3841.8867058056276
 21
1746.8903384902351
 31
0.0
 11
3842.0244829441544
 21
1746.892133137407
 31
0.0
 11
3842.3088033133422
 21
1746.9181061312488
 31
0.0
 11
3842.5315336525587
 21
1746.9878158998536
 31
0.0
 11
3842.8568380403867
 21
1747.143028475205
 31
0.0
 11
3843.2613448932389
 21
1747.3360309453151
 31
0.0
  0
SPLINE
  5
366
100
AcDbEntity
  8
0
  6
CONTINUOUS
 62
           3
100
AcDbSpline
210
0.0
220
0.0
230
1.0
 70
           0
 71
           3
 72
           8
 73
           5
 74
           7
 42
0.00000000001
 43
0.00000000001
 44
0.00000000001
 40
0.0
 40
0.0
 40
0.0
 40
0.2779454797520918
 40
0.7862825386965272
 40
1.5429638907301428
 40
1.5429638907301428
 40
1.5429638907301428
 10
3841.8179690598799
 20
1751.8894532770439
 30
0.0
 10
3841.7837525153
 20
1751.889007584786
 30
0.0
 10
3841.296341797186
 20
1751.8826587501289
 30
0.0
 10
3840.8187023300279
 20
1751.6547628956209
 30
0.0
 10
3840.3745934593758
 20
1751.4428654760641
 30
0.0
 11
3841.8179690598799
 21
1751.8894532770439
 31
0.0
 11
3841.7492325657272
 21
1751.8885579404835
 31
0.0
 11
3841.6114561724271
 21
1751.8867633153181
 31
0.0
 11
3841.32713653561
 21
1751.8607903810735
 31
0.0
 11
3841.1044063756426
 21
1751.7910807087178
 31
0.0
 11
3840.7791011237678
 21
1751.6358679940058
 31
0.0
 11
3840.3745934593758
 21
1751.4428654760641
 31
0.0
  0
SPLINE
  5
365
100
AcDbEntity
  8
0
  6
CONTINUOUS
 62
           3
100
AcDbSpline
210
0.0
220
0.0
230
1.0
 70
           0
 71
           3
 72
           8
 73
           5
 74
           7
 42
0.00000000001
 43
0.00000000001
 44
0.00000000001
 40
0.0
 40
0.0
 40
0.0
 40
0.7097107189141709
 40
1.6878556121192356
 40
2.9354150974130642
 40
2.9354150974130642
 40
2.9354150974130642
 10
3834.6010905917178
 20
1747.3360309452371
 30
0.0
 10
3834.814447173369
 20
1747.2763898026981
 30
0.0
 10
3835.7547498543372
 20
1747.013540042954
 30
0.0
 10
3836.7321871955578
 20
1746.9435512998689
 30
0.0
 10
3837.48784202555
 20
1746.8894431442591
 30
0.0
 11
3834.6010905917178
 21
1747.3360309452371
 31
0.0
 11
3834.8599528116742
 21
1747.2636692752149
 31
0.0
 11
3835.2098263082398
 21
1747.1658665502262
 31
0.0
 11
3835.7259091667288
 21
1747.0439320668434
 31
0.0
 11
3836.1843106500019
 21
1746.9827816312386
 31
0.0
 11
3836.7841317666666
 21
1746.9398318438089
 31
0.0
 11
3837.48784202555
 21
1746.8894431442591
 31
0.0
  0
SPLINE
  5
364
100
AcDbEntity
  8
0
  6
CONTINUOUS
 62
           3
100
AcDbSpline
210
0.0
220
0.0
230
1.0
 70
           0
 71
           3
 72
           8
 73
           5
 74
           7
 42
0.00000000001
 43
0.00000000001
 44
0.00000000001
 40
0.0
 40
0.0
 40
0.0
 40
0.7273681394897389
 40
1.7065914567872302
 40
2.9387223240297251
 40
2.9387223240297251
 40
2.9387223240297251
 10
3837.48784202555
 20
1746.8894431442591
 30
0.0
 10
3837.7265648049079
 20
1746.8949226833281
 30
0.0
 10
3838.7034724508549
 20
1746.9173461974531
 30
0.0
 10
3839.6553341601179
 20
1747.1558268207241
 30
0.0
 10
3840.374593459238
 20
1747.3360309453151
 30
0.0
 11
3837.48784202555
 21
1746.8894431442591
 31
0.0
 11
3837.7709763188482
 21
1746.8959420859451
 31
0.0
 11
3838.1429336400261
 21
1746.9044798328641
 31
0.0
 11
3838.668712679385
 21
1746.9405303733859
 31
0.0
 11
3839.1249721758059
 21
1747.0229492657736
 31
0.0
 11
3839.7025584888206
 21
1747.1676584631343
 31
0.0
 11
3840.374593459238
 21
1747.3360309453151
 31
0.0
  0
SPLINE
  5
363
100
AcDbEntity
  8
0
  6
CONTINUOUS
 62
           3
100
AcDbSpline
210
0.0
220
0.0
230
1.0
 70
           0
 71
           3
 72
           8
 73
           5
 74
           7
 42
0.00000000001
 43
0.00000000001
 44
0.00000000001
 40
0.0
 40
0.0
 40
0.0
 40
1.2321308673580273
 40
2.2113541846553506
 40
2.9387223241451208
 40
2.9387223241451208
 40
2.9387223241451208
 10
3840.3745934593758
 20
1751.4428654760641
 30
0.0
 10
3839.6553341601179
 20
1751.6230696005809
 30
0.0
 10
3838.7034724508549
 20
1751.8615502238511
 30
0.0
 10
3837.7265648049079
 20
1751.883973737971
 30
0.0
 10
3837.48784202555
 20
1751.8894532770439
 30
0.0
 11
3840.3745934593758
 21
1751.4428654760641
 31
0.0
 11
3839.7025584888488
 21
1751.6112379581907
 31
0.0
 11
3839.124972175784
 21
1751.7559471555367
 31
0.0
 11
3838.66871267938
 21
1751.838366047919
 31
0.0
 11
3838.1429336400265
 21
1751.8744165884368
 31
0.0
 11
3837.7709763188482
 21
1751.8829543353559
 31
0.0
 11
3837.48784202555
 21
1751.8894532770439
 31
0.0
  0
SPLINE
  5
362
100
AcDbEntity
  8
0
  6
CONTINUOUS
 62
           3
100
AcDbSpline
210
0.0
220
0.0
230
1.0
 70
           0
 71
           3
 72
           8
 73
           5
 74
           7
 42
0.00000000001
 43
0.00000000001
 44
0.00000000001
 40
0.0
 40
0.0
 40
0.0
 40
1.2475616964949394
 40
2.2257084622440373
 40
2.935421117881281
 40
2.935421117881281
 40
2.935421117881281
 10
3837.48784202555
 20
1751.8894532770439
 30
0.0
 10
3836.7321853681269
 20
1751.8353580094749
 30
0.0
 10
3835.7547442164569
 20
1751.765385833472
 30
0.0
 10
3834.8144470076359
 20
1751.5025123111641
 30
0.0
 10
3834.6010905917178
 20
1751.4428654760641
 30
0.0
 11
3837.48784202555
 21
1751.8894532770439
 31
0.0
 11
3836.7841298706767
 21
1751.8390765656957
 31
0.0
 11
3836.1843067209065
 21
1751.7961369667901
 31
0.0
 11
3835.7259047955049
 21
1751.734988560311
 31
0.0
 11
3835.2098240282012
 21
1751.6130456075098
 31
0.0
 11
3834.8599521587976
 21
1751.5152339264757
 31
0.0
 11
3834.6010905917178
 21
1751.4428654760641
 31
0.0
  0
SPLINE
  5
361
100
AcDbEntity
  8
0
  6
CONTINUOUS
 62
           3
100
AcDbSpline
210
0.0
220
0.0
230
1.0
 70
           0
 71
           3
 72
           8
 73
           5
 74
           7
 42
0.00000000001
 43
0.00000000001
 44
0.00000000001
 40
0.0
 40
0.0
 40
0.0
 40
0.2779452695534669
 40
0.7862805426568997
 40
1.5429573554965157
 40
1.5429573554965157
 40
1.5429573554965157
 10
3833.1577149912209
 20
1751.8894532770439
 30
0.0
 10
3833.1919315347468
 20
1751.8898989818131
 30
0.0
 10
3833.679341831958
 20
1751.896247989368
 30
0.0
 10
3834.1569815322382
 20
1752.1241360330871
 30
0.0
 10
3834.6010905917178
 20
1752.3360261768621
 30
0.0
 11
3833.1577149912209
 21
1751.8894532770439
 31
0.0
 11
3833.2264515241586
 21
1751.8903486392671
 31
0.0
 11
3833.3642280359213
 21
1751.8921433163991
 31
0.0
 11
3833.6485473330995
 21
1751.9181155808433
 31
0.0
 11
3833.8712776325601
 21
1751.9878230282379
 31
0.0
 11
3834.1965828221887
 21
1752.1430303178188
 31
0.0
 11
3834.6010905917178
 21
1752.3360261768621
 31
0.0
  0
SPLINE
  5
360
100
AcDbEntity
  8
0
  6
CONTINUOUS
 62
           3
100
AcDbSpline
210
0.0
220
0.0
230
1.0
 70
           0
 71
           3
 72
           8
 73
           5
 74
           7
 42
0.00000000001
 43
0.00000000001
 44
0.00000000001
 40
0.0
 40
0.0
 40
0.0
 40
0.2779463803332948
 40
0.786283086340158
 40
1.5429609982605099
 40
1.5429609982605099
 40
1.5429609982605099
 10
3833.1577149912209
 20
1756.8894485086689
 30
0.0
 10
3833.12349844238
 20
1756.8890028070391
 30
0.0
 10
3832.6360859337492
 20
1756.8826538163589
 30
0.0
 10
3832.158447337637
 20
1756.65476193779
 30
0.0
 10
3831.714339157847
 20
1756.4428681582081
 30
0.0
 11
3833.1577149912209
 21
1756.8894485086689
 31
0.0
 11
3833.0889782260729
 21
1756.888553149864
 31
0.0
 11
3832.9512010283102
 21
1756.8867584767095
 31
0.0
 11
3832.6668808289492
 21
1756.8607858177675
 31
0.0
 11
3832.4441504199858
 21
1756.7910771616421
 31
0.0
 11
3832.1188460632766
 21
1756.6358672988576
 31
0.0
 11
3831.714339157847
 21
1756.4428681582081
 31
0.0
  0
SPLINE
  5
35F
100
AcDbEntity
  8
0
  6
CONTINUOUS
 62
           3
100
AcDbSpline
210
0.0
220
0.0
230
1.0
 70
           0
 71
           3
 72
           8
 73
           5
 74
           7
 42
0.00000000001
 43
0.00000000001
 44
0.00000000001
 40
0.0
 40
0.0
 40
0.0
 40
0.2779462752388611
 40
0.7862820883263539
 40
1.5429577306493183
 40
1.5429577306493183
 40
1.5429577306493183
 10
3841.8179690598799
 20
1751.8894532770439
 30
0.0
 10
3841.8521856081979
 20
1751.8898989849299
 30
0.0
 10
3842.3395979063789
 20
1751.8962480620551
 30
0.0
 10
3842.8172366190388
 20
1752.1241360352369
 30
0.0
 10
3843.2613448932389
 20
1752.336026176913
 30
0.0
 11
3841.8179690598799
 21
1751.8894532770439
 31
0.0
 11
3841.8867058444248
 21
1751.8903486486804
 31
0.0
 11
3842.0244831014211
 21
1751.8921433478174
 31
0.0
 11
3842.3088031309617
 21
1751.9181156718573
 31
0.0
 11
3842.5315336096673
 21
1751.9878232155011
 31
0.0
 11
3842.8568379352464
 21
1752.1430303657221
 31
0.0
 11
3843.2613448932389
 21
1752.336026176913
 31
0.0
  0
SPLINE
  5
35E
100
AcDbEntity
  8
0
  6
CONTINUOUS
 62
           3
100
AcDbSpline
210
0.0
220
0.0
230
1.0
 70
           0
 71
           3
 72
           8
 73
           5
 74
           7
 42
0.00000000001
 43
0.00000000001
 44
0.00000000001
 40
0.0
 40
0.0
 40
0.0
 40
0.2779453746536067
 40
0.7862815406667869
 40
1.5429606230925896
 40
1.5429606230925896
 40
1.5429606230925896
 10
3841.8179690598799
 20
1756.8894485086689
 30
0.0
 10
3841.7837525158238
 20
1756.8890028101521
 30
0.0
 10
3841.296342008166
 20
1756.8826538890471
 30
0.0
 10
3840.8187024244489
 20
1756.65476193994
 30
0.0
 10
3840.3745934593758
 20
1756.442868158269
 30
0.0
 11
3841.8179690598799
 21
1756.8894485086689
 31
0.0
 11
3841.7492325463318
 21
1756.8885531592746
 31
0.0
 11
3841.611456093799
 21
1756.8867585081255
 31
0.0
 11
3841.3271366268068
 21
1756.860785908782
 31
0.0
 11
3841.1044063970949
 21
1756.7910773489086
 31
0.0
 11
3840.7791011763416
 21
1756.6358673467644
 31
0.0
 11
3840.3745934593758
 21
1756.442868158269
 31
0.0
  0
SPLINE
  5
35D
100
AcDbEntity
  8
0
  6
CONTINUOUS
 62
           3
100
AcDbSpline
210
0.0
220
0.0
230
1.0
 70
           0
 71
           3
 72
           8
 73
           5
 74
           7
 42
0.00000000001
 43
0.00000000001
 44
0.00000000001
 40
0.0
 40
0.0
 40
0.0
 40
0.709710492682837
 40
1.6878550560197878
 40
2.9354142011762052
 40
2.9354142011762052
 40
2.9354142011762052
 10
3834.6010905917178
 20
1752.3360261768621
 30
0.0
 10
3834.814447152829
 20
1752.2763848693501
 30
0.0
 10
3835.7547491555279
 20
1752.01353454686
 30
0.0
 10
3836.7321869690459
 20
1751.9435546126219
 30
0.0
 10
3837.48784202555
 20
1751.8894532770439
 30
0.0
 11
3834.6010905917178
 21
1752.3360261768621
 31
0.0
 11
3834.8599527260276
 21
1752.2636643236583
 31
0.0
 11
3835.2098260067332
 21
1752.165861379071
 31
0.0
 11
3835.725908615248
 21
1752.0439276200827
 31
0.0
 11
3836.1843101432032
 21
1751.98278000754
 31
0.0
 11
3836.784131526711
 21
1751.9398356274569
 31
0.0
 11
3837.48784202555
 21
1751.8894532770439
 31
0.0
  0
SPLINE
  5
35C
100
AcDbEntity
  8
0
  6
CONTINUOUS
 62
           3
100
AcDbSpline
210
0.0
220
0.0
230
1.0
 70
           0
 71
           3
 72
           8
 73
           5
 74
           7
 42
0.00000000001
 43
0.00000000001
 44
0.00000000001
 40
0.0
 40
0.0
 40
0.0
 40
0.7273675739554827
 40
1.7065896374622058
 40
2.9387184666008563
 40
2.9387184666008563
 40
2.9387184666008563
 10
3837.48784202555
 20
1751.8894532770439
 30
0.0
 10
3837.7265647690319
 20
1751.894933001267
 30
0.0
 10
3838.7034713299672
 20
1751.9173572515219
 30
0.0
 10
3839.655333804928
 20
1752.1558288942881
 30
0.0
 10
3840.374593459238
 20
1752.336026176913
 30
0.0
 11
3837.48784202555
 21
1751.8894532770439
 31
0.0
 11
3837.7709762063664
 21
1751.8959524367215
 31
0.0
 11
3838.14293326185
 21
1751.9044904673078
 31
0.0
 11
3838.6687118508848
 21
1751.9405403338678
 31
0.0
 11
3839.1249714817545
 21
1752.0229563651199
 31
0.0
 11
3839.702558137712
 21
1752.1676600826524
 31
0.0
 11
3840.374593459238
 21
1752.336026176913
 31
0.0
  0
SPLINE
  5
35B
100
AcDbEntity
  8
0
  6
CONTINUOUS
 62
           3
100
AcDbSpline
210
0.0
220
0.0
230
1.0
 70
           0
 71
           3
 72
           8
 73
           5
 74
           7
 42
0.00000000001
 43
0.00000000001
 44
0.00000000001
 40
0.0
 40
0.0
 40
0.0
 40
1.2321298483009229
 40
2.211352538697676
 40
2.9387203954165346
 40
2.9387203954165346
 40
2.9387203954165346
 10
3840.3745934593758
 20
1756.442868158269
 30
0.0
 10
3839.6553339825182
 20
1756.623068861817
 30
0.0
 10
3838.7034718904079
 20
1756.8615449948361
 30
0.0
 10
3837.7265647869658
 20
1756.8839688770249
 30
0.0
 10
3837.48784202555
 20
1756.8894485086689
 30
0.0
 11
3840.3745934593758
 21
1756.442868158269
 31
0.0
 11
3839.7025583132918
 21
1756.6112374464465
 31
0.0
 11
3839.1249718287536
 21
1756.7559439038821
 31
0.0
 11
3838.668712265126
 21
1756.8383613656979
 31
0.0
 11
3838.1429334509339
 21
1756.8744115692366
 31
0.0
 11
3837.7709762626032
 21
1756.8829494579886
 31
0.0
 11
3837.48784202555
 21
1756.8894485086689
 31
0.0
  0
SPLINE
  5
35A
100
AcDbEntity
  8
0
  6
CONTINUOUS
 62
           3
100
AcDbSpline
210
0.0
220
0.0
230
1.0
 70
           0
 71
           3
 72
           8
 73
           5
 74
           7
 42
0.00000000001
 43
0.00000000001
 44
0.00000000001
 40
0.0
 40
0.0
 40
0.0
 40
1.2475604207862028
 40
2.2257060852955513
 40
2.9354176594320522
 40
2.9354176594320522
 40
2.9354176594320522
 10
3837.48784202555
 20
1756.8894485086689
 30
0.0
 10
3836.7321861685969
 20
1756.8353502071091
 30
0.0
 10
3835.7547466860369
 20
1756.7653741520089
 30
0.0
 10
3834.8144470802372
 20
1756.5025122295749
 30
0.0
 10
3834.6010905917178
 20
1756.442868158269
 30
0.0
 11
3837.48784202555
 21
1756.8894485086689
 31
0.0
 11
3836.784130698707
 21
1756.8390689778014
 31
0.0
 11
3836.1843084320835
 21
1756.7961269883192
 31
0.0
 11
3835.7259067054115
 21
1756.7349789788095
 31
0.0
 11
3835.2098250174895
 21
1756.6130406229011
 31
0.0
 11
3834.8599524424199
 21
1756.5152333100798
 31
0.0
 11
3834.6010905917178
 21
1756.442868158269
 31
0.0
  0
SPLINE
  5
359
100
AcDbEntity
  8
0
  6
CONTINUOUS
 62
           3
100
AcDbSpline
210
0.0
220
0.0
230
1.0
 70
           0
 71
           3
 72
           8
 73
           5
 74
           7
 42
0.00000000001
 43
0.00000000001
 44
0.00000000001
 40
0.0
 40
0.0
 40
0.0
 40
0.2779454797450379
 40
0.7862825386897951
 40
1.542963890721317
 40
1.542963890721317
 40
1.542963890721317
 10
3833.1577149912209
 20
1739.28944860405
 30
0.0
 10
3833.1919315357968
 20
1739.2898942963079
 30
0.0
 10
3833.6793422539049
 20
1739.2962431309641
 30
0.0
 10
3834.1569817210702
 20
1739.5241389854721
 30
0.0
 10
3834.6010905917178
 20
1739.736036405026
 30
0.0
 11
3833.1577149912209
 21
1739.28944860405
 31
0.0
 11
3833.22645148537
 21
1739.2903439406105
 31
0.0
 11
3833.3642278786651
 21
1739.2921385657751
 31
0.0
 11
3833.6485475154814
 21
1739.3181115000198
 31
0.0
 11
3833.871277675451
 21
1739.3878211723752
 31
0.0
 11
3834.1965829273277
 21
1739.5430338870865
 31
0.0
 11
3834.6010905917178
 21
1739.736036405026
 31
0.0
  0
SPLINE
  5
358
100
AcDbEntity
  8
0
  6
CONTINUOUS
 62
           3
100
AcDbSpline
210
0.0
220
0.0
230
1.0
 70
           0
 71
           3
 72
           8
 73
           5
 74
           7
 42
0.00000000001
 43
0.00000000001
 44
0.00000000001
 40
0.0
 40
0.0
 40
0.0
 40
0.2779462752383797
 40
0.7862820883299211
 40
1.5429577306144959
 40
1.5429577306144959
 40
1.5429577306144959
 10
3833.1577149912209
 20
1744.2894438356741
 30
0.0
 10
3833.123498442907
 20
1744.288998127791
 30
0.0
 10
3832.6360861447188
 20
1744.2826490506641
 30
0.0
 10
3832.1584474320562
 20
1744.0547610774861
 30
0.0
 10
3831.714339157847
 20
1743.8428709359191
 30
0.0
 11
3833.1577149912209
 21
1744.2894438356741
 31
0.0
 11
3833.0889782066793
 21
1744.2885484640399
 31
0.0
 11
3832.9512009496821
 21
1744.2867537649031
 31
0.0
 11
3832.6668809201356
 21
1744.2607814408618
 31
0.0
 11
3832.4441504414226
 21
1744.1910738972165
 31
0.0
 11
3832.1188461158454
 21
1744.0358667470268
 31
0.0
 11
3831.714339157847
 21
1743.8428709359191
 31
0.0
  0
SPLINE
  5
357
100
AcDbEntity
  8
0
  6
CONTINUOUS
 62
           3
100
AcDbSpline
210
0.0
220
0.0
230
1.0
 70
           0
 71
           3
 72
           8
 73
           5
 74
           7
 42
0.00000000001
 43
0.00000000001
 44
0.00000000001
 40
0.0
 40
0.0
 40
0.0
 40
0.2779464854678131
 40
0.7862840844039004
 40
1.5429642659440022
 40
1.5429642659440022
 40
1.5429642659440022
 10
3841.8179690598399
 20
1739.2894486039229
 30
0.0
 10
3841.8521856092379
 20
1739.2898942994259
 30
0.0
 10
3842.3395983283272
 20
1739.2962432036561
 30
0.0
 10
3842.8172368078749
 20
1739.5241389876171
 30
0.0
 10
3843.2613448932389
 20
1739.7360364051251
 30
0.0
 11
3841.8179690598399
 21
1739.2894486039229
 31
0.0
 11
3841.8867058056221
 21
1739.2903439499928
 31
0.0
 11
3842.0244829441713
 21
1739.2921385971961
 31
0.0
 11
3842.3088033133458
 21
1739.3181115910379
 31
0.0
 11
3842.5315336525573
 21
1739.3878213596427
 31
0.0
 11
3842.8568380403863
 21
1739.5430339350005
 31
0.0
 11
3843.2613448932389
 21
1739.7360364051251
 31
0.0
  0
SPLINE
  5
356
100
AcDbEntity
  8
0
  6
CONTINUOUS
 62
           3
100
AcDbSpline
210
0.0
220
0.0
230
1.0
 70
           0
 71
           3
 72
           8
 73
           5
 74
           7
 42
0.00000000001
 43
0.00000000001
 44
0.00000000001
 40
0.0
 40
0.0
 40
0.0
 40
0.2779452695543437
 40
0.7862805426570517
 40
1.5429573555030107
 40
1.5429573555030107
 40
1.5429573555030107
 10
3841.8179690598799
 20
1744.2894438356741
 30
0.0
 10
3841.7837525163482
 20
1744.2889981309049
 30
0.0
 10
3841.2963422191469
 20
1744.282649123355
 30
0.0
 10
3840.8187025188572
 20
1744.0547610796359
 30
0.0
 10
3840.3745934593758
 20
1743.84287093586
 30
0.0
 11
3841.8179690598799
 21
1744.2894438356741
 31
0.0
 11
3841.7492325269382
 21
1744.2885484734511
 31
0.0
 11
3841.6114560151764
 21
1744.2867537963207
 31
0.0
 11
3841.3271367180032
 21
1744.260781531879
 31
0.0
 11
3841.1044064185417
 21
1744.191074084486
 31
0.0
 11
3840.7791012289081
 21
1744.0358667949045
 31
0.0
 11
3840.3745934593758
 21
1743.84287093586
 31
0.0
  0
SPLINE
  5
355
100
AcDbEntity
  8
0
  6
CONTINUOUS
 62
           3
100
AcDbSpline
210
0.0
220
0.0
230
1.0
 70
           0
 71
           3
 72
           8
 73
           5
 74
           7
 42
0.00000000001
 43
0.00000000001
 44
0.00000000001
 40
0.0
 40
0.0
 40
0.0
 40
0.7097126556358968
 40
1.6878594213849945
 40
2.9354211178800149
 40
2.9354211178800149
 40
2.9354211178800149
 10
3834.6010905917178
 20
1739.736036405026
 30
0.0
 10
3834.8144470076359
 20
1739.676389569931
 30
0.0
 10
3835.7547442164569
 20
1739.413516047623
 30
0.0
 10
3836.7321853681269
 20
1739.3435438716201
 30
0.0
 10
3837.48784202555
 20
1739.28944860405
 30
0.0
 11
3834.6010905917178
 21
1739.736036405026
 31
0.0
 11
3834.8599521587971
 21
1739.6636679546184
 31
0.0
 11
3835.2098240282003
 21
1739.5658562735855
 31
0.0
 11
3835.7259047955049
 21
1739.4439133207841
 31
0.0
 11
3836.1843067209065
 21
1739.382764914305
 31
0.0
 11
3836.784129870678
 21
1739.3398253153989
 31
0.0
 11
3837.48784202555
 21
1739.28944860405
 31
0.0
  0
SPLINE
  5
354
100
AcDbEntity
  8
0
  6
CONTINUOUS
 62
           3
100
AcDbSpline
210
0.0
220
0.0
230
1.0
 70
           0
 71
           3
 72
           8
 73
           5
 74
           7
 42
0.00000000001
 43
0.00000000001
 44
0.00000000001
 40
0.0
 40
0.0
 40
0.0
 40
0.727368139489718
 40
1.7065914567872094
 40
2.938722324034567
 40
2.938722324034567
 40
2.938722324034567
 10
3837.48784202555
 20
1739.28944860405
 30
0.0
 10
3837.7265648049079
 20
1739.2949281431181
 30
0.0
 10
3838.7034724508549
 20
1739.3173516572431
 30
0.0
 10
3839.6553341601179
 20
1739.5558322805141
 30
0.0
 10
3840.374593459238
 20
1739.7360364051251
 30
0.0
 11
3837.48784202555
 21
1739.28944860405
 31
0.0
 11
3837.7709763188473
 21
1739.2959475457351
 31
0.0
 11
3838.1429336400261
 21
1739.3044852926541
 31
0.0
 11
3838.668712679385
 21
1739.3405358331756
 31
0.0
 11
3839.1249721758049
 21
1739.4229547255632
 31
0.0
 11
3839.7025584888197
 21
1739.5676639229291
 31
0.0
 11
3840.374593459238
 21
1739.7360364051251
 31
0.0
  0
SPLINE
  5
353
100
AcDbEntity
  8
0
  6
CONTINUOUS
 62
           3
100
AcDbSpline
210
0.0
220
0.0
230
1.0
 70
           0
 71
           3
 72
           8
 73
           5
 74
           7
 42
0.00000000001
 43
0.00000000001
 44
0.00000000001
 40
0.0
 40
0.0
 40
0.0
 40
1.2321288292596821
 40
2.211350892766875
 40
2.9387184667222428
 40
2.9387184667222428
 40
2.9387184667222428
 10
3840.3745934593758
 20
1743.84287093586
 30
0.0
 10
3839.655333804928
 20
1744.023068218431
 30
0.0
 10
3838.7034713299672
 20
1744.2615398612011
 30
0.0
 10
3837.7265647690319
 20
1744.283964111456
 30
0.0
 10
3837.48784202555
 20
1744.2894438356741
 30
0.0
 11
3840.3745934593758
 21
1743.84287093586
 31
0.0
 11
3839.7025581377407
 21
1744.0112370300822
 31
0.0
 11
3839.1249714817318
 21
1744.155940747607
 31
0.0
 11
3838.6687118508794
 21
1744.2383567788563
 31
0.0
 11
3838.14293326185
 21
1744.2744066454152
 31
0.0
 11
3837.7709762063655
 21
1744.2829446760002
 31
0.0
 11
3837.48784202555
 21
1744.2894438356741
 31
0.0
  0
SPLINE
  5
352
100
AcDbEntity
  8
0
  6
CONTINUOUS
 62
           3
100
AcDbSpline
210
0.0
220
0.0
230
1.0
 70
           0
 71
           3
 72
           8
 73
           5
 74
           7
 42
0.00000000001
 43
0.00000000001
 44
0.00000000001
 40
0.0
 40
0.0
 40
0.0
 40
1.2475591451563848
 40
2.2257037084932723
 40
2.9354142011752828
 40
2.9354142011752828
 40
2.9354142011752828
 10
3837.48784202555
 20
1744.2894438356741
 30
0.0
 10
3836.7321869690459
 20
1744.2353425000961
 30
0.0
 10
3835.7547491555279
 20
1744.1653625658589
 30
0.0
 10
3834.814447152829
 20
1743.9025122433691
 30
0.0
 10
3834.6010905917178
 20
1743.84287093586
 30
0.0
 11
3837.48784202555
 21
1744.2894438356741
 31
0.0
 11
3836.784131526711
 21
1744.2390614852613
 31
0.0
 11
3836.1843101432032
 21
1744.1961171051785
 31
0.0
 11
3835.7259086152485
 21
1744.1349694926362
 31
0.0
 11
3835.2098260067332
 21
1744.0130357336479
 31
0.0
 11
3834.8599527260276
 21
1743.9152327890615
 31
0.0
 11
3834.6010905917178
 21
1743.84287093586
 31
0.0
  0
SPLINE
  5
351
100
AcDbEntity
  8
0
  6
CONTINUOUS
 62
           3
100
AcDbSpline
210
0.0
220
0.0
230
1.0
 70
           0
 71
           3
 72
           8
 73
           5
 74
           7
 42
0.00000000001
 43
0.00000000001
 44
0.00000000001
 40
0.0
 40
0.0
 40
0.0
 40
0.2779464854644755
 40
0.7862840844005865
 40
1.542964265919637
 40
1.542964265919637
 40
1.542964265919637
 10
3841.8179690598399
 20
1739.2894486039229
 30
0.0
 10
3841.8521856092379
 20
1739.289002908678
 30
0.0
 10
3842.3395983283272
 20
1739.2826540044441
 30
0.0
 10
3842.8172368078749
 20
1739.0547582204831
 30
0.0
 10
3843.2613448932389
 20
1738.842860803024
 30
0.0
 11
3841.8179690598399
 21
1739.2894486039229
 31
0.0
 11
3841.8867058056217
 21
1739.2885532580465
 31
0.0
 11
3842.0244829441699
 21
1739.2867586109064
 31
0.0
 11
3842.3088033133463
 21
1739.260785617063
 31
0.0
 11
3842.5315336525609
 21
1739.191075848456
 31
0.0
 11
3842.8568380403872
 21
1739.0358632731113
 31
0.0
 11
3843.2613448932389
 21
1738.842860803024
 31
0.0
  0
SPLINE
  5
350
100
AcDbEntity
  8
0
  6
CONTINUOUS
 62
           3
100
AcDbSpline
210
0.0
220
0.0
230
1.0
 70
           0
 71
           3
 72
           8
 73
           5
 74
           7
 42
0.00000000001
 43
0.00000000001
 44
0.00000000001
 40
0.0
 40
0.0
 40
0.0
 40
0.3778155284974816
 40
0.8942062233970229
 40
1.5357514174679372
 40
1.5357514174679372
 40
1.5357514174679372
 10
3831.714339157847
 20
1738.842860803024
 30
0.0
 10
3831.8088572009078
 20
1738.8959208909071
 30
0.0
 10
3832.278727098776
 20
1739.159694211377
 30
0.0
 10
3832.7673680381772
 20
1739.2318263862021
 30
0.0
 10
3833.1577149912209
 20
1739.28944860405
 30
0.0
 11
3831.714339157847
 21
1738.842860803024
 31
0.0
 11
3831.8348594582803
 21
1738.9105179140297
 31
0.0
 11
3832.0073842734591
 21
1739.0073690712813
 31
0.0
 11
3832.2653697182018
 21
1739.1296549052392
 31
0.0
 11
3832.4966404017987
 21
1739.1918621269215
 31
0.0
 11
3832.7972728673435
 21
1739.236240875844
 31
0.0
 11
3833.1577149912209
 21
1739.28944860405
 31
0.0
  0
SPLINE
  5
34F
100
AcDbEntity
  8
0
  6
CONTINUOUS
 62
           3
100
AcDbSpline
210
0.0
220
0.0
230
1.0
 70
           0
 71
           3
 72
           8
 73
           5
 74
           7
 42
0.00000000001
 43
0.00000000001
 44
0.00000000001
 40
0.0
 40
0.0
 40
0.0
 40
0.6415450374774372
 40
1.1579303686102735
 40
1.535738174906581
 40
1.535738174906581
 40
1.535738174906581
 10
3833.1577149912209
 20
1734.289453372422
 30
0.0
 10
3832.7673690124871
 20
1734.347082893878
 30
0.0
 10
3832.2787299332349
 20
1734.4192241168871
 30
0.0
 10
3831.808857265989
 20
1734.682971648258
 30
0.0
 10
3831.714339157847
 20
1734.7360262722259
 30
0.0
 11
3833.1577149912209
 21
1734.289453372422
 31
0.0
 11
3832.7972735495778
 21
1734.3426678768012
 31
0.0
 11
3832.4966411821179
 21
1734.3870523470277
 31
0.0
 11
3832.2653713511945
 21
1734.4492588979649
 31
0.0
 11
3832.0073843561895
 21
1734.5715350110572
 31
0.0
 11
3831.834859511504
 21
1734.6683761449499
 31
0.0
 11
3831.714339157847
 21
1734.7360262722259
 31
0.0
  0
SPLINE
  5
34E
100
AcDbEntity
  8
0
  6
CONTINUOUS
 62
           3
100
AcDbSpline
210
0.0
220
0.0
230
1.0
 70
           0
 71
           3
 72
           8
 73
           5
 74
           7
 42
0.00000000001
 43
0.00000000001
 44
0.00000000001
 40
0.0
 40
0.0
 40
0.0
 40
0.3539460334939913
 40
0.8643414136589072
 40
1.5431068113974566
 40
1.5431068113974566
 40
1.5431068113974566
 10
3833.1577149912209
 20
1739.28944860405
 30
0.0
 10
3833.267169146297
 20
1739.2848427078329
 30
0.0
 10
3833.7555269749182
 20
1739.2642923187409
 30
0.0
 10
3834.2316666523202
 20
1739.0269828343551
 30
0.0
 10
3834.6010905918438
 20
1738.842860803024
 30
0.0
 11
3833.1577149912209
 21
1739.28944860405
 31
0.0
 11
3833.2898009894557
 21
1739.2838903463567
 31
0.0
 11
3833.4671506740069
 21
1739.2764273657112
 31
0.0
 11
3833.7345234452614
 21
1739.2418623949266
 31
0.0
 11
3833.9598891572023
 21
1739.1624375765141
 31
0.0
 11
3834.2560782634218
 21
1739.0148160120621
 31
0.0
 11
3834.6010905918438
 21
1738.842860803024
 31
0.0
  0
SPLINE
  5
34D
100
AcDbEntity
  8
0
  6
CONTINUOUS
 62
           3
100
AcDbSpline
210
0.0
220
0.0
230
1.0
 70
           0
 71
           3
 72
           8
 73
           5
 74
           7
 42
0.00000000001
 43
0.00000000001
 44
0.00000000001
 40
0.0
 40
0.0
 40
0.0
 40
0.678770053492992
 40
1.1891668948828245
 40
1.5431123743446786
 40
1.5431123743446786
 40
1.5431123743446786
 10
3834.6010905917178
 20
1734.7360262722441
 30
0.0
 10
3834.2316667782779
 20
1734.5518975716091
 30
0.0
 10
3833.7555273544958
 20
1734.3145795367859
 30
0.0
 10
3833.2671691564592
 20
1734.294053751262
 30
0.0
 10
3833.1577149912209
 20
1734.289453372422
 30
0.0
 11
3834.6010905917178
 21
1734.7360262722441
 31
0.0
 11
3834.2560782775117
 21
1734.5640647830094
 31
0.0
 11
3833.9598889617728
 21
1734.4164377165753
 31
0.0
 11
3833.7345234958202
 21
1734.3370139466106
 31
0.0
 11
3833.4671503125164
 21
1734.3024589962945
 31
0.0
 11
3833.2898009041637
 21
1734.29500496781
 31
0.0
 11
3833.1577149912209
 21
1734.289453372422
 31
0.0
  0
SPLINE
  5
34C
100
AcDbEntity
  8
0
  6
CONTINUOUS
 62
           3
100
AcDbSpline
210
0.0
220
0.0
230
1.0
 70
           0
 71
           3
 72
           8
 73
           5
 74
           7
 42
0.00000000001
 43
0.00000000001
 44
0.00000000001
 40
0.0
 40
0.0
 40
0.0
 40
0.2779452695543734
 40
0.7862805426579951
 40
1.5429573556209699
 40
1.5429573556209699
 40
1.5429573556209699
 10
3841.8179690598799
 20
1734.289453372422
 30
0.0
 10
3841.7837525163482
 20
1734.289899077191
 30
0.0
 10
3841.2963422191469
 20
1734.2962480847459
 30
0.0
 10
3840.8187025188572
 20
1734.5241361284691
 30
0.0
 10
3840.374593459238
 20
1734.7360262722259
 30
0.0
 11
3841.8179690598799
 21
1734.289453372422
 31
0.0
 11
3841.7492325269382
 21
1734.2903487346452
 31
0.0
 11
3841.6114560151764
 21
1734.292143411777
 31
0.0
 11
3841.3271367180073
 21
1734.3181156762191
 31
0.0
 11
3841.1044064185598
 21
1734.3878231236085
 31
0.0
 11
3840.7791012288781
 21
1734.5430304131933
 31
0.0
 11
3840.374593459238
 21
1734.7360262722259
 31
0.0
  0
SPLINE
  5
34B
100
AcDbEntity
  8
0
  6
CONTINUOUS
 62
           3
100
AcDbSpline
210
0.0
220
0.0
230
1.0
 70
           0
 71
           3
 72
           8
 73
           5
 74
           7
 42
0.00000000001
 43
0.00000000001
 44
0.00000000001
 40
0.0
 40
0.0
 40
0.0
 40
0.555855849068992
 40
1.5343195422050102
 40
2.9385037456647591
 40
2.9385037456647591
 40
2.9385037456647591
 10
3837.48784202555
 20
1734.289453372324
 30
0.0
 10
3837.4194089401658
 20
1734.2898990783031
 30
0.0
 10
3836.4445869911169
 20
1734.2962481106711
 30
0.0
 10
3835.4893082201379
 20
1734.5241361292331
 30
0.0
 10
3834.6010905917178
 20
1734.7360262722441
 30
0.0
 11
3837.48784202555
 21
1734.289453372324
 31
0.0
 11
3837.3482271801213
 21
1734.2903626863235
 31
0.0
 11
3837.0662488146017
 21
1734.2921992163647
 31
0.0
 11
3836.5019281998907
 21
1734.3186321422208
 31
0.0
 11
3836.0522900027272
 21
1734.389833131178
 31
0.0
 11
3835.4079992586803
 21
1734.543532915472
 31
0.0
 11
3834.6010905917178
 21
1734.7360262722441
 31
0.0
  0
SPLINE
  5
34A
100
AcDbEntity
  8
0
  6
CONTINUOUS
 62
           3
100
AcDbSpline
210
0.0
220
0.0
230
1.0
 70
           0
 71
           3
 72
           8
 73
           5
 74
           7
 42
0.00000000001
 43
0.00000000001
 44
0.00000000001
 40
0.0
 40
0.0
 40
0.0
 40
0.555856271414259
 40
1.534321064370578
 40
2.9385072682912883
 40
2.9385072682912883
 40
2.9385072682912883
 10
3837.48784202555
 20
1739.28944860405
 30
0.0
 10
3837.5562751130178
 20
1739.2890029106779
 30
0.0
 10
3838.5310979038982
 20
1739.2826540512151
 30
0.0
 10
3839.4863762086179
 20
1739.0547582218651
 30
0.0
 10
3840.3745934593758
 20
1738.8428608030711
 30
0.0
 11
3837.48784202555
 21
1739.28944860405
 31
0.0
 11
3837.6274569282796
 21
1739.2885393152992
 31
0.0
 11
3837.9094354615336
 21
1739.2867028357909
 31
0.0
 11
3838.4737564751608
 21
1739.2602691944785
 31
0.0
 11
3838.9233946313116
 21
1739.1890658396924
 31
0.0
 11
3839.5676851269805
 21
1739.0353607716233
 31
0.0
 11
3840.3745934593758
 21
1738.8428608030711
 31
0.0
  0
CIRCLE
  5
349
100
AcDbEntity
  8
1
  6
CONTINUOUS
 62
           4
100
AcDbCircle
 10
-0.000000000002
 20
5799.305165759572
 40
110.7
  0
CIRCLE
  5
348
100
AcDbEntity
  8
1
  6
CONTINUOUS
 62
           4
100
AcDbCircle
 10
-0.000000000002
 20
5799.305165759572
 40
84.123
  0
CIRCLE
  5
347
100
AcDbEntity
  8
1
  6
CONTINUOUS
 62
           7
100
AcDbCircle
 10
0.0
 20
5799.305165759572
 40
317.5
  0
CIRCLE
  5
346
100
AcDbEntity
  8
1
  6
CONTINUOUS
 62
           3
100
AcDbCircle
 10
8.472255321878
 20
1674.490297527053
 40
40.0
  0
CIRCLE
  5
345
100
AcDbEntity
  8
1
  6
CONTINUOUS
 62
           7
100
AcDbCircle
 10
4221.587845303873
 20
979.289449200001
 40
7.5
  0
CIRCLE
  5
344
100
AcDbEntity
  8
1
  6
CONTINUOUS
 62
           2
100
AcDbCircle
 10
4221.587845303873
 20
979.289449200001
 40
8.350000000001
  0
CIRCLE
  5
343
100
AcDbEntity
  8
1
  6
CONTINUOUS
 62
           7
100
AcDbCircle
 10
4221.587845303873
 20
979.289449200001
 40
15.0
  0
ARC
  5
342
100
AcDbEntity
  8
7
  6
CONTINUOUS
 62
           7
100
AcDbCircle
 10
108.800000000001
 20
3306.889449200002
 40
3.199999999999
100
AcDbArc
 50
0.0
 51
90.0
  0
ARC
  5
341
100
AcDbEntity
  8
7
  6
CONTINUOUS
 62
           7
100
AcDbCircle
 10
107.923187
 20
3312.089449200003
 40
2.0
100
AcDbArc
 50
-124.999999999985
 51
-90.0
  0
ARC
  5
340
100
AcDbEntity
  8
7
  6
CONTINUOUS
 62
           7
100
AcDbCircle
 10
87.300000000001
 20
3328.630583200003
 40
2.0
100
AcDbArc
 50
180.0
 51
-124.999999999957
  0
ARC
  5
33F
100
AcDbEntity
  8
7
  6
CONTINUOUS
 62
           7
100
AcDbCircle
 10
82.250000000002
 20
3328.2394492
 40
3.05368629692
100
AcDbArc
 50
2.815556684256
 51
92.815556684238
  0
ARC
  5
33E
100
AcDbEntity
  8
7
  6
CONTINUOUS
 62
           7
100
AcDbCircle
 10
-89.799999999999
 20
3328.630583200003
 40
2.000000000002
100
AcDbArc
 50
-55.0
 51
0.0
  0
ARC
  5
33D
100
AcDbEntity
  8
7
  6
CONTINUOUS
 62
           7
100
AcDbCircle
 10
-84.75
 20
3328.2394492
 40
3.053686296921
100
AcDbArc
 50
87.184443315761
 51
177.184443315743
  0
ARC
  5
33C
100
AcDbEntity
  8
7
  6
CONTINUOUS
 62
           7
100
AcDbCircle
 10
-105.799999999999
 20
3306.7008062
 40
6.200000000001
100
AcDbArc
 50
122.681914999995
 51
180.0
  0
ARC
  5
33B
100
AcDbEntity
  8
1
  6
CONTINUOUS
 62
           7
100
AcDbCircle
 10
-40.0
 20
5764.30516575957
 40
454.999999999998
100
AcDbArc
 50
-4.148070782362
 51
1.333022116547
  0
ARC
  5
33A
100
AcDbEntity
  8
1
  6
CONTINUOUS
 62
           7
100
AcDbCircle
 10
54.999999999998
 20
5784.30516575957
 40
360.000000000002
100
AcDbArc
 50
73.746287853066
 51
93.901683355293
  0
ARC
  5
339
100
AcDbEntity
  8
1
  6
CONTINUOUS
 62
           7
100
AcDbCircle
 10
-37.231092924514
 20
5846.80516575957
 40
542.507066171854
100
AcDbArc
 50
-174.449140676885
 51
-90.292433754283
  0
ARC
  5
338
100
AcDbEntity
  8
1
  6
CONTINUOUS
 62
           7
100
AcDbCircle
 10
-577.680202350803
 20
5799.305165759572
 40
5.0
100
AcDbArc
 50
90.0
 51
95.0475155192
  0
ARC
  5
337
100
AcDbEntity
  8
1
  6
CONTINUOUS
 62
           7
100
AcDbCircle
 10
-577.680202350803
 20
5799.305165759572
 40
5.000000000002
100
AcDbArc
 50
-84.421966108668
 51
90.0
  0
ARC
  5
336
100
AcDbEntity
  8
1
  6
CONTINUOUS
 62
           7
100
AcDbCircle
 10
-40.0
 20
5849.30516575957
 40
540.0
100
AcDbArc
 50
180.0
 51
-175.217743666854
  0
ARC
  5
335
100
AcDbEntity
  8
1
  6
CONTINUOUS
 62
           7
100
AcDbCircle
 10
-42.747816968456
 20
5761.805165759571
 40
457.508251836063
100
AcDbArc
 50
-89.655876673074
 51
-5.063201692938
  0
ARC
  5
334
100
AcDbEntity
  8
1
  6
CONTINUOUS
 62
           7
100
AcDbCircle
 10
413.419036500111
 20
5726.408235286104
 40
5.000000000001
100
AcDbArc
 50
85.537115658274
 51
90.0
  0
ARC
  5
333
100
AcDbEntity
  8
1
  6
CONTINUOUS
 62
           7
100
AcDbCircle
 10
413.419036500111
 20
5726.408235286104
 40
5.0
100
AcDbArc
 50
90.0
 51
-95.092511460495
  0
ARC
  5
332
100
AcDbEntity
  8
1
  6
CONTINUOUS
 62
           7
100
AcDbCircle
 10
398.7152245979
 20
5891.355828436711
 40
5.0
100
AcDbArc
 50
107.697175098915
 51
-73.098606012751
  0
ARC
  5
331
100
AcDbEntity
  8
1
  6
CONTINUOUS
 62
           7
100
AcDbCircle
 10
54.999999999998
 20
5784.30516575957
 40
360.000000000002
100
AcDbArc
 50
0.0
 51
16.503503431389
  0
ARC
  5
330
100
AcDbEntity
  8
1
  6
CONTINUOUS
 62
           7
100
AcDbCircle
 10
54.999999999998
 20
5784.30516575957
 40
360.0
100
AcDbArc
 50
18.095065654746
 51
72.15472562971
  0
ARC
  5
32F
100
AcDbEntity
  8
1
  6
CONTINUOUS
 62
           7
100
AcDbCircle
 10
160.551161566787
 20
6128.483829089972
 40
5.000000000001
100
AcDbArc
 50
163.348397297217
 51
-17.447383814432
  0
ARC
  5
32E
100
AcDbEntity
  8
1
  6
CONTINUOUS
 62
           7
100
AcDbCircle
 10
54.999999999998
 20
5784.30516575957
 40
360.000000000001
100
AcDbArc
 50
-1.498629881627
 51
0.0
  0
ARC
  5
32D
100
AcDbEntity
  8
1
  6
CONTINUOUS
 62
           7
100
AcDbCircle
 10
-0.000000000002
 20
5799.305165759572
 40
125.0
100
AcDbArc
 50
90.0
 51
-19.47546158221
  0
ARC
  5
32C
100
AcDbEntity
  8
1
  6
CONTINUOUS
 62
           7
100
AcDbCircle
 10
-0.000000000002
 20
5799.305165759572
 40
125.0
100
AcDbArc
 50
19.475461582209
 51
90.0
  0
ARC
  5
32B
100
AcDbEntity
  8
7
  6
CONTINUOUS
 62
           7
100
AcDbCircle
 10
4422.787845303871
 20
3306.589449199998
 40
3.200000000003
100
AcDbArc
 50
90.0
 51
180.0
  0
ARC
  5
32A
100
AcDbEntity
  8
7
  6
CONTINUOUS
 62
           7
100
AcDbCircle
 10
4423.664658303874
 20
3311.789449200001
 40
2.0
100
AcDbArc
 50
-90.0
 51
-55.000000000101
  0
ARC
  5
329
100
AcDbEntity
  8
7
  6
CONTINUOUS
 62
           7
100
AcDbCircle
 10
4444.287845303871
 20
3328.330583199998
 40
2.0
100
AcDbArc
 50
-54.999999999927
 51
0.0
  0
ARC
  5
328
100
AcDbEntity
  8
7
  6
CONTINUOUS
 62
           7
100
AcDbCircle
 10
4449.487845303873
 20
3328.089449199998
 40
3.200000000002
100
AcDbArc
 50
90.0
 51
180.0
  0
ARC
  5
327
100
AcDbEntity
  8
7
  6
CONTINUOUS
 62
           7
100
AcDbCircle
 10
4621.387845303872
 20
3328.330583199998
 40
2.0
100
AcDbArc
 50
180.0
 51
-125.000000000009
  0
ARC
  5
326
100
AcDbEntity
  8
7
  6
CONTINUOUS
 62
           7
100
AcDbCircle
 10
4616.187845303873
 20
3328.089449199998
 40
3.2
100
AcDbArc
 50
0.0
 51
90.0
  0
ARC
  5
325
100
AcDbEntity
  8
7
  6
CONTINUOUS
 62
           7
100
AcDbCircle
 10
4637.387845303872
 20
3306.400806199999
 40
6.200000000002
100
AcDbArc
 50
0.0
 51
57.318085
  0
ARC
  5
324
100
AcDbEntity
  8
1
  6
CONTINUOUS
 62
           3
100
AcDbCircle
 10
4341.751412994917
 20
2304.289449200002
 40
9.499999999997
100
AcDbArc
 50
-124.797812779177
 51
0.0
  0
ARC
  5
323
100
AcDbEntity
  8
1
  6
CONTINUOUS
 62
           3
100
AcDbCircle
 10
4341.751412994917
 20
2304.289449200002
 40
9.5
100
AcDbArc
 50
0.0
 51
125.916957371437
  0
ARC
  5
322
100
AcDbEntity
  8
1
  6
CONTINUOUS
 62
           3
100
AcDbCircle
 10
4341.751412994917
 20
2304.289449200002
 40
5.87183499506
100
AcDbArc
 50
0.0
 51
38.599713917931
  0
ARC
  5
321
100
AcDbEntity
  8
1
  6
CONTINUOUS
 62
           3
100
AcDbCircle
 10
4341.751412994917
 20
2304.289449200002
 40
5.871834995068
100
AcDbArc
 50
38.599713917931
 51
90.0
  0
ARC
  5
320
100
AcDbEntity
  8
1
  6
CONTINUOUS
 62
           3
100
AcDbCircle
 10
4341.751412994917
 20
2304.289449200002
 40
5.871834995066
100
AcDbArc
 50
-90.0
 51
0.0
  0
ARC
  5
31F
100
AcDbEntity
  8
0
  6
CONTINUOUS
 62
           3
100
AcDbCircle
 10
3899.98784202539
 20
1747.289449200115
 40
2.5
100
AcDbArc
 50
0.0
 51
180.0
  0
ARC
  5
31E
100
AcDbEntity
  8
0
  6
CONTINUOUS
 62
           3
100
AcDbCircle
 10
3899.98784202539
 20
2011.2894491999
 40
2.499999999994
100
AcDbArc
 50
180.0
 51
0.0
  0
ARC
  5
31D
100
AcDbEntity
  8
0
  6
CONTINUOUS
 62
           3
100
AcDbCircle
 10
3774.9878420257
 20
2011.2894491999
 40
2.5
100
AcDbArc
 50
180.0
 51
0.0
  0
ARC
  5
31C
100
AcDbEntity
  8
0
  6
CONTINUOUS
 62
           3
100
AcDbCircle
 10
3774.9878420257
 20
1747.289449200115
 40
2.49999999999
100
AcDbArc
 50
0.0
 51
180.0
  0
ARC
  5
31B
100
AcDbEntity
  8
0
  6
CONTINUOUS
 62
           3
100
AcDbCircle
 10
3779.48784202569
 20
1888.289449199999
 40
0.999999999997
100
AcDbArc
 50
-90.0
 51
90.0
  0
ARC
  5
31A
100
AcDbEntity
  8
0
  6
CONTINUOUS
 62
           3
100
AcDbCircle
 10
3779.48784202569
 20
1810.289449200063
 40
1.0
100
AcDbArc
 50
-90.0
 51
90.0
  0
ARC
  5
319
100
AcDbEntity
  8
0
  6
CONTINUOUS
 62
           3
100
AcDbCircle
 10
3779.48784202569
 20
1788.289449200181
 40
0.999999999998
100
AcDbArc
 50
-90.0
 51
90.0
  0
ARC
  5
318
100
AcDbEntity
  8
0
  6
CONTINUOUS
 62
           3
100
AcDbCircle
 10
3895.487842025396
 20
1788.289449200181
 40
1.0
100
AcDbArc
 50
90.0
 51
-90.0
  0
ARC
  5
317
100
AcDbEntity
  8
0
  6
CONTINUOUS
 62
           3
100
AcDbCircle
 10
3895.487842025396
 20
1810.289449200063
 40
0.999999999998
100
AcDbArc
 50
90.0
 51
-90.0
  0
ARC
  5
316
100
AcDbEntity
  8
0
  6
CONTINUOUS
 62
           3
100
AcDbCircle
 10
3895.487842025396
 20
1888.289449199999
 40
1.0
100
AcDbArc
 50
90.0
 51
-90.0
  0
ARC
  5
315
100
AcDbEntity
  8
0
  6
CONTINUOUS
 62
           3
100
AcDbCircle
 10
3895.487842025396
 20
1910.289449199881
 40
1.0
100
AcDbArc
 50
90.0
 51
-90.0
  0
ARC
  5
314
100
AcDbEntity
  8
0
  6
CONTINUOUS
 62
           3
100
AcDbCircle
 10
3779.48784202569
 20
1910.289449199881
 40
0.999999999995
100
AcDbArc
 50
-90.0
 51
90.0
  0
ARC
  5
313
100
AcDbEntity
  8
0
  6
CONTINUOUS
 62
           3
100
AcDbCircle
 10
3843.961344717337
 20
1769.289449199999
 40
0.900000000003
100
AcDbArc
 50
-90.0
 51
-62.733955549559
  0
ARC
  5
312
100
AcDbEntity
  8
0
  6
CONTINUOUS
 62
           3
100
AcDbCircle
 10
3831.014339333745
 20
1769.289449199999
 40
0.899999999999
100
AcDbArc
 50
-117.26604445026
 51
-90.0
  0
ARC
  5
311
100
AcDbEntity
  8
0
  6
CONTINUOUS
 62
           3
100
AcDbCircle
 10
3837.48784202555
 20
1694.289449200061
 40
53.999999999965
100
AcDbArc
 50
180.0
 51
0.0
  0
ARC
  5
310
100
AcDbEntity
  8
0
  6
CONTINUOUS
 62
           3
100
AcDbCircle
 10
3837.48784202555
 20
1694.289449200061
 40
45.999999999972
100
AcDbArc
 50
180.0
 51
0.0
  0
ARC
  5
30F
100
AcDbEntity
  8
0
  6
CONTINUOUS
 62
           3
100
AcDbCircle
 10
3837.48784202555
 20
1734.289449200223
 40
4.0
100
AcDbArc
 50
180.0
 51
0.0
  0
ARC
  5
30E
100
AcDbEntity
  8
1
  6
CONTINUOUS
 62
           3
100
AcDbCircle
 10
8.472255321878
 20
1674.490297527053
 40
28.750000000008
100
AcDbArc
 50
83.827497999998
 51
96.17250199999
  0
ARC
  5
30D
100
AcDbEntity
  8
1
  6
CONTINUOUS
 62
           3
100
AcDbCircle
 10
8.472255321878
 20
1674.490297527053
 40
28.749999999989
100
AcDbArc
 50
-96.172501999994
 51
-83.827497999994
  0
ARC
  5
30C
100
AcDbEntity
  8
1
  6
CONTINUOUS
 62
           3
100
AcDbCircle
 10
8.472255321878
 20
1674.490297527053
 40
10.75
100
AcDbArc
 50
0.0
 51
61.226493000001
  0
ARC
  5
30B
100
AcDbEntity
  8
1
  6
CONTINUOUS
 62
           3
100
AcDbCircle
 10
8.472255321878
 20
1674.490297527053
 40
10.750000000001
100
AcDbArc
 50
-61.226493000026
 51
0.0
  0
ARC
  5
30A
100
AcDbEntity
  8
1
  6
CONTINUOUS
 62
           3
100
AcDbCircle
 10
8.472255321878
 20
1674.490297527053
 40
10.74999999999
100
AcDbArc
 50
118.773506999971
 51
-118.773506999946
  0
ARC
  5
309
100
AcDbEntity
  8
1
  6
CONTINUOUS
 62
           3
100
AcDbCircle
 10
12.510557321878
 20
1674.490297527053
 40
10.0
100
AcDbArc
 50
174.993206999976
 51
-174.993207000022
  0
ARC
  5
308
100
AcDbEntity
  8
1
  6
CONTINUOUS
 62
           3
100
AcDbCircle
 10
4.433952321884
 20
1674.490297527053
 40
9.999999999999
100
AcDbArc
 50
-5.006792999977
 51
5.006793000024
  0
ARC
  5
307
100
AcDbEntity
  8
1
  6
CONTINUOUS
 62
           3
100
AcDbCircle
 10
5.434752321878
 20
1702.576523527052
 40
0.5
100
AcDbArc
 50
96.172501999319
 51
174.993206998559
  0
ARC
  5
306
100
AcDbEntity
  8
1
  6
CONTINUOUS
 62
           3
100
AcDbCircle
 10
11.509758321877
 20
1702.576523527052
 40
0.500000000005
100
AcDbArc
 50
5.006793001362
 51
83.827497998181
  0
ARC
  5
305
100
AcDbEntity
  8
1
  6
CONTINUOUS
 62
           3
100
AcDbCircle
 10
5.434752321878
 20
1646.40407152706
 40
0.499999999996
100
AcDbArc
 50
-174.993206999935
 51
-96.172501999322
  0
ARC
  5
304
100
AcDbEntity
  8
1
  6
CONTINUOUS
 62
           3
100
AcDbCircle
 10
11.509758321877
 20
1646.40407152706
 40
0.500000000002
100
AcDbArc
 50
-83.827497998178
 51
-5.006792999986
  0
ARC
  5
303
100
AcDbEntity
  8
1
  6
CONTINUOUS
 62
           7
100
AcDbCircle
 10
3323.587845303875
 20
1636.039449200003
 40
37.0
100
AcDbArc
 50
180.0
 51
-90.0
  0
ARC
  5
302
100
AcDbEntity
  8
1
  6
CONTINUOUS
 62
           7
100
AcDbCircle
 10
3323.587845303875
 20
1636.039449200003
 40
17.0
100
AcDbArc
 50
180.0
 51
-90.0
  0
LINE
  5
301
100
AcDbEntity
  8
2
  6
CONTINUOUS
 62
           7
100
AcDbLine
 10
108.613664
 20
3029.289449200001
 11
108.613664
 21
3233.089449200002
  0
LINE
  5
300
100
AcDbEntity
  8
2
  6
CONTINUOUS
 62
           7
100
AcDbLine
 10
-108.613663999999
 20
3029.289449200001
 11
-108.613663999999
 21
3233.089449200002
  0
LINE
  5
2FF
100
AcDbEntity
  8
1
  6
CONTINUOUS
 62
           7
100
AcDbLine
 10
156.499999999998
 20
3050.589449200003
 11
118.613664
 21
3050.589449200003
  0
LINE
  5
2FE
100
AcDbEntity
  8
1
  6
CONTINUOUS
 62
           7
100
AcDbLine
 10
118.613664
 20
3130.589449200003
 11
156.499999999998
 21
3130.589449200003
  0
LINE
  5
2FD
100
AcDbEntity
  8
1
  6
CONTINUOUS
 62
           7
100
AcDbLine
 10
108.613664
 20
3060.589449200003
 11
108.613664
 21
3120.589449200003
  0
LINE
  5
2FC
100
AcDbEntity
  8
1
  6
CONTINUOUS
 62
           7
100
AcDbLine
 10
166.499999999998
 20
3120.589449200003
 11
166.499999999998
 21
3060.589449200003
  0
LINE
  5
2FB
100
AcDbEntity
  8
7
  6
CONTINUOUS
 62
           7
100
AcDbLine
 10
115.0
 20
3272.126987573371
 11
115.0
 21
3244.589449200002
  0
LINE
  5
2FA
100
AcDbEntity
  8
7
  6
CONTINUOUS
 62
           7
100
AcDbLine
 10
-115.0
 20
3272.126987573371
 11
-112.0
 21
3306.7008062
  0
LINE
  5
2F9
100
AcDbEntity
  8
1
  6
CONTINUOUS
 62
           4
100
AcDbLine
 10
115.0
 20
3272.126987573371
 11
-115.0
 21
3272.126987573371
  0
LINE
  5
2F8
100
AcDbEntity
  8
2
  6
CONTINUOUS
 62
           7
100
AcDbLine
 10
-103.820540999999
 20
3244.589449200002
 11
-108.613663999999
 21
3233.089449200002
  0
LINE
  5
2F7
100
AcDbEntity
  8
2
  6
CONTINUOUS
 62
           7
100
AcDbLine
 10
108.613664
 20
3233.089449200002
 11
103.820541000001
 21
3244.589449200002
  0
LINE
  5
2F6
100
AcDbEntity
  8
7
  6
CONTINUOUS
 62
           7
100
AcDbLine
 10
0.000000000002
 20
3331.2894492
 11
82.1
 21
3331.2894492
  0
LINE
  5
2F5
100
AcDbEntity
  8
7
  6
CONTINUOUS
 62
           7
100
AcDbLine
 10
86.152847000001
 20
3326.992279200002
 11
106.776034
 21
3310.451145200002
  0
LINE
  5
2F4
100
AcDbEntity
  8
7
  6
CONTINUOUS
 62
           4
100
AcDbLine
 10
-110.992022999999
 20
3310.089449200002
 11
108.800000000001
 21
3310.089449200002
  0
LINE
  5
2F3
100
AcDbEntity
  8
7
  6
CONTINUOUS
 62
           7
100
AcDbLine
 10
112.0
 20
3306.889449200002
 11
115.0
 21
3272.126987573371
  0
LINE
  5
2F2
100
AcDbEntity
  8
7
  6
CONTINUOUS
 62
           7
100
AcDbLine
 10
115.0
 20
3244.589449200002
 11
0.000000000002
 21
3244.589449200002
  0
LINE
  5
2F1
100
AcDbEntity
  8
7
  6
CONTINUOUS
 62
           7
100
AcDbLine
 10
-115.0
 20
3244.589449200002
 11
-115.0
 21
3272.126987573371
  0
LINE
  5
2F0
100
AcDbEntity
  8
7
  6
CONTINUOUS
 62
           7
100
AcDbLine
 10
0.000000000002
 20
3331.2894492
 11
-84.599999999999
 21
3331.2894492
  0
LINE
  5
2EF
100
AcDbEntity
  8
7
  6
CONTINUOUS
 62
           7
100
AcDbLine
 10
-88.652848
 20
3326.992279200002
 11
-109.147842999999
 21
3311.919230200003
  0
LINE
  5
2EE
100
AcDbEntity
  8
7
  6
CONTINUOUS
 62
           7
100
AcDbLine
 10
0.000000000002
 20
3244.589449200002
 11
-115.0
 21
3244.589449200002
  0
LINE
  5
2ED
100
AcDbEntity
  8
1
  6
CONTINUOUS
 62
           7
100
AcDbLine
 10
-186.0
 20
5985.305165759564
 11
-186.0
 21
5589.305165759572
  0
LINE
  5
2EC
100
AcDbEntity
  8
1
  6
CONTINUOUS
 62
           7
100
AcDbLine
 10
185.999999999993
 20
5985.305165759564
 11
-210.0
 21
5985.305165759564
  0
LINE
  5
2EB
100
AcDbEntity
  8
1
  6
CONTINUOUS
 62
           7
100
AcDbLine
 10
185.999999999993
 20
5613.305165759572
 11
185.999999999993
 21
6009.305165759572
  0
LINE
  5
2EA
100
AcDbEntity
  8
1
  6
CONTINUOUS
 62
           7
100
AcDbLine
 10
-186.0
 20
5613.305165759572
 11
210.0
 21
5613.305165759572
  0
LINE
  5
2E9
100
AcDbEntity
  8
1
  6
CONTINUOUS
 62
           7
100
AcDbLine
 10
30.50394303083
 20
6143.470786598986
 11
0.0
 21
6199.305165759572
  0
LINE
  5
2E8
100
AcDbEntity
  8
1
  6
CONTINUOUS
 62
           7
100
AcDbLine
 10
-580.000000000002
 20
6176.305165759572
 11
-580.0
 21
5849.30516575957
  0
LINE
  5
2E7
100
AcDbEntity
  8
1
  6
CONTINUOUS
 62
           7
100
AcDbLine
 10
-580.000000000002
 20
6176.305165759572
 11
-570.000000000002
 21
6189.305165759572
  0
LINE
  5
2E6
100
AcDbEntity
  8
1
  6
CONTINUOUS
 62
           7
100
AcDbLine
 10
-570.000000000002
 20
6199.305165759572
 11
-570.000000000002
 21
6189.305165759572
  0
LINE
  5
2E5
100
AcDbEntity
  8
1
  6
CONTINUOUS
 62
           7
100
AcDbLine
 10
-40.387316823279
 20
5272.460792757298
 11
-569.956959680419
 21
5799.305165759573
  0
LINE
  5
2E4
100
AcDbEntity
  8
1
  6
CONTINUOUS
 62
           7
100
AcDbLine
 10
-569.956959680419
 20
5799.305165759573
 11
-175.0
 21
6199.305165759572
  0
LINE
  5
2E3
100
AcDbEntity
  8
1
  6
CONTINUOUS
 62
           7
100
AcDbLine
 10
410.99206566863
 20
5726.175078471582
 11
-40.387316823279
 21
5272.460792757298
  0
LINE
  5
2E2
100
AcDbEntity
  8
1
  6
CONTINUOUS
 62
           7
100
AcDbLine
 10
166.499999999998
 20
5833.055165759572
 11
166.499999999998
 21
5765.555165759572
  0
LINE
  5
2E1
100
AcDbEntity
  8
1
  6
CONTINUOUS
 62
           7
100
AcDbLine
 10
113.94625844666
 20
5765.555165759572
 11
113.94625844666
 21
5833.055165759572
  0
LINE
  5
2E0
100
AcDbEntity
  8
1
  6
CONTINUOUS
 62
           7
100
AcDbLine
 10
123.94625844666
 20
5843.055165759572
 11
156.499999999998
 21
5843.055165759572
  0
LINE
  5
2DF
100
AcDbEntity
  8
1
  6
CONTINUOUS
 62
           7
100
AcDbLine
 10
156.499999999998
 20
5755.555165759572
 11
123.94625844666
 21
5755.555165759572
  0
LINE
  5
2DE
100
AcDbEntity
  8
1
  6
CONTINUOUS
 62
           4
100
AcDbLine
 10
115.286004408816
 20
5838.055165759572
 11
109.265668111721
 21
5838.055165759572
  0
LINE
  5
2DD
100
AcDbEntity
  8
1
  6
CONTINUOUS
 62
           4
100
AcDbLine
 10
115.286004408816
 20
5760.555165759572
 11
109.265668111721
 21
5760.555165759572
  0
LINE
  5
2DC
100
AcDbEntity
  8
1
  6
CONTINUOUS
 62
           7
100
AcDbLine
 10
389.999999999998
 20
5891.30516575957
 11
160.0
 21
6121.30516575957
  0
LINE
  5
2DB
100
AcDbEntity
  8
1
  6
CONTINUOUS
 62
           7
100
AcDbLine
 10
34.999999999995
 20
6199.305165759572
 11
39.999999999995
 21
6204.305165759572
  0
LINE
  5
2DA
100
AcDbEntity
  8
1
  6
CONTINUOUS
 62
           7
100
AcDbLine
 10
-605.000000000005
 20
6199.305165759572
 11
-610.000000000005
 21
6204.305165759572
  0
LINE
  5
2D9
100
AcDbEntity
  8
1
  6
CONTINUOUS
 62
           7
100
AcDbLine
 10
-610.000000000005
 20
6204.305165759572
 11
-610.000000000005
 21
6239.305165759572
  0
LINE
  5
2D8
100
AcDbEntity
  8
1
  6
CONTINUOUS
 62
           7
100
AcDbLine
 10
39.999999999995
 20
6239.305165759572
 11
39.999999999995
 21
6204.305165759572
  0
LINE
  5
2D7
100
AcDbEntity
  8
1
  6
CONTINUOUS
 62
           7
100
AcDbLine
 10
34.999999999995
 20
6199.305165759572
 11
-605.000000000005
 21
6199.305165759572
  0
LINE
  5
2D6
100
AcDbEntity
  8
1
  6
CONTINUOUS
 62
           7
100
AcDbLine
 10
39.999999999995
 20
6274.305165759572
 11
39.999999999995
 21
6239.305165759572
  0
LINE
  5
2D5
100
AcDbEntity
  8
1
  6
CONTINUOUS
 62
           7
100
AcDbLine
 10
39.999999999995
 20
6274.305165759572
 11
34.999999999995
 21
6279.305165759572
  0
LINE
  5
2D4
100
AcDbEntity
  8
1
  6
CONTINUOUS
 62
           7
100
AcDbLine
 10
-605.000000000005
 20
6279.305165759572
 11
34.999999999995
 21
6279.305165759572
  0
LINE
  5
2D3
100
AcDbEntity
  8
1
  6
CONTINUOUS
 62
           7
100
AcDbLine
 10
-610.000000000005
 20
6274.305165759572
 11
-605.000000000005
 21
6279.305165759572
  0
LINE
  5
2D2
100
AcDbEntity
  8
1
  6
CONTINUOUS
 62
           7
100
AcDbLine
 10
-610.000000000005
 20
6239.305165759572
 11
-610.000000000005
 21
6274.305165759572
  0
LINE
  5
2D1
100
AcDbEntity
  8
1
  6
CONTINUOUS
 62
           4
100
AcDbLine
 10
-610.000000000005
 20
6234.805165759572
 11
39.999999999995
 21
6234.805165759572
  0
LINE
  5
2D0
100
AcDbEntity
  8
1
  6
CONTINUOUS
 62
           7
100
AcDbLine
 10
-610.000000000005
 20
6239.305165759572
 11
39.999999999995
 21
6239.305165759572
  0
LINE
  5
2CF
100
AcDbEntity
  8
1
  6
CONTINUOUS
 62
           4
100
AcDbLine
 10
39.999999999995
 20
6243.805165759572
 11
-610.000000000005
 21
6243.805165759572
  0
LINE
  5
2CE
100
AcDbEntity
  8
1
  6
DOT_CENTER
 62
           2
100
AcDbLine
 10
-285.000000000006
 20
6344.572249764389
 11
-285.000000000006
 21
6001.765614775408
  0
LINE
  5
2CD
100
AcDbEntity
  8
1
  6
CONTINUOUS
 62
           7
100
AcDbLine
 10
4853.587845303874
 20
2929.789449200001
 11
4853.587845303874
 21
2966.489449199999
  0
LINE
  5
2CC
100
AcDbEntity
  8
1
  6
CONTINUOUS
 62
           7
100
AcDbLine
 10
4853.587845303874
 20
2506.789449200004
 11
4853.587845303874
 21
2544.789449200001
  0
LINE
  5
2CB
100
AcDbEntity
  8
1
  6
CONTINUOUS
 62
           7
100
AcDbLine
 10
4623.58784530387
 20
2506.789449200007
 11
4928.043202446729
 21
2506.789449200004
  0
LINE
  5
2CA
100
AcDbEntity
  8
1
  6
CONTINUOUS
 62
           7
100
AcDbLine
 10
4623.58784530387
 20
2544.789449200007
 11
4623.58784530387
 21
2506.789449200007
  0
LINE
  5
2C9
100
AcDbEntity
  8
1
  6
CONTINUOUS
 62
           7
100
AcDbLine
 10
4458.457758015883
 20
2544.789449200007
 11
4458.457758015883
 21
2506.789449200007
  0
LINE
  5
2C8
100
AcDbEntity
  8
1
  6
CONTINUOUS
 62
           7
100
AcDbLine
 10
4458.457758015883
 20
2966.489449199999
 11
4004.7434723016
 21
2966.489449199999
  0
LINE
  5
2C7
100
AcDbEntity
  8
1
  6
CONTINUOUS
 62
           7
100
AcDbLine
 10
4458.457758015883
 20
2966.489449199999
 11
4458.457758015883
 21
2929.789449200001
  0
LINE
  5
2C6
100
AcDbEntity
  8
1
  6
CONTINUOUS
 62
           7
100
AcDbLine
 10
4623.58784530387
 20
2966.489449199999
 11
4623.58784530387
 21
2929.789449200001
  0
LINE
  5
2C5
100
AcDbEntity
  8
1
  6
CONTINUOUS
 62
           7
100
AcDbLine
 10
4487.837845303872
 20
3059.289449200001
 11
4487.837845303872
 21
3119.289449200001
  0
LINE
  5
2C4
100
AcDbEntity
  8
1
  6
CONTINUOUS
 62
           7
100
AcDbLine
 10
4575.337845303872
 20
3119.289449200001
 11
4575.337845303872
 21
3059.289449200001
  0
LINE
  5
2C3
100
AcDbEntity
  8
1
  6
CONTINUOUS
 62
           7
100
AcDbLine
 10
4497.837845303872
 20
3129.289449200002
 11
4565.337845303872
 21
3129.289449200001
  0
LINE
  5
2C2
100
AcDbEntity
  8
1
  6
CONTINUOUS
 62
           7
100
AcDbLine
 10
4565.337845303872
 20
3049.289449200001
 11
4497.837845303872
 21
3049.289449200001
  0
LINE
  5
2C1
100
AcDbEntity
  8
1
  6
CONTINUOUS
 62
           7
100
AcDbLine
 10
5011.587845303874
 20
2544.789449200004
 11
4931.587845303867
 21
2544.789449200004
  0
LINE
  5
2C0
100
AcDbEntity
  8
1
  6
CONTINUOUS
 62
           7
100
AcDbLine
 10
4931.587845303867
 20
2929.789449200001
 11
5011.587845303874
 21
2929.789449200003
  0
LINE
  5
2BF
100
AcDbEntity
  8
1
  6
CONTINUOUS
 62
           7
100
AcDbLine
 10
4971.587845303874
 20
2969.789449200003
 11
4971.587845303874
 21
2504.789449200004
  0
LINE
  5
2BE
100
AcDbEntity
  8
7
  6
CONTINUOUS
 62
           4
100
AcDbLine
 10
4422.787845303871
 20
3309.789449200001
 11
4642.579868303874
 21
3309.789449200001
  0
LINE
  5
2BD
100
AcDbEntity
  8
1
  6
CONTINUOUS
 62
           4
100
AcDbLine
 10
4646.587845303874
 20
3271.82698757337
 11
4416.587845303872
 21
3271.82698757337
  0
LINE
  5
2BC
100
AcDbEntity
  8
1
  6
CONTINUOUS
 62
           7
100
AcDbLine
 10
4931.587845303874
 20
2544.789449200001
 11
4004.7434723016
 21
2544.789449200001
  0
LINE
  5
2BB
100
AcDbEntity
  8
1
  6
CONTINUOUS
 62
           7
100
AcDbLine
 10
4829.087845303874
 20
2454.289449200001
 11
4531.587845303872
 21
2454.289449200001
  0
LINE
  5
2BA
100
AcDbEntity
  8
1
  6
CONTINUOUS
 62
           7
100
AcDbLine
 10
4531.587845303872
 20
2454.289449200001
 11
4234.087845303872
 21
2454.289449200001
  0
LINE
  5
2B9
100
AcDbEntity
  8
1
  6
CONTINUOUS
 62
           4
100
AcDbLine
 10
4829.087845303874
 20
2460.289449200001
 11
4234.087845303872
 21
2460.289449200001
  0
LINE
  5
2B8
100
AcDbEntity
  8
1
  6
CONTINUOUS
 62
           4
100
AcDbLine
 10
4829.087845303874
 20
2460.289449200001
 11
4829.087845303874
 21
2454.289449200001
  0
LINE
  5
2B7
100
AcDbEntity
  8
1
  6
CONTINUOUS
 62
           4
100
AcDbLine
 10
4234.087845303872
 20
2460.289449200001
 11
4234.087845303872
 21
2454.289449200001
  0
LINE
  5
2B6
100
AcDbEntity
  8
1
  6
CONTINUOUS
 62
           4
100
AcDbLine
 10
4967.087845303874
 20
2504.789449200004
 11
4976.087845303874
 21
2504.789449200004
  0
LINE
  5
2B5
100
AcDbEntity
  8
1
  6
CONTINUOUS
 62
           4
100
AcDbLine
 10
4976.087845303874
 20
2544.789449200001
 11
4976.087845303874
 21
2929.789449200007
  0
LINE
  5
2B4
100
AcDbEntity
  8
1
  6
CONTINUOUS
 62
           4
100
AcDbLine
 10
4967.087845303874
 20
2929.789449200007
 11
4967.087845303874
 21
2544.789449200003
  0
LINE
  5
2B3
100
AcDbEntity
  8
1
  6
CONTINUOUS
 62
           4
100
AcDbLine
 10
4967.087845303874
 20
2504.789449200004
 11
4967.087845303874
 21
2539.289449200004
  0
LINE
  5
2B2
100
AcDbEntity
  8
1
  6
CONTINUOUS
 62
           4
100
AcDbLine
 10
4931.587845303867
 20
2540.289449200004
 11
4966.087845303874
 21
2540.289449200004
  0
LINE
  5
2B1
100
AcDbEntity
  8
1
  6
CONTINUOUS
 62
           4
100
AcDbLine
 10
4976.087845303874
 20
2539.289449200004
 11
4976.087845303874
 21
2504.789449200004
  0
LINE
  5
2B0
100
AcDbEntity
  8
1
  6
CONTINUOUS
 62
           4
100
AcDbLine
 10
4977.087845303874
 20
2540.289449200004
 11
5011.587845303874
 21
2540.289449200004
  0
LINE
  5
2AF
100
AcDbEntity
  8
1
  6
CONTINUOUS
 62
           4
100
AcDbLine
 10
4966.087845303874
 20
2934.289449200003
 11
4931.587845303867
 21
2934.289449200003
  0
LINE
  5
2AE
100
AcDbEntity
  8
1
  6
CONTINUOUS
 62
           4
100
AcDbLine
 10
4967.087845303874
 20
2935.289449200003
 11
4967.087845303874
 21
2969.789449200003
  0
LINE
  5
2AD
100
AcDbEntity
  8
1
  6
CONTINUOUS
 62
           4
100
AcDbLine
 10
4976.087845303874
 20
2969.789449200003
 11
4967.087845303874
 21
2969.789449200003
  0
LINE
  5
2AC
100
AcDbEntity
  8
1
  6
CONTINUOUS
 62
           4
100
AcDbLine
 10
4976.087845303874
 20
2969.789449200003
 11
4976.087845303874
 21
2935.289449200003
  0
LINE
  5
2AB
100
AcDbEntity
  8
1
  6
CONTINUOUS
 62
           4
100
AcDbLine
 10
5011.587845303874
 20
2934.289449200003
 11
4977.087845303874
 21
2934.289449200003
  0
LINE
  5
2AA
100
AcDbEntity
  8
1
  6
CONTINUOUS
 62
           7
100
AcDbLine
 10
5011.587845303874
 20
2934.289449200003
 11
5011.587845303874
 21
2540.289449200004
  0
LINE
  5
2A9
100
AcDbEntity
  8
1
  6
CONTINUOUS
 62
           7
100
AcDbLine
 10
4931.587845303874
 20
2544.789449200001
 11
4931.587845303874
 21
2961.489449199999
  0
LINE
  5
2A8
100
AcDbEntity
  8
1
  6
CONTINUOUS
 62
           7
100
AcDbLine
 10
4789.787845303871
 20
2460.289449200001
 11
4789.787845303871
 21
2506.789449200004
  0
LINE
  5
2A7
100
AcDbEntity
  8
1
  6
CONTINUOUS
 62
           7
100
AcDbLine
 10
4051.587845303865
 20
2929.789449200001
 11
4051.587845303865
 21
2544.789449200001
  0
LINE
  5
2A6
100
AcDbEntity
  8
1
  6
CONTINUOUS
 62
           7
100
AcDbLine
 10
4004.7434723016
 20
2506.789449200004
 11
4458.457758015883
 21
2506.789449200007
  0
LINE
  5
2A5
100
AcDbEntity
  8
1
  6
CONTINUOUS
 62
           7
100
AcDbLine
 10
4273.387845303873
 20
2506.789449200004
 11
4273.387845303873
 21
2460.289449200001
  0
LINE
  5
2A4
100
AcDbEntity
  8
2
  6
CONTINUOUS
 62
           4
100
AcDbLine
 10
4438.337845303872
 20
2975.789449200004
 11
4438.337845303872
 21
2973.789449200004
  0
LINE
  5
2A3
100
AcDbEntity
  8
7
  6
CONTINUOUS
 62
           7
100
AcDbLine
 10
4416.587845303872
 20
3244.289449200001
 11
4416.587845303872
 21
3271.82698757337
  0
LINE
  5
2A2
100
AcDbEntity
  8
7
  6
CONTINUOUS
 62
           7
100
AcDbLine
 10
4643.587845303874
 20
3306.400806199999
 11
4646.587845303874
 21
3271.82698757337
  0
LINE
  5
2A1
100
AcDbEntity
  8
2
  6
CONTINUOUS
 62
           7
100
AcDbLine
 10
4640.201509303874
 20
3000.989449200001
 11
4629.156487303872
 21
2975.789449200004
  0
LINE
  5
2A0
100
AcDbEntity
  8
2
  6
CONTINUOUS
 62
           4
100
AcDbLine
 10
4629.156487303872
 20
2975.789449200004
 11
4434.019203303872
 21
2975.789449200004
  0
LINE
  5
29F
100
AcDbEntity
  8
2
  6
CONTINUOUS
 62
           7
100
AcDbLine
 10
4640.201509303874
 20
3232.789449200001
 11
4635.408386303871
 21
3244.289449200001
  0
LINE
  5
29E
100
AcDbEntity
  8
2
  6
CONTINUOUS
 62
           7
100
AcDbLine
 10
4640.201509303874
 20
3232.789449200001
 11
4640.201509303874
 21
3000.989449200001
  0
LINE
  5
29D
100
AcDbEntity
  8
2
  6
CONTINUOUS
 62
           4
100
AcDbLine
 10
4624.837845303872
 20
2973.789449200004
 11
4624.837845303872
 21
2975.789449200004
  0
LINE
  5
29C
100
AcDbEntity
  8
2
  6
CONTINUOUS
 62
           7
100
AcDbLine
 10
4427.767304303871
 20
3244.289449200001
 11
4422.974181303874
 21
3232.789449200001
  0
LINE
  5
29B
100
AcDbEntity
  8
2
  6
CONTINUOUS
 62
           7
100
AcDbLine
 10
4422.974181303874
 20
3232.789449200001
 11
4422.974181303874
 21
3000.989449200001
  0
LINE
  5
29A
100
AcDbEntity
  8
2
  6
CONTINUOUS
 62
           7
100
AcDbLine
 10
4434.019203303872
 20
2975.789449200004
 11
4422.974181303874
 21
3000.989449200001
  0
LINE
  5
299
100
AcDbEntity
  8
7
  6
CONTINUOUS
 62
           7
100
AcDbLine
 10
4449.487845303873
 20
3331.2894492
 11
4531.587845303872
 21
3331.2894492
  0
LINE
  5
298
100
AcDbEntity
  8
7
  6
CONTINUOUS
 62
           7
100
AcDbLine
 10
4424.811811303872
 20
3310.1511452
 11
4445.434998303873
 21
3326.692279200001
  0
LINE
  5
297
100
AcDbEntity
  8
7
  6
CONTINUOUS
 62
           7
100
AcDbLine
 10
4416.587845303872
 20
3271.82698757337
 11
4419.587845303872
 21
3306.589449199998
  0
LINE
  5
296
100
AcDbEntity
  8
7
  6
CONTINUOUS
 62
           7
100
AcDbLine
 10
4531.587845303872
 20
3244.289449200001
 11
4416.587845303872
 21
3244.289449200001
  0
LINE
  5
295
100
AcDbEntity
  8
7
  6
CONTINUOUS
 62
           7
100
AcDbLine
 10
4646.587845303874
 20
3271.82698757337
 11
4646.587845303874
 21
3244.289449200001
  0
LINE
  5
294
100
AcDbEntity
  8
7
  6
CONTINUOUS
 62
           7
100
AcDbLine
 10
4616.187845303873
 20
3331.2894492
 11
4531.587845303872
 21
3331.2894492
  0
LINE
  5
293
100
AcDbEntity
  8
7
  6
CONTINUOUS
 62
           7
100
AcDbLine
 10
4640.735688303874
 20
3311.619230199999
 11
4620.240693303874
 21
3326.692279200001
  0
LINE
  5
292
100
AcDbEntity
  8
7
  6
CONTINUOUS
 62
           7
100
AcDbLine
 10
4646.587845303874
 20
3244.289449200001
 11
4531.587845303872
 21
3244.289449200001
  0
LINE
  5
291
100
AcDbEntity
  8
1
  6
DOT_CENTER
 62
           2
100
AcDbLine
 10
5067.044672798932
 20
2737.289449200001
 11
3974.36834406736
 21
2737.289449200001
  0
LINE
  5
290
100
AcDbEntity
  8
1
  6
CONTINUOUS
 62
           4
100
AcDbLine
 10
4321.587845303872
 20
2968.789449200004
 11
4321.587845303872
 21
2966.489449199999
  0
LINE
  5
28F
100
AcDbEntity
  8
1
  6
CONTINUOUS
 62
           7
100
AcDbLine
 10
4931.587845303867
 20
2929.789449200001
 11
4004.7434723016
 21
2929.789449200001
  0
LINE
  5
28E
100
AcDbEntity
  8
1
  6
CONTINUOUS
 62
           7
100
AcDbLine
 10
4004.7434723016
 20
2966.489449199999
 11
4004.7434723016
 21
2929.789449200001
  0
LINE
  5
28D
100
AcDbEntity
  8
1
  6
CONTINUOUS
 62
           7
100
AcDbLine
 10
4928.043202446729
 20
2966.489449199999
 11
4623.58784530387
 21
2966.489449199999
  0
LINE
  5
28C
100
AcDbEntity
  8
1
  6
CONTINUOUS
 62
           7
100
AcDbLine
 10
4004.7434723016
 20
2544.789449200001
 11
4004.7434723016
 21
2506.789449200004
  0
LINE
  5
28B
100
AcDbEntity
  8
1
  6
CONTINUOUS
 62
           7
100
AcDbLine
 10
4931.587845303874
 20
2511.789449200004
 11
4931.587845303874
 21
2544.789449200001
  0
LINE
  5
28A
100
AcDbEntity
  8
1
  6
CONTINUOUS
 62
           7
100
AcDbLine
 10
4928.043202446729
 20
2966.489449199999
 11
4931.587845303874
 21
2961.489449199999
  0
LINE
  5
289
100
AcDbEntity
  8
1
  6
CONTINUOUS
 62
           7
100
AcDbLine
 10
4931.587845303874
 20
2511.789449200004
 11
4928.043202446729
 21
2506.789449200004
  0
LINE
  5
288
100
AcDbEntity
  8
1
  6
DOT_CENTER
 62
           2
100
AcDbLine
 10
4531.587845303872
 20
2428.66913331558
 11
4531.587845303872
 21
3382.773328324648
  0
LINE
  5
287
100
AcDbEntity
  8
1
  6
CONTINUOUS
 62
           4
100
AcDbLine
 10
4736.580909039479
 20
2973.789449200004
 11
4326.587845303872
 21
2973.789449200004
  0
LINE
  5
286
100
AcDbEntity
  8
1
  6
CONTINUOUS
 62
           4
100
AcDbLine
 10
4326.587845303872
 20
2973.789449200004
 11
4321.587845303872
 21
2968.789449200004
  0
LINE
  5
285
100
AcDbEntity
  8
1
  6
CONTINUOUS
 62
           4
100
AcDbLine
 10
4741.587845303874
 20
2968.789449200004
 11
4736.580909039479
 21
2973.789449200004
  0
LINE
  5
284
100
AcDbEntity
  8
1
  6
CONTINUOUS
 62
           4
100
AcDbLine
 10
4741.587845303874
 20
2966.489449199999
 11
4741.587845303874
 21
2968.789449200004
  0
LINE
  5
283
100
AcDbEntity
  8
1
  6
CONTINUOUS
 62
           2
100
AcDbLine
 10
4302.741794594519
 20
2916.289449200001
 11
4302.741794594519
 21
2556.289449200001
  0
LINE
  5
282
100
AcDbEntity
  8
1
  6
CONTINUOUS
 62
           2
100
AcDbLine
 10
4302.741794594519
 20
2556.289449200001
 11
4707.678434837871
 21
2556.289449200001
  0
LINE
  5
281
100
AcDbEntity
  8
1
  6
CONTINUOUS
 62
           2
100
AcDbLine
 10
4707.678434837871
 20
2556.289449200001
 11
4707.678434837871
 21
2916.289449200001
  0
LINE
  5
280
100
AcDbEntity
  8
1
  6
CONTINUOUS
 62
           2
100
AcDbLine
 10
4707.678434837871
 20
2916.289449200001
 11
4302.741794594519
 21
2916.289449200001
  0
LINE
  5
27F
100
AcDbEntity
  8
1
  6
CONTINUOUS
 62
           7
100
AcDbLine
 10
4866.587845303874
 20
2929.789449200001
 11
4866.587845303874
 21
2544.789449200001
  0
LINE
  5
27E
100
AcDbEntity
  8
1
  6
CONTINUOUS
 62
           3
100
AcDbLine
 10
4341.751412994917
 20
2315.259104314605
 11
4336.077372972097
 21
2311.983195780043
  0
LINE
  5
27D
100
AcDbEntity
  8
1
  6
CONTINUOUS
 62
           3
100
AcDbLine
 10
4351.251412994917
 20
2309.774276757305
 11
4341.751412994917
 21
2315.259104314605
  0
LINE
  5
27C
100
AcDbEntity
  8
1
  6
CONTINUOUS
 62
           3
100
AcDbLine
 10
4351.251412994917
 20
2298.804621642702
 11
4351.251412994917
 21
2309.774276757305
  0
LINE
  5
27B
100
AcDbEntity
  8
1
  6
CONTINUOUS
 62
           3
100
AcDbLine
 10
4341.751412994917
 20
2293.319794085401
 11
4351.251412994917
 21
2298.804621642702
  0
LINE
  5
27A
100
AcDbEntity
  8
1
  6
CONTINUOUS
 62
           3
100
AcDbLine
 10
4336.077372972104
 20
2296.595702619962
 11
4341.751412994917
 21
2293.319794085401
  0
LINE
  5
279
100
AcDbEntity
  8
1
  6
DOT_CENTER
 62
           3
100
AcDbLine
 10
4317.806364862496
 20
2304.289449200002
 11
4359.255540566315
 21
2304.289449200002
  0
LINE
  5
278
100
AcDbEntity
  8
1
  6
CONTINUOUS
 62
           3
100
AcDbLine
 10
4330.977060175817
 20
2296.039449200002
 11
4330.977060175817
 21
2296.595702619962
  0
LINE
  5
277
100
AcDbEntity
  8
1
  6
CONTINUOUS
 62
           3
100
AcDbLine
 10
4330.977060175817
 20
2296.039449200002
 11
4321.302449210518
 21
2296.039449200002
  0
LINE
  5
276
100
AcDbEntity
  8
1
  6
CONTINUOUS
 62
           3
100
AcDbLine
 10
4321.302449210518
 20
2296.039449200002
 11
4321.302449210518
 21
2304.289449200002
  0
LINE
  5
275
100
AcDbEntity
  8
1
  6
CONTINUOUS
 62
           3
100
AcDbLine
 10
4321.302449210518
 20
2298.289449200002
 11
4320.456643688336
 21
2298.289449200002
  0
LINE
  5
274
100
AcDbEntity
  8
1
  6
CONTINUOUS
 62
           3
100
AcDbLine
 10
4320.456643688336
 20
2296.595702619962
 11
4320.456643688336
 21
2304.289449200002
  0
LINE
  5
273
100
AcDbEntity
  8
1
  6
CONTINUOUS
 62
           3
100
AcDbLine
 10
4320.456643688336
 20
2296.595702619962
 11
4319.751412994917
 21
2296.595702619962
  0
LINE
  5
272
100
AcDbEntity
  8
1
  6
CONTINUOUS
 62
           3
100
AcDbLine
 10
4319.251412994917
 20
2304.289449200002
 11
4319.251412994917
 21
2297.095702619962
  0
LINE
  5
271
100
AcDbEntity
  8
1
  6
CONTINUOUS
 62
           3
100
AcDbLine
 10
4319.251412994917
 20
2311.483195780043
 11
4319.251412994917
 21
2304.289449200002
  0
LINE
  5
270
100
AcDbEntity
  8
1
  6
CONTINUOUS
 62
           3
100
AcDbLine
 10
4319.751412994917
 20
2311.983195780043
 11
4320.456643688336
 21
2311.983195780043
  0
LINE
  5
26F
100
AcDbEntity
  8
1
  6
CONTINUOUS
 62
           3
100
AcDbLine
 10
4320.456643688336
 20
2304.289449200002
 11
4320.456643688336
 21
2311.983195780043
  0
LINE
  5
26E
100
AcDbEntity
  8
1
  6
CONTINUOUS
 62
           3
100
AcDbLine
 10
4320.456643688336
 20
2310.289449200002
 11
4321.302449210518
 21
2310.289449200002
  0
LINE
  5
26D
100
AcDbEntity
  8
1
  6
CONTINUOUS
 62
           3
100
AcDbLine
 10
4321.302449210518
 20
2312.539449200002
 11
4330.977060175817
 21
2312.539449200002
  0
LINE
  5
26C
100
AcDbEntity
  8
1
  6
CONTINUOUS
 62
           3
100
AcDbLine
 10
4321.302449210518
 20
2304.289449200002
 11
4321.302449210518
 21
2312.539449200002
  0
LINE
  5
26B
100
AcDbEntity
  8
1
  6
CONTINUOUS
 62
           3
100
AcDbLine
 10
4330.977060175817
 20
2311.983195780043
 11
4330.977060175817
 21
2312.539449200002
  0
LINE
  5
26A
100
AcDbEntity
  8
1
  6
CONTINUOUS
 62
           3
100
AcDbLine
 10
4330.977060175817
 20
2296.595702619962
 11
4330.977060175817
 21
2311.983195780043
  0
LINE
  5
269
100
AcDbEntity
  8
1
  6
CONTINUOUS
 62
           3
100
AcDbLine
 10
4336.842175722508
 20
2296.595702619962
 11
4336.842175722508
 21
2311.983195780043
  0
LINE
  5
268
100
AcDbEntity
  8
1
  6
CONTINUOUS
 62
           3
100
AcDbLine
 10
4336.842175722508
 20
2296.595702619962
 11
4330.977060175817
 21
2296.595702619962
  0
LINE
  5
267
100
AcDbEntity
  8
1
  6
CONTINUOUS
 62
           3
100
AcDbLine
 10
4336.842175722508
 20
2311.983195780043
 11
4330.977060175817
 21
2311.983195780043
  0
LINE
  5
266
100
AcDbEntity
  8
1
  6
CONTINUOUS
 62
           3
100
AcDbLine
 10
4336.842175722508
 20
2310.161284195071
 11
4341.751412994917
 21
2310.161284195071
  0
LINE
  5
265
100
AcDbEntity
  8
1
  6
DOT_CENTER
 62
           3
100
AcDbLine
 10
4341.751412994917
 20
2317.933005004877
 11
4341.751412994917
 21
2286.797457455127
  0
LINE
  5
264
100
AcDbEntity
  8
1
  6
CONTINUOUS
 62
           3
100
AcDbLine
 10
4341.751412994917
 20
2298.417614204936
 11
4336.842175722508
 21
2298.417614204936
  0
LINE
  5
263
100
AcDbEntity
  8
0
  6
CONTINUOUS
 62
           3
100
AcDbLine
 10
3836.432568798047
 20
1772.405841395194
 11
3837.48784202555
 21
1772.421189591395
  0
LINE
  5
262
100
AcDbEntity
  8
0
  6
CONTINUOUS
 62
           3
100
AcDbLine
 10
3835.491650807149
 20
1772.361465737195
 11
3836.432568798047
 21
1772.405841395194
  0
LINE
  5
261
100
AcDbEntity
  8
0
  6
CONTINUOUS
 62
           3
100
AcDbLine
 10
3834.767050877447
 20
1772.292860790994
 11
3835.491650807149
 21
1772.361465737195
  0
LINE
  5
260
100
AcDbEntity
  8
0
  6
CONTINUOUS
 62
           3
100
AcDbLine
 10
3834.33729114425
 20
1772.207469686794
 11
3834.767050877447
 21
1772.292860790994
  0
LINE
  5
25F
100
AcDbEntity
  8
0
  6
CONTINUOUS
 62
           3
100
AcDbLine
 10
3834.248942392248
 20
1772.114538594994
 11
3834.33729114425
 21
1772.207469686794
  0
LINE
  5
25E
100
AcDbEntity
  8
0
  6
CONTINUOUS
 62
           3
100
AcDbLine
 10
3834.48784199945
 20
1772.028991028796
 11
3834.248942392248
 21
1772.114538594994
  0
LINE
  5
25D
100
AcDbEntity
  8
0
  6
CONTINUOUS
 62
           3
100
AcDbLine
 10
3840.726741658837
 20
1772.114538594994
 11
3840.487842051638
 21
1772.028991028796
  0
LINE
  5
25C
100
AcDbEntity
  8
0
  6
CONTINUOUS
 62
           3
100
AcDbLine
 10
3840.638392906838
 20
1772.207469686794
 11
3840.726741658837
 21
1772.114538594994
  0
LINE
  5
25B
100
AcDbEntity
  8
0
  6
CONTINUOUS
 62
           3
100
AcDbLine
 10
3840.208633173637
 20
1772.292860790994
 11
3840.638392906838
 21
1772.207469686794
  0
LINE
  5
25A
100
AcDbEntity
  8
0
  6
CONTINUOUS
 62
           3
100
AcDbLine
 10
3839.484033243936
 20
1772.361465737195
 11
3840.208633173637
 21
1772.292860790994
  0
LINE
  5
259
100
AcDbEntity
  8
0
  6
CONTINUOUS
 62
           3
100
AcDbLine
 10
3838.543115253048
 20
1772.405841395194
 11
3839.484033243936
 21
1772.361465737195
  0
LINE
  5
258
100
AcDbEntity
  8
0
  6
CONTINUOUS
 62
           3
100
AcDbLine
 10
3837.48784202555
 20
1772.421189591395
 11
3838.543115253048
 21
1772.405841395194
  0
LINE
  5
257
100
AcDbEntity
  8
FORMAT
  6
CONTINUOUS
 62
           3
100
AcDbLine
 10
3833.987842025447
 20
1771.886294302894
 11
3823.48784202546
 21
1771.886294302894
  0
LINE
  5
256
100
AcDbEntity
  8
FORMAT
  6
DOT_CENTER
 62
           3
100
AcDbLine
 10
3837.48784202555
 20
1629.048846452258
 11
3837.48784202555
 21
2104.68383996857
  0
LINE
  5
255
100
AcDbEntity
  8
FORMAT
  6
CONTINUOUS
 62
           3
100
AcDbLine
 10
3840.987842025638
 20
1771.886294302894
 11
3833.987842025447
 21
1771.886294302894
  0
LINE
  5
254
100
AcDbEntity
  8
FORMAT
  6
CONTINUOUS
 62
           3
100
AcDbLine
 10
3851.487842025631
 20
1771.886294302894
 11
3840.987842025638
 21
1771.886294302894
  0
LINE
  5
253
100
AcDbEntity
  8
FORMAT
  6
DOT_CENTER
 62
           3
100
AcDbLine
 10
3762.587842025506
 20
1754.28944920001
 11
3748.98784202562
 21
1754.28944920001
  0
LINE
  5
252
100
AcDbEntity
  8
FORMAT
  6
DOT_CENTER
 62
           3
100
AcDbLine
 10
3762.587842025506
 20
2004.289449200002
 11
3748.98784202562
 21
2004.289449200002
  0
LINE
  5
251
100
AcDbEntity
  8
0
  6
CONTINUOUS
 62
           3
100
AcDbLine
 10
3772.487844409895
 20
1744.289443835817
 11
3757.087844493107
 21
1744.289443835817
  0
LINE
  5
250
100
AcDbEntity
  8
0
  6
CONTINUOUS
 62
           3
100
AcDbLine
 10
3775.987840326997
 20
1969.289452776234
 11
3775.987840326997
 21
1889.289448976398
  0
LINE
  5
24F
100
AcDbEntity
  8
0
  6
CONTINUOUS
 62
           3
100
AcDbLine
 10
3778.987842681391
 20
1969.289452776234
 11
3775.987840326997
 21
1969.289452776234
  0
LINE
  5
24E
100
AcDbEntity
  8
0
  6
CONTINUOUS
 62
           3
100
AcDbLine
 10
3778.987842681391
 20
1929.289449944966
 11
3778.987842681391
 21
1969.289452776234
  0
LINE
  5
24D
100
AcDbEntity
  8
0
  6
CONTINUOUS
 62
           3
100
AcDbLine
 10
3778.987842681391
 20
1909.289448529483
 11
3778.987842681391
 21
1911.289450719882
  0
LINE
  5
24C
100
AcDbEntity
  8
0
  6
CONTINUOUS
 62
           3
100
AcDbLine
 10
3775.987840326997
 20
1889.289448976398
 11
3777.563034626197
 21
1889.289448976398
  0
LINE
  5
24B
100
AcDbEntity
  8
0
  6
CONTINUOUS
 62
           3
100
AcDbLine
 10
3897.487840684495
 20
1747.289449915315
 11
3897.487840684495
 21
1746.589452967016
  0
LINE
  5
24A
100
AcDbEntity
  8
0
  6
CONTINUOUS
 62
           3
100
AcDbLine
 10
3902.487839641187
 20
1744.289443835817
 11
3902.487839641187
 21
1747.289449915315
  0
LINE
  5
249
100
AcDbEntity
  8
0
  6
CONTINUOUS
 62
           3
100
AcDbLine
 10
3902.487839641187
 20
2014.289454564198
 11
3902.487839641187
 21
2011.289448484698
  0
LINE
  5
248
100
AcDbEntity
  8
0
  6
CONTINUOUS
 62
           3
100
AcDbLine
 10
3897.487840684495
 20
2011.289448484698
 11
3897.487840684495
 21
2011.989445432996
  0
LINE
  5
247
100
AcDbEntity
  8
0
  6
CONTINUOUS
 62
           3
100
AcDbLine
 10
3777.48784336659
 20
2011.289448484698
 11
3777.48784336659
 21
2011.989445432996
  0
LINE
  5
246
100
AcDbEntity
  8
0
  6
CONTINUOUS
 62
           3
100
AcDbLine
 10
3772.487844409895
 20
2014.289454564198
 11
3772.487844409895
 21
2011.289448484698
  0
LINE
  5
245
100
AcDbEntity
  8
0
  6
CONTINUOUS
 62
           3
100
AcDbLine
 10
3772.487844409895
 20
2014.289454564198
 11
3757.087844493107
 21
2014.289454564198
  0
LINE
  5
244
100
AcDbEntity
  8
0
  6
CONTINUOUS
 62
           3
100
AcDbLine
 10
3772.487844409895
 20
1744.289443835817
 11
3772.487844409895
 21
1747.289449915315
  0
LINE
  5
243
100
AcDbEntity
  8
0
  6
CONTINUOUS
 62
           3
100
AcDbLine
 10
3777.48784336659
 20
1747.289449915315
 11
3777.48784336659
 21
1746.589452967016
  0
LINE
  5
242
100
AcDbEntity
  8
0
  6
CONTINUOUS
 62
           3
100
AcDbLine
 10
3775.987840326997
 20
1789.289445623782
 11
3775.987840326997
 21
1869.289449423614
  0
LINE
  5
241
100
AcDbEntity
  8
0
  6
CONTINUOUS
 62
           3
100
AcDbLine
 10
3775.987840326997
 20
1869.289449423614
 11
3777.48784336659
 21
1869.289449423614
  0
LINE
  5
240
100
AcDbEntity
  8
0
  6
CONTINUOUS
 62
           3
100
AcDbLine
 10
3778.987842681391
 20
1811.289445504562
 11
3778.987842681391
 21
1809.289448901965
  0
LINE
  5
23F
100
AcDbEntity
  8
0
  6
CONTINUOUS
 62
           3
100
AcDbLine
 10
3777.563034626197
 20
1789.289445623782
 11
3775.987840326997
 21
1789.289445623782
  0
LINE
  5
23E
100
AcDbEntity
  8
0
  6
CONTINUOUS
 62
           3
100
AcDbLine
 10
3898.987843724098
 20
1969.289452776234
 11
3898.987843724098
 21
1889.289448976398
  0
LINE
  5
23D
100
AcDbEntity
  8
0
  6
CONTINUOUS
 62
           3
100
AcDbLine
 10
3898.987843724098
 20
1889.289448976398
 11
3897.412649424895
 21
1889.289448976398
  0
LINE
  5
23C
100
AcDbEntity
  8
0
  6
CONTINUOUS
 62
           3
100
AcDbLine
 10
3895.98784137
 20
1929.289449944966
 11
3895.98784137
 21
1969.289452776234
  0
LINE
  5
23B
100
AcDbEntity
  8
0
  6
CONTINUOUS
 62
           3
100
AcDbLine
 10
3895.98784137
 20
1909.289448529483
 11
3895.98784137
 21
1911.289450719882
  0
LINE
  5
23A
100
AcDbEntity
  8
0
  6
CONTINUOUS
 62
           3
100
AcDbLine
 10
3895.98784137
 20
1969.289452776234
 11
3898.987843724098
 21
1969.289452776234
  0
LINE
  5
239
100
AcDbEntity
  8
0
  6
CONTINUOUS
 62
           3
100
AcDbLine
 10
3898.987843724098
 20
1789.289445623782
 11
3898.987843724098
 21
1869.289449423614
  0
LINE
  5
238
100
AcDbEntity
  8
0
  6
CONTINUOUS
 62
           3
100
AcDbLine
 10
3897.412649424895
 20
1789.289445623782
 11
3898.987843724098
 21
1789.289445623782
  0
LINE
  5
237
100
AcDbEntity
  8
0
  6
CONTINUOUS
 62
           3
100
AcDbLine
 10
3895.98784137
 20
1811.289445504562
 11
3895.98784137
 21
1809.289448901965
  0
LINE
  5
236
100
AcDbEntity
  8
0
  6
CONTINUOUS
 62
           3
100
AcDbLine
 10
3898.987843724098
 20
1869.289449423614
 11
3897.487840684495
 21
1869.289449423614
  0
LINE
  5
235
100
AcDbEntity
  8
0
  6
CONTINUOUS
 62
           3
100
AcDbLine
 10
3757.087844493107
 20
2014.289454564198
 11
3754.987838747209
 21
2014.289454564198
  0
LINE
  5
234
100
AcDbEntity
  8
0
  6
CONTINUOUS
 62
           3
100
AcDbLine
 10
3754.987838747209
 20
2014.289454564198
 11
3754.987838747209
 21
1744.289443835817
  0
LINE
  5
233
100
AcDbEntity
  8
0
  6
CONTINUOUS
 62
           3
100
AcDbLine
 10
3757.087844493107
 20
1744.289443835817
 11
3754.987838747209
 21
1744.289443835817
  0
LINE
  5
232
100
AcDbEntity
  8
0
  6
CONTINUOUS
 62
           3
100
AcDbLine
 10
3777.48784336659
 20
1745.889456018716
 11
3777.48784336659
 21
1746.589452967016
  0
LINE
  5
231
100
AcDbEntity
  8
0
  6
CONTINUOUS
 62
           3
100
AcDbLine
 10
3897.487840684495
 20
1745.889456018716
 11
3897.487840684495
 21
1746.589452967016
  0
LINE
  5
230
100
AcDbEntity
  8
0
  6
CONTINUOUS
 62
           3
100
AcDbLine
 10
3777.48784336659
 20
2012.689442380998
 11
3777.48784336659
 21
2011.989445432996
  0
LINE
  5
22F
100
AcDbEntity
  8
0
  6
CONTINUOUS
 62
           3
100
AcDbLine
 10
3897.487840684495
 20
2012.689442380998
 11
3897.487840684495
 21
2011.989445432996
  0
LINE
  5
22E
100
AcDbEntity
  8
0
  6
CONTINUOUS
 62
           3
100
AcDbLine
 10
3892.487841727496
 20
2012.689442380998
 11
3897.487840684495
 21
2012.689442380998
  0
LINE
  5
22D
100
AcDbEntity
  8
0
  6
CONTINUOUS
 62
           3
100
AcDbLine
 10
3897.487840684495
 20
2014.289454564198
 11
3892.487841727496
 21
2014.289454564198
  0
LINE
  5
22C
100
AcDbEntity
  8
0
  6
CONTINUOUS
 62
           3
100
AcDbLine
 10
3897.487840684495
 20
2012.689442380998
 11
3897.487840684495
 21
2014.289454564198
  0
LINE
  5
22B
100
AcDbEntity
  8
0
  6
CONTINUOUS
 62
           3
100
AcDbLine
 10
3892.487841727496
 20
1745.889456018716
 11
3897.487840684495
 21
1745.889456018716
  0
LINE
  5
22A
100
AcDbEntity
  8
0
  6
CONTINUOUS
 62
           3
100
AcDbLine
 10
3897.487840684495
 20
1744.289443835817
 11
3892.487841727496
 21
1744.289443835817
  0
LINE
  5
229
100
AcDbEntity
  8
0
  6
CONTINUOUS
 62
           3
100
AcDbLine
 10
3897.487840684495
 20
1745.889456018716
 11
3897.487840684495
 21
1744.289443835817
  0
LINE
  5
228
100
AcDbEntity
  8
0
  6
CONTINUOUS
 62
           3
100
AcDbLine
 10
3882.487843813506
 20
1745.889456018716
 11
3884.487840416107
 21
1745.889456018716
  0
LINE
  5
227
100
AcDbEntity
  8
0
  6
CONTINUOUS
 62
           3
100
AcDbLine
 10
3884.487840416107
 20
1744.289443835817
 11
3882.487843813506
 21
1744.289443835817
  0
LINE
  5
226
100
AcDbEntity
  8
0
  6
CONTINUOUS
 62
           3
100
AcDbLine
 10
3884.487840416107
 20
1745.889456018716
 11
3884.487840416107
 21
1744.289443835817
  0
LINE
  5
225
100
AcDbEntity
  8
0
  6
CONTINUOUS
 62
           3
100
AcDbLine
 10
3882.487843813506
 20
2012.689442380998
 11
3884.487840416107
 21
2012.689442380998
  0
LINE
  5
224
100
AcDbEntity
  8
0
  6
CONTINUOUS
 62
           3
100
AcDbLine
 10
3884.487840416107
 20
2014.289454564198
 11
3882.487843813506
 21
2014.289454564198
  0
LINE
  5
223
100
AcDbEntity
  8
0
  6
CONTINUOUS
 62
           3
100
AcDbLine
 10
3884.487840416107
 20
2012.689442380998
 11
3884.487840416107
 21
2014.289454564198
  0
LINE
  5
222
100
AcDbEntity
  8
0
  6
CONTINUOUS
 62
           3
100
AcDbLine
 10
3890.487841399795
 20
1745.889456018716
 11
3892.487841727496
 21
1745.889456018716
  0
LINE
  5
221
100
AcDbEntity
  8
0
  6
CONTINUOUS
 62
           3
100
AcDbLine
 10
3892.487841727496
 20
1744.289443835817
 11
3890.487841399795
 21
1744.289443835817
  0
LINE
  5
220
100
AcDbEntity
  8
0
  6
CONTINUOUS
 62
           3
100
AcDbLine
 10
3890.487841399795
 20
1744.289443835817
 11
3890.487841399795
 21
1745.889456018716
  0
LINE
  5
21F
100
AcDbEntity
  8
0
  6
CONTINUOUS
 62
           3
100
AcDbLine
 10
3890.487841399795
 20
2012.689442380998
 11
3892.487841727496
 21
2012.689442380998
  0
LINE
  5
21E
100
AcDbEntity
  8
0
  6
CONTINUOUS
 62
           3
100
AcDbLine
 10
3892.487841727496
 20
2014.289454564198
 11
3890.487841399795
 21
2014.289454564198
  0
LINE
  5
21D
100
AcDbEntity
  8
0
  6
CONTINUOUS
 62
           3
100
AcDbLine
 10
3890.487841399795
 20
2014.289454564198
 11
3890.487841399795
 21
2012.689442380998
  0
LINE
  5
21C
100
AcDbEntity
  8
0
  6
CONTINUOUS
 62
           3
100
AcDbLine
 10
3782.487842323587
 20
2012.689442380998
 11
3777.48784336659
 21
2012.689442380998
  0
LINE
  5
21B
100
AcDbEntity
  8
0
  6
CONTINUOUS
 62
           3
100
AcDbLine
 10
3777.48784336659
 20
2014.289454564198
 11
3782.487842323587
 21
2014.289454564198
  0
LINE
  5
21A
100
AcDbEntity
  8
0
  6
CONTINUOUS
 62
           3
100
AcDbLine
 10
3777.48784336659
 20
2012.689442380998
 11
3777.48784336659
 21
2014.289454564198
  0
LINE
  5
219
100
AcDbEntity
  8
0
  6
CONTINUOUS
 62
           3
100
AcDbLine
 10
3782.487842323587
 20
1745.889456018716
 11
3777.48784336659
 21
1745.889456018716
  0
LINE
  5
218
100
AcDbEntity
  8
0
  6
CONTINUOUS
 62
           3
100
AcDbLine
 10
3777.48784336659
 20
1744.289443835817
 11
3782.487842323587
 21
1744.289443835817
  0
LINE
  5
217
100
AcDbEntity
  8
0
  6
CONTINUOUS
 62
           3
100
AcDbLine
 10
3777.48784336659
 20
1745.889456018716
 11
3777.48784336659
 21
1744.289443835817
  0
LINE
  5
216
100
AcDbEntity
  8
0
  6
CONTINUOUS
 62
           3
100
AcDbLine
 10
3792.487840237578
 20
2012.689442380998
 11
3882.487843813506
 21
2012.689442380998
  0
LINE
  5
215
100
AcDbEntity
  8
0
  6
CONTINUOUS
 62
           3
100
AcDbLine
 10
3792.487840237578
 20
2014.289454564198
 11
3882.487843813506
 21
2014.289454564198
  0
LINE
  5
214
100
AcDbEntity
  8
0
  6
CONTINUOUS
 62
           3
100
AcDbLine
 10
3792.487840237578
 20
1745.889456018716
 11
3882.487843813506
 21
1745.889456018716
  0
LINE
  5
213
100
AcDbEntity
  8
0
  6
CONTINUOUS
 62
           3
100
AcDbLine
 10
3792.487840237578
 20
1744.289443835817
 11
3882.487843813506
 21
1744.289443835817
  0
LINE
  5
212
100
AcDbEntity
  8
0
  6
CONTINUOUS
 62
           3
100
AcDbLine
 10
3792.487840237578
 20
1745.889456018716
 11
3790.487843634977
 21
1745.889456018716
  0
LINE
  5
211
100
AcDbEntity
  8
0
  6
CONTINUOUS
 62
           3
100
AcDbLine
 10
3790.487843634977
 20
1745.889456018716
 11
3790.487843634977
 21
1744.289443835817
  0
LINE
  5
210
100
AcDbEntity
  8
0
  6
CONTINUOUS
 62
           3
100
AcDbLine
 10
3790.487843634977
 20
1744.289443835817
 11
3792.487840237578
 21
1744.289443835817
  0
LINE
  5
20F
100
AcDbEntity
  8
0
  6
CONTINUOUS
 62
           3
100
AcDbLine
 10
3792.487840237578
 20
2012.689442380998
 11
3790.487843634977
 21
2012.689442380998
  0
LINE
  5
20E
100
AcDbEntity
  8
0
  6
CONTINUOUS
 62
           3
100
AcDbLine
 10
3790.487843634977
 20
2014.289454564198
 11
3792.487840237578
 21
2014.289454564198
  0
LINE
  5
20D
100
AcDbEntity
  8
0
  6
CONTINUOUS
 62
           3
100
AcDbLine
 10
3790.487843634977
 20
2012.689442380998
 11
3790.487843634977
 21
2014.289454564198
  0
LINE
  5
20C
100
AcDbEntity
  8
0
  6
CONTINUOUS
 62
           3
100
AcDbLine
 10
3784.487842651588
 20
2012.689442380998
 11
3782.487842323587
 21
2012.689442380998
  0
LINE
  5
20B
100
AcDbEntity
  8
0
  6
CONTINUOUS
 62
           3
100
AcDbLine
 10
3784.487842651588
 20
2014.289454564198
 11
3784.487842651588
 21
2012.689442380998
  0
LINE
  5
20A
100
AcDbEntity
  8
0
  6
CONTINUOUS
 62
           3
100
AcDbLine
 10
3782.487842323587
 20
2014.289454564198
 11
3784.487842651588
 21
2014.289454564198
  0
LINE
  5
209
100
AcDbEntity
  8
0
  6
CONTINUOUS
 62
           3
100
AcDbLine
 10
3784.487842651588
 20
1745.889456018716
 11
3782.487842323587
 21
1745.889456018716
  0
LINE
  5
208
100
AcDbEntity
  8
0
  6
CONTINUOUS
 62
           3
100
AcDbLine
 10
3782.487842323587
 20
1744.289443835817
 11
3784.487842651588
 21
1744.289443835817
  0
LINE
  5
207
100
AcDbEntity
  8
0
  6
CONTINUOUS
 62
           3
100
AcDbLine
 10
3784.487842651588
 20
1744.289443835817
 11
3784.487842651588
 21
1745.889456018716
  0
LINE
  5
206
100
AcDbEntity
  8
0
  6
CONTINUOUS
 62
           3
100
AcDbLine
 10
3897.412649424895
 20
1789.289445623782
 11
3895.787841709499
 21
1789.289445623782
  0
LINE
  5
205
100
AcDbEntity
  8
0
  6
CONTINUOUS
 62
           3
100
AcDbLine
 10
3895.787841709499
 20
1809.289448901965
 11
3897.487840684495
 21
1809.289448901965
  0
LINE
  5
204
100
AcDbEntity
  8
0
  6
CONTINUOUS
 62
           3
100
AcDbLine
 10
3897.487840684495
 20
1809.289448901965
 11
3897.487840684495
 21
1789.289445623782
  0
LINE
  5
203
100
AcDbEntity
  8
0
  6
CONTINUOUS
 62
           3
100
AcDbLine
 10
3777.48784336659
 20
1909.289448529483
 11
3779.187842341591
 21
1909.289448529483
  0
LINE
  5
202
100
AcDbEntity
  8
0
  6
CONTINUOUS
 62
           3
100
AcDbLine
 10
3777.48784336659
 20
1889.289448976398
 11
3777.48784336659
 21
1909.289448529483
  0
LINE
  5
201
100
AcDbEntity
  8
0
  6
CONTINUOUS
 62
           3
100
AcDbLine
 10
3779.187842341591
 20
1889.289448976398
 11
3777.563034626197
 21
1889.289448976398
  0
LINE
  5
200
100
AcDbEntity
  8
0
  6
CONTINUOUS
 62
           3
100
AcDbLine
 10
3777.563034626197
 20
1789.289445623782
 11
3779.187842341591
 21
1789.289445623782
  0
LINE
  5
1FF
100
AcDbEntity
  8
0
  6
CONTINUOUS
 62
           3
100
AcDbLine
 10
3779.187842341591
 20
1809.289448901965
 11
3777.48784336659
 21
1809.289448901965
  0
LINE
  5
1FE
100
AcDbEntity
  8
0
  6
CONTINUOUS
 62
           3
100
AcDbLine
 10
3777.48784336659
 20
1809.289448901965
 11
3777.48784336659
 21
1789.289445623782
  0
LINE
  5
1FD
100
AcDbEntity
  8
0
  6
CONTINUOUS
 62
           3
100
AcDbLine
 10
3779.187842341591
 20
1909.289448529483
 11
3779.487843694589
 21
1909.289448529483
  0
LINE
  5
1FC
100
AcDbEntity
  8
0
  6
CONTINUOUS
 62
           3
100
AcDbLine
 10
3779.487843694589
 20
1889.289448976398
 11
3779.187842341591
 21
1889.289448976398
  0
LINE
  5
1FB
100
AcDbEntity
  8
0
  6
CONTINUOUS
 62
           3
100
AcDbLine
 10
3777.48784336659
 20
1887.289449579902
 11
3779.487843694589
 21
1887.289449579902
  0
LINE
  5
1FA
100
AcDbEntity
  8
0
  6
CONTINUOUS
 62
           3
100
AcDbLine
 10
3777.48784336659
 20
1887.289449579902
 11
3777.48784336659
 21
1811.289445504562
  0
LINE
  5
1F9
100
AcDbEntity
  8
0
  6
CONTINUOUS
 62
           3
100
AcDbLine
 10
3777.48784336659
 20
1811.289445504562
 11
3779.487843694589
 21
1811.289445504562
  0
LINE
  5
1F8
100
AcDbEntity
  8
0
  6
CONTINUOUS
 62
           3
100
AcDbLine
 10
3779.487843694589
 20
1809.289448901965
 11
3779.187842341591
 21
1809.289448901965
  0
LINE
  5
1F7
100
AcDbEntity
  8
0
  6
CONTINUOUS
 62
           3
100
AcDbLine
 10
3779.187842341591
 20
1789.289445623782
 11
3779.487843694589
 21
1789.289445623782
  0
LINE
  5
1F6
100
AcDbEntity
  8
0
  6
CONTINUOUS
 62
           3
100
AcDbLine
 10
3779.487843694589
 20
1787.289449021186
 11
3777.48784336659
 21
1787.289449021186
  0
LINE
  5
1F5
100
AcDbEntity
  8
0
  6
CONTINUOUS
 62
           3
100
AcDbLine
 10
3777.48784336659
 20
1770.989448770793
 11
3777.48784336659
 21
1787.289449021186
  0
LINE
  5
1F4
100
AcDbEntity
  8
0
  6
CONTINUOUS
 62
           3
100
AcDbLine
 10
3897.487840684495
 20
1770.989448770793
 11
3897.487840684495
 21
1787.289449021186
  0
LINE
  5
1F3
100
AcDbEntity
  8
0
  6
CONTINUOUS
 62
           3
100
AcDbLine
 10
3895.487840356496
 20
1787.289449021186
 11
3897.487840684495
 21
1787.289449021186
  0
LINE
  5
1F2
100
AcDbEntity
  8
0
  6
CONTINUOUS
 62
           3
100
AcDbLine
 10
3895.787841709499
 20
1789.289445623782
 11
3895.487840356496
 21
1789.289445623782
  0
LINE
  5
1F1
100
AcDbEntity
  8
0
  6
CONTINUOUS
 62
           3
100
AcDbLine
 10
3895.487840356496
 20
1809.289448901965
 11
3895.787841709499
 21
1809.289448901965
  0
LINE
  5
1F0
100
AcDbEntity
  8
0
  6
CONTINUOUS
 62
           3
100
AcDbLine
 10
3897.487840684495
 20
1811.289445504562
 11
3895.487840356496
 21
1811.289445504562
  0
LINE
  5
1EF
100
AcDbEntity
  8
0
  6
CONTINUOUS
 62
           3
100
AcDbLine
 10
3897.487840684495
 20
1887.289449579902
 11
3897.487840684495
 21
1811.289445504562
  0
LINE
  5
1EE
100
AcDbEntity
  8
0
  6
CONTINUOUS
 62
           3
100
AcDbLine
 10
3897.487840684495
 20
1887.289449579902
 11
3895.487840356496
 21
1887.289449579902
  0
LINE
  5
1ED
100
AcDbEntity
  8
0
  6
CONTINUOUS
 62
           3
100
AcDbLine
 10
3895.487840356496
 20
1889.289448976398
 11
3895.787841709499
 21
1889.289448976398
  0
LINE
  5
1EC
100
AcDbEntity
  8
0
  6
CONTINUOUS
 62
           3
100
AcDbLine
 10
3895.787841709499
 20
1909.289448529483
 11
3895.487840356496
 21
1909.289448529483
  0
LINE
  5
1EB
100
AcDbEntity
  8
0
  6
CONTINUOUS
 62
           3
100
AcDbLine
 10
3895.487840356496
 20
1911.289450719882
 11
3897.487840684495
 21
1911.289450719882
  0
LINE
  5
1EA
100
AcDbEntity
  8
0
  6
CONTINUOUS
 62
           3
100
AcDbLine
 10
3897.487840684495
 20
1927.589450970268
 11
3897.487840684495
 21
1911.289450719882
  0
LINE
  5
1E9
100
AcDbEntity
  8
0
  6
CONTINUOUS
 62
           3
100
AcDbLine
 10
3777.48784336659
 20
1927.589450970268
 11
3777.48784336659
 21
1911.289450719882
  0
LINE
  5
1E8
100
AcDbEntity
  8
0
  6
CONTINUOUS
 62
           3
100
AcDbLine
 10
3779.487843694589
 20
1911.289450719882
 11
3777.48784336659
 21
1911.289450719882
  0
LINE
  5
1E7
100
AcDbEntity
  8
0
  6
CONTINUOUS
 62
           3
100
AcDbLine
 10
3895.787841709499
 20
1889.289448976398
 11
3897.412649424895
 21
1889.289448976398
  0
LINE
  5
1E6
100
AcDbEntity
  8
0
  6
CONTINUOUS
 62
           3
100
AcDbLine
 10
3897.487840684495
 20
1889.289448976398
 11
3897.487840684495
 21
1909.289448529483
  0
LINE
  5
1E5
100
AcDbEntity
  8
0
  6
CONTINUOUS
 62
           3
100
AcDbLine
 10
3897.487840684495
 20
1909.289448529483
 11
3895.787841709499
 21
1909.289448529483
  0
LINE
  5
1E4
100
AcDbEntity
  8
0
  6
CONTINUOUS
 62
           3
100
AcDbLine
 10
3897.487840684495
 20
1928.089448258067
 11
3897.487840684495
 21
1927.589450970268
  0
LINE
  5
1E3
100
AcDbEntity
  8
0
  6
CONTINUOUS
 62
           3
100
AcDbLine
 10
3777.48784336659
 20
1928.089448258067
 11
3777.48784336659
 21
1927.589450970268
  0
LINE
  5
1E2
100
AcDbEntity
  8
0
  6
CONTINUOUS
 62
           3
100
AcDbLine
 10
3777.48784336659
 20
1770.489447757595
 11
3777.48784336659
 21
1770.989448770793
  0
LINE
  5
1E1
100
AcDbEntity
  8
0
  6
CONTINUOUS
 62
           3
100
AcDbLine
 10
3897.487840684495
 20
1770.489447757595
 11
3897.487840684495
 21
1770.989448770793
  0
LINE
  5
1E0
100
AcDbEntity
  8
0
  6
CONTINUOUS
 62
           3
100
AcDbLine
 10
3840.487842051638
 20
1929.289449944966
 11
3840.737842092638
 21
1929.289449944966
  0
LINE
  5
1DF
100
AcDbEntity
  8
0
  6
CONTINUOUS
 62
           3
100
AcDbLine
 10
3834.23784195845
 20
1929.289449944966
 11
3834.48784199945
 21
1929.289449944966
  0
LINE
  5
1DE
100
AcDbEntity
  8
0
  6
CONTINUOUS
 62
           3
100
AcDbLine
 10
3840.487842051638
 20
1928.089448258067
 11
3840.737842092638
 21
1928.089448258067
  0
LINE
  5
1DD
100
AcDbEntity
  8
0
  6
CONTINUOUS
 62
           3
100
AcDbLine
 10
3834.23784195845
 20
1928.089448258067
 11
3834.48784199945
 21
1928.089448258067
  0
LINE
  5
1DC
100
AcDbEntity
  8
0
  6
CONTINUOUS
 62
           3
100
AcDbLine
 10
3834.48784199945
 20
1770.489447757595
 11
3834.23784195845
 21
1770.489447757595
  0
LINE
  5
1DB
100
AcDbEntity
  8
0
  6
CONTINUOUS
 62
           3
100
AcDbLine
 10
3840.737842092638
 20
1770.489447757595
 11
3840.487842051638
 21
1770.489447757595
  0
LINE
  5
1DA
100
AcDbEntity
  8
0
  6
CONTINUOUS
 62
           3
100
AcDbLine
 10
3782.487842323587
 20
1770.489447757595
 11
3777.48784336659
 21
1770.489447757595
  0
LINE
  5
1D9
100
AcDbEntity
  8
0
  6
CONTINUOUS
 62
           3
100
AcDbLine
 10
3777.48784336659
 20
1769.2894497961
 11
3782.487842323587
 21
1769.2894497961
  0
LINE
  5
1D8
100
AcDbEntity
  8
0
  6
CONTINUOUS
 62
           3
100
AcDbLine
 10
3777.48784336659
 20
1770.489447757595
 11
3777.48784336659
 21
1769.2894497961
  0
LINE
  5
1D7
100
AcDbEntity
  8
0
  6
CONTINUOUS
 62
           3
100
AcDbLine
 10
3777.48784336659
 20
1929.289449944966
 11
3782.487842323587
 21
1929.289449944966
  0
LINE
  5
1D6
100
AcDbEntity
  8
0
  6
CONTINUOUS
 62
           3
100
AcDbLine
 10
3782.487842323587
 20
1928.089448258067
 11
3777.48784336659
 21
1928.089448258067
  0
LINE
  5
1D5
100
AcDbEntity
  8
0
  6
CONTINUOUS
 62
           3
100
AcDbLine
 10
3777.48784336659
 20
1928.089448258067
 11
3777.48784336659
 21
1929.289449944966
  0
LINE
  5
1D4
100
AcDbEntity
  8
0
  6
CONTINUOUS
 62
           3
100
AcDbLine
 10
3882.487843813506
 20
1929.289449944966
 11
3867.487841355017
 21
1929.289449944966
  0
LINE
  5
1D3
100
AcDbEntity
  8
0
  6
CONTINUOUS
 62
           3
100
AcDbLine
 10
3882.487843813506
 20
1928.089448258067
 11
3867.487841355017
 21
1928.089448258067
  0
LINE
  5
1D2
100
AcDbEntity
  8
0
  6
CONTINUOUS
 62
           3
100
AcDbLine
 10
3897.487840684495
 20
1929.289449944966
 11
3892.487841727496
 21
1929.289449944966
  0
LINE
  5
1D1
100
AcDbEntity
  8
0
  6
CONTINUOUS
 62
           3
100
AcDbLine
 10
3892.487841727496
 20
1928.089448258067
 11
3897.487840684495
 21
1928.089448258067
  0
LINE
  5
1D0
100
AcDbEntity
  8
0
  6
CONTINUOUS
 62
           3
100
AcDbLine
 10
3897.487840684495
 20
1928.089448258067
 11
3897.487840684495
 21
1929.289449944966
  0
LINE
  5
1CF
100
AcDbEntity
  8
0
  6
CONTINUOUS
 62
           3
100
AcDbLine
 10
3882.487843813506
 20
1770.489447757595
 11
3867.487841355017
 21
1770.489447757595
  0
LINE
  5
1CE
100
AcDbEntity
  8
0
  6
CONTINUOUS
 62
           3
100
AcDbLine
 10
3882.487843813506
 20
1769.2894497961
 11
3867.487841355017
 21
1769.2894497961
  0
LINE
  5
1CD
100
AcDbEntity
  8
0
  6
CONTINUOUS
 62
           3
100
AcDbLine
 10
3792.487840237578
 20
1929.289449944966
 11
3807.487842696065
 21
1929.289449944966
  0
LINE
  5
1CC
100
AcDbEntity
  8
0
  6
CONTINUOUS
 62
           3
100
AcDbLine
 10
3792.487840237578
 20
1928.089448258067
 11
3807.487842696065
 21
1928.089448258067
  0
LINE
  5
1CB
100
AcDbEntity
  8
0
  6
CONTINUOUS
 62
           3
100
AcDbLine
 10
3892.487841727496
 20
1770.489447757595
 11
3897.487840684495
 21
1770.489447757595
  0
LINE
  5
1CA
100
AcDbEntity
  8
0
  6
CONTINUOUS
 62
           3
100
AcDbLine
 10
3897.487840684495
 20
1769.2894497961
 11
3892.487841727496
 21
1769.2894497961
  0
LINE
  5
1C9
100
AcDbEntity
  8
0
  6
CONTINUOUS
 62
           3
100
AcDbLine
 10
3897.487840684495
 20
1770.489447757595
 11
3897.487840684495
 21
1769.2894497961
  0
LINE
  5
1C8
100
AcDbEntity
  8
0
  6
CONTINUOUS
 62
           3
100
AcDbLine
 10
3792.487840237578
 20
1770.489447757595
 11
3807.487842696065
 21
1770.489447757595
  0
LINE
  5
1C7
100
AcDbEntity
  8
0
  6
CONTINUOUS
 62
           3
100
AcDbLine
 10
3792.487840237578
 20
1769.2894497961
 11
3807.487842696065
 21
1769.2894497961
  0
LINE
  5
1C6
100
AcDbEntity
  8
0
  6
CONTINUOUS
 62
           3
100
AcDbLine
 10
3790.487843634977
 20
1929.289449944966
 11
3792.487840237578
 21
1929.289449944966
  0
LINE
  5
1C5
100
AcDbEntity
  8
0
  6
CONTINUOUS
 62
           3
100
AcDbLine
 10
3792.487840237578
 20
1928.089448258067
 11
3790.487843634977
 21
1928.089448258067
  0
LINE
  5
1C4
100
AcDbEntity
  8
0
  6
CONTINUOUS
 62
           3
100
AcDbLine
 10
3790.487843634977
 20
1928.089448258067
 11
3790.487843634977
 21
1929.289449944966
  0
LINE
  5
1C3
100
AcDbEntity
  8
0
  6
CONTINUOUS
 62
           3
100
AcDbLine
 10
3782.487842323587
 20
1929.289449944966
 11
3784.487842651588
 21
1929.289449944966
  0
LINE
  5
1C2
100
AcDbEntity
  8
0
  6
CONTINUOUS
 62
           3
100
AcDbLine
 10
3784.487842651588
 20
1928.089448258067
 11
3782.487842323587
 21
1928.089448258067
  0
LINE
  5
1C1
100
AcDbEntity
  8
0
  6
CONTINUOUS
 62
           3
100
AcDbLine
 10
3784.487842651588
 20
1929.289449944966
 11
3784.487842651588
 21
1928.089448258067
  0
LINE
  5
1C0
100
AcDbEntity
  8
0
  6
CONTINUOUS
 62
           3
100
AcDbLine
 10
3882.487843813506
 20
1770.489447757595
 11
3884.487840416107
 21
1770.489447757595
  0
LINE
  5
1BF
100
AcDbEntity
  8
0
  6
CONTINUOUS
 62
           3
100
AcDbLine
 10
3884.487840416107
 20
1769.2894497961
 11
3882.487843813506
 21
1769.2894497961
  0
LINE
  5
1BE
100
AcDbEntity
  8
0
  6
CONTINUOUS
 62
           3
100
AcDbLine
 10
3884.487840416107
 20
1770.489447757595
 11
3884.487840416107
 21
1769.2894497961
  0
LINE
  5
1BD
100
AcDbEntity
  8
0
  6
CONTINUOUS
 62
           3
100
AcDbLine
 10
3890.487841399795
 20
1770.489447757595
 11
3892.487841727496
 21
1770.489447757595
  0
LINE
  5
1BC
100
AcDbEntity
  8
0
  6
CONTINUOUS
 62
           3
100
AcDbLine
 10
3892.487841727496
 20
1769.2894497961
 11
3890.487841399795
 21
1769.2894497961
  0
LINE
  5
1BB
100
AcDbEntity
  8
0
  6
CONTINUOUS
 62
           3
100
AcDbLine
 10
3890.487841399795
 20
1769.2894497961
 11
3890.487841399795
 21
1770.489447757595
  0
LINE
  5
1BA
100
AcDbEntity
  8
0
  6
CONTINUOUS
 62
           3
100
AcDbLine
 10
3884.487840416107
 20
1929.289449944966
 11
3882.487843813506
 21
1929.289449944966
  0
LINE
  5
1B9
100
AcDbEntity
  8
0
  6
CONTINUOUS
 62
           3
100
AcDbLine
 10
3882.487843813506
 20
1928.089448258067
 11
3884.487840416107
 21
1928.089448258067
  0
LINE
  5
1B8
100
AcDbEntity
  8
0
  6
CONTINUOUS
 62
           3
100
AcDbLine
 10
3884.487840416107
 20
1928.089448258067
 11
3884.487840416107
 21
1929.289449944966
  0
LINE
  5
1B7
100
AcDbEntity
  8
0
  6
CONTINUOUS
 62
           3
100
AcDbLine
 10
3892.487841727496
 20
1929.289449944966
 11
3890.487841399795
 21
1929.289449944966
  0
LINE
  5
1B6
100
AcDbEntity
  8
0
  6
CONTINUOUS
 62
           3
100
AcDbLine
 10
3890.487841399795
 20
1928.089448258067
 11
3892.487841727496
 21
1928.089448258067
  0
LINE
  5
1B5
100
AcDbEntity
  8
0
  6
CONTINUOUS
 62
           3
100
AcDbLine
 10
3890.487841399795
 20
1929.289449944966
 11
3890.487841399795
 21
1928.089448258067
  0
LINE
  5
1B4
100
AcDbEntity
  8
0
  6
CONTINUOUS
 62
           3
100
AcDbLine
 10
3792.487840237578
 20
1770.489447757595
 11
3790.487843634977
 21
1770.489447757595
  0
LINE
  5
1B3
100
AcDbEntity
  8
0
  6
CONTINUOUS
 62
           3
100
AcDbLine
 10
3790.487843634977
 20
1769.2894497961
 11
3792.487840237578
 21
1769.2894497961
  0
LINE
  5
1B2
100
AcDbEntity
  8
0
  6
CONTINUOUS
 62
           3
100
AcDbLine
 10
3790.487843634977
 20
1770.489447757595
 11
3790.487843634977
 21
1769.2894497961
  0
LINE
  5
1B1
100
AcDbEntity
  8
0
  6
CONTINUOUS
 62
           3
100
AcDbLine
 10
3784.487842651588
 20
1770.489447757595
 11
3782.487842323587
 21
1770.489447757595
  0
LINE
  5
1B0
100
AcDbEntity
  8
0
  6
CONTINUOUS
 62
           3
100
AcDbLine
 10
3782.487842323587
 20
1769.2894497961
 11
3784.487842651588
 21
1769.2894497961
  0
LINE
  5
1AF
100
AcDbEntity
  8
0
  6
CONTINUOUS
 62
           3
100
AcDbLine
 10
3784.487842651588
 20
1769.2894497961
 11
3784.487842651588
 21
1770.489447757595
  0
LINE
  5
1AE
100
AcDbEntity
  8
0
  6
CONTINUOUS
 62
           3
100
AcDbLine
 10
3833.98784191745
 20
1770.489447757595
 11
3834.23784195845
 21
1770.489447757595
  0
LINE
  5
1AD
100
AcDbEntity
  8
0
  6
CONTINUOUS
 62
           3
100
AcDbLine
 10
3834.23784195845
 20
1770.489447757595
 11
3834.23784195845
 21
1769.2894497961
  0
LINE
  5
1AC
100
AcDbEntity
  8
0
  6
CONTINUOUS
 62
           3
100
AcDbLine
 10
3867.487841355017
 20
1770.489447757595
 11
3857.487841578628
 21
1770.489447757595
  0
LINE
  5
1AB
100
AcDbEntity
  8
0
  6
CONTINUOUS
 62
           3
100
AcDbLine
 10
3867.487841355017
 20
1769.2894497961
 11
3857.487841578628
 21
1769.2894497961
  0
LINE
  5
1AA
100
AcDbEntity
  8
0
  6
CONTINUOUS
 62
           3
100
AcDbLine
 10
3867.487841355017
 20
1770.489447757595
 11
3867.487841355017
 21
1769.2894497961
  0
LINE
  5
1A9
100
AcDbEntity
  8
0
  6
CONTINUOUS
 62
           3
100
AcDbLine
 10
3832.237842096347
 20
1929.289449944966
 11
3834.23784195845
 21
1929.289449944966
  0
LINE
  5
1A8
100
AcDbEntity
  8
0
  6
CONTINUOUS
 62
           3
100
AcDbLine
 10
3834.23784195845
 20
1928.089448258067
 11
3832.237842096347
 21
1928.089448258067
  0
LINE
  5
1A7
100
AcDbEntity
  8
0
  6
CONTINUOUS
 62
           3
100
AcDbLine
 10
3834.23784195845
 20
1929.289449944966
 11
3834.23784195845
 21
1928.089448258067
  0
LINE
  5
1A6
100
AcDbEntity
  8
0
  6
CONTINUOUS
 62
           3
100
AcDbLine
 10
3845.487842405436
 20
1770.489447757595
 11
3857.487841578628
 21
1770.489447757595
  0
LINE
  5
1A5
100
AcDbEntity
  8
0
  6
CONTINUOUS
 62
           3
100
AcDbLine
 10
3845.487842405436
 20
1769.2894497961
 11
3857.487841578628
 21
1769.2894497961
  0
LINE
  5
1A4
100
AcDbEntity
  8
0
  6
CONTINUOUS
 62
           3
100
AcDbLine
 10
3857.487841578628
 20
1770.489447757595
 11
3857.487841578628
 21
1769.2894497961
  0
LINE
  5
1A3
100
AcDbEntity
  8
0
  6
CONTINUOUS
 62
           3
100
AcDbLine
 10
3807.487842696065
 20
1770.489447757595
 11
3817.48784247246
 21
1770.489447757595
  0
LINE
  5
1A2
100
AcDbEntity
  8
0
  6
CONTINUOUS
 62
           3
100
AcDbLine
 10
3807.487842696065
 20
1769.2894497961
 11
3817.48784247246
 21
1769.2894497961
  0
LINE
  5
1A1
100
AcDbEntity
  8
0
  6
CONTINUOUS
 62
           3
100
AcDbLine
 10
3807.487842696065
 20
1770.489447757595
 11
3807.487842696065
 21
1769.2894497961
  0
LINE
  5
1A0
100
AcDbEntity
  8
0
  6
CONTINUOUS
 62
           3
100
AcDbLine
 10
3840.737842092638
 20
1929.289449944966
 11
3842.737841954739
 21
1929.289449944966
  0
LINE
  5
19F
100
AcDbEntity
  8
0
  6
CONTINUOUS
 62
           3
100
AcDbLine
 10
3842.737841954739
 20
1928.089448258067
 11
3840.737842092638
 21
1928.089448258067
  0
LINE
  5
19E
100
AcDbEntity
  8
0
  6
CONTINUOUS
 62
           3
100
AcDbLine
 10
3840.737842092638
 20
1928.089448258067
 11
3840.737842092638
 21
1929.289449944966
  0
LINE
  5
19D
100
AcDbEntity
  8
0
  6
CONTINUOUS
 62
           3
100
AcDbLine
 10
3867.487841355017
 20
1929.289449944966
 11
3857.487841578628
 21
1929.289449944966
  0
LINE
  5
19C
100
AcDbEntity
  8
0
  6
CONTINUOUS
 62
           3
100
AcDbLine
 10
3867.487841355017
 20
1928.089448258067
 11
3857.487841578628
 21
1928.089448258067
  0
LINE
  5
19B
100
AcDbEntity
  8
0
  6
CONTINUOUS
 62
           3
100
AcDbLine
 10
3867.487841355017
 20
1928.089448258067
 11
3867.487841355017
 21
1929.289449944966
  0
LINE
  5
19A
100
AcDbEntity
  8
0
  6
CONTINUOUS
 62
           3
100
AcDbLine
 10
3840.737842092638
 20
1770.489447757595
 11
3840.987842133638
 21
1770.489447757595
  0
LINE
  5
199
100
AcDbEntity
  8
0
  6
CONTINUOUS
 62
           3
100
AcDbLine
 10
3840.737842092638
 20
1769.2894497961
 11
3840.737842092638
 21
1770.489447757595
  0
LINE
  5
198
100
AcDbEntity
  8
0
  6
CONTINUOUS
 62
           3
100
AcDbLine
 10
3817.48784247246
 20
1770.489447757595
 11
3829.487841645649
 21
1770.489447757595
  0
LINE
  5
197
100
AcDbEntity
  8
0
  6
CONTINUOUS
 62
           3
100
AcDbLine
 10
3817.48784247246
 20
1769.2894497961
 11
3829.487841645649
 21
1769.2894497961
  0
LINE
  5
196
100
AcDbEntity
  8
0
  6
CONTINUOUS
 62
           3
100
AcDbLine
 10
3817.48784247246
 20
1770.489447757595
 11
3817.48784247246
 21
1769.2894497961
  0
LINE
  5
195
100
AcDbEntity
  8
0
  6
CONTINUOUS
 62
           3
100
AcDbLine
 10
3817.48784247246
 20
1929.289449944966
 11
3832.237842096347
 21
1929.289449944966
  0
LINE
  5
194
100
AcDbEntity
  8
0
  6
CONTINUOUS
 62
           3
100
AcDbLine
 10
3817.48784247246
 20
1928.089448258067
 11
3832.237842096347
 21
1928.089448258067
  0
LINE
  5
193
100
AcDbEntity
  8
0
  6
CONTINUOUS
 62
           3
100
AcDbLine
 10
3842.737841954739
 20
1929.289449944966
 11
3857.487841578628
 21
1929.289449944966
  0
LINE
  5
192
100
AcDbEntity
  8
0
  6
CONTINUOUS
 62
           3
100
AcDbLine
 10
3842.737841954739
 20
1928.089448258067
 11
3857.487841578628
 21
1928.089448258067
  0
LINE
  5
191
100
AcDbEntity
  8
0
  6
CONTINUOUS
 62
           3
100
AcDbLine
 10
3857.487841578628
 20
1928.089448258067
 11
3857.487841578628
 21
1929.289449944966
  0
LINE
  5
190
100
AcDbEntity
  8
0
  6
CONTINUOUS
 62
           3
100
AcDbLine
 10
3807.487842696065
 20
1928.089448258067
 11
3807.487842696065
 21
1929.289449944966
  0
LINE
  5
18F
100
AcDbEntity
  8
0
  6
CONTINUOUS
 62
           3
100
AcDbLine
 10
3807.487842696065
 20
1928.089448258067
 11
3817.48784247246
 21
1928.089448258067
  0
LINE
  5
18E
100
AcDbEntity
  8
0
  6
CONTINUOUS
 62
           3
100
AcDbLine
 10
3817.48784247246
 20
1928.089448258067
 11
3817.48784247246
 21
1929.289449944966
  0
LINE
  5
18D
100
AcDbEntity
  8
0
  6
CONTINUOUS
 62
           3
100
AcDbLine
 10
3807.487842696065
 20
1929.289449944966
 11
3817.48784247246
 21
1929.289449944966
  0
LINE
  5
18C
100
AcDbEntity
  8
0
  6
CONTINUOUS
 62
           3
100
AcDbLine
 10
3845.487842405436
 20
1768.489451154997
 11
3845.487842405436
 21
1767.565690919798
  0
LINE
  5
18B
100
AcDbEntity
  8
0
  6
CONTINUOUS
 62
           3
100
AcDbLine
 10
3829.487841645649
 20
1768.489451154997
 11
3829.487841645649
 21
1767.565690919798
  0
LINE
  5
18A
100
AcDbEntity
  8
0
  6
CONTINUOUS
 62
           3
100
AcDbLine
 10
3832.487842137347
 20
1767.565690919798
 11
3829.487841645649
 21
1767.565690919798
  0
LINE
  5
189
100
AcDbEntity
  8
0
  6
CONTINUOUS
 62
           3
100
AcDbLine
 10
3845.487842405436
 20
1767.565690919798
 11
3842.487841913739
 21
1767.565690919798
  0
LINE
  5
188
100
AcDbEntity
  8
0
  6
CONTINUOUS
 62
           3
100
AcDbLine
 10
3839.987841969637
 20
1763.489448472902
 11
3842.487841913785
 21
1763.489448472902
  0
LINE
  5
187
100
AcDbEntity
  8
0
  6
CONTINUOUS
 62
           3
100
AcDbLine
 10
3832.487842137307
 20
1763.489448472902
 11
3834.987842081428
 21
1763.489448472902
  0
LINE
  5
186
100
AcDbEntity
  8
0
  6
CONTINUOUS
 62
           3
100
AcDbLine
 10
3842.487841913739
 20
1763.936028823305
 11
3842.487841913739
 21
1768.389449462196
  0
LINE
  5
185
100
AcDbEntity
  8
0
  6
CONTINUOUS
 62
           3
100
AcDbLine
 10
3832.487842137347
 20
1763.936028823305
 11
3832.487842137347
 21
1768.389449462196
  0
LINE
  5
184
100
AcDbEntity
  8
0
  6
CONTINUOUS
 62
           3
100
AcDbLine
 10
3832.487842137347
 20
1763.936028823305
 11
3834.987842081428
 21
1763.489448472902
  0
LINE
  5
183
100
AcDbEntity
  8
0
  6
CONTINUOUS
 62
           3
100
AcDbLine
 10
3837.48784202555
 20
1763.936028823297
 11
3837.48784202555
 21
1768.389449462196
  0
LINE
  5
182
100
AcDbEntity
  8
0
  6
CONTINUOUS
 62
           3
100
AcDbLine
 10
3834.987842081428
 20
1763.489448472902
 11
3839.987841969637
 21
1763.489448472902
  0
LINE
  5
181
100
AcDbEntity
  8
0
  6
CONTINUOUS
 62
           3
100
AcDbLine
 10
3837.48784202555
 20
1763.936028823297
 11
3839.987841969637
 21
1763.489448472902
  0
LINE
  5
180
100
AcDbEntity
  8
0
  6
CONTINUOUS
 62
           3
100
AcDbLine
 10
3833.98784191745
 20
1768.489451154997
 11
3840.987842133638
 21
1768.489451154997
  0
LINE
  5
17F
100
AcDbEntity
  8
0
  6
CONTINUOUS
 62
           3
100
AcDbLine
 10
3833.98784191745
 20
1769.2894497961
 11
3840.987842133638
 21
1769.2894497961
  0
LINE
  5
17E
100
AcDbEntity
  8
0
  6
CONTINUOUS
 62
           3
100
AcDbLine
 10
3840.987842133638
 20
1773.279593333495
 11
3833.98784191745
 21
1773.279593333495
  0
LINE
  5
17D
100
AcDbEntity
  8
0
  6
CONTINUOUS
 62
           3
100
AcDbLine
 10
3834.48784199945
 20
1771.535919055295
 11
3833.98784191745
 21
1771.535919055295
  0
LINE
  5
17C
100
AcDbEntity
  8
0
  6
CONTINUOUS
 62
           3
100
AcDbLine
 10
3840.987842133638
 20
1771.535919055295
 11
3840.487842051638
 21
1771.535919055295
  0
LINE
  5
17B
100
AcDbEntity
  8
0
  6
CONTINUOUS
 62
           3
100
AcDbLine
 10
3845.487842405436
 20
1774.089449092896
 11
3845.487842405436
 21
1768.489451154997
  0
LINE
  5
17A
100
AcDbEntity
  8
0
  6
CONTINUOUS
 62
           3
100
AcDbLine
 10
3829.487841645649
 20
1774.089449092896
 11
3829.487841645649
 21
1768.489451154997
  0
LINE
  5
179
100
AcDbEntity
  8
0
  6
CONTINUOUS
 62
           3
100
AcDbLine
 10
3833.98784191745
 20
1768.489451154997
 11
3833.98784191745
 21
1774.089449092896
  0
LINE
  5
178
100
AcDbEntity
  8
0
  6
CONTINUOUS
 62
           3
100
AcDbLine
 10
3840.987842133638
 20
1774.089449092896
 11
3840.987842133638
 21
1768.489451154997
  0
LINE
  5
177
100
AcDbEntity
  8
0
  6
CONTINUOUS
 62
           3
100
AcDbLine
 10
3833.98784191745
 20
1768.489451154997
 11
3829.487841645649
 21
1768.489451154997
  0
LINE
  5
176
100
AcDbEntity
  8
0
  6
CONTINUOUS
 62
           3
100
AcDbLine
 10
3833.98784191745
 20
1774.082296535494
 11
3840.987842133638
 21
1774.082296535494
  0
LINE
  5
175
100
AcDbEntity
  8
0
  6
CONTINUOUS
 62
           3
100
AcDbLine
 10
3845.487842405436
 20
1768.489451154997
 11
3840.987842133638
 21
1768.489451154997
  0
LINE
  5
174
100
AcDbEntity
  8
0
  6
CONTINUOUS
 62
           3
100
AcDbLine
 10
3839.487842120435
 20
2017.712102278994
 11
3835.487841930648
 21
2017.712102278994
  0
LINE
  5
173
100
AcDbEntity
  8
0
  6
CONTINUOUS
 62
           3
100
AcDbLine
 10
3834.48784199945
 20
2016.712100252295
 11
3840.487842051638
 21
2016.712100252295
  0
LINE
  5
172
100
AcDbEntity
  8
0
  6
CONTINUOUS
 62
           3
100
AcDbLine
 10
3783.487840624887
 20
2044.289455756371
 11
3787.487841280584
 21
2044.289455756371
  0
LINE
  5
171
100
AcDbEntity
  8
0
  6
CONTINUOUS
 62
           3
100
AcDbLine
 10
3787.487841280584
 20
2044.289455756371
 11
3791.487841936286
 21
2044.289455756371
  0
LINE
  5
170
100
AcDbEntity
  8
0
  6
CONTINUOUS
 62
           3
100
AcDbLine
 10
3833.157714991221
 20
1746.889443144259
 11
3832.487842137347
 21
1746.889443144116
  0
LINE
  5
16F
100
AcDbEntity
  8
0
  6
CONTINUOUS
 62
           3
100
AcDbLine
 10
3842.487841913739
 20
1746.889443144116
 11
3841.81796905988
 21
1746.889443144259
  0
LINE
  5
16E
100
AcDbEntity
  8
0
  6
CONTINUOUS
 62
           3
100
AcDbLine
 10
3833.157714991221
 20
1751.889453277044
 11
3832.487842137347
 21
1751.889453277011
  0
LINE
  5
16D
100
AcDbEntity
  8
0
  6
CONTINUOUS
 62
           3
100
AcDbLine
 10
3841.81796905988
 20
1746.889443144259
 11
3837.48784202555
 21
1746.889443144259
  0
LINE
  5
16C
100
AcDbEntity
  8
0
  6
CONTINUOUS
 62
           3
100
AcDbLine
 10
3837.48784202555
 20
1746.889443144259
 11
3833.157714991221
 21
1746.889443144259
  0
LINE
  5
16B
100
AcDbEntity
  8
0
  6
CONTINUOUS
 62
           3
100
AcDbLine
 10
3831.714339157847
 20
1751.442865476111
 11
3831.714339157847
 21
1747.336030945315
  0
LINE
  5
16A
100
AcDbEntity
  8
0
  6
CONTINUOUS
 62
           3
100
AcDbLine
 10
3831.714339157847
 20
1747.336030945315
 11
3833.157714991221
 21
1746.889443144259
  0
LINE
  5
169
100
AcDbEntity
  8
0
  6
CONTINUOUS
 62
           3
100
AcDbLine
 10
3834.601090591718
 20
1751.442865476064
 11
3833.157714991221
 21
1751.889453277044
  0
LINE
  5
168
100
AcDbEntity
  8
0
  6
CONTINUOUS
 62
           3
100
AcDbLine
 10
3840.374593459238
 20
1747.336030945315
 11
3841.81796905988
 21
1746.889443144259
  0
LINE
  5
167
100
AcDbEntity
  8
0
  6
CONTINUOUS
 62
           3
100
AcDbLine
 10
3843.261344893239
 20
1751.442865476111
 11
3843.261344893239
 21
1747.336030945315
  0
LINE
  5
166
100
AcDbEntity
  8
0
  6
CONTINUOUS
 62
           3
100
AcDbLine
 10
3843.261344893239
 20
1751.442865476111
 11
3841.81796905988
 21
1751.889453277044
  0
LINE
  5
165
100
AcDbEntity
  8
0
  6
CONTINUOUS
 62
           3
100
AcDbLine
 10
3834.601090591718
 20
1751.442865476064
 11
3834.601090591718
 21
1747.336030945237
  0
LINE
  5
164
100
AcDbEntity
  8
0
  6
CONTINUOUS
 62
           3
100
AcDbLine
 10
3840.374593459376
 20
1751.442865476064
 11
3840.374593459238
 21
1747.336030945315
  0
LINE
  5
163
100
AcDbEntity
  8
0
  6
CONTINUOUS
 62
           3
100
AcDbLine
 10
3842.487841913739
 20
1751.889453277011
 11
3841.81796905988
 21
1751.889453277044
  0
LINE
  5
162
100
AcDbEntity
  8
0
  6
CONTINUOUS
 62
           3
100
AcDbLine
 10
3842.487841913739
 20
1756.889448508607
 11
3841.81796905988
 21
1756.889448508669
  0
LINE
  5
161
100
AcDbEntity
  8
0
  6
CONTINUOUS
 62
           3
100
AcDbLine
 10
3833.157714991221
 20
1756.889448508669
 11
3832.487842137347
 21
1756.889448508607
  0
LINE
  5
160
100
AcDbEntity
  8
0
  6
CONTINUOUS
 62
           3
100
AcDbLine
 10
3837.48784202555
 20
1751.889453277044
 11
3833.157714991221
 21
1751.889453277044
  0
LINE
  5
15F
100
AcDbEntity
  8
0
  6
CONTINUOUS
 62
           3
100
AcDbLine
 10
3841.81796905988
 20
1751.889453277044
 11
3837.48784202555
 21
1751.889453277044
  0
LINE
  5
15E
100
AcDbEntity
  8
0
  6
CONTINUOUS
 62
           3
100
AcDbLine
 10
3837.48784202555
 20
1756.889448508669
 11
3833.157714991221
 21
1756.889448508669
  0
LINE
  5
15D
100
AcDbEntity
  8
0
  6
CONTINUOUS
 62
           3
100
AcDbLine
 10
3831.714339157847
 20
1756.442868158208
 11
3831.714339157847
 21
1752.336026176913
  0
LINE
  5
15C
100
AcDbEntity
  8
0
  6
CONTINUOUS
 62
           3
100
AcDbLine
 10
3831.714339157847
 20
1752.336026176913
 11
3833.157714991221
 21
1751.889453277044
  0
LINE
  5
15B
100
AcDbEntity
  8
0
  6
CONTINUOUS
 62
           3
100
AcDbLine
 10
3834.601090591718
 20
1756.442868158269
 11
3833.157714991221
 21
1756.889448508669
  0
LINE
  5
15A
100
AcDbEntity
  8
0
  6
CONTINUOUS
 62
           3
100
AcDbLine
 10
3841.81796905988
 20
1756.889448508669
 11
3837.48784202555
 21
1756.889448508669
  0
LINE
  5
159
100
AcDbEntity
  8
0
  6
CONTINUOUS
 62
           3
100
AcDbLine
 10
3840.374593459238
 20
1752.336026176913
 11
3841.81796905988
 21
1751.889453277044
  0
LINE
  5
158
100
AcDbEntity
  8
0
  6
CONTINUOUS
 62
           3
100
AcDbLine
 10
3843.261344893239
 20
1756.442868158208
 11
3843.261344893239
 21
1752.336026176913
  0
LINE
  5
157
100
AcDbEntity
  8
0
  6
CONTINUOUS
 62
           3
100
AcDbLine
 10
3843.261344893239
 20
1756.442868158208
 11
3841.81796905988
 21
1756.889448508669
  0
LINE
  5
156
100
AcDbEntity
  8
0
  6
CONTINUOUS
 62
           3
100
AcDbLine
 10
3834.601090591718
 20
1756.442868158269
 11
3834.601090591718
 21
1752.336026176862
  0
LINE
  5
155
100
AcDbEntity
  8
0
  6
CONTINUOUS
 62
           3
100
AcDbLine
 10
3840.374593459376
 20
1756.442868158269
 11
3840.374593459238
 21
1752.336026176913
  0
LINE
  5
154
100
AcDbEntity
  8
0
  6
CONTINUOUS
 62
           3
100
AcDbLine
 10
3831.714339157847
 20
1743.842870935919
 11
3831.714339157847
 21
1739.736036405125
  0
LINE
  5
153
100
AcDbEntity
  8
0
  6
CONTINUOUS
 62
           3
100
AcDbLine
 10
3831.714339157847
 20
1739.736036405125
 11
3833.157714991221
 21
1739.28944860405
  0
LINE
  5
152
100
AcDbEntity
  8
0
  6
CONTINUOUS
 62
           3
100
AcDbLine
 10
3834.601090591718
 20
1743.84287093586
 11
3833.157714991221
 21
1744.289443835674
  0
LINE
  5
151
100
AcDbEntity
  8
0
  6
CONTINUOUS
 62
           3
100
AcDbLine
 10
3840.374593459238
 20
1739.736036405125
 11
3841.81796905984
 21
1739.289448603923
  0
LINE
  5
150
100
AcDbEntity
  8
0
  6
CONTINUOUS
 62
           3
100
AcDbLine
 10
3843.261344893239
 20
1743.842870935919
 11
3843.261344893239
 21
1739.736036405125
  0
LINE
  5
14F
100
AcDbEntity
  8
0
  6
CONTINUOUS
 62
           3
100
AcDbLine
 10
3843.261344893239
 20
1743.842870935919
 11
3841.81796905988
 21
1744.289443835674
  0
LINE
  5
14E
100
AcDbEntity
  8
0
  6
CONTINUOUS
 62
           3
100
AcDbLine
 10
3834.601090591718
 20
1743.84287093586
 11
3834.601090591718
 21
1739.736036405026
  0
LINE
  5
14D
100
AcDbEntity
  8
0
  6
CONTINUOUS
 62
           3
100
AcDbLine
 10
3840.374593459376
 20
1743.84287093586
 11
3840.374593459238
 21
1739.736036405125
  0
LINE
  5
14C
100
AcDbEntity
  8
0
  6
CONTINUOUS
 62
           3
100
AcDbLine
 10
3832.487842137347
 20
1739.289448603923
 11
3833.157714991221
 21
1739.28944860405
  0
LINE
  5
14B
100
AcDbEntity
  8
0
  6
CONTINUOUS
 62
           3
100
AcDbLine
 10
3842.487841913739
 20
1734.289453372324
 11
3841.81796905988
 21
1734.289453372422
  0
LINE
  5
14A
100
AcDbEntity
  8
0
  6
CONTINUOUS
 62
           3
100
AcDbLine
 10
3832.487842137347
 20
1734.289453372324
 11
3833.157714991221
 21
1734.289453372422
  0
LINE
  5
149
100
AcDbEntity
  8
0
  6
CONTINUOUS
 62
           3
100
AcDbLine
 10
3843.261344893239
 20
1734.736026272226
 11
3841.81796905988
 21
1734.289453372422
  0
LINE
  5
148
100
AcDbEntity
  8
0
  6
CONTINUOUS
 62
           3
100
AcDbLine
 10
3843.261344893239
 20
1734.736026272226
 11
3843.261344893239
 21
1738.842860803024
  0
LINE
  5
147
100
AcDbEntity
  8
0
  6
CONTINUOUS
 62
           3
100
AcDbLine
 10
3831.714339157847
 20
1734.736026272226
 11
3831.714339157847
 21
1738.842860803024
  0
LINE
  5
146
100
AcDbEntity
  8
0
  6
CONTINUOUS
 62
           3
100
AcDbLine
 10
3837.48784202555
 20
1739.28944860405
 11
3841.81796905984
 21
1739.289448603923
  0
LINE
  5
145
100
AcDbEntity
  8
0
  6
CONTINUOUS
 62
           3
100
AcDbLine
 10
3840.374593459376
 20
1738.842860803071
 11
3841.81796905984
 21
1739.289448603923
  0
LINE
  5
144
100
AcDbEntity
  8
0
  6
CONTINUOUS
 62
           3
100
AcDbLine
 10
3833.157714991221
 20
1739.28944860405
 11
3837.48784202555
 21
1739.28944860405
  0
LINE
  5
143
100
AcDbEntity
  8
0
  6
CONTINUOUS
 62
           3
100
AcDbLine
 10
3833.157714991221
 20
1734.289453372422
 11
3837.48784202555
 21
1734.289453372324
  0
LINE
  5
142
100
AcDbEntity
  8
0
  6
CONTINUOUS
 62
           3
100
AcDbLine
 10
3837.48784202555
 20
1734.289453372324
 11
3841.81796905988
 21
1734.289453372422
  0
LINE
  5
141
100
AcDbEntity
  8
0
  6
CONTINUOUS
 62
           3
100
AcDbLine
 10
3834.601090591844
 20
1738.842860803024
 11
3837.48784202555
 21
1739.28944860405
  0
LINE
  5
140
100
AcDbEntity
  8
0
  6
CONTINUOUS
 62
           3
100
AcDbLine
 10
3834.601090591718
 20
1734.736026272244
 11
3834.601090591844
 21
1738.842860803024
  0
LINE
  5
13F
100
AcDbEntity
  8
0
  6
CONTINUOUS
 62
           3
100
AcDbLine
 10
3840.374593459238
 20
1734.736026272226
 11
3837.48784202555
 21
1734.289453372324
  0
LINE
  5
13E
100
AcDbEntity
  8
0
  6
CONTINUOUS
 62
           3
100
AcDbLine
 10
3840.374593459238
 20
1734.736026272226
 11
3840.374593459376
 21
1738.842860803071
  0
LINE
  5
13D
100
AcDbEntity
  8
0
  6
CONTINUOUS
 62
           3
100
AcDbLine
 10
3894.487842055197
 20
1773.089447066196
 11
3894.487842055197
 21
1923.089449301369
  0
LINE
  5
13C
100
AcDbEntity
  8
0
  6
CONTINUOUS
 62
           3
100
AcDbLine
 10
3783.487840624887
 20
1923.089449301369
 11
3780.487841995885
 21
1923.089449301369
  0
LINE
  5
13B
100
AcDbEntity
  8
0
  6
CONTINUOUS
 62
           3
100
AcDbLine
 10
3834.48784199945
 20
1923.089449301369
 11
3791.487841936286
 21
1923.089449301369
  0
LINE
  5
13A
100
AcDbEntity
  8
0
  6
CONTINUOUS
 62
           3
100
AcDbLine
 10
3883.487842114807
 20
1923.089449301369
 11
3840.487842051638
 21
1923.089449301369
  0
LINE
  5
139
100
AcDbEntity
  8
0
  6
CONTINUOUS
 62
           3
100
AcDbLine
 10
3894.487842055197
 20
1923.089449301369
 11
3891.487843426201
 21
1923.089449301369
  0
LINE
  5
138
100
AcDbEntity
  8
0
  6
CONTINUOUS
 62
           3
100
AcDbLine
 10
3780.487841995885
 20
1923.089449301369
 11
3780.487841995885
 21
1773.089447066196
  0
LINE
  5
137
100
AcDbEntity
  8
0
  6
CONTINUOUS
 62
           3
100
AcDbLine
 10
3891.487843426201
 20
1773.089447066196
 11
3894.487842055197
 21
1773.089447066196
  0
LINE
  5
136
100
AcDbEntity
  8
0
  6
CONTINUOUS
 62
           3
100
AcDbLine
 10
3845.487842405436
 20
1773.089447066196
 11
3883.487842114807
 21
1773.089447066196
  0
LINE
  5
135
100
AcDbEntity
  8
0
  6
CONTINUOUS
 62
           3
100
AcDbLine
 10
3791.487841936286
 20
1773.089447066196
 11
3829.487841645649
 21
1773.089447066196
  0
LINE
  5
134
100
AcDbEntity
  8
0
  6
CONTINUOUS
 62
           3
100
AcDbLine
 10
3780.487841995885
 20
1773.089447066196
 11
3783.487840624887
 21
1773.089447066196
  0
LINE
  5
133
100
AcDbEntity
  8
0
  6
CONTINUOUS
 62
           3
100
AcDbLine
 10
3831.014339333745
 20
1768.389449199996
 11
3843.961344717337
 21
1768.389449199996
  0
LINE
  5
132
100
AcDbEntity
  8
0
  6
CONTINUOUS
 62
           3
100
AcDbLine
 10
3845.487842405436
 20
1774.089449092896
 11
3840.987842133638
 21
1774.089449092896
  0
LINE
  5
131
100
AcDbEntity
  8
0
  6
CONTINUOUS
 62
           3
100
AcDbLine
 10
3833.98784191745
 20
1774.089449092896
 11
3829.487841645649
 21
1774.089449092896
  0
LINE
  5
130
100
AcDbEntity
  8
0
  6
CONTINUOUS
 62
           3
100
AcDbLine
 10
3835.487841930648
 20
2017.712102278994
 11
3834.48784199945
 21
2016.712100252295
  0
LINE
  5
12F
100
AcDbEntity
  8
0
  6
CONTINUOUS
 62
           3
100
AcDbLine
 10
3840.487842051638
 20
2016.712100252295
 11
3839.487842120435
 21
2017.712102278994
  0
LINE
  5
12E
100
AcDbEntity
  8
0
  6
CONTINUOUS
 62
           3
100
AcDbLine
 10
3834.48784199945
 20
1746.889443144116
 11
3834.48784199945
 21
1745.889456018716
  0
LINE
  5
12D
100
AcDbEntity
  8
0
  6
CONTINUOUS
 62
           3
100
AcDbLine
 10
3834.48784199945
 20
1763.489448472902
 11
3834.48784199945
 21
1756.889448508607
  0
LINE
  5
12C
100
AcDbEntity
  8
0
  6
CONTINUOUS
 62
           3
100
AcDbLine
 10
3834.48784199945
 20
1772.246875807597
 11
3834.48784199945
 21
1769.2894497961
  0
LINE
  5
12B
100
AcDbEntity
  8
0
  6
CONTINUOUS
 62
           3
100
AcDbLine
 10
3834.48784199945
 20
2012.689442380998
 11
3834.48784199945
 21
1774.082296535494
  0
LINE
  5
12A
100
AcDbEntity
  8
0
  6
CONTINUOUS
 62
           3
100
AcDbLine
 10
3834.48784199945
 20
2016.712100252295
 11
3834.48784199945
 21
2014.289454564198
  0
LINE
  5
129
100
AcDbEntity
  8
0
  6
CONTINUOUS
 62
           3
100
AcDbLine
 10
3840.487842051638
 20
2014.289454564198
 11
3840.487842051638
 21
2016.712100252295
  0
LINE
  5
128
100
AcDbEntity
  8
0
  6
CONTINUOUS
 62
           3
100
AcDbLine
 10
3840.487842051638
 20
1774.082296535494
 11
3840.487842051638
 21
2012.689442380998
  0
LINE
  5
127
100
AcDbEntity
  8
0
  6
CONTINUOUS
 62
           3
100
AcDbLine
 10
3840.487842051638
 20
1769.2894497961
 11
3840.487842051638
 21
1772.246875807597
  0
LINE
  5
126
100
AcDbEntity
  8
0
  6
CONTINUOUS
 62
           3
100
AcDbLine
 10
3840.487842051638
 20
1756.889448508607
 11
3840.487842051638
 21
1763.489448472902
  0
LINE
  5
125
100
AcDbEntity
  8
0
  6
CONTINUOUS
 62
           3
100
AcDbLine
 10
3840.487842051638
 20
1745.889456018716
 11
3840.487842051638
 21
1746.889443144116
  0
LINE
  5
124
100
AcDbEntity
  8
0
  6
CONTINUOUS
 62
           3
100
AcDbLine
 10
3791.487841936286
 20
2014.289454564198
 11
3791.487841936286
 21
2044.289455756371
  0
LINE
  5
123
100
AcDbEntity
  8
0
  6
CONTINUOUS
 62
           3
100
AcDbLine
 10
3791.487841936286
 20
1929.289449944966
 11
3791.487841936286
 21
2012.689442380998
  0
LINE
  5
122
100
AcDbEntity
  8
0
  6
CONTINUOUS
 62
           3
100
AcDbLine
 10
3791.487841936286
 20
1770.489447757595
 11
3791.487841936286
 21
1928.089448258067
  0
LINE
  5
121
100
AcDbEntity
  8
0
  6
CONTINUOUS
 62
           3
100
AcDbLine
 10
3791.487841936286
 20
1745.889456018716
 11
3791.487841936286
 21
1769.2894497961
  0
LINE
  5
120
100
AcDbEntity
  8
0
  6
CONTINUOUS
 62
           3
100
AcDbLine
 10
3783.487840624887
 20
1744.289443835817
 11
3783.487840624887
 21
1694.289446815958
  0
LINE
  5
11F
100
AcDbEntity
  8
0
  6
CONTINUOUS
 62
           3
100
AcDbLine
 10
3783.487840624887
 20
1769.2894497961
 11
3783.487840624887
 21
1745.889456018716
  0
LINE
  5
11E
100
AcDbEntity
  8
0
  6
CONTINUOUS
 62
           3
100
AcDbLine
 10
3783.487840624887
 20
1928.089448258067
 11
3783.487840624887
 21
1770.489447757595
  0
LINE
  5
11D
100
AcDbEntity
  8
0
  6
CONTINUOUS
 62
           3
100
AcDbLine
 10
3783.487840624887
 20
2012.689442380998
 11
3783.487840624887
 21
1929.289449944966
  0
LINE
  5
11C
100
AcDbEntity
  8
0
  6
CONTINUOUS
 62
           3
100
AcDbLine
 10
3783.487840624887
 20
2044.289455756371
 11
3783.487840624887
 21
2014.289454564198
  0
LINE
  5
11B
100
AcDbEntity
  8
0
  6
CONTINUOUS
 62
           3
100
AcDbLine
 10
3891.487843426201
 20
2014.289454564198
 11
3891.487843426201
 21
2020.289449200002
  0
LINE
  5
11A
100
AcDbEntity
  8
0
  6
CONTINUOUS
 62
           3
100
AcDbLine
 10
3891.487843426201
 20
1929.289449944966
 11
3891.487843426201
 21
2012.689442380998
  0
LINE
  5
119
100
AcDbEntity
  8
0
  6
CONTINUOUS
 62
           3
100
AcDbLine
 10
3891.487843426201
 20
1770.489447757595
 11
3891.487843426201
 21
1928.089448258067
  0
LINE
  5
118
100
AcDbEntity
  8
0
  6
CONTINUOUS
 62
           3
100
AcDbLine
 10
3891.487843426201
 20
1745.889456018716
 11
3891.487843426201
 21
1769.2894497961
  0
LINE
  5
117
100
AcDbEntity
  8
0
  6
CONTINUOUS
 62
           3
100
AcDbLine
 10
3891.487843426201
 20
1694.289446815958
 11
3891.487843426201
 21
1744.289443835817
  0
LINE
  5
116
100
AcDbEntity
  8
0
  6
CONTINUOUS
 62
           3
100
AcDbLine
 10
3883.487842114807
 20
1744.289443835817
 11
3883.487842114807
 21
1694.289446815958
  0
LINE
  5
115
100
AcDbEntity
  8
0
  6
CONTINUOUS
 62
           3
100
AcDbLine
 10
3883.487842114807
 20
1769.2894497961
 11
3883.487842114807
 21
1745.889456018716
  0
LINE
  5
114
100
AcDbEntity
  8
0
  6
CONTINUOUS
 62
           3
100
AcDbLine
 10
3883.487842114807
 20
1928.089448258067
 11
3883.487842114807
 21
1770.489447757595
  0
LINE
  5
113
100
AcDbEntity
  8
0
  6
CONTINUOUS
 62
           3
100
AcDbLine
 10
3883.487842114807
 20
2012.689442380998
 11
3883.487842114807
 21
1929.289449944966
  0
LINE
  5
112
100
AcDbEntity
  8
0
  6
CONTINUOUS
 62
           3
100
AcDbLine
 10
3883.487842114807
 20
2020.289449200002
 11
3883.487842114807
 21
2014.289454564198
  0
LINE
  5
111
100
AcDbEntity
  8
0
  6
CONTINUOUS
 62
           3
100
AcDbLine
 10
3831.714339157847
 20
1747.336030945315
 11
3832.487842137347
 21
1746.889443144116
  0
LINE
  5
110
100
AcDbEntity
  8
0
  6
CONTINUOUS
 62
           3
100
AcDbLine
 10
3842.487841913739
 20
1746.889443144116
 11
3843.261344893239
 21
1747.336030945315
  0
LINE
  5
10F
100
AcDbEntity
  8
0
  6
CONTINUOUS
 62
           3
100
AcDbLine
 10
3843.261344893239
 20
1751.442865476111
 11
3842.487841913739
 21
1751.889453277011
  0
LINE
  5
10E
100
AcDbEntity
  8
0
  6
CONTINUOUS
 62
           3
100
AcDbLine
 10
3832.487842137347
 20
1751.889453277011
 11
3831.714339157847
 21
1751.442865476111
  0
LINE
  5
10D
100
AcDbEntity
  8
0
  6
CONTINUOUS
 62
           3
100
AcDbLine
 10
3831.714339157847
 20
1752.336026176913
 11
3832.487842137347
 21
1751.889453277011
  0
LINE
  5
10C
100
AcDbEntity
  8
0
  6
CONTINUOUS
 62
           3
100
AcDbLine
 10
3842.487841913739
 20
1751.889453277011
 11
3843.261344893239
 21
1752.336026176913
  0
LINE
  5
10B
100
AcDbEntity
  8
0
  6
CONTINUOUS
 62
           3
100
AcDbLine
 10
3843.261344893239
 20
1756.442868158208
 11
3842.487841913739
 21
1756.889448508607
  0
LINE
  5
10A
100
AcDbEntity
  8
0
  6
CONTINUOUS
 62
           3
100
AcDbLine
 10
3832.487842137347
 20
1756.889448508607
 11
3831.714339157847
 21
1756.442868158208
  0
LINE
  5
109
100
AcDbEntity
  8
0
  6
CONTINUOUS
 62
           3
100
AcDbLine
 10
3831.714339157847
 20
1739.736036405125
 11
3832.487842137347
 21
1739.289448603923
  0
LINE
  5
108
100
AcDbEntity
  8
0
  6
CONTINUOUS
 62
           3
100
AcDbLine
 10
3842.487841913739
 20
1739.289448603923
 11
3843.261344893239
 21
1739.736036405125
  0
LINE
  5
107
100
AcDbEntity
  8
0
  6
CONTINUOUS
 62
           3
100
AcDbLine
 10
3843.261344893239
 20
1743.842870935919
 11
3842.487841913739
 21
1744.289443835817
  0
LINE
  5
106
100
AcDbEntity
  8
0
  6
CONTINUOUS
 62
           3
100
AcDbLine
 10
3832.487842137347
 20
1744.289443835817
 11
3831.714339157847
 21
1743.842870935919
  0
LINE
  5
105
100
AcDbEntity
  8
0
  6
CONTINUOUS
 62
           3
100
AcDbLine
 10
3843.261344893239
 20
1738.842860803024
 11
3842.487841913739
 21
1739.289448603923
  0
LINE
  5
104
100
AcDbEntity
  8
0
  6
CONTINUOUS
 62
           3
100
AcDbLine
 10
3832.487842137347
 20
1739.289448603923
 11
3831.714339157847
 21
1738.842860803024
  0
LINE
  5
103
100
AcDbEntity
  8
0
  6
CONTINUOUS
 62
           3
100
AcDbLine
 10
3842.487841913739
 20
1734.289453372324
 11
3843.261344893239
 21
1734.736026272226
  0
LINE
  5
102
100
AcDbEntity
  8
0
  6
CONTINUOUS
 62
           3
100
AcDbLine
 10
3831.714339157847
 20
1734.736026272226
 11
3832.487842137347
 21
1734.289453372324
  0
LINE
  5
101
100
AcDbEntity
  8
0
  6
CONTINUOUS
 62
           3
100
AcDbLine
 10
3791.487841936286
 20
1694.289446815958
 11
3791.487841936286
 21
1744.289443835817
  0
LINE
  5
100
100
AcDbEntity
  8
1
  6
CONTINUOUS
 62
           3
100
AcDbLine
 10
4319.087845303875
 20
2308.289449200002
 11
4171.487842114808
 21
2308.289449200002
  0
LINE
  5
FF
100
AcDbEntity
  8
1
  6
CONTINUOUS
 62
           3
100
AcDbLine
 10
4319.087845303875
 20
2300.289449200003
 11
4171.487843426201
 21
2300.289449200003
  0
LINE
  5
FE
100
AcDbEntity
  8
1
  6
CONTINUOUS
 62
           7
100
AcDbLine
 10
3471.587845303876
 20
2132.289449200002
 11
3471.587845303876
 21
2019.289449200002
  0
LINE
  5
FD
100
AcDbEntity
  8
1
  6
CONTINUOUS
 62
           7
100
AcDbLine
 10
3651.587845303876
 20
2132.289449200003
 11
3471.587845303876
 21
2132.289449200002
  0
LINE
  5
FC
100
AcDbEntity
  8
1
  6
CONTINUOUS
 62
           7
100
AcDbLine
 10
3651.587845303876
 20
2019.289449200002
 11
3651.587845303876
 21
2132.289449200003
  0
LINE
  5
FB
100
AcDbEntity
  8
1
  6
CONTINUOUS
 62
           7
100
AcDbLine
 10
3471.587845303876
 20
2019.289449200002
 11
3651.587845303876
 21
2019.289449200002
  0
LINE
  5
FA
100
AcDbEntity
  8
1
  6
CONTINUOUS
 62
           4
100
AcDbLine
 10
3901.587845303875
 20
2120.778213355299
 11
3901.587845303875
 21
2359.289449200003
  0
LINE
  5
F9
100
AcDbEntity
  8
1
  6
CONTINUOUS
 62
           7
100
AcDbLine
 10
3921.587845303875
 20
2163.44667603084
 11
3921.587845303875
 21
2379.289449200003
  0
LINE
  5
F8
100
AcDbEntity
  8
1
  6
CONTINUOUS
 62
           4
100
AcDbLine
 10
3941.587845303875
 20
2180.120581534582
 11
3941.587845303875
 21
899.289449200001
  0
LINE
  5
F7
100
AcDbEntity
  8
1
  6
CONTINUOUS
 62
           7
100
AcDbLine
 10
-250.000000000001
 20
2379.289449200001
 11
-250.000000000001
 21
2143.034019186045
  0
LINE
  5
F6
100
AcDbEntity
  8
1
  6
CONTINUOUS
 62
           7
100
AcDbLine
 10
249.999999999999
 20
2143.034019186045
 11
249.999999999999
 21
1179.289449200001
  0
LINE
  5
F5
100
AcDbEntity
  8
1
  6
CONTINUOUS
 62
           7
100
AcDbLine
 10
1250.0
 20
2143.034019186045
 11
-1250.000000000001
 21
2143.034019186045
  0
LINE
  5
F4
100
AcDbEntity
  8
1
  6
DOT_CENTER
 62
           3
100
AcDbLine
 10
8.472255321878
 20
1719.490297527053
 11
8.472255321878
 21
1629.491726527052
  0
LINE
  5
F3
100
AcDbEntity
  8
1
  6
DOT_CENTER
 62
           3
100
AcDbLine
 10
53.472255321878
 20
1674.490297527053
 11
-36.525199678127
 21
1674.490297527053
  0
LINE
  5
F2
100
AcDbEntity
  8
1
  6
CONTINUOUS
 62
           3
100
AcDbLine
 10
4.936660321883
 20
1702.620160527063
 11
2.548714321874
 21
1675.363036527062
  0
LINE
  5
F1
100
AcDbEntity
  8
1
  6
CONTINUOUS
 62
           3
100
AcDbLine
 10
2.548714321874
 20
1673.617558527062
 11
4.936660321883
 21
1646.360434527061
  0
LINE
  5
F0
100
AcDbEntity
  8
1
  6
CONTINUOUS
 62
           3
100
AcDbLine
 10
12.007850321893
 20
1702.620160527063
 11
14.395796321874
 21
1675.363036527062
  0
LINE
  5
EF
100
AcDbEntity
  8
1
  6
CONTINUOUS
 62
           3
100
AcDbLine
 10
14.395796321874
 20
1673.617558527062
 11
12.007850321893
 21
1646.360434527061
  0
LINE
  5
EE
100
AcDbEntity
  8
1
  6
CONTINUOUS
 62
           7
100
AcDbLine
 10
75.0
 20
2025.572441587805
 11
-1075.000000000001
 21
2025.572441587805
  0
LINE
  5
ED
100
AcDbEntity
  8
1
  6
CONTINUOUS
 62
           7
100
AcDbLine
 10
-1075.000000000001
 20
1320.802975998367
 11
-1075.000000000001
 21
2025.572441587805
  0
LINE
  5
EC
100
AcDbEntity
  8
1
  6
CONTINUOUS
 62
           7
100
AcDbLine
 10
75.0
 20
1320.802975998367
 11
75.0
 21
2025.572441587805
  0
LINE
  5
EB
100
AcDbEntity
  8
1
  6
CONTINUOUS
 62
           7
100
AcDbLine
 10
-1075.000000000001
 20
1320.802975998367
 11
75.0
 21
1320.802975998367
  0
LINE
  5
EA
100
AcDbEntity
  8
___S__
  6
DOT_CENTER
 62
           3
100
AcDbLine
 10
-1074.999999999976
 20
2000.3422864865
 11
-1074.999999999977
 21
1915.346576255392
  0
LINE
  5
E9
100
AcDbEntity
  8
____
  6
CONTINUOUS
 62
           3
100
AcDbLine
 10
-1069.595947044857
 20
1993.738524706234
 11
-1069.595947044857
 21
1991.860593958109
  0
LINE
  5
E8
100
AcDbEntity
  8
____
  6
CONTINUOUS
 62
           3
100
AcDbLine
 10
-1079.91277541372
 20
1994.208007393266
 11
-1070.087224586232
 21
1994.208007393266
  0
LINE
  5
E7
100
AcDbEntity
  8
____
  6
CONTINUOUS
 62
           3
100
AcDbLine
 10
-1080.404052955095
 20
1991.86059395811
 11
-1080.404052955095
 21
1993.738524706234
  0
LINE
  5
E6
100
AcDbEntity
  8
____
  6
CONTINUOUS
 62
           3
100
AcDbLine
 10
-1069.497691536592
 20
1956.179909743778
 11
-1080.502308463369
 21
1956.179909743778
  0
LINE
  5
E5
100
AcDbEntity
  8
____
  6
CONTINUOUS
 62
           3
100
AcDbLine
 10
-1069.497691536591
 20
1991.860593958109
 11
-1069.497691536592
 21
1956.179909743778
  0
LINE
  5
E4
100
AcDbEntity
  8
____
  6
CONTINUOUS
 62
           3
100
AcDbLine
 10
-1080.502308463368
 20
1991.86059395811
 11
-1069.497691536591
 21
1991.860593958109
  0
LINE
  5
E3
100
AcDbEntity
  8
____
  6
CONTINUOUS
 62
           3
100
AcDbLine
 10
-1080.502308463369
 20
1956.179909743778
 11
-1080.502308463368
 21
1991.86059395811
  0
LINE
  5
E2
100
AcDbEntity
  8
____
  6
CONTINUOUS
 62
           3
100
AcDbLine
 10
-1080.404052955096
 20
1917.682329407262
 11
-1080.404052955096
 21
1919.560260155385
  0
LINE
  5
E1
100
AcDbEntity
  8
____
  6
CONTINUOUS
 62
           3
100
AcDbLine
 10
-1070.087224586232
 20
1917.212846720233
 11
-1079.912775413721
 21
1917.212846720233
  0
LINE
  5
E0
100
AcDbEntity
  8
____
  6
CONTINUOUS
 62
           3
100
AcDbLine
 10
-1069.595947044858
 20
1919.560260155385
 11
-1069.595947044858
 21
1917.682329407262
  0
LINE
  5
DF
100
AcDbEntity
  8
____
  6
CONTINUOUS
 62
           3
100
AcDbLine
 10
-1080.158414184408
 20
1956.179909743778
 11
-1080.158414184408
 21
1955.240944369718
  0
LINE
  5
DE
100
AcDbEntity
  8
____
  6
CONTINUOUS
 62
           3
100
AcDbLine
 10
-1069.841585815545
 20
1956.179909743778
 11
-1080.158414184408
 21
1956.179909743778
  0
LINE
  5
DD
100
AcDbEntity
  8
____
  6
CONTINUOUS
 62
           3
100
AcDbLine
 10
-1069.841585815545
 20
1955.240944369718
 11
-1069.841585815545
 21
1956.179909743778
  0
LINE
  5
DC
100
AcDbEntity
  8
____
  6
CONTINUOUS
 62
           3
100
AcDbLine
 10
-1080.404052955095
 20
1993.738524706234
 11
-1069.595947044857
 21
1993.738524706234
  0
LINE
  5
DB
100
AcDbEntity
  8
____
  6
CONTINUOUS
 62
           3
100
AcDbLine
 10
-1080.502308463369
 20
1955.240944369718
 11
-1069.497691536592
 21
1955.240944369718
  0
LINE
  5
DA
100
AcDbEntity
  8
____
  6
CONTINUOUS
 62
           3
100
AcDbLine
 10
-1080.502308463369
 20
1919.560260155385
 11
-1080.502308463369
 21
1955.240944369718
  0
LINE
  5
D9
100
AcDbEntity
  8
____
  6
CONTINUOUS
 62
           3
100
AcDbLine
 10
-1069.497691536592
 20
1919.560260155385
 11
-1080.502308463369
 21
1919.560260155385
  0
LINE
  5
D8
100
AcDbEntity
  8
____
  6
CONTINUOUS
 62
           3
100
AcDbLine
 10
-1069.497691536592
 20
1955.240944369718
 11
-1069.497691536592
 21
1919.560260155385
  0
LINE
  5
D7
100
AcDbEntity
  8
____
  6
CONTINUOUS
 62
           3
100
AcDbLine
 10
-1080.404052955095
 20
1993.738524706234
 11
-1079.91277541372
 21
1994.208007393266
  0
LINE
  5
D6
100
AcDbEntity
  8
____
  6
CONTINUOUS
 62
           3
100
AcDbLine
 10
-1070.087224586232
 20
1994.208007393266
 11
-1069.595947044857
 21
1993.738524706234
  0
LINE
  5
D5
100
AcDbEntity
  8
____
  6
CONTINUOUS
 62
           3
100
AcDbLine
 10
-1079.912775413721
 20
1917.212846720233
 11
-1080.404052955096
 21
1917.682329407262
  0
LINE
  5
D4
100
AcDbEntity
  8
____
  6
CONTINUOUS
 62
           3
100
AcDbLine
 10
-1069.595947044858
 20
1917.682329407262
 11
-1070.087224586232
 21
1917.212846720233
  0
LINE
  5
D3
100
AcDbEntity
  8
____
  6
CONTINUOUS
 62
           3
100
AcDbLine
 10
-1080.404052955096
 20
1917.682329407262
 11
-1069.595947044858
 21
1917.682329407262
  0
LINE
  5
D2
100
AcDbEntity
  8
____
  6
CONTINUOUS
 62
           3
100
AcDbLine
 10
-1080.40405295512
 20
1363.692758717209
 11
-1069.595947044883
 21
1363.692758717209
  0
LINE
  5
D1
100
AcDbEntity
  8
____
  6
CONTINUOUS
 62
           3
100
AcDbLine
 10
-1069.595947044883
 20
1363.692758717209
 11
-1070.087224586257
 21
1363.223276030176
  0
LINE
  5
D0
100
AcDbEntity
  8
____
  6
CONTINUOUS
 62
           3
100
AcDbLine
 10
-1079.912775413746
 20
1363.223276030176
 11
-1080.40405295512
 21
1363.692758717209
  0
LINE
  5
CF
100
AcDbEntity
  8
____
  6
CONTINUOUS
 62
           3
100
AcDbLine
 10
-1070.087224586255
 20
1440.218436703211
 11
-1069.59594704488
 21
1439.748954016181
  0
LINE
  5
CE
100
AcDbEntity
  8
____
  6
CONTINUOUS
 62
           3
100
AcDbLine
 10
-1080.404052955119
 20
1439.748954016181
 11
-1079.912775413744
 21
1440.218436703211
  0
LINE
  5
CD
100
AcDbEntity
  8
____
  6
CONTINUOUS
 62
           3
100
AcDbLine
 10
-1069.497691536608
 20
1401.251373679664
 11
-1069.497691536609
 21
1365.57068946533
  0
LINE
  5
CC
100
AcDbEntity
  8
____
  6
CONTINUOUS
 62
           3
100
AcDbLine
 10
-1069.497691536609
 20
1365.57068946533
 11
-1080.502308463385
 21
1365.57068946533
  0
LINE
  5
CB
100
AcDbEntity
  8
____
  6
CONTINUOUS
 62
           3
100
AcDbLine
 10
-1080.502308463385
 20
1365.57068946533
 11
-1080.502308463385
 21
1401.251373679664
  0
LINE
  5
CA
100
AcDbEntity
  8
____
  6
CONTINUOUS
 62
           3
100
AcDbLine
 10
-1080.502308463385
 20
1401.251373679664
 11
-1069.497691536608
 21
1401.251373679664
  0
LINE
  5
C9
100
AcDbEntity
  8
____
  6
CONTINUOUS
 62
           3
100
AcDbLine
 10
-1080.404052955119
 20
1439.748954016181
 11
-1069.59594704488
 21
1439.748954016181
  0
LINE
  5
C8
100
AcDbEntity
  8
____
  6
CONTINUOUS
 62
           3
100
AcDbLine
 10
-1069.841585815569
 20
1401.251373679664
 11
-1069.841585815569
 21
1402.190339053725
  0
LINE
  5
C7
100
AcDbEntity
  8
____
  6
CONTINUOUS
 62
           3
100
AcDbLine
 10
-1069.841585815569
 20
1402.190339053725
 11
-1080.158414184432
 21
1402.190339053725
  0
LINE
  5
C6
100
AcDbEntity
  8
____
  6
CONTINUOUS
 62
           3
100
AcDbLine
 10
-1080.158414184432
 20
1402.190339053725
 11
-1080.158414184432
 21
1401.251373679664
  0
LINE
  5
C5
100
AcDbEntity
  8
____
  6
CONTINUOUS
 62
           3
100
AcDbLine
 10
-1069.595947044883
 20
1365.57068946533
 11
-1069.595947044883
 21
1363.692758717209
  0
LINE
  5
C4
100
AcDbEntity
  8
____
  6
CONTINUOUS
 62
           3
100
AcDbLine
 10
-1070.087224586257
 20
1363.223276030176
 11
-1079.912775413746
 21
1363.223276030176
  0
LINE
  5
C3
100
AcDbEntity
  8
____
  6
CONTINUOUS
 62
           3
100
AcDbLine
 10
-1080.40405295512
 20
1363.692758717209
 11
-1080.40405295512
 21
1365.57068946533
  0
LINE
  5
C2
100
AcDbEntity
  8
____
  6
CONTINUOUS
 62
           3
100
AcDbLine
 10
-1080.502308463385
 20
1402.190339053725
 11
-1080.502308463385
 21
1437.871023268057
  0
LINE
  5
C1
100
AcDbEntity
  8
____
  6
CONTINUOUS
 62
           3
100
AcDbLine
 10
-1080.502308463385
 20
1437.871023268057
 11
-1069.497691536607
 21
1437.871023268057
  0
LINE
  5
C0
100
AcDbEntity
  8
____
  6
CONTINUOUS
 62
           3
100
AcDbLine
 10
-1069.497691536607
 20
1437.871023268057
 11
-1069.497691536608
 21
1402.190339053725
  0
LINE
  5
BF
100
AcDbEntity
  8
____
  6
CONTINUOUS
 62
           3
100
AcDbLine
 10
-1069.497691536608
 20
1402.190339053725
 11
-1080.502308463385
 21
1402.190339053725
  0
LINE
  5
BE
100
AcDbEntity
  8
____
  6
CONTINUOUS
 62
           3
100
AcDbLine
 10
-1080.404052955119
 20
1437.871023268057
 11
-1080.404052955119
 21
1439.748954016181
  0
LINE
  5
BD
100
AcDbEntity
  8
____
  6
CONTINUOUS
 62
           3
100
AcDbLine
 10
-1079.912775413744
 20
1440.218436703211
 11
-1070.087224586255
 21
1440.218436703211
  0
LINE
  5
BC
100
AcDbEntity
  8
____
  6
CONTINUOUS
 62
           3
100
AcDbLine
 10
-1069.59594704488
 20
1439.748954016181
 11
-1069.59594704488
 21
1437.871023268057
  0
LINE
  5
BB
100
AcDbEntity
  8
___S__
  6
DOT_CENTER
 62
           3
100
AcDbLine
 10
-1075.000000000001
 20
1446.352715796463
 11
-1075.000000000001
 21
1361.357005565336
  0
LINE
  5
BA
100
AcDbEntity
  8
1
  6
CONTINUOUS
 62
           7
100
AcDbLine
 10
-1069.497691536609
 20
1365.80297599837
 11
75.0
 21
1365.80297599837
  0
LINE
  5
B9
100
AcDbEntity
  8
1
  6
CONTINUOUS
 62
           7
100
AcDbLine
 10
1250.0
 20
2143.034019186043
 11
-1250.000000000001
 21
2143.034019186043
  0
LINE
  5
B8
100
AcDbEntity
  8
1
  6
CONTINUOUS
 62
           7
100
AcDbLine
 10
3921.587845303875
 20
879.289449200002
 11
3921.587845303875
 21
2146.582722728173
  0
LINE
  5
B7
100
AcDbEntity
  8
1
  6
CONTINUOUS
 62
           4
100
AcDbLine
 10
3901.587845303875
 20
899.289449200001
 11
3901.587845303875
 21
2094.81455244427
  0
LINE
  5
B6
100
AcDbEntity
  8
1
  6
CONTINUOUS
 62
           4
100
AcDbLine
 10
3941.587845303875
 20
2359.289449200003
 11
3941.587845303875
 21
2193.754118416337
  0
LINE
  5
B5
100
AcDbEntity
  8
1
  6
CONTINUOUS
 62
           7
100
AcDbLine
 10
3921.587845303875
 20
2429.289449200002
 11
4921.587845303874
 21
2429.289449200002
  0
LINE
  5
B4
100
AcDbEntity
  8
1
  6
CONTINUOUS
 62
           4
100
AcDbLine
 10
4901.587845303873
 20
2359.289449200002
 11
3941.587845303875
 21
2359.289449200002
  0
LINE
  5
B3
100
AcDbEntity
  8
1
  6
CONTINUOUS
 62
           4
100
AcDbLine
 10
4901.587845303873
 20
899.289449200001
 11
4901.587845303873
 21
2359.289449200002
  0
LINE
  5
B2
100
AcDbEntity
  8
1
  6
CONTINUOUS
 62
           4
100
AcDbLine
 10
3941.587845303875
 20
899.289449200001
 11
4901.587845303873
 21
899.289449200001
  0
LINE
  5
B1
100
AcDbEntity
  8
1
  6
CONTINUOUS
 62
           4
100
AcDbLine
 10
4901.021170608434
 20
399.2894492
 11
4901.021170608434
 21
858.674510729885
  0
LINE
  5
B0
100
AcDbEntity
  8
1
  6
CONTINUOUS
 62
           7
100
AcDbLine
 10
4921.587845303874
 20
379.2894492
 11
4921.587845303874
 21
2454.289449200001
  0
LINE
  5
AF
100
AcDbEntity
  8
1
  6
CONTINUOUS
 62
           7
100
AcDbLine
 10
3921.587845303874
 20
2379.289449200002
 11
3921.587845303874
 21
2454.289449200001
  0
LINE
  5
AE
100
AcDbEntity
  8
1
  6
CONTINUOUS
 62
           7
100
AcDbLine
 10
3921.587845303874
 20
2454.289449200001
 11
4921.587845303874
 21
2454.289449200001
  0
LINE
  5
AD
100
AcDbEntity
  8
1
  6
DOT_CENTER
 62
           2
100
AcDbLine
 10
4146.587845303873
 20
979.289449200001
 11
4296.587845303873
 21
979.289449200001
  0
LINE
  5
AC
100
AcDbEntity
  8
1
  6
DOT_CENTER
 62
           2
100
AcDbLine
 10
4221.587845303873
 20
1054.289449200001
 11
4221.587845303873
 21
904.289449200001
  0
LINE
  5
AB
100
AcDbEntity
  8
1
  6
DOT_CENTER
 62
           2
100
AcDbLine
 10
477.325994331975
 20
5799.30516575957
 11
-577.680202350803
 21
5799.30516575957
  0
LINE
  5
AA
100
AcDbEntity
  8
1
  6
CONTINUOUS
 62
           7
100
AcDbLine
 10
-570.000000000002
 20
6189.305165759572
 11
-650.999999999998
 21
6189.305165759571
  0
LINE
  5
A9
100
AcDbEntity
  8
1
  6
CONTINUOUS
 62
           4
100
AcDbLine
 10
-580.000000000002
 20
6169.305165759571
 11
-595.737502055549
 21
6169.305165759571
  0
LINE
  5
A8
100
AcDbEntity
  8
1
  6
CONTINUOUS
 62
           4
100
AcDbLine
 10
-595.737502055549
 20
6169.305165759571
 11
-659.999999999998
 21
6169.305165759571
  0
LINE
  5
A7
100
AcDbEntity
  8
1
  6
CONTINUOUS
 62
           7
100
AcDbLine
 10
2921.587845303875
 20
3029.289449200001
 11
2941.587845303875
 21
3029.289449200001
  0
LINE
  5
A6
100
AcDbEntity
  8
1
  6
CONTINUOUS
 62
           7
100
AcDbLine
 10
2921.587845303874
 20
2929.289449200002
 11
2921.587845303875
 21
3029.289449200001
  0
LINE
  5
A5
100
AcDbEntity
  8
1
  6
CONTINUOUS
 62
           7
100
AcDbLine
 10
-1299.999999999999
 20
3029.289449200001
 11
1300.000000000001
 21
3029.289449200001
  0
LINE
  5
A4
100
AcDbEntity
  8
1
  6
CONTINUOUS
 62
           7
100
AcDbLine
 10
1300.000000000001
 20
2765.42593402776
 11
1300.000000000001
 21
3029.289449200001
  0
LINE
  5
A3
100
AcDbEntity
  8
1
  6
CONTINUOUS
 62
           7
100
AcDbLine
 10
-1299.999999999999
 20
2879.289449200001
 11
-1299.999999999999
 21
3029.289449200001
  0
LINE
  5
A2
100
AcDbEntity
  8
1
  6
CONTINUOUS
 62
           7
100
AcDbLine
 10
1800.000000000001
 20
379.2894492
 11
-1799.999999999999
 21
379.2894492
  0
LINE
  5
A1
100
AcDbEntity
  8
1
  6
CONTINUOUS
 62
           7
100
AcDbLine
 10
1250.000000000001
 20
2279.289449200001
 11
-1249.999999999999
 21
2279.289449200001
  0
LINE
  5
A0
100
AcDbEntity
  8
1
  6
CONTINUOUS
 62
           7
100
AcDbLine
 10
-249.999999999999
 20
854.289449200001
 11
-249.999999999999
 21
779.2894492
  0
LINE
  5
9F
100
AcDbEntity
  8
1
  6
CONTINUOUS
 62
           7
100
AcDbLine
 10
1235.000000000001
 20
919.2894492
 11
15.0
 21
919.2894492
  0
LINE
  5
9E
100
AcDbEntity
  8
1
  6
CONTINUOUS
 62
           7
100
AcDbLine
 10
-1249.999999999999
 20
879.2894492
 11
-1234.999999999999
 21
879.2894492
  0
LINE
  5
9D
100
AcDbEntity
  8
1
  6
CONTINUOUS
 62
           7
100
AcDbLine
 10
1235.000000000001
 20
879.2894492
 11
1250.000000000001
 21
879.2894492
  0
LINE
  5
9C
100
AcDbEntity
  8
1
  6
CONTINUOUS
 62
           7
100
AcDbLine
 10
-1249.999999999999
 20
1179.289449200001
 11
1250.000000000001
 21
1179.289449200001
  0
LINE
  5
9B
100
AcDbEntity
  8
1
  6
CONTINUOUS
 62
           7
100
AcDbLine
 10
-1249.999999999999
 20
893.14277186763
 11
-1249.999999999999
 21
951.896534851513
  0
LINE
  5
9A
100
AcDbEntity
  8
1
  6
CONTINUOUS
 62
           7
100
AcDbLine
 10
15.0
 20
919.2894492
 11
15.0
 21
854.289449200001
  0
LINE
  5
99
100
AcDbEntity
  8
1
  6
CONTINUOUS
 62
           7
100
AcDbLine
 10
1235.000000000001
 20
919.2894492
 11
1235.000000000001
 21
854.289449200001
  0
LINE
  5
98
100
AcDbEntity
  8
1
  6
CONTINUOUS
 62
           7
100
AcDbLine
 10
-1249.999999999999
 20
779.2894492
 11
1250.000000000001
 21
779.2894492
  0
LINE
  5
97
100
AcDbEntity
  8
1
  6
CONTINUOUS
 62
           7
100
AcDbLine
 10
1250.000000000001
 20
429.2894492
 11
-1249.999999999999
 21
429.2894492
  0
LINE
  5
96
100
AcDbEntity
  8
1
  6
CONTINUOUS
 62
           7
100
AcDbLine
 10
1250.000000000001
 20
379.2894492
 11
1250.000000000001
 21
2879.289449200001
  0
LINE
  5
95
100
AcDbEntity
  8
1
  6
CONTINUOUS
 62
           7
100
AcDbLine
 10
-1249.999999999999
 20
379.2894492
 11
-1249.999999999999
 21
2879.289449200001
  0
LINE
  5
94
100
AcDbEntity
  8
1
  6
CONTINUOUS
 62
           7
100
AcDbLine
 10
1300.000000000001
 20
2879.289449200001
 11
-1299.999999999999
 21
2879.289449200001
  0
LINE
  5
93
100
AcDbEntity
  8
1
  6
CONTINUOUS
 62
           7
100
AcDbLine
 10
-1299.999999999999
 20
2894.289449200001
 11
-1299.999999999999
 21
379.2894492
  0
LINE
  5
92
100
AcDbEntity
  8
1
  6
CONTINUOUS
 62
           7
100
AcDbLine
 10
1300.000000000001
 20
379.2894492
 11
1300.000000000001
 21
2894.289449200001
  0
LINE
  5
91
100
AcDbEntity
  8
1
  6
CONTINUOUS
 62
           7
100
AcDbLine
 10
-1249.999999999999
 20
854.289449200001
 11
1250.000000000001
 21
854.289449200001
  0
LINE
  5
90
100
AcDbEntity
  8
1
  6
CONTINUOUS
 62
           7
100
AcDbLine
 10
-1234.999999999999
 20
854.289449200001
 11
-1234.999999999999
 21
919.2894492
  0
LINE
  5
8F
100
AcDbEntity
  8
1
  6
CONTINUOUS
 62
           7
100
AcDbLine
 10
-15.0
 20
854.289449200001
 11
-15.0
 21
919.2894492
  0
LINE
  5
8E
100
AcDbEntity
  8
1
  6
CONTINUOUS
 62
           7
100
AcDbLine
 10
-15.0
 20
919.2894492
 11
-1234.999999999999
 21
919.2894492
  0
LINE
  5
8D
100
AcDbEntity
  8
1
  6
CONTINUOUS
 62
           7
100
AcDbLine
 10
-15.0
 20
879.2894492
 11
15.0
 21
879.2894492
  0
LINE
  5
8C
100
AcDbEntity
  8
1
  6
CONTINUOUS
 62
           7
100
AcDbLine
 10
0.0
 20
879.2894492
 11
0.0
 21
1179.289449200001
  0
LINE
  5
8B
100
AcDbEntity
  8
1
  6
CONTINUOUS
 62
           7
100
AcDbLine
 10
-650.999999999998
 20
6189.305165759571
 11
-1299.999999999996
 21
6189.305165759571
  0
LINE
  5
8A
100
AcDbEntity
  8
1
  6
CONTINUOUS
 62
           7
100
AcDbLine
 10
0.000000000002
 20
5169.305165759571
 11
0.000000000002
 21
5189.305165759571
  0
LINE
  5
89
100
AcDbEntity
  8
1
  6
DOT_CENTER
 62
           2
100
AcDbLine
 10
0.000000000002
 20
4086.948798670051
 11
0.000000000002
 21
6353.118619103964
  0
LINE
  5
88
100
AcDbEntity
  8
1
  6
CONTINUOUS
 62
           7
100
AcDbLine
 10
-230.525588832577
 20
5189.305165759571
 11
127.928556845359
 21
5189.305165759571
  0
LINE
  5
87
100
AcDbEntity
  8
1
  6
CONTINUOUS
 62
           7
100
AcDbLine
 10
3651.587845303875
 20
1969.289449200001
 11
3651.587845303875
 21
1729.289449200001
  0
LINE
  5
86
100
AcDbEntity
  8
1
  6
CONTINUOUS
 62
           7
100
AcDbLine
 10
3471.587845303875
 20
1729.289449200001
 11
3471.587845303875
 21
1969.289449200001
  0
LINE
  5
85
100
AcDbEntity
  8
1
  6
CONTINUOUS
 62
           7
100
AcDbLine
 10
3471.587845303875
 20
1969.289449200001
 11
3651.587845303875
 21
1969.289449200001
  0
LINE
  5
84
100
AcDbEntity
  8
1
  6
CONTINUOUS
 62
           7
100
AcDbLine
 10
3651.587845303875
 20
1729.289449200001
 11
3471.587845303875
 21
1729.289449200001
  0
LINE
  5
83
100
AcDbEntity
  8
1
  6
CONTINUOUS
 62
           7
100
AcDbLine
 10
3161.587845303874
 20
2329.289449200002
 11
2971.587845303874
 21
2329.289449200002
  0
LINE
  5
82
100
AcDbEntity
  8
1
  6
CONTINUOUS
 62
           7
100
AcDbLine
 10
2971.587845303874
 20
2329.289449200002
 11
2971.587845303874
 21
2241.289449200002
  0
LINE
  5
81
100
AcDbEntity
  8
1
  6
CONTINUOUS
 62
           7
100
AcDbLine
 10
2971.587845303874
 20
2241.289449200002
 11
3161.587845303874
 21
2241.289449200002
  0
LINE
  5
80
100
AcDbEntity
  8
1
  6
CONTINUOUS
 62
           7
100
AcDbLine
 10
3161.587845303874
 20
2241.289449200002
 11
3161.587845303874
 21
2329.289449200002
  0
LINE
  5
7F
100
AcDbEntity
  8
1
  6
CONTINUOUS
 62
           4
100
AcDbLine
 10
-1289.999999999996
 20
4689.305165759572
 11
-1289.999999999996
 21
4209.305165759572
  0
LINE
  5
7E
100
AcDbEntity
  8
1
  6
CONTINUOUS
 62
           4
100
AcDbLine
 10
1290.000000000003
 20
4689.305165759572
 11
1290.000000000003
 21
4209.305165759572
  0
LINE
  5
7D
100
AcDbEntity
  8
1
  6
CONTINUOUS
 62
           4
100
AcDbLine
 10
2921.587845303874
 20
2919.289449200002
 11
3421.587845303874
 21
2919.289449200002
  0
LINE
  5
7C
100
AcDbEntity
  8
1
  6
CONTINUOUS
 62
           4
100
AcDbLine
 10
1230.000000000003
 20
4669.305165759571
 11
-1230.0
 21
4669.305165759571
  0
LINE
  5
7B
100
AcDbEntity
  8
1
  6
CONTINUOUS
 62
           4
100
AcDbLine
 10
-1230.0
 20
4669.305165759571
 11
-1229.999999999997
 21
4209.305165759572
  0
LINE
  5
7A
100
AcDbEntity
  8
1
  6
CONTINUOUS
 62
           7
100
AcDbLine
 10
5250.000000000004
 20
379.2894492
 11
2250.000000000004
 21
379.2894492
  0
LINE
  5
79
100
AcDbEntity
  8
1
  6
CONTINUOUS
 62
           4
100
AcDbLine
 10
-1252.999999999996
 20
4689.305165759572
 11
-1252.999999999996
 21
4209.305165759572
  0
LINE
  5
78
100
AcDbEntity
  8
1
  6
CONTINUOUS
 62
           4
100
AcDbLine
 10
980.000000000003
 20
5209.305165759571
 11
520.000000000002
 21
5209.305165759571
  0
LINE
  5
77
100
AcDbEntity
  8
1
  6
CONTINUOUS
 62
           4
100
AcDbLine
 10
980.000000000003
 20
6169.305165759571
 11
520.000000000002
 21
6169.305165759571
  0
LINE
  5
76
100
AcDbEntity
  8
1
  6
CONTINUOUS
 62
           4
100
AcDbLine
 10
1253.000000000003
 20
4689.305165759572
 11
1253.000000000003
 21
4209.305165759572
  0
LINE
  5
75
100
AcDbEntity
  8
1
  6
CONTINUOUS
 62
           4
100
AcDbLine
 10
1230.000000000003
 20
4669.305165759571
 11
1230.000000000003
 21
4209.305165759572
  0
LINE
  5
74
100
AcDbEntity
  8
1
  6
CONTINUOUS
 62
           4
100
AcDbLine
 10
980.000000000003
 20
6169.305165759571
 11
980.000000000003
 21
5209.305165759571
  0
LINE
  5
73
100
AcDbEntity
  8
1
  6
CONTINUOUS
 62
           7
100
AcDbLine
 10
1300.000000000003
 20
4189.305165759572
 11
1300.000000000003
 21
6189.305165759571
  0
LINE
  5
72
100
AcDbEntity
  8
1
  6
CONTINUOUS
 62
           7
100
AcDbLine
 10
2921.587845303874
 20
2929.289449200002
 11
3421.587845303874
 21
2929.289449200002
  0
LINE
  5
71
100
AcDbEntity
  8
1
  6
CONTINUOUS
 62
           4
100
AcDbLine
 10
2921.587845303875
 20
2882.289449200002
 11
3421.587845303875
 21
2882.289449200002
  0
LINE
  5
70
100
AcDbEntity
  8
1
  6
CONTINUOUS
 62
           7
100
AcDbLine
 10
4921.587845303874
 20
2379.289449200002
 11
3421.587845303875
 21
2379.289449200002
  0
LINE
  5
6F
100
AcDbEntity
  8
1
  6
CONTINUOUS
 62
           7
100
AcDbLine
 10
2921.587845303874
 20
379.2894492
 11
2921.587845303874
 21
2929.289449200002
  0
LINE
  5
6E
100
AcDbEntity
  8
1
  6
CONTINUOUS
 62
           7
100
AcDbLine
 10
1300.000000000003
 20
6189.305165759571
 11
1.000000000002
 21
6189.305165759571
  0
LINE
  5
6D
100
AcDbEntity
  8
1
  6
CONTINUOUS
 62
           4
100
AcDbLine
 10
-979.999999999996
 20
5209.30516575957
 11
-979.999999999996
 21
6169.305165759571
  0
LINE
  5
6C
100
AcDbEntity
  8
1
  6
CONTINUOUS
 62
           4
100
AcDbLine
 10
-979.999999999996
 20
5209.30516575957
 11
-519.999999999998
 21
5209.305165759571
  0
LINE
  5
6B
100
AcDbEntity
  8
1
  6
CONTINUOUS
 62
           7
100
AcDbLine
 10
-1299.999999999996
 20
5189.305165759571
 11
-230.525588832577
 21
5189.305165759571
  0
LINE
  5
6A
100
AcDbEntity
  8
1
  6
CONTINUOUS
 62
           7
100
AcDbLine
 10
-1299.999999999996
 20
6189.305165759571
 11
-1299.999999999996
 21
4189.305165759572
  0
LINE
  5
69
100
AcDbEntity
  8
1
  6
CONTINUOUS
 62
           7
100
AcDbLine
 10
-1299.999999999996
 20
4189.305165759572
 11
1300.000000000003
 21
4189.305165759572
  0
LINE
  5
68
100
AcDbEntity
  8
1
  6
CONTINUOUS
 62
           4
100
AcDbLine
 10
2941.587845303875
 20
399.2894492
 11
3401.587845303875
 21
399.2894492
  0
LINE
  5
67
100
AcDbEntity
  8
1
  6
CONTINUOUS
 62
           4
100
AcDbLine
 10
3401.587845303875
 20
399.2894492
 11
3401.587845303875
 21
2859.289449200001
  0
LINE
  5
66
100
AcDbEntity
  8
1
  6
CONTINUOUS
 62
           4
100
AcDbLine
 10
3401.587845303875
 20
2859.289449200001
 11
2941.587845303875
 21
2859.289449200002
  0
LINE
  5
65
100
AcDbEntity
  8
1
  6
CONTINUOUS
 62
           4
100
AcDbLine
 10
2941.587845303875
 20
2859.289449200002
 11
2941.587845303875
 21
399.2894492
  0
LINE
  5
64
100
AcDbEntity
  8
1
  6
CONTINUOUS
 62
           7
100
AcDbLine
 10
3421.587845303874
 20
379.2894492
 11
3421.587845303874
 21
2929.289449200002
  0
LINE
  5
63
100
AcDbEntity
  8
1
  6
CONTINUOUS
 62
           7
100
AcDbLine
 10
3421.587845303874
 20
879.289449200001
 11
4921.587845303874
 21
879.289449200001
  0
LINE
  5
62
100
AcDbEntity
  8
1
  6
CONTINUOUS
 62
           4
100
AcDbLine
 10
4901.021170608434
 20
858.674510729885
 11
3441.587845303875
 21
858.674510729885
  0
LINE
  5
61
100
AcDbEntity
  8
1
  6
CONTINUOUS
 62
           4
100
AcDbLine
 10
3441.587845303875
 20
858.674510729885
 11
3441.587845303875
 21
399.2894492
  0
LINE
  5
60
100
AcDbEntity
  8
1
  6
CONTINUOUS
 62
           4
100
AcDbLine
 10
3441.587845303875
 20
399.2894492
 11
4901.021170608434
 21
399.2894492
  0
LINE
  5
5F
100
AcDbEntity
  8
1
  6
CONTINUOUS
 62
           4
100
AcDbLine
 10
3901.587845303875
 20
2359.289449200002
 11
3441.587845303875
 21
2359.289449200002
  0
LINE
  5
5E
100
AcDbEntity
  8
1
  6
CONTINUOUS
 62
           4
100
AcDbLine
 10
3441.587845303875
 20
2359.289449200002
 11
3441.587845303875
 21
899.289449200001
  0
LINE
  5
5D
100
AcDbEntity
  8
1
  6
CONTINUOUS
 62
           4
100
AcDbLine
 10
3441.587845303875
 20
899.289449200001
 11
3901.587845303875
 21
899.289449200001
  0
LINE
  5
5C
100
AcDbEntity
  8
1
  6
CONTINUOUS
 62
           4
100
AcDbLine
 10
520.000000000002
 20
6169.305165759571
 11
520.000000000002
 21
5209.305165759571
  0
LINE
  5
5B
100
AcDbEntity
  8
1
  6
CONTINUOUS
 62
           7
100
AcDbLine
 10
500.000000000002
 20
5189.305165759571
 11
500.000000000002
 21
6189.305165759571
  0
LINE
  5
5A
100
AcDbEntity
  8
1
  6
CONTINUOUS
 62
           4
100
AcDbLine
 10
-519.999999999998
 20
5209.305165759571
 11
-519.999999999998
 21
5386.876828352598
  0
LINE
  5
59
100
AcDbEntity
  8
1
  6
CONTINUOUS
 62
           7
100
AcDbLine
 10
-499.999999999998
 20
5189.305165759571
 11
-499.999999999998
 21
5363.612971943039
  0
LINE
  5
58
100
AcDbEntity
  8
1
  6
CONTINUOUS
 62
           7
100
AcDbLine
 10
-1299.999999999996
 20
4689.305165759572
 11
1300.000000000003
 21
4689.305165759572
  0
LINE
  5
57
100
AcDbEntity
  8
1
  6
CONTINUOUS
 62
           7
100
AcDbLine
 10
1000.0
 20
5189.305165759571
 11
1000.0
 21
6189.305165759571
  0
LINE
  5
56
100
AcDbEntity
  8
1
  6
CONTINUOUS
 62
           7
100
AcDbLine
 10
-1000.0
 20
5189.305165759571
 11
-1000.0
 21
6189.305165759571
  0
LINE
  5
55
100
AcDbEntity
  8
1
  6
CONTINUOUS
 62
           4
100
AcDbLine
 10
1020.0
 20
6169.305165759571
 11
1280.000000000003
 21
6169.305165759571
  0
LINE
  5
54
100
AcDbEntity
  8
1
  6
CONTINUOUS
 62
           4
100
AcDbLine
 10
1280.000000000003
 20
6169.305165759571
 11
1280.000000000003
 21
5209.305165759571
  0
LINE
  5
53
100
AcDbEntity
  8
1
  6
CONTINUOUS
 62
           4
100
AcDbLine
 10
1280.000000000003
 20
5209.305165759571
 11
1020.0
 21
5209.305165759571
  0
LINE
  5
52
100
AcDbEntity
  8
1
  6
CONTINUOUS
 62
           4
100
AcDbLine
 10
1020.0
 20
5209.305165759571
 11
1020.0
 21
6169.305165759571
  0
LINE
  5
51
100
AcDbEntity
  8
1
  6
CONTINUOUS
 62
           4
100
AcDbLine
 10
-1019.999999999996
 20
5209.305165759571
 11
-1280.0
 21
5209.305165759571
  0
LINE
  5
50
100
AcDbEntity
  8
1
  6
CONTINUOUS
 62
           4
100
AcDbLine
 10
-1280.0
 20
5209.305165759571
 11
-1280.0
 21
6169.305165759571
  0
LINE
  5
4F
100
AcDbEntity
  8
1
  6
CONTINUOUS
 62
           4
100
AcDbLine
 10
-1280.0
 20
6169.305165759571
 11
-1019.999999999996
 21
6169.305165759571
  0
LINE
  5
4E
100
AcDbEntity
  8
1
  6
CONTINUOUS
 62
           4
100
AcDbLine
 10
-1019.999999999996
 20
6169.305165759571
 11
-1019.999999999996
 21
5209.305165759571
  0
LINE
  5
4D
100
AcDbEntity
  8
1
  6
CONTINUOUS
 62
           7
100
AcDbLine
 10
3306.587845303875
 20
1636.039449200003
 11
3306.587845303875
 21
1649.289449200003
  0
LINE
  5
4C
100
AcDbEntity
  8
1
  6
CONTINUOUS
 62
           7
100
AcDbLine
 10
3284.087845303875
 20
1679.289449200003
 11
3284.087845303875
 21
1649.289449200003
  0
LINE
  5
4B
100
AcDbEntity
  8
1
  6
CONTINUOUS
 62
           7
100
AcDbLine
 10
3309.087845303875
 20
1679.289449200003
 11
3309.087845303875
 21
1649.289449200003
  0
LINE
  5
4A
100
AcDbEntity
  8
1
  6
CONTINUOUS
 62
           7
100
AcDbLine
 10
3284.087845303875
 20
1649.289449200003
 11
3309.087845303875
 21
1649.289449200003
  0
LINE
  5
49
100
AcDbEntity
  8
1
  6
CONTINUOUS
 62
           7
100
AcDbLine
 10
3286.587845303875
 20
1649.289449200003
 11
3286.587845303875
 21
1636.039449200003
  0
LINE
  5
48
100
AcDbEntity
  8
1
  6
CONTINUOUS
 62
           7
100
AcDbLine
 10
3323.587845303875
 20
1619.039449200003
 11
3401.587845303875
 21
1619.039449200003
  0
LINE
  5
47
100
AcDbEntity
  8
1
  6
CONTINUOUS
 62
           7
100
AcDbLine
 10
3323.587845303875
 20
1599.039449200003
 11
3401.587845303875
 21
1599.039449200003
  0
LINE
  5
46
100
AcDbEntity
  8
1
  6
CONTINUOUS
 62
           7
100
AcDbLine
 10
1250.000000000001
 20
2379.289449200001
 11
-1249.999999999999
 21
2379.289449200001
  0
LINE
  5
45
100
AcDbEntity
  8
1
  6
CONTINUOUS
 62
           7
100
AcDbLine
 10
3421.587845303874
 20
2929.289449200002
 11
3921.587845303875
 21
2429.289449200002
  0
LINE
  5
44
100
AcDbEntity
  8
1
  6
CONTINUOUS
 62
           7
100
AcDbLine
 10
3421.587845303875
 20
2879.289449200002
 11
2921.587845303874
 21
2879.289449200002
  0
LINE
  5
43
100
AcDbEntity
  8
1
  6
CONTINUOUS
 62
           7
100
AcDbLine
 10
-249.999999999996
 20
5189.305165759571
 11
-249.999999999996
 21
4689.305165759572
  0
LINE
  5
42
100
AcDbEntity
  8
1
  6
CONTINUOUS
 62
           7
100
AcDbLine
 10
-249.999999999996
 20
2879.289449200001
 11
-249.999999999996
 21
2379.289449200001
  0
LINE
  5
41
100
AcDbEntity
  8
1
  6
CONTINUOUS
 62
           7
100
AcDbLine
 10
127.928556845359
 20
5189.305165759571
 11
1300.000000000003
 21
5189.305165759571
  0
LINE
  5
40
100
AcDbEntity
  8
1
  6
CONTINUOUS
 62
           7
100
AcDbLine
 10
-499.999999999998
 20
5363.612971943039
 11
-499.999999999998
 21
5563.681773065584
  0
LINE
  5
3F
100
AcDbEntity
  8
1
  6
CONTINUOUS
 62
           4
100
AcDbLine
 10
-519.999999999998
 20
5386.876828352598
 11
-519.999999999998
 21
5599.321632554766
  0
LINE
  5
3E
100
AcDbEntity
  8
1
  6
CONTINUOUS
 62
           4
100
AcDbLine
 10
-659.999999999998
 20
6169.305165759571
 11
-979.999999999996
 21
6169.305165759571
  0
LINE
  5
3D
100
AcDbEntity
  8
1
  6
CONTINUOUS
 62
           7
100
AcDbLine
 10
-1299.999999999996
 20
4209.305165759572
 11
1300.000000000003
 21
4209.305165759572
  0
LINE
  5
3C
100
AcDbEntity
  8
1
  6
CONTINUOUS
 62
           7
100
AcDbLine
 10
-1249.999999999996
 20
4209.305165759572
 11
-1249.999999999996
 21
5189.305165759571
  0
LINE
  5
3B
100
AcDbEntity
  8
1
  6
CONTINUOUS
 62
           7
100
AcDbLine
 10
1250.000000000003
 20
4209.305165759572
 11
1250.000000000003
 21
5189.305165759571
  0
LINE
  5
3A
100
AcDbEntity
  8
1
  6
CONTINUOUS
 62
           7
100
AcDbLine
 10
3171.587845303875
 20
1679.289449200003
 11
3371.587845303875
 21
1679.289449200003
  0
LINE
  5
39
100
AcDbEntity
  8
1
  6
CONTINUOUS
 62
           7
100
AcDbLine
 10
3371.587845303875
 20
1679.289449200003
 11
3371.587845303875
 21
2079.289449200002
  0
LINE
  5
38
100
AcDbEntity
  8
1
  6
CONTINUOUS
 62
           7
100
AcDbLine
 10
3371.587845303875
 20
2079.289449200002
 11
3171.587845303875
 21
2079.289449200002
  0
LINE
  5
37
100
AcDbEntity
  8
1
  6
CONTINUOUS
 62
           7
100
AcDbLine
 10
3171.587845303875
 20
2079.289449200002
 11
3171.587845303875
 21
1679.289449200003
  0
LINE
  5
36
100
AcDbEntity
  8
1
  6
CONTINUOUS
 62
           4
100
AcDbLine
 10
3371.587845303875
 20
2079.289449200002
 11
3401.587845303875
 21
2079.289449200002
  0
LINE
  5
35
100
AcDbEntity
  8
1
  6
CONTINUOUS
 62
           4
100
AcDbLine
 10
3371.587845303875
 20
1679.289449200003
 11
3401.587845303875
 21
1679.289449200003
  0
LINE
  5
34
100
AcDbEntity
  8
1
  6
CONTINUOUS
 62
           7
100
AcDbLine
 10
1300.000000000001
 20
1679.289449200003
 11
1460.000000000001
 21
1679.289449200003
  0
LINE
  5
33
100
AcDbEntity
  8
1
  6
CONTINUOUS
 62
           7
100
AcDbLine
 10
1460.000000000001
 20
1679.289449200003
 11
1460.000000000001
 21
2079.289449200002
  0
LINE
  5
32
100
AcDbEntity
  8
1
  6
CONTINUOUS
 62
           7
100
AcDbLine
 10
1460.000000000001
 20
2079.289449200002
 11
1300.000000000001
 21
2079.289449200002
  0
LINE
  5
31
100
AcDbEntity
  8
1
  6
CONTINUOUS
 62
           7
100
AcDbLine
 10
1300.000000000003
 20
4639.305165759572
 11
1460.000000000001
 21
4639.305165759572
  0
LINE
  5
30
100
AcDbEntity
  8
1
  6
CONTINUOUS
 62
           7
100
AcDbLine
 10
1460.000000000001
 20
4639.305165759572
 11
1460.000000000001
 21
4439.305165759572
  0
LINE
  5
2F
100
AcDbEntity
  8
1
  6
CONTINUOUS
 62
           7
100
AcDbLine
 10
1460.000000000001
 20
4439.305165759572
 11
1300.000000000003
 21
4439.305165759572
  0
LINE
  5
2E
100
AcDbEntity
  8
1
  6
DOT_CENTER
 62
           2
100
AcDbLine
 10
0.0
 20
3436.090018538091
 11
0.0
 21
286.273057824287
  0
POINT
  5
2D
100
AcDbEntity
  8
0
 62
           3
100
AcDbPoint
 10
3754.987842025608
 20
1744.28944920012
  0
ENDSEC
  0
SECTION
  2
OBJECTS
  0
DICTIONARY
  5
19
100
AcDbDictionary
  3
ACAD_GROUP
350
1A
  3
ACAD_MLINESTYLE
350
1B
  0
DICTIONARY
  5
1A
102
{ACAD_REACTORS
330
19
102
}
100
AcDbDictionary
  0
DICTIONARY
  5
1B
102
{ACAD_REACTORS
330
19
102
}
100
AcDbDictionary
  3
STANDARD
350
1C
  0
MLINESTYLE
  5
1C
102
{ACAD_REACTORS
330
1B
102
}
100
AcDbMlineStyle
  2
STANDARD
 70
           0
  3

 62
           0
 51
90.0
 52
90.0
 71
           2
 49
0.5
 62
         256
  6
BYLAYER
 49
-0.5
 62
         256
  6
BYLAYER
  0
ENDSEC
  0
EOF
