  0
SECTION
  2
HEADER
  9
$ACADVER
  1
AC1014
  9
$ACADMAINTVER
 70
           0
  9
$DWGCODEPAGE
  3
DOS932
  9
$INSBASE
 10
0.0
 20
0.0
 30
0.0
  9
$EXTMIN
 10
1.000000000000E+20
 20
1.000000000000E+20
 30
1.000000000000E+20
  9
$EXTMAX
 10
-1.000000000000E+20
 20
-1.000000000000E+20
 30
-1.000000000000E+20
  9
$LIMMIN
 10
0.0
 20
0.0
  9
$LIMMAX
 10
0.0
 20
0.0
  9
$ORTHOMODE
 70
           0
  9
$REGENMODE
 70
           1
  9
$FILLMODE
 70
           1
  9
$QTEXTMODE
 70
           0
  9
$MIRRTEXT
 70
           1
  9
$DRAGMODE
 70
           2
  9
$LTSCALE
 40
1.0
  9
$OSMODE
 70
           0
  9
$ATTMODE
 70
           1
  9
$TEXTSIZE
 40
0.2
  9
$TRACEWID
 40
0.05
  9
$TEXTSTYLE
  7
STANDARD
  9
$CLAYER
  8
0
  9
$CELTYPE
  6
CONTINUOUS
  9
$CECOLOR
 62
         256
  9
$CELTSCALE
 40
1.0
  9
$DELOBJ
 70
           1
  9
$DISPSILH
 70
           0
  9
$DIMSCALE
 40
1.0
  9
$DIMASZ
 40
0.18
  9
$DIMEXO
 40
0.0625
  9
$DIMDLI
 40
0.38
  9
$DIMRND
 40
0.0
  9
$DIMDLE
 40
0.0
  9
$DIMEXE
 40
0.18
  9
$DIMTP
 40
0.0
  9
$DIMTM
 40
0.0
  9
$DIMTXT
 40
0.18
  9
$DIMCEN
 40
0.09
  9
$DIMTSZ
 40
0.0
  9
$DIMTOL
 70
           0
  9
$DIMLIM
 70
           0
  9
$DIMTIH
 70
           1
  9
$DIMTOH
 70
           1
  9
$DIMSE1
 70
           0
  9
$DIMSE2
 70
           0
  9
$DIMTAD
 70
           0
  9
$DIMZIN
 70
           0
  9
$DIMBLK
  1

  9
$DIMASO
 70
           1
  9
$DIMSHO
 70
           1
  9
$DIMPOST
  1

  9
$DIMAPOST
  1

  9
$DIMALT
 70
           0
  9
$DIMALTD
 70
           2
  9
$DIMALTF
 40
25.4
  9
$DIMLFAC
 40
1.0
  9
$DIMTOFL
 70
           0
  9
$DIMTVP
 40
0.0
  9
$DIMTIX
 70
           0
  9
$DIMSOXD
 70
           0
  9
$DIMSAH
 70
           0
  9
$DIMBLK1
  1

  9
$DIMBLK2
  1

  9
$DIMSTYLE
  2
STANDARD
  9
$DIMCLRD
 70
           0
  9
$DIMCLRE
 70
           0
  9
$DIMCLRT
 70
           0
  9
$DIMTFAC
 40
1.0
  9
$DIMGAP
 40
0.09
  9
$DIMJUST
 70
           0
  9
$DIMSD1
 70
           0
  9
$DIMSD2
 70
           0
  9
$DIMTOLJ
 70
           1
  9
$DIMTZIN
 70
           0
  9
$DIMALTZ
 70
           0
  9
$DIMALTTZ
 70
           0
  9
$DIMFIT
 70
           3
  9
$DIMUPT
 70
           0
  9
$DIMUNIT
 70
           2
  9
$DIMDEC
 70
           4
  9
$DIMTDEC
 70
           4
  9
$DIMALTU
 70
           2
  9
$DIMALTTD
 70
           2
  9
$DIMTXSTY
  7
STANDARD
  9
$DIMAUNIT
 70
           0
  9
$LUNITS
 70
           2
  9
$LUPREC
 70
           4
  9
$SKETCHINC
 40
0.1
  9
$FILLETRAD
 40
0.0
  9
$AUNITS
 70
           0
  9
$AUPREC
 70
           0
  9
$MENU
  1
acad
  9
$ELEVATION
 40
0.0
  9
$PELEVATION
 40
0.0
  9
$THICKNESS
 40
0.0
  9
$LIMCHECK
 70
           0
  9
$BLIPMODE
 70
           1
  9
$CHAMFERA
 40
0.0
  9
$CHAMFERB
 40
0.0
  9
$CHAMFERC
 40
0.0
  9
$CHAMFERD
 40
0.0
  9
$SKPOLY
 70
           0
  9
$TDCREATE
 40
0.000000000
  9
$TDUPDATE
 40
0.000000000
  9
$TDINDWG
 40
0.0000000000
  9
$TDUSRTIMER
 40
0.0000000000
  9
$USRTIMER
 70
           1
  9
$ANGBASE
 50
0.0
  9
$ANGDIR
 70
           0
  9
$PDMODE
 70
           0
  9
$PDSIZE
 40
0.0
  9
$PLINEWID
 40
0.0
  9
$COORDS
 70
           0
  9
$SPLFRAME
 70
           0
  9
$SPLINETYPE
 70
           6
  9
$SPLINESEGS
 70
           8
  9
$ATTDIA
 70
           0
  9
$ATTREQ
 70
           1
  9
$HANDLING
 70
           1
  9
$HANDSEED
  5
38C
  9
$SURFTAB1
 70
           6
  9
$SURFTAB2
 70
           6
  9
$SURFTYPE
 70
           6
  9
$SURFU
 70
           6
  9
$SURFV
 70
           6
  9
$UCSNAME
  2

  9
$UCSORG
 10
0.0
 20
0.0
 30
0.0
  9
$UCSXDIR
 10
1.0
 20
0.0
 30
0.0
  9
$UCSYDIR
 10
0.0
 20
1.0
 30
0.0
  9
$PUCSNAME
  2

  9
$PUCSORG
 10
0.0
 20
0.0
 30
0.0
  9
$PUCSXDIR
 10
1.0
 20
0.0
 30
0.0
  9
$PUCSYDIR
 10
0.0
 20
1.0
 30
0.0
  9
$USERI1
 70
           0
  9
$USERI2
 70
           0
  9
$USERI3
 70
           0
  9
$USERI4
 70
           0
  9
$USERI5
 70
           0
  9
$USERR1
 40
0.0
  9
$USERR2
 40
0.0
  9
$USERR3
 40
0.0
  9
$USERR4
 40
0.0
  9
$USERR5
 40
0.0
  9
$WORLDVIEW
 70
           1
  9
$SHADEDGE
 70
           3
  9
$SHADEDIF
 70
          70
  9
$TILEMODE
 70
           1
  9
$MAXACTVP
 70
          16
  9
$PINSBASE
 10
0.0
 20
0.0
 30
0.0
  9
$PLIMCHECK
 70
           0
  9
$PEXTMIN
 10
1.000000000000E+20
 20
1.000000000000E+20
 30
1.000000000000E+20
  9
$PEXTMAX
 10
-1.000000000000E+20
 20
-1.000000000000E+20
 30
-1.000000000000E+20
  9
$PLIMMIN
 10
0.0
 20
0.0
  9
$PLIMMAX
 10
12.0
 20
9.0
  9
$UNITMODE
 70
           0
  9
$VISRETAIN
 70
           0
  9
$PLINEGEN
 70
           1
  9
$PSLTSCALE
 70
           0
  9
$TREEDEPTH
 70
        3020
  9
$PICKSTYLE
 70
           1
  9
$CMLSTYLE
  2
STANDARD
  9
$CMLJUST
 70
           0
  9
$CMLSCALE
 40
1.0
  9
$PROXYGRAPHICS
 70
           0
  9
$MEASUREMENT
 70
           0
  0
ENDSEC
  0
SECTION
  2
CLASSES
  0
CLASS
  1
LWPOLYLINE
  2
AcDbPolyline
  3
"AutoCAD"
 90
        0
280
           0
281
           1
  0
CLASS
  1
IMAGE
  2
AcDbRasterImage
  3
ISM
 90
      127
280
           0
281
           1
  0
CLASS
  1
OLE2FRAME
  2
AcDbOle2Frame
  3
""
 90
        0
280
           0
281
           1
  0
CLASS
  1
HATCH
  2
AcDbHatch
  3
"ACAD_SEDONA"
 90
        0
280
           0
281
           1
  0
CLASS
  1
DICTIONARYVAR
  2
AcDbDictionaryVar
  3
"AutoCAD"
 90
        0
280
           0
281
           0
  0
CLASS
  1
RASTERVARIABLES
  2
AcDbRasterVariables
  3
ISM
 90
        0
280
           0
281
           0
  0
CLASS
  1
IMAGEDEF
  2
AcDbRasterImageDef
  3
ISM
 90
        0
280
           0
281
           0
  0
CLASS
  1
IMAGEDEF_REACTOR
  2
AcDbRasterImageDefReactor
  3
ISM
 90
        1
280
           0
281
           0
  0
CLASS
  1
IDBUFFER
  2
AcDbIdBuffer
  3
"Acad"
 90
        0
280
           0
281
           0
  0
CLASS
  1
SPATIAL_FILTER
  2
AcDbSpatialFilter
  3
"Acad"
 90
        0
280
           0
281
           0
  0
CLASS
  1
XRECORD
  2
AcDbXrecord
  3
"<Built In>"
 90
        0
280
           0
281
           0
  0
CLASS
  1
SORTENTSTABLE
  2
AcDbSortentsTable
  3
"AutoCAD"
 90
        0
280
           0
281
           0
  0
CLASS
  1
LAYER_INDEX
  2
AcDbLayerIndex
  3
"Acad"
 90
        0
280
           0
281
           0
  0
CLASS
  1
SPATIAL_INDEX
  2
AcDbSpatialIndex
  3
"Acad"
 90
        0
280
           0
281
           0
  0
CLASS
  1
OBJECT_PTR
  2
CAseDLPNTableRecord
  3
"ASE-LPNTableRecord"
 90
        1
280
           0
281
           0
  0
CLASS
  1
LAYOUT
  2
AcDbLayout
  3
"AutoCAD 2000"
 90
        1
280
           0
281
           0
  0
CLASS
  1
PLOTSETTINGS
  2
AcDbPlotSettings
  3
"AutoCAD 2000"
 90
        1
280
           0
281
           0
  0
CLASS
  1
ACDBDICTIONARYWDFLT
  2
AcDbDictionaryWithDefault
  3
"AutoCAD 2000"
 90
        1
280
           0
281
           0
  0
CLASS
  1
ACDBPLACEHOLDER
  2
AcDbPlaceHolder
  3
"AutoCAD 2000"
 90
        1
280
           0
281
           0
  0
CLASS
  1
VBA_PROJECT
  2
AcDbVbaProject
  3
"acadvba"
 90
        1
280
           0
281
           0
  0
CLASS
  1
WIPEOUT
  2
AcDbWipeout
  3
WipeOut|AutoCAD Express Tool|expresstools@autodesk.com
 90
      127
280
           0
281
           1
  0
CLASS
  1
WIPEOUTVARIABLES
  2
AcDbWipeoutVariables
  3
WipeOut|AutoCAD Express Tool|expresstools@autodesk.com
 90
        0
280
           0
281
           0
  0
CLASS
  1
RTEXT
  2
RText
  3
RText|AutoCAD Express Tool|expresstools@autodesk.com
 90
        0
280
           0
281
           1
  0
CLASS
  1
ARCALIGNEDTEXT
  2
AcDbArcAlignedText
  3
ATEXT|AutoCAD Express Tool|expresstools@autodesk.com
 90
        0
280
           0
281
           1
  0
ENDSEC
  0
SECTION
  2
TABLES
  0
TABLE
  2
VPORT
  5
7
100
AcDbSymbolTable
 70
           1
  0
VPORT
  5
15
100
AcDbSymbolTableRecord
100
AcDbViewportTableRecord
  2
*ACTIVE
 70
           0
 10
0.0
 20
0.0
 11
1.0
 21
1.0
 12
6.591288
 22
4.579184
 13
0.0
 23
0.0
 14
1.0
 24
1.0
 15
0.0
 25
0.0
 16
0.0
 26
0.0
 36
1.0
 17
0.0
 27
0.0
 37
0.0
 40
9.158369
 41
0.688564
 42
50.0
 43
0.0
 44
0.0
 50
0.0
 51
0.0
 71
           0
 72
         100
 73
           1
 74
           1
 75
           0
 76
           0
 77
           0
 78
           0
  0
ENDTAB
  0
TABLE
  2
LTYPE
  5
4
100
AcDbSymbolTable
 70
          10
  0
LTYPE
  5
11
100
AcDbSymbolTableRecord
100
AcDbLinetypeTableRecord
  2
BYBLOCK
 70
          64
  3

 72
          65
 73
           0
 40
0.0
  0
LTYPE
  5
12
100
AcDbSymbolTableRecord
100
AcDbLinetypeTableRecord
  2
BYLAYER
 70
          64
  3

 72
          65
 73
           0
 40
0.0
  0
LTYPE
  5
13
100
AcDbSymbolTableRecord
100
AcDbLinetypeTableRecord
  2
CONTINUOUS
 70
          64
  3
Solid line
 72
          65
 73
           0
 40
0.0
  0
LTYPE
  5
1D
100
AcDbSymbolTableRecord
100
AcDbLinetypeTableRecord
  2
DASHED
 70
          64
  3
Dashed
 72
          65
 73
           2
 40
15.0
 49
12.0
 74
           0
 49
-3.0
 74
           0
  0
LTYPE
  5
1E
100
AcDbSymbolTableRecord
100
AcDbLinetypeTableRecord
  2
DOTTED
 70
          64
  3
Dotted
 72
          65
 73
           2
 40
3.5
 49
0.5
 74
           0
 49
-3.0
 74
           0
  0
LTYPE
  5
1F
100
AcDbSymbolTableRecord
100
AcDbLinetypeTableRecord
  2
DOT_CENTER
 70
          64
  3
Dot_Center
 72
          65
 73
           4
 40
2.0
 49
1.25
 74
           0
 49
-0.25
 74
           0
 49
0.25
 74
           0
 49
-0.25
 74
           0
  0
LTYPE
  5
20
100
AcDbSymbolTableRecord
100
AcDbLinetypeTableRecord
  2
LONG_DASHED
 70
          64
  3
Long_Dashed
 72
          65
 73
           2
 40
2.0
 49
1.5
 74
           0
 49
-0.5
 74
           0
  0
LTYPE
  5
21
100
AcDbSymbolTableRecord
100
AcDbLinetypeTableRecord
  2
DASH_CENTER
 70
          64
  3
Dash_Center
 72
          65
 73
           4
 40
36.0
 49
24.0
 74
           0
 49
-3.0
 74
           0
 49
6.0
 74
           0
 49
-3.0
 74
           0
  0
LTYPE
  5
22
100
AcDbSymbolTableRecord
100
AcDbLinetypeTableRecord
  2
PHANTOM
 70
          64
  3
Phantom
 72
          65
 73
           6
 40
2.5
 49
1.25
 74
           0
 49
-0.25
 74
           0
 49
0.25
 74
           0
 49
-0.25
 74
           0
 49
0.25
 74
           0
 49
-0.25
 74
           0
  0
LTYPE
  5
23
100
AcDbSymbolTableRecord
100
AcDbLinetypeTableRecord
  2
CENTER_DASH_DASH
 70
          64
  3
Center_Dash_Dash
 72
          65
 73
           6
 40
22.0
 49
12.0
 74
           0
 49
-3.0
 74
           0
 49
0.5
 74
           0
 49
-3.0
 74
           0
 49
0.5
 74
           0
 49
-3.0
 74
           0
  0
ENDTAB
  0
TABLE
  2
LAYER
  5
2
100
AcDbSymbolTable
 70
           7
  0
LAYER
  5
14
100
AcDbSymbolTableRecord
100
AcDbLayerTableRecord
  2
0
 70
           0
 62
           7
  6
CONTINUOUS
  0
LAYER
  5
24
100
AcDbSymbolTableRecord
100
AcDbLayerTableRecord
  2
___S__
 70
           0
 62
           7
  6
CONTINUOUS
  0
LAYER
  5
25
100
AcDbSymbolTableRecord
100
AcDbLayerTableRecord
  2
FORMAT
 70
           0
 62
           7
  6
CONTINUOUS
  0
LAYER
  5
26
100
AcDbSymbolTableRecord
100
AcDbLayerTableRecord
  2
1
 70
           0
 62
           7
  6
CONTINUOUS
  0
LAYER
  5
27
100
AcDbSymbolTableRecord
100
AcDbLayerTableRecord
  2
2
 70
           0
 62
           7
  6
CONTINUOUS
  0
LAYER
  5
28
100
AcDbSymbolTableRecord
100
AcDbLayerTableRecord
  2
7
 70
           0
 62
           7
  6
CONTINUOUS
  0
LAYER
  5
29
100
AcDbSymbolTableRecord
100
AcDbLayerTableRecord
  2
____
 70
           0
 62
           7
  6
CONTINUOUS
  0
ENDTAB
  0
TABLE
  2
STYLE
  5
3
100
AcDbSymbolTable
 70
           1
  0
STYLE
  5
17
100
AcDbSymbolTableRecord
100
AcDbTextStyleTableRecord
  2
STANDARD
 70
           0
 40
0.0
 41
1.0
 50
0.0
 71
           0
 42
0.0
  3
txt
  4

  0
ENDTAB
  0
TABLE
  2
VIEW
  5
5
100
AcDbSymbolTable
 70
           0
  0
ENDTAB
  0
TABLE
  2
UCS
  5
6
100
AcDbSymbolTable
 70
           0
  0
ENDTAB
  0
TABLE
  2
APPID
  5
8
100
AcDbSymbolTable
 70
           1
  0
APPID
  5
16
100
AcDbSymbolTableRecord
100
AcDbRegAppTableRecord
  2
ACAD
 70
           0
  0
ENDTAB
  0
TABLE
  2
DIMSTYLE
  5
9
100
AcDbSymbolTable
 70
           1
  0
DIMSTYLE
105
18
100
AcDbSymbolTableRecord
100
AcDbDimStyleTableRecord
  2
STANDARD
 70
           0
  3

  4

  5

  6

  7

 40
1.0
 41
0.18
 42
0.0625
 43
0.38
 44
0.18
 45
0.0
 46
0.0
 47
0.0
 48
0.0
 71
           0
 72
           0
 73
           1
 74
           1
 75
           0
 76
           0
 77
           0
 78
           0
140
0.18
141
0.09
142
0.0
143
25.4
144
1.0
145
0.0
146
1.0
147
0.09
170
           0
171
           2
172
           0
173
           0
174
           0
175
           0
176
           0
177
           0
178
           0
270
           2
271
           4
272
           4
273
           2
274
           2
275
           0
280
           0
281
           0
282
           0
283
           1
284
           0
285
           0
286
           0
287
           0
288
           0
340
17
  0
ENDTAB
  0
TABLE
  2
BLOCK_RECORD
  5
1
100
AcDbSymbolTable
 70
           0
  0
BLOCK_RECORD
  5
A
100
AcDbSymbolTableRecord
100
AcDbBlockTableRecord
  2
*MODEL_SPACE
  0
BLOCK_RECORD
  5
B
100
AcDbSymbolTableRecord
100
AcDbBlockTableRecord
  2
*PAPER_SPACE
  0
ENDTAB
  0
ENDSEC
  0
SECTION
  2
BLOCKS
  0
BLOCK
  5
D
100
AcDbEntity
  8
0
100
AcDbBlockBegin
  2
*MODEL_SPACE
 70
           0
 10
0.0
 20
0.0
 30
0.0
  3
*MODEL_SPACE
  1

  0
ENDBLK
  5
E
100
AcDbEntity
  8
0
100
AcDbBlockEnd
  0
BLOCK
  5
F
100
AcDbEntity
 67
           1
  8
0
100
AcDbBlockBegin
  2
*PAPER_SPACE
 70
           0
 10
0.0
 20
0.0
 30
0.0
  3
*PAPER_SPACE
  1

  0
ENDBLK
  5
10
100
AcDbEntity
 67
           1
  8
0
100
AcDbBlockEnd
  0
ENDSEC
  0
SECTION
  2
ENTITIES
  0
HATCH
  5
38A
100
AcDbEntity
  8
0
  6
CONTINUOUS
 62
           2
100
AcDbHatch
 10
0.0
 20
0.0
 30
0.0
210
0.0
220
0.0
230
1.0
  2
USER
 70
           0
 71
           1
 91
        1
 92
        1
 93
        8
 72
           1
 10
3480.0
 20
1451.3923357664339
 11
3480.0
 21
1471.3923357664339
 72
           1
 10
3402.0000000000009
 20
1451.392335766433
 11
3480.0
 21
1451.3923357664339
 72
           2
 10
3402.0000000000009
 20
1488.392335766433
 40
37.0
 50
180.0
 51
-90.0
 73
           1
 72
           1
 10
3365.0000000000009
 20
1501.642335766433
 11
3365.0000000000009
 21
1488.392335766433
 72
           1
 10
3385.0000000000009
 20
1488.392335766433
 11
3385.0000000000009
 21
1501.642335766433
 72
           1
 10
3385.0000000000009
 20
1501.642335766433
 11
3365.0000000000009
 21
1501.642335766433
 72
           2
 10
3402.0000000000009
 20
1488.392335766433
 40
17.0
 50
180.0
 51
-90.0
 73
           1
 72
           1
 10
3402.0000000000009
 20
1471.392335766433
 11
3480.0
 21
1471.3923357664339
 97
        7
330
373
330
4A
330
308
330
48
330
372
330
309
330
49
 75
           1
 76
           0
 52
45.0
 41
10.0
 77
           0
 78
           1
 53
45.0
 43
0.0
 44
0.0
 45
-7.0710678118654746
 46
7.0710678118654755
 79
           0
 98
        1
 10
0.0
 20
0.0
  0
ARC
  5
389
100
AcDbEntity
  8
1
  6
CONTINUOUS
 62
           4
100
AcDbCircle
 10
117.908702762046
 20
5585.499999999998
 40
12.0
100
AcDbArc
 50
90.0
 51
120.430594205703
  0
ARC
  5
388
100
AcDbEntity
  8
1
  6
CONTINUOUS
 62
           4
100
AcDbCircle
 10
117.908702762046
 20
5494.499999999998
 40
12.000000000002
100
AcDbArc
 50
-120.4305942057
 51
-90.0
  0
ARC
  5
387
100
AcDbEntity
  8
1
  6
CONTINUOUS
 62
           7
100
AcDbCircle
 10
144.824966598197
 20
5488.499999999998
 40
12.0
100
AcDbArc
 50
180.0
 51
-90.0
  0
ARC
  5
386
100
AcDbEntity
  8
1
  6
CONTINUOUS
 62
           7
100
AcDbCircle
 10
144.824966598197
 20
5591.499999999998
 40
12.0
100
AcDbArc
 50
90.0
 51
180.0
  0
ARC
  5
385
100
AcDbEntity
  8
1
  6
CONTINUOUS
 62
           7
100
AcDbCircle
 10
185.000000000002
 20
5488.499999999998
 40
12.0
100
AcDbArc
 50
-90.0
 51
0.0
  0
ARC
  5
384
100
AcDbEntity
  8
1
  6
CONTINUOUS
 62
           7
100
AcDbCircle
 10
185.000000000002
 20
5591.499999999998
 40
12.0
100
AcDbArc
 50
0.0
 51
90.0
  0
ARC
  5
383
100
AcDbEntity
  8
1
  6
CONTINUOUS
 62
           7
100
AcDbCircle
 10
185.000000000002
 20
3019.942335766431
 40
12.0
100
AcDbArc
 50
0.0
 51
90.0
  0
ARC
  5
382
100
AcDbEntity
  8
1
  6
CONTINUOUS
 62
           7
100
AcDbCircle
 10
185.000000000002
 20
2943.942335766431
 40
12.0
100
AcDbArc
 50
-90.0
 51
0.0
  0
ARC
  5
381
100
AcDbEntity
  8
1
  6
CONTINUOUS
 62
           7
100
AcDbCircle
 10
134.496396800001
 20
3019.942335766431
 40
12.0
100
AcDbArc
 50
90.000000000008
 51
180.0
  0
ARC
  5
380
100
AcDbEntity
  8
1
  6
CONTINUOUS
 62
           7
100
AcDbCircle
 10
134.496396800001
 20
2943.942335766431
 40
12.0
100
AcDbArc
 50
180.0
 51
-90.000000000008
  0
ARC
  5
37F
100
AcDbEntity
  8
1
  6
CONTINUOUS
 62
           7
100
AcDbCircle
 10
4488.500000000002
 20
2943.94233576643
 40
12.0
100
AcDbArc
 50
180.0
 51
-90.0
  0
ARC
  5
37E
100
AcDbEntity
  8
1
  6
CONTINUOUS
 62
           7
100
AcDbCircle
 10
4488.500000000002
 20
3019.94233576643
 40
12.0
100
AcDbArc
 50
90.0
 51
180.0
  0
ARC
  5
37D
100
AcDbEntity
  8
1
  6
CONTINUOUS
 62
           7
100
AcDbCircle
 10
4591.500000000002
 20
2943.94233576643
 40
12.0
100
AcDbArc
 50
-90.0
 51
0.0
  0
ARC
  5
37C
100
AcDbEntity
  8
1
  6
CONTINUOUS
 62
           7
100
AcDbCircle
 10
4591.500000000002
 20
3019.94233576643
 40
12.0
100
AcDbArc
 50
0.0
 51
90.0
  0
ARC
  5
37B
100
AcDbEntity
  8
1
  6
CONTINUOUS
 62
           4
100
AcDbCircle
 10
5055.500000000002
 20
2842.142335766434
 40
1.0
100
AcDbArc
 50
180.0
 51
-90.0
  0
ARC
  5
37A
100
AcDbEntity
  8
1
  6
CONTINUOUS
 62
           4
100
AcDbCircle
 10
5044.500000000002
 20
2842.142335766434
 40
1.0
100
AcDbArc
 50
-90.0
 51
0.0
  0
ARC
  5
379
100
AcDbEntity
  8
1
  6
CONTINUOUS
 62
           4
100
AcDbCircle
 10
5055.500000000002
 20
2391.142335766432
 40
1.0
100
AcDbArc
 50
90.0
 51
180.0
  0
ARC
  5
378
100
AcDbEntity
  8
1
  6
CONTINUOUS
 62
           4
100
AcDbCircle
 10
5044.500000000002
 20
2391.142335766432
 40
1.0
100
AcDbArc
 50
0.0
 51
90.0
  0
ARC
  5
377
100
AcDbEntity
  8
1
  6
CONTINUOUS
 62
           3
100
AcDbCircle
 10
4249.899996810934
 20
1872.64233576643
 40
288.0
100
AcDbArc
 50
90.0
 51
180.0
  0
ARC
  5
376
100
AcDbEntity
  8
1
  6
CONTINUOUS
 62
           3
100
AcDbCircle
 10
4249.899998122327
 20
1872.642335766431
 40
280.0
100
AcDbArc
 50
90.0
 51
180.0
  0
ARC
  5
375
100
AcDbEntity
  8
1
  6
CONTINUOUS
 62
           3
100
AcDbCircle
 10
4398.163567691044
 20
2163.83608234647
 40
0.5
100
AcDbArc
 50
90.0
 51
180.0
  0
ARC
  5
374
100
AcDbEntity
  8
1
  6
CONTINUOUS
 62
           3
100
AcDbCircle
 10
4398.163567691044
 20
2149.448589186391
 40
0.5
100
AcDbArc
 50
180.0
 51
-90.0
  0
LWPOLYLINE
  5
373
100
AcDbEntity
  8
1
  6
CONTINUOUS
 62
           7
 60
           1
100
AcDbPolyline
 90
        2
 70
           0
 10
3480.0
 20
1451.392335766434
 10
3480.0
 20
1471.392335766434
  0
LWPOLYLINE
  5
372
100
AcDbEntity
  8
1
  6
CONTINUOUS
 62
           7
 60
           1
100
AcDbPolyline
 90
        3
 70
           0
 10
3385.000000000001
 20
1488.392335766433
 10
3385.000000000001
 20
1501.642335766433
 10
3365.000000000001
 20
1501.642335766433
  0
SPLINE
  5
371
100
AcDbEntity
  8
0
  6
CONTINUOUS
 62
           3
100
AcDbSpline
210
0.0
220
0.0
230
1.0
 70
           0
 71
           3
 72
           8
 73
           5
 74
           7
 42
0.00000000001
 43
0.00000000001
 44
0.00000000001
 40
0.0
 40
0.0
 40
0.0
 40
0.5558562714167533
 40
1.5343210643719736
 40
2.9385072682942539
 40
2.9385072682942539
 40
2.9385072682942539
 10
3915.899996721676
 20
1591.642335170478
 30
0.0
 10
3915.9684298091461
 20
1591.641889477107
 30
0.0
 10
3916.9432526000269
 20
1591.635540617644
 30
0.0
 10
3917.8985309047439
 20
1591.407644788294
 30
0.0
 10
3918.786748155504
 20
1591.195747369497
 30
0.0
 11
3915.899996721676
 21
1591.642335170478
 31
0.0
 11
3916.0396116244074
 21
1591.6414258817281
 31
0.0
 11
3916.3215901576632
 21
1591.6395894022201
 31
0.0
 11
3916.8859111712891
 21
1591.6131557609074
 31
0.0
 11
3917.3355493274385
 21
1591.5419524061213
 31
0.0
 11
3917.9798398231073
 21
1591.3882473380513
 31
0.0
 11
3918.786748155504
 21
1591.195747369497
 31
0.0
  0
SPLINE
  5
370
100
AcDbEntity
  8
0
  6
CONTINUOUS
 62
           3
100
AcDbSpline
210
0.0
220
0.0
230
1.0
 70
           0
 71
           3
 72
           8
 73
           5
 74
           7
 42
0.00000000001
 43
0.00000000001
 44
0.00000000001
 40
0.0
 40
0.0
 40
0.0
 40
0.555855849068315
 40
1.5343195422049283
 40
2.9385037456630458
 40
2.9385037456630458
 40
2.9385037456630458
 10
3915.899996721676
 20
1586.6423399387511
 30
0.0
 10
3915.831563636294
 20
1586.6427856447319
 30
0.0
 10
3914.856741687242
 20
1586.6491346770979
 30
0.0
 10
3913.9014629162648
 20
1586.877022695659
 30
0.0
 10
3913.0132452878461
 20
1587.088912838673
 30
0.0
 11
3915.899996721676
 21
1586.6423399387511
 31
0.0
 11
3915.7603818762486
 21
1586.643249252752
 31
0.0
 11
3915.4784035107295
 21
1586.6450857827929
 31
0.0
 11
3914.9140828960171
 21
1586.6715187086484
 31
0.0
 11
3914.4644446988532
 21
1586.7427196976046
 31
0.0
 11
3913.8201539548068
 21
1586.8964194818986
 31
0.0
 11
3913.0132452878461
 21
1587.088912838673
 31
0.0
  0
SPLINE
  5
36F
100
AcDbEntity
  8
0
  6
CONTINUOUS
 62
           3
100
AcDbSpline
210
0.0
220
0.0
230
1.0
 70
           0
 71
           3
 72
           8
 73
           5
 74
           7
 42
0.00000000001
 43
0.00000000001
 44
0.00000000001
 40
0.0
 40
0.0
 40
0.0
 40
0.2779452695529989
 40
0.7862805426568716
 40
1.5429573556204716
 40
1.5429573556204716
 40
1.5429573556204716
 10
3920.2301237560059
 20
1586.6423399388509
 30
0.0
 10
3920.1959072124769
 20
1586.6427856436189
 30
0.0
 10
3919.7084969152729
 20
1586.6491346511741
 30
0.0
 10
3919.230857214985
 20
1586.8770226948959
 30
0.0
 10
3918.786748155364
 20
1587.088912838653
 30
0.0
 11
3920.2301237560059
 21
1586.6423399388509
 31
0.0
 11
3920.161387223066
 21
1586.6432353010734
 31
0.0
 11
3920.0236107113051
 21
1586.645029978205
 31
0.0
 11
3919.7392914141337
 21
1586.6710022426473
 31
0.0
 11
3919.5165611146858
 21
1586.7407096900361
 31
0.0
 11
3919.1912559250045
 21
1586.8959169796201
 31
0.0
 11
3918.786748155364
 21
1587.088912838653
 31
0.0
  0
SPLINE
  5
36E
100
AcDbEntity
  8
0
  6
CONTINUOUS
 62
           3
100
AcDbSpline
210
0.0
220
0.0
230
1.0
 70
           0
 71
           3
 72
           8
 73
           5
 74
           7
 42
0.00000000001
 43
0.00000000001
 44
0.00000000001
 40
0.0
 40
0.0
 40
0.0
 40
0.6787700534942112
 40
1.1891668948829819
 40
1.5431123743473207
 40
1.5431123743473207
 40
1.5431123743473207
 10
3913.0132452878461
 20
1587.088912838673
 30
0.0
 10
3912.6438214744039
 20
1586.9047841380359
 30
0.0
 10
3912.167682050625
 20
1586.6674661032141
 30
0.0
 10
3911.679323852587
 20
1586.6469403176909
 30
0.0
 10
3911.5698696873469
 20
1586.6423399388509
 30
0.0
 11
3913.0132452878461
 21
1587.088912838673
 31
0.0
 11
3912.6682329736386
 21
1586.9169513494369
 31
0.0
 11
3912.3720436579006
 21
1586.7693242830028
 31
0.0
 11
3912.1466781919489
 21
1586.6899005130385
 31
0.0
 11
3911.879305008646
 21
1586.6553455627231
 31
0.0
 11
3911.7019556002915
 21
1586.6478915342391
 31
0.0
 11
3911.5698696873469
 21
1586.6423399388509
 31
0.0
  0
SPLINE
  5
36D
100
AcDbEntity
  8
0
  6
CONTINUOUS
 62
           3
100
AcDbSpline
210
0.0
220
0.0
230
1.0
 70
           0
 71
           3
 72
           8
 73
           5
 74
           7
 42
0.00000000001
 43
0.00000000001
 44
0.00000000001
 40
0.0
 40
0.0
 40
0.0
 40
0.3539460334960311
 40
0.8643414136607275
 40
1.5431068114013597
 40
1.5431068114013597
 40
1.5431068114013597
 10
3911.5698696873469
 20
1591.642335170478
 30
0.0
 10
3911.6793238424252
 20
1591.63772927426
 30
0.0
 10
3912.167681671046
 20
1591.61717888517
 30
0.0
 10
3912.643821348448
 20
1591.3798694007839
 30
0.0
 10
3913.0132452879729
 20
1591.1957473694511
 30
0.0
 11
3911.5698696873469
 21
1591.642335170478
 31
0.0
 11
3911.7019556855835
 21
1591.6367769127844
 31
0.0
 11
3911.8793053701356
 21
1591.6293139321392
 31
0.0
 11
3912.1466781413897
 21
1591.5947489613557
 31
0.0
 11
3912.3720438533301
 21
1591.515324142943
 31
0.0
 11
3912.6682329595496
 21
1591.3677025784905
 31
0.0
 11
3913.0132452879729
 21
1591.1957473694511
 31
0.0
  0
SPLINE
  5
36C
100
AcDbEntity
  8
0
  6
CONTINUOUS
 62
           3
100
AcDbSpline
210
0.0
220
0.0
230
1.0
 70
           0
 71
           3
 72
           8
 73
           5
 74
           7
 42
0.00000000001
 43
0.00000000001
 44
0.00000000001
 40
0.0
 40
0.0
 40
0.0
 40
0.6415450374763216
 40
1.1579303686102529
 40
1.5357381749048071
 40
1.5357381749048071
 40
1.5357381749048071
 10
3911.5698696873469
 20
1586.6423399388509
 30
0.0
 10
3911.1795237086149
 20
1586.699969460306
 30
0.0
 10
3910.6908846293609
 20
1586.7721106833139
 30
0.0
 10
3910.221011962115
 20
1587.035858214686
 30
0.0
 10
3910.1264938539748
 20
1587.088912838653
 30
0.0
 11
3911.5698696873469
 21
1586.6423399388509
 31
0.0
 11
3911.2094282457056
 21
1586.6955544432294
 31
0.0
 11
3910.9087958782457
 21
1586.7399389134553
 31
0.0
 11
3910.6775260473205
 21
1586.8021454643922
 31
0.0
 11
3910.4195390523146
 21
1586.924421577485
 31
0.0
 11
3910.2470142076299
 21
1587.0212627113772
 31
0.0
 11
3910.1264938539748
 21
1587.088912838653
 31
0.0
  0
SPLINE
  5
36B
100
AcDbEntity
  8
0
  6
CONTINUOUS
 62
           3
100
AcDbSpline
210
0.0
220
0.0
230
1.0
 70
           0
 71
           3
 72
           8
 73
           5
 74
           7
 42
0.00000000001
 43
0.00000000001
 44
0.00000000001
 40
0.0
 40
0.0
 40
0.0
 40
0.3778155284981251
 40
0.8942062233974563
 40
1.5357514174662705
 40
1.5357514174662705
 40
1.5357514174662705
 10
3910.1264938539748
 20
1591.1957473694511
 30
0.0
 10
3910.2210118970361
 20
1591.2488074573359
 30
0.0
 10
3910.6908817949038
 20
1591.512580777804
 30
0.0
 10
3911.1795227343059
 20
1591.5847129526289
 30
0.0
 10
3911.5698696873469
 20
1591.642335170478
 30
0.0
 11
3910.1264938539748
 21
1591.1957473694511
 31
0.0
 11
3910.2470141544081
 21
1591.2634044804579
 31
0.0
 11
3910.4195389695869
 21
1591.3602556377095
 31
0.0
 11
3910.6775244143309
 21
1591.4825414716668
 31
0.0
 11
3910.9087950979274
 21
1591.5447486933488
 31
0.0
 11
3911.2094275634709
 21
1591.5891274422709
 31
0.0
 11
3911.5698696873469
 21
1591.642335170478
 31
0.0
  0
SPLINE
  5
36A
100
AcDbEntity
  8
0
  6
CONTINUOUS
 62
           3
100
AcDbSpline
210
0.0
220
0.0
230
1.0
 70
           0
 71
           3
 72
           8
 73
           5
 74
           7
 42
0.00000000001
 43
0.00000000001
 44
0.00000000001
 40
0.0
 40
0.0
 40
0.0
 40
0.2779464854665306
 40
0.7862840844020281
 40
1.5429642659226526
 40
1.5429642659226526
 40
1.5429642659226526
 10
3920.2301237559659
 20
1591.642335170352
 30
0.0
 10
3920.2643403053662
 20
1591.6418894751059
 30
0.0
 10
3920.751753024455
 20
1591.635540570873
 30
0.0
 10
3921.2293915040009
 20
1591.4076447869099
 30
0.0
 10
3921.6734995893671
 20
1591.1957473694511
 30
0.0
 11
3920.2301237559659
 21
1591.642335170352
 31
0.0
 11
3920.2988605017495
 21
1591.6414398244744
 31
0.0
 11
3920.4366376402986
 21
1591.6396451773348
 31
0.0
 11
3920.7209580094741
 21
1591.6136721834912
 31
0.0
 11
3920.9436883486874
 21
1591.5439624148839
 31
0.0
 11
3921.2689927365141
 21
1591.3887498395388
 31
0.0
 11
3921.6734995893671
 21
1591.1957473694511
 31
0.0
  0
SPLINE
  5
369
100
AcDbEntity
  8
0
  6
CONTINUOUS
 62
           3
100
AcDbSpline
210
0.0
220
0.0
230
1.0
 70
           0
 71
           3
 72
           8
 73
           5
 74
           7
 42
0.00000000001
 43
0.00000000001
 44
0.00000000001
 40
0.0
 40
0.0
 40
0.0
 40
1.2475591451553159
 40
2.2257037084924676
 40
2.935414201173383
 40
2.935414201173383
 40
2.935414201173383
 10
3915.899996721676
 20
1596.642330402103
 30
0.0
 10
3915.1443416651741
 20
1596.5882290665229
 30
0.0
 10
3914.1669038516538
 20
1596.518249132288
 30
0.0
 10
3913.2266018489572
 20
1596.2553988097959
 30
0.0
 10
3913.0132452878461
 20
1596.195757502288
 30
0.0
 11
3915.899996721676
 21
1596.642330402103
 31
0.0
 11
3915.1962862228393
 21
1596.5919480516889
 31
0.0
 11
3914.5964648393306
 21
1596.5490036716069
 31
0.0
 11
3914.138063311374
 21
1596.4878560590644
 31
0.0
 11
3913.6219807028601
 21
1596.3659223000755
 31
0.0
 11
3913.2721074221549
 21
1596.268119355489
 31
0.0
 11
3913.0132452878461
 21
1596.195757502288
 31
0.0
  0
SPLINE
  5
368
100
AcDbEntity
  8
0
  6
CONTINUOUS
 62
           3
100
AcDbSpline
210
0.0
220
0.0
230
1.0
 70
           0
 71
           3
 72
           8
 73
           5
 74
           7
 42
0.00000000001
 43
0.00000000001
 44
0.00000000001
 40
0.0
 40
0.0
 40
0.0
 40
1.232128829260978
 40
2.2113508927679728
 40
2.9387184667242736
 40
2.9387184667242736
 40
2.9387184667242736
 10
3918.786748155504
 20
1596.195757502288
 30
0.0
 10
3918.067488501054
 20
1596.3759547848599
 30
0.0
 10
3917.115626026095
 20
1596.6144264276279
 30
0.0
 10
3916.1387194651579
 20
1596.6368506778849
 30
0.0
 10
3915.899996721676
 20
1596.642330402103
 30
0.0
 11
3918.786748155504
 21
1596.195757502288
 31
0.0
 11
3918.1147128338675
 21
1596.364123596511
 31
0.0
 11
3917.5371261778591
 21
1596.508827314035
 31
0.0
 11
3917.0808665470063
 21
1596.5912433452836
 31
0.0
 11
3916.5550879579764
 21
1596.6272932118429
 31
0.0
 11
3916.1831309024919
 21
1596.635831242429
 31
0.0
 11
3915.899996721676
 21
1596.642330402103
 31
0.0
  0
SPLINE
  5
367
100
AcDbEntity
  8
0
  6
CONTINUOUS
 62
           3
100
AcDbSpline
210
0.0
220
0.0
230
1.0
 70
           0
 71
           3
 72
           8
 73
           5
 74
           7
 42
0.00000000001
 43
0.00000000001
 44
0.00000000001
 40
0.0
 40
0.0
 40
0.0
 40
0.7273681394913093
 40
1.7065914567898126
 40
2.9387223240343854
 40
2.9387223240343854
 40
2.9387223240343854
 10
3915.899996721676
 20
1591.642335170478
 30
0.0
 10
3916.1387195010338
 20
1591.6478147095461
 30
0.0
 10
3917.115627146984
 20
1591.670238223671
 30
0.0
 10
3918.0674888562462
 20
1591.9087188469409
 30
0.0
 10
3918.786748155364
 20
1592.0889229715519
 30
0.0
 11
3915.899996721676
 21
1591.642335170478
 31
0.0
 11
3916.1831310149751
 21
1591.6488341121633
 31
0.0
 11
3916.5550883361539
 21
1591.6573718590823
 31
0.0
 11
3917.0808673755146
 21
1591.6934223996038
 31
0.0
 11
3917.5371268719346
 21
1591.7758412919909
 31
0.0
 11
3918.1147131849475
 21
1591.9205504893562
 31
0.0
 11
3918.786748155364
 21
1592.0889229715519
 31
0.0
  0
SPLINE
  5
366
100
AcDbEntity
  8
0
  6
CONTINUOUS
 62
           3
100
AcDbSpline
210
0.0
220
0.0
230
1.0
 70
           0
 71
           3
 72
           8
 73
           5
 74
           7
 42
0.00000000001
 43
0.00000000001
 44
0.00000000001
 40
0.0
 40
0.0
 40
0.0
 40
0.7097126556370177
 40
1.6878594213861235
 40
2.9354211178778962
 40
2.9354211178778962
 40
2.9354211178778962
 10
3913.0132452878461
 20
1592.0889229714539
 30
0.0
 10
3913.226601703765
 20
1592.029276136358
 30
0.0
 10
3914.166898912586
 20
1591.7664026140501
 30
0.0
 10
3915.1443400642561
 20
1591.6964304380469
 30
0.0
 10
3915.899996721676
 20
1591.642335170478
 30
0.0
 11
3913.0132452878461
 21
1592.0889229714539
 31
0.0
 11
3913.2721068549263
 21
1592.0165545210455
 31
0.0
 11
3913.6219787243299
 21
1591.9187428400123
 31
0.0
 11
3914.1380594916341
 21
1591.7967998872111
 31
0.0
 11
3914.5964614170362
 21
1591.7356514807318
 31
0.0
 11
3915.1962845668058
 21
1591.6927118818257
 31
0.0
 11
3915.899996721676
 21
1591.642335170478
 31
0.0
  0
SPLINE
  5
365
100
AcDbEntity
  8
0
  6
CONTINUOUS
 62
           3
100
AcDbSpline
210
0.0
220
0.0
230
1.0
 70
           0
 71
           3
 72
           8
 73
           5
 74
           7
 42
0.00000000001
 43
0.00000000001
 44
0.00000000001
 40
0.0
 40
0.0
 40
0.0
 40
0.27794526955299
 40
0.7862805426562545
 40
1.5429573555005907
 40
1.5429573555005907
 40
1.5429573555005907
 10
3920.2301237560059
 20
1596.642330402103
 30
0.0
 10
3920.1959072124769
 20
1596.641884697334
 30
0.0
 10
3919.7084969152729
 20
1596.635535689782
 30
0.0
 10
3919.230857214985
 20
1596.407647646063
 30
0.0
 10
3918.786748155504
 20
1596.195757502288
 30
0.0
 11
3920.2301237560059
 21
1596.642330402103
 31
0.0
 11
3920.1613872230664
 21
1596.64143503988
 31
0.0
 11
3920.0236107113051
 21
1596.6396403627489
 31
0.0
 11
3919.7392914141296
 21
1596.6136680983063
 31
0.0
 11
3919.5165611146685
 21
1596.5439606509126
 31
0.0
 11
3919.1912559250354
 21
1596.3887533613315
 31
0.0
 11
3918.786748155504
 21
1596.195757502288
 31
0.0
  0
SPLINE
  5
364
100
AcDbEntity
  8
0
  6
CONTINUOUS
 62
           3
100
AcDbSpline
210
0.0
220
0.0
230
1.0
 70
           0
 71
           3
 72
           8
 73
           5
 74
           7
 42
0.00000000001
 43
0.00000000001
 44
0.00000000001
 40
0.0
 40
0.0
 40
0.0
 40
0.2779464854698445
 40
0.7862840844053095
 40
1.542964265946202
 40
1.542964265946202
 40
1.542964265946202
 10
3920.2301237559659
 20
1591.642335170352
 30
0.0
 10
3920.2643403053662
 20
1591.642780865855
 30
0.0
 10
3920.751753024455
 20
1591.6491297700829
 30
0.0
 10
3921.2293915040009
 20
1591.877025554046
 30
0.0
 10
3921.6734995893671
 20
1592.0889229715519
 30
0.0
 11
3920.2301237559659
 21
1591.642335170352
 31
0.0
 11
3920.2988605017499
 21
1591.6432305164219
 31
0.0
 11
3920.4366376403004
 21
1591.6450251636245
 31
0.0
 11
3920.7209580094732
 21
1591.6709981574652
 31
0.0
 11
3920.9436883486842
 21
1591.7407079260704
 31
0.0
 11
3921.2689927365132
 21
1591.8959205014285
 31
0.0
 11
3921.6734995893671
 21
1592.0889229715519
 31
0.0
  0
SPLINE
  5
363
100
AcDbEntity
  8
0
  6
CONTINUOUS
 62
           3
100
AcDbSpline
210
0.0
220
0.0
230
1.0
 70
           0
 71
           3
 72
           8
 73
           5
 74
           7
 42
0.00000000001
 43
0.00000000001
 44
0.00000000001
 40
0.0
 40
0.0
 40
0.0
 40
0.2779462752363335
 40
0.7862820883282935
 40
1.542957730613514
 40
1.542957730613514
 40
1.542957730613514
 10
3911.5698696873469
 20
1596.642330402103
 30
0.0
 10
3911.5356531390348
 20
1596.6418846942199
 30
0.0
 10
3911.048240840847
 20
1596.635535617093
 30
0.0
 10
3910.570602128184
 20
1596.4076476439129
 30
0.0
 10
3910.1264938539748
 20
1596.1957575023459
 30
0.0
 11
3911.5698696873469
 21
1596.642330402103
 31
0.0
 11
3911.5011329028066
 21
1596.6414350304685
 31
0.0
 11
3911.3633556458108
 21
1596.6396403313317
 31
0.0
 11
3911.0790356162643
 21
1596.6136680072905
 31
0.0
 11
3910.8563051375504
 21
1596.5439604636445
 31
0.0
 11
3910.5310008119732
 21
1596.3887533134539
 31
0.0
 11
3910.1264938539748
 21
1596.1957575023459
 31
0.0
  0
SPLINE
  5
362
100
AcDbEntity
  8
0
  6
CONTINUOUS
 62
           3
100
AcDbSpline
210
0.0
220
0.0
230
1.0
 70
           0
 71
           3
 72
           8
 73
           5
 74
           7
 42
0.00000000001
 43
0.00000000001
 44
0.00000000001
 40
0.0
 40
0.0
 40
0.0
 40
0.2779454797466353
 40
0.7862825386904904
 40
1.542963890723078
 40
1.542963890723078
 40
1.542963890723078
 10
3911.5698696873469
 20
1591.642335170478
 30
0.0
 10
3911.6040862319251
 20
1591.6427808627359
 30
0.0
 10
3912.0914969500318
 20
1591.6491296973929
 30
0.0
 10
3912.569136417198
 20
1591.877025551898
 30
0.0
 10
3913.0132452878461
 20
1592.0889229714539
 30
0.0
 11
3911.5698696873469
 21
1591.642335170478
 31
0.0
 11
3911.6386061814978
 21
1591.6432305070384
 31
0.0
 11
3911.7763825747934
 21
1591.6450251322035
 31
0.0
 11
3912.0607022116087
 21
1591.670998066448
 31
0.0
 11
3912.2834323715779
 21
1591.7407077388027
 31
0.0
 11
3912.608737623455
 21
1591.8959204535131
 31
0.0
 11
3913.0132452878461
 21
1592.0889229714539
 31
0.0
  0
SPLINE
  5
361
100
AcDbEntity
  8
0
  6
CONTINUOUS
 62
           3
100
AcDbSpline
210
0.0
220
0.0
230
1.0
 70
           0
 71
           3
 72
           8
 73
           5
 74
           7
 42
0.00000000001
 43
0.00000000001
 44
0.00000000001
 40
0.0
 40
0.0
 40
0.0
 40
1.2475604207862108
 40
2.2257060852946755
 40
2.9354176594296177
 40
2.9354176594296177
 40
2.9354176594296177
 10
3915.899996721676
 20
1609.242335075096
 30
0.0
 10
3915.1443408647228
 20
1609.1882367735359
 30
0.0
 10
3914.1669013821629
 20
1609.118260718436
 30
0.0
 10
3913.226601776365
 20
1608.855398796002
 30
0.0
 10
3913.0132452878461
 20
1608.795754724697
 30
0.0
 11
3915.899996721676
 21
1609.242335075096
 31
0.0
 11
3915.1962853948326
 21
1609.1919555442282
 31
0.0
 11
3914.5964631282095
 21
1609.149013554746
 31
0.0
 11
3914.1380614015379
 21
1609.0878655452364
 31
0.0
 11
3913.6219797136164
 21
1608.9659271893279
 31
0.0
 11
3913.2721071385481
 21
1608.8681198765073
 31
0.0
 11
3913.0132452878461
 21
1608.795754724697
 31
0.0
  0
SPLINE
  5
360
100
AcDbEntity
  8
0
  6
CONTINUOUS
 62
           3
100
AcDbSpline
210
0.0
220
0.0
230
1.0
 70
           0
 71
           3
 72
           8
 73
           5
 74
           7
 42
0.00000000001
 43
0.00000000001
 44
0.00000000001
 40
0.0
 40
0.0
 40
0.0
 40
1.2321298483017773
 40
2.2113525386984714
 40
2.9387203954184691
 40
2.9387203954184691
 40
2.9387203954184691
 10
3918.786748155504
 20
1608.795754724697
 30
0.0
 10
3918.0674886786469
 20
1608.9759554282459
 30
0.0
 10
3917.1156265865338
 20
1609.2144315612629
 30
0.0
 10
3916.1387194830941
 20
1609.236855443452
 30
0.0
 10
3915.899996721676
 20
1609.242335075096
 30
0.0
 11
3918.786748155504
 21
1608.795754724697
 31
0.0
 11
3918.1147130094196
 21
1608.9641240128747
 31
0.0
 11
3917.5371265248814
 21
1609.1088304703098
 31
0.0
 11
3917.0808669612525
 21
1609.1912479321247
 31
0.0
 11
3916.5550881470626
 21
1609.2272981356639
 31
0.0
 11
3916.1831309587319
 21
1609.2358360244159
 31
0.0
 11
3915.899996721676
 21
1609.242335075096
 31
0.0
  0
SPLINE
  5
35F
100
AcDbEntity
  8
0
  6
CONTINUOUS
 62
           3
100
AcDbSpline
210
0.0
220
0.0
230
1.0
 70
           0
 71
           3
 72
           8
 73
           5
 74
           7
 42
0.00000000001
 43
0.00000000001
 44
0.00000000001
 40
0.0
 40
0.0
 40
0.0
 40
0.727367573956392
 40
1.7065896374631144
 40
2.9387184666013524
 40
2.9387184666013524
 40
2.9387184666013524
 10
3915.899996721676
 20
1604.242339843471
 30
0.0
 10
3916.1387194651579
 20
1604.247819567694
 30
0.0
 10
3917.115626026095
 20
1604.270243817949
 30
0.0
 10
3918.067488501054
 20
1604.5087154607149
 30
0.0
 10
3918.786748155364
 20
1604.6889127433419
 30
0.0
 11
3915.899996721676
 21
1604.242339843471
 31
0.0
 11
3916.1831309024924
 21
1604.2488390031485
 31
0.0
 11
3916.5550879579769
 21
1604.2573770337349
 31
0.0
 11
3917.0808665470117
 21
1604.2934269002949
 31
0.0
 11
3917.5371261778819
 21
1604.3758429315469
 31
0.0
 11
3918.1147128338389
 21
1604.5205466490797
 31
0.0
 11
3918.786748155364
 21
1604.6889127433419
 31
0.0
  0
SPLINE
  5
35E
100
AcDbEntity
  8
0
  6
CONTINUOUS
 62
           3
100
AcDbSpline
210
0.0
220
0.0
230
1.0
 70
           0
 71
           3
 72
           8
 73
           5
 74
           7
 42
0.00000000001
 43
0.00000000001
 44
0.00000000001
 40
0.0
 40
0.0
 40
0.0
 40
0.7097104926819869
 40
1.6878550560191483
 40
2.9354142011745048
 40
2.9354142011745048
 40
2.9354142011745048
 10
3913.0132452878461
 20
1604.688912743291
 30
0.0
 10
3913.2266018489572
 20
1604.6292714357789
 30
0.0
 10
3914.1669038516538
 20
1604.3664211132871
 30
0.0
 10
3915.1443416651741
 20
1604.296441179051
 30
0.0
 10
3915.899996721676
 20
1604.242339843471
 30
0.0
 11
3913.0132452878461
 21
1604.688912743291
 31
0.0
 11
3913.2721074221554
 21
1604.616550890087
 31
0.0
 11
3913.6219807028606
 21
1604.5187479454994
 31
0.0
 11
3914.138063311374
 21
1604.3968141865103
 31
0.0
 11
3914.5964648393301
 21
1604.335666573968
 31
0.0
 11
3915.1962862228384
 21
1604.2927221938853
 31
0.0
 11
3915.899996721676
 21
1604.242339843471
 31
0.0
  0
SPLINE
  5
35D
100
AcDbEntity
  8
0
  6
CONTINUOUS
 62
           3
100
AcDbSpline
210
0.0
220
0.0
230
1.0
 70
           0
 71
           3
 72
           8
 73
           5
 74
           7
 42
0.00000000001
 43
0.00000000001
 44
0.00000000001
 40
0.0
 40
0.0
 40
0.0
 40
0.2779453746519915
 40
0.7862815406671548
 40
1.5429606230909056
 40
1.5429606230909056
 40
1.5429606230909056
 10
3920.2301237560059
 20
1609.242335075096
 30
0.0
 10
3920.195907211953
 20
1609.241889376581
 30
0.0
 10
3919.708496704292
 20
1609.235540455476
 30
0.0
 10
3919.2308571205749
 20
1609.0076485063671
 30
0.0
 10
3918.786748155504
 20
1608.795754724697
 30
0.0
 11
3920.2301237560059
 21
1609.242335075096
 31
0.0
 11
3920.1613872424596
 21
1609.241439725703
 31
0.0
 11
3920.0236107899282
 21
1609.2396450745543
 31
0.0
 11
3919.7392913229332
 21
1609.2136724752108
 31
0.0
 11
3919.5165610932208
 21
1609.1439639153364
 31
0.0
 11
3919.191255872468
 21
1608.9887539131917
 31
0.0
 11
3918.786748155504
 21
1608.795754724697
 31
0.0
  0
SPLINE
  5
35C
100
AcDbEntity
  8
0
  6
CONTINUOUS
 62
           3
100
AcDbSpline
210
0.0
220
0.0
230
1.0
 70
           0
 71
           3
 72
           8
 73
           5
 74
           7
 42
0.00000000001
 43
0.00000000001
 44
0.00000000001
 40
0.0
 40
0.0
 40
0.0
 40
0.2779462752393158
 40
0.786282088328109
 40
1.5429577306527169
 40
1.5429577306527169
 40
1.5429577306527169
 10
3920.2301237560059
 20
1604.242339843471
 30
0.0
 10
3920.2643403043239
 20
1604.2427855513581
 30
0.0
 10
3920.7517526025058
 20
1604.249134628481
 30
0.0
 10
3921.229391315167
 20
1604.477022601664
 30
0.0
 10
3921.6734995893671
 20
1604.6889127433419
 30
0.0
 11
3920.2301237560059
 21
1604.242339843471
 31
0.0
 11
3920.2988605405503
 21
1604.2432352151079
 31
0.0
 11
3920.4366377975475
 21
1604.2450299142447
 31
0.0
 11
3920.7209578270881
 21
1604.2710022382835
 31
0.0
 11
3920.9436883057951
 21
1604.3407097819277
 31
0.0
 11
3921.2689926313737
 21
1604.4959169321494
 31
0.0
 11
3921.6734995893671
 21
1604.6889127433419
 31
0.0
  0
SPLINE
  5
35B
100
AcDbEntity
  8
0
  6
CONTINUOUS
 62
           3
100
AcDbSpline
210
0.0
220
0.0
230
1.0
 70
           0
 71
           3
 72
           8
 73
           5
 74
           7
 42
0.00000000001
 43
0.00000000001
 44
0.00000000001
 40
0.0
 40
0.0
 40
0.0
 40
0.2779463803323601
 40
0.7862830863395738
 40
1.5429609982596433
 40
1.5429609982596433
 40
1.5429609982596433
 10
3911.5698696873469
 20
1609.242335075096
 30
0.0
 10
3911.5356531385059
 20
1609.241889373468
 30
0.0
 10
3911.048240629877
 20
1609.235540382788
 30
0.0
 10
3910.570602033763
 20
1609.0076485042171
 30
0.0
 10
3910.1264938539748
 20
1608.7957547246349
 30
0.0
 11
3911.5698696873469
 21
1609.242335075096
 31
0.0
 11
3911.5011329221998
 21
1609.2414397162929
 31
0.0
 11
3911.3633557244375
 21
1609.2396450431384
 31
0.0
 11
3911.0790355250756
 21
1609.2136723841963
 31
0.0
 11
3910.8563051161136
 21
1609.1439637280705
 31
0.0
 11
3910.5310007594035
 21
1608.9887538652849
 31
0.0
 11
3910.1264938539748
 21
1608.7957547246349
 31
0.0
  0
SPLINE
  5
35A
100
AcDbEntity
  8
0
  6
CONTINUOUS
 62
           3
100
AcDbSpline
210
0.0
220
0.0
230
1.0
 70
           0
 71
           3
 72
           8
 73
           5
 74
           7
 42
0.00000000001
 43
0.00000000001
 44
0.00000000001
 40
0.0
 40
0.0
 40
0.0
 40
0.2779452695559723
 40
0.7862805426584856
 40
1.5429573554991487
 40
1.5429573554991487
 40
1.5429573554991487
 10
3911.5698696873469
 20
1604.242339843471
 30
0.0
 10
3911.604086230876
 20
1604.2427855482399
 30
0.0
 10
3912.0914965280858
 20
1604.249134555796
 30
0.0
 10
3912.569136228366
 20
1604.4770225995139
 30
0.0
 10
3913.0132452878461
 20
1604.688912743291
 30
0.0
 11
3911.5698696873469
 21
1604.242339843471
 31
0.0
 11
3911.6386062202878
 21
1604.2432352056942
 31
0.0
 11
3911.7763827320514
 21
1604.2450298828264
 31
0.0
 11
3912.0607020292277
 21
1604.271002147271
 31
0.0
 11
3912.2834323286875
 21
1604.340709594665
 31
0.0
 11
3912.608737518317
 21
1604.4959168842461
 31
0.0
 11
3913.0132452878461
 21
1604.688912743291
 31
0.0
  0
SPLINE
  5
359
100
AcDbEntity
  8
0
  6
CONTINUOUS
 62
           3
100
AcDbSpline
210
0.0
220
0.0
230
1.0
 70
           0
 71
           3
 72
           8
 73
           5
 74
           7
 42
0.00000000001
 43
0.00000000001
 44
0.00000000001
 40
0.0
 40
0.0
 40
0.0
 40
1.2475616964917644
 40
2.2257084622408927
 40
2.9354211178784921
 40
2.9354211178784921
 40
2.9354211178784921
 10
3915.899996721676
 20
1604.242339843471
 30
0.0
 10
3915.1443400642561
 20
1604.188244575902
 30
0.0
 10
3914.166898912586
 20
1604.1182723998991
 30
0.0
 10
3913.226601703765
 20
1603.8553988775909
 30
0.0
 10
3913.0132452878461
 20
1603.7957520424929
 30
0.0
 11
3915.899996721676
 21
1604.242339843471
 31
0.0
 11
3915.1962845668058
 21
1604.191963132123
 31
0.0
 11
3914.5964614170357
 21
1604.1490235332171
 31
0.0
 11
3914.1380594916341
 21
1604.0878751267378
 31
0.0
 11
3913.6219787243308
 21
1603.9659321739368
 31
0.0
 11
3913.2721068549267
 21
1603.868120492903
 31
0.0
 11
3913.0132452878461
 21
1603.7957520424929
 31
0.0
  0
SPLINE
  5
358
100
AcDbEntity
  8
0
  6
CONTINUOUS
 62
           3
100
AcDbSpline
210
0.0
220
0.0
230
1.0
 70
           0
 71
           3
 72
           8
 73
           5
 74
           7
 42
0.00000000001
 43
0.00000000001
 44
0.00000000001
 40
0.0
 40
0.0
 40
0.0
 40
1.2321308673571165
 40
2.211354184655375
 40
2.9387223241467284
 40
2.9387223241467284
 40
2.9387223241467284
 10
3918.786748155504
 20
1603.7957520424929
 30
0.0
 10
3918.0674888562462
 20
1603.9759561670089
 30
0.0
 10
3917.115627146984
 20
1604.214436790277
 30
0.0
 10
3916.1387195010338
 20
1604.2368603043999
 30
0.0
 10
3915.899996721676
 20
1604.242339843471
 30
0.0
 11
3918.786748155504
 21
1603.7957520424929
 31
0.0
 11
3918.1147131849775
 21
1603.9641245246185
 31
0.0
 11
3917.5371268719127
 21
1604.108833721963
 31
0.0
 11
3917.0808673755087
 21
1604.1912526143453
 31
0.0
 11
3916.5550883361539
 21
1604.2273031548643
 31
0.0
 11
3916.1831310149742
 21
1604.2358409017838
 31
0.0
 11
3915.899996721676
 21
1604.242339843471
 31
0.0
  0
SPLINE
  5
357
100
AcDbEntity
  8
0
  6
CONTINUOUS
 62
           3
100
AcDbSpline
210
0.0
220
0.0
230
1.0
 70
           0
 71
           3
 72
           8
 73
           5
 74
           7
 42
0.00000000001
 43
0.00000000001
 44
0.00000000001
 40
0.0
 40
0.0
 40
0.0
 40
0.727368139491377
 40
1.7065914567897695
 40
2.9387223240293689
 40
2.9387223240293689
 40
2.9387223240293689
 10
3915.899996721676
 20
1599.2423297106859
 30
0.0
 10
3916.1387195010338
 20
1599.247809249757
 30
0.0
 10
3917.115627146984
 20
1599.2702327638819
 30
0.0
 10
3918.0674888562462
 20
1599.5087133871509
 30
0.0
 10
3918.786748155364
 20
1599.6889175117419
 30
0.0
 11
3915.899996721676
 21
1599.2423297106859
 31
0.0
 11
3916.1831310149742
 21
1599.2488286523733
 31
0.0
 11
3916.5550883361539
 21
1599.2573663992932
 31
0.0
 11
3917.0808673755141
 21
1599.2934169398145
 31
0.0
 11
3917.5371268719355
 21
1599.3758358322016
 31
0.0
 11
3918.114713184948
 21
1599.5205450295614
 31
0.0
 11
3918.786748155364
 21
1599.6889175117419
 31
0.0
  0
SPLINE
  5
356
100
AcDbEntity
  8
0
  6
CONTINUOUS
 62
           3
100
AcDbSpline
210
0.0
220
0.0
230
1.0
 70
           0
 71
           3
 72
           8
 73
           5
 74
           7
 42
0.00000000001
 43
0.00000000001
 44
0.00000000001
 40
0.0
 40
0.0
 40
0.0
 40
0.709710718913886
 40
1.6878556121190571
 40
2.9354150974108935
 40
2.9354150974108935
 40
2.9354150974108935
 10
3913.0132452878461
 20
1599.6889175116651
 30
0.0
 10
3913.2266018694968
 20
1599.6292763691249
 30
0.0
 10
3914.166904550465
 20
1599.366426609382
 30
0.0
 10
3915.1443418916861
 20
1599.2964378662959
 30
0.0
 10
3915.899996721676
 20
1599.2423297106859
 30
0.0
 11
3913.0132452878461
 21
1599.6889175116651
 31
0.0
 11
3913.2721075078011
 21
1599.6165558416419
 31
0.0
 11
3913.6219810043676
 21
1599.5187531166534
 31
0.0
 11
3914.1380638628571
 21
1599.3968186332709
 31
0.0
 11
3914.5964653461306
 21
1599.3356681976661
 31
0.0
 11
3915.1962864627949
 21
1599.2927184102359
 31
0.0
 11
3915.899996721676
 21
1599.2423297106859
 31
0.0
  0
SPLINE
  5
355
100
AcDbEntity
  8
0
  6
CONTINUOUS
 62
           3
100
AcDbSpline
210
0.0
220
0.0
230
1.0
 70
           0
 71
           3
 72
           8
 73
           5
 74
           7
 42
0.00000000001
 43
0.00000000001
 44
0.00000000001
 40
0.0
 40
0.0
 40
0.0
 40
0.2779454797520858
 40
0.7862825386962706
 40
1.5429638907276872
 40
1.5429638907276872
 40
1.5429638907276872
 10
3920.2301237560059
 20
1604.242339843471
 30
0.0
 10
3920.1959072114259
 20
1604.241894151213
 30
0.0
 10
3919.7084964933119
 20
1604.2355453165569
 30
0.0
 10
3919.2308570261539
 20
1604.00764946205
 30
0.0
 10
3918.786748155504
 20
1603.7957520424929
 30
0.0
 11
3920.2301237560059
 21
1604.242339843471
 31
0.0
 11
3920.1613872618527
 21
1604.2414445069107
 31
0.0
 11
3920.0236108685526
 21
1604.2396498817457
 31
0.0
 11
3919.7392912317359
 21
1604.2136769475014
 31
0.0
 11
3919.5165610717686
 21
1604.1439672751462
 31
0.0
 11
3919.1912558198956
 21
1603.9887545604349
 31
0.0
 11
3918.786748155504
 21
1603.7957520424929
 31
0.0
  0
SPLINE
  5
354
100
AcDbEntity
  8
0
  6
CONTINUOUS
 62
           3
100
AcDbSpline
210
0.0
220
0.0
230
1.0
 70
           0
 71
           3
 72
           8
 73
           5
 74
           7
 42
0.00000000001
 43
0.00000000001
 44
0.00000000001
 40
0.0
 40
0.0
 40
0.0
 40
0.2779464854282235
 40
0.7862840843628147
 40
1.5429642658954825
 40
1.5429642658954825
 40
1.5429642658954825
 10
3920.2301237560059
 20
1599.2423297106859
 30
0.0
 10
3920.2643403053662
 20
1599.242775406065
 30
0.0
 10
3920.751753024455
 20
1599.2491243102941
 30
0.0
 10
3921.2293915040009
 20
1599.477020094253
 30
0.0
 10
3921.6734995893671
 20
1599.6889175117419
 30
0.0
 11
3920.2301237560059
 21
1599.2423297106859
 31
0.0
 11
3920.2988605017554
 21
1599.2432250566626
 31
0.0
 11
3920.4366376402836
 21
1599.2450197038345
 31
0.0
 11
3920.72095800947
 21
1599.2709926976759
 31
0.0
 11
3920.9436883486856
 21
1599.3407024662802
 31
0.0
 11
3921.2689927365141
 21
1599.4959150416321
 31
0.0
 11
3921.6734995893671
 21
1599.6889175117419
 31
0.0
  0
SPLINE
  5
353
100
AcDbEntity
  8
0
  6
CONTINUOUS
 62
           3
100
AcDbSpline
210
0.0
220
0.0
230
1.0
 70
           0
 71
           3
 72
           8
 73
           5
 74
           7
 42
0.00000000001
 43
0.00000000001
 44
0.00000000001
 40
0.0
 40
0.0
 40
0.0
 40
0.2779464854369911
 40
0.7862840843769154
 40
1.5429642658566634
 40
1.5429642658566634
 40
1.5429642658566634
 10
3911.5698696873469
 20
1604.242339843471
 30
0.0
 10
3911.535653137983
 20
1604.2418941480989
 30
0.0
 10
3911.0482404188838
 20
1604.235545243871
 30
0.0
 10
3910.5706019393419
 20
1604.007649459903
 30
0.0
 10
3910.1264938539748
 20
1603.7957520425391
 30
0.0
 11
3911.5698696873469
 21
1604.242339843471
 31
0.0
 11
3911.5011329415934
 21
1604.2414444974997
 31
0.0
 11
3911.3633558030597
 21
1604.2396498503299
 31
0.0
 11
3911.0790354338678
 21
1604.2136768564872
 31
0.0
 11
3910.8563050946459
 21
1604.1439670878767
 31
0.0
 11
3910.5310007068265
 21
1603.9887545125555
 31
0.0
 11
3910.1264938539748
 21
1603.7957520425391
 31
0.0
  0
SPLINE
  5
352
100
AcDbEntity
  8
0
  6
CONTINUOUS
 62
           3
100
AcDbSpline
210
0.0
220
0.0
230
1.0
 70
           0
 71
           3
 72
           8
 73
           5
 74
           7
 42
0.00000000001
 43
0.00000000001
 44
0.00000000001
 40
0.0
 40
0.0
 40
0.0
 40
0.277945479746656
 40
0.7862825386901031
 40
1.5429638907227394
 40
1.5429638907227394
 40
1.5429638907227394
 10
3911.5698696873469
 20
1599.2423297106859
 30
0.0
 10
3911.6040862319251
 20
1599.2427754029429
 30
0.0
 10
3912.0914969500318
 20
1599.249124237605
 30
0.0
 10
3912.569136417198
 20
1599.477020092108
 30
0.0
 10
3913.0132452878461
 20
1599.6889175116651
 30
0.0
 11
3911.5698696873469
 21
1599.2423297106859
 31
0.0
 11
3911.6386061814974
 21
1599.2432250472459
 31
0.0
 11
3911.7763825747934
 21
1599.2450196724126
 31
0.0
 11
3912.0607022116092
 21
1599.2709926066593
 31
0.0
 11
3912.2834323715779
 21
1599.3407022790138
 31
0.0
 11
3912.608737623455
 21
1599.4959149937238
 31
0.0
 11
3913.0132452878461
 21
1599.6889175116651
 31
0.0
  0
SPLINE
  5
351
100
AcDbEntity
  8
0
  6
CONTINUOUS
 62
           3
100
AcDbSpline
210
0.0
220
0.0
230
1.0
 70
           0
 71
           3
 72
           8
 73
           5
 74
           7
 42
0.00000000001
 43
0.00000000001
 44
0.00000000001
 40
0.0
 40
0.0
 40
0.0
 40
0.4813884775037964
 40
1.332565594238619
 40
2.5594910572521798
 40
2.5594910572521798
 40
2.5594910572521798
 10
3913.3999967775562
 20
1615.8423350393309
 30
0.0
 10
3913.4592615843958
 20
1615.842780737983
 30
0.0
 10
3914.303481700832
 20
1615.8491296622581
 30
0.0
 10
3915.1307775679629
 20
1616.077021608156
 30
0.0
 10
3915.899996721676
 20
1616.2889153897249
 30
0.0
 11
3913.3999967775562
 21
1615.8423350393309
 31
0.0
 11
3913.5206888783696
 21
1615.8432426995389
 31
0.0
 11
3913.7642355671296
 21
1615.8450742828591
 31
0.0
 11
3914.2533839007097
 21
1615.8714515770728
 31
0.0
 11
3914.6423366340455
 21
1615.9424727009159
 31
0.0
 11
3915.2009721229115
 21
1616.0963578267383
 31
0.0
 11
3915.899996721676
 21
1616.2889153897249
 31
0.0
  0
SPLINE
  5
350
100
AcDbEntity
  8
0
  6
CONTINUOUS
 62
           3
100
AcDbSpline
210
0.0
220
0.0
230
1.0
 70
           0
 71
           3
 72
           8
 73
           5
 74
           7
 42
0.00000000001
 43
0.00000000001
 44
0.00000000001
 40
0.0
 40
0.0
 40
0.0
 40
0.4813883392844416
 40
1.3325653926433256
 40
2.5594910488317986
 40
2.5594910488317986
 40
2.5594910488317986
 10
3918.399996665763
 20
1615.8423350393309
 30
0.0
 10
3918.4592614719459
 20
1615.8427807377391
 30
0.0
 10
3919.303481313294
 20
1615.8491296564951
 30
0.0
 10
3920.1307773327808
 20
1616.077021607985
 30
0.0
 10
3920.8999966098668
 20
1616.288915389732
 30
0.0
 11
3918.399996665763
 21
1615.8423350393309
 31
0.0
 11
3918.5206887308827
 21
1615.8432426987797
 31
0.0
 11
3918.7642353138758
 21
1615.8450742803097
 31
0.0
 11
3919.2533835507452
 21
1615.8714515694905
 31
0.0
 11
3919.642336262516
 21
1615.9424726846632
 31
0.0
 11
3920.2009718844865
 21
1616.0963578225915
 31
0.0
 11
3920.8999966098668
 21
1616.288915389732
 31
0.0
  0
SPLINE
  5
34F
100
AcDbEntity
  8
0
  6
CONTINUOUS
 62
           3
100
AcDbSpline
210
0.0
220
0.0
230
1.0
 70
           0
 71
           3
 72
           8
 73
           5
 74
           7
 42
0.00000000001
 43
0.00000000001
 44
0.00000000001
 40
0.0
 40
0.0
 40
0.0
 40
0.0169507227475378
 40
0.1476151553695217
 40
0.4465803504010637
 40
0.4465803504010637
 40
0.4465803504010637
 10
3910.8999968334351
 20
1615.8423350393309
 30
0.0
 10
3910.8999968334351
 20
1615.8479434646119
 30
0.0
 10
3910.8999968334351
 20
1615.870628059545
 30
0.0
 10
3910.8999968334351
 20
1616.1092723298559
 30
0.0
 10
3910.8999968334738
 20
1616.288915389732
 30
0.0
 11
3910.8999968334351
 21
1615.8423350393309
 31
0.0
 11
3910.8999968334351
 21
1615.8471925791612
 31
0.0
 11
3910.8999968334351
 21
1615.8505483480901
 31
0.0
 11
3910.8999968334351
 21
1615.8837530151877
 31
0.0
 11
3910.8999968334347
 21
1615.9432075935706
 31
0.0
 11
3910.8999968334442
 21
1616.1126669107534
 31
0.0
 11
3910.8999968334738
 21
1616.288915389732
 31
0.0
  0
SPLINE
  5
34E
100
AcDbEntity
  8
0
  6
CONTINUOUS
 62
           3
100
AcDbSpline
210
0.0
220
0.0
230
1.0
 70
           0
 71
           3
 72
           8
 73
           5
 74
           7
 42
0.00000000001
 43
0.00000000001
 44
0.00000000001
 40
0.0
 40
0.0
 40
0.0
 40
0.298965195031542
 40
0.4296296276535259
 40
0.4465803504010637
 40
0.4465803504010637
 40
0.4465803504010637
 10
3920.8999966098668
 20
1616.288915389732
 30
0.0
 10
3920.8999966099141
 20
1616.1092723298559
 30
0.0
 10
3920.8999966099141
 20
1615.870628059545
 30
0.0
 10
3920.8999966099141
 20
1615.8479434646119
 30
0.0
 10
3920.8999966099141
 20
1615.8423350393309
 30
0.0
 11
3920.8999966098668
 21
1616.288915389732
 31
0.0
 11
3920.8999966099022
 21
1616.1126669107537
 31
0.0
 11
3920.8999966099141
 21
1615.9432075935706
 31
0.0
 11
3920.8999966099136
 21
1615.8837530151877
 31
0.0
 11
3920.8999966099141
 21
1615.8505483480899
 31
0.0
 11
3920.8999966099141
 21
1615.8471925791614
 31
0.0
 11
3920.8999966099141
 21
1615.8423350393309
 31
0.0
  0
CIRCLE
  5
34D
100
AcDbEntity
  8
1
  6
CONTINUOUS
 62
           4
100
AcDbCircle
 10
0.0
 20
5539.999999999998
 40
100.9476
  0
CIRCLE
  5
34C
100
AcDbEntity
  8
1
  6
CONTINUOUS
 62
           4
100
AcDbCircle
 10
0.0
 20
5539.999999999998
 40
125.0
  0
CIRCLE
  5
34B
100
AcDbEntity
  8
1
  6
CONTINUOUS
 62
           7
100
AcDbCircle
 10
0.0
 20
5539.999999999998
 40
360.000000000002
  0
CIRCLE
  5
34A
100
AcDbEntity
  8
1
  6
CONTINUOUS
 62
           3
100
AcDbCircle
 10
-241.527744678121
 20
1526.84318409348
 40
40.0
  0
CIRCLE
  5
349
100
AcDbEntity
  8
1
  6
CONTINUOUS
 62
           7
100
AcDbCircle
 10
4300.000000000002
 20
831.64233576643
 40
14.999999999999
  0
CIRCLE
  5
348
100
AcDbEntity
  8
1
  6
CONTINUOUS
 62
           2
100
AcDbCircle
 10
4300.000000000002
 20
831.64233576643
 40
8.349999999999
  0
CIRCLE
  5
347
100
AcDbEntity
  8
1
  6
CONTINUOUS
 62
           7
100
AcDbCircle
 10
4300.000000000002
 20
831.64233576643
 40
7.499999999999
  0
ARC
  5
346
100
AcDbEntity
  8
1
  6
CONTINUOUS
 62
           7
100
AcDbCircle
 10
0.0
 20
5539.999999999998
 40
150.0
100
AcDbArc
 50
23.882765003116
 51
-89.999999999999
  0
ARC
  5
345
100
AcDbEntity
  8
1
  6
CONTINUOUS
 62
           7
100
AcDbCircle
 10
0.0
 20
5539.999999999998
 40
150.000000000002
100
AcDbArc
 50
-89.999999999999
 51
-23.882765003116
  0
ARC
  5
344
100
AcDbEntity
  8
1
  6
CONTINUOUS
 62
           7
100
AcDbCircle
 10
18.000000000004
 20
5484.999785420927
 40
459.999999999998
100
AcDbArc
 50
71.463109290188
 51
88.271493544498
  0
ARC
  5
343
100
AcDbEntity
  8
1
  6
CONTINUOUS
 62
           7
100
AcDbCircle
 10
-46.999999999996
 20
5494.999999999998
 40
524.999999999999
100
AcDbArc
 50
-2.792103456718
 51
-0.563719865862
  0
ARC
  5
342
100
AcDbEntity
  8
1
  6
CONTINUOUS
 62
           7
100
AcDbCircle
 10
-39.999999999996
 20
5589.999999999998
 40
620.000000000001
100
AcDbArc
 50
-174.912285430339
 51
-90.336887134984
  0
ARC
  5
341
100
AcDbEntity
  8
1
  6
CONTINUOUS
 62
           7
100
AcDbCircle
 10
452.450424338096
 20
5636.171306523445
 40
5.0
100
AcDbArc
 50
109.497261771683
 51
-90.0
  0
ARC
  5
340
100
AcDbEntity
  8
1
  6
CONTINUOUS
 62
           7
100
AcDbCircle
 10
18.000000000004
 20
5484.999785420927
 40
460.0
100
AcDbArc
 50
0.602232686388
 51
18.563086854737
  0
ARC
  5
33F
100
AcDbEntity
  8
1
  6
CONTINUOUS
 62
           7
100
AcDbCircle
 10
452.450424338096
 20
5636.171306523445
 40
5.0
100
AcDbArc
 50
-90.0
 51
-71.125521506265
  0
ARC
  5
33E
100
AcDbEntity
  8
1
  6
CONTINUOUS
 62
           7
100
AcDbCircle
 10
477.10941262802
 20
5464.433292707339
 40
5.000000000002
100
AcDbArc
 50
86.935058466849
 51
-93.610617686046
  0
ARC
  5
33D
100
AcDbEntity
  8
1
  6
CONTINUOUS
 62
           7
100
AcDbCircle
 10
-46.999999999996
 20
5494.999999999998
 40
525.000000000001
100
AcDbArc
 50
-89.633899153763
 51
-3.883455762483
  0
ARC
  5
33C
100
AcDbEntity
  8
1
  6
CONTINUOUS
 62
           7
100
AcDbCircle
 10
18.000000000004
 20
5484.999785420927
 40
459.999999999998
100
AcDbArc
 50
19.808653410673
 51
70.217542734251
  0
ARC
  5
33B
100
AcDbEntity
  8
1
  6
CONTINUOUS
 62
           7
100
AcDbCircle
 10
168.972870673508
 20
5919.519281324852
 40
5.0
100
AcDbArc
 50
161.151717651222
 51
-19.471065626773
  0
ARC
  5
33A
100
AcDbEntity
  8
1
  6
CONTINUOUS
 62
           7
100
AcDbCircle
 10
-39.999999999996
 20
5589.999999999998
 40
620.0
100
AcDbArc
 50
-179.999999999999
 51
-175.836413410616
  0
ARC
  5
339
100
AcDbEntity
  8
1
  6
CONTINUOUS
 62
           7
100
AcDbCircle
 10
-657.980582219212
 20
5539.999999999998
 40
4.999999999997
100
AcDbArc
 50
-85.143317425417
 51
94.394618584461
  0
ARC
  5
338
100
AcDbEntity
  8
7
  6
CONTINUOUS
 62
           7
100
AcDbCircle
 10
117.56
 20
3210.00233576643
 40
3.84
100
AcDbArc
 50
0.0
 51
90.0
  0
ARC
  5
337
100
AcDbEntity
  8
7
  6
CONTINUOUS
 62
           7
100
AcDbCircle
 10
116.5078244
 20
3216.242335766432
 40
2.400000000001
100
AcDbArc
 50
-124.999999999959
 51
-90.0
  0
ARC
  5
336
100
AcDbEntity
  8
7
  6
CONTINUOUS
 62
           7
100
AcDbCircle
 10
91.76
 20
3236.091696566431
 40
2.400000000001
100
AcDbArc
 50
180.0
 51
-124.999999999995
  0
ARC
  5
335
100
AcDbEntity
  8
7
  6
CONTINUOUS
 62
           7
100
AcDbCircle
 10
85.52
 20
3235.802335766429
 40
3.839999999998
100
AcDbArc
 50
0.0
 51
90.0
  0
ARC
  5
334
100
AcDbEntity
  8
7
  6
CONTINUOUS
 62
           7
100
AcDbCircle
 10
-94.76
 20
3236.091696566431
 40
2.400000000002
100
AcDbArc
 50
-55.000000000005
 51
0.0
  0
ARC
  5
333
100
AcDbEntity
  8
7
  6
CONTINUOUS
 62
           7
100
AcDbCircle
 10
-88.52
 20
3235.802335766429
 40
3.840000000001
100
AcDbArc
 50
90.0
 51
180.0
  0
ARC
  5
332
100
AcDbEntity
  8
7
  6
CONTINUOUS
 62
           7
100
AcDbCircle
 10
-113.959999999999
 20
3209.77596416643
 40
7.44
100
AcDbArc
 50
122.681915000008
 51
180.0
  0
ARC
  5
331
100
AcDbEntity
  8
7
  6
CONTINUOUS
 62
           7
100
AcDbCircle
 10
4426.039999999999
 20
3209.775964166432
 40
7.44
100
AcDbArc
 50
122.681915000008
 51
180.0
  0
ARC
  5
330
100
AcDbEntity
  8
7
  6
CONTINUOUS
 62
           7
100
AcDbCircle
 10
4451.479999999998
 20
3235.802335766431
 40
3.839999999999
100
AcDbArc
 50
90.0
 51
180.0
  0
ARC
  5
32F
100
AcDbEntity
  8
7
  6
CONTINUOUS
 62
           7
100
AcDbCircle
 10
4445.24
 20
3236.091696566432
 40
2.400000000002
100
AcDbArc
 50
-55.000000000005
 51
0.0
  0
ARC
  5
32E
100
AcDbEntity
  8
7
  6
CONTINUOUS
 62
           7
100
AcDbCircle
 10
4625.520000000002
 20
3235.802335766431
 40
3.839999999997
100
AcDbArc
 50
0.0
 51
90.0
  0
ARC
  5
32D
100
AcDbEntity
  8
7
  6
CONTINUOUS
 62
           7
100
AcDbCircle
 10
4631.76
 20
3236.091696566432
 40
2.400000000001
100
AcDbArc
 50
180.0
 51
-124.999999999995
  0
ARC
  5
32C
100
AcDbEntity
  8
7
  6
CONTINUOUS
 62
           7
100
AcDbCircle
 10
4656.507824400002
 20
3216.242335766433
 40
2.400000000003
100
AcDbArc
 50
-125.0
 51
-90.0
  0
ARC
  5
32B
100
AcDbEntity
  8
7
  6
CONTINUOUS
 62
           7
100
AcDbCircle
 10
4657.56
 20
3210.002335766431
 40
3.839999999999
100
AcDbArc
 50
0.0
 51
90.0
  0
ARC
  5
32A
100
AcDbEntity
  8
0
  6
CONTINUOUS
 62
           3
100
AcDbCircle
 10
3915.899996721676
 20
1586.642335766652
 40
4.0
100
AcDbArc
 50
180.0
 51
0.0
  0
ARC
  5
329
100
AcDbEntity
  8
0
  6
CONTINUOUS
 62
           3
100
AcDbCircle
 10
3915.899996721676
 20
1546.642335766488
 40
45.99999999997
100
AcDbArc
 50
180.0
 51
0.0
  0
ARC
  5
328
100
AcDbEntity
  8
0
  6
CONTINUOUS
 62
           3
100
AcDbCircle
 10
3915.899996721676
 20
1546.642335766488
 40
53.999999999963
100
AcDbArc
 50
180.0
 51
0.0
  0
ARC
  5
327
100
AcDbEntity
  8
0
  6
CONTINUOUS
 62
           3
100
AcDbCircle
 10
3909.426494029874
 20
1621.642335766426
 40
0.900000000001
100
AcDbArc
 50
-117.266044450492
 51
-90.0
  0
ARC
  5
326
100
AcDbEntity
  8
0
  6
CONTINUOUS
 62
           3
100
AcDbCircle
 10
3922.373499413463
 20
1621.642335766426
 40
0.900000000001
100
AcDbArc
 50
-90.0
 51
-62.733955549456
  0
ARC
  5
325
100
AcDbEntity
  8
0
  6
CONTINUOUS
 62
           3
100
AcDbCircle
 10
3857.899996721816
 20
1762.64233576631
 40
0.999999999997
100
AcDbArc
 50
-90.0
 51
90.0
  0
ARC
  5
324
100
AcDbEntity
  8
0
  6
CONTINUOUS
 62
           3
100
AcDbCircle
 10
3973.899996721524
 20
1762.64233576631
 40
1.0
100
AcDbArc
 50
90.0
 51
-90.0
  0
ARC
  5
323
100
AcDbEntity
  8
0
  6
CONTINUOUS
 62
           3
100
AcDbCircle
 10
3973.899996721524
 20
1740.642335766426
 40
1.0
100
AcDbArc
 50
90.0
 51
-90.0
  0
ARC
  5
322
100
AcDbEntity
  8
0
  6
CONTINUOUS
 62
           3
100
AcDbCircle
 10
3973.899996721524
 20
1662.642335766492
 40
0.999999999996
100
AcDbArc
 50
90.0
 51
-90.0
  0
ARC
  5
321
100
AcDbEntity
  8
0
  6
CONTINUOUS
 62
           3
100
AcDbCircle
 10
3973.899996721524
 20
1640.642335766608
 40
1.0
100
AcDbArc
 50
90.0
 51
-90.0
  0
ARC
  5
320
100
AcDbEntity
  8
0
  6
CONTINUOUS
 62
           3
100
AcDbCircle
 10
3857.899996721816
 20
1640.642335766608
 40
0.999999999996
100
AcDbArc
 50
-90.0
 51
90.0
  0
ARC
  5
31F
100
AcDbEntity
  8
0
  6
CONTINUOUS
 62
           3
100
AcDbCircle
 10
3857.899996721816
 20
1662.642335766492
 40
1.0
100
AcDbArc
 50
-90.0
 51
90.0
  0
ARC
  5
31E
100
AcDbEntity
  8
0
  6
CONTINUOUS
 62
           3
100
AcDbCircle
 10
3857.899996721816
 20
1740.642335766426
 40
0.999999999996
100
AcDbArc
 50
-90.0
 51
90.0
  0
ARC
  5
31D
100
AcDbEntity
  8
0
  6
CONTINUOUS
 62
           3
100
AcDbCircle
 10
3853.399996721826
 20
1599.642335766544
 40
2.49999999999
100
AcDbArc
 50
0.0
 51
180.0
  0
ARC
  5
31C
100
AcDbEntity
  8
0
  6
CONTINUOUS
 62
           3
100
AcDbCircle
 10
3853.399996721826
 20
1863.642335766328
 40
2.5
100
AcDbArc
 50
180.0
 51
0.0
  0
ARC
  5
31B
100
AcDbEntity
  8
0
  6
CONTINUOUS
 62
           3
100
AcDbCircle
 10
3978.399996721515
 20
1863.642335766328
 40
2.499999999991
100
AcDbArc
 50
180.0
 51
0.0
  0
ARC
  5
31A
100
AcDbEntity
  8
0
  6
CONTINUOUS
 62
           3
100
AcDbCircle
 10
3978.399996721515
 20
1599.642335766544
 40
2.5
100
AcDbArc
 50
0.0
 51
180.0
  0
ARC
  5
319
100
AcDbEntity
  8
1
  6
CONTINUOUS
 62
           3
100
AcDbCircle
 10
4420.163567691044
 20
2156.64233576643
 40
5.871834995066
100
AcDbArc
 50
-90.0
 51
0.0
  0
ARC
  5
318
100
AcDbEntity
  8
1
  6
CONTINUOUS
 62
           3
100
AcDbCircle
 10
4420.163567691044
 20
2156.64233576643
 40
5.871834995069
100
AcDbArc
 50
38.599713917933
 51
90.0
  0
ARC
  5
317
100
AcDbEntity
  8
1
  6
CONTINUOUS
 62
           3
100
AcDbCircle
 10
4420.163567691044
 20
2156.64233576643
 40
5.871834995061
100
AcDbArc
 50
0.0
 51
38.599713917933
  0
ARC
  5
316
100
AcDbEntity
  8
1
  6
CONTINUOUS
 62
           3
100
AcDbCircle
 10
4420.163567691044
 20
2156.64233576643
 40
9.5
100
AcDbArc
 50
0.0
 51
125.91695737144
  0
ARC
  5
315
100
AcDbEntity
  8
1
  6
CONTINUOUS
 62
           3
100
AcDbCircle
 10
4420.163567691044
 20
2156.64233576643
 40
9.499999999998
100
AcDbArc
 50
-124.797812779178
 51
0.0
  0
ARC
  5
314
100
AcDbEntity
  8
1
  6
CONTINUOUS
 62
           3
100
AcDbCircle
 10
-241.527744678121
 20
1526.84318409348
 40
28.750000000009
100
AcDbArc
 50
83.827497999998
 51
96.17250199999
  0
ARC
  5
313
100
AcDbEntity
  8
1
  6
CONTINUOUS
 62
           3
100
AcDbCircle
 10
-241.527744678121
 20
1526.84318409348
 40
28.749999999988
100
AcDbArc
 50
-96.172501999994
 51
-83.827497999994
  0
ARC
  5
312
100
AcDbEntity
  8
1
  6
CONTINUOUS
 62
           3
100
AcDbCircle
 10
-241.527744678121
 20
1526.84318409348
 40
10.75
100
AcDbArc
 50
0.0
 51
61.226493000001
  0
ARC
  5
311
100
AcDbEntity
  8
1
  6
CONTINUOUS
 62
           3
100
AcDbCircle
 10
-241.527744678121
 20
1526.84318409348
 40
10.750000000001
100
AcDbArc
 50
-61.226493000023
 51
0.0
  0
ARC
  5
310
100
AcDbEntity
  8
1
  6
CONTINUOUS
 62
           3
100
AcDbCircle
 10
-241.527744678121
 20
1526.84318409348
 40
10.74999999999
100
AcDbArc
 50
118.773506999971
 51
-118.773506999948
  0
ARC
  5
30F
100
AcDbEntity
  8
1
  6
CONTINUOUS
 62
           3
100
AcDbCircle
 10
-237.489442678121
 20
1526.84318409348
 40
10.0
100
AcDbArc
 50
174.993206999976
 51
-174.993207000022
  0
ARC
  5
30E
100
AcDbEntity
  8
1
  6
CONTINUOUS
 62
           3
100
AcDbCircle
 10
-245.566047678115
 20
1526.84318409348
 40
9.999999999999
100
AcDbArc
 50
-5.006792999977
 51
5.006793000024
  0
ARC
  5
30D
100
AcDbEntity
  8
1
  6
CONTINUOUS
 62
           3
100
AcDbCircle
 10
-244.565247678121
 20
1554.92941009348
 40
0.5
100
AcDbArc
 50
96.172501999315
 51
174.99320699856
  0
ARC
  5
30C
100
AcDbEntity
  8
1
  6
CONTINUOUS
 62
           3
100
AcDbCircle
 10
-238.490241678122
 20
1554.92941009348
 40
0.500000000005
100
AcDbArc
 50
5.006793001362
 51
83.827497998175
  0
ARC
  5
30B
100
AcDbEntity
  8
1
  6
CONTINUOUS
 62
           3
100
AcDbCircle
 10
-244.565247678121
 20
1498.756958093489
 40
0.499999999996
100
AcDbArc
 50
-174.993206999702
 51
-96.172501999304
  0
ARC
  5
30A
100
AcDbEntity
  8
1
  6
CONTINUOUS
 62
           3
100
AcDbCircle
 10
-238.490241678122
 20
1498.756958093489
 40
0.500000000003
100
AcDbArc
 50
-83.827497998186
 51
-5.00679300022
  0
ARC
  5
309
100
AcDbEntity
  8
1
  6
CONTINUOUS
 62
           7
100
AcDbCircle
 10
3402.000000000001
 20
1488.392335766433
 40
17.0
100
AcDbArc
 50
180.0
 51
-90.0
  0
ARC
  5
308
100
AcDbEntity
  8
1
  6
CONTINUOUS
 62
           7
100
AcDbCircle
 10
3402.000000000001
 20
1488.392335766433
 40
37.0
100
AcDbArc
 50
180.0
 51
-90.0
  0
LINE
  5
307
100
AcDbEntity
  8
1
  6
CONTINUOUS
 62
           4
100
AcDbLine
 10
134.432661752784
 20
5482.499999999998
 11
117.908702762046
 21
5482.499999999998
  0
LINE
  5
306
100
AcDbEntity
  8
1
  6
CONTINUOUS
 62
           4
100
AcDbLine
 10
134.432661752784
 20
5597.499999999998
 11
117.908702762046
 21
5597.499999999998
  0
LINE
  5
305
100
AcDbEntity
  8
1
  6
CONTINUOUS
 62
           7
100
AcDbLine
 10
185.000000000002
 20
5476.499999999998
 11
144.824966598197
 21
5476.499999999998
  0
LINE
  5
304
100
AcDbEntity
  8
1
  6
CONTINUOUS
 62
           7
100
AcDbLine
 10
144.824966598197
 20
5603.499999999998
 11
185.000000000002
 21
5603.499999999998
  0
LINE
  5
303
100
AcDbEntity
  8
1
  6
CONTINUOUS
 62
           7
100
AcDbLine
 10
132.824966598197
 20
5488.499999999998
 11
132.824966598197
 21
5591.499999999998
  0
LINE
  5
302
100
AcDbEntity
  8
1
  6
CONTINUOUS
 62
           7
100
AcDbLine
 10
197.000000000002
 20
5591.499999999998
 11
197.000000000002
 21
5488.499999999998
  0
LINE
  5
301
100
AcDbEntity
  8
1
  6
CONTINUOUS
 62
           4
100
AcDbLine
 10
-689.999999999996
 20
6045.499999999998
 11
40.000000000004
 21
6045.499999999998
  0
LINE
  5
300
100
AcDbEntity
  8
1
  6
CONTINUOUS
 62
           7
100
AcDbLine
 10
40.000000000004
 20
6049.999999999998
 11
-689.999999999996
 21
6049.999999999998
  0
LINE
  5
2FF
100
AcDbEntity
  8
1
  6
CONTINUOUS
 62
           4
100
AcDbLine
 10
40.000000000004
 20
6054.499999999998
 11
-689.999999999996
 21
6054.499999999998
  0
LINE
  5
2FE
100
AcDbEntity
  8
1
  6
DOT_CENTER
 62
           2
100
AcDbLine
 10
-324.999999999996
 20
6158.888968922947
 11
-324.999999999996
 21
5726.651872456057
  0
LINE
  5
2FD
100
AcDbEntity
  8
1
  6
CONTINUOUS
 62
           7
100
AcDbLine
 10
0.000000000002
 20
5999.999999999998
 11
0.000000000004
 21
6009.999999999998
  0
LINE
  5
2FC
100
AcDbEntity
  8
1
  6
CONTINUOUS
 62
           7
100
AcDbLine
 10
-649.999999999996
 20
6009.999999999998
 11
-649.999999999996
 21
5999.999999999998
  0
LINE
  5
2FB
100
AcDbEntity
  8
1
  6
CONTINUOUS
 62
           7
100
AcDbLine
 10
-659.999999999996
 20
5989.999999999998
 11
-649.999999999996
 21
5999.999999999998
  0
LINE
  5
2FA
100
AcDbEntity
  8
1
  6
CONTINUOUS
 62
           7
100
AcDbLine
 10
31.875234341349
 20
5944.790474617623
 11
0.000000000002
 21
5999.999999999998
  0
LINE
  5
2F9
100
AcDbEntity
  8
1
  6
CONTINUOUS
 62
           7
100
AcDbLine
 10
-659.999999999996
 20
5989.999999999998
 11
-659.999999999996
 21
5589.999999999996
  0
LINE
  5
2F8
100
AcDbEntity
  8
1
  6
CONTINUOUS
 62
           7
100
AcDbLine
 10
-689.999999999996
 20
6084.999999999998
 11
-689.999999999996
 21
6049.999999999998
  0
LINE
  5
2F7
100
AcDbEntity
  8
1
  6
CONTINUOUS
 62
           7
100
AcDbLine
 10
-689.999999999996
 20
6084.999999999998
 11
-684.999999999996
 21
6089.999999999998
  0
LINE
  5
2F6
100
AcDbEntity
  8
1
  6
CONTINUOUS
 62
           7
100
AcDbLine
 10
35.000000000004
 20
6089.999999999998
 11
-684.999999999996
 21
6089.999999999998
  0
LINE
  5
2F5
100
AcDbEntity
  8
1
  6
CONTINUOUS
 62
           7
100
AcDbLine
 10
35.000000000004
 20
6089.999999999998
 11
40.000000000004
 21
6084.999999999998
  0
LINE
  5
2F4
100
AcDbEntity
  8
1
  6
CONTINUOUS
 62
           7
100
AcDbLine
 10
40.000000000004
 20
6049.999999999998
 11
40.000000000004
 21
6084.999999999998
  0
LINE
  5
2F3
100
AcDbEntity
  8
1
  6
CONTINUOUS
 62
           7
100
AcDbLine
 10
40.000000000004
 20
6014.999999999998
 11
40.000000000004
 21
6049.999999999998
  0
LINE
  5
2F2
100
AcDbEntity
  8
1
  6
CONTINUOUS
 62
           7
100
AcDbLine
 10
40.000000000004
 20
6014.999999999998
 11
35.000000000004
 21
6009.999999999998
  0
LINE
  5
2F1
100
AcDbEntity
  8
1
  6
CONTINUOUS
 62
           7
100
AcDbLine
 10
-684.999999999996
 20
6009.999999999998
 11
35.000000000004
 21
6009.999999999998
  0
LINE
  5
2F0
100
AcDbEntity
  8
1
  6
CONTINUOUS
 62
           7
100
AcDbLine
 10
-684.999999999996
 20
6009.999999999998
 11
-689.999999999996
 21
6014.999999999998
  0
LINE
  5
2EF
100
AcDbEntity
  8
1
  6
CONTINUOUS
 62
           7
100
AcDbLine
 10
-689.999999999996
 20
6049.999999999998
 11
-689.999999999996
 21
6014.999999999998
  0
LINE
  5
2EE
100
AcDbEntity
  8
1
  6
CONTINUOUS
 62
           7
100
AcDbLine
 10
445.000000000004
 20
5639.999999999998
 11
170.000000200063
 21
5914.999999999998
  0
LINE
  5
2ED
100
AcDbEntity
  8
1
  6
CONTINUOUS
 62
           7
100
AcDbLine
 10
-645.983368801932
 20
5535.531349823827
 11
-56.963420073538
 21
4946.511401095431
  0
LINE
  5
2EC
100
AcDbEntity
  8
1
  6
CONTINUOUS
 62
           7
100
AcDbLine
 10
-179.999999999996
 20
6009.999999999998
 11
-649.999999999998
 21
5539.999999999998
  0
LINE
  5
2EB
100
AcDbEntity
  8
1
  6
CONTINUOUS
 62
           7
100
AcDbLine
 10
-650.226009489052
 20
5539.773990510947
 11
-645.983368801932
 21
5535.531349823827
  0
LINE
  5
2EA
100
AcDbEntity
  8
1
  6
CONTINUOUS
 62
           7
100
AcDbLine
 10
-52.720779386418
 20
4942.268760408311
 11
470.538238691626
 21
5465.527778486356
  0
LINE
  5
2E9
100
AcDbEntity
  8
1
  6
CONTINUOUS
 62
           7
100
AcDbLine
 10
-56.963420073538
 20
4946.511401095431
 11
-52.720779386418
 21
4942.268760408311
  0
LINE
  5
2E8
100
AcDbEntity
  8
1
  6
CONTINUOUS
 62
           7
100
AcDbLine
 10
-649.999999999998
 20
5539.999999999998
 11
-650.226009489052
 21
5539.773990510947
  0
LINE
  5
2E7
100
AcDbEntity
  8
1
  6
CONTINUOUS
 62
           7
100
AcDbLine
 10
216.0
 20
5324.0
 11
216.000000000004
 21
5809.999999999998
  0
LINE
  5
2E6
100
AcDbEntity
  8
1
  6
CONTINUOUS
 62
           7
100
AcDbLine
 10
-215.999999999996
 20
5324.0
 11
270.000000000004
 21
5324.0
  0
LINE
  5
2E5
100
AcDbEntity
  8
1
  6
CONTINUOUS
 62
           7
100
AcDbLine
 10
-215.999999999998
 20
5756.0
 11
-215.999999999996
 21
5269.999999999998
  0
LINE
  5
2E4
100
AcDbEntity
  8
1
  6
CONTINUOUS
 62
           7
100
AcDbLine
 10
216.000000000004
 20
5756.0
 11
-269.999999999996
 21
5756.0
  0
LINE
  5
2E3
100
AcDbEntity
  8
1
  6
CONTINUOUS
 62
           7
100
AcDbLine
 10
197.000000000002
 20
3019.942335766431
 11
197.000000000002
 21
2943.942335766431
  0
LINE
  5
2E2
100
AcDbEntity
  8
1
  6
CONTINUOUS
 62
           7
100
AcDbLine
 10
122.496396800001
 20
2943.942335766431
 11
122.496396800001
 21
3019.942335766431
  0
LINE
  5
2E1
100
AcDbEntity
  8
1
  6
CONTINUOUS
 62
           7
100
AcDbLine
 10
134.496396799999
 20
3031.942335766431
 11
185.000000000002
 21
3031.942335766431
  0
LINE
  5
2E0
100
AcDbEntity
  8
1
  6
CONTINUOUS
 62
           7
100
AcDbLine
 10
185.000000000002
 20
2931.942335766431
 11
134.496396799999
 21
2931.942335766431
  0
LINE
  5
2DF
100
AcDbEntity
  8
2
  6
CONTINUOUS
 62
           4
100
AcDbLine
 10
109.242370399999
 20
2890.742335766431
 11
-112.242370399999
 21
2890.742335766431
  0
LINE
  5
2DE
100
AcDbEntity
  8
7
  6
CONTINUOUS
 62
           7
100
AcDbLine
 10
125.0
 20
3176.874201014472
 11
125.0
 21
3143.82915496643
  0
LINE
  5
2DD
100
AcDbEntity
  8
7
  6
CONTINUOUS
 62
           7
100
AcDbLine
 10
-125.0
 20
3176.874201014472
 11
-121.400000000002
 21
3209.77596416643
  0
LINE
  5
2DC
100
AcDbEntity
  8
1
  6
CONTINUOUS
 62
           4
100
AcDbLine
 10
125.0
 20
3176.874201014472
 11
-125.0
 21
3176.874201014472
  0
LINE
  5
2DB
100
AcDbEntity
  8
2
  6
CONTINUOUS
 62
           7
100
AcDbLine
 10
-112.242370399999
 20
2890.742335766431
 11
-125.496396800001
 21
2922.542335766434
  0
LINE
  5
2DA
100
AcDbEntity
  8
2
  6
CONTINUOUS
 62
           7
100
AcDbLine
 10
-125.496396800001
 20
2997.792335766434
 11
-125.496396800001
 21
2922.542335766434
  0
LINE
  5
2D9
100
AcDbEntity
  8
2
  6
CONTINUOUS
 62
           7
100
AcDbLine
 10
-119.7446492
 20
3143.82915496643
 11
-125.496396800001
 21
3130.02915496643
  0
LINE
  5
2D8
100
AcDbEntity
  8
2
  6
CONTINUOUS
 62
           7
100
AcDbLine
 10
-125.496396800001
 20
2997.792335766434
 11
-125.496396800001
 21
3130.02915496643
  0
LINE
  5
2D7
100
AcDbEntity
  8
2
  6
CONTINUOUS
 62
           4
100
AcDbLine
 10
-107.060000000001
 20
2890.742335766431
 11
-107.060000000001
 21
2880.642335766432
  0
LINE
  5
2D6
100
AcDbEntity
  8
2
  6
CONTINUOUS
 62
           4
100
AcDbLine
 10
104.06
 20
2880.642335766432
 11
104.06
 21
2890.742335766431
  0
LINE
  5
2D5
100
AcDbEntity
  8
2
  6
CONTINUOUS
 62
           7
100
AcDbLine
 10
122.496396800001
 20
3130.02915496643
 11
122.496396800001
 21
2997.792335766434
  0
LINE
  5
2D4
100
AcDbEntity
  8
2
  6
CONTINUOUS
 62
           7
100
AcDbLine
 10
122.496396800001
 20
3130.02915496643
 11
116.7446492
 21
3143.82915496643
  0
LINE
  5
2D3
100
AcDbEntity
  8
2
  6
CONTINUOUS
 62
           7
100
AcDbLine
 10
122.496396800001
 20
2922.542335766434
 11
122.496396800001
 21
2997.792335766434
  0
LINE
  5
2D2
100
AcDbEntity
  8
2
  6
CONTINUOUS
 62
           7
100
AcDbLine
 10
122.496396800001
 20
2922.542335766434
 11
109.242370399999
 21
2890.742335766431
  0
LINE
  5
2D1
100
AcDbEntity
  8
7
  6
CONTINUOUS
 62
           7
100
AcDbLine
 10
0.0
 20
3239.64233576643
 11
85.52
 21
3239.64233576643
  0
LINE
  5
2D0
100
AcDbEntity
  8
7
  6
CONTINUOUS
 62
           7
100
AcDbLine
 10
90.3834164
 20
3234.12573176643
 11
115.131240799999
 21
3214.276370966431
  0
LINE
  5
2CF
100
AcDbEntity
  8
7
  6
CONTINUOUS
 62
           4
100
AcDbLine
 10
-120.190427600001
 20
3213.842335766431
 11
117.56
 21
3213.842335766431
  0
LINE
  5
2CE
100
AcDbEntity
  8
7
  6
CONTINUOUS
 62
           7
100
AcDbLine
 10
121.4
 20
3210.00233576643
 11
125.0
 21
3176.874201014472
  0
LINE
  5
2CD
100
AcDbEntity
  8
7
  6
CONTINUOUS
 62
           7
100
AcDbLine
 10
125.0
 20
3143.82915496643
 11
-125.0
 21
3143.82915496643
  0
LINE
  5
2CC
100
AcDbEntity
  8
7
  6
CONTINUOUS
 62
           7
100
AcDbLine
 10
-125.0
 20
3143.82915496643
 11
-125.0
 21
3176.874201014472
  0
LINE
  5
2CB
100
AcDbEntity
  8
7
  6
CONTINUOUS
 62
           7
100
AcDbLine
 10
0.0
 20
3239.64233576643
 11
-88.52
 21
3239.64233576643
  0
LINE
  5
2CA
100
AcDbEntity
  8
7
  6
CONTINUOUS
 62
           7
100
AcDbLine
 10
-93.3834176
 20
3234.12573176643
 11
-117.977411600001
 21
3216.038072966428
  0
LINE
  5
2C9
100
AcDbEntity
  8
1
  6
DOT_CENTER
 62
           2
100
AcDbLine
 10
5150.588082276607
 20
2616.642335766431
 11
3915.991794870068
 21
2616.642335766431
  0
LINE
  5
2C8
100
AcDbEntity
  8
2
  6
CONTINUOUS
 62
           4
100
AcDbLine
 10
4644.06
 20
2880.642335766431
 11
4644.06
 21
2890.74233576643
  0
LINE
  5
2C7
100
AcDbEntity
  8
7
  6
CONTINUOUS
 62
           7
100
AcDbLine
 10
4446.6165824
 20
3234.12573176643
 11
4422.022588399997
 21
3216.038072966431
  0
LINE
  5
2C6
100
AcDbEntity
  8
7
  6
CONTINUOUS
 62
           7
100
AcDbLine
 10
4540.000000000002
 20
3239.64233576643
 11
4451.479999999998
 21
3239.64233576643
  0
LINE
  5
2C5
100
AcDbEntity
  8
7
  6
CONTINUOUS
 62
           7
100
AcDbLine
 10
4415.000000000002
 20
3143.829154966431
 11
4415.000000000002
 21
3176.874201014473
  0
LINE
  5
2C4
100
AcDbEntity
  8
7
  6
CONTINUOUS
 62
           7
100
AcDbLine
 10
4665.000000000002
 20
3143.829154966431
 11
4415.000000000002
 21
3143.829154966431
  0
LINE
  5
2C3
100
AcDbEntity
  8
7
  6
CONTINUOUS
 62
           7
100
AcDbLine
 10
4661.4
 20
3210.002335766431
 11
4665.000000000002
 21
3176.874201014473
  0
LINE
  5
2C2
100
AcDbEntity
  8
7
  6
CONTINUOUS
 62
           4
100
AcDbLine
 10
4419.8095724
 20
3213.842335766431
 11
4657.56
 21
3213.842335766431
  0
LINE
  5
2C1
100
AcDbEntity
  8
7
  6
CONTINUOUS
 62
           7
100
AcDbLine
 10
4630.383416400002
 20
3234.12573176643
 11
4655.131240799999
 21
3214.276370966431
  0
LINE
  5
2C0
100
AcDbEntity
  8
7
  6
CONTINUOUS
 62
           7
100
AcDbLine
 10
4540.000000000002
 20
3239.64233576643
 11
4625.520000000002
 21
3239.64233576643
  0
LINE
  5
2BF
100
AcDbEntity
  8
2
  6
CONTINUOUS
 62
           7
100
AcDbLine
 10
4662.496396799999
 20
2922.542335766433
 11
4649.242370399998
 21
2890.74233576643
  0
LINE
  5
2BE
100
AcDbEntity
  8
2
  6
CONTINUOUS
 62
           7
100
AcDbLine
 10
4662.496396799999
 20
2922.542335766433
 11
4662.496396799999
 21
2997.792335766433
  0
LINE
  5
2BD
100
AcDbEntity
  8
2
  6
CONTINUOUS
 62
           7
100
AcDbLine
 10
4662.496396799999
 20
3130.029154966431
 11
4656.7446492
 21
3143.829154966431
  0
LINE
  5
2BC
100
AcDbEntity
  8
2
  6
CONTINUOUS
 62
           7
100
AcDbLine
 10
4662.496396799999
 20
3130.029154966431
 11
4662.496396799999
 21
2997.792335766433
  0
LINE
  5
2BB
100
AcDbEntity
  8
2
  6
CONTINUOUS
 62
           4
100
AcDbLine
 10
4432.940000000001
 20
2890.74233576643
 11
4432.940000000001
 21
2880.642335766431
  0
LINE
  5
2BA
100
AcDbEntity
  8
2
  6
CONTINUOUS
 62
           7
100
AcDbLine
 10
4414.503603200001
 20
2997.792335766433
 11
4414.503603200001
 21
3130.029154966431
  0
LINE
  5
2B9
100
AcDbEntity
  8
2
  6
CONTINUOUS
 62
           7
100
AcDbLine
 10
4420.2553508
 20
3143.829154966431
 11
4414.503603200001
 21
3130.029154966431
  0
LINE
  5
2B8
100
AcDbEntity
  8
2
  6
CONTINUOUS
 62
           7
100
AcDbLine
 10
4414.503603200001
 20
2997.792335766433
 11
4414.503603200001
 21
2922.542335766433
  0
LINE
  5
2B7
100
AcDbEntity
  8
2
  6
CONTINUOUS
 62
           7
100
AcDbLine
 10
4427.757629599999
 20
2890.74233576643
 11
4414.503603200001
 21
2922.542335766433
  0
LINE
  5
2B6
100
AcDbEntity
  8
1
  6
CONTINUOUS
 62
           4
100
AcDbLine
 10
4665.000000000002
 20
3176.874201014473
 11
4415.000000000002
 21
3176.874201014473
  0
LINE
  5
2B5
100
AcDbEntity
  8
7
  6
CONTINUOUS
 62
           7
100
AcDbLine
 10
4415.000000000002
 20
3176.874201014473
 11
4418.6
 21
3209.775964166432
  0
LINE
  5
2B4
100
AcDbEntity
  8
7
  6
CONTINUOUS
 62
           7
100
AcDbLine
 10
4665.000000000002
 20
3176.874201014473
 11
4665.000000000002
 21
3143.829154966431
  0
LINE
  5
2B3
100
AcDbEntity
  8
2
  6
CONTINUOUS
 62
           4
100
AcDbLine
 10
4649.242370399998
 20
2890.74233576643
 11
4427.757629599999
 21
2890.74233576643
  0
LINE
  5
2B2
100
AcDbEntity
  8
1
  6
CONTINUOUS
 62
           7
100
AcDbLine
 10
4591.500000000002
 20
2931.94233576643
 11
4488.500000000002
 21
2931.94233576643
  0
LINE
  5
2B1
100
AcDbEntity
  8
1
  6
CONTINUOUS
 62
           7
100
AcDbLine
 10
4488.500000000002
 20
3031.94233576643
 11
4591.500000000002
 21
3031.94233576643
  0
LINE
  5
2B0
100
AcDbEntity
  8
1
  6
CONTINUOUS
 62
           7
100
AcDbLine
 10
4476.500000000002
 20
2943.94233576643
 11
4476.500000000002
 21
3019.94233576643
  0
LINE
  5
2AF
100
AcDbEntity
  8
1
  6
CONTINUOUS
 62
           7
100
AcDbLine
 10
4603.500000000002
 20
3019.94233576643
 11
4603.500000000002
 21
2943.94233576643
  0
LINE
  5
2AE
100
AcDbEntity
  8
1
  6
CONTINUOUS
 62
           7
100
AcDbLine
 10
4465.527778486359
 20
2358.642335766431
 11
3942.268760408317
 21
2358.642335766431
  0
LINE
  5
2AD
100
AcDbEntity
  8
1
  6
CONTINUOUS
 62
           7
100
AcDbLine
 10
4465.527778486359
 20
2396.642335766431
 11
4465.527778486359
 21
2358.642335766431
  0
LINE
  5
2AC
100
AcDbEntity
  8
1
  6
CONTINUOUS
 62
           7
100
AcDbLine
 10
4640.000000000002
 20
2396.642335766431
 11
4640.000000000002
 21
2358.642335766431
  0
LINE
  5
2AB
100
AcDbEntity
  8
1
  6
CONTINUOUS
 62
           7
100
AcDbLine
 10
4915.000000000002
 20
2396.642335766431
 11
4915.000000000002
 21
2358.642335766431
  0
LINE
  5
2AA
100
AcDbEntity
  8
1
  6
CONTINUOUS
 62
           7
100
AcDbLine
 10
4915.000000000002
 20
2874.342335766432
 11
4915.000000000002
 21
2836.642335766431
  0
LINE
  5
2A9
100
AcDbEntity
  8
1
  6
CONTINUOUS
 62
           7
100
AcDbLine
 10
4640.000000000002
 20
2874.642335766431
 11
5006.46446609407
 21
2874.642335766432
  0
LINE
  5
2A8
100
AcDbEntity
  8
1
  6
CONTINUOUS
 62
           7
100
AcDbLine
 10
4465.527778486359
 20
2874.642335766431
 11
4465.527778486359
 21
2836.642335766431
  0
LINE
  5
2A7
100
AcDbEntity
  8
1
  6
CONTINUOUS
 62
           7
100
AcDbLine
 10
4640.000000000002
 20
2874.642335766431
 11
4640.000000000002
 21
2836.642335766431
  0
LINE
  5
2A6
100
AcDbEntity
  8
1
  6
DOT_CENTER
 62
           2
100
AcDbLine
 10
4540.000000000002
 20
2272.930637949752
 11
4540.000000000002
 21
3339.638340553211
  0
LINE
  5
2A5
100
AcDbEntity
  8
1
  6
CONTINUOUS
 62
           7
100
AcDbLine
 10
3980.010908476357
 20
2396.642335766431
 11
3980.010908476357
 21
2836.642335766431
  0
LINE
  5
2A4
100
AcDbEntity
  8
1
  6
CONTINUOUS
 62
           4
100
AcDbLine
 10
4880.000000000002
 20
2306.642335766431
 11
4880.000000000002
 21
2312.642335766431
  0
LINE
  5
2A3
100
AcDbEntity
  8
1
  6
CONTINUOUS
 62
           4
100
AcDbLine
 10
4200.000000000002
 20
2312.642335766431
 11
4200.000000000002
 21
2306.642335766431
  0
LINE
  5
2A2
100
AcDbEntity
  8
1
  6
CONTINUOUS
 62
           7
100
AcDbLine
 10
4200.000000000002
 20
2306.642335766431
 11
4880.000000000002
 21
2306.642335766431
  0
LINE
  5
2A1
100
AcDbEntity
  8
1
  6
CONTINUOUS
 62
           4
100
AcDbLine
 10
4880.000000000002
 20
2312.642335766431
 11
4200.000000000002
 21
2312.642335766431
  0
LINE
  5
2A0
100
AcDbEntity
  8
0
  6
CONTINUOUS
 62
           7
100
AcDbLine
 10
4860.000000000002
 20
2396.642335766429
 11
4794.211716344316
 21
2396.642335766429
  0
LINE
  5
29F
100
AcDbEntity
  8
0
  6
CONTINUOUS
 62
           7
100
AcDbLine
 10
4241.800000000001
 20
2358.642335766431
 11
4241.800000000001
 21
2312.642335766431
  0
LINE
  5
29E
100
AcDbEntity
  8
0
  6
CONTINUOUS
 62
           7
100
AcDbLine
 10
4838.200000000003
 20
2312.642335766431
 11
4838.200000000003
 21
2358.642335766431
  0
LINE
  5
29D
100
AcDbEntity
  8
1
  6
CONTINUOUS
 62
           4
100
AcDbLine
 10
4270.000000000002
 20
2875.642335766429
 11
4270.000000000002
 21
2874.642335766431
  0
LINE
  5
29C
100
AcDbEntity
  8
1
  6
CONTINUOUS
 62
           4
100
AcDbLine
 10
4804.99306373561
 20
2880.642335766431
 11
4275.000000000002
 21
2880.642335766431
  0
LINE
  5
29B
100
AcDbEntity
  8
1
  6
CONTINUOUS
 62
           4
100
AcDbLine
 10
4275.000000000002
 20
2880.642335766431
 11
4270.000000000002
 21
2875.642335766429
  0
LINE
  5
29A
100
AcDbEntity
  8
1
  6
CONTINUOUS
 62
           4
100
AcDbLine
 10
4810.000000000002
 20
2875.642335766429
 11
4804.99306373561
 21
2880.642335766431
  0
LINE
  5
299
100
AcDbEntity
  8
1
  6
CONTINUOUS
 62
           4
100
AcDbLine
 10
4810.000000000002
 20
2874.642335766431
 11
4810.000000000002
 21
2875.642335766429
  0
LINE
  5
298
100
AcDbEntity
  8
1
  6
CONTINUOUS
 62
           7
100
AcDbLine
 10
5010.000000000002
 20
2396.642335766432
 11
3942.268760408317
 21
2396.642335766431
  0
LINE
  5
297
100
AcDbEntity
  8
1
  6
CONTINUOUS
 62
           7
100
AcDbLine
 10
5010.000000000002
 20
2836.642335766431
 11
3942.268760408317
 21
2836.642335766431
  0
LINE
  5
296
100
AcDbEntity
  8
1
  6
CONTINUOUS
 62
           7
100
AcDbLine
 10
3942.268760408317
 20
2358.642335766431
 11
3942.268760408317
 21
2396.642335766431
  0
LINE
  5
295
100
AcDbEntity
  8
1
  6
CONTINUOUS
 62
           7
100
AcDbLine
 10
5010.000000000002
 20
2363.642335766431
 11
5006.46446609407
 21
2358.642335766431
  0
LINE
  5
294
100
AcDbEntity
  8
1
  6
CONTINUOUS
 62
           7
100
AcDbLine
 10
5006.46446609407
 20
2874.642335766432
 11
5010.000000000002
 21
2869.642335766431
  0
LINE
  5
293
100
AcDbEntity
  8
1
  6
CONTINUOUS
 62
           7
100
AcDbLine
 10
3942.268760408317
 20
2836.642335766431
 11
3942.268760408317
 21
2874.642335766431
  0
LINE
  5
292
100
AcDbEntity
  8
1
  6
CONTINUOUS
 62
           7
100
AcDbLine
 10
3942.268760408317
 20
2874.642335766431
 11
4465.527778486359
 21
2874.642335766431
  0
LINE
  5
291
100
AcDbEntity
  8
1
  6
CONTINUOUS
 62
           7
100
AcDbLine
 10
5010.000000000002
 20
2869.642335766431
 11
5010.000000000002
 21
2836.642335766431
  0
LINE
  5
290
100
AcDbEntity
  8
1
  6
CONTINUOUS
 62
           7
100
AcDbLine
 10
5010.000000000002
 20
2396.642335766432
 11
5010.000000000002
 21
2363.642335766431
  0
LINE
  5
28F
100
AcDbEntity
  8
1
  6
CONTINUOUS
 62
           7
100
AcDbLine
 10
5006.46446609407
 20
2358.642335766431
 11
4640.000000000002
 21
2358.642335766431
  0
LINE
  5
28E
100
AcDbEntity
  8
1
  6
CONTINUOUS
 62
           7
100
AcDbLine
 10
5010.000000000002
 20
2396.642335766432
 11
5044.499999999998
 21
2396.642335766431
  0
LINE
  5
28D
100
AcDbEntity
  8
1
  6
CONTINUOUS
 62
           7
100
AcDbLine
 10
5010.000000000002
 20
2836.642335766431
 11
5010.000000000002
 21
2396.642335766432
  0
LINE
  5
28C
100
AcDbEntity
  8
1
  6
CONTINUOUS
 62
           4
100
AcDbLine
 10
5045.500000000002
 20
2836.642335766434
 11
5045.500000000002
 21
2396.642335766431
  0
LINE
  5
28B
100
AcDbEntity
  8
1
  6
CONTINUOUS
 62
           4
100
AcDbLine
 10
5045.500000000002
 20
2356.642335766431
 11
5045.500000000002
 21
2391.142335766432
  0
LINE
  5
28A
100
AcDbEntity
  8
1
  6
CONTINUOUS
 62
           4
100
AcDbLine
 10
5045.500000000002
 20
2842.142335766434
 11
5045.500000000002
 21
2876.642335766434
  0
LINE
  5
289
100
AcDbEntity
  8
1
  6
CONTINUOUS
 62
           7
100
AcDbLine
 10
5044.50000000002
 20
2836.642335766434
 11
5010.000000000002
 21
2836.642335766431
  0
LINE
  5
288
100
AcDbEntity
  8
1
  6
CONTINUOUS
 62
           7
100
AcDbLine
 10
5090.000000000002
 20
2836.642335766431
 11
5055.500000000002
 21
2836.642335766434
  0
LINE
  5
287
100
AcDbEntity
  8
1
  6
CONTINUOUS
 62
           4
100
AcDbLine
 10
5054.500000000002
 20
2876.642335766434
 11
5054.500000000002
 21
2842.142335766434
  0
LINE
  5
286
100
AcDbEntity
  8
1
  6
CONTINUOUS
 62
           4
100
AcDbLine
 10
5054.500000000002
 20
2391.142335766432
 11
5054.500000000002
 21
2356.642335766431
  0
LINE
  5
285
100
AcDbEntity
  8
1
  6
CONTINUOUS
 62
           4
100
AcDbLine
 10
5054.500000000002
 20
2396.642335766431
 11
5054.500000000002
 21
2836.642335766434
  0
LINE
  5
284
100
AcDbEntity
  8
1
  6
CONTINUOUS
 62
           7
100
AcDbLine
 10
5090.000000000002
 20
2396.642335766432
 11
5090.000000000002
 21
2836.642335766431
  0
LINE
  5
283
100
AcDbEntity
  8
1
  6
CONTINUOUS
 62
           7
100
AcDbLine
 10
5055.499999999998
 20
2396.642335766431
 11
5090.000000000002
 21
2396.642335766432
  0
LINE
  5
282
100
AcDbEntity
  8
1
  6
CONTINUOUS
 62
           7
100
AcDbLine
 10
5050.000000000002
 20
2356.642335766432
 11
5050.000000000002
 21
2876.642335766434
  0
LINE
  5
281
100
AcDbEntity
  8
1
  6
CONTINUOUS
 62
           4
100
AcDbLine
 10
5010.000000000002
 20
2841.142335766431
 11
5044.500000000002
 21
2841.142335766434
  0
LINE
  5
280
100
AcDbEntity
  8
1
  6
CONTINUOUS
 62
           7
100
AcDbLine
 10
5010.000000000002
 20
2836.642335766431
 11
5010.000000000002
 21
2841.142335766431
  0
LINE
  5
27F
100
AcDbEntity
  8
1
  6
CONTINUOUS
 62
           4
100
AcDbLine
 10
5090.000000000002
 20
2841.142335766435
 11
5055.500000000002
 21
2841.142335766434
  0
LINE
  5
27E
100
AcDbEntity
  8
1
  6
CONTINUOUS
 62
           7
100
AcDbLine
 10
5090.000000000002
 20
2836.642335766431
 11
5090.000000000002
 21
2841.142335766435
  0
LINE
  5
27D
100
AcDbEntity
  8
1
  6
CONTINUOUS
 62
           4
100
AcDbLine
 10
5045.500000000002
 20
2876.642335766434
 11
5054.500000000002
 21
2876.642335766434
  0
LINE
  5
27C
100
AcDbEntity
  8
1
  6
CONTINUOUS
 62
           7
100
AcDbLine
 10
5055.500000000002
 20
2836.642335766434
 11
5044.50000000002
 21
2836.642335766434
  0
LINE
  5
27B
100
AcDbEntity
  8
1
  6
CONTINUOUS
 62
           4
100
AcDbLine
 10
5045.500000000002
 20
2356.642335766431
 11
5054.500000000002
 21
2356.642335766431
  0
LINE
  5
27A
100
AcDbEntity
  8
1
  6
CONTINUOUS
 62
           7
100
AcDbLine
 10
5009.999999999998
 20
2392.142335766431
 11
5010.000000000002
 21
2396.642335766432
  0
LINE
  5
279
100
AcDbEntity
  8
1
  6
CONTINUOUS
 62
           4
100
AcDbLine
 10
5090.000000000002
 20
2392.142335766432
 11
5055.500000000002
 21
2392.142335766432
  0
LINE
  5
278
100
AcDbEntity
  8
1
  6
CONTINUOUS
 62
           7
100
AcDbLine
 10
5090.000000000002
 20
2396.642335766432
 11
5090.000000000002
 21
2392.142335766432
  0
LINE
  5
277
100
AcDbEntity
  8
1
  6
CONTINUOUS
 62
           4
100
AcDbLine
 10
5044.500000000002
 20
2392.142335766432
 11
5009.999999999998
 21
2392.142335766431
  0
LINE
  5
276
100
AcDbEntity
  8
1
  6
CONTINUOUS
 62
           7
100
AcDbLine
 10
5055.499999999998
 20
2396.642335766431
 11
5044.499999999998
 21
2396.642335766431
  0
LINE
  5
275
100
AcDbEntity
  8
1
  6
CONTINUOUS
 62
           2
100
AcDbLine
 10
4692.532262743705
 20
2436.642335766431
 11
4692.532262743705
 21
2796.642335766431
  0
LINE
  5
274
100
AcDbEntity
  8
1
  6
CONTINUOUS
 62
           2
100
AcDbLine
 10
4692.532262743705
 20
2796.642335766431
 11
4285.319562772418
 21
2796.642335766431
  0
LINE
  5
273
100
AcDbEntity
  8
1
  6
CONTINUOUS
 62
           2
100
AcDbLine
 10
4285.319562772418
 20
2796.642335766431
 11
4285.319562772418
 21
2436.642335766431
  0
LINE
  5
272
100
AcDbEntity
  8
1
  6
CONTINUOUS
 62
           2
100
AcDbLine
 10
4285.319562772418
 20
2436.642335766431
 11
4692.532262743705
 21
2436.642335766431
  0
LINE
  5
271
100
AcDbEntity
  8
1
  6
CONTINUOUS
 62
           3
100
AcDbLine
 10
4397.500000000003
 20
2152.642335766431
 11
4249.899998122327
 21
2152.642335766431
  0
LINE
  5
270
100
AcDbEntity
  8
1
  6
CONTINUOUS
 62
           3
100
AcDbLine
 10
4397.500000000003
 20
2160.64233576643
 11
4249.899996810934
 21
2160.64233576643
  0
LINE
  5
26F
100
AcDbEntity
  8
0
  6
CONTINUOUS
 62
           3
100
AcDbLine
 10
3869.899996632415
 20
1546.642333382386
 11
3869.899996632415
 21
1596.642330402246
  0
LINE
  5
26E
100
AcDbEntity
  8
0
  6
CONTINUOUS
 62
           3
100
AcDbLine
 10
3910.126493853975
 20
1587.088912838653
 11
3910.899996833474
 21
1586.642339938751
  0
LINE
  5
26D
100
AcDbEntity
  8
0
  6
CONTINUOUS
 62
           3
100
AcDbLine
 10
3920.899996609867
 20
1586.642339938751
 11
3921.673499589367
 21
1587.088912838653
  0
LINE
  5
26C
100
AcDbEntity
  8
0
  6
CONTINUOUS
 62
           3
100
AcDbLine
 10
3910.899996833474
 20
1591.642335170352
 11
3910.126493853975
 21
1591.195747369451
  0
LINE
  5
26B
100
AcDbEntity
  8
0
  6
CONTINUOUS
 62
           3
100
AcDbLine
 10
3921.673499589367
 20
1591.195747369451
 11
3920.899996609867
 21
1591.642335170352
  0
LINE
  5
26A
100
AcDbEntity
  8
0
  6
CONTINUOUS
 62
           3
100
AcDbLine
 10
3910.899996833474
 20
1596.642330402246
 11
3910.126493853975
 21
1596.195757502346
  0
LINE
  5
269
100
AcDbEntity
  8
0
  6
CONTINUOUS
 62
           3
100
AcDbLine
 10
3921.673499589367
 20
1596.195757502346
 11
3920.899996609867
 21
1596.642330402246
  0
LINE
  5
268
100
AcDbEntity
  8
0
  6
CONTINUOUS
 62
           3
100
AcDbLine
 10
3920.899996609867
 20
1591.642335170352
 11
3921.673499589367
 21
1592.088922971552
  0
LINE
  5
267
100
AcDbEntity
  8
0
  6
CONTINUOUS
 62
           3
100
AcDbLine
 10
3910.126493853975
 20
1592.088922971552
 11
3910.899996833474
 21
1591.642335170352
  0
LINE
  5
266
100
AcDbEntity
  8
0
  6
CONTINUOUS
 62
           3
100
AcDbLine
 10
3910.899996833474
 20
1609.242335075034
 11
3910.126493853975
 21
1608.795754724635
  0
LINE
  5
265
100
AcDbEntity
  8
0
  6
CONTINUOUS
 62
           3
100
AcDbLine
 10
3921.673499589367
 20
1608.795754724635
 11
3920.899996609867
 21
1609.242335075034
  0
LINE
  5
264
100
AcDbEntity
  8
0
  6
CONTINUOUS
 62
           3
100
AcDbLine
 10
3920.899996609867
 20
1604.242339843439
 11
3921.673499589367
 21
1604.688912743342
  0
LINE
  5
263
100
AcDbEntity
  8
0
  6
CONTINUOUS
 62
           3
100
AcDbLine
 10
3910.126493853975
 20
1604.688912743342
 11
3910.899996833474
 21
1604.242339843439
  0
LINE
  5
262
100
AcDbEntity
  8
0
  6
CONTINUOUS
 62
           3
100
AcDbLine
 10
3910.899996833474
 20
1604.242339843439
 11
3910.126493853975
 21
1603.795752042539
  0
LINE
  5
261
100
AcDbEntity
  8
0
  6
CONTINUOUS
 62
           3
100
AcDbLine
 10
3921.673499589367
 20
1603.795752042539
 11
3920.899996609867
 21
1604.242339843439
  0
LINE
  5
260
100
AcDbEntity
  8
0
  6
CONTINUOUS
 62
           3
100
AcDbLine
 10
3920.899996609867
 20
1599.242329710542
 11
3921.673499589367
 21
1599.688917511742
  0
LINE
  5
25F
100
AcDbEntity
  8
0
  6
CONTINUOUS
 62
           3
100
AcDbLine
 10
3910.126493853975
 20
1599.688917511742
 11
3910.899996833474
 21
1599.242329710542
  0
LINE
  5
25E
100
AcDbEntity
  8
0
  6
CONTINUOUS
 62
           3
100
AcDbLine
 10
3961.899996810933
 20
1872.64233576643
 11
3961.899996810933
 21
1866.642341130626
  0
LINE
  5
25D
100
AcDbEntity
  8
0
  6
CONTINUOUS
 62
           3
100
AcDbLine
 10
3961.899996810933
 20
1865.042328947427
 11
3961.899996810933
 21
1781.642336511393
  0
LINE
  5
25C
100
AcDbEntity
  8
0
  6
CONTINUOUS
 62
           3
100
AcDbLine
 10
3961.899996810933
 20
1780.442334824495
 11
3961.899996810933
 21
1622.842334324023
  0
LINE
  5
25B
100
AcDbEntity
  8
0
  6
CONTINUOUS
 62
           3
100
AcDbLine
 10
3961.899996810933
 20
1621.642336362527
 11
3961.899996810933
 21
1598.242342585143
  0
LINE
  5
25A
100
AcDbEntity
  8
0
  6
CONTINUOUS
 62
           3
100
AcDbLine
 10
3961.899996810933
 20
1596.642330402246
 11
3961.899996810933
 21
1546.642333382386
  0
LINE
  5
259
100
AcDbEntity
  8
0
  6
CONTINUOUS
 62
           3
100
AcDbLine
 10
3969.899998122327
 20
1546.642333382386
 11
3969.899998122327
 21
1596.642330402246
  0
LINE
  5
258
100
AcDbEntity
  8
0
  6
CONTINUOUS
 62
           3
100
AcDbLine
 10
3969.899998122327
 20
1598.242342585143
 11
3969.899998122327
 21
1621.642336362527
  0
LINE
  5
257
100
AcDbEntity
  8
0
  6
CONTINUOUS
 62
           3
100
AcDbLine
 10
3969.899998122327
 20
1622.842334324023
 11
3969.899998122327
 21
1780.442334824495
  0
LINE
  5
256
100
AcDbEntity
  8
0
  6
CONTINUOUS
 62
           3
100
AcDbLine
 10
3969.899998122327
 20
1781.642336511393
 11
3969.899998122327
 21
1865.042328947427
  0
LINE
  5
255
100
AcDbEntity
  8
0
  6
CONTINUOUS
 62
           3
100
AcDbLine
 10
3969.899998122327
 20
1866.642341130626
 11
3969.899998122327
 21
1872.642335766431
  0
LINE
  5
254
100
AcDbEntity
  8
0
  6
CONTINUOUS
 62
           3
100
AcDbLine
 10
3861.899995321015
 20
1896.642342322799
 11
3861.899995321015
 21
1866.642341130626
  0
LINE
  5
253
100
AcDbEntity
  8
0
  6
CONTINUOUS
 62
           3
100
AcDbLine
 10
3861.899995321015
 20
1865.042328947427
 11
3861.899995321015
 21
1781.642336511393
  0
LINE
  5
252
100
AcDbEntity
  8
0
  6
CONTINUOUS
 62
           3
100
AcDbLine
 10
3861.899995321015
 20
1780.442334824495
 11
3861.899995321015
 21
1622.842334324023
  0
LINE
  5
251
100
AcDbEntity
  8
0
  6
CONTINUOUS
 62
           3
100
AcDbLine
 10
3861.899995321015
 20
1621.642336362527
 11
3861.899995321015
 21
1598.242342585143
  0
LINE
  5
250
100
AcDbEntity
  8
0
  6
CONTINUOUS
 62
           3
100
AcDbLine
 10
3861.899995321015
 20
1596.642330402246
 11
3861.899995321015
 21
1546.642333382386
  0
LINE
  5
24F
100
AcDbEntity
  8
0
  6
CONTINUOUS
 62
           3
100
AcDbLine
 10
3869.899996632415
 20
1598.242342585143
 11
3869.899996632415
 21
1621.642336362527
  0
LINE
  5
24E
100
AcDbEntity
  8
0
  6
CONTINUOUS
 62
           3
100
AcDbLine
 10
3869.899996632415
 20
1622.842334324023
 11
3869.899996632415
 21
1780.442334824495
  0
LINE
  5
24D
100
AcDbEntity
  8
0
  6
CONTINUOUS
 62
           3
100
AcDbLine
 10
3869.899996632415
 20
1781.642336511393
 11
3869.899996632415
 21
1865.042328947427
  0
LINE
  5
24C
100
AcDbEntity
  8
0
  6
CONTINUOUS
 62
           3
100
AcDbLine
 10
3869.899996632415
 20
1866.642341130626
 11
3869.899996632415
 21
1896.642342322799
  0
LINE
  5
24B
100
AcDbEntity
  8
0
  6
CONTINUOUS
 62
           3
100
AcDbLine
 10
3918.899996747764
 20
1598.242342585143
 11
3918.899996747764
 21
1599.242329710542
  0
LINE
  5
24A
100
AcDbEntity
  8
0
  6
CONTINUOUS
 62
           3
100
AcDbLine
 10
3918.899996747764
 20
1609.242335075034
 11
3918.899996747764
 21
1615.842335039331
  0
LINE
  5
249
100
AcDbEntity
  8
0
  6
CONTINUOUS
 62
           3
100
AcDbLine
 10
3918.899996747764
 20
1621.642336362527
 11
3918.899996747764
 21
1624.599762374024
  0
LINE
  5
248
100
AcDbEntity
  8
0
  6
CONTINUOUS
 62
           3
100
AcDbLine
 10
3918.899996747764
 20
1626.435183101921
 11
3918.899996747764
 21
1865.042328947427
  0
LINE
  5
247
100
AcDbEntity
  8
0
  6
CONTINUOUS
 62
           3
100
AcDbLine
 10
3918.899996747764
 20
1866.642341130626
 11
3918.899996747764
 21
1869.064986818723
  0
LINE
  5
246
100
AcDbEntity
  8
0
  6
CONTINUOUS
 62
           3
100
AcDbLine
 10
3912.899996695578
 20
1869.064986818723
 11
3912.899996695578
 21
1866.642341130626
  0
LINE
  5
245
100
AcDbEntity
  8
0
  6
CONTINUOUS
 62
           3
100
AcDbLine
 10
3912.899996695578
 20
1865.042328947427
 11
3912.899996695578
 21
1626.435183101921
  0
LINE
  5
244
100
AcDbEntity
  8
0
  6
CONTINUOUS
 62
           3
100
AcDbLine
 10
3912.899996695578
 20
1624.599762374024
 11
3912.899996695578
 21
1621.642336362527
  0
LINE
  5
243
100
AcDbEntity
  8
0
  6
CONTINUOUS
 62
           3
100
AcDbLine
 10
3912.899996695578
 20
1615.842335039331
 11
3912.899996695578
 21
1609.242335075034
  0
LINE
  5
242
100
AcDbEntity
  8
0
  6
CONTINUOUS
 62
           3
100
AcDbLine
 10
3912.899996695578
 20
1599.242329710542
 11
3912.899996695578
 21
1598.242342585143
  0
LINE
  5
241
100
AcDbEntity
  8
0
  6
CONTINUOUS
 62
           3
100
AcDbLine
 10
3918.899996747764
 20
1869.064986818723
 11
3917.899996816561
 21
1870.064988845423
  0
LINE
  5
240
100
AcDbEntity
  8
0
  6
CONTINUOUS
 62
           3
100
AcDbLine
 10
3913.899996626776
 20
1870.064988845423
 11
3912.899996695578
 21
1869.064986818723
  0
LINE
  5
23F
100
AcDbEntity
  8
0
  6
CONTINUOUS
 62
           3
100
AcDbLine
 10
3912.399996613578
 20
1626.442335659323
 11
3907.899996341777
 21
1626.442335659323
  0
LINE
  5
23E
100
AcDbEntity
  8
0
  6
CONTINUOUS
 62
           3
100
AcDbLine
 10
3923.899997101565
 20
1626.442335659323
 11
3919.399996829764
 21
1626.442335659323
  0
LINE
  5
23D
100
AcDbEntity
  8
0
  6
CONTINUOUS
 62
           3
100
AcDbLine
 10
3909.426494029874
 20
1620.742335766425
 11
3922.373499413463
 21
1620.742335766425
  0
LINE
  5
23C
100
AcDbEntity
  8
0
  6
CONTINUOUS
 62
           3
100
AcDbLine
 10
3858.899996692011
 20
1625.442333632625
 11
3861.899995321015
 21
1625.442333632625
  0
LINE
  5
23B
100
AcDbEntity
  8
0
  6
CONTINUOUS
 62
           3
100
AcDbLine
 10
3869.899996632415
 20
1625.442333632625
 11
3907.899996341777
 21
1625.442333632625
  0
LINE
  5
23A
100
AcDbEntity
  8
0
  6
CONTINUOUS
 62
           3
100
AcDbLine
 10
3923.899997101565
 20
1625.442333632625
 11
3961.899996810933
 21
1625.442333632625
  0
LINE
  5
239
100
AcDbEntity
  8
0
  6
CONTINUOUS
 62
           3
100
AcDbLine
 10
3969.899998122327
 20
1625.442333632625
 11
3972.899996751326
 21
1625.442333632625
  0
LINE
  5
238
100
AcDbEntity
  8
0
  6
CONTINUOUS
 62
           3
100
AcDbLine
 10
3858.899996692011
 20
1775.442335867798
 11
3858.899996692011
 21
1625.442333632625
  0
LINE
  5
237
100
AcDbEntity
  8
0
  6
CONTINUOUS
 62
           3
100
AcDbLine
 10
3972.899996751326
 20
1775.442335867798
 11
3969.899998122327
 21
1775.442335867798
  0
LINE
  5
236
100
AcDbEntity
  8
0
  6
CONTINUOUS
 62
           3
100
AcDbLine
 10
3961.899996810933
 20
1775.442335867798
 11
3918.899996747764
 21
1775.442335867798
  0
LINE
  5
235
100
AcDbEntity
  8
0
  6
CONTINUOUS
 62
           3
100
AcDbLine
 10
3912.899996695578
 20
1775.442335867798
 11
3869.899996632415
 21
1775.442335867798
  0
LINE
  5
234
100
AcDbEntity
  8
0
  6
CONTINUOUS
 62
           3
100
AcDbLine
 10
3861.899995321015
 20
1775.442335867798
 11
3858.899996692011
 21
1775.442335867798
  0
LINE
  5
233
100
AcDbEntity
  8
0
  6
CONTINUOUS
 62
           3
100
AcDbLine
 10
3972.899996751326
 20
1625.442333632625
 11
3972.899996751326
 21
1775.442335867798
  0
LINE
  5
232
100
AcDbEntity
  8
0
  6
CONTINUOUS
 62
           3
100
AcDbLine
 10
3918.786748155364
 20
1587.088912838653
 11
3918.786748155504
 21
1591.195747369497
  0
LINE
  5
231
100
AcDbEntity
  8
0
  6
CONTINUOUS
 62
           3
100
AcDbLine
 10
3918.786748155364
 20
1587.088912838653
 11
3915.899996721676
 21
1586.642339938751
  0
LINE
  5
230
100
AcDbEntity
  8
0
  6
CONTINUOUS
 62
           3
100
AcDbLine
 10
3913.013245287846
 20
1587.088912838673
 11
3913.013245287973
 21
1591.195747369451
  0
LINE
  5
22F
100
AcDbEntity
  8
0
  6
CONTINUOUS
 62
           3
100
AcDbLine
 10
3913.013245287973
 20
1591.195747369451
 11
3915.899996721676
 21
1591.642335170478
  0
LINE
  5
22E
100
AcDbEntity
  8
0
  6
CONTINUOUS
 62
           3
100
AcDbLine
 10
3915.899996721676
 20
1586.642339938751
 11
3920.230123756006
 21
1586.642339938851
  0
LINE
  5
22D
100
AcDbEntity
  8
0
  6
CONTINUOUS
 62
           3
100
AcDbLine
 10
3911.569869687347
 20
1586.642339938851
 11
3915.899996721676
 21
1586.642339938751
  0
LINE
  5
22C
100
AcDbEntity
  8
0
  6
CONTINUOUS
 62
           3
100
AcDbLine
 10
3911.569869687347
 20
1591.642335170478
 11
3915.899996721676
 21
1591.642335170478
  0
LINE
  5
22B
100
AcDbEntity
  8
0
  6
CONTINUOUS
 62
           3
100
AcDbLine
 10
3918.786748155504
 20
1591.195747369497
 11
3920.230123755966
 21
1591.642335170352
  0
LINE
  5
22A
100
AcDbEntity
  8
0
  6
CONTINUOUS
 62
           3
100
AcDbLine
 10
3915.899996721676
 20
1591.642335170478
 11
3920.230123755966
 21
1591.642335170352
  0
LINE
  5
229
100
AcDbEntity
  8
0
  6
CONTINUOUS
 62
           3
100
AcDbLine
 10
3910.126493853975
 20
1587.088912838653
 11
3910.126493853975
 21
1591.195747369451
  0
LINE
  5
228
100
AcDbEntity
  8
0
  6
CONTINUOUS
 62
           3
100
AcDbLine
 10
3921.673499589367
 20
1587.088912838653
 11
3921.673499589367
 21
1591.195747369451
  0
LINE
  5
227
100
AcDbEntity
  8
0
  6
CONTINUOUS
 62
           3
100
AcDbLine
 10
3921.673499589367
 20
1587.088912838653
 11
3920.230123756006
 21
1586.642339938851
  0
LINE
  5
226
100
AcDbEntity
  8
0
  6
CONTINUOUS
 62
           3
100
AcDbLine
 10
3910.899996833474
 20
1586.642339938751
 11
3911.569869687347
 21
1586.642339938851
  0
LINE
  5
225
100
AcDbEntity
  8
0
  6
CONTINUOUS
 62
           3
100
AcDbLine
 10
3920.899996609867
 20
1586.642339938751
 11
3920.230123756006
 21
1586.642339938851
  0
LINE
  5
224
100
AcDbEntity
  8
0
  6
CONTINUOUS
 62
           3
100
AcDbLine
 10
3910.899996833474
 20
1591.642335170352
 11
3911.569869687347
 21
1591.642335170478
  0
LINE
  5
223
100
AcDbEntity
  8
0
  6
CONTINUOUS
 62
           3
100
AcDbLine
 10
3918.786748155504
 20
1596.195757502288
 11
3918.786748155364
 21
1592.088922971552
  0
LINE
  5
222
100
AcDbEntity
  8
0
  6
CONTINUOUS
 62
           3
100
AcDbLine
 10
3913.013245287846
 20
1596.195757502288
 11
3913.013245287846
 21
1592.088922971454
  0
LINE
  5
221
100
AcDbEntity
  8
0
  6
CONTINUOUS
 62
           3
100
AcDbLine
 10
3921.673499589367
 20
1596.195757502346
 11
3920.230123756006
 21
1596.642330402103
  0
LINE
  5
220
100
AcDbEntity
  8
0
  6
CONTINUOUS
 62
           3
100
AcDbLine
 10
3921.673499589367
 20
1596.195757502346
 11
3921.673499589367
 21
1592.088922971552
  0
LINE
  5
21F
100
AcDbEntity
  8
0
  6
CONTINUOUS
 62
           3
100
AcDbLine
 10
3918.786748155364
 20
1592.088922971552
 11
3920.230123755966
 21
1591.642335170352
  0
LINE
  5
21E
100
AcDbEntity
  8
0
  6
CONTINUOUS
 62
           3
100
AcDbLine
 10
3913.013245287846
 20
1596.195757502288
 11
3911.569869687347
 21
1596.642330402103
  0
LINE
  5
21D
100
AcDbEntity
  8
0
  6
CONTINUOUS
 62
           3
100
AcDbLine
 10
3910.126493853975
 20
1592.088922971552
 11
3911.569869687347
 21
1591.642335170478
  0
LINE
  5
21C
100
AcDbEntity
  8
0
  6
CONTINUOUS
 62
           3
100
AcDbLine
 10
3910.126493853975
 20
1596.195757502346
 11
3910.126493853975
 21
1592.088922971552
  0
LINE
  5
21B
100
AcDbEntity
  8
0
  6
CONTINUOUS
 62
           3
100
AcDbLine
 10
3918.786748155504
 20
1608.795754724697
 11
3918.786748155364
 21
1604.688912743342
  0
LINE
  5
21A
100
AcDbEntity
  8
0
  6
CONTINUOUS
 62
           3
100
AcDbLine
 10
3913.013245287846
 20
1608.795754724697
 11
3913.013245287846
 21
1604.688912743291
  0
LINE
  5
219
100
AcDbEntity
  8
0
  6
CONTINUOUS
 62
           3
100
AcDbLine
 10
3921.673499589367
 20
1608.795754724635
 11
3920.230123756006
 21
1609.242335075096
  0
LINE
  5
218
100
AcDbEntity
  8
0
  6
CONTINUOUS
 62
           3
100
AcDbLine
 10
3921.673499589367
 20
1608.795754724635
 11
3921.673499589367
 21
1604.688912743342
  0
LINE
  5
217
100
AcDbEntity
  8
0
  6
CONTINUOUS
 62
           3
100
AcDbLine
 10
3918.786748155364
 20
1604.688912743342
 11
3920.230123756006
 21
1604.242339843471
  0
LINE
  5
216
100
AcDbEntity
  8
0
  6
CONTINUOUS
 62
           3
100
AcDbLine
 10
3920.230123756006
 20
1609.242335075096
 11
3915.899996721676
 21
1609.242335075096
  0
LINE
  5
215
100
AcDbEntity
  8
0
  6
CONTINUOUS
 62
           3
100
AcDbLine
 10
3913.013245287846
 20
1608.795754724697
 11
3911.569869687347
 21
1609.242335075096
  0
LINE
  5
214
100
AcDbEntity
  8
0
  6
CONTINUOUS
 62
           3
100
AcDbLine
 10
3910.126493853975
 20
1604.688912743342
 11
3911.569869687347
 21
1604.242339843471
  0
LINE
  5
213
100
AcDbEntity
  8
0
  6
CONTINUOUS
 62
           3
100
AcDbLine
 10
3910.126493853975
 20
1608.795754724635
 11
3910.126493853975
 21
1604.688912743342
  0
LINE
  5
212
100
AcDbEntity
  8
0
  6
CONTINUOUS
 62
           3
100
AcDbLine
 10
3915.899996721676
 20
1609.242335075096
 11
3911.569869687347
 21
1609.242335075096
  0
LINE
  5
211
100
AcDbEntity
  8
0
  6
CONTINUOUS
 62
           3
100
AcDbLine
 10
3920.230123756006
 20
1604.242339843471
 11
3915.899996721676
 21
1604.242339843471
  0
LINE
  5
210
100
AcDbEntity
  8
0
  6
CONTINUOUS
 62
           3
100
AcDbLine
 10
3915.899996721676
 20
1604.242339843471
 11
3911.569869687347
 21
1604.242339843471
  0
LINE
  5
20F
100
AcDbEntity
  8
0
  6
CONTINUOUS
 62
           3
100
AcDbLine
 10
3911.569869687347
 20
1609.242335075096
 11
3910.899996833474
 21
1609.242335075034
  0
LINE
  5
20E
100
AcDbEntity
  8
0
  6
CONTINUOUS
 62
           3
100
AcDbLine
 10
3920.899996609867
 20
1609.242335075034
 11
3920.230123756006
 21
1609.242335075096
  0
LINE
  5
20D
100
AcDbEntity
  8
0
  6
CONTINUOUS
 62
           3
100
AcDbLine
 10
3920.899996609867
 20
1604.242339843439
 11
3920.230123756006
 21
1604.242339843471
  0
LINE
  5
20C
100
AcDbEntity
  8
0
  6
CONTINUOUS
 62
           3
100
AcDbLine
 10
3918.786748155504
 20
1603.795752042493
 11
3918.786748155364
 21
1599.688917511742
  0
LINE
  5
20B
100
AcDbEntity
  8
0
  6
CONTINUOUS
 62
           3
100
AcDbLine
 10
3913.013245287846
 20
1603.795752042493
 11
3913.013245287846
 21
1599.688917511665
  0
LINE
  5
20A
100
AcDbEntity
  8
0
  6
CONTINUOUS
 62
           3
100
AcDbLine
 10
3921.673499589367
 20
1603.795752042539
 11
3920.230123756006
 21
1604.242339843471
  0
LINE
  5
209
100
AcDbEntity
  8
0
  6
CONTINUOUS
 62
           3
100
AcDbLine
 10
3921.673499589367
 20
1603.795752042539
 11
3921.673499589367
 21
1599.688917511742
  0
LINE
  5
208
100
AcDbEntity
  8
0
  6
CONTINUOUS
 62
           3
100
AcDbLine
 10
3918.786748155364
 20
1599.688917511742
 11
3920.230123756006
 21
1599.242329710686
  0
LINE
  5
207
100
AcDbEntity
  8
0
  6
CONTINUOUS
 62
           3
100
AcDbLine
 10
3913.013245287846
 20
1603.795752042493
 11
3911.569869687347
 21
1604.242339843471
  0
LINE
  5
206
100
AcDbEntity
  8
0
  6
CONTINUOUS
 62
           3
100
AcDbLine
 10
3910.126493853975
 20
1599.688917511742
 11
3911.569869687347
 21
1599.242329710686
  0
LINE
  5
205
100
AcDbEntity
  8
0
  6
CONTINUOUS
 62
           3
100
AcDbLine
 10
3910.126493853975
 20
1603.795752042539
 11
3910.126493853975
 21
1599.688917511742
  0
LINE
  5
204
100
AcDbEntity
  8
0
  6
CONTINUOUS
 62
           3
100
AcDbLine
 10
3915.899996721676
 20
1599.242329710686
 11
3911.569869687347
 21
1599.242329710686
  0
LINE
  5
203
100
AcDbEntity
  8
0
  6
CONTINUOUS
 62
           3
100
AcDbLine
 10
3920.230123756006
 20
1599.242329710686
 11
3915.899996721676
 21
1599.242329710686
  0
LINE
  5
202
100
AcDbEntity
  8
0
  6
CONTINUOUS
 62
           3
100
AcDbLine
 10
3911.569869687347
 20
1604.242339843471
 11
3910.899996833474
 21
1604.242339843439
  0
LINE
  5
201
100
AcDbEntity
  8
0
  6
CONTINUOUS
 62
           3
100
AcDbLine
 10
3920.899996609867
 20
1599.242329710542
 11
3920.230123756006
 21
1599.242329710686
  0
LINE
  5
200
100
AcDbEntity
  8
0
  6
CONTINUOUS
 62
           3
100
AcDbLine
 10
3911.569869687347
 20
1599.242329710686
 11
3910.899996833474
 21
1599.242329710542
  0
LINE
  5
1FF
100
AcDbEntity
  8
0
  6
CONTINUOUS
 62
           3
100
AcDbLine
 10
3865.899995976713
 20
1896.642342322799
 11
3869.899996632415
 21
1896.642342322799
  0
LINE
  5
1FE
100
AcDbEntity
  8
0
  6
CONTINUOUS
 62
           3
100
AcDbLine
 10
3861.899995321015
 20
1896.642342322799
 11
3865.899995976713
 21
1896.642342322799
  0
LINE
  5
1FD
100
AcDbEntity
  8
0
  6
CONTINUOUS
 62
           3
100
AcDbLine
 10
3912.899996695578
 20
1869.064986818723
 11
3918.899996747764
 21
1869.064986818723
  0
LINE
  5
1FC
100
AcDbEntity
  8
0
  6
CONTINUOUS
 62
           3
100
AcDbLine
 10
3917.899996816561
 20
1870.064988845423
 11
3913.899996626776
 21
1870.064988845423
  0
LINE
  5
1FB
100
AcDbEntity
  8
0
  6
CONTINUOUS
 62
           3
100
AcDbLine
 10
3923.899997101565
 20
1620.842337721426
 11
3919.399996829764
 21
1620.842337721426
  0
LINE
  5
1FA
100
AcDbEntity
  8
0
  6
CONTINUOUS
 62
           3
100
AcDbLine
 10
3912.399996613578
 20
1626.435183101921
 11
3919.399996829764
 21
1626.435183101921
  0
LINE
  5
1F9
100
AcDbEntity
  8
0
  6
CONTINUOUS
 62
           3
100
AcDbLine
 10
3912.399996613578
 20
1620.842337721426
 11
3907.899996341777
 21
1620.842337721426
  0
LINE
  5
1F8
100
AcDbEntity
  8
0
  6
CONTINUOUS
 62
           3
100
AcDbLine
 10
3919.399996829764
 20
1626.442335659323
 11
3919.399996829764
 21
1620.842337721426
  0
LINE
  5
1F7
100
AcDbEntity
  8
0
  6
CONTINUOUS
 62
           3
100
AcDbLine
 10
3912.399996613578
 20
1620.842337721426
 11
3912.399996613578
 21
1626.442335659323
  0
LINE
  5
1F6
100
AcDbEntity
  8
0
  6
CONTINUOUS
 62
           3
100
AcDbLine
 10
3907.899996341777
 20
1626.442335659323
 11
3907.899996341777
 21
1620.842337721426
  0
LINE
  5
1F5
100
AcDbEntity
  8
0
  6
CONTINUOUS
 62
           3
100
AcDbLine
 10
3923.899997101565
 20
1626.442335659323
 11
3923.899997101565
 21
1620.842337721426
  0
LINE
  5
1F4
100
AcDbEntity
  8
0
  6
CONTINUOUS
 62
           3
100
AcDbLine
 10
3919.399996829764
 20
1623.888805621724
 11
3918.899996747764
 21
1623.888805621724
  0
LINE
  5
1F3
100
AcDbEntity
  8
0
  6
CONTINUOUS
 62
           3
100
AcDbLine
 10
3912.899996695578
 20
1623.888805621724
 11
3912.399996613578
 21
1623.888805621724
  0
LINE
  5
1F2
100
AcDbEntity
  8
0
  6
CONTINUOUS
 62
           3
100
AcDbLine
 10
3919.399996829764
 20
1625.632479899922
 11
3912.399996613578
 21
1625.632479899922
  0
LINE
  5
1F1
100
AcDbEntity
  8
0
  6
CONTINUOUS
 62
           3
100
AcDbLine
 10
3912.399996613578
 20
1621.642336362527
 11
3919.399996829764
 21
1621.642336362527
  0
LINE
  5
1F0
100
AcDbEntity
  8
0
  6
CONTINUOUS
 62
           3
100
AcDbLine
 10
3912.399996613578
 20
1620.842337721426
 11
3919.399996829764
 21
1620.842337721426
  0
LINE
  5
1EF
100
AcDbEntity
  8
0
  6
CONTINUOUS
 62
           3
100
AcDbLine
 10
3915.899996721676
 20
1616.288915389725
 11
3918.399996665763
 21
1615.842335039331
  0
LINE
  5
1EE
100
AcDbEntity
  8
0
  6
CONTINUOUS
 62
           3
100
AcDbLine
 10
3913.399996777556
 20
1615.842335039331
 11
3918.399996665763
 21
1615.842335039331
  0
LINE
  5
1ED
100
AcDbEntity
  8
0
  6
CONTINUOUS
 62
           3
100
AcDbLine
 10
3915.899996721676
 20
1616.288915389725
 11
3915.899996721676
 21
1620.742336028625
  0
LINE
  5
1EC
100
AcDbEntity
  8
0
  6
CONTINUOUS
 62
           3
100
AcDbLine
 10
3910.899996833474
 20
1616.288915389732
 11
3913.399996777556
 21
1615.842335039331
  0
LINE
  5
1EB
100
AcDbEntity
  8
0
  6
CONTINUOUS
 62
           3
100
AcDbLine
 10
3910.899996833474
 20
1616.288915389732
 11
3910.899996833474
 21
1620.742336028625
  0
LINE
  5
1EA
100
AcDbEntity
  8
0
  6
CONTINUOUS
 62
           3
100
AcDbLine
 10
3920.899996609867
 20
1616.288915389732
 11
3920.899996609867
 21
1620.742336028625
  0
LINE
  5
1E9
100
AcDbEntity
  8
0
  6
CONTINUOUS
 62
           3
100
AcDbLine
 10
3910.899996833435
 20
1615.842335039331
 11
3913.399996777556
 21
1615.842335039331
  0
LINE
  5
1E8
100
AcDbEntity
  8
0
  6
CONTINUOUS
 62
           3
100
AcDbLine
 10
3918.399996665763
 20
1615.842335039331
 11
3920.899996609914
 21
1615.842335039331
  0
LINE
  5
1E7
100
AcDbEntity
  8
0
  6
CONTINUOUS
 62
           3
100
AcDbLine
 10
3923.899997101565
 20
1619.918577486225
 11
3920.899996609867
 21
1619.918577486225
  0
LINE
  5
1E6
100
AcDbEntity
  8
0
  6
CONTINUOUS
 62
           3
100
AcDbLine
 10
3910.899996833474
 20
1619.918577486225
 11
3907.899996341777
 21
1619.918577486225
  0
LINE
  5
1E5
100
AcDbEntity
  8
0
  6
CONTINUOUS
 62
           3
100
AcDbLine
 10
3907.899996341777
 20
1620.842337721426
 11
3907.899996341777
 21
1619.918577486225
  0
LINE
  5
1E4
100
AcDbEntity
  8
0
  6
CONTINUOUS
 62
           3
100
AcDbLine
 10
3923.899997101565
 20
1620.842337721426
 11
3923.899997101565
 21
1619.918577486225
  0
LINE
  5
1E3
100
AcDbEntity
  8
0
  6
CONTINUOUS
 62
           3
100
AcDbLine
 10
3885.899997392191
 20
1781.642336511393
 11
3895.899997168588
 21
1781.642336511393
  0
LINE
  5
1E2
100
AcDbEntity
  8
0
  6
CONTINUOUS
 62
           3
100
AcDbLine
 10
3895.899997168588
 20
1780.442334824495
 11
3895.899997168588
 21
1781.642336511393
  0
LINE
  5
1E1
100
AcDbEntity
  8
0
  6
CONTINUOUS
 62
           3
100
AcDbLine
 10
3885.899997392191
 20
1780.442334824495
 11
3895.899997168588
 21
1780.442334824495
  0
LINE
  5
1E0
100
AcDbEntity
  8
0
  6
CONTINUOUS
 62
           3
100
AcDbLine
 10
3885.899997392191
 20
1780.442334824495
 11
3885.899997392191
 21
1781.642336511393
  0
LINE
  5
1DF
100
AcDbEntity
  8
0
  6
CONTINUOUS
 62
           3
100
AcDbLine
 10
3935.899996274753
 20
1780.442334824495
 11
3935.899996274753
 21
1781.642336511393
  0
LINE
  5
1DE
100
AcDbEntity
  8
0
  6
CONTINUOUS
 62
           3
100
AcDbLine
 10
3921.149996650867
 20
1780.442334824495
 11
3935.899996274753
 21
1780.442334824495
  0
LINE
  5
1DD
100
AcDbEntity
  8
0
  6
CONTINUOUS
 62
           3
100
AcDbLine
 10
3921.149996650867
 20
1781.642336511393
 11
3935.899996274753
 21
1781.642336511393
  0
LINE
  5
1DC
100
AcDbEntity
  8
0
  6
CONTINUOUS
 62
           3
100
AcDbLine
 10
3895.899997168588
 20
1780.442334824495
 11
3910.649996792475
 21
1780.442334824495
  0
LINE
  5
1DB
100
AcDbEntity
  8
0
  6
CONTINUOUS
 62
           3
100
AcDbLine
 10
3895.899997168588
 20
1781.642336511393
 11
3910.649996792475
 21
1781.642336511393
  0
LINE
  5
1DA
100
AcDbEntity
  8
0
  6
CONTINUOUS
 62
           3
100
AcDbLine
 10
3895.899997168588
 20
1622.842334324023
 11
3895.899997168588
 21
1621.642336362527
  0
LINE
  5
1D9
100
AcDbEntity
  8
0
  6
CONTINUOUS
 62
           3
100
AcDbLine
 10
3895.899997168588
 20
1621.642336362527
 11
3907.899996341777
 21
1621.642336362527
  0
LINE
  5
1D8
100
AcDbEntity
  8
0
  6
CONTINUOUS
 62
           3
100
AcDbLine
 10
3895.899997168588
 20
1622.842334324023
 11
3907.899996341777
 21
1622.842334324023
  0
LINE
  5
1D7
100
AcDbEntity
  8
0
  6
CONTINUOUS
 62
           3
100
AcDbLine
 10
3919.149996788764
 20
1621.642336362527
 11
3919.149996788764
 21
1622.842334324023
  0
LINE
  5
1D6
100
AcDbEntity
  8
0
  6
CONTINUOUS
 62
           3
100
AcDbLine
 10
3919.149996788764
 20
1622.842334324023
 11
3919.399996829764
 21
1622.842334324023
  0
LINE
  5
1D5
100
AcDbEntity
  8
0
  6
CONTINUOUS
 62
           3
100
AcDbLine
 10
3945.899996051146
 20
1780.442334824495
 11
3945.899996051146
 21
1781.642336511393
  0
LINE
  5
1D4
100
AcDbEntity
  8
0
  6
CONTINUOUS
 62
           3
100
AcDbLine
 10
3945.899996051146
 20
1780.442334824495
 11
3935.899996274753
 21
1780.442334824495
  0
LINE
  5
1D3
100
AcDbEntity
  8
0
  6
CONTINUOUS
 62
           3
100
AcDbLine
 10
3945.899996051146
 20
1781.642336511393
 11
3935.899996274753
 21
1781.642336511393
  0
LINE
  5
1D2
100
AcDbEntity
  8
0
  6
CONTINUOUS
 62
           3
100
AcDbLine
 10
3919.149996788764
 20
1780.442334824495
 11
3919.149996788764
 21
1781.642336511393
  0
LINE
  5
1D1
100
AcDbEntity
  8
0
  6
CONTINUOUS
 62
           3
100
AcDbLine
 10
3921.149996650867
 20
1780.442334824495
 11
3919.149996788764
 21
1780.442334824495
  0
LINE
  5
1D0
100
AcDbEntity
  8
0
  6
CONTINUOUS
 62
           3
100
AcDbLine
 10
3919.149996788764
 20
1781.642336511393
 11
3921.149996650867
 21
1781.642336511393
  0
LINE
  5
1CF
100
AcDbEntity
  8
0
  6
CONTINUOUS
 62
           3
100
AcDbLine
 10
3885.899997392191
 20
1622.842334324023
 11
3885.899997392191
 21
1621.642336362527
  0
LINE
  5
1CE
100
AcDbEntity
  8
0
  6
CONTINUOUS
 62
           3
100
AcDbLine
 10
3885.899997392191
 20
1621.642336362527
 11
3895.899997168588
 21
1621.642336362527
  0
LINE
  5
1CD
100
AcDbEntity
  8
0
  6
CONTINUOUS
 62
           3
100
AcDbLine
 10
3885.899997392191
 20
1622.842334324023
 11
3895.899997168588
 21
1622.842334324023
  0
LINE
  5
1CC
100
AcDbEntity
  8
0
  6
CONTINUOUS
 62
           3
100
AcDbLine
 10
3935.899996274753
 20
1622.842334324023
 11
3935.899996274753
 21
1621.642336362527
  0
LINE
  5
1CB
100
AcDbEntity
  8
0
  6
CONTINUOUS
 62
           3
100
AcDbLine
 10
3923.899997101565
 20
1621.642336362527
 11
3935.899996274753
 21
1621.642336362527
  0
LINE
  5
1CA
100
AcDbEntity
  8
0
  6
CONTINUOUS
 62
           3
100
AcDbLine
 10
3923.899997101565
 20
1622.842334324023
 11
3935.899996274753
 21
1622.842334324023
  0
LINE
  5
1C9
100
AcDbEntity
  8
0
  6
CONTINUOUS
 62
           3
100
AcDbLine
 10
3912.649996654578
 20
1781.642336511393
 11
3912.649996654578
 21
1780.442334824495
  0
LINE
  5
1C8
100
AcDbEntity
  8
0
  6
CONTINUOUS
 62
           3
100
AcDbLine
 10
3912.649996654578
 20
1780.442334824495
 11
3910.649996792475
 21
1780.442334824495
  0
LINE
  5
1C7
100
AcDbEntity
  8
0
  6
CONTINUOUS
 62
           3
100
AcDbLine
 10
3910.649996792475
 20
1781.642336511393
 11
3912.649996654578
 21
1781.642336511393
  0
LINE
  5
1C6
100
AcDbEntity
  8
0
  6
CONTINUOUS
 62
           3
100
AcDbLine
 10
3945.899996051146
 20
1622.842334324023
 11
3945.899996051146
 21
1621.642336362527
  0
LINE
  5
1C5
100
AcDbEntity
  8
0
  6
CONTINUOUS
 62
           3
100
AcDbLine
 10
3945.899996051146
 20
1621.642336362527
 11
3935.899996274753
 21
1621.642336362527
  0
LINE
  5
1C4
100
AcDbEntity
  8
0
  6
CONTINUOUS
 62
           3
100
AcDbLine
 10
3945.899996051146
 20
1622.842334324023
 11
3935.899996274753
 21
1622.842334324023
  0
LINE
  5
1C3
100
AcDbEntity
  8
0
  6
CONTINUOUS
 62
           3
100
AcDbLine
 10
3912.649996654578
 20
1622.842334324023
 11
3912.649996654578
 21
1621.642336362527
  0
LINE
  5
1C2
100
AcDbEntity
  8
0
  6
CONTINUOUS
 62
           3
100
AcDbLine
 10
3912.399996613578
 20
1622.842334324023
 11
3912.649996654578
 21
1622.842334324023
  0
LINE
  5
1C1
100
AcDbEntity
  8
0
  6
CONTINUOUS
 62
           3
100
AcDbLine
 10
3862.899997347714
 20
1621.642336362527
 11
3862.899997347714
 21
1622.842334324023
  0
LINE
  5
1C0
100
AcDbEntity
  8
0
  6
CONTINUOUS
 62
           3
100
AcDbLine
 10
3860.899997019713
 20
1621.642336362527
 11
3862.899997347714
 21
1621.642336362527
  0
LINE
  5
1BF
100
AcDbEntity
  8
0
  6
CONTINUOUS
 62
           3
100
AcDbLine
 10
3862.899997347714
 20
1622.842334324023
 11
3860.899997019713
 21
1622.842334324023
  0
LINE
  5
1BE
100
AcDbEntity
  8
0
  6
CONTINUOUS
 62
           3
100
AcDbLine
 10
3868.899998331105
 20
1622.842334324023
 11
3868.899998331105
 21
1621.642336362527
  0
LINE
  5
1BD
100
AcDbEntity
  8
0
  6
CONTINUOUS
 62
           3
100
AcDbLine
 10
3868.899998331105
 20
1621.642336362527
 11
3870.899994933704
 21
1621.642336362527
  0
LINE
  5
1BC
100
AcDbEntity
  8
0
  6
CONTINUOUS
 62
           3
100
AcDbLine
 10
3870.899994933704
 20
1622.842334324023
 11
3868.899998331105
 21
1622.842334324023
  0
LINE
  5
1BB
100
AcDbEntity
  8
0
  6
CONTINUOUS
 62
           3
100
AcDbLine
 10
3968.899996095921
 20
1781.642336511393
 11
3968.899996095921
 21
1780.442334824495
  0
LINE
  5
1BA
100
AcDbEntity
  8
0
  6
CONTINUOUS
 62
           3
100
AcDbLine
 10
3968.899996095921
 20
1780.442334824495
 11
3970.899996423624
 21
1780.442334824495
  0
LINE
  5
1B9
100
AcDbEntity
  8
0
  6
CONTINUOUS
 62
           3
100
AcDbLine
 10
3970.899996423624
 20
1781.642336511393
 11
3968.899996095921
 21
1781.642336511393
  0
LINE
  5
1B8
100
AcDbEntity
  8
0
  6
CONTINUOUS
 62
           3
100
AcDbLine
 10
3962.899995112235
 20
1780.442334824495
 11
3962.899995112235
 21
1781.642336511393
  0
LINE
  5
1B7
100
AcDbEntity
  8
0
  6
CONTINUOUS
 62
           3
100
AcDbLine
 10
3960.899998509634
 20
1780.442334824495
 11
3962.899995112235
 21
1780.442334824495
  0
LINE
  5
1B6
100
AcDbEntity
  8
0
  6
CONTINUOUS
 62
           3
100
AcDbLine
 10
3962.899995112235
 20
1781.642336511393
 11
3960.899998509634
 21
1781.642336511393
  0
LINE
  5
1B5
100
AcDbEntity
  8
0
  6
CONTINUOUS
 62
           3
100
AcDbLine
 10
3968.899996095921
 20
1621.642336362527
 11
3968.899996095921
 21
1622.842334324023
  0
LINE
  5
1B4
100
AcDbEntity
  8
0
  6
CONTINUOUS
 62
           3
100
AcDbLine
 10
3970.899996423624
 20
1621.642336362527
 11
3968.899996095921
 21
1621.642336362527
  0
LINE
  5
1B3
100
AcDbEntity
  8
0
  6
CONTINUOUS
 62
           3
100
AcDbLine
 10
3968.899996095921
 20
1622.842334324023
 11
3970.899996423624
 21
1622.842334324023
  0
LINE
  5
1B2
100
AcDbEntity
  8
0
  6
CONTINUOUS
 62
           3
100
AcDbLine
 10
3962.899995112235
 20
1622.842334324023
 11
3962.899995112235
 21
1621.642336362527
  0
LINE
  5
1B1
100
AcDbEntity
  8
0
  6
CONTINUOUS
 62
           3
100
AcDbLine
 10
3962.899995112235
 20
1621.642336362527
 11
3960.899998509634
 21
1621.642336362527
  0
LINE
  5
1B0
100
AcDbEntity
  8
0
  6
CONTINUOUS
 62
           3
100
AcDbLine
 10
3960.899998509634
 20
1622.842334324023
 11
3962.899995112235
 21
1622.842334324023
  0
LINE
  5
1AF
100
AcDbEntity
  8
0
  6
CONTINUOUS
 62
           3
100
AcDbLine
 10
3862.899997347714
 20
1781.642336511393
 11
3862.899997347714
 21
1780.442334824495
  0
LINE
  5
1AE
100
AcDbEntity
  8
0
  6
CONTINUOUS
 62
           3
100
AcDbLine
 10
3862.899997347714
 20
1780.442334824495
 11
3860.899997019713
 21
1780.442334824495
  0
LINE
  5
1AD
100
AcDbEntity
  8
0
  6
CONTINUOUS
 62
           3
100
AcDbLine
 10
3860.899997019713
 20
1781.642336511393
 11
3862.899997347714
 21
1781.642336511393
  0
LINE
  5
1AC
100
AcDbEntity
  8
0
  6
CONTINUOUS
 62
           3
100
AcDbLine
 10
3868.899998331105
 20
1780.442334824495
 11
3868.899998331105
 21
1781.642336511393
  0
LINE
  5
1AB
100
AcDbEntity
  8
0
  6
CONTINUOUS
 62
           3
100
AcDbLine
 10
3870.899994933704
 20
1780.442334824495
 11
3868.899998331105
 21
1780.442334824495
  0
LINE
  5
1AA
100
AcDbEntity
  8
0
  6
CONTINUOUS
 62
           3
100
AcDbLine
 10
3868.899998331105
 20
1781.642336511393
 11
3870.899994933704
 21
1781.642336511393
  0
LINE
  5
1A9
100
AcDbEntity
  8
0
  6
CONTINUOUS
 62
           3
100
AcDbLine
 10
3870.899994933704
 20
1621.642336362527
 11
3885.899997392191
 21
1621.642336362527
  0
LINE
  5
1A8
100
AcDbEntity
  8
0
  6
CONTINUOUS
 62
           3
100
AcDbLine
 10
3870.899994933704
 20
1622.842334324023
 11
3885.899997392191
 21
1622.842334324023
  0
LINE
  5
1A7
100
AcDbEntity
  8
0
  6
CONTINUOUS
 62
           3
100
AcDbLine
 10
3975.899995380623
 20
1622.842334324023
 11
3975.899995380623
 21
1621.642336362527
  0
LINE
  5
1A6
100
AcDbEntity
  8
0
  6
CONTINUOUS
 62
           3
100
AcDbLine
 10
3975.899995380623
 20
1621.642336362527
 11
3970.899996423624
 21
1621.642336362527
  0
LINE
  5
1A5
100
AcDbEntity
  8
0
  6
CONTINUOUS
 62
           3
100
AcDbLine
 10
3970.899996423624
 20
1622.842334324023
 11
3975.899995380623
 21
1622.842334324023
  0
LINE
  5
1A4
100
AcDbEntity
  8
0
  6
CONTINUOUS
 62
           3
100
AcDbLine
 10
3870.899994933704
 20
1780.442334824495
 11
3885.899997392191
 21
1780.442334824495
  0
LINE
  5
1A3
100
AcDbEntity
  8
0
  6
CONTINUOUS
 62
           3
100
AcDbLine
 10
3870.899994933704
 20
1781.642336511393
 11
3885.899997392191
 21
1781.642336511393
  0
LINE
  5
1A2
100
AcDbEntity
  8
0
  6
CONTINUOUS
 62
           3
100
AcDbLine
 10
3960.899998509634
 20
1621.642336362527
 11
3945.899996051146
 21
1621.642336362527
  0
LINE
  5
1A1
100
AcDbEntity
  8
0
  6
CONTINUOUS
 62
           3
100
AcDbLine
 10
3960.899998509634
 20
1622.842334324023
 11
3945.899996051146
 21
1622.842334324023
  0
LINE
  5
1A0
100
AcDbEntity
  8
0
  6
CONTINUOUS
 62
           3
100
AcDbLine
 10
3975.899995380623
 20
1780.442334824495
 11
3975.899995380623
 21
1781.642336511393
  0
LINE
  5
19F
100
AcDbEntity
  8
0
  6
CONTINUOUS
 62
           3
100
AcDbLine
 10
3970.899996423624
 20
1780.442334824495
 11
3975.899995380623
 21
1780.442334824495
  0
LINE
  5
19E
100
AcDbEntity
  8
0
  6
CONTINUOUS
 62
           3
100
AcDbLine
 10
3975.899995380623
 20
1781.642336511393
 11
3970.899996423624
 21
1781.642336511393
  0
LINE
  5
19D
100
AcDbEntity
  8
0
  6
CONTINUOUS
 62
           3
100
AcDbLine
 10
3960.899998509634
 20
1780.442334824495
 11
3945.899996051146
 21
1780.442334824495
  0
LINE
  5
19C
100
AcDbEntity
  8
0
  6
CONTINUOUS
 62
           3
100
AcDbLine
 10
3960.899998509634
 20
1781.642336511393
 11
3945.899996051146
 21
1781.642336511393
  0
LINE
  5
19B
100
AcDbEntity
  8
0
  6
CONTINUOUS
 62
           3
100
AcDbLine
 10
3855.899998062715
 20
1780.442334824495
 11
3855.899998062715
 21
1781.642336511393
  0
LINE
  5
19A
100
AcDbEntity
  8
0
  6
CONTINUOUS
 62
           3
100
AcDbLine
 10
3860.899997019713
 20
1780.442334824495
 11
3855.899998062715
 21
1780.442334824495
  0
LINE
  5
199
100
AcDbEntity
  8
0
  6
CONTINUOUS
 62
           3
100
AcDbLine
 10
3855.899998062715
 20
1781.642336511393
 11
3860.899997019713
 21
1781.642336511393
  0
LINE
  5
198
100
AcDbEntity
  8
0
  6
CONTINUOUS
 62
           3
100
AcDbLine
 10
3855.899998062715
 20
1622.842334324023
 11
3855.899998062715
 21
1621.642336362527
  0
LINE
  5
197
100
AcDbEntity
  8
0
  6
CONTINUOUS
 62
           3
100
AcDbLine
 10
3855.899998062715
 20
1621.642336362527
 11
3860.899997019713
 21
1621.642336362527
  0
LINE
  5
196
100
AcDbEntity
  8
0
  6
CONTINUOUS
 62
           3
100
AcDbLine
 10
3860.899997019713
 20
1622.842334324023
 11
3855.899998062715
 21
1622.842334324023
  0
LINE
  5
195
100
AcDbEntity
  8
0
  6
CONTINUOUS
 62
           3
100
AcDbLine
 10
3919.149996788764
 20
1622.842334324023
 11
3918.899996747764
 21
1622.842334324023
  0
LINE
  5
194
100
AcDbEntity
  8
0
  6
CONTINUOUS
 62
           3
100
AcDbLine
 10
3912.899996695578
 20
1622.842334324023
 11
3912.649996654578
 21
1622.842334324023
  0
LINE
  5
193
100
AcDbEntity
  8
0
  6
CONTINUOUS
 62
           3
100
AcDbLine
 10
3912.649996654578
 20
1780.442334824495
 11
3912.899996695578
 21
1780.442334824495
  0
LINE
  5
192
100
AcDbEntity
  8
0
  6
CONTINUOUS
 62
           3
100
AcDbLine
 10
3918.899996747764
 20
1780.442334824495
 11
3919.149996788764
 21
1780.442334824495
  0
LINE
  5
191
100
AcDbEntity
  8
0
  6
CONTINUOUS
 62
           3
100
AcDbLine
 10
3912.649996654578
 20
1781.642336511393
 11
3912.899996695578
 21
1781.642336511393
  0
LINE
  5
190
100
AcDbEntity
  8
0
  6
CONTINUOUS
 62
           3
100
AcDbLine
 10
3918.899996747764
 20
1781.642336511393
 11
3919.149996788764
 21
1781.642336511393
  0
LINE
  5
18F
100
AcDbEntity
  8
0
  6
CONTINUOUS
 62
           3
100
AcDbLine
 10
3975.899995380623
 20
1622.842334324023
 11
3975.899995380623
 21
1623.342335337222
  0
LINE
  5
18E
100
AcDbEntity
  8
0
  6
CONTINUOUS
 62
           3
100
AcDbLine
 10
3855.899998062715
 20
1622.842334324023
 11
3855.899998062715
 21
1623.342335337222
  0
LINE
  5
18D
100
AcDbEntity
  8
0
  6
CONTINUOUS
 62
           3
100
AcDbLine
 10
3855.899998062715
 20
1780.442334824495
 11
3855.899998062715
 21
1779.942337536695
  0
LINE
  5
18C
100
AcDbEntity
  8
0
  6
CONTINUOUS
 62
           3
100
AcDbLine
 10
3975.899995380623
 20
1780.442334824495
 11
3975.899995380623
 21
1779.942337536695
  0
LINE
  5
18B
100
AcDbEntity
  8
0
  6
CONTINUOUS
 62
           3
100
AcDbLine
 10
3975.899995380623
 20
1761.64233509591
 11
3974.199996405625
 21
1761.64233509591
  0
LINE
  5
18A
100
AcDbEntity
  8
0
  6
CONTINUOUS
 62
           3
100
AcDbLine
 10
3975.899995380623
 20
1741.642335542825
 11
3975.899995380623
 21
1761.64233509591
  0
LINE
  5
189
100
AcDbEntity
  8
0
  6
CONTINUOUS
 62
           3
100
AcDbLine
 10
3974.199996405625
 20
1741.642335542825
 11
3975.824804121024
 21
1741.642335542825
  0
LINE
  5
188
100
AcDbEntity
  8
0
  6
CONTINUOUS
 62
           3
100
AcDbLine
 10
3857.899998390716
 20
1763.642337286309
 11
3855.899998062715
 21
1763.642337286309
  0
LINE
  5
187
100
AcDbEntity
  8
0
  6
CONTINUOUS
 62
           3
100
AcDbLine
 10
3855.899998062715
 20
1779.942337536695
 11
3855.899998062715
 21
1763.642337286309
  0
LINE
  5
186
100
AcDbEntity
  8
0
  6
CONTINUOUS
 62
           3
100
AcDbLine
 10
3975.899995380623
 20
1779.942337536695
 11
3975.899995380623
 21
1763.642337286309
  0
LINE
  5
185
100
AcDbEntity
  8
0
  6
CONTINUOUS
 62
           3
100
AcDbLine
 10
3973.899995052624
 20
1763.642337286309
 11
3975.899995380623
 21
1763.642337286309
  0
LINE
  5
184
100
AcDbEntity
  8
0
  6
CONTINUOUS
 62
           3
100
AcDbLine
 10
3974.199996405625
 20
1761.64233509591
 11
3973.899995052624
 21
1761.64233509591
  0
LINE
  5
183
100
AcDbEntity
  8
0
  6
CONTINUOUS
 62
           3
100
AcDbLine
 10
3973.899995052624
 20
1741.642335542825
 11
3974.199996405625
 21
1741.642335542825
  0
LINE
  5
182
100
AcDbEntity
  8
0
  6
CONTINUOUS
 62
           3
100
AcDbLine
 10
3975.899995380623
 20
1739.642336146329
 11
3973.899995052624
 21
1739.642336146329
  0
LINE
  5
181
100
AcDbEntity
  8
0
  6
CONTINUOUS
 62
           3
100
AcDbLine
 10
3975.899995380623
 20
1739.642336146329
 11
3975.899995380623
 21
1663.642332070989
  0
LINE
  5
180
100
AcDbEntity
  8
0
  6
CONTINUOUS
 62
           3
100
AcDbLine
 10
3975.899995380623
 20
1663.642332070989
 11
3973.899995052624
 21
1663.642332070989
  0
LINE
  5
17F
100
AcDbEntity
  8
0
  6
CONTINUOUS
 62
           3
100
AcDbLine
 10
3973.899995052624
 20
1661.642335468392
 11
3974.199996405625
 21
1661.642335468392
  0
LINE
  5
17E
100
AcDbEntity
  8
0
  6
CONTINUOUS
 62
           3
100
AcDbLine
 10
3974.199996405625
 20
1641.642332190208
 11
3973.899995052624
 21
1641.642332190208
  0
LINE
  5
17D
100
AcDbEntity
  8
0
  6
CONTINUOUS
 62
           3
100
AcDbLine
 10
3973.899995052624
 20
1639.642335587613
 11
3975.899995380623
 21
1639.642335587613
  0
LINE
  5
17C
100
AcDbEntity
  8
0
  6
CONTINUOUS
 62
           3
100
AcDbLine
 10
3975.899995380623
 20
1623.342335337222
 11
3975.899995380623
 21
1639.642335587613
  0
LINE
  5
17B
100
AcDbEntity
  8
0
  6
CONTINUOUS
 62
           3
100
AcDbLine
 10
3855.899998062715
 20
1623.342335337222
 11
3855.899998062715
 21
1639.642335587613
  0
LINE
  5
17A
100
AcDbEntity
  8
0
  6
CONTINUOUS
 62
           3
100
AcDbLine
 10
3857.899998390716
 20
1639.642335587613
 11
3855.899998062715
 21
1639.642335587613
  0
LINE
  5
179
100
AcDbEntity
  8
0
  6
CONTINUOUS
 62
           3
100
AcDbLine
 10
3857.599997037717
 20
1641.642332190208
 11
3857.899998390716
 21
1641.642332190208
  0
LINE
  5
178
100
AcDbEntity
  8
0
  6
CONTINUOUS
 62
           3
100
AcDbLine
 10
3857.899998390716
 20
1661.642335468392
 11
3857.599997037717
 21
1661.642335468392
  0
LINE
  5
177
100
AcDbEntity
  8
0
  6
CONTINUOUS
 62
           3
100
AcDbLine
 10
3855.899998062715
 20
1663.642332070989
 11
3857.899998390716
 21
1663.642332070989
  0
LINE
  5
176
100
AcDbEntity
  8
0
  6
CONTINUOUS
 62
           3
100
AcDbLine
 10
3855.899998062715
 20
1739.642336146329
 11
3855.899998062715
 21
1663.642332070989
  0
LINE
  5
175
100
AcDbEntity
  8
0
  6
CONTINUOUS
 62
           3
100
AcDbLine
 10
3855.899998062715
 20
1739.642336146329
 11
3857.899998390716
 21
1739.642336146329
  0
LINE
  5
174
100
AcDbEntity
  8
0
  6
CONTINUOUS
 62
           3
100
AcDbLine
 10
3857.899998390716
 20
1741.642335542825
 11
3857.599997037717
 21
1741.642335542825
  0
LINE
  5
173
100
AcDbEntity
  8
0
  6
CONTINUOUS
 62
           3
100
AcDbLine
 10
3857.599997037717
 20
1761.64233509591
 11
3857.899998390716
 21
1761.64233509591
  0
LINE
  5
172
100
AcDbEntity
  8
0
  6
CONTINUOUS
 62
           3
100
AcDbLine
 10
3855.899998062715
 20
1661.642335468392
 11
3855.899998062715
 21
1641.642332190208
  0
LINE
  5
171
100
AcDbEntity
  8
0
  6
CONTINUOUS
 62
           3
100
AcDbLine
 10
3857.599997037717
 20
1661.642335468392
 11
3855.899998062715
 21
1661.642335468392
  0
LINE
  5
170
100
AcDbEntity
  8
0
  6
CONTINUOUS
 62
           3
100
AcDbLine
 10
3855.975189322324
 20
1641.642332190208
 11
3857.599997037717
 21
1641.642332190208
  0
LINE
  5
16F
100
AcDbEntity
  8
0
  6
CONTINUOUS
 62
           3
100
AcDbLine
 10
3857.599997037717
 20
1741.642335542825
 11
3855.975189322324
 21
1741.642335542825
  0
LINE
  5
16E
100
AcDbEntity
  8
0
  6
CONTINUOUS
 62
           3
100
AcDbLine
 10
3855.899998062715
 20
1741.642335542825
 11
3855.899998062715
 21
1761.64233509591
  0
LINE
  5
16D
100
AcDbEntity
  8
0
  6
CONTINUOUS
 62
           3
100
AcDbLine
 10
3855.899998062715
 20
1761.64233509591
 11
3857.599997037717
 21
1761.64233509591
  0
LINE
  5
16C
100
AcDbEntity
  8
0
  6
CONTINUOUS
 62
           3
100
AcDbLine
 10
3975.899995380623
 20
1661.642335468392
 11
3975.899995380623
 21
1641.642332190208
  0
LINE
  5
16B
100
AcDbEntity
  8
0
  6
CONTINUOUS
 62
           3
100
AcDbLine
 10
3974.199996405625
 20
1661.642335468392
 11
3975.899995380623
 21
1661.642335468392
  0
LINE
  5
16A
100
AcDbEntity
  8
0
  6
CONTINUOUS
 62
           3
100
AcDbLine
 10
3975.824804121024
 20
1641.642332190208
 11
3974.199996405625
 21
1641.642332190208
  0
LINE
  5
169
100
AcDbEntity
  8
0
  6
CONTINUOUS
 62
           3
100
AcDbLine
 10
3862.899997347714
 20
1596.642330402246
 11
3862.899997347714
 21
1598.242342585143
  0
LINE
  5
168
100
AcDbEntity
  8
0
  6
CONTINUOUS
 62
           3
100
AcDbLine
 10
3860.899997019713
 20
1596.642330402246
 11
3862.899997347714
 21
1596.642330402246
  0
LINE
  5
167
100
AcDbEntity
  8
0
  6
CONTINUOUS
 62
           3
100
AcDbLine
 10
3862.899997347714
 20
1598.242342585143
 11
3860.899997019713
 21
1598.242342585143
  0
LINE
  5
166
100
AcDbEntity
  8
0
  6
CONTINUOUS
 62
           3
100
AcDbLine
 10
3860.899997019713
 20
1866.642341130626
 11
3862.899997347714
 21
1866.642341130626
  0
LINE
  5
165
100
AcDbEntity
  8
0
  6
CONTINUOUS
 62
           3
100
AcDbLine
 10
3862.899997347714
 20
1866.642341130626
 11
3862.899997347714
 21
1865.042328947427
  0
LINE
  5
164
100
AcDbEntity
  8
0
  6
CONTINUOUS
 62
           3
100
AcDbLine
 10
3862.899997347714
 20
1865.042328947427
 11
3860.899997019713
 21
1865.042328947427
  0
LINE
  5
163
100
AcDbEntity
  8
0
  6
CONTINUOUS
 62
           3
100
AcDbLine
 10
3868.899998331105
 20
1865.042328947427
 11
3868.899998331105
 21
1866.642341130626
  0
LINE
  5
162
100
AcDbEntity
  8
0
  6
CONTINUOUS
 62
           3
100
AcDbLine
 10
3868.899998331105
 20
1866.642341130626
 11
3870.899994933704
 21
1866.642341130626
  0
LINE
  5
161
100
AcDbEntity
  8
0
  6
CONTINUOUS
 62
           3
100
AcDbLine
 10
3870.899994933704
 20
1865.042328947427
 11
3868.899998331105
 21
1865.042328947427
  0
LINE
  5
160
100
AcDbEntity
  8
0
  6
CONTINUOUS
 62
           3
100
AcDbLine
 10
3868.899998331105
 20
1596.642330402246
 11
3870.899994933704
 21
1596.642330402246
  0
LINE
  5
15F
100
AcDbEntity
  8
0
  6
CONTINUOUS
 62
           3
100
AcDbLine
 10
3868.899998331105
 20
1598.242342585143
 11
3868.899998331105
 21
1596.642330402246
  0
LINE
  5
15E
100
AcDbEntity
  8
0
  6
CONTINUOUS
 62
           3
100
AcDbLine
 10
3870.899994933704
 20
1598.242342585143
 11
3868.899998331105
 21
1598.242342585143
  0
LINE
  5
15D
100
AcDbEntity
  8
0
  6
CONTINUOUS
 62
           3
100
AcDbLine
 10
3870.899994933704
 20
1596.642330402246
 11
3960.899998509634
 21
1596.642330402246
  0
LINE
  5
15C
100
AcDbEntity
  8
0
  6
CONTINUOUS
 62
           3
100
AcDbLine
 10
3870.899994933704
 20
1598.242342585143
 11
3960.899998509634
 21
1598.242342585143
  0
LINE
  5
15B
100
AcDbEntity
  8
0
  6
CONTINUOUS
 62
           3
100
AcDbLine
 10
3870.899994933704
 20
1866.642341130626
 11
3960.899998509634
 21
1866.642341130626
  0
LINE
  5
15A
100
AcDbEntity
  8
0
  6
CONTINUOUS
 62
           3
100
AcDbLine
 10
3870.899994933704
 20
1865.042328947427
 11
3960.899998509634
 21
1865.042328947427
  0
LINE
  5
159
100
AcDbEntity
  8
0
  6
CONTINUOUS
 62
           3
100
AcDbLine
 10
3855.899998062715
 20
1598.242342585143
 11
3855.899998062715
 21
1596.642330402246
  0
LINE
  5
158
100
AcDbEntity
  8
0
  6
CONTINUOUS
 62
           3
100
AcDbLine
 10
3855.899998062715
 20
1596.642330402246
 11
3860.899997019713
 21
1596.642330402246
  0
LINE
  5
157
100
AcDbEntity
  8
0
  6
CONTINUOUS
 62
           3
100
AcDbLine
 10
3860.899997019713
 20
1598.242342585143
 11
3855.899998062715
 21
1598.242342585143
  0
LINE
  5
156
100
AcDbEntity
  8
0
  6
CONTINUOUS
 62
           3
100
AcDbLine
 10
3855.899998062715
 20
1865.042328947427
 11
3855.899998062715
 21
1866.642341130626
  0
LINE
  5
155
100
AcDbEntity
  8
0
  6
CONTINUOUS
 62
           3
100
AcDbLine
 10
3855.899998062715
 20
1866.642341130626
 11
3860.899997019713
 21
1866.642341130626
  0
LINE
  5
154
100
AcDbEntity
  8
0
  6
CONTINUOUS
 62
           3
100
AcDbLine
 10
3860.899997019713
 20
1865.042328947427
 11
3855.899998062715
 21
1865.042328947427
  0
LINE
  5
153
100
AcDbEntity
  8
0
  6
CONTINUOUS
 62
           3
100
AcDbLine
 10
3968.899996095921
 20
1866.642341130626
 11
3968.899996095921
 21
1865.042328947427
  0
LINE
  5
152
100
AcDbEntity
  8
0
  6
CONTINUOUS
 62
           3
100
AcDbLine
 10
3970.899996423624
 20
1866.642341130626
 11
3968.899996095921
 21
1866.642341130626
  0
LINE
  5
151
100
AcDbEntity
  8
0
  6
CONTINUOUS
 62
           3
100
AcDbLine
 10
3968.899996095921
 20
1865.042328947427
 11
3970.899996423624
 21
1865.042328947427
  0
LINE
  5
150
100
AcDbEntity
  8
0
  6
CONTINUOUS
 62
           3
100
AcDbLine
 10
3968.899996095921
 20
1596.642330402246
 11
3968.899996095921
 21
1598.242342585143
  0
LINE
  5
14F
100
AcDbEntity
  8
0
  6
CONTINUOUS
 62
           3
100
AcDbLine
 10
3970.899996423624
 20
1596.642330402246
 11
3968.899996095921
 21
1596.642330402246
  0
LINE
  5
14E
100
AcDbEntity
  8
0
  6
CONTINUOUS
 62
           3
100
AcDbLine
 10
3968.899996095921
 20
1598.242342585143
 11
3970.899996423624
 21
1598.242342585143
  0
LINE
  5
14D
100
AcDbEntity
  8
0
  6
CONTINUOUS
 62
           3
100
AcDbLine
 10
3962.899995112235
 20
1865.042328947427
 11
3962.899995112235
 21
1866.642341130626
  0
LINE
  5
14C
100
AcDbEntity
  8
0
  6
CONTINUOUS
 62
           3
100
AcDbLine
 10
3962.899995112235
 20
1866.642341130626
 11
3960.899998509634
 21
1866.642341130626
  0
LINE
  5
14B
100
AcDbEntity
  8
0
  6
CONTINUOUS
 62
           3
100
AcDbLine
 10
3960.899998509634
 20
1865.042328947427
 11
3962.899995112235
 21
1865.042328947427
  0
LINE
  5
14A
100
AcDbEntity
  8
0
  6
CONTINUOUS
 62
           3
100
AcDbLine
 10
3962.899995112235
 20
1598.242342585143
 11
3962.899995112235
 21
1596.642330402246
  0
LINE
  5
149
100
AcDbEntity
  8
0
  6
CONTINUOUS
 62
           3
100
AcDbLine
 10
3962.899995112235
 20
1596.642330402246
 11
3960.899998509634
 21
1596.642330402246
  0
LINE
  5
148
100
AcDbEntity
  8
0
  6
CONTINUOUS
 62
           3
100
AcDbLine
 10
3960.899998509634
 20
1598.242342585143
 11
3962.899995112235
 21
1598.242342585143
  0
LINE
  5
147
100
AcDbEntity
  8
0
  6
CONTINUOUS
 62
           3
100
AcDbLine
 10
3975.899995380623
 20
1598.242342585143
 11
3975.899995380623
 21
1596.642330402246
  0
LINE
  5
146
100
AcDbEntity
  8
0
  6
CONTINUOUS
 62
           3
100
AcDbLine
 10
3975.899995380623
 20
1596.642330402246
 11
3970.899996423624
 21
1596.642330402246
  0
LINE
  5
145
100
AcDbEntity
  8
0
  6
CONTINUOUS
 62
           3
100
AcDbLine
 10
3970.899996423624
 20
1598.242342585143
 11
3975.899995380623
 21
1598.242342585143
  0
LINE
  5
144
100
AcDbEntity
  8
0
  6
CONTINUOUS
 62
           3
100
AcDbLine
 10
3975.899995380623
 20
1865.042328947427
 11
3975.899995380623
 21
1866.642341130626
  0
LINE
  5
143
100
AcDbEntity
  8
0
  6
CONTINUOUS
 62
           3
100
AcDbLine
 10
3975.899995380623
 20
1866.642341130626
 11
3970.899996423624
 21
1866.642341130626
  0
LINE
  5
142
100
AcDbEntity
  8
0
  6
CONTINUOUS
 62
           3
100
AcDbLine
 10
3970.899996423624
 20
1865.042328947427
 11
3975.899995380623
 21
1865.042328947427
  0
LINE
  5
141
100
AcDbEntity
  8
0
  6
CONTINUOUS
 62
           3
100
AcDbLine
 10
3975.899995380623
 20
1865.042328947427
 11
3975.899995380623
 21
1864.342331999425
  0
LINE
  5
140
100
AcDbEntity
  8
0
  6
CONTINUOUS
 62
           3
100
AcDbLine
 10
3855.899998062715
 20
1865.042328947427
 11
3855.899998062715
 21
1864.342331999425
  0
LINE
  5
13F
100
AcDbEntity
  8
0
  6
CONTINUOUS
 62
           3
100
AcDbLine
 10
3975.899995380623
 20
1598.242342585143
 11
3975.899995380623
 21
1598.942339533443
  0
LINE
  5
13E
100
AcDbEntity
  8
0
  6
CONTINUOUS
 62
           3
100
AcDbLine
 10
3855.899998062715
 20
1598.242342585143
 11
3855.899998062715
 21
1598.942339533443
  0
LINE
  5
13D
100
AcDbEntity
  8
0
  6
CONTINUOUS
 62
           3
100
AcDbLine
 10
3835.499999189236
 20
1596.642330402246
 11
3833.399993443335
 21
1596.642330402246
  0
LINE
  5
13C
100
AcDbEntity
  8
0
  6
CONTINUOUS
 62
           3
100
AcDbLine
 10
3833.399993443335
 20
1866.642341130626
 11
3833.399993443335
 21
1596.642330402246
  0
LINE
  5
13B
100
AcDbEntity
  8
0
  6
CONTINUOUS
 62
           3
100
AcDbLine
 10
3835.499999189236
 20
1866.642341130626
 11
3833.399993443335
 21
1866.642341130626
  0
LINE
  5
13A
100
AcDbEntity
  8
0
  6
CONTINUOUS
 62
           3
100
AcDbLine
 10
3977.399998420227
 20
1721.642335990042
 11
3975.899995380623
 21
1721.642335990042
  0
LINE
  5
139
100
AcDbEntity
  8
0
  6
CONTINUOUS
 62
           3
100
AcDbLine
 10
3974.399996066126
 20
1663.642332070989
 11
3974.399996066126
 21
1661.642335468392
  0
LINE
  5
138
100
AcDbEntity
  8
0
  6
CONTINUOUS
 62
           3
100
AcDbLine
 10
3975.824804121024
 20
1641.642332190208
 11
3977.399998420227
 21
1641.642332190208
  0
LINE
  5
137
100
AcDbEntity
  8
0
  6
CONTINUOUS
 62
           3
100
AcDbLine
 10
3977.399998420227
 20
1641.642332190208
 11
3977.399998420227
 21
1721.642335990042
  0
LINE
  5
136
100
AcDbEntity
  8
0
  6
CONTINUOUS
 62
           3
100
AcDbLine
 10
3974.399996066126
 20
1821.642339342661
 11
3977.399998420227
 21
1821.642339342661
  0
LINE
  5
135
100
AcDbEntity
  8
0
  6
CONTINUOUS
 62
           3
100
AcDbLine
 10
3974.399996066126
 20
1761.64233509591
 11
3974.399996066126
 21
1763.642337286309
  0
LINE
  5
134
100
AcDbEntity
  8
0
  6
CONTINUOUS
 62
           3
100
AcDbLine
 10
3974.399996066126
 20
1781.642336511393
 11
3974.399996066126
 21
1821.642339342661
  0
LINE
  5
133
100
AcDbEntity
  8
0
  6
CONTINUOUS
 62
           3
100
AcDbLine
 10
3977.399998420227
 20
1741.642335542825
 11
3975.824804121024
 21
1741.642335542825
  0
LINE
  5
132
100
AcDbEntity
  8
0
  6
CONTINUOUS
 62
           3
100
AcDbLine
 10
3977.399998420227
 20
1821.642339342661
 11
3977.399998420227
 21
1741.642335542825
  0
LINE
  5
131
100
AcDbEntity
  8
0
  6
CONTINUOUS
 62
           3
100
AcDbLine
 10
3855.975189322324
 20
1641.642332190208
 11
3854.399995023126
 21
1641.642332190208
  0
LINE
  5
130
100
AcDbEntity
  8
0
  6
CONTINUOUS
 62
           3
100
AcDbLine
 10
3857.399997377518
 20
1663.642332070989
 11
3857.399997377518
 21
1661.642335468392
  0
LINE
  5
12F
100
AcDbEntity
  8
0
  6
CONTINUOUS
 62
           3
100
AcDbLine
 10
3854.399995023126
 20
1721.642335990042
 11
3855.899998062715
 21
1721.642335990042
  0
LINE
  5
12E
100
AcDbEntity
  8
0
  6
CONTINUOUS
 62
           3
100
AcDbLine
 10
3854.399995023126
 20
1641.642332190208
 11
3854.399995023126
 21
1721.642335990042
  0
LINE
  5
12D
100
AcDbEntity
  8
0
  6
CONTINUOUS
 62
           3
100
AcDbLine
 10
3855.899998062715
 20
1599.642336481744
 11
3855.899998062715
 21
1598.942339533443
  0
LINE
  5
12C
100
AcDbEntity
  8
0
  6
CONTINUOUS
 62
           3
100
AcDbLine
 10
3850.899999106021
 20
1596.642330402246
 11
3850.899999106021
 21
1599.642336481744
  0
LINE
  5
12B
100
AcDbEntity
  8
0
  6
CONTINUOUS
 62
           3
100
AcDbLine
 10
3850.899999106021
 20
1866.642341130626
 11
3835.499999189236
 21
1866.642341130626
  0
LINE
  5
12A
100
AcDbEntity
  8
0
  6
CONTINUOUS
 62
           3
100
AcDbLine
 10
3850.899999106021
 20
1866.642341130626
 11
3850.899999106021
 21
1863.642335051127
  0
LINE
  5
129
100
AcDbEntity
  8
0
  6
CONTINUOUS
 62
           3
100
AcDbLine
 10
3855.899998062715
 20
1863.642335051127
 11
3855.899998062715
 21
1864.342331999425
  0
LINE
  5
128
100
AcDbEntity
  8
0
  6
CONTINUOUS
 62
           3
100
AcDbLine
 10
3975.899995380623
 20
1863.642335051127
 11
3975.899995380623
 21
1864.342331999425
  0
LINE
  5
127
100
AcDbEntity
  8
0
  6
CONTINUOUS
 62
           3
100
AcDbLine
 10
3980.899994337316
 20
1866.642341130626
 11
3980.899994337316
 21
1863.642335051127
  0
LINE
  5
126
100
AcDbEntity
  8
0
  6
CONTINUOUS
 62
           3
100
AcDbLine
 10
3980.899994337316
 20
1596.642330402246
 11
3980.899994337316
 21
1599.642336481744
  0
LINE
  5
125
100
AcDbEntity
  8
0
  6
CONTINUOUS
 62
           3
100
AcDbLine
 10
3975.899995380623
 20
1599.642336481744
 11
3975.899995380623
 21
1598.942339533443
  0
LINE
  5
124
100
AcDbEntity
  8
0
  6
CONTINUOUS
 62
           3
100
AcDbLine
 10
3854.399995023126
 20
1741.642335542825
 11
3855.975189322324
 21
1741.642335542825
  0
LINE
  5
123
100
AcDbEntity
  8
0
  6
CONTINUOUS
 62
           3
100
AcDbLine
 10
3857.399997377518
 20
1761.64233509591
 11
3857.399997377518
 21
1763.642337286309
  0
LINE
  5
122
100
AcDbEntity
  8
0
  6
CONTINUOUS
 62
           3
100
AcDbLine
 10
3857.399997377518
 20
1781.642336511393
 11
3857.399997377518
 21
1821.642339342661
  0
LINE
  5
121
100
AcDbEntity
  8
0
  6
CONTINUOUS
 62
           3
100
AcDbLine
 10
3857.399997377518
 20
1821.642339342661
 11
3854.399995023126
 21
1821.642339342661
  0
LINE
  5
120
100
AcDbEntity
  8
0
  6
CONTINUOUS
 62
           3
100
AcDbLine
 10
3854.399995023126
 20
1821.642339342661
 11
3854.399995023126
 21
1741.642335542825
  0
LINE
  5
11F
100
AcDbEntity
  8
0
  6
CONTINUOUS
 62
           3
100
AcDbLine
 10
3850.899999106021
 20
1596.642330402246
 11
3835.499999189236
 21
1596.642330402246
  0
LINE
  5
11E
100
AcDbEntity
  8
FORMAT
  6
DOT_CENTER
 62
           3
100
AcDbLine
 10
3840.999996721635
 20
1856.64233576643
 11
3827.399996721746
 21
1856.64233576643
  0
LINE
  5
11D
100
AcDbEntity
  8
FORMAT
  6
DOT_CENTER
 62
           3
100
AcDbLine
 10
3840.999996721635
 20
1606.642335766437
 11
3827.399996721746
 21
1606.642335766437
  0
LINE
  5
11C
100
AcDbEntity
  8
FORMAT
  6
CONTINUOUS
 62
           3
100
AcDbLine
 10
3929.899996721757
 20
1624.239180869323
 11
3919.399996721766
 21
1624.239180869323
  0
LINE
  5
11B
100
AcDbEntity
  8
FORMAT
  6
CONTINUOUS
 62
           3
100
AcDbLine
 10
3919.399996721766
 20
1624.239180869323
 11
3912.399996721575
 21
1624.239180869323
  0
LINE
  5
11A
100
AcDbEntity
  8
FORMAT
  6
DOT_CENTER
 62
           3
100
AcDbLine
 10
3915.899996721676
 20
1481.401733018685
 11
3915.899996721676
 21
1957.036726534999
  0
LINE
  5
119
100
AcDbEntity
  8
FORMAT
  6
CONTINUOUS
 62
           3
100
AcDbLine
 10
3912.399996721575
 20
1624.239180869323
 11
3901.899996721586
 21
1624.239180869323
  0
LINE
  5
118
100
AcDbEntity
  8
0
  6
CONTINUOUS
 62
           3
100
AcDbLine
 10
3915.899996721676
 20
1624.774076157823
 11
3916.955269949176
 21
1624.758727961622
  0
LINE
  5
117
100
AcDbEntity
  8
0
  6
CONTINUOUS
 62
           3
100
AcDbLine
 10
3916.955269949176
 20
1624.758727961622
 11
3917.896187940064
 21
1624.714352303623
  0
LINE
  5
116
100
AcDbEntity
  8
0
  6
CONTINUOUS
 62
           3
100
AcDbLine
 10
3917.896187940064
 20
1624.714352303623
 11
3918.620787869765
 21
1624.645747357421
  0
LINE
  5
115
100
AcDbEntity
  8
0
  6
CONTINUOUS
 62
           3
100
AcDbLine
 10
3918.620787869765
 20
1624.645747357421
 11
3919.050547602963
 21
1624.560356253222
  0
LINE
  5
114
100
AcDbEntity
  8
0
  6
CONTINUOUS
 62
           3
100
AcDbLine
 10
3919.050547602963
 20
1624.560356253222
 11
3919.138896354965
 21
1624.467425161422
  0
LINE
  5
113
100
AcDbEntity
  8
0
  6
CONTINUOUS
 62
           3
100
AcDbLine
 10
3919.138896354965
 20
1624.467425161422
 11
3918.899996747764
 21
1624.381877595223
  0
LINE
  5
112
100
AcDbEntity
  8
0
  6
CONTINUOUS
 62
           3
100
AcDbLine
 10
3912.899996695578
 20
1624.381877595223
 11
3912.661097088374
 21
1624.467425161422
  0
LINE
  5
111
100
AcDbEntity
  8
0
  6
CONTINUOUS
 62
           3
100
AcDbLine
 10
3912.661097088374
 20
1624.467425161422
 11
3912.749445840378
 21
1624.560356253222
  0
LINE
  5
110
100
AcDbEntity
  8
0
  6
CONTINUOUS
 62
           3
100
AcDbLine
 10
3912.749445840378
 20
1624.560356253222
 11
3913.179205573575
 21
1624.645747357421
  0
LINE
  5
10F
100
AcDbEntity
  8
0
  6
CONTINUOUS
 62
           3
100
AcDbLine
 10
3913.179205573575
 20
1624.645747357421
 11
3913.903805503277
 21
1624.714352303623
  0
LINE
  5
10E
100
AcDbEntity
  8
0
  6
CONTINUOUS
 62
           3
100
AcDbLine
 10
3913.903805503277
 20
1624.714352303623
 11
3914.844723494175
 21
1624.758727961622
  0
LINE
  5
10D
100
AcDbEntity
  8
0
  6
CONTINUOUS
 62
           3
100
AcDbLine
 10
3914.844723494175
 20
1624.758727961622
 11
3915.899996721676
 21
1624.774076157823
  0
LINE
  5
10C
100
AcDbEntity
  8
1
  6
CONTINUOUS
 62
           3
100
AcDbLine
 10
4420.163567691044
 20
2150.770500771364
 11
4415.254330418636
 21
2150.770500771364
  0
LINE
  5
10B
100
AcDbEntity
  8
1
  6
DOT_CENTER
 62
           3
100
AcDbLine
 10
4420.163567691044
 20
2170.285891571304
 11
4420.163567691044
 21
2139.150344021556
  0
LINE
  5
10A
100
AcDbEntity
  8
1
  6
CONTINUOUS
 62
           3
100
AcDbLine
 10
4415.254330418636
 20
2162.514170761499
 11
4420.163567691044
 21
2162.514170761499
  0
LINE
  5
109
100
AcDbEntity
  8
1
  6
CONTINUOUS
 62
           3
100
AcDbLine
 10
4415.254330418636
 20
2164.33608234647
 11
4409.389214871945
 21
2164.33608234647
  0
LINE
  5
108
100
AcDbEntity
  8
1
  6
CONTINUOUS
 62
           3
100
AcDbLine
 10
4415.254330418636
 20
2148.948589186391
 11
4409.389214871945
 21
2148.948589186391
  0
LINE
  5
107
100
AcDbEntity
  8
1
  6
CONTINUOUS
 62
           3
100
AcDbLine
 10
4415.254330418636
 20
2148.948589186391
 11
4415.254330418636
 21
2164.33608234647
  0
LINE
  5
106
100
AcDbEntity
  8
1
  6
CONTINUOUS
 62
           3
100
AcDbLine
 10
4409.389214871945
 20
2148.948589186391
 11
4409.389214871945
 21
2164.33608234647
  0
LINE
  5
105
100
AcDbEntity
  8
1
  6
CONTINUOUS
 62
           3
100
AcDbLine
 10
4409.389214871945
 20
2164.33608234647
 11
4409.389214871945
 21
2164.89233576643
  0
LINE
  5
104
100
AcDbEntity
  8
1
  6
CONTINUOUS
 62
           3
100
AcDbLine
 10
4399.714603906646
 20
2156.64233576643
 11
4399.714603906646
 21
2164.89233576643
  0
LINE
  5
103
100
AcDbEntity
  8
1
  6
CONTINUOUS
 62
           3
100
AcDbLine
 10
4399.714603906646
 20
2164.89233576643
 11
4409.389214871945
 21
2164.89233576643
  0
LINE
  5
102
100
AcDbEntity
  8
1
  6
CONTINUOUS
 62
           3
100
AcDbLine
 10
4398.868798384464
 20
2162.64233576643
 11
4399.714603906646
 21
2162.64233576643
  0
LINE
  5
101
100
AcDbEntity
  8
1
  6
CONTINUOUS
 62
           3
100
AcDbLine
 10
4398.868798384464
 20
2156.64233576643
 11
4398.868798384464
 21
2164.33608234647
  0
LINE
  5
100
100
AcDbEntity
  8
1
  6
CONTINUOUS
 62
           3
100
AcDbLine
 10
4398.163567691044
 20
2164.33608234647
 11
4398.868798384464
 21
2164.33608234647
  0
LINE
  5
FF
100
AcDbEntity
  8
1
  6
CONTINUOUS
 62
           3
100
AcDbLine
 10
4397.663567691044
 20
2163.83608234647
 11
4397.663567691044
 21
2156.64233576643
  0
LINE
  5
FE
100
AcDbEntity
  8
1
  6
CONTINUOUS
 62
           3
100
AcDbLine
 10
4397.663567691044
 20
2156.64233576643
 11
4397.663567691044
 21
2149.448589186391
  0
LINE
  5
FD
100
AcDbEntity
  8
1
  6
CONTINUOUS
 62
           3
100
AcDbLine
 10
4398.868798384464
 20
2148.948589186391
 11
4398.163567691044
 21
2148.948589186391
  0
LINE
  5
FC
100
AcDbEntity
  8
1
  6
CONTINUOUS
 62
           3
100
AcDbLine
 10
4398.868798384464
 20
2148.948589186391
 11
4398.868798384464
 21
2156.64233576643
  0
LINE
  5
FB
100
AcDbEntity
  8
1
  6
CONTINUOUS
 62
           3
100
AcDbLine
 10
4399.714603906646
 20
2150.64233576643
 11
4398.868798384464
 21
2150.64233576643
  0
LINE
  5
FA
100
AcDbEntity
  8
1
  6
CONTINUOUS
 62
           3
100
AcDbLine
 10
4399.714603906646
 20
2148.39233576643
 11
4399.714603906646
 21
2156.64233576643
  0
LINE
  5
F9
100
AcDbEntity
  8
1
  6
CONTINUOUS
 62
           3
100
AcDbLine
 10
4409.389214871945
 20
2148.39233576643
 11
4399.714603906646
 21
2148.39233576643
  0
LINE
  5
F8
100
AcDbEntity
  8
1
  6
CONTINUOUS
 62
           3
100
AcDbLine
 10
4409.389214871945
 20
2148.39233576643
 11
4409.389214871945
 21
2148.948589186391
  0
LINE
  5
F7
100
AcDbEntity
  8
1
  6
DOT_CENTER
 62
           3
100
AcDbLine
 10
4396.218519558624
 20
2156.64233576643
 11
4437.667695262443
 21
2156.64233576643
  0
LINE
  5
F6
100
AcDbEntity
  8
1
  6
CONTINUOUS
 62
           3
100
AcDbLine
 10
4414.489527668232
 20
2148.948589186391
 11
4420.163567691044
 21
2145.672680651828
  0
LINE
  5
F5
100
AcDbEntity
  8
1
  6
CONTINUOUS
 62
           3
100
AcDbLine
 10
4420.163567691044
 20
2145.672680651828
 11
4429.663567691044
 21
2151.157508209129
  0
LINE
  5
F4
100
AcDbEntity
  8
1
  6
CONTINUOUS
 62
           3
100
AcDbLine
 10
4429.663567691044
 20
2151.157508209129
 11
4429.663567691044
 21
2162.127163323732
  0
LINE
  5
F3
100
AcDbEntity
  8
1
  6
CONTINUOUS
 62
           3
100
AcDbLine
 10
4429.663567691044
 20
2162.127163323732
 11
4420.163567691044
 21
2167.611990881032
  0
LINE
  5
F2
100
AcDbEntity
  8
1
  6
CONTINUOUS
 62
           3
100
AcDbLine
 10
4420.163567691044
 20
2167.611990881032
 11
4414.489527668225
 21
2164.33608234647
  0
LINE
  5
F1
100
AcDbEntity
  8
1
  6
CONTINUOUS
 62
           7
100
AcDbLine
 10
1500.000000000001
 20
1995.386905752474
 11
-1499.999999999999
 21
1995.386905752474
  0
LINE
  5
F0
100
AcDbEntity
  8
1
  6
CONTINUOUS
 62
           7
100
AcDbLine
 10
4000.000000000001
 20
731.64233576643
 11
4000.000000000001
 21
1998.153750436841
  0
LINE
  5
EF
100
AcDbEntity
  8
1
  6
CONTINUOUS
 62
           4
100
AcDbLine
 10
3980.000000000001
 20
751.64233576643
 11
3980.000000000001
 21
1947.167439010698
  0
LINE
  5
EE
100
AcDbEntity
  8
1
  6
CONTINUOUS
 62
           4
100
AcDbLine
 10
4020.0
 20
2211.642335766431
 11
4020.000000000001
 21
2046.107004982766
  0
LINE
  5
ED
100
AcDbEntity
  8
1
  6
DOT_CENTER
 62
           3
100
AcDbLine
 10
-241.527744678121
 20
1571.84318409348
 11
-241.527744678121
 21
1481.84461309348
  0
LINE
  5
EC
100
AcDbEntity
  8
1
  6
DOT_CENTER
 62
           3
100
AcDbLine
 10
-196.527744678121
 20
1526.84318409348
 11
-286.525199678126
 21
1526.84318409348
  0
LINE
  5
EB
100
AcDbEntity
  8
1
  6
CONTINUOUS
 62
           3
100
AcDbLine
 10
-245.063339678115
 20
1554.97304709349
 11
-247.451285678124
 21
1527.71592309349
  0
LINE
  5
EA
100
AcDbEntity
  8
1
  6
CONTINUOUS
 62
           3
100
AcDbLine
 10
-247.451285678124
 20
1525.97044509349
 11
-245.063339678115
 21
1498.713321093489
  0
LINE
  5
E9
100
AcDbEntity
  8
1
  6
CONTINUOUS
 62
           3
100
AcDbLine
 10
-237.992149678106
 20
1554.97304709349
 11
-235.604203678124
 21
1527.71592309349
  0
LINE
  5
E8
100
AcDbEntity
  8
1
  6
CONTINUOUS
 62
           3
100
AcDbLine
 10
-235.604203678124
 20
1525.97044509349
 11
-237.992149678106
 21
1498.713321093489
  0
LINE
  5
E7
100
AcDbEntity
  8
1
  6
CONTINUOUS
 62
           7
100
AcDbLine
 10
-174.999999999999
 20
1877.925328154232
 11
-1324.999999999999
 21
1877.925328154232
  0
LINE
  5
E6
100
AcDbEntity
  8
1
  6
CONTINUOUS
 62
           7
100
AcDbLine
 10
-1324.999999999999
 20
1173.155862564796
 11
-1324.999999999999
 21
1877.925328154232
  0
LINE
  5
E5
100
AcDbEntity
  8
1
  6
CONTINUOUS
 62
           7
100
AcDbLine
 10
-174.999999999999
 20
1173.155862564796
 11
-174.999999999999
 21
1877.925328154232
  0
LINE
  5
E4
100
AcDbEntity
  8
1
  6
CONTINUOUS
 62
           7
100
AcDbLine
 10
-1324.999999999999
 20
1173.155862564796
 11
-174.999999999999
 21
1173.155862564796
  0
LINE
  5
E3
100
AcDbEntity
  8
___S__
  6
DOT_CENTER
 62
           3
100
AcDbLine
 10
-1324.999999999975
 20
1852.695173052927
 11
-1324.999999999975
 21
1767.699462821819
  0
LINE
  5
E2
100
AcDbEntity
  8
____
  6
CONTINUOUS
 62
           3
100
AcDbLine
 10
-1319.595947044856
 20
1846.091411272661
 11
-1319.595947044856
 21
1844.213480524538
  0
LINE
  5
E1
100
AcDbEntity
  8
____
  6
CONTINUOUS
 62
           3
100
AcDbLine
 10
-1329.912775413719
 20
1846.560893959693
 11
-1320.087224586231
 21
1846.560893959693
  0
LINE
  5
E0
100
AcDbEntity
  8
____
  6
CONTINUOUS
 62
           3
100
AcDbLine
 10
-1330.404052955093
 20
1844.213480524539
 11
-1330.404052955093
 21
1846.091411272661
  0
LINE
  5
DF
100
AcDbEntity
  8
____
  6
CONTINUOUS
 62
           3
100
AcDbLine
 10
-1319.497691536591
 20
1808.532796310206
 11
-1330.502308463368
 21
1808.532796310206
  0
LINE
  5
DE
100
AcDbEntity
  8
____
  6
CONTINUOUS
 62
           3
100
AcDbLine
 10
-1319.49769153659
 20
1844.213480524538
 11
-1319.497691536591
 21
1808.532796310206
  0
LINE
  5
DD
100
AcDbEntity
  8
____
  6
CONTINUOUS
 62
           3
100
AcDbLine
 10
-1330.502308463366
 20
1844.213480524539
 11
-1319.49769153659
 21
1844.213480524538
  0
LINE
  5
DC
100
AcDbEntity
  8
____
  6
CONTINUOUS
 62
           3
100
AcDbLine
 10
-1330.502308463368
 20
1808.532796310206
 11
-1330.502308463366
 21
1844.213480524539
  0
LINE
  5
DB
100
AcDbEntity
  8
____
  6
CONTINUOUS
 62
           3
100
AcDbLine
 10
-1330.404052955094
 20
1770.035215973689
 11
-1330.404052955094
 21
1771.913146721812
  0
LINE
  5
DA
100
AcDbEntity
  8
____
  6
CONTINUOUS
 62
           3
100
AcDbLine
 10
-1320.087224586231
 20
1769.56573328666
 11
-1329.912775413719
 21
1769.56573328666
  0
LINE
  5
D9
100
AcDbEntity
  8
____
  6
CONTINUOUS
 62
           3
100
AcDbLine
 10
-1319.595947044857
 20
1771.913146721812
 11
-1319.595947044857
 21
1770.035215973689
  0
LINE
  5
D8
100
AcDbEntity
  8
____
  6
CONTINUOUS
 62
           3
100
AcDbLine
 10
-1330.158414184406
 20
1808.532796310206
 11
-1330.158414184406
 21
1807.593830936145
  0
LINE
  5
D7
100
AcDbEntity
  8
____
  6
CONTINUOUS
 62
           3
100
AcDbLine
 10
-1319.841585815544
 20
1808.532796310206
 11
-1330.158414184406
 21
1808.532796310206
  0
LINE
  5
D6
100
AcDbEntity
  8
____
  6
CONTINUOUS
 62
           3
100
AcDbLine
 10
-1319.841585815544
 20
1807.593830936145
 11
-1319.841585815544
 21
1808.532796310206
  0
LINE
  5
D5
100
AcDbEntity
  8
____
  6
CONTINUOUS
 62
           3
100
AcDbLine
 10
-1330.404052955093
 20
1846.091411272661
 11
-1319.595947044856
 21
1846.091411272661
  0
LINE
  5
D4
100
AcDbEntity
  8
____
  6
CONTINUOUS
 62
           3
100
AcDbLine
 10
-1330.502308463368
 20
1807.593830936145
 11
-1319.497691536591
 21
1807.593830936145
  0
LINE
  5
D3
100
AcDbEntity
  8
____
  6
CONTINUOUS
 62
           3
100
AcDbLine
 10
-1330.502308463368
 20
1771.913146721812
 11
-1330.502308463368
 21
1807.593830936145
  0
LINE
  5
D2
100
AcDbEntity
  8
____
  6
CONTINUOUS
 62
           3
100
AcDbLine
 10
-1319.497691536591
 20
1771.913146721812
 11
-1330.502308463368
 21
1771.913146721812
  0
LINE
  5
D1
100
AcDbEntity
  8
____
  6
CONTINUOUS
 62
           3
100
AcDbLine
 10
-1319.497691536591
 20
1807.593830936145
 11
-1319.497691536591
 21
1771.913146721812
  0
LINE
  5
D0
100
AcDbEntity
  8
____
  6
CONTINUOUS
 62
           3
100
AcDbLine
 10
-1330.404052955093
 20
1846.091411272661
 11
-1329.912775413719
 21
1846.560893959693
  0
LINE
  5
CF
100
AcDbEntity
  8
____
  6
CONTINUOUS
 62
           3
100
AcDbLine
 10
-1320.087224586231
 20
1846.560893959693
 11
-1319.595947044856
 21
1846.091411272661
  0
LINE
  5
CE
100
AcDbEntity
  8
____
  6
CONTINUOUS
 62
           3
100
AcDbLine
 10
-1329.912775413719
 20
1769.56573328666
 11
-1330.404052955094
 21
1770.035215973689
  0
LINE
  5
CD
100
AcDbEntity
  8
____
  6
CONTINUOUS
 62
           3
100
AcDbLine
 10
-1319.595947044857
 20
1770.035215973689
 11
-1320.087224586231
 21
1769.56573328666
  0
LINE
  5
CC
100
AcDbEntity
  8
____
  6
CONTINUOUS
 62
           3
100
AcDbLine
 10
-1330.404052955094
 20
1770.035215973689
 11
-1319.595947044857
 21
1770.035215973689
  0
LINE
  5
CB
100
AcDbEntity
  8
____
  6
CONTINUOUS
 62
           3
100
AcDbLine
 10
-1330.404052955119
 20
1216.045645283636
 11
-1319.595947044881
 21
1216.045645283636
  0
LINE
  5
CA
100
AcDbEntity
  8
____
  6
CONTINUOUS
 62
           3
100
AcDbLine
 10
-1319.595947044881
 20
1216.045645283636
 11
-1320.087224586256
 21
1215.576162596604
  0
LINE
  5
C9
100
AcDbEntity
  8
____
  6
CONTINUOUS
 62
           3
100
AcDbLine
 10
-1329.912775413744
 20
1215.576162596604
 11
-1330.404052955119
 21
1216.045645283636
  0
LINE
  5
C8
100
AcDbEntity
  8
____
  6
CONTINUOUS
 62
           3
100
AcDbLine
 10
-1320.087224586253
 20
1292.571323269639
 11
-1319.595947044878
 21
1292.101840582608
  0
LINE
  5
C7
100
AcDbEntity
  8
____
  6
CONTINUOUS
 62
           3
100
AcDbLine
 10
-1330.404052955117
 20
1292.101840582608
 11
-1329.912775413743
 21
1292.571323269639
  0
LINE
  5
C6
100
AcDbEntity
  8
____
  6
CONTINUOUS
 62
           3
100
AcDbLine
 10
-1319.497691536607
 20
1253.604260246091
 11
-1319.497691536607
 21
1217.923576031759
  0
LINE
  5
C5
100
AcDbEntity
  8
____
  6
CONTINUOUS
 62
           3
100
AcDbLine
 10
-1319.497691536607
 20
1217.923576031759
 11
-1330.502308463384
 21
1217.923576031759
  0
LINE
  5
C4
100
AcDbEntity
  8
____
  6
CONTINUOUS
 62
           3
100
AcDbLine
 10
-1330.502308463384
 20
1217.923576031759
 11
-1330.502308463384
 21
1253.604260246091
  0
LINE
  5
C3
100
AcDbEntity
  8
____
  6
CONTINUOUS
 62
           3
100
AcDbLine
 10
-1330.502308463384
 20
1253.604260246091
 11
-1319.497691536607
 21
1253.604260246091
  0
LINE
  5
C2
100
AcDbEntity
  8
____
  6
CONTINUOUS
 62
           3
100
AcDbLine
 10
-1330.404052955117
 20
1292.101840582608
 11
-1319.595947044878
 21
1292.101840582608
  0
LINE
  5
C1
100
AcDbEntity
  8
____
  6
CONTINUOUS
 62
           3
100
AcDbLine
 10
-1319.841585815567
 20
1253.604260246091
 11
-1319.841585815567
 21
1254.543225620152
  0
LINE
  5
C0
100
AcDbEntity
  8
____
  6
CONTINUOUS
 62
           3
100
AcDbLine
 10
-1319.841585815567
 20
1254.543225620152
 11
-1330.158414184431
 21
1254.543225620153
  0
LINE
  5
BF
100
AcDbEntity
  8
____
  6
CONTINUOUS
 62
           3
100
AcDbLine
 10
-1330.158414184431
 20
1254.543225620153
 11
-1330.158414184431
 21
1253.604260246091
  0
LINE
  5
BE
100
AcDbEntity
  8
____
  6
CONTINUOUS
 62
           3
100
AcDbLine
 10
-1319.595947044881
 20
1217.923576031759
 11
-1319.595947044881
 21
1216.045645283636
  0
LINE
  5
BD
100
AcDbEntity
  8
____
  6
CONTINUOUS
 62
           3
100
AcDbLine
 10
-1320.087224586256
 20
1215.576162596604
 11
-1329.912775413744
 21
1215.576162596604
  0
LINE
  5
BC
100
AcDbEntity
  8
____
  6
CONTINUOUS
 62
           3
100
AcDbLine
 10
-1330.404052955119
 20
1216.045645283636
 11
-1330.404052955119
 21
1217.923576031759
  0
LINE
  5
BB
100
AcDbEntity
  8
____
  6
CONTINUOUS
 62
           3
100
AcDbLine
 10
-1330.502308463384
 20
1254.543225620153
 11
-1330.502308463383
 21
1290.223909834485
  0
LINE
  5
BA
100
AcDbEntity
  8
____
  6
CONTINUOUS
 62
           3
100
AcDbLine
 10
-1330.502308463383
 20
1290.223909834485
 11
-1319.497691536606
 21
1290.223909834485
  0
LINE
  5
B9
100
AcDbEntity
  8
____
  6
CONTINUOUS
 62
           3
100
AcDbLine
 10
-1319.497691536606
 20
1290.223909834485
 11
-1319.497691536607
 21
1254.543225620152
  0
LINE
  5
B8
100
AcDbEntity
  8
____
  6
CONTINUOUS
 62
           3
100
AcDbLine
 10
-1319.497691536607
 20
1254.543225620152
 11
-1330.502308463384
 21
1254.543225620153
  0
LINE
  5
B7
100
AcDbEntity
  8
____
  6
CONTINUOUS
 62
           3
100
AcDbLine
 10
-1330.404052955117
 20
1290.223909834485
 11
-1330.404052955117
 21
1292.101840582608
  0
LINE
  5
B6
100
AcDbEntity
  8
____
  6
CONTINUOUS
 62
           3
100
AcDbLine
 10
-1329.912775413743
 20
1292.571323269639
 11
-1320.087224586253
 21
1292.571323269639
  0
LINE
  5
B5
100
AcDbEntity
  8
____
  6
CONTINUOUS
 62
           3
100
AcDbLine
 10
-1319.595947044878
 20
1292.101840582608
 11
-1319.595947044878
 21
1290.223909834485
  0
LINE
  5
B4
100
AcDbEntity
  8
___S__
  6
DOT_CENTER
 62
           3
100
AcDbLine
 10
-1324.999999999999
 20
1298.70560236289
 11
-1325.0
 21
1213.709892131765
  0
LINE
  5
B3
100
AcDbEntity
  8
1
  6
CONTINUOUS
 62
           7
100
AcDbLine
 10
-1319.497691536607
 20
1218.155862564798
 11
-174.999999999999
 21
1218.155862564798
  0
LINE
  5
B2
100
AcDbEntity
  8
1
  6
CONTINUOUS
 62
           4
100
AcDbLine
 10
3980.000000000001
 20
1973.131099921726
 11
3980.000000000001
 21
2211.642335766431
  0
LINE
  5
B1
100
AcDbEntity
  8
1
  6
CONTINUOUS
 62
           7
100
AcDbLine
 10
4000.000000000001
 20
2015.799562597268
 11
4000.000000000001
 21
2231.642335766431
  0
LINE
  5
B0
100
AcDbEntity
  8
1
  6
CONTINUOUS
 62
           4
100
AcDbLine
 10
4020.000000000001
 20
2032.47346810101
 11
4020.0
 21
751.64233576643
  0
LINE
  5
AF
100
AcDbEntity
  8
1
  6
CONTINUOUS
 62
           7
100
AcDbLine
 10
3550.000000000001
 20
1871.64233576643
 11
3730.000000000001
 21
1871.64233576643
  0
LINE
  5
AE
100
AcDbEntity
  8
1
  6
CONTINUOUS
 62
           7
100
AcDbLine
 10
3730.000000000001
 20
1871.64233576643
 11
3730.000000000001
 21
1984.64233576643
  0
LINE
  5
AD
100
AcDbEntity
  8
1
  6
CONTINUOUS
 62
           7
100
AcDbLine
 10
3730.000000000001
 20
1984.64233576643
 11
3550.000000000001
 21
1984.64233576643
  0
LINE
  5
AC
100
AcDbEntity
  8
1
  6
CONTINUOUS
 62
           7
100
AcDbLine
 10
3550.000000000001
 20
1984.64233576643
 11
3550.000000000001
 21
1871.64233576643
  0
LINE
  5
AB
100
AcDbEntity
  8
1
  6
DOT_CENTER
 62
           2
100
AcDbLine
 10
0.0
 20
6127.670465041156
 11
0.0
 21
3874.680676247669
  0
LINE
  5
AA
100
AcDbEntity
  8
1
  6
CONTINUOUS
 62
           7
100
AcDbLine
 10
1500.000000000001
 20
2231.642335766431
 11
-1499.999999999999
 21
2231.642335766431
  0
LINE
  5
A9
100
AcDbEntity
  8
1
  6
CONTINUOUS
 62
           7
100
AcDbLine
 10
0.0
 20
2731.642335766432
 11
0.0
 21
2231.642335766432
  0
LINE
  5
A8
100
AcDbEntity
  8
1
  6
DOT_CENTER
 62
           2
100
AcDbLine
 10
0.0
 20
3323.142335766431
 11
0.0
 21
101.64233576643
  0
LINE
  5
A7
100
AcDbEntity
  8
1
  6
CONTINUOUS
 62
           4
100
AcDbLine
 10
-659.999999999996
 20
5979.999999999999
 11
-1480.0
 21
5979.999999999999
  0
LINE
  5
A6
100
AcDbEntity
  8
1
  6
CONTINUOUS
 62
           7
100
AcDbLine
 10
-651.000000000001
 20
5999.999999999999
 11
-1549.999999999999
 21
5999.999999999999
  0
LINE
  5
A5
100
AcDbEntity
  8
1
  6
CONTINUOUS
 62
           7
100
AcDbLine
 10
0.0
 20
4979.999999999999
 11
0.0
 21
4050.000000000001
  0
LINE
  5
A4
100
AcDbEntity
  8
1
  6
CONTINUOUS
 62
           7
100
AcDbLine
 10
127.928556845364
 20
4999.999999999999
 11
1550.000000000001
 21
4999.999999999999
  0
LINE
  5
A3
100
AcDbEntity
  8
1
  6
DOT_CENTER
 62
           2
100
AcDbLine
 10
-684.888003224811
 20
5539.999999999999
 11
500.0
 21
5539.999999999999
  0
LINE
  5
A2
100
AcDbEntity
  8
1
  6
CONTINUOUS
 62
           7
100
AcDbLine
 10
-15.0
 20
731.64233576643
 11
15.0
 21
731.64233576643
  0
LINE
  5
A1
100
AcDbEntity
  8
1
  6
CONTINUOUS
 62
           4
100
AcDbLine
 10
-20.0
 20
4479.999999999999
 11
-1480.0
 21
4479.999999999998
  0
LINE
  5
A0
100
AcDbEntity
  8
1
  6
CONTINUOUS
 62
           7
100
AcDbLine
 10
3730.000000000001
 20
1821.64233576643
 11
3730.000000000001
 21
1581.64233576643
  0
LINE
  5
9F
100
AcDbEntity
  8
1
  6
CONTINUOUS
 62
           7
100
AcDbLine
 10
3550.000000000001
 20
1581.64233576643
 11
3550.000000000001
 21
1821.64233576643
  0
LINE
  5
9E
100
AcDbEntity
  8
1
  6
CONTINUOUS
 62
           7
100
AcDbLine
 10
3550.000000000001
 20
1821.64233576643
 11
3730.000000000001
 21
1821.64233576643
  0
LINE
  5
9D
100
AcDbEntity
  8
1
  6
CONTINUOUS
 62
           7
100
AcDbLine
 10
3730.000000000001
 20
1581.64233576643
 11
3550.000000000001
 21
1581.64233576643
  0
LINE
  5
9C
100
AcDbEntity
  8
1
  6
CONTINUOUS
 62
           7
100
AcDbLine
 10
3240.000000000001
 20
2181.642335766431
 11
3050.000000000001
 21
2181.642335766431
  0
LINE
  5
9B
100
AcDbEntity
  8
1
  6
CONTINUOUS
 62
           7
100
AcDbLine
 10
3050.000000000001
 20
2181.642335766431
 11
3050.000000000001
 21
2093.642335766431
  0
LINE
  5
9A
100
AcDbEntity
  8
1
  6
CONTINUOUS
 62
           7
100
AcDbLine
 10
3050.000000000001
 20
2093.642335766431
 11
3240.000000000001
 21
2093.642335766431
  0
LINE
  5
99
100
AcDbEntity
  8
1
  6
CONTINUOUS
 62
           7
100
AcDbLine
 10
3240.000000000001
 20
2093.642335766431
 11
3240.000000000001
 21
2181.642335766431
  0
LINE
  5
98
100
AcDbEntity
  8
1
  6
CONTINUOUS
 62
           4
100
AcDbLine
 10
-1539.999999999999
 20
5999.999999999999
 11
-1539.999999999999
 21
4999.999999999999
  0
LINE
  5
97
100
AcDbEntity
  8
1
  6
CONTINUOUS
 62
           4
100
AcDbLine
 10
1540.000000000001
 20
5999.999999999999
 11
1540.000000000001
 21
4999.999999999999
  0
LINE
  5
96
100
AcDbEntity
  8
1
  6
CONTINUOUS
 62
           4
100
AcDbLine
 10
3000.000000000001
 20
2771.642335766431
 11
3500.000000000001
 21
2771.642335766431
  0
LINE
  5
95
100
AcDbEntity
  8
1
  6
CONTINUOUS
 62
           7
100
AcDbLine
 10
0.0
 20
706.642335766431
 11
0.0
 21
631.64233576643
  0
LINE
  5
94
100
AcDbEntity
  8
1
  6
CONTINUOUS
 62
           4
100
AcDbLine
 10
1480.000000000001
 20
4479.999999999999
 11
20.0
 21
4479.999999999999
  0
LINE
  5
93
100
AcDbEntity
  8
1
  6
CONTINUOUS
 62
           4
100
AcDbLine
 10
20.0
 20
4479.999999999999
 11
20.0
 21
4050.0
  0
LINE
  5
92
100
AcDbEntity
  8
1
  6
CONTINUOUS
 62
           7
100
AcDbLine
 10
5500.000000000001
 20
231.64233576643
 11
2500.000000000001
 21
231.64233576643
  0
LINE
  5
91
100
AcDbEntity
  8
1
  6
CONTINUOUS
 62
           4
100
AcDbLine
 10
-1502.999999999999
 20
5999.999999999999
 11
-1502.999999999999
 21
4999.999999999999
  0
LINE
  5
90
100
AcDbEntity
  8
1
  6
CONTINUOUS
 62
           4
100
AcDbLine
 10
1480.000000000001
 20
5019.999999999999
 11
520.0
 21
5019.999999999999
  0
LINE
  5
8F
100
AcDbEntity
  8
1
  6
CONTINUOUS
 62
           4
100
AcDbLine
 10
1480.000000000001
 20
5979.999999999999
 11
520.0
 21
5979.999999999999
  0
LINE
  5
8E
100
AcDbEntity
  8
1
  6
CONTINUOUS
 62
           4
100
AcDbLine
 10
1503.000000000001
 20
5999.999999999999
 11
1503.000000000001
 21
4999.999999999999
  0
LINE
  5
8D
100
AcDbEntity
  8
1
  6
CONTINUOUS
 62
           4
100
AcDbLine
 10
1480.000000000001
 20
4479.999999999999
 11
1480.000000000001
 21
4050.0
  0
LINE
  5
8C
100
AcDbEntity
  8
1
  6
CONTINUOUS
 62
           4
100
AcDbLine
 10
1480.000000000001
 20
5979.999999999999
 11
1480.000000000001
 21
5019.999999999999
  0
LINE
  5
8B
100
AcDbEntity
  8
1
  6
CONTINUOUS
 62
           7
100
AcDbLine
 10
1550.000000000001
 20
4000.0
 11
1550.000000000001
 21
5999.999999999999
  0
LINE
  5
8A
100
AcDbEntity
  8
1
  6
DOT_CENTER
 62
           2
100
AcDbLine
 10
4300.000000000002
 20
906.64233576643
 11
4300.000000000002
 21
756.64233576643
  0
LINE
  5
89
100
AcDbEntity
  8
1
  6
DOT_CENTER
 62
           2
100
AcDbLine
 10
4225.000000000001
 20
831.64233576643
 11
4375.000000000001
 21
831.64233576643
  0
LINE
  5
88
100
AcDbEntity
  8
1
  6
CONTINUOUS
 62
           7
100
AcDbLine
 10
0.0
 20
2231.642335766432
 11
0.0
 21
731.64233576643
  0
LINE
  5
87
100
AcDbEntity
  8
1
  6
CONTINUOUS
 62
           7
100
AcDbLine
 10
1485.000000000001
 20
771.64233576643
 11
15.0
 21
771.64233576643
  0
LINE
  5
86
100
AcDbEntity
  8
1
  6
CONTINUOUS
 62
           7
100
AcDbLine
 10
-1499.999999999999
 20
731.64233576643
 11
-1484.999999999999
 21
731.64233576643
  0
LINE
  5
85
100
AcDbEntity
  8
1
  6
CONTINUOUS
 62
           7
100
AcDbLine
 10
1485.000000000001
 20
731.64233576643
 11
1500.000000000001
 21
731.64233576643
  0
LINE
  5
84
100
AcDbEntity
  8
1
  6
CONTINUOUS
 62
           7
100
AcDbLine
 10
-1499.999999999999
 20
1031.64233576643
 11
1500.000000000001
 21
1031.64233576643
  0
LINE
  5
83
100
AcDbEntity
  8
1
  6
CONTINUOUS
 62
           7
100
AcDbLine
 10
-1499.999999999999
 20
745.49565843406
 11
-1499.999999999999
 21
804.249421417942
  0
LINE
  5
82
100
AcDbEntity
  8
1
  6
CONTINUOUS
 62
           7
100
AcDbLine
 10
15.0
 20
771.64233576643
 11
15.0
 21
706.642335766431
  0
LINE
  5
81
100
AcDbEntity
  8
1
  6
CONTINUOUS
 62
           7
100
AcDbLine
 10
1485.000000000001
 20
771.64233576643
 11
1485.000000000001
 21
706.642335766431
  0
LINE
  5
80
100
AcDbEntity
  8
1
  6
CONTINUOUS
 62
           7
100
AcDbLine
 10
-1499.999999999999
 20
631.64233576643
 11
1500.000000000001
 21
631.64233576643
  0
LINE
  5
7F
100
AcDbEntity
  8
1
  6
CONTINUOUS
 62
           7
100
AcDbLine
 10
1500.000000000001
 20
281.64233576643
 11
-1499.999999999999
 21
281.64233576643
  0
LINE
  5
7E
100
AcDbEntity
  8
1
  6
CONTINUOUS
 62
           7
100
AcDbLine
 10
1500.000000000001
 20
2131.642335766431
 11
-1499.999999999999
 21
2131.642335766431
  0
LINE
  5
7D
100
AcDbEntity
  8
1
  6
CONTINUOUS
 62
           7
100
AcDbLine
 10
1500.000000000001
 20
231.64233576643
 11
1500.000000000001
 21
2731.642335766431
  0
LINE
  5
7C
100
AcDbEntity
  8
1
  6
CONTINUOUS
 62
           7
100
AcDbLine
 10
-1499.999999999999
 20
231.64233576643
 11
-1499.999999999999
 21
2731.642335766431
  0
LINE
  5
7B
100
AcDbEntity
  8
1
  6
CONTINUOUS
 62
           7
100
AcDbLine
 10
4000.000000000001
 20
2306.642335766431
 11
5000.000000000001
 21
2306.642335766431
  0
LINE
  5
7A
100
AcDbEntity
  8
1
  6
CONTINUOUS
 62
           7
100
AcDbLine
 10
4000.000000000001
 20
2231.642335766431
 11
4000.000000000001
 21
2306.642335766431
  0
LINE
  5
79
100
AcDbEntity
  8
1
  6
CONTINUOUS
 62
           7
100
AcDbLine
 10
3000.000000000001
 20
2781.642335766431
 11
3500.000000000001
 21
2781.642335766431
  0
LINE
  5
78
100
AcDbEntity
  8
1
  6
CONTINUOUS
 62
           4
100
AcDbLine
 10
3000.000000000001
 20
2734.642335766431
 11
3500.000000000001
 21
2734.642335766431
  0
LINE
  5
77
100
AcDbEntity
  8
1
  6
CONTINUOUS
 62
           7
100
AcDbLine
 10
3050.000000000001
 20
2861.642335766431
 11
3050.000000000001
 21
2881.642335766431
  0
LINE
  5
76
100
AcDbEntity
  8
1
  6
CONTINUOUS
 62
           7
100
AcDbLine
 10
3000.000000000001
 20
2881.642335766431
 11
3050.000000000001
 21
2881.642335766431
  0
LINE
  5
75
100
AcDbEntity
  8
1
  6
CONTINUOUS
 62
           7
100
AcDbLine
 10
5000.000000000001
 20
2231.642335766431
 11
3500.000000000001
 21
2231.642335766432
  0
LINE
  5
74
100
AcDbEntity
  8
1
  6
CONTINUOUS
 62
           7
100
AcDbLine
 10
5000.000000000001
 20
231.64233576643
 11
5000.000000000001
 21
2306.642335766431
  0
LINE
  5
73
100
AcDbEntity
  8
1
  6
CONTINUOUS
 62
           7
100
AcDbLine
 10
3000.000000000001
 20
231.64233576643
 11
3000.000000000001
 21
2881.642335766431
  0
LINE
  5
72
100
AcDbEntity
  8
1
  6
CONTINUOUS
 62
           7
100
AcDbLine
 10
1550.000000000001
 20
2731.642335766431
 11
-1549.999999999999
 21
2731.642335766431
  0
LINE
  5
71
100
AcDbEntity
  8
1
  6
CONTINUOUS
 62
           7
100
AcDbLine
 10
-1549.999999999999
 20
2881.642335766431
 11
-1549.999999999999
 21
231.64233576643
  0
LINE
  5
70
100
AcDbEntity
  8
1
  6
CONTINUOUS
 62
           7
100
AcDbLine
 10
1550.000000000001
 20
2881.642335766431
 11
-1549.999999999999
 21
2881.642335766431
  0
LINE
  5
6F
100
AcDbEntity
  8
1
  6
CONTINUOUS
 62
           7
100
AcDbLine
 10
1550.000000000001
 20
231.64233576643
 11
1550.000000000001
 21
2881.642335766431
  0
LINE
  5
6E
100
AcDbEntity
  8
1
  6
CONTINUOUS
 62
           7
100
AcDbLine
 10
1550.000000000001
 20
5999.999999999999
 11
1.0
 21
5999.999999999999
  0
LINE
  5
6D
100
AcDbEntity
  8
1
  6
CONTINUOUS
 62
           4
100
AcDbLine
 10
-1480.0
 20
5019.999999999999
 11
-1480.0
 21
5979.999999999999
  0
LINE
  5
6C
100
AcDbEntity
  8
1
  6
CONTINUOUS
 62
           4
100
AcDbLine
 10
-1480.0
 20
5019.999999999999
 11
-520.0
 21
5019.999999999999
  0
LINE
  5
6B
100
AcDbEntity
  8
1
  6
CONTINUOUS
 62
           7
100
AcDbLine
 10
1500.000000000001
 20
4050.0
 11
1500.000000000001
 21
5999.999999999999
  0
LINE
  5
6A
100
AcDbEntity
  8
1
  6
CONTINUOUS
 62
           7
100
AcDbLine
 10
-1499.999999999999
 20
4050.0
 11
-1499.999999999999
 21
5999.999999999999
  0
LINE
  5
69
100
AcDbEntity
  8
1
  6
CONTINUOUS
 62
           4
100
AcDbLine
 10
-1480.0
 20
4479.999999999998
 11
-1480.0
 21
4050.0
  0
LINE
  5
68
100
AcDbEntity
  8
1
  6
CONTINUOUS
 62
           7
100
AcDbLine
 10
-1549.999999999999
 20
4050.0
 11
1550.000000000001
 21
4050.0
  0
LINE
  5
67
100
AcDbEntity
  8
1
  6
CONTINUOUS
 62
           4
100
AcDbLine
 10
-20.0
 20
4050.0
 11
-20.0
 21
4479.999999999999
  0
LINE
  5
66
100
AcDbEntity
  8
1
  6
CONTINUOUS
 62
           7
100
AcDbLine
 10
-1549.999999999999
 20
4999.999999999999
 11
-230.52558883258
 21
4999.999999999999
  0
LINE
  5
65
100
AcDbEntity
  8
1
  6
CONTINUOUS
 62
           7
100
AcDbLine
 10
-1549.999999999999
 20
5999.999999999999
 11
-1549.999999999999
 21
4000.0
  0
LINE
  5
64
100
AcDbEntity
  8
1
  6
CONTINUOUS
 62
           7
100
AcDbLine
 10
-1549.999999999999
 20
4000.0
 11
1550.000000000001
 21
4000.0
  0
LINE
  5
63
100
AcDbEntity
  8
1
  6
CONTINUOUS
 62
           4
100
AcDbLine
 10
3020.0
 20
251.64233576643
 11
3480.0
 21
251.64233576643
  0
LINE
  5
62
100
AcDbEntity
  8
1
  6
CONTINUOUS
 62
           4
100
AcDbLine
 10
3480.0
 20
251.64233576643
 11
3480.0
 21
2711.642335766431
  0
LINE
  5
61
100
AcDbEntity
  8
1
  6
CONTINUOUS
 62
           4
100
AcDbLine
 10
3480.0
 20
2711.642335766431
 11
3020.000000000001
 21
2711.642335766431
  0
LINE
  5
60
100
AcDbEntity
  8
1
  6
CONTINUOUS
 62
           4
100
AcDbLine
 10
3020.000000000001
 20
2711.642335766431
 11
3020.0
 21
251.64233576643
  0
LINE
  5
5F
100
AcDbEntity
  8
1
  6
CONTINUOUS
 62
           7
100
AcDbLine
 10
3500.000000000001
 20
231.64233576643
 11
3500.000000000001
 21
2781.642335766431
  0
LINE
  5
5E
100
AcDbEntity
  8
1
  6
CONTINUOUS
 62
           7
100
AcDbLine
 10
3500.000000000001
 20
731.64233576643
 11
5000.000000000001
 21
731.64233576643
  0
LINE
  5
5D
100
AcDbEntity
  8
1
  6
CONTINUOUS
 62
           4
100
AcDbLine
 10
4979.433325304562
 20
711.027397296312
 11
3520.0
 21
711.027397296312
  0
LINE
  5
5C
100
AcDbEntity
  8
1
  6
CONTINUOUS
 62
           4
100
AcDbLine
 10
3520.0
 20
711.027397296312
 11
3520.0
 21
251.64233576643
  0
LINE
  5
5B
100
AcDbEntity
  8
1
  6
CONTINUOUS
 62
           4
100
AcDbLine
 10
3520.0
 20
251.64233576643
 11
4979.433325304562
 21
251.64233576643
  0
LINE
  5
5A
100
AcDbEntity
  8
1
  6
CONTINUOUS
 62
           4
100
AcDbLine
 10
4979.433325304562
 20
251.64233576643
 11
4979.433325304562
 21
711.027397296312
  0
LINE
  5
59
100
AcDbEntity
  8
1
  6
CONTINUOUS
 62
           4
100
AcDbLine
 10
3980.000000000001
 20
2211.642335766431
 11
3520.0
 21
2211.642335766431
  0
LINE
  5
58
100
AcDbEntity
  8
1
  6
CONTINUOUS
 62
           4
100
AcDbLine
 10
3520.0
 20
2211.642335766431
 11
3520.0
 21
751.64233576643
  0
LINE
  5
57
100
AcDbEntity
  8
1
  6
CONTINUOUS
 62
           4
100
AcDbLine
 10
3520.0
 20
751.64233576643
 11
3980.000000000001
 21
751.64233576643
  0
LINE
  5
56
100
AcDbEntity
  8
1
  6
CONTINUOUS
 62
           4
100
AcDbLine
 10
4020.0
 20
751.64233576643
 11
4980.000000000001
 21
751.64233576643
  0
LINE
  5
55
100
AcDbEntity
  8
1
  6
CONTINUOUS
 62
           4
100
AcDbLine
 10
4980.000000000001
 20
751.64233576643
 11
4980.000000000001
 21
2211.642335766431
  0
LINE
  5
54
100
AcDbEntity
  8
1
  6
CONTINUOUS
 62
           4
100
AcDbLine
 10
4980.000000000001
 20
2211.642335766431
 11
4020.0
 21
2211.642335766431
  0
LINE
  5
53
100
AcDbEntity
  8
1
  6
CONTINUOUS
 62
           7
100
AcDbLine
 10
-1499.999999999999
 20
706.642335766431
 11
1500.000000000001
 21
706.642335766431
  0
LINE
  5
52
100
AcDbEntity
  8
1
  6
CONTINUOUS
 62
           7
100
AcDbLine
 10
-1484.999999999999
 20
706.642335766431
 11
-1484.999999999999
 21
771.64233576643
  0
LINE
  5
51
100
AcDbEntity
  8
1
  6
CONTINUOUS
 62
           7
100
AcDbLine
 10
-15.0
 20
706.642335766431
 11
-15.0
 21
771.64233576643
  0
LINE
  5
50
100
AcDbEntity
  8
1
  6
CONTINUOUS
 62
           7
100
AcDbLine
 10
-15.0
 20
771.64233576643
 11
-1484.999999999999
 21
771.64233576643
  0
LINE
  5
4F
100
AcDbEntity
  8
1
  6
CONTINUOUS
 62
           4
100
AcDbLine
 10
520.0
 20
5979.999999999999
 11
520.0
 21
5019.999999999999
  0
LINE
  5
4E
100
AcDbEntity
  8
1
  6
CONTINUOUS
 62
           7
100
AcDbLine
 10
500.0
 20
4999.999999999999
 11
500.0
 21
5999.999999999999
  0
LINE
  5
4D
100
AcDbEntity
  8
1
  6
CONTINUOUS
 62
           4
100
AcDbLine
 10
-520.0
 20
5019.999999999999
 11
-520.0
 21
5197.571662593029
  0
LINE
  5
4C
100
AcDbEntity
  8
1
  6
CONTINUOUS
 62
           7
100
AcDbLine
 10
-500.0
 20
4999.999999999999
 11
-500.0
 21
5174.307806183469
  0
LINE
  5
4B
100
AcDbEntity
  8
1
  6
CONTINUOUS
 62
           7
100
AcDbLine
 10
2050.000000000001
 20
231.64233576643
 11
-2049.999999999999
 21
231.642335766429
  0
LINE
  5
4A
100
AcDbEntity
  8
1
  6
CONTINUOUS
 62
           7
100
AcDbLine
 10
3402.000000000001
 20
1451.392335766433
 11
3480.0
 21
1451.392335766434
  0
LINE
  5
49
100
AcDbEntity
  8
1
  6
CONTINUOUS
 62
           7
100
AcDbLine
 10
3402.000000000001
 20
1471.392335766433
 11
3480.0
 21
1471.392335766434
  0
LINE
  5
48
100
AcDbEntity
  8
1
  6
CONTINUOUS
 62
           7
100
AcDbLine
 10
3365.000000000001
 20
1501.642335766433
 11
3365.000000000001
 21
1488.392335766433
  0
LINE
  5
47
100
AcDbEntity
  8
1
  6
CONTINUOUS
 62
           7
100
AcDbLine
 10
3362.500000000001
 20
1501.642335766433
 11
3387.500000000001
 21
1501.642335766433
  0
LINE
  5
46
100
AcDbEntity
  8
1
  6
CONTINUOUS
 62
           7
100
AcDbLine
 10
3387.500000000001
 20
1531.642335766433
 11
3387.500000000001
 21
1501.642335766433
  0
LINE
  5
45
100
AcDbEntity
  8
1
  6
CONTINUOUS
 62
           7
100
AcDbLine
 10
3362.500000000001
 20
1531.642335766433
 11
3362.500000000001
 21
1501.642335766433
  0
LINE
  5
44
100
AcDbEntity
  8
1
  6
CONTINUOUS
 62
           7
100
AcDbLine
 10
3385.000000000001
 20
1488.392335766433
 11
3385.000000000001
 21
1501.642335766433
  0
LINE
  5
43
100
AcDbEntity
  8
1
  6
CONTINUOUS
 62
           7
100
AcDbLine
 10
-1549.999999999999
 20
4500.0
 11
1550.000000000001
 21
4500.0
  0
LINE
  5
42
100
AcDbEntity
  8
1
  6
CONTINUOUS
 62
           4
100
AcDbLine
 10
1503.000000000001
 20
4500.0
 11
1503.000000000001
 21
4050.0
  0
LINE
  5
41
100
AcDbEntity
  8
1
  6
CONTINUOUS
 62
           4
100
AcDbLine
 10
1540.000000000001
 20
4500.0
 11
1540.000000000001
 21
4050.0
  0
LINE
  5
40
100
AcDbEntity
  8
1
  6
CONTINUOUS
 62
           4
100
AcDbLine
 10
-1502.999999999999
 20
4500.0
 11
-1502.999999999999
 21
4050.0
  0
LINE
  5
3F
100
AcDbEntity
  8
1
  6
CONTINUOUS
 62
           4
100
AcDbLine
 10
-1539.999999999999
 20
4500.0
 11
-1539.999999999999
 21
4050.0
  0
LINE
  5
3E
100
AcDbEntity
  8
1
  6
CONTINUOUS
 62
           4
100
AcDbLine
 10
4000.000000000001
 20
2271.642335766431
 11
5000.000000000001
 21
2271.642335766431
  0
LINE
  5
3D
100
AcDbEntity
  8
1
  6
CONTINUOUS
 62
           4
100
AcDbLine
 10
4000.000000000001
 20
2234.642335766431
 11
5000.000000000001
 21
2234.642335766431
  0
LINE
  5
3C
100
AcDbEntity
  8
1
  6
CONTINUOUS
 62
           7
100
AcDbLine
 10
3500.000000000001
 20
2781.642335766431
 11
4000.000000000001
 21
2281.642335766432
  0
LINE
  5
3B
100
AcDbEntity
  8
1
  6
CONTINUOUS
 62
           7
100
AcDbLine
 10
4000.000000000001
 20
2281.642335766432
 11
5000.000000000001
 21
2281.642335766431
  0
LINE
  5
3A
100
AcDbEntity
  8
1
  6
CONTINUOUS
 62
           7
100
AcDbLine
 10
3500.000000000001
 20
2731.642335766432
 11
3000.000000000001
 21
2731.642335766431
  0
LINE
  5
39
100
AcDbEntity
  8
1
  6
CONTINUOUS
 62
           7
100
AcDbLine
 10
3250.000000000001
 20
1531.642335766433
 11
3450.000000000001
 21
1531.642335766433
  0
LINE
  5
38
100
AcDbEntity
  8
1
  6
CONTINUOUS
 62
           7
100
AcDbLine
 10
3450.000000000001
 20
1531.642335766433
 11
3450.000000000001
 21
1931.642335766433
  0
LINE
  5
37
100
AcDbEntity
  8
1
  6
CONTINUOUS
 62
           7
100
AcDbLine
 10
3450.000000000001
 20
1931.642335766433
 11
3250.000000000001
 21
1931.642335766433
  0
LINE
  5
36
100
AcDbEntity
  8
1
  6
CONTINUOUS
 62
           7
100
AcDbLine
 10
3250.000000000001
 20
1931.642335766433
 11
3250.000000000001
 21
1531.642335766433
  0
LINE
  5
35
100
AcDbEntity
  8
1
  6
CONTINUOUS
 62
           4
100
AcDbLine
 10
3450.000000000001
 20
1931.642335766433
 11
3480.0
 21
1931.642335766433
  0
LINE
  5
34
100
AcDbEntity
  8
1
  6
CONTINUOUS
 62
           4
100
AcDbLine
 10
3450.000000000001
 20
1531.642335766433
 11
3480.0
 21
1531.642335766433
  0
LINE
  5
33
100
AcDbEntity
  8
1
  6
CONTINUOUS
 62
           7
100
AcDbLine
 10
1550.000000000001
 20
1531.642335766433
 11
1710.000000000001
 21
1531.642335766433
  0
LINE
  5
32
100
AcDbEntity
  8
1
  6
CONTINUOUS
 62
           7
100
AcDbLine
 10
1710.000000000001
 20
1531.642335766433
 11
1710.000000000001
 21
1931.642335766433
  0
LINE
  5
31
100
AcDbEntity
  8
1
  6
CONTINUOUS
 62
           7
100
AcDbLine
 10
1710.000000000001
 20
1931.642335766433
 11
1550.000000000001
 21
1931.642335766433
  0
LINE
  5
30
100
AcDbEntity
  8
1
  6
CONTINUOUS
 62
           7
100
AcDbLine
 10
1550.000000000001
 20
4450.0
 11
1710.000000000001
 21
4450.0
  0
LINE
  5
2F
100
AcDbEntity
  8
1
  6
CONTINUOUS
 62
           7
100
AcDbLine
 10
1710.000000000001
 20
4450.0
 11
1710.000000000001
 21
4250.0
  0
LINE
  5
2E
100
AcDbEntity
  8
1
  6
CONTINUOUS
 62
           7
100
AcDbLine
 10
1710.000000000001
 20
4250.0
 11
1550.000000000001
 21
4250.0
  0
POINT
  5
2D
100
AcDbEntity
  8
0
 62
           3
100
AcDbPoint
 10
3833.399996721735
 20
1596.642335766547
  0
ENDSEC
  0
SECTION
  2
OBJECTS
  0
DICTIONARY
  5
19
100
AcDbDictionary
  3
ACAD_GROUP
350
1A
  3
ACAD_MLINESTYLE
350
1B
  0
DICTIONARY
  5
1A
102
{ACAD_REACTORS
330
19
102
}
100
AcDbDictionary
  0
DICTIONARY
  5
1B
102
{ACAD_REACTORS
330
19
102
}
100
AcDbDictionary
  3
STANDARD
350
1C
  0
MLINESTYLE
  5
1C
102
{ACAD_REACTORS
330
1B
102
}
100
AcDbMlineStyle
  2
STANDARD
 70
           0
  3

 62
           0
 51
90.0
 52
90.0
 71
           2
 49
0.5
 62
         256
  6
BYLAYER
 49
-0.5
 62
         256
  6
BYLAYER
  0
ENDSEC
  0
EOF
