  0
SECTION
  2
HEADER
  9
$ACADVER
  1
AC1014
  9
$ACADMAINTVER
 70
           0
  9
$DWGCODEPAGE
  3
DOS932
  9
$INSBASE
 10
0.0
 20
0.0
 30
0.0
  9
$EXTMIN
 10
1.000000000000E+20
 20
1.000000000000E+20
 30
1.000000000000E+20
  9
$EXTMAX
 10
-1.000000000000E+20
 20
-1.000000000000E+20
 30
-1.000000000000E+20
  9
$LIMMIN
 10
0.0
 20
0.0
  9
$LIMMAX
 10
0.0
 20
0.0
  9
$ORTHOMODE
 70
           0
  9
$REGENMODE
 70
           1
  9
$FILLMODE
 70
           1
  9
$QTEXTMODE
 70
           0
  9
$MIRRTEXT
 70
           1
  9
$DRAGMODE
 70
           2
  9
$LTSCALE
 40
1.0
  9
$OSMODE
 70
           0
  9
$ATTMODE
 70
           1
  9
$TEXTSIZE
 40
0.2
  9
$TRACEWID
 40
0.05
  9
$TEXTSTYLE
  7
STANDARD
  9
$CLAYER
  8
0
  9
$CELTYPE
  6
CONTINUOUS
  9
$CECOLOR
 62
         256
  9
$CELTSCALE
 40
1.0
  9
$DELOBJ
 70
           1
  9
$DISPSILH
 70
           0
  9
$DIMSCALE
 40
1.0
  9
$DIMASZ
 40
0.18
  9
$DIMEXO
 40
0.0625
  9
$DIMDLI
 40
0.38
  9
$DIMRND
 40
0.0
  9
$DIMDLE
 40
0.0
  9
$DIMEXE
 40
0.18
  9
$DIMTP
 40
0.0
  9
$DIMTM
 40
0.0
  9
$DIMTXT
 40
0.18
  9
$DIMCEN
 40
0.09
  9
$DIMTSZ
 40
0.0
  9
$DIMTOL
 70
           0
  9
$DIMLIM
 70
           0
  9
$DIMTIH
 70
           1
  9
$DIMTOH
 70
           1
  9
$DIMSE1
 70
           0
  9
$DIMSE2
 70
           0
  9
$DIMTAD
 70
           0
  9
$DIMZIN
 70
           0
  9
$DIMBLK
  1

  9
$DIMASO
 70
           1
  9
$DIMSHO
 70
           1
  9
$DIMPOST
  1

  9
$DIMAPOST
  1

  9
$DIMALT
 70
           0
  9
$DIMALTD
 70
           2
  9
$DIMALTF
 40
25.4
  9
$DIMLFAC
 40
1.0
  9
$DIMTOFL
 70
           0
  9
$DIMTVP
 40
0.0
  9
$DIMTIX
 70
           0
  9
$DIMSOXD
 70
           0
  9
$DIMSAH
 70
           0
  9
$DIMBLK1
  1

  9
$DIMBLK2
  1

  9
$DIMSTYLE
  2
STANDARD
  9
$DIMCLRD
 70
           0
  9
$DIMCLRE
 70
           0
  9
$DIMCLRT
 70
           0
  9
$DIMTFAC
 40
1.0
  9
$DIMGAP
 40
0.09
  9
$DIMJUST
 70
           0
  9
$DIMSD1
 70
           0
  9
$DIMSD2
 70
           0
  9
$DIMTOLJ
 70
           1
  9
$DIMTZIN
 70
           0
  9
$DIMALTZ
 70
           0
  9
$DIMALTTZ
 70
           0
  9
$DIMFIT
 70
           3
  9
$DIMUPT
 70
           0
  9
$DIMUNIT
 70
           2
  9
$DIMDEC
 70
           4
  9
$DIMTDEC
 70
           4
  9
$DIMALTU
 70
           2
  9
$DIMALTTD
 70
           2
  9
$DIMTXSTY
  7
STANDARD
  9
$DIMAUNIT
 70
           0
  9
$LUNITS
 70
           2
  9
$LUPREC
 70
           4
  9
$SKETCHINC
 40
0.1
  9
$FILLETRAD
 40
0.0
  9
$AUNITS
 70
           0
  9
$AUPREC
 70
           0
  9
$MENU
  1
acad
  9
$ELEVATION
 40
0.0
  9
$PELEVATION
 40
0.0
  9
$THICKNESS
 40
0.0
  9
$LIMCHECK
 70
           0
  9
$BLIPMODE
 70
           1
  9
$CHAMFERA
 40
0.0
  9
$CHAMFERB
 40
0.0
  9
$CHAMFERC
 40
0.0
  9
$CHAMFERD
 40
0.0
  9
$SKPOLY
 70
           0
  9
$TDCREATE
 40
0.000000000
  9
$TDUPDATE
 40
0.000000000
  9
$TDINDWG
 40
0.0000000000
  9
$TDUSRTIMER
 40
0.0000000000
  9
$USRTIMER
 70
           1
  9
$ANGBASE
 50
0.0
  9
$ANGDIR
 70
           0
  9
$PDMODE
 70
           0
  9
$PDSIZE
 40
0.0
  9
$PLINEWID
 40
0.0
  9
$COORDS
 70
           0
  9
$SPLFRAME
 70
           0
  9
$SPLINETYPE
 70
           6
  9
$SPLINESEGS
 70
           8
  9
$ATTDIA
 70
           0
  9
$ATTREQ
 70
           1
  9
$HANDLING
 70
           1
  9
$HANDSEED
  5
397
  9
$SURFTAB1
 70
           6
  9
$SURFTAB2
 70
           6
  9
$SURFTYPE
 70
           6
  9
$SURFU
 70
           6
  9
$SURFV
 70
           6
  9
$UCSNAME
  2

  9
$UCSORG
 10
0.0
 20
0.0
 30
0.0
  9
$UCSXDIR
 10
1.0
 20
0.0
 30
0.0
  9
$UCSYDIR
 10
0.0
 20
1.0
 30
0.0
  9
$PUCSNAME
  2

  9
$PUCSORG
 10
0.0
 20
0.0
 30
0.0
  9
$PUCSXDIR
 10
1.0
 20
0.0
 30
0.0
  9
$PUCSYDIR
 10
0.0
 20
1.0
 30
0.0
  9
$USERI1
 70
           0
  9
$USERI2
 70
           0
  9
$USERI3
 70
           0
  9
$USERI4
 70
           0
  9
$USERI5
 70
           0
  9
$USERR1
 40
0.0
  9
$USERR2
 40
0.0
  9
$USERR3
 40
0.0
  9
$USERR4
 40
0.0
  9
$USERR5
 40
0.0
  9
$WORLDVIEW
 70
           1
  9
$SHADEDGE
 70
           3
  9
$SHADEDIF
 70
          70
  9
$TILEMODE
 70
           1
  9
$MAXACTVP
 70
          16
  9
$PINSBASE
 10
0.0
 20
0.0
 30
0.0
  9
$PLIMCHECK
 70
           0
  9
$PEXTMIN
 10
1.000000000000E+20
 20
1.000000000000E+20
 30
1.000000000000E+20
  9
$PEXTMAX
 10
-1.000000000000E+20
 20
-1.000000000000E+20
 30
-1.000000000000E+20
  9
$PLIMMIN
 10
0.0
 20
0.0
  9
$PLIMMAX
 10
12.0
 20
9.0
  9
$UNITMODE
 70
           0
  9
$VISRETAIN
 70
           0
  9
$PLINEGEN
 70
           1
  9
$PSLTSCALE
 70
           0
  9
$TREEDEPTH
 70
        3020
  9
$PICKSTYLE
 70
           1
  9
$CMLSTYLE
  2
STANDARD
  9
$CMLJUST
 70
           0
  9
$CMLSCALE
 40
1.0
  9
$PROXYGRAPHICS
 70
           0
  9
$MEASUREMENT
 70
           0
  0
ENDSEC
  0
SECTION
  2
CLASSES
  0
CLASS
  1
LWPOLYLINE
  2
AcDbPolyline
  3
"AutoCAD"
 90
        0
280
           0
281
           1
  0
CLASS
  1
IMAGE
  2
AcDbRasterImage
  3
ISM
 90
      127
280
           0
281
           1
  0
CLASS
  1
OLE2FRAME
  2
AcDbOle2Frame
  3
""
 90
        0
280
           0
281
           1
  0
CLASS
  1
HATCH
  2
AcDbHatch
  3
"ACAD_SEDONA"
 90
        0
280
           0
281
           1
  0
CLASS
  1
DICTIONARYVAR
  2
AcDbDictionaryVar
  3
"AutoCAD"
 90
        0
280
           0
281
           0
  0
CLASS
  1
RASTERVARIABLES
  2
AcDbRasterVariables
  3
ISM
 90
        0
280
           0
281
           0
  0
CLASS
  1
IMAGEDEF
  2
AcDbRasterImageDef
  3
ISM
 90
        0
280
           0
281
           0
  0
CLASS
  1
IMAGEDEF_REACTOR
  2
AcDbRasterImageDefReactor
  3
ISM
 90
        1
280
           0
281
           0
  0
CLASS
  1
IDBUFFER
  2
AcDbIdBuffer
  3
"Acad"
 90
        0
280
           0
281
           0
  0
CLASS
  1
SPATIAL_FILTER
  2
AcDbSpatialFilter
  3
"Acad"
 90
        0
280
           0
281
           0
  0
CLASS
  1
XRECORD
  2
AcDbXrecord
  3
"<Built In>"
 90
        0
280
           0
281
           0
  0
CLASS
  1
SORTENTSTABLE
  2
AcDbSortentsTable
  3
"AutoCAD"
 90
        0
280
           0
281
           0
  0
CLASS
  1
LAYER_INDEX
  2
AcDbLayerIndex
  3
"Acad"
 90
        0
280
           0
281
           0
  0
CLASS
  1
SPATIAL_INDEX
  2
AcDbSpatialIndex
  3
"Acad"
 90
        0
280
           0
281
           0
  0
CLASS
  1
OBJECT_PTR
  2
CAseDLPNTableRecord
  3
"ASE-LPNTableRecord"
 90
        1
280
           0
281
           0
  0
CLASS
  1
LAYOUT
  2
AcDbLayout
  3
"AutoCAD 2000"
 90
        1
280
           0
281
           0
  0
CLASS
  1
PLOTSETTINGS
  2
AcDbPlotSettings
  3
"AutoCAD 2000"
 90
        1
280
           0
281
           0
  0
CLASS
  1
ACDBDICTIONARYWDFLT
  2
AcDbDictionaryWithDefault
  3
"AutoCAD 2000"
 90
        1
280
           0
281
           0
  0
CLASS
  1
ACDBPLACEHOLDER
  2
AcDbPlaceHolder
  3
"AutoCAD 2000"
 90
        1
280
           0
281
           0
  0
CLASS
  1
VBA_PROJECT
  2
AcDbVbaProject
  3
"acadvba"
 90
        1
280
           0
281
           0
  0
CLASS
  1
WIPEOUT
  2
AcDbWipeout
  3
WipeOut|AutoCAD Express Tool|expresstools@autodesk.com
 90
      127
280
           0
281
           1
  0
CLASS
  1
WIPEOUTVARIABLES
  2
AcDbWipeoutVariables
  3
WipeOut|AutoCAD Express Tool|expresstools@autodesk.com
 90
        0
280
           0
281
           0
  0
CLASS
  1
RTEXT
  2
RText
  3
RText|AutoCAD Express Tool|expresstools@autodesk.com
 90
        0
280
           0
281
           1
  0
CLASS
  1
ARCALIGNEDTEXT
  2
AcDbArcAlignedText
  3
ATEXT|AutoCAD Express Tool|expresstools@autodesk.com
 90
        0
280
           0
281
           1
  0
ENDSEC
  0
SECTION
  2
TABLES
  0
TABLE
  2
VPORT
  5
7
100
AcDbSymbolTable
 70
           1
  0
VPORT
  5
15
100
AcDbSymbolTableRecord
100
AcDbViewportTableRecord
  2
*ACTIVE
 70
           0
 10
0.0
 20
0.0
 11
1.0
 21
1.0
 12
6.591288
 22
4.579184
 13
0.0
 23
0.0
 14
1.0
 24
1.0
 15
0.0
 25
0.0
 16
0.0
 26
0.0
 36
1.0
 17
0.0
 27
0.0
 37
0.0
 40
9.158369
 41
0.688564
 42
50.0
 43
0.0
 44
0.0
 50
0.0
 51
0.0
 71
           0
 72
         100
 73
           1
 74
           1
 75
           0
 76
           0
 77
           0
 78
           0
  0
ENDTAB
  0
TABLE
  2
LTYPE
  5
4
100
AcDbSymbolTable
 70
          10
  0
LTYPE
  5
11
100
AcDbSymbolTableRecord
100
AcDbLinetypeTableRecord
  2
BYBLOCK
 70
          64
  3

 72
          65
 73
           0
 40
0.0
  0
LTYPE
  5
12
100
AcDbSymbolTableRecord
100
AcDbLinetypeTableRecord
  2
BYLAYER
 70
          64
  3

 72
          65
 73
           0
 40
0.0
  0
LTYPE
  5
13
100
AcDbSymbolTableRecord
100
AcDbLinetypeTableRecord
  2
CONTINUOUS
 70
          64
  3
Solid line
 72
          65
 73
           0
 40
0.0
  0
LTYPE
  5
1D
100
AcDbSymbolTableRecord
100
AcDbLinetypeTableRecord
  2
DASHED
 70
          64
  3
Dashed
 72
          65
 73
           2
 40
15.0
 49
12.0
 74
           0
 49
-3.0
 74
           0
  0
LTYPE
  5
1E
100
AcDbSymbolTableRecord
100
AcDbLinetypeTableRecord
  2
DOTTED
 70
          64
  3
Dotted
 72
          65
 73
           2
 40
3.5
 49
0.5
 74
           0
 49
-3.0
 74
           0
  0
LTYPE
  5
1F
100
AcDbSymbolTableRecord
100
AcDbLinetypeTableRecord
  2
DOT_CENTER
 70
          64
  3
Dot_Center
 72
          65
 73
           4
 40
2.0
 49
1.25
 74
           0
 49
-0.25
 74
           0
 49
0.25
 74
           0
 49
-0.25
 74
           0
  0
LTYPE
  5
20
100
AcDbSymbolTableRecord
100
AcDbLinetypeTableRecord
  2
LONG_DASHED
 70
          64
  3
Long_Dashed
 72
          65
 73
           2
 40
2.0
 49
1.5
 74
           0
 49
-0.5
 74
           0
  0
LTYPE
  5
21
100
AcDbSymbolTableRecord
100
AcDbLinetypeTableRecord
  2
DASH_CENTER
 70
          64
  3
Dash_Center
 72
          65
 73
           4
 40
36.0
 49
24.0
 74
           0
 49
-3.0
 74
           0
 49
6.0
 74
           0
 49
-3.0
 74
           0
  0
LTYPE
  5
22
100
AcDbSymbolTableRecord
100
AcDbLinetypeTableRecord
  2
PHANTOM
 70
          64
  3
Phantom
 72
          65
 73
           6
 40
2.5
 49
1.25
 74
           0
 49
-0.25
 74
           0
 49
0.25
 74
           0
 49
-0.25
 74
           0
 49
0.25
 74
           0
 49
-0.25
 74
           0
  0
LTYPE
  5
23
100
AcDbSymbolTableRecord
100
AcDbLinetypeTableRecord
  2
CENTER_DASH_DASH
 70
          64
  3
Center_Dash_Dash
 72
          65
 73
           6
 40
22.0
 49
12.0
 74
           0
 49
-3.0
 74
           0
 49
0.5
 74
           0
 49
-3.0
 74
           0
 49
0.5
 74
           0
 49
-3.0
 74
           0
  0
ENDTAB
  0
TABLE
  2
LAYER
  5
2
100
AcDbSymbolTable
 70
           8
  0
LAYER
  5
14
100
AcDbSymbolTableRecord
100
AcDbLayerTableRecord
  2
0
 70
           0
 62
           7
  6
CONTINUOUS
  0
LAYER
  5
24
100
AcDbSymbolTableRecord
100
AcDbLayerTableRecord
  2
___S__
 70
           0
 62
           7
  6
CONTINUOUS
  0
LAYER
  5
25
100
AcDbSymbolTableRecord
100
AcDbLayerTableRecord
  2
976
 70
           0
 62
           7
  6
CONTINUOUS
  0
LAYER
  5
26
100
AcDbSymbolTableRecord
100
AcDbLayerTableRecord
  2
FORMAT
 70
           0
 62
           7
  6
CONTINUOUS
  0
LAYER
  5
27
100
AcDbSymbolTableRecord
100
AcDbLayerTableRecord
  2
1
 70
           0
 62
           7
  6
CONTINUOUS
  0
LAYER
  5
28
100
AcDbSymbolTableRecord
100
AcDbLayerTableRecord
  2
2
 70
           0
 62
           7
  6
CONTINUOUS
  0
LAYER
  5
29
100
AcDbSymbolTableRecord
100
AcDbLayerTableRecord
  2
7
 70
           0
 62
           7
  6
CONTINUOUS
  0
LAYER
  5
2A
100
AcDbSymbolTableRecord
100
AcDbLayerTableRecord
  2
____
 70
           0
 62
           7
  6
CONTINUOUS
  0
ENDTAB
  0
TABLE
  2
STYLE
  5
3
100
AcDbSymbolTable
 70
           1
  0
STYLE
  5
17
100
AcDbSymbolTableRecord
100
AcDbTextStyleTableRecord
  2
STANDARD
 70
           0
 40
0.0
 41
1.0
 50
0.0
 71
           0
 42
0.0
  3
txt
  4

  0
ENDTAB
  0
TABLE
  2
VIEW
  5
5
100
AcDbSymbolTable
 70
           0
  0
ENDTAB
  0
TABLE
  2
UCS
  5
6
100
AcDbSymbolTable
 70
           0
  0
ENDTAB
  0
TABLE
  2
APPID
  5
8
100
AcDbSymbolTable
 70
           1
  0
APPID
  5
16
100
AcDbSymbolTableRecord
100
AcDbRegAppTableRecord
  2
ACAD
 70
           0
  0
ENDTAB
  0
TABLE
  2
DIMSTYLE
  5
9
100
AcDbSymbolTable
 70
           1
  0
DIMSTYLE
105
18
100
AcDbSymbolTableRecord
100
AcDbDimStyleTableRecord
  2
STANDARD
 70
           0
  3

  4

  5

  6

  7

 40
1.0
 41
0.18
 42
0.0625
 43
0.38
 44
0.18
 45
0.0
 46
0.0
 47
0.0
 48
0.0
 71
           0
 72
           0
 73
           1
 74
           1
 75
           0
 76
           0
 77
           0
 78
           0
140
0.18
141
0.09
142
0.0
143
25.4
144
1.0
145
0.0
146
1.0
147
0.09
170
           0
171
           2
172
           0
173
           0
174
           0
175
           0
176
           0
177
           0
178
           0
270
           2
271
           4
272
           4
273
           2
274
           2
275
           0
280
           0
281
           0
282
           0
283
           1
284
           0
285
           0
286
           0
287
           0
288
           0
340
17
  0
ENDTAB
  0
TABLE
  2
BLOCK_RECORD
  5
1
100
AcDbSymbolTable
 70
           0
  0
BLOCK_RECORD
  5
A
100
AcDbSymbolTableRecord
100
AcDbBlockTableRecord
  2
*MODEL_SPACE
  0
BLOCK_RECORD
  5
B
100
AcDbSymbolTableRecord
100
AcDbBlockTableRecord
  2
*PAPER_SPACE
  0
ENDTAB
  0
ENDSEC
  0
SECTION
  2
BLOCKS
  0
BLOCK
  5
D
100
AcDbEntity
  8
0
100
AcDbBlockBegin
  2
*MODEL_SPACE
 70
           0
 10
0.0
 20
0.0
 30
0.0
  3
*MODEL_SPACE
  1

  0
ENDBLK
  5
E
100
AcDbEntity
  8
0
100
AcDbBlockEnd
  0
BLOCK
  5
F
100
AcDbEntity
 67
           1
  8
0
100
AcDbBlockBegin
  2
*PAPER_SPACE
 70
           0
 10
0.0
 20
0.0
 30
0.0
  3
*PAPER_SPACE
  1

  0
ENDBLK
  5
10
100
AcDbEntity
 67
           1
  8
0
100
AcDbBlockEnd
  0
ENDSEC
  0
SECTION
  2
ENTITIES
  0
ARC
  5
395
100
AcDbEntity
  8
1
  6
CONTINUOUS
 62
           3
100
AcDbCircle
 10
4556.532278270105
 20
1641.0
 40
288.0
100
AcDbArc
 50
90.0
 51
180.0
  0
ARC
  5
394
100
AcDbEntity
  8
1
  6
CONTINUOUS
 62
           3
100
AcDbCircle
 10
4556.532279581498
 20
1641.000000000001
 40
280.0
100
AcDbArc
 50
90.0
 51
180.0
  0
ARC
  5
393
100
AcDbEntity
  8
1
  6
CONTINUOUS
 62
           3
100
AcDbCircle
 10
4704.795849150215
 20
1932.19374658004
 40
0.5
100
AcDbArc
 50
90.0
 51
180.0
  0
ARC
  5
392
100
AcDbEntity
  8
1
  6
CONTINUOUS
 62
           3
100
AcDbCircle
 10
4704.795849150215
 20
1917.80625341996
 40
0.5
100
AcDbArc
 50
180.0
 51
-90.0
  0
ARC
  5
391
100
AcDbEntity
  8
1
  6
CONTINUOUS
 62
           7
100
AcDbCircle
 10
-64.999999999998
 20
5551.500000000001
 40
12.0
100
AcDbArc
 50
0.0
 51
90.0
  0
ARC
  5
390
100
AcDbEntity
  8
1
  6
CONTINUOUS
 62
           7
100
AcDbCircle
 10
-64.999999999998
 20
5448.500000000001
 40
12.0
100
AcDbArc
 50
-90.0
 51
0.0
  0
ARC
  5
38F
100
AcDbEntity
  8
1
  6
CONTINUOUS
 62
           7
100
AcDbCircle
 10
-105.175033401803
 20
5551.500000000001
 40
12.0
100
AcDbArc
 50
90.0
 51
180.0
  0
ARC
  5
38E
100
AcDbEntity
  8
1
  6
CONTINUOUS
 62
           7
100
AcDbCircle
 10
-105.175033401803
 20
5448.500000000001
 40
12.0
100
AcDbArc
 50
180.0
 51
-90.0
  0
ARC
  5
38D
100
AcDbEntity
  8
1
  6
CONTINUOUS
 62
           4
100
AcDbCircle
 10
-132.091297237954
 20
5454.500000000001
 40
11.999999999999
100
AcDbArc
 50
-120.430594205709
 51
-90.0
  0
ARC
  5
38C
100
AcDbEntity
  8
1
  6
CONTINUOUS
 62
           4
100
AcDbCircle
 10
-132.091297237954
 20
5545.500000000001
 40
12.0
100
AcDbArc
 50
90.0
 51
120.430594205709
  0
ARC
  5
38B
100
AcDbEntity
  8
1
  6
CONTINUOUS
 62
           7
100
AcDbCircle
 10
-115.503603199999
 20
2936.499999999996
 40
12.0
100
AcDbArc
 50
180.0
 51
-90.0
  0
ARC
  5
38A
100
AcDbEntity
  8
1
  6
CONTINUOUS
 62
           7
100
AcDbCircle
 10
-115.503603199999
 20
3012.499999999996
 40
12.0
100
AcDbArc
 50
90.0
 51
180.0
  0
ARC
  5
389
100
AcDbEntity
  8
1
  6
CONTINUOUS
 62
           7
100
AcDbCircle
 10
-64.999999999998
 20
2936.499999999996
 40
12.0
100
AcDbArc
 50
-90.0
 51
0.0
  0
ARC
  5
388
100
AcDbEntity
  8
1
  6
CONTINUOUS
 62
           7
100
AcDbCircle
 10
-64.999999999998
 20
3012.499999999996
 40
12.0
100
AcDbArc
 50
0.0
 51
90.0
  0
ARC
  5
387
100
AcDbEntity
  8
1
  6
CONTINUOUS
 62
           4
100
AcDbCircle
 10
5362.00413276446
 20
2790.999999999998
 40
1.0
100
AcDbArc
 50
179.999999999895
 51
-90.0
  0
ARC
  5
386
100
AcDbEntity
  8
1
  6
CONTINUOUS
 62
           4
100
AcDbCircle
 10
5351.00413276446
 20
2790.999999999998
 40
0.999999999998
100
AcDbArc
 50
-90.0
 51
0.000000000104
  0
ARC
  5
385
100
AcDbEntity
  8
1
  6
CONTINUOUS
 62
           4
100
AcDbCircle
 10
5351.00413276446
 20
2285.0
 40
1.0
100
AcDbArc
 50
0.0
 51
90.0
  0
ARC
  5
384
100
AcDbEntity
  8
1
  6
CONTINUOUS
 62
           4
100
AcDbCircle
 10
5362.00413276446
 20
2285.0
 40
1.0
100
AcDbArc
 50
90.0
 51
180.0
  0
ARC
  5
383
100
AcDbEntity
  8
1
  6
CONTINUOUS
 62
           7
100
AcDbCircle
 10
4858.00413276446
 20
3012.5
 40
12.0
100
AcDbArc
 50
0.0
 51
90.0
  0
ARC
  5
382
100
AcDbEntity
  8
1
  6
CONTINUOUS
 62
           7
100
AcDbCircle
 10
4858.00413276446
 20
2936.5
 40
12.0
100
AcDbArc
 50
-90.0
 51
0.0
  0
ARC
  5
381
100
AcDbEntity
  8
1
  6
CONTINUOUS
 62
           7
100
AcDbCircle
 10
4755.00413276446
 20
3012.5
 40
12.0
100
AcDbArc
 50
90.0
 51
180.0
  0
ARC
  5
380
100
AcDbEntity
  8
1
  6
CONTINUOUS
 62
           7
100
AcDbCircle
 10
4755.00413276446
 20
2936.5
 40
12.0
100
AcDbArc
 50
180.0
 51
-90.0
  0
SPLINE
  5
37F
100
AcDbEntity
  8
0
  6
CONTINUOUS
 62
           3
100
AcDbSpline
210
0.0
220
0.0
230
1.0
 70
           0
 71
           3
 72
           8
 73
           5
 74
           7
 42
0.00000000001
 43
0.00000000001
 44
0.00000000001
 40
0.0
 40
0.0
 40
0.0
 40
0.5558562714156194
 40
1.5343210643712788
 40
2.9385072682928635
 40
2.9385072682928635
 40
2.9385072682928635
 10
4222.5322781808482
 20
1359.9999994040479
 30
0.0
 10
4222.6007112683174
 20
1359.999553710677
 30
0.0
 10
4223.5755340591977
 20
1359.993204851213
 30
0.0
 10
4224.5308123639161
 20
1359.765309021863
 30
0.0
 10
4225.4190296146753
 20
1359.5534116030681
 30
0.0
 11
4222.5322781808482
 21
1359.9999994040479
 31
0.0
 11
4222.6718930835796
 21
1359.9990901152978
 31
0.0
 11
4222.9538716168336
 21
1359.9972536357895
 31
0.0
 11
4223.5181926304604
 21
1359.9708199944766
 31
0.0
 11
4223.9678307866106
 21
1359.8996166396905
 31
0.0
 11
4224.61212128228
 21
1359.745911571621
 31
0.0
 11
4225.4190296146753
 21
1359.5534116030681
 31
0.0
  0
SPLINE
  5
37E
100
AcDbEntity
  8
0
  6
CONTINUOUS
 62
           3
100
AcDbSpline
210
0.0
220
0.0
230
1.0
 70
           0
 71
           3
 72
           8
 73
           5
 74
           7
 42
0.00000000001
 43
0.00000000001
 44
0.00000000001
 40
0.0
 40
0.0
 40
0.0
 40
0.5558558490687654
 40
1.5343195422050293
 40
2.9385037456636622
 40
2.9385037456636622
 40
2.9385037456636622
 10
4222.5322781808482
 20
1355.000004172322
 30
0.0
 10
4222.4638450954653
 20
1355.0004498783021
 30
0.0
 10
4221.4890231464142
 20
1355.0067989106681
 30
0.0
 10
4220.533744375437
 20
1355.2346869292301
 30
0.0
 10
4219.6455267470174
 20
1355.446577072242
 30
0.0
 11
4222.5322781808482
 21
1355.000004172322
 31
0.0
 11
4222.3926633354204
 21
1355.0009134863224
 31
0.0
 11
4222.1106849699008
 21
1355.0027500163631
 31
0.0
 11
4221.5463643551884
 21
1355.0291829422183
 31
0.0
 11
4221.0967261580254
 21
1355.100383931175
 31
0.0
 11
4220.4524354139794
 21
1355.2540837154693
 31
0.0
 11
4219.6455267470174
 21
1355.446577072242
 31
0.0
  0
SPLINE
  5
37D
100
AcDbEntity
  8
0
  6
CONTINUOUS
 62
           3
100
AcDbSpline
210
0.0
220
0.0
230
1.0
 70
           0
 71
           3
 72
           8
 73
           5
 74
           7
 42
0.00000000001
 43
0.00000000001
 44
0.00000000001
 40
0.0
 40
0.0
 40
0.0
 40
0.2779452695527908
 40
0.7862805426564334
 40
1.5429573556195739
 40
1.5429573556195739
 40
1.5429573556195739
 10
4226.8624052151772
 20
1355.0000041724199
 30
0.0
 10
4226.8281886716477
 20
1355.00044987719
 30
0.0
 10
4226.3407783744451
 20
1355.0067988847441
 30
0.0
 10
4225.8631386741563
 20
1355.2346869284661
 30
0.0
 10
4225.4190296145362
 20
1355.4465770722229
 30
0.0
 11
4226.8624052151772
 21
1355.0000041724199
 31
0.0
 11
4226.7936686822377
 21
1355.0008995346441
 31
0.0
 11
4226.6558921704764
 21
1355.0026942117759
 31
0.0
 11
4226.3715728733059
 21
1355.0286664762175
 31
0.0
 11
4226.148842573858
 21
1355.0983739236062
 31
0.0
 11
4225.8235373841771
 21
1355.2535812131903
 31
0.0
 11
4225.4190296145362
 21
1355.4465770722229
 31
0.0
  0
SPLINE
  5
37C
100
AcDbEntity
  8
0
  6
CONTINUOUS
 62
           3
100
AcDbSpline
210
0.0
220
0.0
230
1.0
 70
           0
 71
           3
 72
           8
 73
           5
 74
           7
 42
0.00000000001
 43
0.00000000001
 44
0.00000000001
 40
0.0
 40
0.0
 40
0.0
 40
0.6787700534935511
 40
1.1891668948827512
 40
1.5431123743459971
 40
1.5431123743459971
 40
1.5431123743459971
 10
4219.6455267470174
 20
1355.446577072242
 30
0.0
 10
4219.2761029335761
 20
1355.2624483716061
 30
0.0
 10
4218.7999635097958
 20
1355.0251303367841
 30
0.0
 10
4218.3116053117583
 20
1355.0046045512611
 30
0.0
 10
4218.2021511465191
 20
1355.0000041724199
 30
0.0
 11
4219.6455267470174
 21
1355.446577072242
 31
0.0
 11
4219.3005144328108
 21
1355.2746155830068
 31
0.0
 11
4219.0043251170719
 21
1355.126988516573
 31
0.0
 11
4218.7789596511202
 21
1355.0475647466085
 31
0.0
 11
4218.5115864678164
 21
1355.0130097962931
 31
0.0
 11
4218.3342370594637
 21
1355.0055557678088
 31
0.0
 11
4218.2021511465191
 21
1355.0000041724199
 31
0.0
  0
SPLINE
  5
37B
100
AcDbEntity
  8
0
  6
CONTINUOUS
 62
           3
100
AcDbSpline
210
0.0
220
0.0
230
1.0
 70
           0
 71
           3
 72
           8
 73
           5
 74
           7
 42
0.00000000001
 43
0.00000000001
 44
0.00000000001
 40
0.0
 40
0.0
 40
0.0
 40
0.3539460334955767
 40
0.8643414136598189
 40
1.5431068114000444
 40
1.5431068114000444
 40
1.5431068114000444
 10
4218.2021511465191
 20
1359.9999994040479
 30
0.0
 10
4218.3116053015974
 20
1359.9953935078299
 30
0.0
 10
4218.7999631302173
 20
1359.97484311874
 30
0.0
 10
4219.2761028076193
 20
1359.7375336343539
 30
0.0
 10
4219.6455267471438
 20
1359.553411603021
 30
0.0
 11
4218.2021511465191
 21
1359.9999994040479
 31
0.0
 11
4218.3342371447552
 21
1359.9944411463541
 31
0.0
 11
4218.5115868293069
 21
1359.9869781657089
 31
0.0
 11
4218.7789596005605
 21
1359.9524131949256
 31
0.0
 11
4219.0043253125014
 21
1359.8729883765131
 31
0.0
 11
4219.3005144187209
 21
1359.7253668120604
 31
0.0
 11
4219.6455267471438
 21
1359.553411603021
 31
0.0
  0
SPLINE
  5
37A
100
AcDbEntity
  8
0
  6
CONTINUOUS
 62
           3
100
AcDbSpline
210
0.0
220
0.0
230
1.0
 70
           0
 71
           3
 72
           8
 73
           5
 74
           7
 42
0.00000000001
 43
0.00000000001
 44
0.00000000001
 40
0.0
 40
0.0
 40
0.0
 40
0.6415450374770628
 40
1.1579303686104754
 40
1.5357381749040628
 40
1.5357381749040628
 40
1.5357381749040628
 10
4218.2021511465191
 20
1355.0000041724199
 30
0.0
 10
4217.8118051677857
 20
1355.0576336938759
 30
0.0
 10
4217.3231660885331
 20
1355.129774916883
 30
0.0
 10
4216.8532934212872
 20
1355.3935224482559
 30
0.0
 10
4216.7587753131484
 20
1355.4465770722229
 30
0.0
 11
4218.2021511465191
 21
1355.0000041724199
 31
0.0
 11
4217.8417097048768
 21
1355.0532186767991
 31
0.0
 11
4217.5410773374169
 21
1355.0976031470245
 31
0.0
 11
4217.3098075064927
 21
1355.1598096979612
 31
0.0
 11
4217.0518205114859
 21
1355.2820858110545
 31
0.0
 11
4216.8792956668021
 21
1355.3789269449474
 31
0.0
 11
4216.7587753131484
 21
1355.4465770722229
 31
0.0
  0
SPLINE
  5
379
100
AcDbEntity
  8
0
  6
CONTINUOUS
 62
           3
100
AcDbSpline
210
0.0
220
0.0
230
1.0
 70
           0
 71
           3
 72
           8
 73
           5
 74
           7
 42
0.00000000001
 43
0.00000000001
 44
0.00000000001
 40
0.0
 40
0.0
 40
0.0
 40
0.3778155284971338
 40
0.8942062233961232
 40
1.5357514174649209
 40
1.5357514174649209
 40
1.5357514174649209
 10
4216.7587753131484
 20
1359.553411603021
 30
0.0
 10
4216.8532933562074
 20
1359.6064716909059
 30
0.0
 10
4217.3231632540774
 20
1359.870245011374
 30
0.0
 10
4217.8118041934767
 20
1359.9423771861991
 30
0.0
 10
4218.2021511465191
 20
1359.9999994040479
 30
0.0
 11
4216.7587753131484
 21
1359.553411603021
 31
0.0
 11
4216.8792956135803
 21
1359.6210687140278
 31
0.0
 11
4217.0518204287591
 21
1359.7179198712793
 31
0.0
 11
4217.3098058735031
 21
1359.8402057052365
 31
0.0
 11
4217.5410765570996
 21
1359.9024129269187
 31
0.0
 11
4217.841709022643
 21
1359.9467916758413
 31
0.0
 11
4218.2021511465191
 21
1359.9999994040479
 31
0.0
  0
SPLINE
  5
378
100
AcDbEntity
  8
0
  6
CONTINUOUS
 62
           3
100
AcDbSpline
210
0.0
220
0.0
230
1.0
 70
           0
 71
           3
 72
           8
 73
           5
 74
           7
 42
0.00000000001
 43
0.00000000001
 44
0.00000000001
 40
0.0
 40
0.0
 40
0.0
 40
0.2779464854669719
 40
0.7862840844026224
 40
1.5429642659222302
 40
1.5429642659222302
 40
1.5429642659222302
 10
4226.8624052151372
 20
1359.999999403921
 30
0.0
 10
4226.8966217645384
 20
1359.9995537086761
 30
0.0
 10
4227.3840344836262
 20
1359.9932048044429
 30
0.0
 10
4227.8616729631731
 20
1359.765309020479
 30
0.0
 10
4228.3057810485379
 20
1359.553411603021
 30
0.0
 11
4226.8624052151372
 21
1359.999999403921
 31
0.0
 11
4226.9311419609212
 21
1359.9991040580444
 31
0.0
 11
4227.0689190994708
 21
1359.9973094109048
 31
0.0
 11
4227.3532394686463
 21
1359.9713364170611
 31
0.0
 11
4227.5759698078591
 21
1359.9016266484537
 31
0.0
 11
4227.9012741956849
 21
1359.7464140731081
 31
0.0
 11
4228.3057810485379
 21
1359.553411603021
 31
0.0
  0
SPLINE
  5
377
100
AcDbEntity
  8
0
  6
CONTINUOUS
 62
           3
100
AcDbSpline
210
0.0
220
0.0
230
1.0
 70
           0
 71
           3
 72
           8
 73
           5
 74
           7
 42
0.00000000001
 43
0.00000000001
 44
0.00000000001
 40
0.0
 40
0.0
 40
0.0
 40
1.2475591451560206
 40
2.2257037084923796
 40
2.9354142011740794
 40
2.9354142011740794
 40
2.9354142011740794
 10
4222.5322781808482
 20
1364.9999946356729
 30
0.0
 10
4221.776623124345
 20
1364.9458933000931
 30
0.0
 10
4220.799185310826
 20
1364.8759133658571
 30
0.0
 10
4219.8588833081294
 20
1364.6130630433661
 30
0.0
 10
4219.6455267470174
 20
1364.5534217358579
 30
0.0
 11
4222.5322781808482
 21
1364.9999946356729
 31
0.0
 11
4221.8285676820105
 21
1364.9496122852588
 31
0.0
 11
4221.2287462985014
 21
1364.9066679051762
 31
0.0
 11
4220.7703447705471
 21
1364.8455202926339
 31
0.0
 11
4220.2542621620323
 21
1364.7235865336452
 31
0.0
 11
4219.9043888813276
 21
1364.625783589059
 31
0.0
 11
4219.6455267470174
 21
1364.5534217358579
 31
0.0
  0
SPLINE
  5
376
100
AcDbEntity
  8
0
  6
CONTINUOUS
 62
           3
100
AcDbSpline
210
0.0
220
0.0
230
1.0
 70
           0
 71
           3
 72
           8
 73
           5
 74
           7
 42
0.00000000001
 43
0.00000000001
 44
0.00000000001
 40
0.0
 40
0.0
 40
0.0
 40
1.232128829260454
 40
2.2113508927680146
 40
2.9387184667234139
 40
2.9387184667234139
 40
2.9387184667234139
 10
4225.4190296146753
 20
1364.5534217358579
 30
0.0
 10
4224.6997699602261
 20
1364.733619018429
 30
0.0
 10
4223.7479074852663
 20
1364.9720906611981
 30
0.0
 10
4222.7710009243292
 20
1364.994514911454
 30
0.0
 10
4222.5322781808482
 20
1364.9999946356729
 30
0.0
 11
4225.4190296146753
 21
1364.5534217358579
 31
0.0
 11
4224.7469942930393
 21
1364.7217878300801
 31
0.0
 11
4224.1694076370304
 21
1364.8664915476045
 31
0.0
 11
4223.713148006178
 21
1364.9489075788533
 31
0.0
 11
4223.1873694171472
 21
1364.9849574454126
 31
0.0
 11
4222.8154123616641
 21
1364.9934954759985
 31
0.0
 11
4222.5322781808482
 21
1364.9999946356729
 31
0.0
  0
SPLINE
  5
375
100
AcDbEntity
  8
0
  6
CONTINUOUS
 62
           3
100
AcDbSpline
210
0.0
220
0.0
230
1.0
 70
           0
 71
           3
 72
           8
 73
           5
 74
           7
 42
0.00000000001
 43
0.00000000001
 44
0.00000000001
 40
0.0
 40
0.0
 40
0.0
 40
0.7273681394910819
 40
1.7065914567896059
 40
2.9387223240341505
 40
2.9387223240341505
 40
2.9387223240341505
 10
4222.5322781808482
 20
1359.9999994040479
 30
0.0
 10
4222.771000960206
 20
1360.005478943116
 30
0.0
 10
4223.7479086061558
 20
1360.027902457241
 30
0.0
 10
4224.6997703154184
 20
1360.2663830805111
 30
0.0
 10
4225.4190296145362
 20
1360.446587205121
 30
0.0
 11
4222.5322781808482
 21
1359.9999994040479
 31
0.0
 11
4222.8154124741468
 21
1360.0064983457332
 31
0.0
 11
4223.187369795326
 21
1360.0150360926523
 31
0.0
 11
4223.7131488346859
 21
1360.0510866331736
 31
0.0
 11
4224.1694083311068
 21
1360.1335055255608
 31
0.0
 11
4224.7469946441206
 21
1360.2782147229261
 31
0.0
 11
4225.4190296145362
 21
1360.446587205121
 31
0.0
  0
SPLINE
  5
374
100
AcDbEntity
  8
0
  6
CONTINUOUS
 62
           3
100
AcDbSpline
210
0.0
220
0.0
230
1.0
 70
           0
 71
           3
 72
           8
 73
           5
 74
           7
 42
0.00000000001
 43
0.00000000001
 44
0.00000000001
 40
0.0
 40
0.0
 40
0.0
 40
0.7097126556374556
 40
1.6878594213865941
 40
2.9354211178787879
 40
2.9354211178787879
 40
2.9354211178787879
 10
4219.6455267470174
 20
1360.4465872050239
 30
0.0
 10
4219.8588831629368
 20
1360.386940369928
 30
0.0
 10
4220.7991803717578
 20
1360.12406684762
 30
0.0
 10
4221.7766215234278
 20
1360.054094671616
 30
0.0
 10
4222.5322781808482
 20
1359.9999994040479
 30
0.0
 11
4219.6455267470174
 21
1360.4465872050239
 31
0.0
 11
4219.9043883140976
 21
1360.3742187546154
 31
0.0
 11
4220.2542601835021
 21
1360.2764070735823
 31
0.0
 11
4220.7703409508058
 21
1360.1544641207809
 31
0.0
 11
4221.2287428762083
 21
1360.0933157143013
 31
0.0
 11
4221.828566025978
 21
1360.0503761153952
 31
0.0
 11
4222.5322781808482
 21
1359.9999994040479
 31
0.0
  0
SPLINE
  5
373
100
AcDbEntity
  8
0
  6
CONTINUOUS
 62
           3
100
AcDbSpline
210
0.0
220
0.0
230
1.0
 70
           0
 71
           3
 72
           8
 73
           5
 74
           7
 42
0.00000000001
 43
0.00000000001
 44
0.00000000001
 40
0.0
 40
0.0
 40
0.0
 40
0.2779452695527626
 40
0.7862805426557556
 40
1.5429573555005023
 40
1.5429573555005023
 40
1.5429573555005023
 10
4226.8624052151772
 20
1364.9999946356729
 30
0.0
 10
4226.8281886716477
 20
1364.999548930904
 30
0.0
 10
4226.3407783744451
 20
1364.993199923352
 30
0.0
 10
4225.8631386741563
 20
1364.7653118796329
 30
0.0
 10
4225.4190296146753
 20
1364.5534217358579
 30
0.0
 11
4226.8624052151772
 21
1364.9999946356729
 31
0.0
 11
4226.7936686822377
 21
1364.9990992734502
 31
0.0
 11
4226.6558921704764
 21
1364.9973045963191
 31
0.0
 11
4226.3715728733014
 21
1364.9713323318763
 31
0.0
 11
4226.1488425738407
 21
1364.9016248844828
 31
0.0
 11
4225.8235373842072
 21
1364.7464175949017
 31
0.0
 11
4225.4190296146753
 21
1364.5534217358579
 31
0.0
  0
SPLINE
  5
372
100
AcDbEntity
  8
0
  6
CONTINUOUS
 62
           3
100
AcDbSpline
210
0.0
220
0.0
230
1.0
 70
           0
 71
           3
 72
           8
 73
           5
 74
           7
 42
0.00000000001
 43
0.00000000001
 44
0.00000000001
 40
0.0
 40
0.0
 40
0.0
 40
0.2779464854703065
 40
0.7862840844056858
 40
1.5429642659453167
 40
1.5429642659453167
 40
1.5429642659453167
 10
4226.8624052151372
 20
1359.999999403921
 30
0.0
 10
4226.8966217645384
 20
1360.000445099424
 30
0.0
 10
4227.3840344836262
 20
1360.0067940036531
 30
0.0
 10
4227.8616729631731
 20
1360.2346897876159
 30
0.0
 10
4228.3057810485379
 20
1360.446587205121
 30
0.0
 11
4226.8624052151372
 21
1359.999999403921
 31
0.0
 11
4226.9311419609221
 21
1360.0008947499909
 31
0.0
 11
4227.0689190994726
 21
1360.002689397194
 31
0.0
 11
4227.3532394686454
 21
1360.0286623910351
 31
0.0
 11
4227.5759698078564
 21
1360.0983721596406
 31
0.0
 11
4227.9012741956849
 21
1360.2535847349984
 31
0.0
 11
4228.3057810485379
 21
1360.446587205121
 31
0.0
  0
SPLINE
  5
371
100
AcDbEntity
  8
0
  6
CONTINUOUS
 62
           3
100
AcDbSpline
210
0.0
220
0.0
230
1.0
 70
           0
 71
           3
 72
           8
 73
           5
 74
           7
 42
0.00000000001
 43
0.00000000001
 44
0.00000000001
 40
0.0
 40
0.0
 40
0.0
 40
0.2779462752374747
 40
0.7862820883289698
 40
1.5429577306123832
 40
1.5429577306123832
 40
1.5429577306123832
 10
4218.2021511465191
 20
1364.9999946356729
 30
0.0
 10
4218.1679345982056
 20
1364.9995489277901
 30
0.0
 10
4217.6805223000183
 20
1364.993199850662
 30
0.0
 10
4217.2028835873552
 20
1364.7653118774831
 30
0.0
 10
4216.7587753131484
 20
1364.553421735915
 30
0.0
 11
4218.2021511465191
 21
1364.9999946356729
 31
0.0
 11
4218.1334143619779
 21
1364.9990992640385
 31
0.0
 11
4217.9956371049811
 21
1364.9973045649017
 31
0.0
 11
4217.7113170754346
 21
1364.97133224086
 31
0.0
 11
4217.4885865967217
 21
1364.9016246972137
 31
0.0
 11
4217.1632822711454
 21
1364.7464175470238
 31
0.0
 11
4216.7587753131484
 21
1364.553421735915
 31
0.0
  0
SPLINE
  5
370
100
AcDbEntity
  8
0
  6
CONTINUOUS
 62
           3
100
AcDbSpline
210
0.0
220
0.0
230
1.0
 70
           0
 71
           3
 72
           8
 73
           5
 74
           7
 42
0.00000000001
 43
0.00000000001
 44
0.00000000001
 40
0.0
 40
0.0
 40
0.0
 40
0.2779454797461836
 40
0.7862825386902788
 40
1.5429638907221621
 40
1.5429638907221621
 40
1.5429638907221621
 10
4218.2021511465191
 20
1359.9999994040479
 30
0.0
 10
4218.2363676910963
 20
1360.0004450963061
 30
0.0
 10
4218.723778409204
 20
1360.0067939309631
 30
0.0
 10
4219.2014178763693
 20
1360.2346897854691
 30
0.0
 10
4219.6455267470174
 20
1360.4465872050239
 30
0.0
 11
4218.2021511465191
 21
1359.9999994040479
 31
0.0
 11
4218.2708876406696
 21
1360.0008947406086
 31
0.0
 11
4218.4086640339647
 21
1360.0026893657737
 31
0.0
 11
4218.6929836707804
 21
1360.0286623000184
 31
0.0
 11
4218.9157138307501
 21
1360.0983719723733
 31
0.0
 11
4219.2410190826267
 21
1360.253584687084
 31
0.0
 11
4219.6455267470174
 21
1360.4465872050239
 31
0.0
  0
SPLINE
  5
36F
100
AcDbEntity
  8
0
  6
CONTINUOUS
 62
           3
100
AcDbSpline
210
0.0
220
0.0
230
1.0
 70
           0
 71
           3
 72
           8
 73
           5
 74
           7
 42
0.00000000001
 43
0.00000000001
 44
0.00000000001
 40
0.0
 40
0.0
 40
0.0
 40
1.2475604207866562
 40
2.2257060852955828
 40
2.9354176594305246
 40
2.9354176594305246
 40
2.9354176594305246
 10
4222.5322781808482
 20
1377.5999993086659
 30
0.0
 10
4221.776622323895
 20
1377.5459010071061
 30
0.0
 10
4220.7991828413342
 20
1377.4759249520059
 30
0.0
 10
4219.8588832355363
 20
1377.2130630295719
 30
0.0
 10
4219.6455267470174
 20
1377.1534189582669
 30
0.0
 11
4222.5322781808482
 21
1377.5999993086659
 31
0.0
 11
4221.8285668540047
 21
1377.5496197777986
 31
0.0
 11
4221.2287445873808
 21
1377.5066777883162
 31
0.0
 11
4220.7703428607101
 21
1377.4455297788065
 31
0.0
 11
4220.2542611727877
 21
1377.3235914228976
 31
0.0
 11
4219.9043885977189
 21
1377.2257841100773
 31
0.0
 11
4219.6455267470174
 21
1377.1534189582669
 31
0.0
  0
SPLINE
  5
36E
100
AcDbEntity
  8
0
  6
CONTINUOUS
 62
           3
100
AcDbSpline
210
0.0
220
0.0
230
1.0
 70
           0
 71
           3
 72
           8
 73
           5
 74
           7
 42
0.00000000001
 43
0.00000000001
 44
0.00000000001
 40
0.0
 40
0.0
 40
0.0
 40
1.232129848301474
 40
2.2113525386980961
 40
2.9387203954176364
 40
2.9387203954176364
 40
2.9387203954176364
 10
4225.4190296146753
 20
1377.1534189582669
 30
0.0
 10
4224.6997701378177
 20
1377.333619661815
 30
0.0
 10
4223.747908045706
 20
1377.5720957948331
 30
0.0
 10
4222.7710009422653
 20
1377.5945196770219
 30
0.0
 10
4222.5322781808482
 20
1377.5999993086659
 30
0.0
 11
4225.4190296146753
 21
1377.1534189582669
 31
0.0
 11
4224.7469944685909
 21
1377.3217882464442
 31
0.0
 11
4224.1694079840527
 21
1377.4664947038796
 31
0.0
 11
4223.7131484204237
 21
1377.5489121656949
 31
0.0
 11
4223.1873696062339
 21
1377.5849623692338
 31
0.0
 11
4222.8154124179036
 21
1377.5935002579861
 31
0.0
 11
4222.5322781808482
 21
1377.5999993086659
 31
0.0
  0
SPLINE
  5
36D
100
AcDbEntity
  8
0
  6
CONTINUOUS
 62
           3
100
AcDbSpline
210
0.0
220
0.0
230
1.0
 70
           0
 71
           3
 72
           8
 73
           5
 74
           7
 42
0.00000000001
 43
0.00000000001
 44
0.00000000001
 40
0.0
 40
0.0
 40
0.0
 40
0.7273675739554827
 40
1.7065896374626464
 40
2.9387184666011046
 40
2.9387184666011046
 40
2.9387184666011046
 10
4222.5322781808482
 20
1372.6000040770409
 30
0.0
 10
4222.7710009243292
 20
1372.605483801264
 30
0.0
 10
4223.7479074852663
 20
1372.6279080515189
 30
0.0
 10
4224.6997699602261
 20
1372.8663796942849
 30
0.0
 10
4225.4190296145362
 20
1373.046576976911
 30
0.0
 11
4222.5322781808482
 21
1372.6000040770409
 31
0.0
 11
4222.8154123616632
 21
1372.6065032367183
 31
0.0
 11
4223.1873694171481
 21
1372.6150412673048
 31
0.0
 11
4223.7131480061835
 21
1372.6510911338646
 31
0.0
 11
4224.1694076370532
 21
1372.7335071651169
 31
0.0
 11
4224.7469942930102
 21
1372.8782108826495
 31
0.0
 11
4225.4190296145362
 21
1373.046576976911
 31
0.0
  0
SPLINE
  5
36C
100
AcDbEntity
  8
0
  6
CONTINUOUS
 62
           3
100
AcDbSpline
210
0.0
220
0.0
230
1.0
 70
           0
 71
           3
 72
           8
 73
           5
 74
           7
 42
0.00000000001
 43
0.00000000001
 44
0.00000000001
 40
0.0
 40
0.0
 40
0.0
 40
0.7097104926824956
 40
1.6878550560188867
 40
2.935414201174956
 40
2.935414201174956
 40
2.935414201174956
 10
4219.6455267470174
 20
1373.04657697686
 30
0.0
 10
4219.8588833081294
 20
1372.9869356693489
 30
0.0
 10
4220.799185310826
 20
1372.7240853468579
 30
0.0
 10
4221.776623124345
 20
1372.654105412621
 30
0.0
 10
4222.5322781808482
 20
1372.6000040770409
 30
0.0
 11
4219.6455267470174
 21
1373.04657697686
 31
0.0
 11
4219.9043888813267
 21
1372.9742151236567
 31
0.0
 11
4220.2542621620332
 21
1372.8764121790696
 31
0.0
 11
4220.7703447705471
 21
1372.7544784200809
 31
0.0
 11
4221.2287462985014
 21
1372.6933308075384
 31
0.0
 11
4221.8285676820105
 21
1372.6503864274555
 31
0.0
 11
4222.5322781808482
 21
1372.6000040770409
 31
0.0
  0
SPLINE
  5
36B
100
AcDbEntity
  8
0
  6
CONTINUOUS
 62
           3
100
AcDbSpline
210
0.0
220
0.0
230
1.0
 70
           0
 71
           3
 72
           8
 73
           5
 74
           7
 42
0.00000000001
 43
0.00000000001
 44
0.00000000001
 40
0.0
 40
0.0
 40
0.0
 40
0.2779453746513154
 40
0.7862815406658656
 40
1.5429606230904371
 40
1.5429606230904371
 40
1.5429606230904371
 10
4226.8624052151772
 20
1377.5999993086659
 30
0.0
 10
4226.8281886711247
 20
1377.5995536101509
 30
0.0
 10
4226.3407781634642
 20
1377.593204689045
 30
0.0
 10
4225.8631385797471
 20
1377.365312739938
 30
0.0
 10
4225.4190296146753
 20
1377.1534189582669
 30
0.0
 11
4226.8624052151772
 21
1377.5999993086659
 31
0.0
 11
4226.7936687016318
 21
1377.5991039592732
 31
0.0
 11
4226.6558922491004
 21
1377.5973093081241
 31
0.0
 11
4226.3715727821054
 21
1377.5713367087801
 31
0.0
 11
4226.148842552393
 21
1377.5016281489065
 31
0.0
 11
4225.8235373316402
 21
1377.3464181467623
 31
0.0
 11
4225.4190296146753
 21
1377.1534189582669
 31
0.0
  0
SPLINE
  5
36A
100
AcDbEntity
  8
0
  6
CONTINUOUS
 62
           3
100
AcDbSpline
210
0.0
220
0.0
230
1.0
 70
           0
 71
           3
 72
           8
 73
           5
 74
           7
 42
0.00000000001
 43
0.00000000001
 44
0.00000000001
 40
0.0
 40
0.0
 40
0.0
 40
0.2779462752402326
 40
0.7862820883283781
 40
1.5429577306515287
 40
1.5429577306515287
 40
1.5429577306515287
 10
4226.8624052151772
 20
1372.6000040770409
 30
0.0
 10
4226.8966217634961
 20
1372.6004497849281
 30
0.0
 10
4227.384034061678
 20
1372.6067988620521
 30
0.0
 10
4227.8616727743383
 20
1372.8346868352339
 30
0.0
 10
4228.3057810485379
 20
1373.046576976911
 30
0.0
 11
4226.8624052151772
 21
1372.6000040770409
 31
0.0
 11
4226.931141999723
 21
1372.6008994486783
 31
0.0
 11
4227.0689192567206
 21
1372.6026941478151
 31
0.0
 11
4227.3532392862608
 21
1372.6286664718543
 31
0.0
 11
4227.5759697649664
 21
1372.6983740154983
 31
0.0
 11
4227.9012740905455
 21
1372.8535811657191
 31
0.0
 11
4228.3057810485379
 21
1373.046576976911
 31
0.0
  0
SPLINE
  5
369
100
AcDbEntity
  8
0
  6
CONTINUOUS
 62
           3
100
AcDbSpline
210
0.0
220
0.0
230
1.0
 70
           0
 71
           3
 72
           8
 73
           5
 74
           7
 42
0.00000000001
 43
0.00000000001
 44
0.00000000001
 40
0.0
 40
0.0
 40
0.0
 40
0.2779463803328208
 40
0.786283086339877
 40
1.5429609982584027
 40
1.5429609982584027
 40
1.5429609982584027
 10
4218.2021511465191
 20
1377.5999993086659
 30
0.0
 10
4218.1679345976781
 20
1377.599553607037
 30
0.0
 10
4217.6805220890483
 20
1377.593204616358
 30
0.0
 10
4217.2028834929351
 20
1377.3653127377879
 30
0.0
 10
4216.7587753131484
 20
1377.1534189582051
 30
0.0
 11
4218.2021511465191
 21
1377.5999993086659
 31
0.0
 11
4218.133414381371
 21
1377.5991039498617
 31
0.0
 11
4217.9956371836088
 21
1377.5973092767078
 31
0.0
 11
4217.7113169842478
 21
1377.5713366177663
 31
0.0
 11
4217.488586575284
 21
1377.5016279616407
 31
0.0
 11
4217.1632822185757
 21
1377.3464180988553
 31
0.0
 11
4216.7587753131484
 21
1377.1534189582051
 31
0.0
  0
SPLINE
  5
368
100
AcDbEntity
  8
0
  6
CONTINUOUS
 62
           3
100
AcDbSpline
210
0.0
220
0.0
230
1.0
 70
           0
 71
           3
 72
           8
 73
           5
 74
           7
 42
0.00000000001
 43
0.00000000001
 44
0.00000000001
 40
0.0
 40
0.0
 40
0.0
 40
0.2779452695546096
 40
0.7862805426573757
 40
1.5429573554978033
 40
1.5429573554978033
 40
1.5429573554978033
 10
4218.2021511465191
 20
1372.6000040770409
 30
0.0
 10
4218.2363676900468
 20
1372.6004497818101
 30
0.0
 10
4218.7237779872567
 20
1372.6067987893659
 30
0.0
 10
4219.2014176875373
 20
1372.8346868330841
 30
0.0
 10
4219.6455267470174
 20
1373.04657697686
 30
0.0
 11
4218.2021511465191
 21
1372.6000040770409
 31
0.0
 11
4218.2708876794586
 21
1372.6008994392644
 31
0.0
 11
4218.4086641912218
 21
1372.6026941163964
 31
0.0
 11
4218.6929834883986
 21
1372.6286663808407
 31
0.0
 11
4218.9157137878592
 21
1372.6983738282352
 31
0.0
 11
4219.2410189774873
 21
1372.8535811178158
 31
0.0
 11
4219.6455267470174
 21
1373.04657697686
 31
0.0
  0
SPLINE
  5
367
100
AcDbEntity
  8
0
  6
CONTINUOUS
 62
           3
100
AcDbSpline
210
0.0
220
0.0
230
1.0
 70
           0
 71
           3
 72
           8
 73
           5
 74
           7
 42
0.00000000001
 43
0.00000000001
 44
0.00000000001
 40
0.0
 40
0.0
 40
0.0
 40
1.2475616964922178
 40
2.2257084622413159
 40
2.9354211178796286
 40
2.9354211178796286
 40
2.9354211178796286
 10
4222.5322781808482
 20
1372.6000040770409
 30
0.0
 10
4221.7766215234278
 20
1372.5459088094719
 30
0.0
 10
4220.7991803717578
 20
1372.475936633469
 30
0.0
 10
4219.8588831629368
 20
1372.2130631111611
 30
0.0
 10
4219.6455267470174
 20
1372.153416276062
 30
0.0
 11
4222.5322781808482
 21
1372.6000040770409
 31
0.0
 11
4221.828566025978
 21
1372.5496273656929
 31
0.0
 11
4221.2287428762083
 21
1372.5066877667873
 31
0.0
 11
4220.7703409508067
 21
1372.4455393603082
 31
0.0
 11
4220.2542601835021
 21
1372.3235964075068
 31
0.0
 11
4219.9043883140985
 21
1372.2257847264727
 31
0.0
 11
4219.6455267470174
 21
1372.153416276062
 31
0.0
  0
SPLINE
  5
366
100
AcDbEntity
  8
0
  6
CONTINUOUS
 62
           3
100
AcDbSpline
210
0.0
220
0.0
230
1.0
 70
           0
 71
           3
 72
           8
 73
           5
 74
           7
 42
0.00000000001
 43
0.00000000001
 44
0.00000000001
 40
0.0
 40
0.0
 40
0.0
 40
1.2321308673568419
 40
2.2113541846551938
 40
2.9387223241463043
 40
2.9387223241463043
 40
2.9387223241463043
 10
4225.4190296146753
 20
1372.153416276062
 30
0.0
 10
4224.6997703154184
 20
1372.3336204005791
 30
0.0
 10
4223.7479086061558
 20
1372.5721010238481
 30
0.0
 10
4222.771000960206
 20
1372.5945245379701
 30
0.0
 10
4222.5322781808482
 20
1372.6000040770409
 30
0.0
 11
4225.4190296146753
 21
1372.153416276062
 31
0.0
 11
4224.7469946441497
 21
1372.3217887581886
 31
0.0
 11
4224.1694083310849
 21
1372.4664979555341
 31
0.0
 11
4223.7131488346813
 21
1372.5489168479164
 31
0.0
 11
4223.187369795326
 21
1372.584967388435
 31
0.0
 11
4222.8154124741459
 21
1372.593505135354
 31
0.0
 11
4222.5322781808482
 21
1372.6000040770409
 31
0.0
  0
SPLINE
  5
365
100
AcDbEntity
  8
0
  6
CONTINUOUS
 62
           3
100
AcDbSpline
210
0.0
220
0.0
230
1.0
 70
           0
 71
           3
 72
           8
 73
           5
 74
           7
 42
0.00000000001
 43
0.00000000001
 44
0.00000000001
 40
0.0
 40
0.0
 40
0.0
 40
0.7273681394911445
 40
1.7065914567895579
 40
2.9387223240294054
 40
2.9387223240294054
 40
2.9387223240294054
 10
4222.5322781808482
 20
1367.5999939442561
 30
0.0
 10
4222.771000960206
 20
1367.6054734833269
 30
0.0
 10
4223.7479086061558
 20
1367.6278969974519
 30
0.0
 10
4224.6997703154184
 20
1367.8663776207211
 30
0.0
 10
4225.4190296145362
 20
1368.0465817453121
 30
0.0
 11
4222.5322781808482
 21
1367.5999939442561
 31
0.0
 11
4222.8154124741468
 21
1367.6064928859432
 31
0.0
 11
4223.187369795326
 21
1367.6150306328632
 31
0.0
 11
4223.7131488346859
 21
1367.6510811733845
 31
0.0
 11
4224.1694083311077
 21
1367.7335000657718
 31
0.0
 11
4224.7469946441206
 21
1367.8782092631316
 31
0.0
 11
4225.4190296145362
 21
1368.0465817453121
 31
0.0
  0
SPLINE
  5
364
100
AcDbEntity
  8
0
  6
CONTINUOUS
 62
           3
100
AcDbSpline
210
0.0
220
0.0
230
1.0
 70
           0
 71
           3
 72
           8
 73
           5
 74
           7
 42
0.00000000001
 43
0.00000000001
 44
0.00000000001
 40
0.0
 40
0.0
 40
0.0
 40
0.7097107189145124
 40
1.6878556121190571
 40
2.9354150974117843
 40
2.9354150974117843
 40
2.9354150974117843
 10
4219.6455267470174
 20
1368.046581745235
 30
0.0
 10
4219.8588833286694
 20
1367.9869406026951
 30
0.0
 10
4220.7991860096363
 20
1367.7240908429519
 30
0.0
 10
4221.7766233508573
 20
1367.6541020998659
 30
0.0
 10
4222.5322781808482
 20
1367.5999939442561
 30
0.0
 11
4219.6455267470174
 21
1368.046581745235
 31
0.0
 11
4219.9043889669738
 21
1367.9742200752123
 31
0.0
 11
4220.2542624635398
 21
1367.8764173502236
 31
0.0
 11
4220.7703453220283
 21
1367.7544828668408
 31
0.0
 11
4221.2287468053019
 21
1367.6933324312361
 31
0.0
 11
4221.8285679219662
 21
1367.6503826438061
 31
0.0
 11
4222.5322781808482
 21
1367.5999939442561
 31
0.0
  0
SPLINE
  5
363
100
AcDbEntity
  8
0
  6
CONTINUOUS
 62
           3
100
AcDbSpline
210
0.0
220
0.0
230
1.0
 70
           0
 71
           3
 72
           8
 73
           5
 74
           7
 42
0.00000000001
 43
0.00000000001
 44
0.00000000001
 40
0.0
 40
0.0
 40
0.0
 40
0.2779454797516238
 40
0.7862825386955912
 40
1.5429638907284651
 40
1.5429638907284651
 40
1.5429638907284651
 10
4226.8624052151772
 20
1372.6000040770409
 30
0.0
 10
4226.8281886705972
 20
1372.599558384783
 30
0.0
 10
4226.3407779524841
 20
1372.593209550128
 30
0.0
 10
4225.8631384853261
 20
1372.36531369562
 30
0.0
 10
4225.4190296146753
 20
1372.153416276062
 30
0.0
 11
4226.8624052151772
 21
1372.6000040770409
 31
0.0
 11
4226.793668721024
 21
1372.5991087404807
 31
0.0
 11
4226.6558923277244
 21
1372.5973141153161
 31
0.0
 11
4226.3715726909077
 21
1372.5713411810721
 31
0.0
 11
4226.1488425309417
 21
1372.5016315087169
 31
0.0
 11
4225.8235372790678
 21
1372.3464187940046
 31
0.0
 11
4225.4190296146753
 21
1372.153416276062
 31
0.0
  0
SPLINE
  5
362
100
AcDbEntity
  8
0
  6
CONTINUOUS
 62
           3
100
AcDbSpline
210
0.0
220
0.0
230
1.0
 70
           0
 71
           3
 72
           8
 73
           5
 74
           7
 42
0.00000000001
 43
0.00000000001
 44
0.00000000001
 40
0.0
 40
0.0
 40
0.0
 40
0.2779464854286752
 40
0.7862840843632222
 40
1.542964265895167
 40
1.542964265895167
 40
1.542964265895167
 10
4226.8624052151772
 20
1367.5999939442561
 30
0.0
 10
4226.8966217645384
 20
1367.6004396396349
 30
0.0
 10
4227.3840344836262
 20
1367.606788543864
 30
0.0
 10
4227.8616729631731
 20
1367.834684327823
 30
0.0
 10
4228.3057810485379
 20
1368.0465817453121
 30
0.0
 11
4226.8624052151772
 21
1367.5999939442561
 31
0.0
 11
4226.9311419609276
 21
1367.6008892902328
 31
0.0
 11
4227.0689190994563
 21
1367.6026839374044
 31
0.0
 11
4227.3532394686417
 21
1367.6286569312458
 31
0.0
 11
4227.5759698078564
 21
1367.6983666998503
 31
0.0
 11
4227.9012741956858
 21
1367.853579275202
 31
0.0
 11
4228.3057810485379
 21
1368.0465817453121
 31
0.0
  0
SPLINE
  5
361
100
AcDbEntity
  8
0
  6
CONTINUOUS
 62
           3
100
AcDbSpline
210
0.0
220
0.0
230
1.0
 70
           0
 71
           3
 72
           8
 73
           5
 74
           7
 42
0.00000000001
 43
0.00000000001
 44
0.00000000001
 40
0.0
 40
0.0
 40
0.0
 40
0.2779464854367682
 40
0.7862840843764819
 40
1.5429642658550078
 40
1.5429642658550078
 40
1.5429642658550078
 10
4218.2021511465191
 20
1372.6000040770409
 30
0.0
 10
4218.1679345971552
 20
1372.5995583816691
 30
0.0
 10
4217.6805218780564
 20
1372.59320947744
 30
0.0
 10
4217.2028833985141
 20
1372.3653136934729
 30
0.0
 10
4216.7587753131484
 20
1372.1534162761091
 30
0.0
 11
4218.2021511465191
 21
1372.6000040770409
 31
0.0
 11
4218.1334144007651
 21
1372.5991087310695
 31
0.0
 11
4217.9956372622319
 21
1372.5973140838996
 31
0.0
 11
4217.7113168930409
 21
1372.5713410900564
 31
0.0
 11
4217.4885865538181
 21
1372.501631321446
 31
0.0
 11
4217.1632821659978
 21
1372.346418746125
 31
0.0
 11
4216.7587753131484
 21
1372.1534162761091
 31
0.0
  0
SPLINE
  5
360
100
AcDbEntity
  8
0
  6
CONTINUOUS
 62
           3
100
AcDbSpline
210
0.0
220
0.0
230
1.0
 70
           0
 71
           3
 72
           8
 73
           5
 74
           7
 42
0.00000000001
 43
0.00000000001
 44
0.00000000001
 40
0.0
 40
0.0
 40
0.0
 40
0.2779454797461939
 40
0.7862825386896779
 40
1.5429638907222956
 40
1.5429638907222956
 40
1.5429638907222956
 10
4218.2021511465191
 20
1367.5999939442561
 30
0.0
 10
4218.2363676910963
 20
1367.6004396365131
 30
0.0
 10
4218.723778409204
 20
1367.606788471174
 30
0.0
 10
4219.2014178763693
 20
1367.834684325677
 30
0.0
 10
4219.6455267470174
 20
1368.046581745235
 30
0.0
 11
4218.2021511465191
 21
1367.5999939442561
 31
0.0
 11
4218.2708876406696
 21
1367.6008892808161
 31
0.0
 11
4218.4086640339656
 21
1367.6026839059823
 31
0.0
 11
4218.6929836707804
 21
1367.6286568402284
 31
0.0
 11
4218.9157138307501
 21
1367.6983665125831
 31
0.0
 11
4219.2410190826267
 21
1367.853579227293
 31
0.0
 11
4219.6455267470174
 21
1368.046581745235
 31
0.0
  0
SPLINE
  5
35F
100
AcDbEntity
  8
0
  6
CONTINUOUS
 62
           3
100
AcDbSpline
210
0.0
220
0.0
230
1.0
 70
           0
 71
           3
 72
           8
 73
           5
 74
           7
 42
0.00000000001
 43
0.00000000001
 44
0.00000000001
 40
0.0
 40
0.0
 40
0.0
 40
0.4813884775038033
 40
1.3325655942379684
 40
2.5594910572522469
 40
2.5594910572522469
 40
2.5594910572522469
 10
4220.0322782367284
 20
1384.1999992729
 30
0.0
 10
4220.091543043568
 20
1384.200444971553
 30
0.0
 10
4220.9357631600042
 20
1384.206793895828
 30
0.0
 10
4221.7630590271337
 20
1384.4346858417259
 30
0.0
 10
4222.5322781808482
 20
1384.6465796232951
 30
0.0
 11
4220.0322782367284
 21
1384.1999992729
 31
0.0
 11
4220.1529703375409
 21
1384.2009069331086
 31
0.0
 11
4220.3965170263018
 21
1384.202738516429
 31
0.0
 11
4220.8856653598814
 21
1384.2291158106427
 31
0.0
 11
4221.2746180932172
 21
1384.3001369344859
 31
0.0
 11
4221.8332535820828
 21
1384.454022060308
 31
0.0
 11
4222.5322781808482
 21
1384.6465796232951
 31
0.0
  0
SPLINE
  5
35E
100
AcDbEntity
  8
0
  6
CONTINUOUS
 62
           3
100
AcDbSpline
210
0.0
220
0.0
230
1.0
 70
           0
 71
           3
 72
           8
 73
           5
 74
           7
 42
0.00000000001
 43
0.00000000001
 44
0.00000000001
 40
0.0
 40
0.0
 40
0.0
 40
0.4813883392842279
 40
1.332565392642983
 40
2.5594910488319931
 40
2.5594910488319931
 40
2.5594910488319931
 10
4225.0322781249351
 20
1384.1999992729
 30
0.0
 10
4225.0915429311181
 20
1384.2004449713099
 30
0.0
 10
4225.9357627724658
 20
1384.2067938900659
 30
0.0
 10
4226.763058791953
 20
1384.4346858415549
 30
0.0
 10
4227.5322780690394
 20
1384.6465796233019
 30
0.0
 11
4225.0322781249351
 21
1384.1999992729
 31
0.0
 11
4225.1529701900545
 21
1384.2009069323501
 31
0.0
 11
4225.3965167730476
 21
1384.2027385138806
 31
0.0
 11
4225.8856650099169
 21
1384.2291158030616
 31
0.0
 11
4226.2746177216877
 21
1384.3001369182334
 31
0.0
 11
4226.8332533436578
 21
1384.4540220561614
 31
0.0
 11
4227.5322780690394
 21
1384.6465796233019
 31
0.0
  0
SPLINE
  5
35D
100
AcDbEntity
  8
0
  6
CONTINUOUS
 62
           3
100
AcDbSpline
210
0.0
220
0.0
230
1.0
 70
           0
 71
           3
 72
           8
 73
           5
 74
           7
 42
0.00000000001
 43
0.00000000001
 44
0.00000000001
 40
0.0
 40
0.0
 40
0.0
 40
0.0169507227484473
 40
0.1476151553705449
 40
0.4465803504019732
 40
0.4465803504019732
 40
0.4465803504019732
 10
4217.532278292606
 20
1384.1999992729
 30
0.0
 10
4217.532278292606
 20
1384.2056076981819
 30
0.0
 10
4217.532278292606
 20
1384.2282922931149
 30
0.0
 10
4217.532278292606
 20
1384.4669365634261
 30
0.0
 10
4217.532278292646
 20
1384.6465796233019
 30
0.0
 11
4217.532278292606
 21
1384.1999992729
 31
0.0
 11
4217.532278292606
 21
1384.2048568127311
 31
0.0
 11
4217.532278292606
 21
1384.2082125816601
 31
0.0
 11
4217.532278292606
 21
1384.2414172487577
 31
0.0
 11
4217.532278292606
 21
1384.3008718271406
 31
0.0
 11
4217.532278292616
 21
1384.4703311443236
 31
0.0
 11
4217.532278292646
 21
1384.6465796233019
 31
0.0
  0
SPLINE
  5
35C
100
AcDbEntity
  8
0
  6
CONTINUOUS
 62
           3
100
AcDbSpline
210
0.0
220
0.0
230
1.0
 70
           0
 71
           3
 72
           8
 73
           5
 74
           7
 42
0.00000000001
 43
0.00000000001
 44
0.00000000001
 40
0.0
 40
0.0
 40
0.0
 40
0.2989651950314283
 40
0.4296296276535259
 40
0.4465803504019732
 40
0.4465803504019732
 40
0.4465803504019732
 10
4227.5322780690394
 20
1384.6465796233019
 30
0.0
 10
4227.5322780690858
 20
1384.4669365634261
 30
0.0
 10
4227.5322780690858
 20
1384.2282922931149
 30
0.0
 10
4227.5322780690858
 20
1384.2056076981819
 30
0.0
 10
4227.5322780690858
 20
1384.1999992729
 30
0.0
 11
4227.5322780690394
 21
1384.6465796233019
 31
0.0
 11
4227.532278069074
 21
1384.4703311443236
 31
0.0
 11
4227.5322780690858
 21
1384.3008718271406
 31
0.0
 11
4227.5322780690858
 21
1384.2414172487577
 31
0.0
 11
4227.5322780690858
 21
1384.2082125816601
 31
0.0
 11
4227.5322780690858
 21
1384.2048568127309
 31
0.0
 11
4227.5322780690858
 21
1384.1999992729
 31
0.0
  0
CIRCLE
  5
35B
100
AcDbEntity
  8
1
  6
CONTINUOUS
 62
           7
100
AcDbCircle
 10
-250.0
 20
5499.999999999999
 40
399.999999999999
  0
CIRCLE
  5
35A
100
AcDbEntity
  8
1
  6
CONTINUOUS
 62
           4
100
AcDbCircle
 10
-250.0
 20
5499.999999999999
 40
125.0
  0
CIRCLE
  5
359
100
AcDbEntity
  8
1
  6
CONTINUOUS
 62
           4
100
AcDbCircle
 10
-250.0
 20
5499.999999999999
 40
100.9476
  0
CIRCLE
  5
358
100
AcDbEntity
  8
1
  6
CONTINUOUS
 62
           7
100
AcDbCircle
 10
4606.63228145917
 20
600.0
 40
15.0
  0
CIRCLE
  5
357
100
AcDbEntity
  8
1
  6
CONTINUOUS
 62
           2
100
AcDbCircle
 10
4606.63228145917
 20
600.0
 40
8.35
  0
CIRCLE
  5
356
100
AcDbEntity
  8
1
  6
CONTINUOUS
 62
           7
100
AcDbCircle
 10
4606.63228145917
 20
600.0
 40
7.5
  0
CIRCLE
  5
355
100
AcDbEntity
  8
1
  6
CONTINUOUS
 62
           3
100
AcDbCircle
 10
-741.52774467812
 20
1295.20084832705
 40
40.0
  0
ARC
  5
354
100
AcDbEntity
  8
0
  6
CONTINUOUS
 62
           3
100
AcDbCircle
 10
4222.532278180848
 20
1355.000000000222
 40
4.0
100
AcDbArc
 50
180.0
 51
0.0
  0
ARC
  5
353
100
AcDbEntity
  8
0
  6
CONTINUOUS
 62
           3
100
AcDbCircle
 10
4222.532278180848
 20
1315.000000000058
 40
45.999999999971
100
AcDbArc
 50
180.0
 51
0.0
  0
ARC
  5
352
100
AcDbEntity
  8
0
  6
CONTINUOUS
 62
           3
100
AcDbCircle
 10
4222.532278180848
 20
1315.000000000058
 40
53.999999999963
100
AcDbArc
 50
180.0
 51
0.0
  0
ARC
  5
351
100
AcDbEntity
  8
0
  6
CONTINUOUS
 62
           3
100
AcDbCircle
 10
4216.058775489045
 20
1389.999999999996
 40
0.9
100
AcDbArc
 50
-117.266044450441
 51
-90.0
  0
ARC
  5
350
100
AcDbEntity
  8
0
  6
CONTINUOUS
 62
           3
100
AcDbCircle
 10
4229.005780872635
 20
1389.999999999996
 40
0.900000000001
100
AcDbArc
 50
-90.0
 51
-62.733955549507
  0
ARC
  5
34F
100
AcDbEntity
  8
0
  6
CONTINUOUS
 62
           3
100
AcDbCircle
 10
4164.532278180987
 20
1530.99999999988
 40
0.999999999997
100
AcDbArc
 50
-90.0
 51
90.0
  0
ARC
  5
34E
100
AcDbEntity
  8
0
  6
CONTINUOUS
 62
           3
100
AcDbCircle
 10
4280.532278180695
 20
1530.99999999988
 40
1.0
100
AcDbArc
 50
90.0
 51
-90.0
  0
ARC
  5
34D
100
AcDbEntity
  8
0
  6
CONTINUOUS
 62
           3
100
AcDbCircle
 10
4280.532278180695
 20
1508.999999999996
 40
1.0
100
AcDbArc
 50
90.0
 51
-90.0
  0
ARC
  5
34C
100
AcDbEntity
  8
0
  6
CONTINUOUS
 62
           3
100
AcDbCircle
 10
4280.532278180695
 20
1431.000000000062
 40
0.999999999996
100
AcDbArc
 50
90.0
 51
-90.0
  0
ARC
  5
34B
100
AcDbEntity
  8
0
  6
CONTINUOUS
 62
           3
100
AcDbCircle
 10
4280.532278180695
 20
1409.000000000178
 40
1.0
100
AcDbArc
 50
90.0
 51
-90.0
  0
ARC
  5
34A
100
AcDbEntity
  8
0
  6
CONTINUOUS
 62
           3
100
AcDbCircle
 10
4164.532278180987
 20
1409.000000000178
 40
0.999999999996
100
AcDbArc
 50
-90.0
 51
90.0
  0
ARC
  5
349
100
AcDbEntity
  8
0
  6
CONTINUOUS
 62
           3
100
AcDbCircle
 10
4164.532278180987
 20
1431.000000000062
 40
1.0
100
AcDbArc
 50
-90.0
 51
90.0
  0
ARC
  5
348
100
AcDbEntity
  8
0
  6
CONTINUOUS
 62
           3
100
AcDbCircle
 10
4164.532278180987
 20
1508.999999999996
 40
0.999999999996
100
AcDbArc
 50
-90.0
 51
90.0
  0
ARC
  5
347
100
AcDbEntity
  8
0
  6
CONTINUOUS
 62
           3
100
AcDbCircle
 10
4160.032278180997
 20
1368.000000000113
 40
2.49999999999
100
AcDbArc
 50
0.0
 51
180.0
  0
ARC
  5
346
100
AcDbEntity
  8
0
  6
CONTINUOUS
 62
           3
100
AcDbCircle
 10
4160.032278180997
 20
1631.999999999898
 40
2.5
100
AcDbArc
 50
180.0
 51
0.0
  0
ARC
  5
345
100
AcDbEntity
  8
0
  6
CONTINUOUS
 62
           3
100
AcDbCircle
 10
4285.032278180687
 20
1631.999999999898
 40
2.499999999992
100
AcDbArc
 50
180.0
 51
0.0
  0
ARC
  5
344
100
AcDbEntity
  8
0
  6
CONTINUOUS
 62
           3
100
AcDbCircle
 10
4285.032278180687
 20
1368.000000000113
 40
2.5
100
AcDbArc
 50
0.0
 51
180.0
  0
ARC
  5
343
100
AcDbEntity
  8
1
  6
CONTINUOUS
 62
           3
100
AcDbCircle
 10
4726.795849150215
 20
1925.0
 40
5.871834995066
100
AcDbArc
 50
-90.0
 51
0.0
  0
ARC
  5
342
100
AcDbEntity
  8
1
  6
CONTINUOUS
 62
           3
100
AcDbCircle
 10
4726.795849150215
 20
1925.0
 40
5.871834995069
100
AcDbArc
 50
38.599713917919
 51
90.0
  0
ARC
  5
341
100
AcDbEntity
  8
1
  6
CONTINUOUS
 62
           3
100
AcDbCircle
 10
4726.795849150215
 20
1925.0
 40
5.871834995061
100
AcDbArc
 50
0.0
 51
38.599713917919
  0
ARC
  5
340
100
AcDbEntity
  8
1
  6
CONTINUOUS
 62
           3
100
AcDbCircle
 10
4726.795849150215
 20
1925.0
 40
9.5
100
AcDbArc
 50
0.0
 51
125.916957371441
  0
ARC
  5
33F
100
AcDbEntity
  8
1
  6
CONTINUOUS
 62
           3
100
AcDbCircle
 10
4726.795849150215
 20
1925.0
 40
9.499999999999
100
AcDbArc
 50
-124.797812779177
 51
0.0
  0
ARC
  5
33E
100
AcDbEntity
  8
0
  6
CONTINUOUS
 62
           7
100
AcDbCircle
 10
-318.000000000002
 20
5539.999999999999
 40
670.0
100
AcDbArc
 50
-90.0
 51
-65.560184603745
  0
ARC
  5
33D
100
AcDbEntity
  8
0
  6
CONTINUOUS
 62
           7
100
AcDbCircle
 10
-205.000000000002
 20
5476.999999999999
 40
469.999999999995
100
AcDbArc
 50
73.766596122265
 51
91.7405042324
  0
ARC
  5
33C
100
AcDbEntity
  8
0
  6
CONTINUOUS
 62
           7
100
AcDbCircle
 10
-270.000000000002
 20
5429.999999999999
 40
550.000000000002
100
AcDbArc
 50
19.235892312416
 51
32.0167313156
  0
ARC
  5
33B
100
AcDbEntity
  8
0
  6
CONTINUOUS
 62
           7
100
AcDbCircle
 10
-318.000000000002
 20
5539.999999999997
 40
669.999999999997
100
AcDbArc
 50
-176.149739729349
 51
-90.0
  0
ARC
  5
33A
100
AcDbEntity
  8
1
  6
CONTINUOUS
 62
           7
100
AcDbCircle
 10
-986.804904288238
 20
5499.999999999999
 40
5.0
100
AcDbArc
 50
-86.363530447515
 51
93.208888116186
  0
ARC
  5
339
100
AcDbEntity
  8
0
  6
CONTINUOUS
 62
           7
100
AcDbCircle
 10
-318.000000000002
 20
5539.999999999999
 40
669.999999999998
100
AcDbArc
 50
180.0
 51
-177.004902602006
  0
ARC
  5
338
100
AcDbEntity
  8
1
  6
CONTINUOUS
 62
           7
100
AcDbCircle
 10
250.919408978727
 20
5606.473707246297
 40
5.0
100
AcDbArc
 50
108.97545605415
 51
-71.54541646233
  0
ARC
  5
337
100
AcDbEntity
  8
0
  6
CONTINUOUS
 62
           7
100
AcDbCircle
 10
-270.000000000002
 20
5429.999999999999
 40
550.000000000001
100
AcDbArc
 50
0.053742830624
 51
18.194147279427
  0
ARC
  5
336
100
AcDbEntity
  8
0
  6
CONTINUOUS
 62
           7
100
AcDbCircle
 10
-270.000000000002
 20
5429.999999999999
 40
550.000000000001
100
AcDbArc
 50
-65.3714141245
 51
-0.988002202365
  0
ARC
  5
335
100
AcDbEntity
  8
1
  6
CONTINUOUS
 62
           7
100
AcDbCircle
 10
279.981720683265
 20
5425.515926598165
 40
4.999999999999
100
AcDbArc
 50
89.793306572366
 51
-90.727565944102
  0
ARC
  5
334
100
AcDbEntity
  8
1
  6
CONTINUOUS
 62
           7
100
AcDbCircle
 10
-68.817917371785
 20
5926.838238004549
 40
5.000000000002
100
AcDbArc
 50
163.461829900476
 51
-17.147702543128
  0
ARC
  5
333
100
AcDbEntity
  8
0
  6
CONTINUOUS
 62
           7
100
AcDbCircle
 10
-205.000000000002
 20
5476.999999999999
 40
469.999999999995
100
AcDbArc
 50
31.359627184827
 51
72.547531235072
  0
ARC
  5
332
100
AcDbEntity
  8
1
  6
CONTINUOUS
 62
           7
100
AcDbCircle
 10
-250.0
 20
5499.999999999999
 40
150.000000000001
100
AcDbArc
 50
23.882765003116
 51
-89.999999999999
  0
ARC
  5
331
100
AcDbEntity
  8
1
  6
CONTINUOUS
 62
           7
100
AcDbCircle
 10
-250.0
 20
5499.999999999999
 40
132.84
100
AcDbArc
 50
-75.809724714478
 51
-75.809724714478
  0
ARC
  5
330
100
AcDbEntity
  8
1
  6
CONTINUOUS
 62
           7
100
AcDbCircle
 10
-250.0
 20
5499.999999999999
 40
150.0
100
AcDbArc
 50
-89.999999999999
 51
-23.882765003115
  0
ARC
  5
32F
100
AcDbEntity
  8
7
  6
CONTINUOUS
 62
           7
100
AcDbCircle
 10
-132.439999999999
 20
3231.360000000002
 40
3.84
100
AcDbArc
 50
0.0
 51
90.0
  0
ARC
  5
32E
100
AcDbEntity
  8
7
  6
CONTINUOUS
 62
           7
100
AcDbCircle
 10
-133.492175599998
 20
3237.6
 40
2.399999999997
100
AcDbArc
 50
-125.000000000015
 51
-90.0
  0
ARC
  5
32D
100
AcDbEntity
  8
7
  6
CONTINUOUS
 62
           7
100
AcDbCircle
 10
-158.239999999998
 20
3257.449360799999
 40
2.400000000001
100
AcDbArc
 50
180.0
 51
-125.000000000039
  0
ARC
  5
32C
100
AcDbEntity
  8
7
  6
CONTINUOUS
 62
           7
100
AcDbCircle
 10
-164.48
 20
3257.16
 40
3.84
100
AcDbArc
 50
0.0
 51
90.0
  0
ARC
  5
32B
100
AcDbEntity
  8
7
  6
CONTINUOUS
 62
           7
100
AcDbCircle
 10
-344.759999999998
 20
3257.449360799999
 40
2.399999999999
100
AcDbArc
 50
-54.999999999961
 51
0.0
  0
ARC
  5
32A
100
AcDbEntity
  8
7
  6
CONTINUOUS
 62
           7
100
AcDbCircle
 10
-338.52
 20
3257.16
 40
3.84
100
AcDbArc
 50
90.0
 51
180.0
  0
ARC
  5
329
100
AcDbEntity
  8
7
  6
CONTINUOUS
 62
           7
100
AcDbCircle
 10
-363.959999999999
 20
3231.133628400001
 40
7.44
100
AcDbArc
 50
122.68191499999
 51
180.0
  0
ARC
  5
328
100
AcDbEntity
  8
7
  6
CONTINUOUS
 62
           7
100
AcDbCircle
 10
4692.544132764461
 20
3231.133628400001
 40
7.440000000001
100
AcDbArc
 50
122.681915000002
 51
180.0
  0
ARC
  5
327
100
AcDbEntity
  8
7
  6
CONTINUOUS
 62
           7
100
AcDbCircle
 10
4717.984132764461
 20
3257.16
 40
3.84
100
AcDbArc
 50
90.0
 51
180.0
  0
ARC
  5
326
100
AcDbEntity
  8
7
  6
CONTINUOUS
 62
           7
100
AcDbCircle
 10
4711.744132764458
 20
3257.449360799999
 40
2.399999999999
100
AcDbArc
 50
-54.999999999961
 51
0.0
  0
ARC
  5
325
100
AcDbEntity
  8
7
  6
CONTINUOUS
 62
           7
100
AcDbCircle
 10
4892.024132764461
 20
3257.16
 40
3.839999999997
100
AcDbArc
 50
0.0
 51
90.0
  0
ARC
  5
324
100
AcDbEntity
  8
7
  6
CONTINUOUS
 62
           7
100
AcDbCircle
 10
4898.264132764459
 20
3257.449360799999
 40
2.400000000001
100
AcDbArc
 50
180.0
 51
-125.000000000039
  0
ARC
  5
323
100
AcDbEntity
  8
7
  6
CONTINUOUS
 62
           7
100
AcDbCircle
 10
4923.011957164464
 20
3237.6
 40
2.399999999999
100
AcDbArc
 50
-125.000000000039
 51
-90.0
  0
ARC
  5
322
100
AcDbEntity
  8
7
  6
CONTINUOUS
 62
           7
100
AcDbCircle
 10
4924.064132764462
 20
3231.360000000002
 40
3.84
100
AcDbArc
 50
0.0
 51
90.0
  0
ARC
  5
321
100
AcDbEntity
  8
1
  6
CONTINUOUS
 62
           3
100
AcDbCircle
 10
-738.490241678121
 20
1267.114622327059
 40
0.500000000002
100
AcDbArc
 50
-83.827497998165
 51
-5.006793000219
  0
ARC
  5
320
100
AcDbEntity
  8
1
  6
CONTINUOUS
 62
           3
100
AcDbCircle
 10
-744.56524767812
 20
1267.114622327059
 40
0.499999999996
100
AcDbArc
 50
-174.993206999701
 51
-96.172501999296
  0
ARC
  5
31F
100
AcDbEntity
  8
1
  6
CONTINUOUS
 62
           3
100
AcDbCircle
 10
-738.490241678121
 20
1323.287074327051
 40
0.500000000005
100
AcDbArc
 50
5.006793001257
 51
83.827497998154
  0
ARC
  5
31E
100
AcDbEntity
  8
1
  6
CONTINUOUS
 62
           3
100
AcDbCircle
 10
-744.56524767812
 20
1323.287074327051
 40
0.499999999999
100
AcDbArc
 50
96.172501999307
 51
174.993206998663
  0
ARC
  5
31D
100
AcDbEntity
  8
1
  6
CONTINUOUS
 62
           3
100
AcDbCircle
 10
-745.566047678114
 20
1295.20084832705
 40
9.999999999999
100
AcDbArc
 50
-5.006792999977
 51
5.006793000024
  0
ARC
  5
31C
100
AcDbEntity
  8
1
  6
CONTINUOUS
 62
           3
100
AcDbCircle
 10
-737.48944267812
 20
1295.20084832705
 40
10.0
100
AcDbArc
 50
174.993206999976
 51
-174.993207000022
  0
ARC
  5
31B
100
AcDbEntity
  8
1
  6
CONTINUOUS
 62
           3
100
AcDbCircle
 10
-741.52774467812
 20
1295.20084832705
 40
10.74999999999
100
AcDbArc
 50
118.773506999972
 51
-118.773506999952
  0
ARC
  5
31A
100
AcDbEntity
  8
1
  6
CONTINUOUS
 62
           3
100
AcDbCircle
 10
-741.52774467812
 20
1295.20084832705
 40
10.75
100
AcDbArc
 50
-61.226493000021
 51
0.0
  0
ARC
  5
319
100
AcDbEntity
  8
1
  6
CONTINUOUS
 62
           3
100
AcDbCircle
 10
-741.52774467812
 20
1295.20084832705
 40
10.75
100
AcDbArc
 50
0.0
 51
61.226493000001
  0
ARC
  5
318
100
AcDbEntity
  8
1
  6
CONTINUOUS
 62
           3
100
AcDbCircle
 10
-741.52774467812
 20
1295.20084832705
 40
28.749999999988
100
AcDbArc
 50
-96.172501999994
 51
-83.827497999994
  0
ARC
  5
317
100
AcDbEntity
  8
1
  6
CONTINUOUS
 62
           3
100
AcDbCircle
 10
-741.52774467812
 20
1295.20084832705
 40
28.75000000001
100
AcDbArc
 50
83.827497999999
 51
96.17250199999
  0
LINE
  5
316
100
AcDbEntity
  8
1
  6
CONTINUOUS
 62
           3
100
AcDbLine
 10
4704.132281459174
 20
1921.000000000001
 11
4556.532279581498
 21
1921.000000000001
  0
LINE
  5
315
100
AcDbEntity
  8
1
  6
CONTINUOUS
 62
           3
100
AcDbLine
 10
4704.132281459174
 20
1929.0
 11
4556.532278270105
 21
1929.0
  0
LINE
  5
314
100
AcDbEntity
  8
0
  6
CONTINUOUS
 62
           3
100
AcDbLine
 10
4176.532278091586
 20
1314.999997615956
 11
4176.532278091586
 21
1364.999994635815
  0
LINE
  5
313
100
AcDbEntity
  8
0
  6
CONTINUOUS
 62
           3
100
AcDbLine
 10
4216.758775313148
 20
1355.446577072223
 11
4217.532278292646
 21
1355.000004172322
  0
LINE
  5
312
100
AcDbEntity
  8
0
  6
CONTINUOUS
 62
           3
100
AcDbLine
 10
4227.532278069039
 20
1355.000004172322
 11
4228.305781048538
 21
1355.446577072223
  0
LINE
  5
311
100
AcDbEntity
  8
0
  6
CONTINUOUS
 62
           3
100
AcDbLine
 10
4217.532278292646
 20
1359.999999403921
 11
4216.758775313148
 21
1359.553411603021
  0
LINE
  5
310
100
AcDbEntity
  8
0
  6
CONTINUOUS
 62
           3
100
AcDbLine
 10
4228.305781048538
 20
1359.553411603021
 11
4227.532278069039
 21
1359.999999403921
  0
LINE
  5
30F
100
AcDbEntity
  8
0
  6
CONTINUOUS
 62
           3
100
AcDbLine
 10
4217.532278292646
 20
1364.999994635815
 11
4216.758775313148
 21
1364.553421735915
  0
LINE
  5
30E
100
AcDbEntity
  8
0
  6
CONTINUOUS
 62
           3
100
AcDbLine
 10
4228.305781048538
 20
1364.553421735915
 11
4227.532278069039
 21
1364.999994635815
  0
LINE
  5
30D
100
AcDbEntity
  8
0
  6
CONTINUOUS
 62
           3
100
AcDbLine
 10
4227.532278069039
 20
1359.999999403921
 11
4228.305781048538
 21
1360.446587205121
  0
LINE
  5
30C
100
AcDbEntity
  8
0
  6
CONTINUOUS
 62
           3
100
AcDbLine
 10
4216.758775313148
 20
1360.446587205121
 11
4217.532278292646
 21
1359.999999403921
  0
LINE
  5
30B
100
AcDbEntity
  8
0
  6
CONTINUOUS
 62
           3
100
AcDbLine
 10
4217.532278292646
 20
1377.599999308604
 11
4216.758775313148
 21
1377.153418958205
  0
LINE
  5
30A
100
AcDbEntity
  8
0
  6
CONTINUOUS
 62
           3
100
AcDbLine
 10
4228.305781048538
 20
1377.153418958205
 11
4227.532278069039
 21
1377.599999308604
  0
LINE
  5
309
100
AcDbEntity
  8
0
  6
CONTINUOUS
 62
           3
100
AcDbLine
 10
4227.532278069039
 20
1372.60000407701
 11
4228.305781048538
 21
1373.046576976911
  0
LINE
  5
308
100
AcDbEntity
  8
0
  6
CONTINUOUS
 62
           3
100
AcDbLine
 10
4216.758775313148
 20
1373.046576976911
 11
4217.532278292646
 21
1372.60000407701
  0
LINE
  5
307
100
AcDbEntity
  8
0
  6
CONTINUOUS
 62
           3
100
AcDbLine
 10
4217.532278292646
 20
1372.60000407701
 11
4216.758775313148
 21
1372.153416276109
  0
LINE
  5
306
100
AcDbEntity
  8
0
  6
CONTINUOUS
 62
           3
100
AcDbLine
 10
4228.305781048538
 20
1372.153416276109
 11
4227.532278069039
 21
1372.60000407701
  0
LINE
  5
305
100
AcDbEntity
  8
0
  6
CONTINUOUS
 62
           3
100
AcDbLine
 10
4227.532278069039
 20
1367.599993944113
 11
4228.305781048538
 21
1368.046581745312
  0
LINE
  5
304
100
AcDbEntity
  8
0
  6
CONTINUOUS
 62
           3
100
AcDbLine
 10
4216.758775313148
 20
1368.046581745312
 11
4217.532278292646
 21
1367.599993944113
  0
LINE
  5
303
100
AcDbEntity
  8
0
  6
CONTINUOUS
 62
           3
100
AcDbLine
 10
4268.532278270105
 20
1641.0
 11
4268.532278270105
 21
1635.000005364196
  0
LINE
  5
302
100
AcDbEntity
  8
0
  6
CONTINUOUS
 62
           3
100
AcDbLine
 10
4268.532278270105
 20
1633.399993180996
 11
4268.532278270105
 21
1550.000000744964
  0
LINE
  5
301
100
AcDbEntity
  8
0
  6
CONTINUOUS
 62
           3
100
AcDbLine
 10
4268.532278270105
 20
1548.799999058065
 11
4268.532278270105
 21
1391.199998557593
  0
LINE
  5
300
100
AcDbEntity
  8
0
  6
CONTINUOUS
 62
           3
100
AcDbLine
 10
4268.532278270105
 20
1390.000000596097
 11
4268.532278270105
 21
1366.600006818713
  0
LINE
  5
2FF
100
AcDbEntity
  8
0
  6
CONTINUOUS
 62
           3
100
AcDbLine
 10
4268.532278270105
 20
1364.999994635815
 11
4268.532278270105
 21
1314.999997615956
  0
LINE
  5
2FE
100
AcDbEntity
  8
0
  6
CONTINUOUS
 62
           3
100
AcDbLine
 10
4276.532279581499
 20
1314.999997615956
 11
4276.532279581499
 21
1364.999994635815
  0
LINE
  5
2FD
100
AcDbEntity
  8
0
  6
CONTINUOUS
 62
           3
100
AcDbLine
 10
4276.532279581499
 20
1366.600006818713
 11
4276.532279581499
 21
1390.000000596097
  0
LINE
  5
2FC
100
AcDbEntity
  8
0
  6
CONTINUOUS
 62
           3
100
AcDbLine
 10
4276.532279581499
 20
1391.199998557593
 11
4276.532279581499
 21
1548.799999058065
  0
LINE
  5
2FB
100
AcDbEntity
  8
0
  6
CONTINUOUS
 62
           3
100
AcDbLine
 10
4276.532279581499
 20
1550.000000744964
 11
4276.532279581499
 21
1633.399993180996
  0
LINE
  5
2FA
100
AcDbEntity
  8
0
  6
CONTINUOUS
 62
           3
100
AcDbLine
 10
4276.532279581499
 20
1635.000005364196
 11
4276.532279581499
 21
1641.000000000001
  0
LINE
  5
2F9
100
AcDbEntity
  8
0
  6
CONTINUOUS
 62
           3
100
AcDbLine
 10
4168.532276780186
 20
1665.000006556369
 11
4168.532276780186
 21
1635.000005364196
  0
LINE
  5
2F8
100
AcDbEntity
  8
0
  6
CONTINUOUS
 62
           3
100
AcDbLine
 10
4168.532276780186
 20
1633.399993180996
 11
4168.532276780186
 21
1550.000000744964
  0
LINE
  5
2F7
100
AcDbEntity
  8
0
  6
CONTINUOUS
 62
           3
100
AcDbLine
 10
4168.532276780186
 20
1548.799999058065
 11
4168.532276780186
 21
1391.199998557593
  0
LINE
  5
2F6
100
AcDbEntity
  8
0
  6
CONTINUOUS
 62
           3
100
AcDbLine
 10
4168.532276780186
 20
1390.000000596097
 11
4168.532276780186
 21
1366.600006818713
  0
LINE
  5
2F5
100
AcDbEntity
  8
0
  6
CONTINUOUS
 62
           3
100
AcDbLine
 10
4168.532276780186
 20
1364.999994635815
 11
4168.532276780186
 21
1314.999997615956
  0
LINE
  5
2F4
100
AcDbEntity
  8
0
  6
CONTINUOUS
 62
           3
100
AcDbLine
 10
4176.532278091586
 20
1366.600006818713
 11
4176.532278091586
 21
1390.000000596097
  0
LINE
  5
2F3
100
AcDbEntity
  8
0
  6
CONTINUOUS
 62
           3
100
AcDbLine
 10
4176.532278091586
 20
1391.199998557593
 11
4176.532278091586
 21
1548.799999058065
  0
LINE
  5
2F2
100
AcDbEntity
  8
0
  6
CONTINUOUS
 62
           3
100
AcDbLine
 10
4176.532278091586
 20
1550.000000744964
 11
4176.532278091586
 21
1633.399993180996
  0
LINE
  5
2F1
100
AcDbEntity
  8
0
  6
CONTINUOUS
 62
           3
100
AcDbLine
 10
4176.532278091586
 20
1635.000005364196
 11
4176.532278091586
 21
1665.000006556369
  0
LINE
  5
2F0
100
AcDbEntity
  8
0
  6
CONTINUOUS
 62
           3
100
AcDbLine
 10
4225.532278206936
 20
1366.600006818713
 11
4225.532278206936
 21
1367.599993944113
  0
LINE
  5
2EF
100
AcDbEntity
  8
0
  6
CONTINUOUS
 62
           3
100
AcDbLine
 10
4225.532278206936
 20
1377.599999308604
 11
4225.532278206936
 21
1384.1999992729
  0
LINE
  5
2EE
100
AcDbEntity
  8
0
  6
CONTINUOUS
 62
           3
100
AcDbLine
 10
4225.532278206936
 20
1390.000000596097
 11
4225.532278206936
 21
1392.957426607594
  0
LINE
  5
2ED
100
AcDbEntity
  8
0
  6
CONTINUOUS
 62
           3
100
AcDbLine
 10
4225.532278206936
 20
1394.792847335491
 11
4225.532278206936
 21
1633.399993180996
  0
LINE
  5
2EC
100
AcDbEntity
  8
0
  6
CONTINUOUS
 62
           3
100
AcDbLine
 10
4225.532278206936
 20
1635.000005364196
 11
4225.532278206936
 21
1637.422651052293
  0
LINE
  5
2EB
100
AcDbEntity
  8
0
  6
CONTINUOUS
 62
           3
100
AcDbLine
 10
4219.532278154749
 20
1637.422651052293
 11
4219.532278154749
 21
1635.000005364196
  0
LINE
  5
2EA
100
AcDbEntity
  8
0
  6
CONTINUOUS
 62
           3
100
AcDbLine
 10
4219.532278154749
 20
1633.399993180996
 11
4219.532278154749
 21
1394.792847335491
  0
LINE
  5
2E9
100
AcDbEntity
  8
0
  6
CONTINUOUS
 62
           3
100
AcDbLine
 10
4219.532278154749
 20
1392.957426607594
 11
4219.532278154749
 21
1390.000000596097
  0
LINE
  5
2E8
100
AcDbEntity
  8
0
  6
CONTINUOUS
 62
           3
100
AcDbLine
 10
4219.532278154749
 20
1384.1999992729
 11
4219.532278154749
 21
1377.599999308604
  0
LINE
  5
2E7
100
AcDbEntity
  8
0
  6
CONTINUOUS
 62
           3
100
AcDbLine
 10
4219.532278154749
 20
1367.599993944113
 11
4219.532278154749
 21
1366.600006818713
  0
LINE
  5
2E6
100
AcDbEntity
  8
0
  6
CONTINUOUS
 62
           3
100
AcDbLine
 10
4225.532278206936
 20
1637.422651052293
 11
4224.532278275733
 21
1638.422653078993
  0
LINE
  5
2E5
100
AcDbEntity
  8
0
  6
CONTINUOUS
 62
           3
100
AcDbLine
 10
4220.532278085947
 20
1638.422653078993
 11
4219.532278154749
 21
1637.422651052293
  0
LINE
  5
2E4
100
AcDbEntity
  8
0
  6
CONTINUOUS
 62
           3
100
AcDbLine
 10
4219.032278072749
 20
1394.799999892893
 11
4214.532277800948
 21
1394.799999892893
  0
LINE
  5
2E3
100
AcDbEntity
  8
0
  6
CONTINUOUS
 62
           3
100
AcDbLine
 10
4230.532278560737
 20
1394.799999892893
 11
4226.032278288936
 21
1394.799999892893
  0
LINE
  5
2E2
100
AcDbEntity
  8
0
  6
CONTINUOUS
 62
           3
100
AcDbLine
 10
4216.058775489045
 20
1389.099999999995
 11
4229.005780872635
 21
1389.099999999995
  0
LINE
  5
2E1
100
AcDbEntity
  8
0
  6
CONTINUOUS
 62
           3
100
AcDbLine
 10
4165.532278151183
 20
1393.799997866194
 11
4168.532276780186
 21
1393.799997866194
  0
LINE
  5
2E0
100
AcDbEntity
  8
0
  6
CONTINUOUS
 62
           3
100
AcDbLine
 10
4176.532278091586
 20
1393.799997866194
 11
4214.532277800948
 21
1393.799997866194
  0
LINE
  5
2DF
100
AcDbEntity
  8
0
  6
CONTINUOUS
 62
           3
100
AcDbLine
 10
4230.532278560737
 20
1393.799997866194
 11
4268.532278270105
 21
1393.799997866194
  0
LINE
  5
2DE
100
AcDbEntity
  8
0
  6
CONTINUOUS
 62
           3
100
AcDbLine
 10
4276.532279581499
 20
1393.799997866194
 11
4279.532278210497
 21
1393.799997866194
  0
LINE
  5
2DD
100
AcDbEntity
  8
0
  6
CONTINUOUS
 62
           3
100
AcDbLine
 10
4165.532278151183
 20
1543.800000101368
 11
4165.532278151183
 21
1393.799997866194
  0
LINE
  5
2DC
100
AcDbEntity
  8
0
  6
CONTINUOUS
 62
           3
100
AcDbLine
 10
4279.532278210497
 20
1543.800000101368
 11
4276.532279581499
 21
1543.800000101368
  0
LINE
  5
2DB
100
AcDbEntity
  8
0
  6
CONTINUOUS
 62
           3
100
AcDbLine
 10
4268.532278270105
 20
1543.800000101368
 11
4225.532278206936
 21
1543.800000101368
  0
LINE
  5
2DA
100
AcDbEntity
  8
0
  6
CONTINUOUS
 62
           3
100
AcDbLine
 10
4219.532278154749
 20
1543.800000101368
 11
4176.532278091586
 21
1543.800000101368
  0
LINE
  5
2D9
100
AcDbEntity
  8
0
  6
CONTINUOUS
 62
           3
100
AcDbLine
 10
4168.532276780186
 20
1543.800000101368
 11
4165.532278151183
 21
1543.800000101368
  0
LINE
  5
2D8
100
AcDbEntity
  8
0
  6
CONTINUOUS
 62
           3
100
AcDbLine
 10
4279.532278210497
 20
1393.799997866194
 11
4279.532278210497
 21
1543.800000101368
  0
LINE
  5
2D7
100
AcDbEntity
  8
0
  6
CONTINUOUS
 62
           3
100
AcDbLine
 10
4225.419029614536
 20
1355.446577072223
 11
4225.419029614675
 21
1359.553411603068
  0
LINE
  5
2D6
100
AcDbEntity
  8
0
  6
CONTINUOUS
 62
           3
100
AcDbLine
 10
4225.419029614536
 20
1355.446577072223
 11
4222.532278180848
 21
1355.000004172322
  0
LINE
  5
2D5
100
AcDbEntity
  8
0
  6
CONTINUOUS
 62
           3
100
AcDbLine
 10
4219.645526747017
 20
1355.446577072242
 11
4219.645526747144
 21
1359.553411603021
  0
LINE
  5
2D4
100
AcDbEntity
  8
0
  6
CONTINUOUS
 62
           3
100
AcDbLine
 10
4219.645526747144
 20
1359.553411603021
 11
4222.532278180848
 21
1359.999999404048
  0
LINE
  5
2D3
100
AcDbEntity
  8
0
  6
CONTINUOUS
 62
           3
100
AcDbLine
 10
4222.532278180848
 20
1355.000004172322
 11
4226.862405215177
 21
1355.00000417242
  0
LINE
  5
2D2
100
AcDbEntity
  8
0
  6
CONTINUOUS
 62
           3
100
AcDbLine
 10
4218.202151146519
 20
1355.00000417242
 11
4222.532278180848
 21
1355.000004172322
  0
LINE
  5
2D1
100
AcDbEntity
  8
0
  6
CONTINUOUS
 62
           3
100
AcDbLine
 10
4218.202151146519
 20
1359.999999404048
 11
4222.532278180848
 21
1359.999999404048
  0
LINE
  5
2D0
100
AcDbEntity
  8
0
  6
CONTINUOUS
 62
           3
100
AcDbLine
 10
4225.419029614675
 20
1359.553411603068
 11
4226.862405215137
 21
1359.999999403921
  0
LINE
  5
2CF
100
AcDbEntity
  8
0
  6
CONTINUOUS
 62
           3
100
AcDbLine
 10
4222.532278180848
 20
1359.999999404048
 11
4226.862405215137
 21
1359.999999403921
  0
LINE
  5
2CE
100
AcDbEntity
  8
0
  6
CONTINUOUS
 62
           3
100
AcDbLine
 10
4216.758775313148
 20
1355.446577072223
 11
4216.758775313148
 21
1359.553411603021
  0
LINE
  5
2CD
100
AcDbEntity
  8
0
  6
CONTINUOUS
 62
           3
100
AcDbLine
 10
4228.305781048538
 20
1355.446577072223
 11
4228.305781048538
 21
1359.553411603021
  0
LINE
  5
2CC
100
AcDbEntity
  8
0
  6
CONTINUOUS
 62
           3
100
AcDbLine
 10
4228.305781048538
 20
1355.446577072223
 11
4226.862405215177
 21
1355.00000417242
  0
LINE
  5
2CB
100
AcDbEntity
  8
0
  6
CONTINUOUS
 62
           3
100
AcDbLine
 10
4217.532278292646
 20
1355.000004172322
 11
4218.202151146519
 21
1355.00000417242
  0
LINE
  5
2CA
100
AcDbEntity
  8
0
  6
CONTINUOUS
 62
           3
100
AcDbLine
 10
4227.532278069039
 20
1355.000004172322
 11
4226.862405215177
 21
1355.00000417242
  0
LINE
  5
2C9
100
AcDbEntity
  8
0
  6
CONTINUOUS
 62
           3
100
AcDbLine
 10
4217.532278292646
 20
1359.999999403921
 11
4218.202151146519
 21
1359.999999404048
  0
LINE
  5
2C8
100
AcDbEntity
  8
0
  6
CONTINUOUS
 62
           3
100
AcDbLine
 10
4225.419029614675
 20
1364.553421735858
 11
4225.419029614536
 21
1360.446587205121
  0
LINE
  5
2C7
100
AcDbEntity
  8
0
  6
CONTINUOUS
 62
           3
100
AcDbLine
 10
4219.645526747017
 20
1364.553421735858
 11
4219.645526747017
 21
1360.446587205024
  0
LINE
  5
2C6
100
AcDbEntity
  8
0
  6
CONTINUOUS
 62
           3
100
AcDbLine
 10
4228.305781048538
 20
1364.553421735915
 11
4226.862405215177
 21
1364.999994635673
  0
LINE
  5
2C5
100
AcDbEntity
  8
0
  6
CONTINUOUS
 62
           3
100
AcDbLine
 10
4228.305781048538
 20
1364.553421735915
 11
4228.305781048538
 21
1360.446587205121
  0
LINE
  5
2C4
100
AcDbEntity
  8
0
  6
CONTINUOUS
 62
           3
100
AcDbLine
 10
4225.419029614536
 20
1360.446587205121
 11
4226.862405215137
 21
1359.999999403921
  0
LINE
  5
2C3
100
AcDbEntity
  8
0
  6
CONTINUOUS
 62
           3
100
AcDbLine
 10
4219.645526747017
 20
1364.553421735858
 11
4218.202151146519
 21
1364.999994635673
  0
LINE
  5
2C2
100
AcDbEntity
  8
0
  6
CONTINUOUS
 62
           3
100
AcDbLine
 10
4216.758775313148
 20
1360.446587205121
 11
4218.202151146519
 21
1359.999999404048
  0
LINE
  5
2C1
100
AcDbEntity
  8
0
  6
CONTINUOUS
 62
           3
100
AcDbLine
 10
4216.758775313148
 20
1364.553421735915
 11
4216.758775313148
 21
1360.446587205121
  0
LINE
  5
2C0
100
AcDbEntity
  8
0
  6
CONTINUOUS
 62
           3
100
AcDbLine
 10
4225.419029614675
 20
1377.153418958267
 11
4225.419029614536
 21
1373.046576976911
  0
LINE
  5
2BF
100
AcDbEntity
  8
0
  6
CONTINUOUS
 62
           3
100
AcDbLine
 10
4219.645526747017
 20
1377.153418958267
 11
4219.645526747017
 21
1373.04657697686
  0
LINE
  5
2BE
100
AcDbEntity
  8
0
  6
CONTINUOUS
 62
           3
100
AcDbLine
 10
4228.305781048538
 20
1377.153418958205
 11
4226.862405215177
 21
1377.599999308666
  0
LINE
  5
2BD
100
AcDbEntity
  8
0
  6
CONTINUOUS
 62
           3
100
AcDbLine
 10
4228.305781048538
 20
1377.153418958205
 11
4228.305781048538
 21
1373.046576976911
  0
LINE
  5
2BC
100
AcDbEntity
  8
0
  6
CONTINUOUS
 62
           3
100
AcDbLine
 10
4225.419029614536
 20
1373.046576976911
 11
4226.862405215177
 21
1372.600004077041
  0
LINE
  5
2BB
100
AcDbEntity
  8
0
  6
CONTINUOUS
 62
           3
100
AcDbLine
 10
4226.862405215177
 20
1377.599999308666
 11
4222.532278180848
 21
1377.599999308666
  0
LINE
  5
2BA
100
AcDbEntity
  8
0
  6
CONTINUOUS
 62
           3
100
AcDbLine
 10
4219.645526747017
 20
1377.153418958267
 11
4218.202151146519
 21
1377.599999308666
  0
LINE
  5
2B9
100
AcDbEntity
  8
0
  6
CONTINUOUS
 62
           3
100
AcDbLine
 10
4216.758775313148
 20
1373.046576976911
 11
4218.202151146519
 21
1372.600004077041
  0
LINE
  5
2B8
100
AcDbEntity
  8
0
  6
CONTINUOUS
 62
           3
100
AcDbLine
 10
4216.758775313148
 20
1377.153418958205
 11
4216.758775313148
 21
1373.046576976911
  0
LINE
  5
2B7
100
AcDbEntity
  8
0
  6
CONTINUOUS
 62
           3
100
AcDbLine
 10
4222.532278180848
 20
1377.599999308666
 11
4218.202151146519
 21
1377.599999308666
  0
LINE
  5
2B6
100
AcDbEntity
  8
0
  6
CONTINUOUS
 62
           3
100
AcDbLine
 10
4226.862405215177
 20
1372.600004077041
 11
4222.532278180848
 21
1372.600004077041
  0
LINE
  5
2B5
100
AcDbEntity
  8
0
  6
CONTINUOUS
 62
           3
100
AcDbLine
 10
4222.532278180848
 20
1372.600004077041
 11
4218.202151146519
 21
1372.600004077041
  0
LINE
  5
2B4
100
AcDbEntity
  8
0
  6
CONTINUOUS
 62
           3
100
AcDbLine
 10
4218.202151146519
 20
1377.599999308666
 11
4217.532278292646
 21
1377.599999308604
  0
LINE
  5
2B3
100
AcDbEntity
  8
0
  6
CONTINUOUS
 62
           3
100
AcDbLine
 10
4227.532278069039
 20
1377.599999308604
 11
4226.862405215177
 21
1377.599999308666
  0
LINE
  5
2B2
100
AcDbEntity
  8
0
  6
CONTINUOUS
 62
           3
100
AcDbLine
 10
4227.532278069039
 20
1372.60000407701
 11
4226.862405215177
 21
1372.600004077041
  0
LINE
  5
2B1
100
AcDbEntity
  8
0
  6
CONTINUOUS
 62
           3
100
AcDbLine
 10
4225.419029614675
 20
1372.153416276062
 11
4225.419029614536
 21
1368.046581745312
  0
LINE
  5
2B0
100
AcDbEntity
  8
0
  6
CONTINUOUS
 62
           3
100
AcDbLine
 10
4219.645526747017
 20
1372.153416276062
 11
4219.645526747017
 21
1368.046581745235
  0
LINE
  5
2AF
100
AcDbEntity
  8
0
  6
CONTINUOUS
 62
           3
100
AcDbLine
 10
4228.305781048538
 20
1372.153416276109
 11
4226.862405215177
 21
1372.600004077041
  0
LINE
  5
2AE
100
AcDbEntity
  8
0
  6
CONTINUOUS
 62
           3
100
AcDbLine
 10
4228.305781048538
 20
1372.153416276109
 11
4228.305781048538
 21
1368.046581745312
  0
LINE
  5
2AD
100
AcDbEntity
  8
0
  6
CONTINUOUS
 62
           3
100
AcDbLine
 10
4225.419029614536
 20
1368.046581745312
 11
4226.862405215177
 21
1367.599993944256
  0
LINE
  5
2AC
100
AcDbEntity
  8
0
  6
CONTINUOUS
 62
           3
100
AcDbLine
 10
4219.645526747017
 20
1372.153416276062
 11
4218.202151146519
 21
1372.600004077041
  0
LINE
  5
2AB
100
AcDbEntity
  8
0
  6
CONTINUOUS
 62
           3
100
AcDbLine
 10
4216.758775313148
 20
1368.046581745312
 11
4218.202151146519
 21
1367.599993944256
  0
LINE
  5
2AA
100
AcDbEntity
  8
0
  6
CONTINUOUS
 62
           3
100
AcDbLine
 10
4216.758775313148
 20
1372.153416276109
 11
4216.758775313148
 21
1368.046581745312
  0
LINE
  5
2A9
100
AcDbEntity
  8
0
  6
CONTINUOUS
 62
           3
100
AcDbLine
 10
4222.532278180848
 20
1367.599993944256
 11
4218.202151146519
 21
1367.599993944256
  0
LINE
  5
2A8
100
AcDbEntity
  8
0
  6
CONTINUOUS
 62
           3
100
AcDbLine
 10
4226.862405215177
 20
1367.599993944256
 11
4222.532278180848
 21
1367.599993944256
  0
LINE
  5
2A7
100
AcDbEntity
  8
0
  6
CONTINUOUS
 62
           3
100
AcDbLine
 10
4218.202151146519
 20
1372.600004077041
 11
4217.532278292646
 21
1372.60000407701
  0
LINE
  5
2A6
100
AcDbEntity
  8
0
  6
CONTINUOUS
 62
           3
100
AcDbLine
 10
4227.532278069039
 20
1367.599993944113
 11
4226.862405215177
 21
1367.599993944256
  0
LINE
  5
2A5
100
AcDbEntity
  8
0
  6
CONTINUOUS
 62
           3
100
AcDbLine
 10
4218.202151146519
 20
1367.599993944256
 11
4217.532278292646
 21
1367.599993944113
  0
LINE
  5
2A4
100
AcDbEntity
  8
0
  6
CONTINUOUS
 62
           3
100
AcDbLine
 10
4172.532277435884
 20
1665.000006556369
 11
4176.532278091586
 21
1665.000006556369
  0
LINE
  5
2A3
100
AcDbEntity
  8
0
  6
CONTINUOUS
 62
           3
100
AcDbLine
 10
4168.532276780186
 20
1665.000006556369
 11
4172.532277435884
 21
1665.000006556369
  0
LINE
  5
2A2
100
AcDbEntity
  8
0
  6
CONTINUOUS
 62
           3
100
AcDbLine
 10
4219.532278154749
 20
1637.422651052293
 11
4225.532278206936
 21
1637.422651052293
  0
LINE
  5
2A1
100
AcDbEntity
  8
0
  6
CONTINUOUS
 62
           3
100
AcDbLine
 10
4224.532278275733
 20
1638.422653078993
 11
4220.532278085947
 21
1638.422653078993
  0
LINE
  5
2A0
100
AcDbEntity
  8
0
  6
CONTINUOUS
 62
           3
100
AcDbLine
 10
4230.532278560737
 20
1389.200001954996
 11
4226.032278288936
 21
1389.200001954996
  0
LINE
  5
29F
100
AcDbEntity
  8
0
  6
CONTINUOUS
 62
           3
100
AcDbLine
 10
4219.032278072749
 20
1394.792847335491
 11
4226.032278288936
 21
1394.792847335491
  0
LINE
  5
29E
100
AcDbEntity
  8
0
  6
CONTINUOUS
 62
           3
100
AcDbLine
 10
4219.032278072749
 20
1389.200001954996
 11
4214.532277800948
 21
1389.200001954996
  0
LINE
  5
29D
100
AcDbEntity
  8
0
  6
CONTINUOUS
 62
           3
100
AcDbLine
 10
4226.032278288936
 20
1394.799999892893
 11
4226.032278288936
 21
1389.200001954996
  0
LINE
  5
29C
100
AcDbEntity
  8
0
  6
CONTINUOUS
 62
           3
100
AcDbLine
 10
4219.032278072749
 20
1389.200001954996
 11
4219.032278072749
 21
1394.799999892893
  0
LINE
  5
29B
100
AcDbEntity
  8
0
  6
CONTINUOUS
 62
           3
100
AcDbLine
 10
4214.532277800948
 20
1394.799999892893
 11
4214.532277800948
 21
1389.200001954996
  0
LINE
  5
29A
100
AcDbEntity
  8
0
  6
CONTINUOUS
 62
           3
100
AcDbLine
 10
4230.532278560737
 20
1394.799999892893
 11
4230.532278560737
 21
1389.200001954996
  0
LINE
  5
299
100
AcDbEntity
  8
0
  6
CONTINUOUS
 62
           3
100
AcDbLine
 10
4226.032278288936
 20
1392.246469855294
 11
4225.532278206936
 21
1392.246469855294
  0
LINE
  5
298
100
AcDbEntity
  8
0
  6
CONTINUOUS
 62
           3
100
AcDbLine
 10
4219.532278154749
 20
1392.246469855294
 11
4219.032278072749
 21
1392.246469855294
  0
LINE
  5
297
100
AcDbEntity
  8
0
  6
CONTINUOUS
 62
           3
100
AcDbLine
 10
4226.032278288936
 20
1393.990144133492
 11
4219.032278072749
 21
1393.990144133492
  0
LINE
  5
296
100
AcDbEntity
  8
0
  6
CONTINUOUS
 62
           3
100
AcDbLine
 10
4219.032278072749
 20
1390.000000596097
 11
4226.032278288936
 21
1390.000000596097
  0
LINE
  5
295
100
AcDbEntity
  8
0
  6
CONTINUOUS
 62
           3
100
AcDbLine
 10
4219.032278072749
 20
1389.200001954996
 11
4226.032278288936
 21
1389.200001954996
  0
LINE
  5
294
100
AcDbEntity
  8
0
  6
CONTINUOUS
 62
           3
100
AcDbLine
 10
4222.532278180848
 20
1384.646579623295
 11
4225.032278124935
 21
1384.1999992729
  0
LINE
  5
293
100
AcDbEntity
  8
0
  6
CONTINUOUS
 62
           3
100
AcDbLine
 10
4220.032278236728
 20
1384.1999992729
 11
4225.032278124935
 21
1384.1999992729
  0
LINE
  5
292
100
AcDbEntity
  8
0
  6
CONTINUOUS
 62
           3
100
AcDbLine
 10
4222.532278180848
 20
1384.646579623295
 11
4222.532278180848
 21
1389.100000262195
  0
LINE
  5
291
100
AcDbEntity
  8
0
  6
CONTINUOUS
 62
           3
100
AcDbLine
 10
4217.532278292646
 20
1384.646579623302
 11
4220.032278236728
 21
1384.1999992729
  0
LINE
  5
290
100
AcDbEntity
  8
0
  6
CONTINUOUS
 62
           3
100
AcDbLine
 10
4217.532278292646
 20
1384.646579623302
 11
4217.532278292646
 21
1389.100000262195
  0
LINE
  5
28F
100
AcDbEntity
  8
0
  6
CONTINUOUS
 62
           3
100
AcDbLine
 10
4227.532278069039
 20
1384.646579623302
 11
4227.532278069039
 21
1389.100000262195
  0
LINE
  5
28E
100
AcDbEntity
  8
0
  6
CONTINUOUS
 62
           3
100
AcDbLine
 10
4217.532278292606
 20
1384.1999992729
 11
4220.032278236728
 21
1384.1999992729
  0
LINE
  5
28D
100
AcDbEntity
  8
0
  6
CONTINUOUS
 62
           3
100
AcDbLine
 10
4225.032278124935
 20
1384.1999992729
 11
4227.532278069086
 21
1384.1999992729
  0
LINE
  5
28C
100
AcDbEntity
  8
0
  6
CONTINUOUS
 62
           3
100
AcDbLine
 10
4230.532278560737
 20
1388.276241719796
 11
4227.532278069039
 21
1388.276241719796
  0
LINE
  5
28B
100
AcDbEntity
  8
0
  6
CONTINUOUS
 62
           3
100
AcDbLine
 10
4217.532278292646
 20
1388.276241719796
 11
4214.532277800948
 21
1388.276241719796
  0
LINE
  5
28A
100
AcDbEntity
  8
0
  6
CONTINUOUS
 62
           3
100
AcDbLine
 10
4214.532277800948
 20
1389.200001954996
 11
4214.532277800948
 21
1388.276241719796
  0
LINE
  5
289
100
AcDbEntity
  8
0
  6
CONTINUOUS
 62
           3
100
AcDbLine
 10
4230.532278560737
 20
1389.200001954996
 11
4230.532278560737
 21
1388.276241719796
  0
LINE
  5
288
100
AcDbEntity
  8
0
  6
CONTINUOUS
 62
           3
100
AcDbLine
 10
4192.532278851363
 20
1550.000000744964
 11
4202.532278627759
 21
1550.000000744964
  0
LINE
  5
287
100
AcDbEntity
  8
0
  6
CONTINUOUS
 62
           3
100
AcDbLine
 10
4202.532278627759
 20
1548.799999058065
 11
4202.532278627759
 21
1550.000000744964
  0
LINE
  5
286
100
AcDbEntity
  8
0
  6
CONTINUOUS
 62
           3
100
AcDbLine
 10
4192.532278851363
 20
1548.799999058065
 11
4202.532278627759
 21
1548.799999058065
  0
LINE
  5
285
100
AcDbEntity
  8
0
  6
CONTINUOUS
 62
           3
100
AcDbLine
 10
4192.532278851363
 20
1548.799999058065
 11
4192.532278851363
 21
1550.000000744964
  0
LINE
  5
284
100
AcDbEntity
  8
0
  6
CONTINUOUS
 62
           3
100
AcDbLine
 10
4242.532277733925
 20
1548.799999058065
 11
4242.532277733925
 21
1550.000000744964
  0
LINE
  5
283
100
AcDbEntity
  8
0
  6
CONTINUOUS
 62
           3
100
AcDbLine
 10
4227.782278110039
 20
1548.799999058065
 11
4242.532277733925
 21
1548.799999058065
  0
LINE
  5
282
100
AcDbEntity
  8
0
  6
CONTINUOUS
 62
           3
100
AcDbLine
 10
4227.782278110039
 20
1550.000000744964
 11
4242.532277733925
 21
1550.000000744964
  0
LINE
  5
281
100
AcDbEntity
  8
0
  6
CONTINUOUS
 62
           3
100
AcDbLine
 10
4202.532278627759
 20
1548.799999058065
 11
4217.282278251646
 21
1548.799999058065
  0
LINE
  5
280
100
AcDbEntity
  8
0
  6
CONTINUOUS
 62
           3
100
AcDbLine
 10
4202.532278627759
 20
1550.000000744964
 11
4217.282278251646
 21
1550.000000744964
  0
LINE
  5
27F
100
AcDbEntity
  8
0
  6
CONTINUOUS
 62
           3
100
AcDbLine
 10
4202.532278627759
 20
1391.199998557593
 11
4202.532278627759
 21
1390.000000596097
  0
LINE
  5
27E
100
AcDbEntity
  8
0
  6
CONTINUOUS
 62
           3
100
AcDbLine
 10
4202.532278627759
 20
1390.000000596097
 11
4214.532277800948
 21
1390.000000596097
  0
LINE
  5
27D
100
AcDbEntity
  8
0
  6
CONTINUOUS
 62
           3
100
AcDbLine
 10
4202.532278627759
 20
1391.199998557593
 11
4214.532277800948
 21
1391.199998557593
  0
LINE
  5
27C
100
AcDbEntity
  8
0
  6
CONTINUOUS
 62
           3
100
AcDbLine
 10
4225.782278247936
 20
1390.000000596097
 11
4225.782278247936
 21
1391.199998557593
  0
LINE
  5
27B
100
AcDbEntity
  8
0
  6
CONTINUOUS
 62
           3
100
AcDbLine
 10
4225.782278247936
 20
1391.199998557593
 11
4226.032278288936
 21
1391.199998557593
  0
LINE
  5
27A
100
AcDbEntity
  8
0
  6
CONTINUOUS
 62
           3
100
AcDbLine
 10
4252.532277510317
 20
1548.799999058065
 11
4252.532277510317
 21
1550.000000744964
  0
LINE
  5
279
100
AcDbEntity
  8
0
  6
CONTINUOUS
 62
           3
100
AcDbLine
 10
4252.532277510317
 20
1548.799999058065
 11
4242.532277733925
 21
1548.799999058065
  0
LINE
  5
278
100
AcDbEntity
  8
0
  6
CONTINUOUS
 62
           3
100
AcDbLine
 10
4252.532277510317
 20
1550.000000744964
 11
4242.532277733925
 21
1550.000000744964
  0
LINE
  5
277
100
AcDbEntity
  8
0
  6
CONTINUOUS
 62
           3
100
AcDbLine
 10
4225.782278247936
 20
1548.799999058065
 11
4225.782278247936
 21
1550.000000744964
  0
LINE
  5
276
100
AcDbEntity
  8
0
  6
CONTINUOUS
 62
           3
100
AcDbLine
 10
4227.782278110039
 20
1548.799999058065
 11
4225.782278247936
 21
1548.799999058065
  0
LINE
  5
275
100
AcDbEntity
  8
0
  6
CONTINUOUS
 62
           3
100
AcDbLine
 10
4225.782278247936
 20
1550.000000744964
 11
4227.782278110039
 21
1550.000000744964
  0
LINE
  5
274
100
AcDbEntity
  8
0
  6
CONTINUOUS
 62
           3
100
AcDbLine
 10
4192.532278851363
 20
1391.199998557593
 11
4192.532278851363
 21
1390.000000596097
  0
LINE
  5
273
100
AcDbEntity
  8
0
  6
CONTINUOUS
 62
           3
100
AcDbLine
 10
4192.532278851363
 20
1390.000000596097
 11
4202.532278627759
 21
1390.000000596097
  0
LINE
  5
272
100
AcDbEntity
  8
0
  6
CONTINUOUS
 62
           3
100
AcDbLine
 10
4192.532278851363
 20
1391.199998557593
 11
4202.532278627759
 21
1391.199998557593
  0
LINE
  5
271
100
AcDbEntity
  8
0
  6
CONTINUOUS
 62
           3
100
AcDbLine
 10
4242.532277733925
 20
1391.199998557593
 11
4242.532277733925
 21
1390.000000596097
  0
LINE
  5
270
100
AcDbEntity
  8
0
  6
CONTINUOUS
 62
           3
100
AcDbLine
 10
4230.532278560737
 20
1390.000000596097
 11
4242.532277733925
 21
1390.000000596097
  0
LINE
  5
26F
100
AcDbEntity
  8
0
  6
CONTINUOUS
 62
           3
100
AcDbLine
 10
4230.532278560737
 20
1391.199998557593
 11
4242.532277733925
 21
1391.199998557593
  0
LINE
  5
26E
100
AcDbEntity
  8
0
  6
CONTINUOUS
 62
           3
100
AcDbLine
 10
4219.282278113749
 20
1550.000000744964
 11
4219.282278113749
 21
1548.799999058065
  0
LINE
  5
26D
100
AcDbEntity
  8
0
  6
CONTINUOUS
 62
           3
100
AcDbLine
 10
4219.282278113749
 20
1548.799999058065
 11
4217.282278251646
 21
1548.799999058065
  0
LINE
  5
26C
100
AcDbEntity
  8
0
  6
CONTINUOUS
 62
           3
100
AcDbLine
 10
4217.282278251646
 20
1550.000000744964
 11
4219.282278113749
 21
1550.000000744964
  0
LINE
  5
26B
100
AcDbEntity
  8
0
  6
CONTINUOUS
 62
           3
100
AcDbLine
 10
4252.532277510317
 20
1391.199998557593
 11
4252.532277510317
 21
1390.000000596097
  0
LINE
  5
26A
100
AcDbEntity
  8
0
  6
CONTINUOUS
 62
           3
100
AcDbLine
 10
4252.532277510317
 20
1390.000000596097
 11
4242.532277733925
 21
1390.000000596097
  0
LINE
  5
269
100
AcDbEntity
  8
0
  6
CONTINUOUS
 62
           3
100
AcDbLine
 10
4252.532277510317
 20
1391.199998557593
 11
4242.532277733925
 21
1391.199998557593
  0
LINE
  5
268
100
AcDbEntity
  8
0
  6
CONTINUOUS
 62
           3
100
AcDbLine
 10
4219.282278113749
 20
1391.199998557593
 11
4219.282278113749
 21
1390.000000596097
  0
LINE
  5
267
100
AcDbEntity
  8
0
  6
CONTINUOUS
 62
           3
100
AcDbLine
 10
4219.032278072749
 20
1391.199998557593
 11
4219.282278113749
 21
1391.199998557593
  0
LINE
  5
266
100
AcDbEntity
  8
0
  6
CONTINUOUS
 62
           3
100
AcDbLine
 10
4169.532278806886
 20
1390.000000596097
 11
4169.532278806886
 21
1391.199998557593
  0
LINE
  5
265
100
AcDbEntity
  8
0
  6
CONTINUOUS
 62
           3
100
AcDbLine
 10
4167.532278478885
 20
1390.000000596097
 11
4169.532278806886
 21
1390.000000596097
  0
LINE
  5
264
100
AcDbEntity
  8
0
  6
CONTINUOUS
 62
           3
100
AcDbLine
 10
4169.532278806886
 20
1391.199998557593
 11
4167.532278478885
 21
1391.199998557593
  0
LINE
  5
263
100
AcDbEntity
  8
0
  6
CONTINUOUS
 62
           3
100
AcDbLine
 10
4175.532279790276
 20
1391.199998557593
 11
4175.532279790276
 21
1390.000000596097
  0
LINE
  5
262
100
AcDbEntity
  8
0
  6
CONTINUOUS
 62
           3
100
AcDbLine
 10
4175.532279790276
 20
1390.000000596097
 11
4177.532276392876
 21
1390.000000596097
  0
LINE
  5
261
100
AcDbEntity
  8
0
  6
CONTINUOUS
 62
           3
100
AcDbLine
 10
4177.532276392876
 20
1391.199998557593
 11
4175.532279790276
 21
1391.199998557593
  0
LINE
  5
260
100
AcDbEntity
  8
0
  6
CONTINUOUS
 62
           3
100
AcDbLine
 10
4275.532277555093
 20
1550.000000744964
 11
4275.532277555093
 21
1548.799999058065
  0
LINE
  5
25F
100
AcDbEntity
  8
0
  6
CONTINUOUS
 62
           3
100
AcDbLine
 10
4275.532277555093
 20
1548.799999058065
 11
4277.532277882796
 21
1548.799999058065
  0
LINE
  5
25E
100
AcDbEntity
  8
0
  6
CONTINUOUS
 62
           3
100
AcDbLine
 10
4277.532277882796
 20
1550.000000744964
 11
4275.532277555093
 21
1550.000000744964
  0
LINE
  5
25D
100
AcDbEntity
  8
0
  6
CONTINUOUS
 62
           3
100
AcDbLine
 10
4269.532276571406
 20
1548.799999058065
 11
4269.532276571406
 21
1550.000000744964
  0
LINE
  5
25C
100
AcDbEntity
  8
0
  6
CONTINUOUS
 62
           3
100
AcDbLine
 10
4267.532279968805
 20
1548.799999058065
 11
4269.532276571406
 21
1548.799999058065
  0
LINE
  5
25B
100
AcDbEntity
  8
0
  6
CONTINUOUS
 62
           3
100
AcDbLine
 10
4269.532276571406
 20
1550.000000744964
 11
4267.532279968805
 21
1550.000000744964
  0
LINE
  5
25A
100
AcDbEntity
  8
0
  6
CONTINUOUS
 62
           3
100
AcDbLine
 10
4275.532277555093
 20
1390.000000596097
 11
4275.532277555093
 21
1391.199998557593
  0
LINE
  5
259
100
AcDbEntity
  8
0
  6
CONTINUOUS
 62
           3
100
AcDbLine
 10
4277.532277882796
 20
1390.000000596097
 11
4275.532277555093
 21
1390.000000596097
  0
LINE
  5
258
100
AcDbEntity
  8
0
  6
CONTINUOUS
 62
           3
100
AcDbLine
 10
4275.532277555093
 20
1391.199998557593
 11
4277.532277882796
 21
1391.199998557593
  0
LINE
  5
257
100
AcDbEntity
  8
0
  6
CONTINUOUS
 62
           3
100
AcDbLine
 10
4269.532276571406
 20
1391.199998557593
 11
4269.532276571406
 21
1390.000000596097
  0
LINE
  5
256
100
AcDbEntity
  8
0
  6
CONTINUOUS
 62
           3
100
AcDbLine
 10
4269.532276571406
 20
1390.000000596097
 11
4267.532279968805
 21
1390.000000596097
  0
LINE
  5
255
100
AcDbEntity
  8
0
  6
CONTINUOUS
 62
           3
100
AcDbLine
 10
4267.532279968805
 20
1391.199998557593
 11
4269.532276571406
 21
1391.199998557593
  0
LINE
  5
254
100
AcDbEntity
  8
0
  6
CONTINUOUS
 62
           3
100
AcDbLine
 10
4169.532278806886
 20
1550.000000744964
 11
4169.532278806886
 21
1548.799999058065
  0
LINE
  5
253
100
AcDbEntity
  8
0
  6
CONTINUOUS
 62
           3
100
AcDbLine
 10
4169.532278806886
 20
1548.799999058065
 11
4167.532278478885
 21
1548.799999058065
  0
LINE
  5
252
100
AcDbEntity
  8
0
  6
CONTINUOUS
 62
           3
100
AcDbLine
 10
4167.532278478885
 20
1550.000000744964
 11
4169.532278806886
 21
1550.000000744964
  0
LINE
  5
251
100
AcDbEntity
  8
0
  6
CONTINUOUS
 62
           3
100
AcDbLine
 10
4175.532279790276
 20
1548.799999058065
 11
4175.532279790276
 21
1550.000000744964
  0
LINE
  5
250
100
AcDbEntity
  8
0
  6
CONTINUOUS
 62
           3
100
AcDbLine
 10
4177.532276392876
 20
1548.799999058065
 11
4175.532279790276
 21
1548.799999058065
  0
LINE
  5
24F
100
AcDbEntity
  8
0
  6
CONTINUOUS
 62
           3
100
AcDbLine
 10
4175.532279790276
 20
1550.000000744964
 11
4177.532276392876
 21
1550.000000744964
  0
LINE
  5
24E
100
AcDbEntity
  8
0
  6
CONTINUOUS
 62
           3
100
AcDbLine
 10
4177.532276392876
 20
1390.000000596097
 11
4192.532278851363
 21
1390.000000596097
  0
LINE
  5
24D
100
AcDbEntity
  8
0
  6
CONTINUOUS
 62
           3
100
AcDbLine
 10
4177.532276392876
 20
1391.199998557593
 11
4192.532278851363
 21
1391.199998557593
  0
LINE
  5
24C
100
AcDbEntity
  8
0
  6
CONTINUOUS
 62
           3
100
AcDbLine
 10
4282.532276839794
 20
1391.199998557593
 11
4282.532276839794
 21
1390.000000596097
  0
LINE
  5
24B
100
AcDbEntity
  8
0
  6
CONTINUOUS
 62
           3
100
AcDbLine
 10
4282.532276839794
 20
1390.000000596097
 11
4277.532277882796
 21
1390.000000596097
  0
LINE
  5
24A
100
AcDbEntity
  8
0
  6
CONTINUOUS
 62
           3
100
AcDbLine
 10
4277.532277882796
 20
1391.199998557593
 11
4282.532276839794
 21
1391.199998557593
  0
LINE
  5
249
100
AcDbEntity
  8
0
  6
CONTINUOUS
 62
           3
100
AcDbLine
 10
4177.532276392876
 20
1548.799999058065
 11
4192.532278851363
 21
1548.799999058065
  0
LINE
  5
248
100
AcDbEntity
  8
0
  6
CONTINUOUS
 62
           3
100
AcDbLine
 10
4177.532276392876
 20
1550.000000744964
 11
4192.532278851363
 21
1550.000000744964
  0
LINE
  5
247
100
AcDbEntity
  8
0
  6
CONTINUOUS
 62
           3
100
AcDbLine
 10
4267.532279968805
 20
1390.000000596097
 11
4252.532277510317
 21
1390.000000596097
  0
LINE
  5
246
100
AcDbEntity
  8
0
  6
CONTINUOUS
 62
           3
100
AcDbLine
 10
4267.532279968805
 20
1391.199998557593
 11
4252.532277510317
 21
1391.199998557593
  0
LINE
  5
245
100
AcDbEntity
  8
0
  6
CONTINUOUS
 62
           3
100
AcDbLine
 10
4282.532276839794
 20
1548.799999058065
 11
4282.532276839794
 21
1550.000000744964
  0
LINE
  5
244
100
AcDbEntity
  8
0
  6
CONTINUOUS
 62
           3
100
AcDbLine
 10
4277.532277882796
 20
1548.799999058065
 11
4282.532276839794
 21
1548.799999058065
  0
LINE
  5
243
100
AcDbEntity
  8
0
  6
CONTINUOUS
 62
           3
100
AcDbLine
 10
4282.532276839794
 20
1550.000000744964
 11
4277.532277882796
 21
1550.000000744964
  0
LINE
  5
242
100
AcDbEntity
  8
0
  6
CONTINUOUS
 62
           3
100
AcDbLine
 10
4267.532279968805
 20
1548.799999058065
 11
4252.532277510317
 21
1548.799999058065
  0
LINE
  5
241
100
AcDbEntity
  8
0
  6
CONTINUOUS
 62
           3
100
AcDbLine
 10
4267.532279968805
 20
1550.000000744964
 11
4252.532277510317
 21
1550.000000744964
  0
LINE
  5
240
100
AcDbEntity
  8
0
  6
CONTINUOUS
 62
           3
100
AcDbLine
 10
4162.532279521887
 20
1548.799999058065
 11
4162.532279521887
 21
1550.000000744964
  0
LINE
  5
23F
100
AcDbEntity
  8
0
  6
CONTINUOUS
 62
           3
100
AcDbLine
 10
4167.532278478885
 20
1548.799999058065
 11
4162.532279521887
 21
1548.799999058065
  0
LINE
  5
23E
100
AcDbEntity
  8
0
  6
CONTINUOUS
 62
           3
100
AcDbLine
 10
4162.532279521887
 20
1550.000000744964
 11
4167.532278478885
 21
1550.000000744964
  0
LINE
  5
23D
100
AcDbEntity
  8
0
  6
CONTINUOUS
 62
           3
100
AcDbLine
 10
4162.532279521887
 20
1391.199998557593
 11
4162.532279521887
 21
1390.000000596097
  0
LINE
  5
23C
100
AcDbEntity
  8
0
  6
CONTINUOUS
 62
           3
100
AcDbLine
 10
4162.532279521887
 20
1390.000000596097
 11
4167.532278478885
 21
1390.000000596097
  0
LINE
  5
23B
100
AcDbEntity
  8
0
  6
CONTINUOUS
 62
           3
100
AcDbLine
 10
4167.532278478885
 20
1391.199998557593
 11
4162.532279521887
 21
1391.199998557593
  0
LINE
  5
23A
100
AcDbEntity
  8
0
  6
CONTINUOUS
 62
           3
100
AcDbLine
 10
4225.782278247936
 20
1391.199998557593
 11
4225.532278206936
 21
1391.199998557593
  0
LINE
  5
239
100
AcDbEntity
  8
0
  6
CONTINUOUS
 62
           3
100
AcDbLine
 10
4219.532278154749
 20
1391.199998557593
 11
4219.282278113749
 21
1391.199998557593
  0
LINE
  5
238
100
AcDbEntity
  8
0
  6
CONTINUOUS
 62
           3
100
AcDbLine
 10
4219.282278113749
 20
1548.799999058065
 11
4219.532278154749
 21
1548.799999058065
  0
LINE
  5
237
100
AcDbEntity
  8
0
  6
CONTINUOUS
 62
           3
100
AcDbLine
 10
4225.532278206936
 20
1548.799999058065
 11
4225.782278247936
 21
1548.799999058065
  0
LINE
  5
236
100
AcDbEntity
  8
0
  6
CONTINUOUS
 62
           3
100
AcDbLine
 10
4219.282278113749
 20
1550.000000744964
 11
4219.532278154749
 21
1550.000000744964
  0
LINE
  5
235
100
AcDbEntity
  8
0
  6
CONTINUOUS
 62
           3
100
AcDbLine
 10
4225.532278206936
 20
1550.000000744964
 11
4225.782278247936
 21
1550.000000744964
  0
LINE
  5
234
100
AcDbEntity
  8
0
  6
CONTINUOUS
 62
           3
100
AcDbLine
 10
4282.532276839794
 20
1391.199998557593
 11
4282.532276839794
 21
1391.699999570792
  0
LINE
  5
233
100
AcDbEntity
  8
0
  6
CONTINUOUS
 62
           3
100
AcDbLine
 10
4162.532279521887
 20
1391.199998557593
 11
4162.532279521887
 21
1391.699999570792
  0
LINE
  5
232
100
AcDbEntity
  8
0
  6
CONTINUOUS
 62
           3
100
AcDbLine
 10
4162.532279521887
 20
1548.799999058065
 11
4162.532279521887
 21
1548.300001770265
  0
LINE
  5
231
100
AcDbEntity
  8
0
  6
CONTINUOUS
 62
           3
100
AcDbLine
 10
4282.532276839794
 20
1548.799999058065
 11
4282.532276839794
 21
1548.300001770265
  0
LINE
  5
230
100
AcDbEntity
  8
0
  6
CONTINUOUS
 62
           3
100
AcDbLine
 10
4282.532276839794
 20
1529.999999329481
 11
4280.832277864797
 21
1529.999999329481
  0
LINE
  5
22F
100
AcDbEntity
  8
0
  6
CONTINUOUS
 62
           3
100
AcDbLine
 10
4282.532276839794
 20
1509.999999776395
 11
4282.532276839794
 21
1529.999999329481
  0
LINE
  5
22E
100
AcDbEntity
  8
0
  6
CONTINUOUS
 62
           3
100
AcDbLine
 10
4280.832277864797
 20
1509.999999776395
 11
4282.457085580196
 21
1509.999999776395
  0
LINE
  5
22D
100
AcDbEntity
  8
0
  6
CONTINUOUS
 62
           3
100
AcDbLine
 10
4164.532279849887
 20
1532.000001519879
 11
4162.532279521887
 21
1532.000001519879
  0
LINE
  5
22C
100
AcDbEntity
  8
0
  6
CONTINUOUS
 62
           3
100
AcDbLine
 10
4162.532279521887
 20
1548.300001770265
 11
4162.532279521887
 21
1532.000001519879
  0
LINE
  5
22B
100
AcDbEntity
  8
0
  6
CONTINUOUS
 62
           3
100
AcDbLine
 10
4282.532276839794
 20
1548.300001770265
 11
4282.532276839794
 21
1532.000001519879
  0
LINE
  5
22A
100
AcDbEntity
  8
0
  6
CONTINUOUS
 62
           3
100
AcDbLine
 10
4280.532276511795
 20
1532.000001519879
 11
4282.532276839794
 21
1532.000001519879
  0
LINE
  5
229
100
AcDbEntity
  8
0
  6
CONTINUOUS
 62
           3
100
AcDbLine
 10
4280.832277864797
 20
1529.999999329481
 11
4280.532276511795
 21
1529.999999329481
  0
LINE
  5
228
100
AcDbEntity
  8
0
  6
CONTINUOUS
 62
           3
100
AcDbLine
 10
4280.532276511795
 20
1509.999999776395
 11
4280.832277864797
 21
1509.999999776395
  0
LINE
  5
227
100
AcDbEntity
  8
0
  6
CONTINUOUS
 62
           3
100
AcDbLine
 10
4282.532276839794
 20
1508.000000379899
 11
4280.532276511795
 21
1508.000000379899
  0
LINE
  5
226
100
AcDbEntity
  8
0
  6
CONTINUOUS
 62
           3
100
AcDbLine
 10
4282.532276839794
 20
1508.000000379899
 11
4282.532276839794
 21
1431.999996304559
  0
LINE
  5
225
100
AcDbEntity
  8
0
  6
CONTINUOUS
 62
           3
100
AcDbLine
 10
4282.532276839794
 20
1431.999996304559
 11
4280.532276511795
 21
1431.999996304559
  0
LINE
  5
224
100
AcDbEntity
  8
0
  6
CONTINUOUS
 62
           3
100
AcDbLine
 10
4280.532276511795
 20
1429.999999701962
 11
4280.832277864797
 21
1429.999999701962
  0
LINE
  5
223
100
AcDbEntity
  8
0
  6
CONTINUOUS
 62
           3
100
AcDbLine
 10
4280.832277864797
 20
1409.999996423779
 11
4280.532276511795
 21
1409.999996423779
  0
LINE
  5
222
100
AcDbEntity
  8
0
  6
CONTINUOUS
 62
           3
100
AcDbLine
 10
4280.532276511795
 20
1407.999999821183
 11
4282.532276839794
 21
1407.999999821183
  0
LINE
  5
221
100
AcDbEntity
  8
0
  6
CONTINUOUS
 62
           3
100
AcDbLine
 10
4282.532276839794
 20
1391.699999570792
 11
4282.532276839794
 21
1407.999999821183
  0
LINE
  5
220
100
AcDbEntity
  8
0
  6
CONTINUOUS
 62
           3
100
AcDbLine
 10
4162.532279521887
 20
1391.699999570792
 11
4162.532279521887
 21
1407.999999821183
  0
LINE
  5
21F
100
AcDbEntity
  8
0
  6
CONTINUOUS
 62
           3
100
AcDbLine
 10
4164.532279849887
 20
1407.999999821183
 11
4162.532279521887
 21
1407.999999821183
  0
LINE
  5
21E
100
AcDbEntity
  8
0
  6
CONTINUOUS
 62
           3
100
AcDbLine
 10
4164.232278496888
 20
1409.999996423779
 11
4164.532279849887
 21
1409.999996423779
  0
LINE
  5
21D
100
AcDbEntity
  8
0
  6
CONTINUOUS
 62
           3
100
AcDbLine
 10
4164.532279849887
 20
1429.999999701962
 11
4164.232278496888
 21
1429.999999701962
  0
LINE
  5
21C
100
AcDbEntity
  8
0
  6
CONTINUOUS
 62
           3
100
AcDbLine
 10
4162.532279521887
 20
1431.999996304559
 11
4164.532279849887
 21
1431.999996304559
  0
LINE
  5
21B
100
AcDbEntity
  8
0
  6
CONTINUOUS
 62
           3
100
AcDbLine
 10
4162.532279521887
 20
1508.000000379899
 11
4162.532279521887
 21
1431.999996304559
  0
LINE
  5
21A
100
AcDbEntity
  8
0
  6
CONTINUOUS
 62
           3
100
AcDbLine
 10
4162.532279521887
 20
1508.000000379899
 11
4164.532279849887
 21
1508.000000379899
  0
LINE
  5
219
100
AcDbEntity
  8
0
  6
CONTINUOUS
 62
           3
100
AcDbLine
 10
4164.532279849887
 20
1509.999999776395
 11
4164.232278496888
 21
1509.999999776395
  0
LINE
  5
218
100
AcDbEntity
  8
0
  6
CONTINUOUS
 62
           3
100
AcDbLine
 10
4164.232278496888
 20
1529.999999329481
 11
4164.532279849887
 21
1529.999999329481
  0
LINE
  5
217
100
AcDbEntity
  8
0
  6
CONTINUOUS
 62
           3
100
AcDbLine
 10
4162.532279521887
 20
1429.999999701962
 11
4162.532279521887
 21
1409.999996423779
  0
LINE
  5
216
100
AcDbEntity
  8
0
  6
CONTINUOUS
 62
           3
100
AcDbLine
 10
4164.232278496888
 20
1429.999999701962
 11
4162.532279521887
 21
1429.999999701962
  0
LINE
  5
215
100
AcDbEntity
  8
0
  6
CONTINUOUS
 62
           3
100
AcDbLine
 10
4162.607470781496
 20
1409.999996423779
 11
4164.232278496888
 21
1409.999996423779
  0
LINE
  5
214
100
AcDbEntity
  8
0
  6
CONTINUOUS
 62
           3
100
AcDbLine
 10
4164.232278496888
 20
1509.999999776395
 11
4162.607470781496
 21
1509.999999776395
  0
LINE
  5
213
100
AcDbEntity
  8
0
  6
CONTINUOUS
 62
           3
100
AcDbLine
 10
4162.532279521887
 20
1509.999999776395
 11
4162.532279521887
 21
1529.999999329481
  0
LINE
  5
212
100
AcDbEntity
  8
0
  6
CONTINUOUS
 62
           3
100
AcDbLine
 10
4162.532279521887
 20
1529.999999329481
 11
4164.232278496888
 21
1529.999999329481
  0
LINE
  5
211
100
AcDbEntity
  8
0
  6
CONTINUOUS
 62
           3
100
AcDbLine
 10
4282.532276839794
 20
1429.999999701962
 11
4282.532276839794
 21
1409.999996423779
  0
LINE
  5
210
100
AcDbEntity
  8
0
  6
CONTINUOUS
 62
           3
100
AcDbLine
 10
4280.832277864797
 20
1429.999999701962
 11
4282.532276839794
 21
1429.999999701962
  0
LINE
  5
20F
100
AcDbEntity
  8
0
  6
CONTINUOUS
 62
           3
100
AcDbLine
 10
4282.457085580196
 20
1409.999996423779
 11
4280.832277864797
 21
1409.999996423779
  0
LINE
  5
20E
100
AcDbEntity
  8
0
  6
CONTINUOUS
 62
           3
100
AcDbLine
 10
4169.532278806886
 20
1364.999994635815
 11
4169.532278806886
 21
1366.600006818713
  0
LINE
  5
20D
100
AcDbEntity
  8
0
  6
CONTINUOUS
 62
           3
100
AcDbLine
 10
4167.532278478885
 20
1364.999994635815
 11
4169.532278806886
 21
1364.999994635815
  0
LINE
  5
20C
100
AcDbEntity
  8
0
  6
CONTINUOUS
 62
           3
100
AcDbLine
 10
4169.532278806886
 20
1366.600006818713
 11
4167.532278478885
 21
1366.600006818713
  0
LINE
  5
20B
100
AcDbEntity
  8
0
  6
CONTINUOUS
 62
           3
100
AcDbLine
 10
4167.532278478885
 20
1635.000005364196
 11
4169.532278806886
 21
1635.000005364196
  0
LINE
  5
20A
100
AcDbEntity
  8
0
  6
CONTINUOUS
 62
           3
100
AcDbLine
 10
4169.532278806886
 20
1635.000005364196
 11
4169.532278806886
 21
1633.399993180996
  0
LINE
  5
209
100
AcDbEntity
  8
0
  6
CONTINUOUS
 62
           3
100
AcDbLine
 10
4169.532278806886
 20
1633.399993180996
 11
4167.532278478885
 21
1633.399993180996
  0
LINE
  5
208
100
AcDbEntity
  8
0
  6
CONTINUOUS
 62
           3
100
AcDbLine
 10
4175.532279790276
 20
1633.399993180996
 11
4175.532279790276
 21
1635.000005364196
  0
LINE
  5
207
100
AcDbEntity
  8
0
  6
CONTINUOUS
 62
           3
100
AcDbLine
 10
4175.532279790276
 20
1635.000005364196
 11
4177.532276392876
 21
1635.000005364196
  0
LINE
  5
206
100
AcDbEntity
  8
0
  6
CONTINUOUS
 62
           3
100
AcDbLine
 10
4177.532276392876
 20
1633.399993180996
 11
4175.532279790276
 21
1633.399993180996
  0
LINE
  5
205
100
AcDbEntity
  8
0
  6
CONTINUOUS
 62
           3
100
AcDbLine
 10
4175.532279790276
 20
1364.999994635815
 11
4177.532276392876
 21
1364.999994635815
  0
LINE
  5
204
100
AcDbEntity
  8
0
  6
CONTINUOUS
 62
           3
100
AcDbLine
 10
4175.532279790276
 20
1366.600006818713
 11
4175.532279790276
 21
1364.999994635815
  0
LINE
  5
203
100
AcDbEntity
  8
0
  6
CONTINUOUS
 62
           3
100
AcDbLine
 10
4177.532276392876
 20
1366.600006818713
 11
4175.532279790276
 21
1366.600006818713
  0
LINE
  5
202
100
AcDbEntity
  8
0
  6
CONTINUOUS
 62
           3
100
AcDbLine
 10
4177.532276392876
 20
1364.999994635815
 11
4267.532279968805
 21
1364.999994635815
  0
LINE
  5
201
100
AcDbEntity
  8
0
  6
CONTINUOUS
 62
           3
100
AcDbLine
 10
4177.532276392876
 20
1366.600006818713
 11
4267.532279968805
 21
1366.600006818713
  0
LINE
  5
200
100
AcDbEntity
  8
0
  6
CONTINUOUS
 62
           3
100
AcDbLine
 10
4177.532276392876
 20
1635.000005364196
 11
4267.532279968805
 21
1635.000005364196
  0
LINE
  5
1FF
100
AcDbEntity
  8
0
  6
CONTINUOUS
 62
           3
100
AcDbLine
 10
4177.532276392876
 20
1633.399993180996
 11
4267.532279968805
 21
1633.399993180996
  0
LINE
  5
1FE
100
AcDbEntity
  8
0
  6
CONTINUOUS
 62
           3
100
AcDbLine
 10
4162.532279521887
 20
1366.600006818713
 11
4162.532279521887
 21
1364.999994635815
  0
LINE
  5
1FD
100
AcDbEntity
  8
0
  6
CONTINUOUS
 62
           3
100
AcDbLine
 10
4162.532279521887
 20
1364.999994635815
 11
4167.532278478885
 21
1364.999994635815
  0
LINE
  5
1FC
100
AcDbEntity
  8
0
  6
CONTINUOUS
 62
           3
100
AcDbLine
 10
4167.532278478885
 20
1366.600006818713
 11
4162.532279521887
 21
1366.600006818713
  0
LINE
  5
1FB
100
AcDbEntity
  8
0
  6
CONTINUOUS
 62
           3
100
AcDbLine
 10
4162.532279521887
 20
1633.399993180996
 11
4162.532279521887
 21
1635.000005364196
  0
LINE
  5
1FA
100
AcDbEntity
  8
0
  6
CONTINUOUS
 62
           3
100
AcDbLine
 10
4162.532279521887
 20
1635.000005364196
 11
4167.532278478885
 21
1635.000005364196
  0
LINE
  5
1F9
100
AcDbEntity
  8
0
  6
CONTINUOUS
 62
           3
100
AcDbLine
 10
4167.532278478885
 20
1633.399993180996
 11
4162.532279521887
 21
1633.399993180996
  0
LINE
  5
1F8
100
AcDbEntity
  8
0
  6
CONTINUOUS
 62
           3
100
AcDbLine
 10
4275.532277555093
 20
1635.000005364196
 11
4275.532277555093
 21
1633.399993180996
  0
LINE
  5
1F7
100
AcDbEntity
  8
0
  6
CONTINUOUS
 62
           3
100
AcDbLine
 10
4277.532277882796
 20
1635.000005364196
 11
4275.532277555093
 21
1635.000005364196
  0
LINE
  5
1F6
100
AcDbEntity
  8
0
  6
CONTINUOUS
 62
           3
100
AcDbLine
 10
4275.532277555093
 20
1633.399993180996
 11
4277.532277882796
 21
1633.399993180996
  0
LINE
  5
1F5
100
AcDbEntity
  8
0
  6
CONTINUOUS
 62
           3
100
AcDbLine
 10
4275.532277555093
 20
1364.999994635815
 11
4275.532277555093
 21
1366.600006818713
  0
LINE
  5
1F4
100
AcDbEntity
  8
0
  6
CONTINUOUS
 62
           3
100
AcDbLine
 10
4277.532277882796
 20
1364.999994635815
 11
4275.532277555093
 21
1364.999994635815
  0
LINE
  5
1F3
100
AcDbEntity
  8
0
  6
CONTINUOUS
 62
           3
100
AcDbLine
 10
4275.532277555093
 20
1366.600006818713
 11
4277.532277882796
 21
1366.600006818713
  0
LINE
  5
1F2
100
AcDbEntity
  8
0
  6
CONTINUOUS
 62
           3
100
AcDbLine
 10
4269.532276571406
 20
1633.399993180996
 11
4269.532276571406
 21
1635.000005364196
  0
LINE
  5
1F1
100
AcDbEntity
  8
0
  6
CONTINUOUS
 62
           3
100
AcDbLine
 10
4269.532276571406
 20
1635.000005364196
 11
4267.532279968805
 21
1635.000005364196
  0
LINE
  5
1F0
100
AcDbEntity
  8
0
  6
CONTINUOUS
 62
           3
100
AcDbLine
 10
4267.532279968805
 20
1633.399993180996
 11
4269.532276571406
 21
1633.399993180996
  0
LINE
  5
1EF
100
AcDbEntity
  8
0
  6
CONTINUOUS
 62
           3
100
AcDbLine
 10
4269.532276571406
 20
1366.600006818713
 11
4269.532276571406
 21
1364.999994635815
  0
LINE
  5
1EE
100
AcDbEntity
  8
0
  6
CONTINUOUS
 62
           3
100
AcDbLine
 10
4269.532276571406
 20
1364.999994635815
 11
4267.532279968805
 21
1364.999994635815
  0
LINE
  5
1ED
100
AcDbEntity
  8
0
  6
CONTINUOUS
 62
           3
100
AcDbLine
 10
4267.532279968805
 20
1366.600006818713
 11
4269.532276571406
 21
1366.600006818713
  0
LINE
  5
1EC
100
AcDbEntity
  8
0
  6
CONTINUOUS
 62
           3
100
AcDbLine
 10
4282.532276839794
 20
1366.600006818713
 11
4282.532276839794
 21
1364.999994635815
  0
LINE
  5
1EB
100
AcDbEntity
  8
0
  6
CONTINUOUS
 62
           3
100
AcDbLine
 10
4282.532276839794
 20
1364.999994635815
 11
4277.532277882796
 21
1364.999994635815
  0
LINE
  5
1EA
100
AcDbEntity
  8
0
  6
CONTINUOUS
 62
           3
100
AcDbLine
 10
4277.532277882796
 20
1366.600006818713
 11
4282.532276839794
 21
1366.600006818713
  0
LINE
  5
1E9
100
AcDbEntity
  8
0
  6
CONTINUOUS
 62
           3
100
AcDbLine
 10
4282.532276839794
 20
1633.399993180996
 11
4282.532276839794
 21
1635.000005364196
  0
LINE
  5
1E8
100
AcDbEntity
  8
0
  6
CONTINUOUS
 62
           3
100
AcDbLine
 10
4282.532276839794
 20
1635.000005364196
 11
4277.532277882796
 21
1635.000005364196
  0
LINE
  5
1E7
100
AcDbEntity
  8
0
  6
CONTINUOUS
 62
           3
100
AcDbLine
 10
4277.532277882796
 20
1633.399993180996
 11
4282.532276839794
 21
1633.399993180996
  0
LINE
  5
1E6
100
AcDbEntity
  8
0
  6
CONTINUOUS
 62
           3
100
AcDbLine
 10
4282.532276839794
 20
1633.399993180996
 11
4282.532276839794
 21
1632.699996232994
  0
LINE
  5
1E5
100
AcDbEntity
  8
0
  6
CONTINUOUS
 62
           3
100
AcDbLine
 10
4162.532279521887
 20
1633.399993180996
 11
4162.532279521887
 21
1632.699996232994
  0
LINE
  5
1E4
100
AcDbEntity
  8
0
  6
CONTINUOUS
 62
           3
100
AcDbLine
 10
4282.532276839794
 20
1366.600006818713
 11
4282.532276839794
 21
1367.300003767013
  0
LINE
  5
1E3
100
AcDbEntity
  8
0
  6
CONTINUOUS
 62
           3
100
AcDbLine
 10
4162.532279521887
 20
1366.600006818713
 11
4162.532279521887
 21
1367.300003767013
  0
LINE
  5
1E2
100
AcDbEntity
  8
0
  6
CONTINUOUS
 62
           3
100
AcDbLine
 10
4142.132280648407
 20
1364.999994635815
 11
4140.032274902506
 21
1364.999994635815
  0
LINE
  5
1E1
100
AcDbEntity
  8
0
  6
CONTINUOUS
 62
           3
100
AcDbLine
 10
4140.032274902506
 20
1635.000005364196
 11
4140.032274902506
 21
1364.999994635815
  0
LINE
  5
1E0
100
AcDbEntity
  8
0
  6
CONTINUOUS
 62
           3
100
AcDbLine
 10
4142.132280648407
 20
1635.000005364196
 11
4140.032274902506
 21
1635.000005364196
  0
LINE
  5
1DF
100
AcDbEntity
  8
0
  6
CONTINUOUS
 62
           3
100
AcDbLine
 10
4284.032279879398
 20
1490.000000223612
 11
4282.532276839794
 21
1490.000000223612
  0
LINE
  5
1DE
100
AcDbEntity
  8
0
  6
CONTINUOUS
 62
           3
100
AcDbLine
 10
4281.032277525298
 20
1431.999996304559
 11
4281.032277525298
 21
1429.999999701962
  0
LINE
  5
1DD
100
AcDbEntity
  8
0
  6
CONTINUOUS
 62
           3
100
AcDbLine
 10
4282.457085580196
 20
1409.999996423779
 11
4284.032279879398
 21
1409.999996423779
  0
LINE
  5
1DC
100
AcDbEntity
  8
0
  6
CONTINUOUS
 62
           3
100
AcDbLine
 10
4284.032279879398
 20
1409.999996423779
 11
4284.032279879398
 21
1490.000000223612
  0
LINE
  5
1DB
100
AcDbEntity
  8
0
  6
CONTINUOUS
 62
           3
100
AcDbLine
 10
4281.032277525298
 20
1590.000003576231
 11
4284.032279879398
 21
1590.000003576231
  0
LINE
  5
1DA
100
AcDbEntity
  8
0
  6
CONTINUOUS
 62
           3
100
AcDbLine
 10
4281.032277525298
 20
1529.999999329481
 11
4281.032277525298
 21
1532.000001519879
  0
LINE
  5
1D9
100
AcDbEntity
  8
0
  6
CONTINUOUS
 62
           3
100
AcDbLine
 10
4281.032277525298
 20
1550.000000744964
 11
4281.032277525298
 21
1590.000003576231
  0
LINE
  5
1D8
100
AcDbEntity
  8
0
  6
CONTINUOUS
 62
           3
100
AcDbLine
 10
4284.032279879398
 20
1509.999999776395
 11
4282.457085580196
 21
1509.999999776395
  0
LINE
  5
1D7
100
AcDbEntity
  8
0
  6
CONTINUOUS
 62
           3
100
AcDbLine
 10
4284.032279879398
 20
1590.000003576231
 11
4284.032279879398
 21
1509.999999776395
  0
LINE
  5
1D6
100
AcDbEntity
  8
0
  6
CONTINUOUS
 62
           3
100
AcDbLine
 10
4162.607470781496
 20
1409.999996423779
 11
4161.032276482297
 21
1409.999996423779
  0
LINE
  5
1D5
100
AcDbEntity
  8
0
  6
CONTINUOUS
 62
           3
100
AcDbLine
 10
4164.032278836689
 20
1431.999996304559
 11
4164.032278836689
 21
1429.999999701962
  0
LINE
  5
1D4
100
AcDbEntity
  8
0
  6
CONTINUOUS
 62
           3
100
AcDbLine
 10
4161.032276482297
 20
1490.000000223612
 11
4162.532279521887
 21
1490.000000223612
  0
LINE
  5
1D3
100
AcDbEntity
  8
0
  6
CONTINUOUS
 62
           3
100
AcDbLine
 10
4161.032276482297
 20
1409.999996423779
 11
4161.032276482297
 21
1490.000000223612
  0
LINE
  5
1D2
100
AcDbEntity
  8
0
  6
CONTINUOUS
 62
           3
100
AcDbLine
 10
4162.532279521887
 20
1368.000000715314
 11
4162.532279521887
 21
1367.300003767013
  0
LINE
  5
1D1
100
AcDbEntity
  8
0
  6
CONTINUOUS
 62
           3
100
AcDbLine
 10
4157.532280565193
 20
1364.999994635815
 11
4157.532280565193
 21
1368.000000715314
  0
LINE
  5
1D0
100
AcDbEntity
  8
0
  6
CONTINUOUS
 62
           3
100
AcDbLine
 10
4157.532280565193
 20
1635.000005364196
 11
4142.132280648407
 21
1635.000005364196
  0
LINE
  5
1CF
100
AcDbEntity
  8
0
  6
CONTINUOUS
 62
           3
100
AcDbLine
 10
4157.532280565193
 20
1635.000005364196
 11
4157.532280565193
 21
1631.999999284697
  0
LINE
  5
1CE
100
AcDbEntity
  8
0
  6
CONTINUOUS
 62
           3
100
AcDbLine
 10
4162.532279521887
 20
1631.999999284697
 11
4162.532279521887
 21
1632.699996232994
  0
LINE
  5
1CD
100
AcDbEntity
  8
0
  6
CONTINUOUS
 62
           3
100
AcDbLine
 10
4282.532276839794
 20
1631.999999284697
 11
4282.532276839794
 21
1632.699996232994
  0
LINE
  5
1CC
100
AcDbEntity
  8
0
  6
CONTINUOUS
 62
           3
100
AcDbLine
 10
4287.532275796488
 20
1635.000005364196
 11
4287.532275796488
 21
1631.999999284697
  0
LINE
  5
1CB
100
AcDbEntity
  8
0
  6
CONTINUOUS
 62
           3
100
AcDbLine
 10
4287.532275796488
 20
1364.999994635815
 11
4287.532275796488
 21
1368.000000715314
  0
LINE
  5
1CA
100
AcDbEntity
  8
0
  6
CONTINUOUS
 62
           3
100
AcDbLine
 10
4282.532276839794
 20
1368.000000715314
 11
4282.532276839794
 21
1367.300003767013
  0
LINE
  5
1C9
100
AcDbEntity
  8
0
  6
CONTINUOUS
 62
           3
100
AcDbLine
 10
4161.032276482297
 20
1509.999999776395
 11
4162.607470781496
 21
1509.999999776395
  0
LINE
  5
1C8
100
AcDbEntity
  8
0
  6
CONTINUOUS
 62
           3
100
AcDbLine
 10
4164.032278836689
 20
1529.999999329481
 11
4164.032278836689
 21
1532.000001519879
  0
LINE
  5
1C7
100
AcDbEntity
  8
0
  6
CONTINUOUS
 62
           3
100
AcDbLine
 10
4164.032278836689
 20
1550.000000744964
 11
4164.032278836689
 21
1590.000003576231
  0
LINE
  5
1C6
100
AcDbEntity
  8
0
  6
CONTINUOUS
 62
           3
100
AcDbLine
 10
4164.032278836689
 20
1590.000003576231
 11
4161.032276482297
 21
1590.000003576231
  0
LINE
  5
1C5
100
AcDbEntity
  8
0
  6
CONTINUOUS
 62
           3
100
AcDbLine
 10
4161.032276482297
 20
1590.000003576231
 11
4161.032276482297
 21
1509.999999776395
  0
LINE
  5
1C4
100
AcDbEntity
  8
0
  6
CONTINUOUS
 62
           3
100
AcDbLine
 10
4157.532280565193
 20
1364.999994635815
 11
4142.132280648407
 21
1364.999994635815
  0
LINE
  5
1C3
100
AcDbEntity
  8
FORMAT
  6
DOT_CENTER
 62
           3
100
AcDbLine
 10
4147.632278180806
 20
1625.0
 11
4134.032278180917
 21
1625.0
  0
LINE
  5
1C2
100
AcDbEntity
  8
FORMAT
  6
DOT_CENTER
 62
           3
100
AcDbLine
 10
4147.632278180806
 20
1375.000000000007
 11
4134.032278180917
 21
1375.000000000007
  0
LINE
  5
1C1
100
AcDbEntity
  8
FORMAT
  6
CONTINUOUS
 62
           3
100
AcDbLine
 10
4236.532278180928
 20
1392.596845102893
 11
4226.032278180937
 21
1392.596845102893
  0
LINE
  5
1C0
100
AcDbEntity
  8
FORMAT
  6
CONTINUOUS
 62
           3
100
AcDbLine
 10
4226.032278180937
 20
1392.596845102893
 11
4219.032278180746
 21
1392.596845102893
  0
LINE
  5
1BF
100
AcDbEntity
  8
FORMAT
  6
DOT_CENTER
 62
           3
100
AcDbLine
 10
4222.532278180848
 20
1249.759397252255
 11
4222.532278180848
 21
1725.394390768569
  0
LINE
  5
1BE
100
AcDbEntity
  8
FORMAT
  6
CONTINUOUS
 62
           3
100
AcDbLine
 10
4219.032278180746
 20
1392.596845102893
 11
4208.532278180757
 21
1392.596845102893
  0
LINE
  5
1BD
100
AcDbEntity
  8
0
  6
CONTINUOUS
 62
           3
100
AcDbLine
 10
4222.532278180848
 20
1393.131740391393
 11
4223.587551408347
 21
1393.116392195192
  0
LINE
  5
1BC
100
AcDbEntity
  8
0
  6
CONTINUOUS
 62
           3
100
AcDbLine
 10
4223.587551408347
 20
1393.116392195192
 11
4224.528469399235
 21
1393.072016537193
  0
LINE
  5
1BB
100
AcDbEntity
  8
0
  6
CONTINUOUS
 62
           3
100
AcDbLine
 10
4224.528469399235
 20
1393.072016537193
 11
4225.253069328936
 21
1393.003411590991
  0
LINE
  5
1BA
100
AcDbEntity
  8
0
  6
CONTINUOUS
 62
           3
100
AcDbLine
 10
4225.253069328936
 20
1393.003411590991
 11
4225.682829062135
 21
1392.918020486793
  0
LINE
  5
1B9
100
AcDbEntity
  8
0
  6
CONTINUOUS
 62
           3
100
AcDbLine
 10
4225.682829062135
 20
1392.918020486793
 11
4225.771177814137
 21
1392.825089394992
  0
LINE
  5
1B8
100
AcDbEntity
  8
0
  6
CONTINUOUS
 62
           3
100
AcDbLine
 10
4225.771177814137
 20
1392.825089394992
 11
4225.532278206936
 21
1392.739541828793
  0
LINE
  5
1B7
100
AcDbEntity
  8
0
  6
CONTINUOUS
 62
           3
100
AcDbLine
 10
4219.532278154749
 20
1392.739541828793
 11
4219.293378547545
 21
1392.825089394992
  0
LINE
  5
1B6
100
AcDbEntity
  8
0
  6
CONTINUOUS
 62
           3
100
AcDbLine
 10
4219.293378547545
 20
1392.825089394992
 11
4219.381727299549
 21
1392.918020486793
  0
LINE
  5
1B5
100
AcDbEntity
  8
0
  6
CONTINUOUS
 62
           3
100
AcDbLine
 10
4219.381727299549
 20
1392.918020486793
 11
4219.811487032746
 21
1393.003411590991
  0
LINE
  5
1B4
100
AcDbEntity
  8
0
  6
CONTINUOUS
 62
           3
100
AcDbLine
 10
4219.811487032746
 20
1393.003411590991
 11
4220.536086962448
 21
1393.072016537193
  0
LINE
  5
1B3
100
AcDbEntity
  8
0
  6
CONTINUOUS
 62
           3
100
AcDbLine
 10
4220.536086962448
 20
1393.072016537193
 11
4221.477004953346
 21
1393.116392195192
  0
LINE
  5
1B2
100
AcDbEntity
  8
0
  6
CONTINUOUS
 62
           3
100
AcDbLine
 10
4221.477004953346
 20
1393.116392195192
 11
4222.532278180848
 21
1393.131740391393
  0
LINE
  5
1B1
100
AcDbEntity
  8
1
  6
CONTINUOUS
 62
           3
100
AcDbLine
 10
4726.795849150215
 20
1919.128165004934
 11
4721.886611877808
 21
1919.128165004934
  0
LINE
  5
1B0
100
AcDbEntity
  8
1
  6
DOT_CENTER
 62
           3
100
AcDbLine
 10
4726.795849150215
 20
1938.643555804874
 11
4726.795849150215
 21
1907.508008255125
  0
LINE
  5
1AF
100
AcDbEntity
  8
1
  6
CONTINUOUS
 62
           3
100
AcDbLine
 10
4721.886611877808
 20
1930.87183499507
 11
4726.795849150215
 21
1930.87183499507
  0
LINE
  5
1AE
100
AcDbEntity
  8
1
  6
CONTINUOUS
 62
           3
100
AcDbLine
 10
4721.886611877808
 20
1932.69374658004
 11
4716.021496331116
 21
1932.69374658004
  0
LINE
  5
1AD
100
AcDbEntity
  8
1
  6
CONTINUOUS
 62
           3
100
AcDbLine
 10
4721.886611877808
 20
1917.30625341996
 11
4716.021496331116
 21
1917.30625341996
  0
LINE
  5
1AC
100
AcDbEntity
  8
1
  6
CONTINUOUS
 62
           3
100
AcDbLine
 10
4721.886611877808
 20
1917.30625341996
 11
4721.886611877808
 21
1932.69374658004
  0
LINE
  5
1AB
100
AcDbEntity
  8
1
  6
CONTINUOUS
 62
           3
100
AcDbLine
 10
4716.021496331116
 20
1917.30625341996
 11
4716.021496331116
 21
1932.69374658004
  0
LINE
  5
1AA
100
AcDbEntity
  8
1
  6
CONTINUOUS
 62
           3
100
AcDbLine
 10
4716.021496331116
 20
1932.69374658004
 11
4716.021496331116
 21
1933.25
  0
LINE
  5
1A9
100
AcDbEntity
  8
1
  6
CONTINUOUS
 62
           3
100
AcDbLine
 10
4706.346885365818
 20
1925.0
 11
4706.346885365818
 21
1933.25
  0
LINE
  5
1A8
100
AcDbEntity
  8
1
  6
CONTINUOUS
 62
           3
100
AcDbLine
 10
4706.346885365818
 20
1933.25
 11
4716.021496331116
 21
1933.25
  0
LINE
  5
1A7
100
AcDbEntity
  8
1
  6
CONTINUOUS
 62
           3
100
AcDbLine
 10
4705.501079843635
 20
1931.0
 11
4706.346885365818
 21
1931.0
  0
LINE
  5
1A6
100
AcDbEntity
  8
1
  6
CONTINUOUS
 62
           3
100
AcDbLine
 10
4705.501079843635
 20
1925.0
 11
4705.501079843635
 21
1932.69374658004
  0
LINE
  5
1A5
100
AcDbEntity
  8
1
  6
CONTINUOUS
 62
           3
100
AcDbLine
 10
4704.795849150215
 20
1932.69374658004
 11
4705.501079843635
 21
1932.69374658004
  0
LINE
  5
1A4
100
AcDbEntity
  8
1
  6
CONTINUOUS
 62
           3
100
AcDbLine
 10
4704.295849150215
 20
1932.19374658004
 11
4704.295849150215
 21
1925.0
  0
LINE
  5
1A3
100
AcDbEntity
  8
1
  6
CONTINUOUS
 62
           3
100
AcDbLine
 10
4704.295849150215
 20
1925.0
 11
4704.295849150215
 21
1917.80625341996
  0
LINE
  5
1A2
100
AcDbEntity
  8
1
  6
CONTINUOUS
 62
           3
100
AcDbLine
 10
4705.501079843635
 20
1917.30625341996
 11
4704.795849150215
 21
1917.30625341996
  0
LINE
  5
1A1
100
AcDbEntity
  8
1
  6
CONTINUOUS
 62
           3
100
AcDbLine
 10
4705.501079843635
 20
1917.30625341996
 11
4705.501079843635
 21
1925.0
  0
LINE
  5
1A0
100
AcDbEntity
  8
1
  6
CONTINUOUS
 62
           3
100
AcDbLine
 10
4706.346885365818
 20
1919.0
 11
4705.501079843635
 21
1919.0
  0
LINE
  5
19F
100
AcDbEntity
  8
1
  6
CONTINUOUS
 62
           3
100
AcDbLine
 10
4706.346885365818
 20
1916.75
 11
4706.346885365818
 21
1925.0
  0
LINE
  5
19E
100
AcDbEntity
  8
1
  6
CONTINUOUS
 62
           3
100
AcDbLine
 10
4716.021496331116
 20
1916.75
 11
4706.346885365818
 21
1916.75
  0
LINE
  5
19D
100
AcDbEntity
  8
1
  6
CONTINUOUS
 62
           3
100
AcDbLine
 10
4716.021496331116
 20
1916.75
 11
4716.021496331116
 21
1917.30625341996
  0
LINE
  5
19C
100
AcDbEntity
  8
1
  6
DOT_CENTER
 62
           3
100
AcDbLine
 10
4702.850801017795
 20
1925.0
 11
4744.299976721614
 21
1925.0
  0
LINE
  5
19B
100
AcDbEntity
  8
1
  6
CONTINUOUS
 62
           3
100
AcDbLine
 10
4721.121809127403
 20
1917.30625341996
 11
4726.795849150215
 21
1914.030344885398
  0
LINE
  5
19A
100
AcDbEntity
  8
1
  6
CONTINUOUS
 62
           3
100
AcDbLine
 10
4726.795849150215
 20
1914.030344885398
 11
4736.295849150215
 21
1919.515172442699
  0
LINE
  5
199
100
AcDbEntity
  8
1
  6
CONTINUOUS
 62
           3
100
AcDbLine
 10
4736.295849150215
 20
1919.515172442699
 11
4736.295849150215
 21
1930.484827557302
  0
LINE
  5
198
100
AcDbEntity
  8
1
  6
CONTINUOUS
 62
           3
100
AcDbLine
 10
4736.295849150215
 20
1930.484827557302
 11
4726.795849150215
 21
1935.969655114602
  0
LINE
  5
197
100
AcDbEntity
  8
1
  6
CONTINUOUS
 62
           3
100
AcDbLine
 10
4726.795849150215
 20
1935.969655114602
 11
4721.121809127397
 21
1932.69374658004
  0
LINE
  5
196
100
AcDbEntity
  8
1
  6
CONTINUOUS
 62
           7
100
AcDbLine
 10
-1019.0
 20
6049.999999999999
 11
-209.000000000002
 21
6049.999999999999
  0
LINE
  5
195
100
AcDbEntity
  8
1
  6
CONTINUOUS
 62
           7
100
AcDbLine
 10
-1014.0
 20
6009.999999999999
 11
-1019.0
 21
6014.999999999999
  0
LINE
  5
194
100
AcDbEntity
  8
1
  6
CONTINUOUS
 62
           7
100
AcDbLine
 10
-214.000000000002
 20
6009.999999999999
 11
-209.000000000002
 21
6014.999999999999
  0
LINE
  5
193
100
AcDbEntity
  8
1
  6
CONTINUOUS
 62
           7
100
AcDbLine
 10
-214.000000000002
 20
6009.999999999999
 11
-1014.0
 21
6009.999999999999
  0
LINE
  5
192
100
AcDbEntity
  8
1
  6
CONTINUOUS
 62
           7
100
AcDbLine
 10
-1019.0
 20
6014.999999999999
 11
-1019.0
 21
6049.999999999999
  0
LINE
  5
191
100
AcDbEntity
  8
1
  6
CONTINUOUS
 62
           7
100
AcDbLine
 10
-209.000000000002
 20
6049.999999999999
 11
-209.000000000002
 21
6014.999999999999
  0
LINE
  5
190
100
AcDbEntity
  8
1
  6
CONTINUOUS
 62
           4
100
AcDbLine
 10
-209.000000000002
 20
6045.499999999999
 11
-1019.0
 21
6045.499999999999
  0
LINE
  5
18F
100
AcDbEntity
  8
1
  6
CONTINUOUS
 62
           4
100
AcDbLine
 10
-1019.0
 20
6054.499999999997
 11
-209.000000000002
 21
6054.499999999999
  0
LINE
  5
18E
100
AcDbEntity
  8
1
  6
CONTINUOUS
 62
           7
100
AcDbLine
 10
-209.000000000002
 20
6084.999999999999
 11
-209.000000000002
 21
6049.999999999999
  0
LINE
  5
18D
100
AcDbEntity
  8
1
  6
CONTINUOUS
 62
           7
100
AcDbLine
 10
-1019.0
 20
6049.999999999999
 11
-1019.0
 21
6084.999999999999
  0
LINE
  5
18C
100
AcDbEntity
  8
1
  6
CONTINUOUS
 62
           7
100
AcDbLine
 10
-1014.0
 20
6089.999999999997
 11
-214.000000000002
 21
6089.999999999999
  0
LINE
  5
18B
100
AcDbEntity
  8
1
  6
CONTINUOUS
 62
           7
100
AcDbLine
 10
-209.000000000002
 20
6084.999999999999
 11
-214.000000000002
 21
6089.999999999999
  0
LINE
  5
18A
100
AcDbEntity
  8
1
  6
CONTINUOUS
 62
           7
100
AcDbLine
 10
-1019.0
 20
6084.999999999999
 11
-1014.0
 21
6089.999999999997
  0
LINE
  5
189
100
AcDbEntity
  8
1
  6
CONTINUOUS
 62
           7
100
AcDbLine
 10
277.41186771418
 20
5425.222691958724
 11
-313.022294576589
 21
4834.788529667957
  0
LINE
  5
188
100
AcDbEntity
  8
1
  6
CONTINUOUS
 62
           7
100
AcDbLine
 10
-979.116882454315
 20
5500.883117545686
 11
-313.022294576589
 21
4834.788529667957
  0
LINE
  5
187
100
AcDbEntity
  8
1
  6
CONTINUOUS
 62
           7
100
AcDbLine
 10
245.999999999998
 20
5608.000159772887
 11
-68.000000000002
 21
5921.999999999999
  0
LINE
  5
186
100
AcDbEntity
  8
1
  6
CONTINUOUS
 62
           7
100
AcDbLine
 10
-979.116882454315
 20
5500.883117545686
 11
-470.000000000002
 21
6009.999999999999
  0
LINE
  5
185
100
AcDbEntity
  8
0
  6
CONTINUOUS
 62
           7
100
AcDbLine
 10
-250.000000000002
 20
5999.999999999999
 11
-250.000000000002
 21
6009.999999999999
  0
LINE
  5
184
100
AcDbEntity
  8
1
  6
CONTINUOUS
 62
           7
100
AcDbLine
 10
-250.000000000002
 20
5999.999999999999
 11
-250.000000000002
 21
6009.999999999999
  0
LINE
  5
183
100
AcDbEntity
  8
0
  6
CONTINUOUS
 62
           7
100
AcDbLine
 10
-980.0
 20
6009.999999999999
 11
-980.0
 21
5999.999999999999
  0
LINE
  5
182
100
AcDbEntity
  8
0
  6
CONTINUOUS
 62
           7
100
AcDbLine
 10
-988.0
 20
5989.999999999999
 11
-988.0
 21
5539.999999999999
  0
LINE
  5
181
100
AcDbEntity
  8
0
  6
CONTINUOUS
 62
           7
100
AcDbLine
 10
-980.0
 20
5999.999999999999
 11
-988.0
 21
5989.999999999999
  0
LINE
  5
180
100
AcDbEntity
  8
0
  6
CONTINUOUS
 62
           7
100
AcDbLine
 10
-219.275243109918
 20
5946.783160015503
 11
-250.000000000002
 21
5999.999999999999
  0
LINE
  5
17F
100
AcDbEntity
  8
1
  6
CONTINUOUS
 62
           7
100
AcDbLine
 10
-476.0
 20
5725.999999999999
 11
-476.0
 21
5239.999999999999
  0
LINE
  5
17E
100
AcDbEntity
  8
1
  6
CONTINUOUS
 62
           7
100
AcDbLine
 10
-24.0
 20
5725.999999999999
 11
-510.0
 21
5725.999999999999
  0
LINE
  5
17D
100
AcDbEntity
  8
1
  6
CONTINUOUS
 62
           7
100
AcDbLine
 10
-476.0
 20
5273.999999999999
 11
10.000000000002
 21
5273.999999999999
  0
LINE
  5
17C
100
AcDbEntity
  8
1
  6
CONTINUOUS
 62
           7
100
AcDbLine
 10
-24.0
 20
5273.999999999999
 11
-24.0
 21
5759.999999999999
  0
LINE
  5
17B
100
AcDbEntity
  8
1
  6
DOT_CENTER
 62
           2
100
AcDbLine
 10
-615.0
 20
6143.027293831615
 11
-615.0
 21
5696.695406410116
  0
LINE
  5
17A
100
AcDbEntity
  8
1
  6
CONTINUOUS
 62
           7
100
AcDbLine
 10
-52.999999999998
 20
5551.500000000001
 11
-52.999999999998
 21
5448.500000000001
  0
LINE
  5
179
100
AcDbEntity
  8
1
  6
CONTINUOUS
 62
           7
100
AcDbLine
 10
-117.175033401803
 20
5448.500000000001
 11
-117.175033401803
 21
5551.500000000001
  0
LINE
  5
178
100
AcDbEntity
  8
1
  6
CONTINUOUS
 62
           7
100
AcDbLine
 10
-105.175033401803
 20
5563.500000000001
 11
-64.999999999998
 21
5563.500000000001
  0
LINE
  5
177
100
AcDbEntity
  8
1
  6
CONTINUOUS
 62
           7
100
AcDbLine
 10
-64.999999999998
 20
5436.500000000001
 11
-105.175033401803
 21
5436.500000000001
  0
LINE
  5
176
100
AcDbEntity
  8
1
  6
CONTINUOUS
 62
           4
100
AcDbLine
 10
-115.567338247216
 20
5557.500000000001
 11
-132.091297237954
 21
5557.500000000001
  0
LINE
  5
175
100
AcDbEntity
  8
1
  6
CONTINUOUS
 62
           4
100
AcDbLine
 10
-115.567338247216
 20
5442.500000000001
 11
-132.091297237954
 21
5442.500000000001
  0
LINE
  5
174
100
AcDbEntity
  8
976
  6
CONTINUOUS
 62
           7
100
AcDbLine
 10
280.0
 20
2823.503984566909
 11
280.0
 21
2785.503984566909
  0
LINE
  5
173
100
AcDbEntity
  8
1
  6
CONTINUOUS
 62
           4
100
AcDbLine
 10
5.0
 20
2829.503984566909
 11
10.0
 21
2824.503984566909
  0
LINE
  5
172
100
AcDbEntity
  8
1
  6
CONTINUOUS
 62
           4
100
AcDbLine
 10
5.0
 20
2829.503984566909
 11
-505.0
 21
2829.503984566909
  0
LINE
  5
171
100
AcDbEntity
  8
1
  6
CONTINUOUS
 62
           4
100
AcDbLine
 10
-510.0
 20
2824.503984566909
 11
-505.0
 21
2829.503984566909
  0
LINE
  5
170
100
AcDbEntity
  8
1
  6
CONTINUOUS
 62
           4
100
AcDbLine
 10
-510.0
 20
2823.503984566909
 11
-510.0
 21
2824.503984566909
  0
LINE
  5
16F
100
AcDbEntity
  8
1
  6
CONTINUOUS
 62
           4
100
AcDbLine
 10
10.0
 20
2823.503984566909
 11
10.0
 21
2824.503984566909
  0
LINE
  5
16E
100
AcDbEntity
  8
976
  6
CONTINUOUS
 62
           7
100
AcDbLine
 10
282.58813228582
 20
2785.503984566908
 11
-990.0
 21
2785.503984566908
  0
LINE
  5
16D
100
AcDbEntity
  8
1
  6
CONTINUOUS
 62
           7
100
AcDbLine
 10
-1020.999999999998
 20
2786.30398456691
 11
-1000.0
 21
2786.30398456691
  0
LINE
  5
16C
100
AcDbEntity
  8
1
  6
CONTINUOUS
 62
           7
100
AcDbLine
 10
-1020.999999999998
 20
2826.30398456691
 11
-1000.0
 21
2826.30398456691
  0
LINE
  5
16B
100
AcDbEntity
  8
1
  6
CONTINUOUS
 62
           4
100
AcDbLine
 10
-1020.999999999998
 20
2790.80398456691
 11
-1000.0
 21
2790.80398456691
  0
LINE
  5
16A
100
AcDbEntity
  8
976
  6
CONTINUOUS
 62
           7
100
AcDbLine
 10
248.58813228582
 20
2823.503984566909
 11
248.58813228582
 21
2785.503984566909
  0
LINE
  5
169
100
AcDbEntity
  8
976
  6
CONTINUOUS
 62
           7
100
AcDbLine
 10
-313.022294576587
 20
2823.503984566909
 11
-313.022294576587
 21
2785.503984566909
  0
LINE
  5
168
100
AcDbEntity
  8
976
  6
CONTINUOUS
 62
           7
100
AcDbLine
 10
280.0
 20
2823.503984566909
 11
-981.116882454313
 21
2823.503984566909
  0
LINE
  5
167
100
AcDbEntity
  8
1
  6
CONTINUOUS
 62
           2
100
AcDbLine
 10
233.681715763563
 20
2718.0
 11
233.681715763563
 21
2650.0
  0
LINE
  5
166
100
AcDbEntity
  8
1
  6
CONTINUOUS
 62
           2
100
AcDbLine
 10
272.58813228582
 20
2718.0
 11
233.681715763563
 21
2718.0
  0
LINE
  5
165
100
AcDbEntity
  8
976
  6
CONTINUOUS
 62
           7
100
AcDbLine
 10
-981.116882454313
 20
2823.503984566909
 11
-981.116882454313
 21
2785.503984566909
  0
LINE
  5
164
100
AcDbEntity
  8
1
  6
CONTINUOUS
 62
           2
100
AcDbLine
 10
-563.160800656588
 20
2718.0
 11
-880.593032057172
 21
2718.0
  0
LINE
  5
163
100
AcDbEntity
  8
1
  6
CONTINUOUS
 62
           2
100
AcDbLine
 10
-880.593032057172
 20
2718.0
 11
-880.593032057172
 21
2650.0
  0
LINE
  5
162
100
AcDbEntity
  8
2
  6
CONTINUOUS
 62
           4
100
AcDbLine
 10
-145.939999999999
 20
2829.503984566908
 11
-145.939999999999
 21
2833.603984566908
  0
LINE
  5
161
100
AcDbEntity
  8
7
  6
CONTINUOUS
 62
           7
100
AcDbLine
 10
-125.0
 20
3198.231865248044
 11
-125.0
 21
3165.186819199998
  0
LINE
  5
160
100
AcDbEntity
  8
7
  6
CONTINUOUS
 62
           7
100
AcDbLine
 10
-375.0
 20
3198.231865248044
 11
-371.399999999998
 21
3231.133628400001
  0
LINE
  5
15F
100
AcDbEntity
  8
1
  6
CONTINUOUS
 62
           7
100
AcDbLine
 10
-125.0
 20
3198.231865248044
 11
-375.0
 21
3198.231865248044
  0
LINE
  5
15E
100
AcDbEntity
  8
2
  6
CONTINUOUS
 62
           7
100
AcDbLine
 10
-362.242370399999
 20
2833.603984566908
 11
-375.496396799999
 21
2865.403984566909
  0
LINE
  5
15D
100
AcDbEntity
  8
2
  6
CONTINUOUS
 62
           7
100
AcDbLine
 10
-369.744649199998
 20
3165.186819199998
 11
-375.496396799999
 21
3151.3868192
  0
LINE
  5
15C
100
AcDbEntity
  8
2
  6
CONTINUOUS
 62
           7
100
AcDbLine
 10
-375.496396799999
 20
2865.403984566909
 11
-375.496396799999
 21
3151.3868192
  0
LINE
  5
15B
100
AcDbEntity
  8
2
  6
CONTINUOUS
 62
           4
100
AcDbLine
 10
-357.059999999999
 20
2833.603984566908
 11
-357.059999999999
 21
2829.503984566908
  0
LINE
  5
15A
100
AcDbEntity
  8
2
  6
CONTINUOUS
 62
           7
100
AcDbLine
 10
-127.503603199999
 20
3151.3868192
 11
-133.2553508
 21
3165.186819199998
  0
LINE
  5
159
100
AcDbEntity
  8
2
  6
CONTINUOUS
 62
           4
100
AcDbLine
 10
-140.757629599999
 20
2833.603984566908
 11
-362.242370399999
 21
2833.603984566908
  0
LINE
  5
158
100
AcDbEntity
  8
2
  6
CONTINUOUS
 62
           7
100
AcDbLine
 10
-127.503603199999
 20
2865.403984566909
 11
-127.503603199999
 21
3151.3868192
  0
LINE
  5
157
100
AcDbEntity
  8
2
  6
CONTINUOUS
 62
           7
100
AcDbLine
 10
-127.503603199999
 20
2865.403984566909
 11
-140.757629599999
 21
2833.603984566908
  0
LINE
  5
156
100
AcDbEntity
  8
7
  6
CONTINUOUS
 62
           7
100
AcDbLine
 10
-338.52
 20
3261.0
 11
-164.48
 21
3261.0
  0
LINE
  5
155
100
AcDbEntity
  8
7
  6
CONTINUOUS
 62
           7
100
AcDbLine
 10
-159.6165836
 20
3255.483396000001
 11
-134.868759200001
 21
3235.634035200003
  0
LINE
  5
154
100
AcDbEntity
  8
7
  6
CONTINUOUS
 62
           7
100
AcDbLine
 10
-370.190427599999
 20
3235.200000000002
 11
-132.439999999999
 21
3235.200000000002
  0
LINE
  5
153
100
AcDbEntity
  8
7
  6
CONTINUOUS
 62
           7
100
AcDbLine
 10
-128.599999999998
 20
3231.360000000002
 11
-125.0
 21
3198.231865248044
  0
LINE
  5
152
100
AcDbEntity
  8
7
  6
CONTINUOUS
 62
           7
100
AcDbLine
 10
-125.0
 20
3165.186819199998
 11
-375.0
 21
3165.186819199998
  0
LINE
  5
151
100
AcDbEntity
  8
7
  6
CONTINUOUS
 62
           7
100
AcDbLine
 10
-375.0
 20
3165.186819199998
 11
-375.0
 21
3198.231865248044
  0
LINE
  5
150
100
AcDbEntity
  8
7
  6
CONTINUOUS
 62
           7
100
AcDbLine
 10
-343.383417599998
 20
3255.483396000001
 11
-367.977411599999
 21
3237.3957372
  0
LINE
  5
14F
100
AcDbEntity
  8
1
  6
CONTINUOUS
 62
           7
100
AcDbLine
 10
-64.999999999998
 20
2924.499999999996
 11
-115.503603199999
 21
2924.499999999996
  0
LINE
  5
14E
100
AcDbEntity
  8
1
  6
CONTINUOUS
 62
           7
100
AcDbLine
 10
-115.503603199999
 20
3024.499999999996
 11
-64.999999999998
 21
3024.499999999996
  0
LINE
  5
14D
100
AcDbEntity
  8
1
  6
CONTINUOUS
 62
           7
100
AcDbLine
 10
-127.503603199999
 20
2936.499999999996
 11
-127.503603199999
 21
3012.499999999996
  0
LINE
  5
14C
100
AcDbEntity
  8
1
  6
CONTINUOUS
 62
           7
100
AcDbLine
 10
-52.999999999998
 20
3012.499999999996
 11
-52.999999999998
 21
2936.499999999996
  0
LINE
  5
14B
100
AcDbEntity
  8
1
  6
CONTINUOUS
 62
           7
100
AcDbLine
 10
-1020.999999999998
 20
2650.0
 11
-1020.999999999998
 21
2826.30398456691
  0
LINE
  5
14A
100
AcDbEntity
  8
1
  6
CONTINUOUS
 62
           7
100
AcDbLine
 10
-980.0
 20
2650.0
 11
-980.0
 21
2785.503984566909
  0
LINE
  5
149
100
AcDbEntity
  8
1
  6
CONTINUOUS
 62
           2
100
AcDbLine
 10
-563.160800656588
 20
2650.0
 11
-563.160800656588
 21
2718.0
  0
LINE
  5
148
100
AcDbEntity
  8
1
  6
CONTINUOUS
 62
           7
100
AcDbLine
 10
272.58813228582
 20
2650.0
 11
272.58813228582
 21
2785.503984566909
  0
LINE
  5
147
100
AcDbEntity
  8
1
  6
CONTINUOUS
 62
           4
100
AcDbLine
 10
5179.00413276446
 20
2206.0
 11
5179.00413276446
 21
2200.0
  0
LINE
  5
146
100
AcDbEntity
  8
1
  6
CONTINUOUS
 62
           4
100
AcDbLine
 10
4434.00413276446
 20
2200.0
 11
4434.00413276446
 21
2206.0
  0
LINE
  5
145
100
AcDbEntity
  8
1
  6
CONTINUOUS
 62
           7
100
AcDbLine
 10
5179.00413276446
 20
2200.0
 11
4434.00413276446
 21
2200.0
  0
LINE
  5
144
100
AcDbEntity
  8
1
  6
CONTINUOUS
 62
           4
100
AcDbLine
 10
4434.00413276446
 20
2206.0
 11
5179.00413276446
 21
2206.0
  0
LINE
  5
143
100
AcDbEntity
  8
0
  6
CONTINUOUS
 62
           7
100
AcDbLine
 10
5139.704132764461
 20
2206.0
 11
5139.704132764461
 21
2253.300000000001
  0
LINE
  5
142
100
AcDbEntity
  8
0
  6
CONTINUOUS
 62
           7
100
AcDbLine
 10
4473.30413276446
 20
2253.300000000001
 11
4473.30413276446
 21
2206.0
  0
LINE
  5
141
100
AcDbEntity
  8
1
  6
CONTINUOUS
 62
           4
100
AcDbLine
 10
4546.50413276446
 20
2823.699999999999
 11
4546.50413276446
 21
2822.699999999999
  0
LINE
  5
140
100
AcDbEntity
  8
1
  6
CONTINUOUS
 62
           4
100
AcDbLine
 10
5066.50413276446
 20
2823.699999999999
 11
5066.50413276446
 21
2822.699999999999
  0
LINE
  5
13F
100
AcDbEntity
  8
1
  6
CONTINUOUS
 62
           4
100
AcDbLine
 10
5061.50413276446
 20
2828.699999999999
 11
5066.50413276446
 21
2823.699999999999
  0
LINE
  5
13E
100
AcDbEntity
  8
1
  6
CONTINUOUS
 62
           4
100
AcDbLine
 10
5061.50413276446
 20
2828.699999999999
 11
4551.50413276446
 21
2828.699999999999
  0
LINE
  5
13D
100
AcDbEntity
  8
1
  6
CONTINUOUS
 62
           4
100
AcDbLine
 10
4546.50413276446
 20
2823.699999999999
 11
4551.50413276446
 21
2828.699999999999
  0
LINE
  5
13C
100
AcDbEntity
  8
976
  6
CONTINUOUS
 62
           7
100
AcDbLine
 10
5312.944810730561
 20
2822.699999999999
 11
4914.504292537348
 21
2822.699999999999
  0
LINE
  5
13B
100
AcDbEntity
  8
976
  6
CONTINUOUS
 62
           7
100
AcDbLine
 10
5316.50413276446
 20
2291.300000000001
 11
4131.29266243242
 21
2291.300000000001
  0
LINE
  5
13A
100
AcDbEntity
  8
976
  6
CONTINUOUS
 62
           7
100
AcDbLine
 10
5316.50413276446
 20
2291.300000000001
 11
5316.50413276446
 21
2258.300000000001
  0
LINE
  5
139
100
AcDbEntity
  8
976
  6
CONTINUOUS
 62
           7
100
AcDbLine
 10
4131.29266243242
 20
2253.300000000001
 11
4731.726824723188
 21
2253.300000000003
  0
LINE
  5
138
100
AcDbEntity
  8
976
  6
CONTINUOUS
 62
           7
100
AcDbLine
 10
4131.29266243242
 20
2784.699999999999
 11
4131.29266243242
 21
2822.699999999999
  0
LINE
  5
137
100
AcDbEntity
  8
976
  6
CONTINUOUS
 62
           7
100
AcDbLine
 10
4131.29266243242
 20
2253.300000000001
 11
4131.29266243242
 21
2291.300000000001
  0
LINE
  5
136
100
AcDbEntity
  8
1
  6
CONTINUOUS
 62
           7
100
AcDbLine
 10
5316.50413276446
 20
2817.699999999999
 11
5312.944810730561
 21
2822.699999999999
  0
LINE
  5
135
100
AcDbEntity
  8
1
  6
CONTINUOUS
 62
           7
100
AcDbLine
 10
5316.50413276446
 20
2258.300000000001
 11
5312.944810730561
 21
2253.300000000001
  0
LINE
  5
134
100
AcDbEntity
  8
1
  6
CONTINUOUS
 62
           7
100
AcDbLine
 10
5396.50413276446
 20
2785.5
 11
5362.00413276446
 21
2785.5
  0
LINE
  5
133
100
AcDbEntity
  8
1
  6
CONTINUOUS
 62
           7
100
AcDbLine
 10
5351.00413276446
 20
2785.5
 11
5316.50413276446
 21
2785.5
  0
LINE
  5
132
100
AcDbEntity
  8
1
  6
CONTINUOUS
 62
           7
100
AcDbLine
 10
5316.50413276446
 20
2290.5
 11
5351.00413276446
 21
2290.5
  0
LINE
  5
131
100
AcDbEntity
  8
1
  6
CONTINUOUS
 62
           7
100
AcDbLine
 10
4176.50413276446
 20
2784.699999999999
 11
4176.50413276446
 21
2291.300000000001
  0
LINE
  5
130
100
AcDbEntity
  8
1
  6
CONTINUOUS
 62
           7
100
AcDbLine
 10
5356.50413276446
 20
2785.5
 11
5396.50413276446
 21
2785.5
  0
LINE
  5
12F
100
AcDbEntity
  8
1
  6
CONTINUOUS
 62
           7
100
AcDbLine
 10
5316.50413276446
 20
2286.0
 11
5316.50413276446
 21
2790.0
  0
LINE
  5
12E
100
AcDbEntity
  8
1
  6
CONTINUOUS
 62
           7
100
AcDbLine
 10
5316.50413276446
 20
2785.5
 11
5356.50413276446
 21
2785.5
  0
LINE
  5
12D
100
AcDbEntity
  8
1
  6
CONTINUOUS
 62
           7
100
AcDbLine
 10
5356.50413276446
 20
2290.5
 11
5316.50413276446
 21
2290.5
  0
LINE
  5
12C
100
AcDbEntity
  8
1
  6
CONTINUOUS
 62
           4
100
AcDbLine
 10
5352.204132764457
 20
2785.5
 11
5352.204132764457
 21
2290.5
  0
LINE
  5
12B
100
AcDbEntity
  8
1
  6
CONTINUOUS
 62
           4
100
AcDbLine
 10
5360.80413276446
 20
2290.5
 11
5360.80413276446
 21
2785.5
  0
LINE
  5
12A
100
AcDbEntity
  8
1
  6
CONTINUOUS
 62
           7
100
AcDbLine
 10
5356.50413276446
 20
2825.5
 11
5356.50413276446
 21
2250.5
  0
LINE
  5
129
100
AcDbEntity
  8
1
  6
CONTINUOUS
 62
           4
100
AcDbLine
 10
5361.00413276446
 20
2791.0
 11
5361.00413276446
 21
2825.5
  0
LINE
  5
128
100
AcDbEntity
  8
1
  6
CONTINUOUS
 62
           4
100
AcDbLine
 10
5361.00413276446
 20
2825.5
 11
5356.50413276446
 21
2825.5
  0
LINE
  5
127
100
AcDbEntity
  8
1
  6
CONTINUOUS
 62
           4
100
AcDbLine
 10
5356.50413276446
 20
2825.5
 11
5352.00413276446
 21
2825.5
  0
LINE
  5
126
100
AcDbEntity
  8
1
  6
CONTINUOUS
 62
           4
100
AcDbLine
 10
5352.00413276446
 20
2825.5
 11
5352.00413276446
 21
2791.0
  0
LINE
  5
125
100
AcDbEntity
  8
1
  6
CONTINUOUS
 62
           4
100
AcDbLine
 10
5316.50413276446
 20
2790.0
 11
5351.00413276446
 21
2790.0
  0
LINE
  5
124
100
AcDbEntity
  8
1
  6
CONTINUOUS
 62
           4
100
AcDbLine
 10
5356.50413276446
 20
2250.5
 11
5361.00413276446
 21
2250.5
  0
LINE
  5
123
100
AcDbEntity
  8
1
  6
CONTINUOUS
 62
           4
100
AcDbLine
 10
5361.00413276446
 20
2250.5
 11
5361.00413276446
 21
2285.0
  0
LINE
  5
122
100
AcDbEntity
  8
1
  6
CONTINUOUS
 62
           4
100
AcDbLine
 10
5396.50413276446
 20
2286.0
 11
5362.00413276446
 21
2286.0
  0
LINE
  5
121
100
AcDbEntity
  8
1
  6
CONTINUOUS
 62
           4
100
AcDbLine
 10
5352.00413276446
 20
2285.0
 11
5352.00413276446
 21
2250.5
  0
LINE
  5
120
100
AcDbEntity
  8
1
  6
CONTINUOUS
 62
           4
100
AcDbLine
 10
5352.00413276446
 20
2250.5
 11
5356.50413276446
 21
2250.5
  0
LINE
  5
11F
100
AcDbEntity
  8
1
  6
CONTINUOUS
 62
           7
100
AcDbLine
 10
5362.00413276446
 20
2290.5
 11
5396.50413276446
 21
2290.5
  0
LINE
  5
11E
100
AcDbEntity
  8
1
  6
CONTINUOUS
 62
           4
100
AcDbLine
 10
5351.00413276446
 20
2286.0
 11
5316.50413276446
 21
2286.0
  0
LINE
  5
11D
100
AcDbEntity
  8
976
  6
CONTINUOUS
 62
           7
100
AcDbLine
 10
5316.50413276446
 20
2784.699999999999
 11
5316.50413276446
 21
2817.699999999999
  0
LINE
  5
11C
100
AcDbEntity
  8
976
  6
CONTINUOUS
 62
           7
100
AcDbLine
 10
5228.50413276446
 20
2784.699999999999
 11
5228.50413276446
 21
2822.699999999999
  0
LINE
  5
11B
100
AcDbEntity
  8
976
  6
CONTINUOUS
 62
           7
100
AcDbLine
 10
4914.504292537348
 20
2784.699999999999
 11
4914.504292537348
 21
2822.699999999999
  0
LINE
  5
11A
100
AcDbEntity
  8
976
  6
CONTINUOUS
 62
           7
100
AcDbLine
 10
4731.726824723183
 20
2784.699999999999
 11
4731.726824723188
 21
2822.699999999999
  0
LINE
  5
119
100
AcDbEntity
  8
976
  6
CONTINUOUS
 62
           7
100
AcDbLine
 10
4731.726824723188
 20
2822.699999999999
 11
4131.29266243242
 21
2822.699999999999
  0
LINE
  5
118
100
AcDbEntity
  8
976
  6
CONTINUOUS
 62
           7
100
AcDbLine
 10
5228.50413276446
 20
2253.300000000003
 11
5228.50413276446
 21
2291.300000000003
  0
LINE
  5
117
100
AcDbEntity
  8
976
  6
CONTINUOUS
 62
           7
100
AcDbLine
 10
4914.504292537348
 20
2253.300000000003
 11
4914.504292537348
 21
2291.300000000003
  0
LINE
  5
116
100
AcDbEntity
  8
976
  6
CONTINUOUS
 62
           7
100
AcDbLine
 10
4731.726824723188
 20
2253.300000000003
 11
4731.726824723183
 21
2291.300000000003
  0
LINE
  5
115
100
AcDbEntity
  8
976
  6
CONTINUOUS
 62
           7
100
AcDbLine
 10
4914.504292537348
 20
2253.300000000003
 11
5312.944810730561
 21
2253.300000000001
  0
LINE
  5
114
100
AcDbEntity
  8
1
  6
CONTINUOUS
 62
           2
100
AcDbLine
 10
4530.99067676355
 20
2718.0
 11
4530.99067676355
 21
2358.0
  0
LINE
  5
113
100
AcDbEntity
  8
1
  6
CONTINUOUS
 62
           2
100
AcDbLine
 10
4530.99067676355
 20
2358.0
 11
4942.017588765367
 21
2358.0
  0
LINE
  5
112
100
AcDbEntity
  8
1
  6
CONTINUOUS
 62
           2
100
AcDbLine
 10
4942.017588765367
 20
2358.0
 11
4942.017588765367
 21
2718.0
  0
LINE
  5
111
100
AcDbEntity
  8
1
  6
CONTINUOUS
 62
           2
100
AcDbLine
 10
4942.017588765367
 20
2718.0
 11
4530.99067676355
 21
2718.0
  0
LINE
  5
110
100
AcDbEntity
  8
1
  6
DOT_CENTER
 62
           2
100
AcDbLine
 10
4806.50413276446
 20
2161.871335955671
 11
4806.50413276446
 21
3302.943017367194
  0
LINE
  5
10F
100
AcDbEntity
  8
1
  6
DOT_CENTER
 62
           2
100
AcDbLine
 10
4110.275618338878
 20
2538.0
 11
5451.268720526451
 21
2538.0
  0
LINE
  5
10E
100
AcDbEntity
  8
1
  6
CONTINUOUS
 62
           4
100
AcDbLine
 10
5362.00413276446
 20
2790.0
 11
5396.50413276446
 21
2790.0
  0
LINE
  5
10D
100
AcDbEntity
  8
1
  6
CONTINUOUS
 62
           7
100
AcDbLine
 10
5396.50413276446
 20
2290.5
 11
5356.50413276446
 21
2290.5
  0
LINE
  5
10C
100
AcDbEntity
  8
976
  6
CONTINUOUS
 62
           7
100
AcDbLine
 10
5316.50413276446
 20
2784.699999999999
 11
4131.29266243242
 21
2784.699999999999
  0
LINE
  5
10B
100
AcDbEntity
  8
1
  6
CONTINUOUS
 62
           7
100
AcDbLine
 10
5396.50413276446
 20
2790.0
 11
5396.50413276446
 21
2286.0
  0
LINE
  5
10A
100
AcDbEntity
  8
2
  6
CONTINUOUS
 62
           4
100
AcDbLine
 10
4910.564132764462
 20
2828.699999999999
 11
4910.564132764462
 21
2832.799999999999
  0
LINE
  5
109
100
AcDbEntity
  8
1
  6
CONTINUOUS
 62
           7
100
AcDbLine
 10
4870.00413276446
 20
3012.5
 11
4870.00413276446
 21
2936.5
  0
LINE
  5
108
100
AcDbEntity
  8
1
  6
CONTINUOUS
 62
           7
100
AcDbLine
 10
4743.00413276446
 20
2936.5
 11
4743.00413276446
 21
3012.5
  0
LINE
  5
107
100
AcDbEntity
  8
1
  6
CONTINUOUS
 62
           7
100
AcDbLine
 10
4755.00413276446
 20
3024.5
 11
4858.00413276446
 21
3024.5
  0
LINE
  5
106
100
AcDbEntity
  8
1
  6
CONTINUOUS
 62
           7
100
AcDbLine
 10
4858.00413276446
 20
2924.5
 11
4755.00413276446
 21
2924.5
  0
LINE
  5
105
100
AcDbEntity
  8
7
  6
CONTINUOUS
 62
           7
100
AcDbLine
 10
4713.120715164459
 20
3255.483396000001
 11
4688.52672116446
 21
3237.3957372
  0
LINE
  5
104
100
AcDbEntity
  8
7
  6
CONTINUOUS
 62
           7
100
AcDbLine
 10
4806.50413276446
 20
3261.0
 11
4717.984132764461
 21
3261.0
  0
LINE
  5
103
100
AcDbEntity
  8
7
  6
CONTINUOUS
 62
           7
100
AcDbLine
 10
4681.50413276446
 20
3165.1868192
 11
4681.50413276446
 21
3198.231865248044
  0
LINE
  5
102
100
AcDbEntity
  8
7
  6
CONTINUOUS
 62
           7
100
AcDbLine
 10
4931.50413276446
 20
3165.1868192
 11
4681.50413276446
 21
3165.1868192
  0
LINE
  5
101
100
AcDbEntity
  8
7
  6
CONTINUOUS
 62
           7
100
AcDbLine
 10
4927.904132764462
 20
3231.360000000002
 11
4931.50413276446
 21
3198.231865248044
  0
LINE
  5
100
100
AcDbEntity
  8
7
  6
CONTINUOUS
 62
           7
100
AcDbLine
 10
4686.313705164462
 20
3235.200000000002
 11
4924.064132764462
 21
3235.200000000002
  0
LINE
  5
FF
100
AcDbEntity
  8
7
  6
CONTINUOUS
 62
           7
100
AcDbLine
 10
4896.88754916446
 20
3255.483396000001
 11
4921.635373564462
 21
3235.634035200002
  0
LINE
  5
FE
100
AcDbEntity
  8
7
  6
CONTINUOUS
 62
           7
100
AcDbLine
 10
4806.50413276446
 20
3261.0
 11
4892.024132764461
 21
3261.0
  0
LINE
  5
FD
100
AcDbEntity
  8
2
  6
CONTINUOUS
 62
           7
100
AcDbLine
 10
4929.000529564461
 20
2864.6
 11
4915.74650316446
 21
2832.799999999999
  0
LINE
  5
FC
100
AcDbEntity
  8
2
  6
CONTINUOUS
 62
           4
100
AcDbLine
 10
4915.74650316446
 20
2832.799999999999
 11
4694.261762364457
 21
2832.799999999999
  0
LINE
  5
FB
100
AcDbEntity
  8
2
  6
CONTINUOUS
 62
           7
100
AcDbLine
 10
4929.000529564461
 20
3151.386819200001
 11
4923.248781964458
 21
3165.1868192
  0
LINE
  5
FA
100
AcDbEntity
  8
2
  6
CONTINUOUS
 62
           4
100
AcDbLine
 10
4699.444132764463
 20
2832.799999999999
 11
4699.444132764463
 21
2828.699999999999
  0
LINE
  5
F9
100
AcDbEntity
  8
2
  6
CONTINUOUS
 62
           7
100
AcDbLine
 10
4686.759483564459
 20
3165.1868192
 11
4681.007735964459
 21
3151.386819200001
  0
LINE
  5
F8
100
AcDbEntity
  8
2
  6
CONTINUOUS
 62
           7
100
AcDbLine
 10
4681.007735964459
 20
3151.386819200001
 11
4681.007735964459
 21
2864.6
  0
LINE
  5
F7
100
AcDbEntity
  8
2
  6
CONTINUOUS
 62
           7
100
AcDbLine
 10
4694.261762364457
 20
2832.799999999999
 11
4681.007735964459
 21
2864.6
  0
LINE
  5
F6
100
AcDbEntity
  8
1
  6
CONTINUOUS
 62
           7
100
AcDbLine
 10
4931.50413276446
 20
3198.231865248044
 11
4681.50413276446
 21
3198.231865248044
  0
LINE
  5
F5
100
AcDbEntity
  8
7
  6
CONTINUOUS
 62
           7
100
AcDbLine
 10
4681.50413276446
 20
3198.231865248044
 11
4685.104132764463
 21
3231.133628400001
  0
LINE
  5
F4
100
AcDbEntity
  8
7
  6
CONTINUOUS
 62
           7
100
AcDbLine
 10
4931.50413276446
 20
3198.231865248044
 11
4931.50413276446
 21
3165.1868192
  0
LINE
  5
F3
100
AcDbEntity
  8
2
  6
CONTINUOUS
 62
           7
100
AcDbLine
 10
4929.000529564461
 20
2864.6
 11
4929.000529564461
 21
3151.386819200001
  0
LINE
  5
F2
100
AcDbEntity
  8
1
  6
CONTINUOUS
 62
           7
100
AcDbLine
 10
4036.63228145917
 20
1350.0
 11
4036.63228145917
 21
1589.999999999999
  0
LINE
  5
F1
100
AcDbEntity
  8
1
  6
CONTINUOUS
 62
           7
100
AcDbLine
 10
3856.63228145917
 20
1350.0
 11
4036.63228145917
 21
1350.0
  0
LINE
  5
F0
100
AcDbEntity
  8
1
  6
CONTINUOUS
 62
           7
100
AcDbLine
 10
3856.63228145917
 20
1589.999999999999
 11
3856.63228145917
 21
1350.0
  0
LINE
  5
EF
100
AcDbEntity
  8
1
  6
CONTINUOUS
 62
           7
100
AcDbLine
 10
4036.63228145917
 20
1589.999999999999
 11
3856.63228145917
 21
1589.999999999999
  0
LINE
  5
EE
100
AcDbEntity
  8
1
  6
DOT_CENTER
 62
           2
100
AcDbLine
 10
-250.0
 20
6132.740967343889
 11
-250.0
 21
3916.498692848711
  0
LINE
  5
ED
100
AcDbEntity
  8
1
  6
CONTINUOUS
 62
           4
100
AcDbLine
 10
-2252.999999999999
 20
5000.0
 11
-2252.999999999999
 21
6000.0
  0
LINE
  5
EC
100
AcDbEntity
  8
1
  6
CONTINUOUS
 62
           4
100
AcDbLine
 10
-2289.999999999999
 20
5000.0
 11
-2289.999999999999
 21
6000.0
  0
LINE
  5
EB
100
AcDbEntity
  8
1
  6
CONTINUOUS
 62
           4
100
AcDbLine
 10
1790.000000000001
 20
6000.0
 11
1790.000000000001
 21
5000.0
  0
LINE
  5
EA
100
AcDbEntity
  8
1
  6
CONTINUOUS
 62
           4
100
AcDbLine
 10
1753.000000000001
 20
6000.0
 11
1753.000000000001
 21
5000.0
  0
LINE
  5
E9
100
AcDbEntity
  8
1
  6
CONTINUOUS
 62
           7
100
AcDbLine
 10
-1249.999999999998
 20
2000.0
 11
-1249.999999999999
 21
2500.0
  0
LINE
  5
E8
100
AcDbEntity
  8
1
  6
CONTINUOUS
 62
           7
100
AcDbLine
 10
-1249.999999999999
 20
5000.0
 11
-1250.0
 21
4500.0
  0
LINE
  5
E7
100
AcDbEntity
  8
1
  6
CONTINUOUS
 62
           7
100
AcDbLine
 10
750.000000000001
 20
2500.0
 11
750.000000000001
 21
2000.0
  0
LINE
  5
E6
100
AcDbEntity
  8
1
  6
CONTINUOUS
 62
           7
100
AcDbLine
 10
2076.96897810219
 20
0.0
 11
-2550.000000000001
 21
0.0
  0
LINE
  5
E5
100
AcDbEntity
  8
1
  6
CONTINUOUS
 62
           7
100
AcDbLine
 10
250.000000000001
 20
5000.0
 11
250.000000000001
 21
5250.835271328309
  0
LINE
  5
E4
100
AcDbEntity
  8
1
  6
CONTINUOUS
 62
           7
100
AcDbLine
 10
-2299.999999999999
 20
5000.0
 11
-714.610640301041
 21
5000.0
  0
LINE
  5
E3
100
AcDbEntity
  8
1
  6
CONTINUOUS
 62
           7
100
AcDbLine
 10
3546.63228145917
 20
1950.0
 11
3356.63228145917
 21
1950.0
  0
LINE
  5
E2
100
AcDbEntity
  8
1
  6
CONTINUOUS
 62
           7
100
AcDbLine
 10
3356.63228145917
 20
1950.0
 11
3356.63228145917
 21
1862.0
  0
LINE
  5
E1
100
AcDbEntity
  8
1
  6
CONTINUOUS
 62
           7
100
AcDbLine
 10
3356.63228145917
 20
1862.0
 11
3546.63228145917
 21
1862.0
  0
LINE
  5
E0
100
AcDbEntity
  8
1
  6
CONTINUOUS
 62
           7
100
AcDbLine
 10
3546.63228145917
 20
1862.0
 11
3546.63228145917
 21
1950.0
  0
LINE
  5
DF
100
AcDbEntity
  8
1
  6
CONTINUOUS
 62
           4
100
AcDbLine
 10
3306.63228145917
 20
2540.0
 11
3806.63228145917
 21
2540.0
  0
LINE
  5
DE
100
AcDbEntity
  8
1
  6
CONTINUOUS
 62
           7
100
AcDbLine
 10
-250.0
 20
475.000000000001
 11
-250.0
 21
400.0
  0
LINE
  5
DD
100
AcDbEntity
  8
1
  6
CONTINUOUS
 62
           4
100
AcDbLine
 10
1730.000000000001
 20
4480.0
 11
-230.0
 21
4480.0
  0
LINE
  5
DC
100
AcDbEntity
  8
1
  6
CONTINUOUS
 62
           7
100
AcDbLine
 10
5806.63228145917
 20
0.0
 11
2806.63228145917
 21
0.0
  0
LINE
  5
DB
100
AcDbEntity
  8
1
  6
CONTINUOUS
 62
           4
100
AcDbLine
 10
1730.000000000001
 20
5020.0
 11
270.000000000001
 21
5020.0
  0
LINE
  5
DA
100
AcDbEntity
  8
1
  6
CONTINUOUS
 62
           4
100
AcDbLine
 10
1730.000000000001
 20
5980.0
 11
270.000000000001
 21
5980.0
  0
LINE
  5
D9
100
AcDbEntity
  8
1
  6
CONTINUOUS
 62
           4
100
AcDbLine
 10
1730.000000000001
 20
4480.0
 11
1730.000000000001
 21
4050.0
  0
LINE
  5
D8
100
AcDbEntity
  8
1
  6
CONTINUOUS
 62
           4
100
AcDbLine
 10
1730.000000000001
 20
5980.0
 11
1730.000000000001
 21
5020.0
  0
LINE
  5
D7
100
AcDbEntity
  8
1
  6
CONTINUOUS
 62
           7
100
AcDbLine
 10
1800.000000000001
 20
4000.0
 11
1800.000000000001
 21
6000.0
  0
LINE
  5
D6
100
AcDbEntity
  8
1
  6
CONTINUOUS
 62
           7
100
AcDbLine
 10
3401.632281459172
 20
1630.0
 11
3401.63228145917
 21
1170.0
  0
LINE
  5
D5
100
AcDbEntity
  8
1
  6
CONTINUOUS
 62
           7
100
AcDbLine
 10
3711.63228145917
 20
1630.0
 11
3401.632281459172
 21
1630.0
  0
LINE
  5
D4
100
AcDbEntity
  8
1
  6
CONTINUOUS
 62
           7
100
AcDbLine
 10
3711.63228145917
 20
1170.0
 11
3711.63228145917
 21
1630.0
  0
LINE
  5
D3
100
AcDbEntity
  8
1
  6
CONTINUOUS
 62
           7
100
AcDbLine
 10
3401.63228145917
 20
1170.0
 11
3711.63228145917
 21
1170.0
  0
LINE
  5
D2
100
AcDbEntity
  8
1
  6
DOT_CENTER
 62
           2
100
AcDbLine
 10
4606.63228145917
 20
675.0
 11
4606.63228145917
 21
525.0
  0
LINE
  5
D1
100
AcDbEntity
  8
1
  6
DOT_CENTER
 62
           2
100
AcDbLine
 10
4531.63228145917
 20
600.0
 11
4681.63228145917
 21
600.0
  0
LINE
  5
D0
100
AcDbEntity
  8
1
  6
CONTINUOUS
 62
           7
100
AcDbLine
 10
-250.0
 20
1763.744569986044
 11
-250.0
 21
500.0
  0
LINE
  5
CF
100
AcDbEntity
  8
1
  6
CONTINUOUS
 62
           7
100
AcDbLine
 10
1735.000000000001
 20
540.0
 11
-235.0
 21
540.0
  0
LINE
  5
CE
100
AcDbEntity
  8
1
  6
CONTINUOUS
 62
           7
100
AcDbLine
 10
-2249.999999999999
 20
500.0
 11
-2234.999999999999
 21
500.0
  0
LINE
  5
CD
100
AcDbEntity
  8
1
  6
CONTINUOUS
 62
           7
100
AcDbLine
 10
1735.000000000001
 20
500.0
 11
1750.000000000001
 21
500.0
  0
LINE
  5
CC
100
AcDbEntity
  8
1
  6
CONTINUOUS
 62
           7
100
AcDbLine
 10
-2249.999999999999
 20
800.0
 11
1750.000000000001
 21
800.0
  0
LINE
  5
CB
100
AcDbEntity
  8
1
  6
CONTINUOUS
 62
           7
100
AcDbLine
 10
-2249.999999999999
 20
513.85332266763
 11
-2249.999999999999
 21
572.607085651512
  0
LINE
  5
CA
100
AcDbEntity
  8
1
  6
CONTINUOUS
 62
           7
100
AcDbLine
 10
-235.0
 20
540.0
 11
-235.0
 21
475.000000000001
  0
LINE
  5
C9
100
AcDbEntity
  8
1
  6
CONTINUOUS
 62
           7
100
AcDbLine
 10
1735.000000000001
 20
540.0
 11
1735.000000000001
 21
475.000000000001
  0
LINE
  5
C8
100
AcDbEntity
  8
1
  6
CONTINUOUS
 62
           7
100
AcDbLine
 10
-2249.999999999999
 20
400.0
 11
1750.000000000001
 21
400.0
  0
LINE
  5
C7
100
AcDbEntity
  8
1
  6
CONTINUOUS
 62
           7
100
AcDbLine
 10
1750.000000000001
 20
50.0
 11
-2249.999999999999
 21
50.0
  0
LINE
  5
C6
100
AcDbEntity
  8
1
  6
CONTINUOUS
 62
           7
100
AcDbLine
 10
1750.000000000001
 20
1900.0
 11
-2249.999999999999
 21
1900.0
  0
LINE
  5
C5
100
AcDbEntity
  8
1
  6
CONTINUOUS
 62
           7
100
AcDbLine
 10
1750.000000000001
 20
0.0
 11
1750.000000000001
 21
2500.0
  0
LINE
  5
C4
100
AcDbEntity
  8
1
  6
CONTINUOUS
 62
           7
100
AcDbLine
 10
-2249.999999999999
 20
0.0
 11
-2249.999999999999
 21
2500.0
  0
LINE
  5
C3
100
AcDbEntity
  8
1
  6
CONTINUOUS
 62
           7
100
AcDbLine
 10
4306.63228145917
 20
2200.0
 11
5306.632281459169
 21
2200.0
  0
LINE
  5
C2
100
AcDbEntity
  8
1
  6
CONTINUOUS
 62
           7
100
AcDbLine
 10
4306.63228145917
 20
2000.0
 11
4306.63228145917
 21
2200.0
  0
LINE
  5
C1
100
AcDbEntity
  8
1
  6
CONTINUOUS
 62
           7
100
AcDbLine
 10
3306.63228145917
 20
2550.0
 11
3806.632281459169
 21
2550.0
  0
LINE
  5
C0
100
AcDbEntity
  8
1
  6
CONTINUOUS
 62
           4
100
AcDbLine
 10
3306.63228145917
 20
2503.0
 11
3806.63228145917
 21
2503.000000000001
  0
LINE
  5
BF
100
AcDbEntity
  8
1
  6
CONTINUOUS
 62
           7
100
AcDbLine
 10
3356.63228145917
 20
2630.0
 11
3356.632281459171
 21
2650.0
  0
LINE
  5
BE
100
AcDbEntity
  8
1
  6
CONTINUOUS
 62
           7
100
AcDbLine
 10
3306.63228145917
 20
2650.0
 11
3356.632281459171
 21
2650.0
  0
LINE
  5
BD
100
AcDbEntity
  8
1
  6
CONTINUOUS
 62
           7
100
AcDbLine
 10
5306.63228145917
 20
2000.0
 11
3806.63228145917
 21
2000.0
  0
LINE
  5
BC
100
AcDbEntity
  8
1
  6
CONTINUOUS
 62
           7
100
AcDbLine
 10
5306.63228145917
 20
0.0
 11
5306.632281459169
 21
2200.0
  0
LINE
  5
BB
100
AcDbEntity
  8
1
  6
CONTINUOUS
 62
           7
100
AcDbLine
 10
3306.63228145917
 20
0.0
 11
3306.63228145917
 21
2650.0
  0
LINE
  5
BA
100
AcDbEntity
  8
1
  6
CONTINUOUS
 62
           7
100
AcDbLine
 10
1800.000000000001
 20
2500.0
 11
-2299.999999999999
 21
2500.0
  0
LINE
  5
B9
100
AcDbEntity
  8
1
  6
CONTINUOUS
 62
           7
100
AcDbLine
 10
-2299.999999999999
 20
2650.0
 11
-2300.0
 21
0.0
  0
LINE
  5
B8
100
AcDbEntity
  8
1
  6
CONTINUOUS
 62
           7
100
AcDbLine
 10
1800.000000000001
 20
0.0
 11
1800.000000000001
 21
2650.0
  0
LINE
  5
B7
100
AcDbEntity
  8
1
  6
CONTINUOUS
 62
           7
100
AcDbLine
 10
1800.000000000001
 20
1630.0
 11
1920.000000000001
 21
1630.0
  0
LINE
  5
B6
100
AcDbEntity
  8
1
  6
CONTINUOUS
 62
           7
100
AcDbLine
 10
1800.000000000001
 20
1170.0
 11
1920.000000000001
 21
1170.0
  0
LINE
  5
B5
100
AcDbEntity
  8
1
  6
CONTINUOUS
 62
           7
100
AcDbLine
 10
1800.000000000001
 20
6000.0
 11
-250.0
 21
6000.0
  0
LINE
  5
B4
100
AcDbEntity
  8
1
  6
CONTINUOUS
 62
           7
100
AcDbLine
 10
1800.000000000001
 20
4095.0
 11
1920.000000000001
 21
4094.999999999999
  0
LINE
  5
B3
100
AcDbEntity
  8
1
  6
CONTINUOUS
 62
           7
100
AcDbLine
 10
1800.000000000001
 20
4405.0
 11
1920.000000000001
 21
4405.0
  0
LINE
  5
B2
100
AcDbEntity
  8
1
  6
CONTINUOUS
 62
           4
100
AcDbLine
 10
-2229.999999999999
 20
5020.0
 11
-2229.999999999999
 21
5980.0
  0
LINE
  5
B1
100
AcDbEntity
  8
1
  6
CONTINUOUS
 62
           4
100
AcDbLine
 10
-2229.999999999999
 20
5020.0
 11
-770.0
 21
5020.0
  0
LINE
  5
B0
100
AcDbEntity
  8
1
  6
CONTINUOUS
 62
           7
100
AcDbLine
 10
1750.000000000001
 20
4050.0
 11
1750.000000000001
 21
6000.0
  0
LINE
  5
AF
100
AcDbEntity
  8
1
  6
CONTINUOUS
 62
           7
100
AcDbLine
 10
-2249.999999999999
 20
4050.0
 11
-2249.999999999999
 21
6000.0
  0
LINE
  5
AE
100
AcDbEntity
  8
1
  6
CONTINUOUS
 62
           4
100
AcDbLine
 10
-2229.999999999999
 20
4480.0
 11
-2229.999999999999
 21
4050.0
  0
LINE
  5
AD
100
AcDbEntity
  8
1
  6
CONTINUOUS
 62
           7
100
AcDbLine
 10
-2299.999999999999
 20
4050.0
 11
1800.000000000001
 21
4050.0
  0
LINE
  5
AC
100
AcDbEntity
  8
1
  6
CONTINUOUS
 62
           4
100
AcDbLine
 10
-270.0
 20
4050.0
 11
-270.0
 21
4480.0
  0
LINE
  5
AB
100
AcDbEntity
  8
1
  6
CONTINUOUS
 62
           7
100
AcDbLine
 10
-2300.0
 20
6000.0
 11
-2299.999999999999
 21
4000.0
  0
LINE
  5
AA
100
AcDbEntity
  8
1
  6
CONTINUOUS
 62
           7
100
AcDbLine
 10
-2299.999999999999
 20
4000.0
 11
1800.000000000001
 21
4000.0
  0
LINE
  5
A9
100
AcDbEntity
  8
1
  6
CONTINUOUS
 62
           4
100
AcDbLine
 10
3326.63228145917
 20
20.0
 11
3786.63228145917
 21
20.0
  0
LINE
  5
A8
100
AcDbEntity
  8
1
  6
CONTINUOUS
 62
           4
100
AcDbLine
 10
3786.63228145917
 20
20.0
 11
3786.63228145917
 21
2480.0
  0
LINE
  5
A7
100
AcDbEntity
  8
1
  6
CONTINUOUS
 62
           4
100
AcDbLine
 10
3786.63228145917
 20
2480.0
 11
3326.63228145917
 21
2480.000000000001
  0
LINE
  5
A6
100
AcDbEntity
  8
1
  6
CONTINUOUS
 62
           4
100
AcDbLine
 10
3326.63228145917
 20
2480.000000000001
 11
3326.63228145917
 21
20.0
  0
LINE
  5
A5
100
AcDbEntity
  8
1
  6
CONTINUOUS
 62
           7
100
AcDbLine
 10
3806.63228145917
 20
0.0
 11
3806.632281459169
 21
2550.0
  0
LINE
  5
A4
100
AcDbEntity
  8
1
  6
CONTINUOUS
 62
           7
100
AcDbLine
 10
3806.63228145917
 20
500.0
 11
5306.63228145917
 21
500.0
  0
LINE
  5
A3
100
AcDbEntity
  8
1
  6
CONTINUOUS
 62
           4
100
AcDbLine
 10
5286.065606763731
 20
479.385061529882
 11
3826.63228145917
 21
479.385061529882
  0
LINE
  5
A2
100
AcDbEntity
  8
1
  6
CONTINUOUS
 62
           4
100
AcDbLine
 10
3826.63228145917
 20
479.385061529882
 11
3826.63228145917
 21
20.0
  0
LINE
  5
A1
100
AcDbEntity
  8
1
  6
CONTINUOUS
 62
           4
100
AcDbLine
 10
3826.63228145917
 20
20.0
 11
5286.065606763731
 21
20.0
  0
LINE
  5
A0
100
AcDbEntity
  8
1
  6
CONTINUOUS
 62
           4
100
AcDbLine
 10
5286.065606763731
 20
20.0
 11
5286.065606763731
 21
479.385061529882
  0
LINE
  5
9F
100
AcDbEntity
  8
1
  6
CONTINUOUS
 62
           7
100
AcDbLine
 10
4306.63228145917
 20
500.0
 11
4306.63228145917
 21
2000.0
  0
LINE
  5
9E
100
AcDbEntity
  8
1
  6
CONTINUOUS
 62
           4
100
AcDbLine
 10
4286.63228145917
 20
1980.0
 11
3826.63228145917
 21
1980.0
  0
LINE
  5
9D
100
AcDbEntity
  8
1
  6
CONTINUOUS
 62
           4
100
AcDbLine
 10
3826.63228145917
 20
1980.0
 11
3826.63228145917
 21
520.0
  0
LINE
  5
9C
100
AcDbEntity
  8
1
  6
CONTINUOUS
 62
           4
100
AcDbLine
 10
3826.63228145917
 20
520.0
 11
4286.63228145917
 21
520.0
  0
LINE
  5
9B
100
AcDbEntity
  8
1
  6
CONTINUOUS
 62
           4
100
AcDbLine
 10
4286.63228145917
 20
520.0
 11
4286.63228145917
 21
1980.0
  0
LINE
  5
9A
100
AcDbEntity
  8
1
  6
CONTINUOUS
 62
           4
100
AcDbLine
 10
4326.63228145917
 20
520.0
 11
5286.63228145917
 21
520.0
  0
LINE
  5
99
100
AcDbEntity
  8
1
  6
CONTINUOUS
 62
           4
100
AcDbLine
 10
5286.63228145917
 20
520.0
 11
5286.63228145917
 21
1980.0
  0
LINE
  5
98
100
AcDbEntity
  8
1
  6
CONTINUOUS
 62
           4
100
AcDbLine
 10
5286.63228145917
 20
1980.0
 11
4326.63228145917
 21
1980.0
  0
LINE
  5
97
100
AcDbEntity
  8
1
  6
CONTINUOUS
 62
           7
100
AcDbLine
 10
1920.000000000001
 20
1170.0
 11
1920.000000000001
 21
1630.0
  0
LINE
  5
96
100
AcDbEntity
  8
1
  6
CONTINUOUS
 62
           7
100
AcDbLine
 10
1920.000000000001
 20
4405.0
 11
1920.000000000001
 21
4094.999999999999
  0
LINE
  5
95
100
AcDbEntity
  8
1
  6
CONTINUOUS
 62
           7
100
AcDbLine
 10
-2249.999999999999
 20
475.000000000001
 11
1750.000000000001
 21
475.000000000001
  0
LINE
  5
94
100
AcDbEntity
  8
1
  6
CONTINUOUS
 62
           7
100
AcDbLine
 10
-2234.999999999999
 20
475.000000000001
 11
-2234.999999999999
 21
540.0
  0
LINE
  5
93
100
AcDbEntity
  8
1
  6
CONTINUOUS
 62
           7
100
AcDbLine
 10
-265.0
 20
475.000000000001
 11
-265.0
 21
540.0
  0
LINE
  5
92
100
AcDbEntity
  8
1
  6
CONTINUOUS
 62
           7
100
AcDbLine
 10
-265.0
 20
540.0
 11
-2234.999999999999
 21
540.0
  0
LINE
  5
91
100
AcDbEntity
  8
1
  6
CONTINUOUS
 62
           7
100
AcDbLine
 10
-265.0
 20
500.0
 11
-235.0
 21
500.0
  0
LINE
  5
90
100
AcDbEntity
  8
1
  6
CONTINUOUS
 62
           4
100
AcDbLine
 10
270.000000000001
 20
5980.0
 11
270.000000000001
 21
5534.403065089107
  0
LINE
  5
8F
100
AcDbEntity
  8
1
  6
CONTINUOUS
 62
           4
100
AcDbLine
 10
-770.0
 20
5020.0
 11
-770.0
 21
5045.433523174082
  0
LINE
  5
8E
100
AcDbEntity
  8
1
  6
CONTINUOUS
 62
           7
100
AcDbLine
 10
-750.0
 20
5000.0
 11
-750.0
 21
5027.871109973278
  0
LINE
  5
8D
100
AcDbEntity
  8
1
  6
CONTINUOUS
 62
           7
100
AcDbLine
 10
250.000000000001
 20
5609.164728671692
 11
250.000000000001
 21
6000.0
  0
LINE
  5
8C
100
AcDbEntity
  8
1
  6
CONTINUOUS
 62
           4
100
AcDbLine
 10
270.000000000001
 20
5325.596934910891
 11
270.000000000001
 21
5020.0
  0
LINE
  5
8B
100
AcDbEntity
  8
1
  6
CONTINUOUS
 62
           4
100
AcDbLine
 10
-230.0
 20
4480.0
 11
-230.0
 21
4050.0
  0
LINE
  5
8A
100
AcDbEntity
  8
1
  6
CONTINUOUS
 62
           4
100
AcDbLine
 10
-270.0
 20
4480.0
 11
-2229.999999999999
 21
4480.0
  0
LINE
  5
89
100
AcDbEntity
  8
1
  6
CONTINUOUS
 62
           7
100
AcDbLine
 10
-250.0
 20
4500.0
 11
-250.0
 21
4050.0
  0
LINE
  5
88
100
AcDbEntity
  8
1
  6
CONTINUOUS
 62
           7
100
AcDbLine
 10
72.928563989646
 20
5000.0
 11
1800.000000000001
 21
5000.0
  0
LINE
  5
87
100
AcDbEntity
  8
1
  6
CONTINUOUS
 62
           7
100
AcDbLine
 10
-977.999999999999
 20
6000.0
 11
-2300.0
 21
6000.0
  0
LINE
  5
86
100
AcDbEntity
  8
1
  6
CONTINUOUS
 62
           4
100
AcDbLine
 10
-987.999999999999
 20
5980.0
 11
-2229.999999999999
 21
5980.0
  0
LINE
  5
85
100
AcDbEntity
  8
1
  6
CONTINUOUS
 62
           7
100
AcDbLine
 10
1800.000000000001
 20
2650.0
 11
-2299.999999999999
 21
2650.0
  0
LINE
  5
84
100
AcDbEntity
  8
1
  6
DOT_CENTER
 62
           2
100
AcDbLine
 10
-1046.991334790904
 20
5500.0
 11
338.572001138102
 21
5500.0
  0
LINE
  5
83
100
AcDbEntity
  8
1
  6
CONTINUOUS
 62
           7
100
AcDbLine
 10
-2299.999999999999
 20
4500.0
 11
1800.000000000001
 21
4500.0
  0
LINE
  5
82
100
AcDbEntity
  8
1
  6
CONTINUOUS
 62
           4
100
AcDbLine
 10
1753.000000000001
 20
4500.0
 11
1753.000000000001
 21
4050.0
  0
LINE
  5
81
100
AcDbEntity
  8
1
  6
CONTINUOUS
 62
           4
100
AcDbLine
 10
1790.000000000001
 20
4500.0
 11
1790.000000000001
 21
4050.0
  0
LINE
  5
80
100
AcDbEntity
  8
1
  6
CONTINUOUS
 62
           4
100
AcDbLine
 10
-2252.999999999999
 20
4500.0
 11
-2252.999999999999
 21
4050.0
  0
LINE
  5
7F
100
AcDbEntity
  8
1
  6
CONTINUOUS
 62
           4
100
AcDbLine
 10
-2289.999999999999
 20
4500.0
 11
-2289.999999999999
 21
4050.0
  0
LINE
  5
7E
100
AcDbEntity
  8
1
  6
CONTINUOUS
 62
           7
100
AcDbLine
 10
750.000000000001
 20
4500.0
 11
750.0
 21
5000.0
  0
LINE
  5
7D
100
AcDbEntity
  8
1
  6
CONTINUOUS
 62
           7
100
AcDbLine
 10
1750.000000000001
 20
2000.0
 11
-2249.999999999999
 21
2000.0
  0
LINE
  5
7C
100
AcDbEntity
  8
1
  6
CONTINUOUS
 62
           7
100
AcDbLine
 10
3806.632281459169
 20
2550.0
 11
4306.63228145917
 21
2050.0
  0
LINE
  5
7B
100
AcDbEntity
  8
1
  6
CONTINUOUS
 62
           4
100
AcDbLine
 10
4306.63228145917
 20
2040.0
 11
5306.63228145917
 21
2040.0
  0
LINE
  5
7A
100
AcDbEntity
  8
1
  6
CONTINUOUS
 62
           7
100
AcDbLine
 10
4306.63228145917
 20
2050.0
 11
5306.63228145917
 21
2050.0
  0
LINE
  5
79
100
AcDbEntity
  8
1
  6
CONTINUOUS
 62
           7
100
AcDbLine
 10
3806.63228145917
 20
2500.0
 11
3306.63228145917
 21
2500.0
  0
LINE
  5
78
100
AcDbEntity
  8
1
  6
DOT_CENTER
 62
           2
100
AcDbLine
 10
-250.0
 20
3298.444227580339
 11
-250.0
 21
-98.446318872741
  0
LINE
  5
77
100
AcDbEntity
  8
1
  6
CONTINUOUS
 62
           4
100
AcDbLine
 10
4326.63228145917
 20
1980.0
 11
4326.63228145917
 21
520.0
  0
LINE
  5
76
100
AcDbEntity
  8
1
  6
CONTINUOUS
 62
           7
100
AcDbLine
 10
3856.632281459174
 20
1752.999999999999
 11
3856.632281459174
 21
1639.999999999999
  0
LINE
  5
75
100
AcDbEntity
  8
1
  6
CONTINUOUS
 62
           7
100
AcDbLine
 10
4036.632281459172
 20
1753.0
 11
3856.632281459174
 21
1752.999999999999
  0
LINE
  5
74
100
AcDbEntity
  8
1
  6
CONTINUOUS
 62
           7
100
AcDbLine
 10
4036.632281459172
 20
1639.999999999999
 11
4036.632281459172
 21
1753.0
  0
LINE
  5
73
100
AcDbEntity
  8
1
  6
CONTINUOUS
 62
           7
100
AcDbLine
 10
3856.632281459174
 20
1639.999999999999
 11
4036.632281459172
 21
1639.999999999999
  0
LINE
  5
72
100
AcDbEntity
  8
1
  6
CONTINUOUS
 62
           7
100
AcDbLine
 10
750.0
 20
1763.744569986044
 11
750.000000000001
 21
2000.0
  0
LINE
  5
71
100
AcDbEntity
  8
1
  6
CONTINUOUS
 62
           7
100
AcDbLine
 10
-1249.999999999999
 20
2000.0
 11
-1249.999999999999
 21
1763.744569986044
  0
LINE
  5
70
100
AcDbEntity
  8
1
  6
CONTINUOUS
 62
           7
100
AcDbLine
 10
1750.000000000001
 20
1763.744569986044
 11
-2249.999999999999
 21
1763.744569986044
  0
LINE
  5
6F
100
AcDbEntity
  8
1
  6
CONTINUOUS
 62
           4
100
AcDbLine
 10
4286.632281459172
 20
1741.488764155295
 11
4286.632281459172
 21
1980.0
  0
LINE
  5
6E
100
AcDbEntity
  8
1
  6
CONTINUOUS
 62
           7
100
AcDbLine
 10
4306.632281459172
 20
1784.157226830837
 11
4306.632281459172
 21
2000.0
  0
LINE
  5
6D
100
AcDbEntity
  8
1
  6
CONTINUOUS
 62
           4
100
AcDbLine
 10
4326.632281459172
 20
1800.831132334581
 11
4326.632281459172
 21
520.0
  0
LINE
  5
6C
100
AcDbEntity
  8
1
  6
CONTINUOUS
 62
           7
100
AcDbLine
 10
-1819.497691536607
 20
986.513526798368
 11
-674.999999999998
 21
986.513526798368
  0
LINE
  5
6B
100
AcDbEntity
  8
___S__
  6
DOT_CENTER
 62
           3
100
AcDbLine
 10
-1824.999999999998
 20
1067.06326659646
 11
-1824.999999999999
 21
982.067556365335
  0
LINE
  5
6A
100
AcDbEntity
  8
____
  6
CONTINUOUS
 62
           3
100
AcDbLine
 10
-1819.595947044878
 20
1060.459504816178
 11
-1819.595947044878
 21
1058.581574068056
  0
LINE
  5
69
100
AcDbEntity
  8
____
  6
CONTINUOUS
 62
           3
100
AcDbLine
 10
-1829.912775413742
 20
1060.928987503209
 11
-1820.087224586253
 21
1060.928987503209
  0
LINE
  5
68
100
AcDbEntity
  8
____
  6
CONTINUOUS
 62
           3
100
AcDbLine
 10
-1830.404052955116
 20
1058.581574068056
 11
-1830.404052955116
 21
1060.459504816178
  0
LINE
  5
67
100
AcDbEntity
  8
____
  6
CONTINUOUS
 62
           3
100
AcDbLine
 10
-1819.497691536606
 20
1022.900889853722
 11
-1830.502308463383
 21
1022.900889853723
  0
LINE
  5
66
100
AcDbEntity
  8
____
  6
CONTINUOUS
 62
           3
100
AcDbLine
 10
-1819.497691536605
 20
1058.581574068056
 11
-1819.497691536606
 21
1022.900889853722
  0
LINE
  5
65
100
AcDbEntity
  8
____
  6
CONTINUOUS
 62
           3
100
AcDbLine
 10
-1830.502308463382
 20
1058.581574068056
 11
-1819.497691536605
 21
1058.581574068056
  0
LINE
  5
64
100
AcDbEntity
  8
____
  6
CONTINUOUS
 62
           3
100
AcDbLine
 10
-1830.502308463383
 20
1022.900889853723
 11
-1830.502308463382
 21
1058.581574068056
  0
LINE
  5
63
100
AcDbEntity
  8
____
  6
CONTINUOUS
 62
           3
100
AcDbLine
 10
-1830.404052955118
 20
984.403309517206
 11
-1830.404052955118
 21
986.281240265329
  0
LINE
  5
62
100
AcDbEntity
  8
____
  6
CONTINUOUS
 62
           3
100
AcDbLine
 10
-1820.087224586255
 20
983.933826830174
 11
-1829.912775413744
 21
983.933826830174
  0
LINE
  5
61
100
AcDbEntity
  8
____
  6
CONTINUOUS
 62
           3
100
AcDbLine
 10
-1819.59594704488
 20
986.281240265329
 11
-1819.59594704488
 21
984.403309517206
  0
LINE
  5
60
100
AcDbEntity
  8
____
  6
CONTINUOUS
 62
           3
100
AcDbLine
 10
-1830.15841418443
 20
1022.900889853723
 11
-1830.15841418443
 21
1021.961924479661
  0
LINE
  5
5F
100
AcDbEntity
  8
____
  6
CONTINUOUS
 62
           3
100
AcDbLine
 10
-1819.841585815567
 20
1022.900889853722
 11
-1830.15841418443
 21
1022.900889853723
  0
LINE
  5
5E
100
AcDbEntity
  8
____
  6
CONTINUOUS
 62
           3
100
AcDbLine
 10
-1819.841585815567
 20
1021.961924479661
 11
-1819.841585815567
 21
1022.900889853722
  0
LINE
  5
5D
100
AcDbEntity
  8
____
  6
CONTINUOUS
 62
           3
100
AcDbLine
 10
-1830.404052955116
 20
1060.459504816178
 11
-1819.595947044878
 21
1060.459504816178
  0
LINE
  5
5C
100
AcDbEntity
  8
____
  6
CONTINUOUS
 62
           3
100
AcDbLine
 10
-1830.502308463383
 20
1021.961924479661
 11
-1819.497691536606
 21
1021.961924479661
  0
LINE
  5
5B
100
AcDbEntity
  8
____
  6
CONTINUOUS
 62
           3
100
AcDbLine
 10
-1830.502308463383
 20
986.281240265329
 11
-1830.502308463383
 21
1021.961924479661
  0
LINE
  5
5A
100
AcDbEntity
  8
____
  6
CONTINUOUS
 62
           3
100
AcDbLine
 10
-1819.497691536607
 20
986.281240265329
 11
-1830.502308463383
 21
986.281240265329
  0
LINE
  5
59
100
AcDbEntity
  8
____
  6
CONTINUOUS
 62
           3
100
AcDbLine
 10
-1819.497691536606
 20
1021.961924479661
 11
-1819.497691536607
 21
986.281240265329
  0
LINE
  5
58
100
AcDbEntity
  8
____
  6
CONTINUOUS
 62
           3
100
AcDbLine
 10
-1830.404052955116
 20
1060.459504816178
 11
-1829.912775413742
 21
1060.928987503209
  0
LINE
  5
57
100
AcDbEntity
  8
____
  6
CONTINUOUS
 62
           3
100
AcDbLine
 10
-1820.087224586253
 20
1060.928987503209
 11
-1819.595947044878
 21
1060.459504816178
  0
LINE
  5
56
100
AcDbEntity
  8
____
  6
CONTINUOUS
 62
           3
100
AcDbLine
 10
-1829.912775413744
 20
983.933826830174
 11
-1830.404052955118
 21
984.403309517206
  0
LINE
  5
55
100
AcDbEntity
  8
____
  6
CONTINUOUS
 62
           3
100
AcDbLine
 10
-1819.59594704488
 20
984.403309517206
 11
-1820.087224586255
 21
983.933826830174
  0
LINE
  5
54
100
AcDbEntity
  8
____
  6
CONTINUOUS
 62
           3
100
AcDbLine
 10
-1830.404052955118
 20
984.403309517206
 11
-1819.59594704488
 21
984.403309517206
  0
LINE
  5
53
100
AcDbEntity
  8
____
  6
CONTINUOUS
 62
           3
100
AcDbLine
 10
-1830.404052955094
 20
1538.392880207259
 11
-1819.595947044856
 21
1538.392880207259
  0
LINE
  5
52
100
AcDbEntity
  8
____
  6
CONTINUOUS
 62
           3
100
AcDbLine
 10
-1819.595947044856
 20
1538.392880207259
 11
-1820.08722458623
 21
1537.92339752023
  0
LINE
  5
51
100
AcDbEntity
  8
____
  6
CONTINUOUS
 62
           3
100
AcDbLine
 10
-1829.912775413719
 20
1537.92339752023
 11
-1830.404052955094
 21
1538.392880207259
  0
LINE
  5
50
100
AcDbEntity
  8
____
  6
CONTINUOUS
 62
           3
100
AcDbLine
 10
-1820.08722458623
 20
1614.918558193263
 11
-1819.595947044855
 21
1614.449075506231
  0
LINE
  5
4F
100
AcDbEntity
  8
____
  6
CONTINUOUS
 62
           3
100
AcDbLine
 10
-1830.404052955093
 20
1614.449075506231
 11
-1829.912775413718
 21
1614.918558193263
  0
LINE
  5
4E
100
AcDbEntity
  8
____
  6
CONTINUOUS
 62
           3
100
AcDbLine
 10
-1819.49769153659
 20
1575.951495169715
 11
-1819.49769153659
 21
1540.270810955382
  0
LINE
  5
4D
100
AcDbEntity
  8
____
  6
CONTINUOUS
 62
           3
100
AcDbLine
 10
-1819.49769153659
 20
1540.270810955382
 11
-1830.502308463367
 21
1540.270810955382
  0
LINE
  5
4C
100
AcDbEntity
  8
____
  6
CONTINUOUS
 62
           3
100
AcDbLine
 10
-1830.502308463367
 20
1540.270810955382
 11
-1830.502308463367
 21
1575.951495169715
  0
LINE
  5
4B
100
AcDbEntity
  8
____
  6
CONTINUOUS
 62
           3
100
AcDbLine
 10
-1830.502308463367
 20
1575.951495169715
 11
-1819.49769153659
 21
1575.951495169715
  0
LINE
  5
4A
100
AcDbEntity
  8
____
  6
CONTINUOUS
 62
           3
100
AcDbLine
 10
-1830.404052955093
 20
1614.449075506231
 11
-1819.595947044855
 21
1614.449075506231
  0
LINE
  5
49
100
AcDbEntity
  8
____
  6
CONTINUOUS
 62
           3
100
AcDbLine
 10
-1819.841585815543
 20
1575.951495169715
 11
-1819.841585815543
 21
1576.890460543777
  0
LINE
  5
48
100
AcDbEntity
  8
____
  6
CONTINUOUS
 62
           3
100
AcDbLine
 10
-1819.841585815543
 20
1576.890460543777
 11
-1830.158414184406
 21
1576.890460543777
  0
LINE
  5
47
100
AcDbEntity
  8
____
  6
CONTINUOUS
 62
           3
100
AcDbLine
 10
-1830.158414184406
 20
1576.890460543777
 11
-1830.158414184406
 21
1575.951495169715
  0
LINE
  5
46
100
AcDbEntity
  8
____
  6
CONTINUOUS
 62
           3
100
AcDbLine
 10
-1819.595947044856
 20
1540.270810955382
 11
-1819.595947044856
 21
1538.392880207259
  0
LINE
  5
45
100
AcDbEntity
  8
____
  6
CONTINUOUS
 62
           3
100
AcDbLine
 10
-1820.08722458623
 20
1537.92339752023
 11
-1829.912775413719
 21
1537.92339752023
  0
LINE
  5
44
100
AcDbEntity
  8
____
  6
CONTINUOUS
 62
           3
100
AcDbLine
 10
-1830.404052955094
 20
1538.392880207259
 11
-1830.404052955094
 21
1540.270810955382
  0
LINE
  5
43
100
AcDbEntity
  8
____
  6
CONTINUOUS
 62
           3
100
AcDbLine
 10
-1830.502308463367
 20
1576.890460543777
 11
-1830.502308463366
 21
1612.571144758109
  0
LINE
  5
42
100
AcDbEntity
  8
____
  6
CONTINUOUS
 62
           3
100
AcDbLine
 10
-1830.502308463366
 20
1612.571144758109
 11
-1819.497691536589
 21
1612.571144758108
  0
LINE
  5
41
100
AcDbEntity
  8
____
  6
CONTINUOUS
 62
           3
100
AcDbLine
 10
-1819.497691536589
 20
1612.571144758108
 11
-1819.49769153659
 21
1576.890460543777
  0
LINE
  5
40
100
AcDbEntity
  8
____
  6
CONTINUOUS
 62
           3
100
AcDbLine
 10
-1819.49769153659
 20
1576.890460543777
 11
-1830.502308463367
 21
1576.890460543777
  0
LINE
  5
3F
100
AcDbEntity
  8
____
  6
CONTINUOUS
 62
           3
100
AcDbLine
 10
-1830.404052955093
 20
1612.571144758109
 11
-1830.404052955093
 21
1614.449075506231
  0
LINE
  5
3E
100
AcDbEntity
  8
____
  6
CONTINUOUS
 62
           3
100
AcDbLine
 10
-1829.912775413718
 20
1614.918558193263
 11
-1820.08722458623
 21
1614.918558193263
  0
LINE
  5
3D
100
AcDbEntity
  8
____
  6
CONTINUOUS
 62
           3
100
AcDbLine
 10
-1819.595947044855
 20
1614.449075506231
 11
-1819.595947044855
 21
1612.571144758108
  0
LINE
  5
3C
100
AcDbEntity
  8
___S__
  6
DOT_CENTER
 62
           3
100
AcDbLine
 10
-1824.999999999974
 20
1621.052837286497
 11
-1824.999999999975
 21
1536.057127055389
  0
LINE
  5
3B
100
AcDbEntity
  8
1
  6
CONTINUOUS
 62
           7
100
AcDbLine
 10
-1824.999999999998
 20
941.513526798366
 11
-674.999999999998
 21
941.513526798366
  0
LINE
  5
3A
100
AcDbEntity
  8
1
  6
CONTINUOUS
 62
           7
100
AcDbLine
 10
-674.999999999998
 20
941.513526798366
 11
-674.999999999998
 21
1646.282992387802
  0
LINE
  5
39
100
AcDbEntity
  8
1
  6
CONTINUOUS
 62
           7
100
AcDbLine
 10
-1824.999999999998
 20
941.513526798366
 11
-1824.999999999998
 21
1646.282992387802
  0
LINE
  5
38
100
AcDbEntity
  8
1
  6
CONTINUOUS
 62
           7
100
AcDbLine
 10
-674.999999999998
 20
1646.282992387802
 11
-1824.999999999998
 21
1646.282992387802
  0
LINE
  5
37
100
AcDbEntity
  8
1
  6
CONTINUOUS
 62
           3
100
AcDbLine
 10
-735.604203678124
 20
1294.32810932706
 11
-737.992149678105
 21
1267.070985327059
  0
LINE
  5
36
100
AcDbEntity
  8
1
  6
CONTINUOUS
 62
           3
100
AcDbLine
 10
-737.992149678105
 20
1323.33071132706
 11
-735.604203678124
 21
1296.073587327061
  0
LINE
  5
35
100
AcDbEntity
  8
1
  6
CONTINUOUS
 62
           3
100
AcDbLine
 10
-747.451285678124
 20
1294.32810932706
 11
-745.063339678115
 21
1267.070985327059
  0
LINE
  5
34
100
AcDbEntity
  8
1
  6
CONTINUOUS
 62
           3
100
AcDbLine
 10
-745.063339678115
 20
1323.33071132706
 11
-747.451285678124
 21
1296.073587327061
  0
LINE
  5
33
100
AcDbEntity
  8
1
  6
DOT_CENTER
 62
           3
100
AcDbLine
 10
-696.52774467812
 20
1295.20084832705
 11
-786.525199678125
 21
1295.20084832705
  0
LINE
  5
32
100
AcDbEntity
  8
1
  6
DOT_CENTER
 62
           3
100
AcDbLine
 10
-741.52774467812
 20
1340.20084832705
 11
-741.52774467812
 21
1250.20227732705
  0
LINE
  5
31
100
AcDbEntity
  8
1
  6
CONTINUOUS
 62
           4
100
AcDbLine
 10
4326.632281459172
 20
1980.0
 11
4326.632281459172
 21
1814.464669216337
  0
LINE
  5
30
100
AcDbEntity
  8
1
  6
CONTINUOUS
 62
           4
100
AcDbLine
 10
4286.632281459172
 20
520.0
 11
4286.632281459172
 21
1714.44658929451
  0
LINE
  5
2F
100
AcDbEntity
  8
1
  6
CONTINUOUS
 62
           7
100
AcDbLine
 10
4306.632281459172
 20
500.0
 11
4306.632281459172
 21
1767.29327352817
  0
POINT
  5
2E
100
AcDbEntity
  8
0
 62
           3
100
AcDbPoint
 10
4140.032278180906
 20
1365.000000000117
  0
ENDSEC
  0
SECTION
  2
OBJECTS
  0
DICTIONARY
  5
19
100
AcDbDictionary
  3
ACAD_GROUP
350
1A
  3
ACAD_MLINESTYLE
350
1B
  0
DICTIONARY
  5
1A
102
{ACAD_REACTORS
330
19
102
}
100
AcDbDictionary
  0
DICTIONARY
  5
1B
102
{ACAD_REACTORS
330
19
102
}
100
AcDbDictionary
  3
STANDARD
350
1C
  0
MLINESTYLE
  5
1C
102
{ACAD_REACTORS
330
1B
102
}
100
AcDbMlineStyle
  2
STANDARD
 70
           0
  3

 62
           0
 51
90.0
 52
90.0
 71
           2
 49
0.5
 62
         256
  6
BYLAYER
 49
-0.5
 62
         256
  6
BYLAYER
  0
ENDSEC
  0
EOF
