  0
SECTION
  2
HEADER
  9
$ACADVER
  1
AC1014
  9
$ACADMAINTVER
 70
           0
  9
$DWGCODEPAGE
  3
DOS932
  9
$INSBASE
 10
0.0
 20
0.0
 30
0.0
  9
$EXTMIN
 10
1.000000000000E+20
 20
1.000000000000E+20
 30
1.000000000000E+20
  9
$EXTMAX
 10
-1.000000000000E+20
 20
-1.000000000000E+20
 30
-1.000000000000E+20
  9
$LIMMIN
 10
0.0
 20
0.0
  9
$LIMMAX
 10
0.0
 20
0.0
  9
$ORTHOMODE
 70
           0
  9
$REGENMODE
 70
           1
  9
$FILLMODE
 70
           1
  9
$QTEXTMODE
 70
           0
  9
$MIRRTEXT
 70
           1
  9
$DRAGMODE
 70
           2
  9
$LTSCALE
 40
1.0
  9
$OSMODE
 70
           0
  9
$ATTMODE
 70
           1
  9
$TEXTSIZE
 40
0.2
  9
$TRACEWID
 40
0.05
  9
$TEXTSTYLE
  7
STANDARD
  9
$CLAYER
  8
0
  9
$CELTYPE
  6
CONTINUOUS
  9
$CECOLOR
 62
         256
  9
$CELTSCALE
 40
1.0
  9
$DELOBJ
 70
           1
  9
$DISPSILH
 70
           0
  9
$DIMSCALE
 40
1.0
  9
$DIMASZ
 40
0.18
  9
$DIMEXO
 40
0.0625
  9
$DIMDLI
 40
0.38
  9
$DIMRND
 40
0.0
  9
$DIMDLE
 40
0.0
  9
$DIMEXE
 40
0.18
  9
$DIMTP
 40
0.0
  9
$DIMTM
 40
0.0
  9
$DIMTXT
 40
0.18
  9
$DIMCEN
 40
0.09
  9
$DIMTSZ
 40
0.0
  9
$DIMTOL
 70
           0
  9
$DIMLIM
 70
           0
  9
$DIMTIH
 70
           1
  9
$DIMTOH
 70
           1
  9
$DIMSE1
 70
           0
  9
$DIMSE2
 70
           0
  9
$DIMTAD
 70
           0
  9
$DIMZIN
 70
           0
  9
$DIMBLK
  1

  9
$DIMASO
 70
           1
  9
$DIMSHO
 70
           1
  9
$DIMPOST
  1

  9
$DIMAPOST
  1

  9
$DIMALT
 70
           0
  9
$DIMALTD
 70
           2
  9
$DIMALTF
 40
25.4
  9
$DIMLFAC
 40
1.0
  9
$DIMTOFL
 70
           0
  9
$DIMTVP
 40
0.0
  9
$DIMTIX
 70
           0
  9
$DIMSOXD
 70
           0
  9
$DIMSAH
 70
           0
  9
$DIMBLK1
  1

  9
$DIMBLK2
  1

  9
$DIMSTYLE
  2
STANDARD
  9
$DIMCLRD
 70
           0
  9
$DIMCLRE
 70
           0
  9
$DIMCLRT
 70
           0
  9
$DIMTFAC
 40
1.0
  9
$DIMGAP
 40
0.09
  9
$DIMJUST
 70
           0
  9
$DIMSD1
 70
           0
  9
$DIMSD2
 70
           0
  9
$DIMTOLJ
 70
           1
  9
$DIMTZIN
 70
           0
  9
$DIMALTZ
 70
           0
  9
$DIMALTTZ
 70
           0
  9
$DIMFIT
 70
           3
  9
$DIMUPT
 70
           0
  9
$DIMUNIT
 70
           2
  9
$DIMDEC
 70
           4
  9
$DIMTDEC
 70
           4
  9
$DIMALTU
 70
           2
  9
$DIMALTTD
 70
           2
  9
$DIMTXSTY
  7
STANDARD
  9
$DIMAUNIT
 70
           0
  9
$LUNITS
 70
           2
  9
$LUPREC
 70
           4
  9
$SKETCHINC
 40
0.1
  9
$FILLETRAD
 40
0.0
  9
$AUNITS
 70
           0
  9
$AUPREC
 70
           0
  9
$MENU
  1
acad
  9
$ELEVATION
 40
0.0
  9
$PELEVATION
 40
0.0
  9
$THICKNESS
 40
0.0
  9
$LIMCHECK
 70
           0
  9
$BLIPMODE
 70
           1
  9
$CHAMFERA
 40
0.0
  9
$CHAMFERB
 40
0.0
  9
$CHAMFERC
 40
0.0
  9
$CHAMFERD
 40
0.0
  9
$SKPOLY
 70
           0
  9
$TDCREATE
 40
0.000000000
  9
$TDUPDATE
 40
0.000000000
  9
$TDINDWG
 40
0.0000000000
  9
$TDUSRTIMER
 40
0.0000000000
  9
$USRTIMER
 70
           1
  9
$ANGBASE
 50
0.0
  9
$ANGDIR
 70
           0
  9
$PDMODE
 70
           0
  9
$PDSIZE
 40
0.0
  9
$PLINEWID
 40
0.0
  9
$COORDS
 70
           0
  9
$SPLFRAME
 70
           0
  9
$SPLINETYPE
 70
           6
  9
$SPLINESEGS
 70
           8
  9
$ATTDIA
 70
           0
  9
$ATTREQ
 70
           1
  9
$HANDLING
 70
           1
  9
$HANDSEED
  5
38E
  9
$SURFTAB1
 70
           6
  9
$SURFTAB2
 70
           6
  9
$SURFTYPE
 70
           6
  9
$SURFU
 70
           6
  9
$SURFV
 70
           6
  9
$UCSNAME
  2

  9
$UCSORG
 10
0.0
 20
0.0
 30
0.0
  9
$UCSXDIR
 10
1.0
 20
0.0
 30
0.0
  9
$UCSYDIR
 10
0.0
 20
1.0
 30
0.0
  9
$PUCSNAME
  2

  9
$PUCSORG
 10
0.0
 20
0.0
 30
0.0
  9
$PUCSXDIR
 10
1.0
 20
0.0
 30
0.0
  9
$PUCSYDIR
 10
0.0
 20
1.0
 30
0.0
  9
$USERI1
 70
           0
  9
$USERI2
 70
           0
  9
$USERI3
 70
           0
  9
$USERI4
 70
           0
  9
$USERI5
 70
           0
  9
$USERR1
 40
0.0
  9
$USERR2
 40
0.0
  9
$USERR3
 40
0.0
  9
$USERR4
 40
0.0
  9
$USERR5
 40
0.0
  9
$WORLDVIEW
 70
           1
  9
$SHADEDGE
 70
           3
  9
$SHADEDIF
 70
          70
  9
$TILEMODE
 70
           1
  9
$MAXACTVP
 70
          16
  9
$PINSBASE
 10
0.0
 20
0.0
 30
0.0
  9
$PLIMCHECK
 70
           0
  9
$PEXTMIN
 10
1.000000000000E+20
 20
1.000000000000E+20
 30
1.000000000000E+20
  9
$PEXTMAX
 10
-1.000000000000E+20
 20
-1.000000000000E+20
 30
-1.000000000000E+20
  9
$PLIMMIN
 10
0.0
 20
0.0
  9
$PLIMMAX
 10
12.0
 20
9.0
  9
$UNITMODE
 70
           0
  9
$VISRETAIN
 70
           0
  9
$PLINEGEN
 70
           1
  9
$PSLTSCALE
 70
           0
  9
$TREEDEPTH
 70
        3020
  9
$PICKSTYLE
 70
           1
  9
$CMLSTYLE
  2
STANDARD
  9
$CMLJUST
 70
           0
  9
$CMLSCALE
 40
1.0
  9
$PROXYGRAPHICS
 70
           0
  9
$MEASUREMENT
 70
           0
  0
ENDSEC
  0
SECTION
  2
CLASSES
  0
CLASS
  1
LWPOLYLINE
  2
AcDbPolyline
  3
"AutoCAD"
 90
        0
280
           0
281
           1
  0
CLASS
  1
IMAGE
  2
AcDbRasterImage
  3
ISM
 90
      127
280
           0
281
           1
  0
CLASS
  1
OLE2FRAME
  2
AcDbOle2Frame
  3
""
 90
        0
280
           0
281
           1
  0
CLASS
  1
HATCH
  2
AcDbHatch
  3
"ACAD_SEDONA"
 90
        0
280
           0
281
           1
  0
CLASS
  1
DICTIONARYVAR
  2
AcDbDictionaryVar
  3
"AutoCAD"
 90
        0
280
           0
281
           0
  0
CLASS
  1
RASTERVARIABLES
  2
AcDbRasterVariables
  3
ISM
 90
        0
280
           0
281
           0
  0
CLASS
  1
IMAGEDEF
  2
AcDbRasterImageDef
  3
ISM
 90
        0
280
           0
281
           0
  0
CLASS
  1
IMAGEDEF_REACTOR
  2
AcDbRasterImageDefReactor
  3
ISM
 90
        1
280
           0
281
           0
  0
CLASS
  1
IDBUFFER
  2
AcDbIdBuffer
  3
"Acad"
 90
        0
280
           0
281
           0
  0
CLASS
  1
SPATIAL_FILTER
  2
AcDbSpatialFilter
  3
"Acad"
 90
        0
280
           0
281
           0
  0
CLASS
  1
XRECORD
  2
AcDbXrecord
  3
"<Built In>"
 90
        0
280
           0
281
           0
  0
CLASS
  1
SORTENTSTABLE
  2
AcDbSortentsTable
  3
"AutoCAD"
 90
        0
280
           0
281
           0
  0
CLASS
  1
LAYER_INDEX
  2
AcDbLayerIndex
  3
"Acad"
 90
        0
280
           0
281
           0
  0
CLASS
  1
SPATIAL_INDEX
  2
AcDbSpatialIndex
  3
"Acad"
 90
        0
280
           0
281
           0
  0
CLASS
  1
OBJECT_PTR
  2
CAseDLPNTableRecord
  3
"ASE-LPNTableRecord"
 90
        1
280
           0
281
           0
  0
CLASS
  1
LAYOUT
  2
AcDbLayout
  3
"AutoCAD 2000"
 90
        1
280
           0
281
           0
  0
CLASS
  1
PLOTSETTINGS
  2
AcDbPlotSettings
  3
"AutoCAD 2000"
 90
        1
280
           0
281
           0
  0
CLASS
  1
ACDBDICTIONARYWDFLT
  2
AcDbDictionaryWithDefault
  3
"AutoCAD 2000"
 90
        1
280
           0
281
           0
  0
CLASS
  1
ACDBPLACEHOLDER
  2
AcDbPlaceHolder
  3
"AutoCAD 2000"
 90
        1
280
           0
281
           0
  0
CLASS
  1
VBA_PROJECT
  2
AcDbVbaProject
  3
"acadvba"
 90
        1
280
           0
281
           0
  0
CLASS
  1
WIPEOUT
  2
AcDbWipeout
  3
WipeOut|AutoCAD Express Tool|expresstools@autodesk.com
 90
      127
280
           0
281
           1
  0
CLASS
  1
WIPEOUTVARIABLES
  2
AcDbWipeoutVariables
  3
WipeOut|AutoCAD Express Tool|expresstools@autodesk.com
 90
        0
280
           0
281
           0
  0
CLASS
  1
RTEXT
  2
RText
  3
RText|AutoCAD Express Tool|expresstools@autodesk.com
 90
        0
280
           0
281
           1
  0
CLASS
  1
ARCALIGNEDTEXT
  2
AcDbArcAlignedText
  3
ATEXT|AutoCAD Express Tool|expresstools@autodesk.com
 90
        0
280
           0
281
           1
  0
ENDSEC
  0
SECTION
  2
TABLES
  0
TABLE
  2
VPORT
  5
7
100
AcDbSymbolTable
 70
           1
  0
VPORT
  5
15
100
AcDbSymbolTableRecord
100
AcDbViewportTableRecord
  2
*ACTIVE
 70
           0
 10
0.0
 20
0.0
 11
1.0
 21
1.0
 12
6.591288
 22
4.579184
 13
0.0
 23
0.0
 14
1.0
 24
1.0
 15
0.0
 25
0.0
 16
0.0
 26
0.0
 36
1.0
 17
0.0
 27
0.0
 37
0.0
 40
9.158369
 41
0.688564
 42
50.0
 43
0.0
 44
0.0
 50
0.0
 51
0.0
 71
           0
 72
         100
 73
           1
 74
           1
 75
           0
 76
           0
 77
           0
 78
           0
  0
ENDTAB
  0
TABLE
  2
LTYPE
  5
4
100
AcDbSymbolTable
 70
          10
  0
LTYPE
  5
11
100
AcDbSymbolTableRecord
100
AcDbLinetypeTableRecord
  2
BYBLOCK
 70
          64
  3

 72
          65
 73
           0
 40
0.0
  0
LTYPE
  5
12
100
AcDbSymbolTableRecord
100
AcDbLinetypeTableRecord
  2
BYLAYER
 70
          64
  3

 72
          65
 73
           0
 40
0.0
  0
LTYPE
  5
13
100
AcDbSymbolTableRecord
100
AcDbLinetypeTableRecord
  2
CONTINUOUS
 70
          64
  3
Solid line
 72
          65
 73
           0
 40
0.0
  0
LTYPE
  5
1D
100
AcDbSymbolTableRecord
100
AcDbLinetypeTableRecord
  2
DASHED
 70
          64
  3
Dashed
 72
          65
 73
           2
 40
15.0
 49
12.0
 74
           0
 49
-3.0
 74
           0
  0
LTYPE
  5
1E
100
AcDbSymbolTableRecord
100
AcDbLinetypeTableRecord
  2
DOTTED
 70
          64
  3
Dotted
 72
          65
 73
           2
 40
3.5
 49
0.5
 74
           0
 49
-3.0
 74
           0
  0
LTYPE
  5
1F
100
AcDbSymbolTableRecord
100
AcDbLinetypeTableRecord
  2
DOT_CENTER
 70
          64
  3
Dot_Center
 72
          65
 73
           4
 40
2.0
 49
1.25
 74
           0
 49
-0.25
 74
           0
 49
0.25
 74
           0
 49
-0.25
 74
           0
  0
LTYPE
  5
20
100
AcDbSymbolTableRecord
100
AcDbLinetypeTableRecord
  2
LONG_DASHED
 70
          64
  3
Long_Dashed
 72
          65
 73
           2
 40
2.0
 49
1.5
 74
           0
 49
-0.5
 74
           0
  0
LTYPE
  5
21
100
AcDbSymbolTableRecord
100
AcDbLinetypeTableRecord
  2
DASH_CENTER
 70
          64
  3
Dash_Center
 72
          65
 73
           4
 40
36.0
 49
24.0
 74
           0
 49
-3.0
 74
           0
 49
6.0
 74
           0
 49
-3.0
 74
           0
  0
LTYPE
  5
22
100
AcDbSymbolTableRecord
100
AcDbLinetypeTableRecord
  2
PHANTOM
 70
          64
  3
Phantom
 72
          65
 73
           6
 40
2.5
 49
1.25
 74
           0
 49
-0.25
 74
           0
 49
0.25
 74
           0
 49
-0.25
 74
           0
 49
0.25
 74
           0
 49
-0.25
 74
           0
  0
LTYPE
  5
23
100
AcDbSymbolTableRecord
100
AcDbLinetypeTableRecord
  2
CENTER_DASH_DASH
 70
          64
  3
Center_Dash_Dash
 72
          65
 73
           6
 40
22.0
 49
12.0
 74
           0
 49
-3.0
 74
           0
 49
0.5
 74
           0
 49
-3.0
 74
           0
 49
0.5
 74
           0
 49
-3.0
 74
           0
  0
ENDTAB
  0
TABLE
  2
LAYER
  5
2
100
AcDbSymbolTable
 70
           7
  0
LAYER
  5
14
100
AcDbSymbolTableRecord
100
AcDbLayerTableRecord
  2
0
 70
           0
 62
           7
  6
CONTINUOUS
  0
LAYER
  5
24
100
AcDbSymbolTableRecord
100
AcDbLayerTableRecord
  2
___S__
 70
           0
 62
           7
  6
CONTINUOUS
  0
LAYER
  5
25
100
AcDbSymbolTableRecord
100
AcDbLayerTableRecord
  2
FORMAT
 70
           0
 62
           7
  6
CONTINUOUS
  0
LAYER
  5
26
100
AcDbSymbolTableRecord
100
AcDbLayerTableRecord
  2
1
 70
           0
 62
           7
  6
CONTINUOUS
  0
LAYER
  5
27
100
AcDbSymbolTableRecord
100
AcDbLayerTableRecord
  2
2
 70
           0
 62
           7
  6
CONTINUOUS
  0
LAYER
  5
28
100
AcDbSymbolTableRecord
100
AcDbLayerTableRecord
  2
7
 70
           0
 62
           7
  6
CONTINUOUS
  0
LAYER
  5
29
100
AcDbSymbolTableRecord
100
AcDbLayerTableRecord
  2
____
 70
           0
 62
           7
  6
CONTINUOUS
  0
ENDTAB
  0
TABLE
  2
STYLE
  5
3
100
AcDbSymbolTable
 70
           1
  0
STYLE
  5
17
100
AcDbSymbolTableRecord
100
AcDbTextStyleTableRecord
  2
STANDARD
 70
           0
 40
0.0
 41
1.0
 50
0.0
 71
           0
 42
0.0
  3
txt
  4

  0
ENDTAB
  0
TABLE
  2
VIEW
  5
5
100
AcDbSymbolTable
 70
           0
  0
ENDTAB
  0
TABLE
  2
UCS
  5
6
100
AcDbSymbolTable
 70
           0
  0
ENDTAB
  0
TABLE
  2
APPID
  5
8
100
AcDbSymbolTable
 70
           1
  0
APPID
  5
16
100
AcDbSymbolTableRecord
100
AcDbRegAppTableRecord
  2
ACAD
 70
           0
  0
ENDTAB
  0
TABLE
  2
DIMSTYLE
  5
9
100
AcDbSymbolTable
 70
           1
  0
DIMSTYLE
105
18
100
AcDbSymbolTableRecord
100
AcDbDimStyleTableRecord
  2
STANDARD
 70
           0
  3

  4

  5

  6

  7

 40
1.0
 41
0.18
 42
0.0625
 43
0.38
 44
0.18
 45
0.0
 46
0.0
 47
0.0
 48
0.0
 71
           0
 72
           0
 73
           1
 74
           1
 75
           0
 76
           0
 77
           0
 78
           0
140
0.18
141
0.09
142
0.0
143
25.4
144
1.0
145
0.0
146
1.0
147
0.09
170
           0
171
           2
172
           0
173
           0
174
           0
175
           0
176
           0
177
           0
178
           0
270
           2
271
           4
272
           4
273
           2
274
           2
275
           0
280
           0
281
           0
282
           0
283
           1
284
           0
285
           0
286
           0
287
           0
288
           0
340
17
  0
ENDTAB
  0
TABLE
  2
BLOCK_RECORD
  5
1
100
AcDbSymbolTable
 70
           0
  0
BLOCK_RECORD
  5
A
100
AcDbSymbolTableRecord
100
AcDbBlockTableRecord
  2
*MODEL_SPACE
  0
BLOCK_RECORD
  5
B
100
AcDbSymbolTableRecord
100
AcDbBlockTableRecord
  2
*PAPER_SPACE
  0
ENDTAB
  0
ENDSEC
  0
SECTION
  2
BLOCKS
  0
BLOCK
  5
D
100
AcDbEntity
  8
0
100
AcDbBlockBegin
  2
*MODEL_SPACE
 70
           0
 10
0.0
 20
0.0
 30
0.0
  3
*MODEL_SPACE
  1

  0
ENDBLK
  5
E
100
AcDbEntity
  8
0
100
AcDbBlockEnd
  0
BLOCK
  5
F
100
AcDbEntity
 67
           1
  8
0
100
AcDbBlockBegin
  2
*PAPER_SPACE
 70
           0
 10
0.0
 20
0.0
 30
0.0
  3
*PAPER_SPACE
  1

  0
ENDBLK
  5
10
100
AcDbEntity
 67
           1
  8
0
100
AcDbBlockEnd
  0
ENDSEC
  0
SECTION
  2
ENTITIES
  0
HATCH
  5
38C
100
AcDbEntity
  8
0
  6
CONTINUOUS
 62
           2
100
AcDbHatch
 10
0.0
 20
0.0
 30
0.0
210
0.0
220
0.0
230
1.0
  2
USER
 70
           0
 71
           1
 91
        1
 92
        1
 93
        8
 72
           1
 10
3803.7854331567091
 20
1107.5
 11
3803.7854331567091
 21
1092.5
 72
           1
 10
3803.7854331567091
 20
1092.5
 11
3706.2854331567091
 21
1092.5
 72
           2
 10
3706.2854331567091
 20
1112.5
 40
20.0
 50
180.0
 51
-90.0
 73
           1
 72
           1
 10
3686.2854331567091
 20
1180.0
 11
3686.2854331567091
 21
1112.5
 72
           1
 10
3686.2854331567091
 20
1180.0
 11
3701.28543315671
 21
1180.0
 72
           1
 10
3701.28543315671
 20
1180.0
 11
3701.28543315671
 21
1112.5
 72
           2
 10
3706.2854331567091
 20
1112.5
 40
4.9999999999990905
 50
180.0
 51
-90.0
 73
           1
 72
           1
 10
3803.7854331567091
 20
1107.5
 11
3706.2854331567091
 21
1107.5
 97
        7
330
372
330
374
330
82
330
373
330
81
330
375
330
83
 75
           1
 76
           0
 52
45.0
 41
10.0
 77
           0
 78
           1
 53
45.0
 43
0.0
 44
0.0
 45
-7.0710678118654746
 46
7.0710678118654755
 79
           0
 98
        1
 10
0.0
 20
0.0
  0
ARC
  5
38B
100
AcDbEntity
  8
1
  6
CONTINUOUS
 62
           7
100
AcDbCircle
 10
185.000000000002
 20
5591.499999999999
 40
12.0
100
AcDbArc
 50
0.0
 51
90.0
  0
ARC
  5
38A
100
AcDbEntity
  8
1
  6
CONTINUOUS
 62
           7
100
AcDbCircle
 10
185.000000000002
 20
5488.499999999999
 40
12.0
100
AcDbArc
 50
-90.0
 51
0.0
  0
ARC
  5
389
100
AcDbEntity
  8
1
  6
CONTINUOUS
 62
           7
100
AcDbCircle
 10
144.824966598197
 20
5591.499999999999
 40
12.0
100
AcDbArc
 50
90.0
 51
180.0
  0
ARC
  5
388
100
AcDbEntity
  8
1
  6
CONTINUOUS
 62
           7
100
AcDbCircle
 10
144.824966598197
 20
5488.499999999999
 40
12.0
100
AcDbArc
 50
180.0
 51
-90.0
  0
ARC
  5
387
100
AcDbEntity
  8
1
  6
CONTINUOUS
 62
           4
100
AcDbCircle
 10
117.908702762046
 20
5494.499999999999
 40
12.000000000002
100
AcDbArc
 50
-120.4305942057
 51
-90.0
  0
ARC
  5
386
100
AcDbEntity
  8
1
  6
CONTINUOUS
 62
           4
100
AcDbCircle
 10
117.908702762046
 20
5585.499999999999
 40
12.0
100
AcDbArc
 50
90.0
 51
120.430594205705
  0
ARC
  5
385
100
AcDbEntity
  8
1
  6
CONTINUOUS
 62
           7
100
AcDbCircle
 10
134.496396800001
 20
2712.3
 40
12.0
100
AcDbArc
 50
180.0
 51
-90.0
  0
ARC
  5
384
100
AcDbEntity
  8
1
  6
CONTINUOUS
 62
           7
100
AcDbCircle
 10
134.496396800001
 20
2788.3
 40
12.0
100
AcDbArc
 50
90.0
 51
180.0
  0
ARC
  5
383
100
AcDbEntity
  8
1
  6
CONTINUOUS
 62
           7
100
AcDbCircle
 10
185.000000000002
 20
2712.3
 40
12.0
100
AcDbArc
 50
-90.0
 51
0.0
  0
ARC
  5
382
100
AcDbEntity
  8
1
  6
CONTINUOUS
 62
           7
100
AcDbCircle
 10
185.000000000002
 20
2788.3
 40
12.0
100
AcDbArc
 50
0.0
 51
90.0
  0
ARC
  5
381
100
AcDbEntity
  8
1
  6
CONTINUOUS
 62
           4
100
AcDbCircle
 10
5368.285433156709
 20
2159.5
 40
1.0
100
AcDbArc
 50
0.0
 51
90.0
  0
ARC
  5
380
100
AcDbEntity
  8
1
  6
CONTINUOUS
 62
           4
100
AcDbCircle
 10
5379.285433156709
 20
2159.5
 40
1.0
100
AcDbArc
 50
90.0
 51
180.0
  0
ARC
  5
37F
100
AcDbEntity
  8
1
  6
CONTINUOUS
 62
           4
100
AcDbCircle
 10
5368.285433156709
 20
2610.500000000001
 40
1.0
100
AcDbArc
 50
-90.0
 51
0.0
  0
ARC
  5
37E
100
AcDbEntity
  8
1
  6
CONTINUOUS
 62
           4
100
AcDbCircle
 10
5379.285433156709
 20
2610.500000000001
 40
1.0
100
AcDbArc
 50
180.0
 51
-90.0
  0
ARC
  5
37D
100
AcDbEntity
  8
1
  6
CONTINUOUS
 62
           7
100
AcDbCircle
 10
4915.285433156709
 20
2788.299999999997
 40
12.0
100
AcDbArc
 50
0.0
 51
90.0
  0
ARC
  5
37C
100
AcDbEntity
  8
1
  6
CONTINUOUS
 62
           7
100
AcDbCircle
 10
4915.285433156709
 20
2712.299999999997
 40
12.0
100
AcDbArc
 50
-90.0
 51
0.0
  0
ARC
  5
37B
100
AcDbEntity
  8
1
  6
CONTINUOUS
 62
           7
100
AcDbCircle
 10
4812.285433156709
 20
2788.299999999997
 40
12.0
100
AcDbArc
 50
90.0
 51
180.0
  0
ARC
  5
37A
100
AcDbEntity
  8
1
  6
CONTINUOUS
 62
           7
100
AcDbCircle
 10
4812.285433156709
 20
2712.299999999997
 40
12.0
100
AcDbArc
 50
180.0
 51
-90.0
  0
ARC
  5
379
100
AcDbEntity
  8
1
  6
CONTINUOUS
 62
           3
100
AcDbCircle
 10
4721.949000847755
 20
1917.80625341996
 40
0.5
100
AcDbArc
 50
180.0
 51
-90.0
  0
ARC
  5
378
100
AcDbEntity
  8
1
  6
CONTINUOUS
 62
           3
100
AcDbCircle
 10
4721.949000847755
 20
1932.19374658004
 40
0.5
100
AcDbArc
 50
90.0
 51
180.0
  0
ARC
  5
377
100
AcDbEntity
  8
1
  6
CONTINUOUS
 62
           3
100
AcDbCircle
 10
4573.685431279038
 20
1641.000000000001
 40
280.0
100
AcDbArc
 50
90.0
 51
180.0
  0
ARC
  5
376
100
AcDbEntity
  8
1
  6
CONTINUOUS
 62
           3
100
AcDbCircle
 10
4573.685429967645
 20
1641.0
 40
288.0
100
AcDbArc
 50
90.0
 51
180.0
  0
ARC
  5
375
100
AcDbEntity
  8
1
  6
CONTINUOUS
 62
           7
100
AcDbCircle
 10
3706.285433156709
 20
1112.5
 40
4.999999999999
100
AcDbArc
 50
180.0
 51
-90.0
  0
ARC
  5
374
100
AcDbEntity
  8
1
  6
CONTINUOUS
 62
           7
100
AcDbCircle
 10
3706.285433156709
 20
1112.5
 40
20.0
100
AcDbArc
 50
180.0
 51
-90.0
  0
LWPOLYLINE
  5
373
100
AcDbEntity
  8
1
  6
CONTINUOUS
 62
           7
 60
           1
100
AcDbPolyline
 90
        2
 70
           0
 10
3686.285433156709
 20
1180.0
 10
3701.28543315671
 20
1180.0
  0
LWPOLYLINE
  5
372
100
AcDbEntity
  8
1
  6
CONTINUOUS
 62
           7
 60
           1
100
AcDbPolyline
 90
        3
 70
           0
 10
3803.785433156709
 20
1107.5
 10
3803.785433156709
 20
1092.5
 10
3706.285433156709
 20
1092.5
  0
SPLINE
  5
371
100
AcDbEntity
  8
0
  6
CONTINUOUS
 62
           3
100
AcDbSpline
210
0.0
220
0.0
230
1.0
 70
           0
 71
           3
 72
           8
 73
           5
 74
           7
 42
0.00000000001
 43
0.00000000001
 44
0.00000000001
 40
0.0
 40
0.0
 40
0.0
 40
0.2989651950314283
 40
0.4296296276535259
 40
0.4465803504019732
 40
0.4465803504019732
 40
0.4465803504019732
 10
4244.6854297665786
 20
1384.6465796233019
 30
0.0
 10
4244.685429766625
 20
1384.4669365634261
 30
0.0
 10
4244.685429766625
 20
1384.2282922931149
 30
0.0
 10
4244.685429766625
 20
1384.2056076981819
 30
0.0
 10
4244.685429766625
 20
1384.1999992729
 30
0.0
 11
4244.6854297665786
 21
1384.6465796233019
 31
0.0
 11
4244.6854297666132
 21
1384.4703311443236
 31
0.0
 11
4244.685429766625
 21
1384.3008718271406
 31
0.0
 11
4244.685429766625
 21
1384.2414172487577
 31
0.0
 11
4244.685429766625
 21
1384.2082125816601
 31
0.0
 11
4244.685429766625
 21
1384.2048568127309
 31
0.0
 11
4244.685429766625
 21
1384.1999992729
 31
0.0
  0
SPLINE
  5
370
100
AcDbEntity
  8
0
  6
CONTINUOUS
 62
           3
100
AcDbSpline
210
0.0
220
0.0
230
1.0
 70
           0
 71
           3
 72
           8
 73
           5
 74
           7
 42
0.00000000001
 43
0.00000000001
 44
0.00000000001
 40
0.0
 40
0.0
 40
0.0
 40
0.0169507227484473
 40
0.1476151553705449
 40
0.4465803504019732
 40
0.4465803504019732
 40
0.4465803504019732
 10
4234.6854299901461
 20
1384.1999992729
 30
0.0
 10
4234.6854299901461
 20
1384.2056076981819
 30
0.0
 10
4234.6854299901461
 20
1384.2282922931149
 30
0.0
 10
4234.6854299901461
 20
1384.4669365634261
 30
0.0
 10
4234.6854299901861
 20
1384.6465796233019
 30
0.0
 11
4234.6854299901461
 21
1384.1999992729
 31
0.0
 11
4234.6854299901461
 21
1384.2048568127311
 31
0.0
 11
4234.6854299901461
 21
1384.2082125816601
 31
0.0
 11
4234.6854299901461
 21
1384.2414172487577
 31
0.0
 11
4234.6854299901461
 21
1384.3008718271406
 31
0.0
 11
4234.6854299901561
 21
1384.4703311443236
 31
0.0
 11
4234.6854299901861
 21
1384.6465796233019
 31
0.0
  0
SPLINE
  5
36F
100
AcDbEntity
  8
0
  6
CONTINUOUS
 62
           3
100
AcDbSpline
210
0.0
220
0.0
230
1.0
 70
           0
 71
           3
 72
           8
 73
           5
 74
           7
 42
0.00000000001
 43
0.00000000001
 44
0.00000000001
 40
0.0
 40
0.0
 40
0.0
 40
0.4813883392837732
 40
1.3325653926425118
 40
2.5594910488310831
 40
2.5594910488310831
 40
2.5594910488310831
 10
4242.1854298224753
 20
1384.1999992729
 30
0.0
 10
4242.2446946286582
 20
1384.2004449713099
 30
0.0
 10
4243.088914470005
 20
1384.2067938900659
 30
0.0
 10
4243.9162104894931
 20
1384.4346858415549
 30
0.0
 10
4244.6854297665786
 20
1384.6465796233019
 30
0.0
 11
4242.1854298224753
 21
1384.1999992729
 31
0.0
 11
4242.3061218875946
 21
1384.2009069323501
 31
0.0
 11
4242.5496684705868
 21
1384.2027385138806
 31
0.0
 11
4243.0388167074552
 21
1384.2291158030612
 31
0.0
 11
4243.4277694192278
 21
1384.3001369182336
 31
0.0
 11
4243.9864050411989
 21
1384.4540220561614
 31
0.0
 11
4244.6854297665786
 21
1384.6465796233019
 31
0.0
  0
SPLINE
  5
36E
100
AcDbEntity
  8
0
  6
CONTINUOUS
 62
           3
100
AcDbSpline
210
0.0
220
0.0
230
1.0
 70
           0
 71
           3
 72
           8
 73
           5
 74
           7
 42
0.00000000001
 43
0.00000000001
 44
0.00000000001
 40
0.0
 40
0.0
 40
0.0
 40
0.4813884775047128
 40
1.3325655942388779
 40
2.5594910572531564
 40
2.5594910572531564
 40
2.5594910572531564
 10
4237.1854299342676
 20
1384.1999992729
 30
0.0
 10
4237.2446947411081
 20
1384.200444971553
 30
0.0
 10
4238.0889148575443
 20
1384.206793895828
 30
0.0
 10
4238.9162107246739
 20
1384.4346858417259
 30
0.0
 10
4239.6854298783883
 20
1384.6465796232951
 30
0.0
 11
4237.1854299342676
 21
1384.1999992729
 31
0.0
 11
4237.3061220350819
 21
1384.2009069331086
 31
0.0
 11
4237.5496687238428
 21
1384.202738516429
 31
0.0
 11
4238.0388170574224
 21
1384.2291158106427
 31
0.0
 11
4238.4277697907564
 21
1384.3001369344859
 31
0.0
 11
4238.9864052796229
 21
1384.454022060308
 31
0.0
 11
4239.6854298783883
 21
1384.6465796232951
 31
0.0
  0
SPLINE
  5
36D
100
AcDbEntity
  8
0
  6
CONTINUOUS
 62
           3
100
AcDbSpline
210
0.0
220
0.0
230
1.0
 70
           0
 71
           3
 72
           8
 73
           5
 74
           7
 42
0.00000000001
 43
0.00000000001
 44
0.00000000001
 40
0.0
 40
0.0
 40
0.0
 40
0.2779454797466485
 40
0.7862825386896779
 40
1.5429638907231165
 40
1.5429638907231165
 40
1.5429638907231165
 10
4235.3553028440592
 20
1367.5999939442561
 30
0.0
 10
4235.3895193886374
 20
1367.6004396365131
 30
0.0
 10
4235.8769301067441
 20
1367.606788471174
 30
0.0
 10
4236.3545695739094
 20
1367.834684325677
 30
0.0
 10
4236.7986784445584
 20
1368.046581745235
 30
0.0
 11
4235.3553028440592
 21
1367.5999939442561
 31
0.0
 11
4235.4240393382106
 21
1367.6008892808163
 31
0.0
 11
4235.5618157315057
 21
1367.6026839059823
 31
0.0
 11
4235.8461353683215
 21
1367.6286568402284
 31
0.0
 11
4236.0688655282902
 21
1367.6983665125829
 31
0.0
 11
4236.394170780166
 21
1367.853579227293
 31
0.0
 11
4236.7986784445584
 21
1368.046581745235
 31
0.0
  0
SPLINE
  5
36C
100
AcDbEntity
  8
0
  6
CONTINUOUS
 62
           3
100
AcDbSpline
210
0.0
220
0.0
230
1.0
 70
           0
 71
           3
 72
           8
 73
           5
 74
           7
 42
0.00000000001
 43
0.00000000001
 44
0.00000000001
 40
0.0
 40
0.0
 40
0.0
 40
0.2779464854372229
 40
0.7862840843769809
 40
1.5429642658567382
 40
1.5429642658567382
 40
1.5429642658567382
 10
4235.3553028440592
 20
1372.6000040770409
 30
0.0
 10
4235.3210862946953
 20
1372.5995583816691
 30
0.0
 10
4234.8336735755956
 20
1372.59320947744
 30
0.0
 10
4234.3560350960543
 20
1372.3653136934729
 30
0.0
 10
4233.9119270106867
 20
1372.1534162761091
 30
0.0
 11
4235.3553028440592
 21
1372.6000040770409
 31
0.0
 11
4235.2865660983061
 21
1372.5991087310697
 31
0.0
 11
4235.148788959772
 21
1372.5973140838996
 31
0.0
 11
4234.8644685905811
 21
1372.5713410900564
 31
0.0
 11
4234.6417382513582
 21
1372.501631321446
 31
0.0
 11
4234.3164338635379
 21
1372.3464187461252
 31
0.0
 11
4233.9119270106867
 21
1372.1534162761091
 31
0.0
  0
SPLINE
  5
36B
100
AcDbEntity
  8
0
  6
CONTINUOUS
 62
           3
100
AcDbSpline
210
0.0
220
0.0
230
1.0
 70
           0
 71
           3
 72
           8
 73
           5
 74
           7
 42
0.00000000001
 43
0.00000000001
 44
0.00000000001
 40
0.0
 40
0.0
 40
0.0
 40
0.2779464854282205
 40
0.7862840843632222
 40
1.542964265895167
 40
1.542964265895167
 40
1.542964265895167
 10
4244.0155569127173
 20
1367.5999939442561
 30
0.0
 10
4244.0497734620776
 20
1367.6004396396349
 30
0.0
 10
4244.5371861811664
 20
1367.606788543864
 30
0.0
 10
4245.0148246607132
 20
1367.834684327823
 30
0.0
 10
4245.4589327460781
 20
1368.0465817453121
 30
0.0
 11
4244.0155569127173
 21
1367.5999939442561
 31
0.0
 11
4244.0842936584668
 21
1367.6008892902325
 31
0.0
 11
4244.2220707969955
 21
1367.6026839374044
 31
0.0
 11
4244.5063911661819
 21
1367.6286569312458
 31
0.0
 11
4244.7291215053974
 21
1367.6983666998503
 31
0.0
 11
4245.0544258932259
 21
1367.8535792752023
 31
0.0
 11
4245.4589327460781
 21
1368.0465817453121
 31
0.0
  0
SPLINE
  5
36A
100
AcDbEntity
  8
0
  6
CONTINUOUS
 62
           3
100
AcDbSpline
210
0.0
220
0.0
230
1.0
 70
           0
 71
           3
 72
           8
 73
           5
 74
           7
 42
0.00000000001
 43
0.00000000001
 44
0.00000000001
 40
0.0
 40
0.0
 40
0.0
 40
0.2779454797516296
 40
0.7862825386954071
 40
1.5429638907280854
 40
1.5429638907280854
 40
1.5429638907280854
 10
4244.0155569127173
 20
1372.6000040770409
 30
0.0
 10
4243.9813403681374
 20
1372.599558384783
 30
0.0
 10
4243.4939296500243
 20
1372.5932095501271
 30
0.0
 10
4243.0162901828662
 20
1372.36531369562
 30
0.0
 10
4242.5721813122154
 20
1372.153416276062
 30
0.0
 11
4244.0155569127173
 21
1372.6000040770409
 31
0.0
 11
4243.9468204185641
 21
1372.5991087404807
 31
0.0
 11
4243.8090440252645
 21
1372.5973141153156
 31
0.0
 11
4243.5247243884487
 21
1372.5713411810716
 31
0.0
 11
4243.3019942284809
 21
1372.5016315087164
 31
0.0
 11
4242.976688976607
 21
1372.3464187940046
 31
0.0
 11
4242.5721813122154
 21
1372.153416276062
 31
0.0
  0
SPLINE
  5
369
100
AcDbEntity
  8
0
  6
CONTINUOUS
 62
           3
100
AcDbSpline
210
0.0
220
0.0
230
1.0
 70
           0
 71
           3
 72
           8
 73
           5
 74
           7
 42
0.00000000001
 43
0.00000000001
 44
0.00000000001
 40
0.0
 40
0.0
 40
0.0
 40
0.709710718913076
 40
1.6878556121186348
 40
2.9354150974109086
 40
2.9354150974109086
 40
2.9354150974109086
 10
4236.7986784445584
 20
1368.046581745235
 30
0.0
 10
4237.0120350262087
 20
1367.986940602696
 30
0.0
 10
4237.9523377071764
 20
1367.7240908429519
 30
0.0
 10
4238.9297750483984
 20
1367.6541020998659
 30
0.0
 10
4239.6854298783883
 20
1367.5999939442561
 30
0.0
 11
4236.7986784445584
 21
1368.046581745235
 31
0.0
 11
4237.0575406645139
 21
1367.974220075213
 31
0.0
 11
4237.407414161079
 21
1367.8764173502241
 31
0.0
 11
4237.9234970195685
 21
1367.754482866841
 31
0.0
 11
4238.381898502842
 21
1367.6933324312363
 31
0.0
 11
4238.9817196195063
 21
1367.6503826438059
 31
0.0
 11
4239.6854298783883
 21
1367.5999939442561
 31
0.0
  0
SPLINE
  5
368
100
AcDbEntity
  8
0
  6
CONTINUOUS
 62
           3
100
AcDbSpline
210
0.0
220
0.0
230
1.0
 70
           0
 71
           3
 72
           8
 73
           5
 74
           7
 42
0.00000000001
 43
0.00000000001
 44
0.00000000001
 40
0.0
 40
0.0
 40
0.0
 40
0.7273681394906899
 40
1.7065914567886487
 40
2.9387223240293787
 40
2.9387223240293787
 40
2.9387223240293787
 10
4239.6854298783883
 20
1367.5999939442561
 30
0.0
 10
4239.9241526577462
 20
1367.6054734833269
 30
0.0
 10
4240.901060303695
 20
1367.6278969974519
 30
0.0
 10
4241.8529220129576
 20
1367.8663776207211
 30
0.0
 10
4242.5721813120763
 20
1368.0465817453121
 30
0.0
 11
4239.6854298783883
 21
1367.5999939442561
 31
0.0
 11
4239.9685641716869
 21
1367.6064928859432
 31
0.0
 11
4240.3405214928662
 21
1367.6150306328632
 31
0.0
 11
4240.8663005322251
 21
1367.6510811733847
 31
0.0
 11
4241.322560028646
 21
1367.7335000657718
 31
0.0
 11
4241.9001463416589
 21
1367.8782092631313
 31
0.0
 11
4242.5721813120763
 21
1368.0465817453121
 31
0.0
  0
SPLINE
  5
367
100
AcDbEntity
  8
0
  6
CONTINUOUS
 62
           3
100
AcDbSpline
210
0.0
220
0.0
230
1.0
 70
           0
 71
           3
 72
           8
 73
           5
 74
           7
 42
0.00000000001
 43
0.00000000001
 44
0.00000000001
 40
0.0
 40
0.0
 40
0.0
 40
1.2321308673578346
 40
2.211354184655832
 40
2.938722324146477
 40
2.938722324146477
 40
2.938722324146477
 10
4242.5721813122154
 20
1372.153416276062
 30
0.0
 10
4241.8529220129576
 20
1372.3336204005791
 30
0.0
 10
4240.901060303695
 20
1372.572101023849
 30
0.0
 10
4239.9241526577462
 20
1372.5945245379701
 30
0.0
 10
4239.6854298783883
 20
1372.6000040770409
 30
0.0
 11
4242.5721813122154
 21
1372.153416276062
 31
0.0
 11
4241.900146341688
 21
1372.3217887581886
 31
0.0
 11
4241.3225600286241
 21
1372.4664979555346
 31
0.0
 11
4240.8663005322196
 21
1372.5489168479169
 31
0.0
 11
4240.3405214928662
 21
1372.5849673884354
 31
0.0
 11
4239.9685641716869
 21
1372.593505135354
 31
0.0
 11
4239.6854298783883
 21
1372.6000040770409
 31
0.0
  0
SPLINE
  5
366
100
AcDbEntity
  8
0
  6
CONTINUOUS
 62
           3
100
AcDbSpline
210
0.0
220
0.0
230
1.0
 70
           0
 71
           3
 72
           8
 73
           5
 74
           7
 42
0.00000000001
 43
0.00000000001
 44
0.00000000001
 40
0.0
 40
0.0
 40
0.0
 40
1.2475616964931251
 40
2.2257084622422227
 40
2.9354211178787835
 40
2.9354211178787835
 40
2.9354211178787835
 10
4239.6854298783883
 20
1372.6000040770409
 30
0.0
 10
4238.929773220967
 20
1372.5459088094719
 30
0.0
 10
4237.952332069297
 20
1372.475936633469
 30
0.0
 10
4237.012034860476
 20
1372.2130631111611
 30
0.0
 10
4236.7986784445584
 20
1372.153416276062
 30
0.0
 11
4239.6854298783883
 21
1372.6000040770409
 31
0.0
 11
4238.9817177235172
 21
1372.5496273656929
 31
0.0
 11
4238.3818945737466
 21
1372.5066877667873
 31
0.0
 11
4237.923492648345
 21
1372.445539360308
 31
0.0
 11
4237.4074118810413
 21
1372.3235964075068
 31
0.0
 11
4237.0575400116377
 21
1372.2257847264727
 31
0.0
 11
4236.7986784445584
 21
1372.153416276062
 31
0.0
  0
SPLINE
  5
365
100
AcDbEntity
  8
0
  6
CONTINUOUS
 62
           3
100
AcDbSpline
210
0.0
220
0.0
230
1.0
 70
           0
 71
           3
 72
           8
 73
           5
 74
           7
 42
0.00000000001
 43
0.00000000001
 44
0.00000000001
 40
0.0
 40
0.0
 40
0.0
 40
0.2779452695546096
 40
0.7862805426575715
 40
1.5429573554986242
 40
1.5429573554986242
 40
1.5429573554986242
 10
4235.3553028440592
 20
1372.6000040770409
 30
0.0
 10
4235.3895193875869
 20
1372.6004497818101
 30
0.0
 10
4235.8769296847968
 20
1372.6067987893659
 30
0.0
 10
4236.3545693850774
 20
1372.834686833085
 30
0.0
 10
4236.7986784445584
 20
1373.04657697686
 30
0.0
 11
4235.3553028440592
 21
1372.6000040770409
 31
0.0
 11
4235.4240393769987
 21
1372.6008994392644
 31
0.0
 11
4235.5618158887619
 21
1372.6026941163964
 31
0.0
 11
4235.8461351859387
 21
1372.628666380841
 31
0.0
 11
4236.0688654853984
 21
1372.6983738282354
 31
0.0
 11
4236.3941706750284
 21
1372.8535811178162
 31
0.0
 11
4236.7986784445584
 21
1373.04657697686
 31
0.0
  0
SPLINE
  5
364
100
AcDbEntity
  8
0
  6
CONTINUOUS
 62
           3
100
AcDbSpline
210
0.0
220
0.0
230
1.0
 70
           0
 71
           3
 72
           8
 73
           5
 74
           7
 42
0.00000000001
 43
0.00000000001
 44
0.00000000001
 40
0.0
 40
0.0
 40
0.0
 40
0.2779463803328208
 40
0.786283086339877
 40
1.5429609982600445
 40
1.5429609982600445
 40
1.5429609982600445
 10
4235.3553028440592
 20
1377.5999993086659
 30
0.0
 10
4235.3210862952183
 20
1377.599553607037
 30
0.0
 10
4234.8336737865884
 20
1377.593204616358
 30
0.0
 10
4234.3560351904753
 20
1377.3653127377879
 30
0.0
 10
4233.9119270106867
 20
1377.1534189582051
 30
0.0
 11
4235.3553028440592
 21
1377.5999993086659
 31
0.0
 11
4235.2865660789112
 21
1377.5991039498617
 31
0.0
 11
4235.1487888811489
 21
1377.5973092767078
 31
0.0
 11
4234.8644686817879
 21
1377.5713366177663
 31
0.0
 11
4234.641738272825
 21
1377.5016279616407
 31
0.0
 11
4234.3164339161158
 21
1377.3464180988553
 31
0.0
 11
4233.9119270106867
 21
1377.1534189582051
 31
0.0
  0
SPLINE
  5
363
100
AcDbEntity
  8
0
  6
CONTINUOUS
 62
           3
100
AcDbSpline
210
0.0
220
0.0
230
1.0
 70
           0
 71
           3
 72
           8
 73
           5
 74
           7
 42
0.00000000001
 43
0.00000000001
 44
0.00000000001
 40
0.0
 40
0.0
 40
0.0
 40
0.2779462752402385
 40
0.7862820883286045
 40
1.5429577306511488
 40
1.5429577306511488
 40
1.5429577306511488
 10
4244.0155569127173
 20
1372.6000040770409
 30
0.0
 10
4244.0497734610362
 20
1372.6004497849281
 30
0.0
 10
4244.5371857592181
 20
1372.606798862053
 30
0.0
 10
4245.0148244718794
 20
1372.8346868352339
 30
0.0
 10
4245.4589327460781
 20
1373.046576976911
 30
0.0
 11
4244.0155569127173
 21
1372.6000040770409
 31
0.0
 11
4244.0842936972631
 21
1372.6008994486783
 31
0.0
 11
4244.2220709542598
 21
1372.6026941478153
 31
0.0
 11
4244.5063909838009
 21
1372.628666471855
 31
0.0
 11
4244.7291214625075
 21
1372.6983740154988
 31
0.0
 11
4245.0544257880856
 21
1372.8535811657193
 31
0.0
 11
4245.4589327460781
 21
1373.046576976911
 31
0.0
  0
SPLINE
  5
362
100
AcDbEntity
  8
0
  6
CONTINUOUS
 62
           3
100
AcDbSpline
210
0.0
220
0.0
230
1.0
 70
           0
 71
           3
 72
           8
 73
           5
 74
           7
 42
0.00000000001
 43
0.00000000001
 44
0.00000000001
 40
0.0
 40
0.0
 40
0.0
 40
0.2779453746517701
 40
0.7862815406658656
 40
1.5429606230904371
 40
1.5429606230904371
 40
1.5429606230904371
 10
4244.0155569127173
 20
1377.5999993086659
 30
0.0
 10
4243.981340368664
 20
1377.5995536101509
 30
0.0
 10
4243.4939298610043
 20
1377.593204689045
 30
0.0
 10
4243.0162902772872
 20
1377.365312739938
 30
0.0
 10
4242.5721813122154
 20
1377.1534189582669
 30
0.0
 11
4244.0155569127173
 21
1377.5999993086659
 31
0.0
 11
4243.946820399171
 21
1377.599103959273
 31
0.0
 11
4243.8090439466396
 21
1377.5973093081241
 31
0.0
 11
4243.5247244796456
 21
1377.5713367087801
 31
0.0
 11
4243.3019942499332
 21
1377.5016281489065
 31
0.0
 11
4242.9766890291803
 21
1377.3464181467623
 31
0.0
 11
4242.5721813122154
 21
1377.1534189582669
 31
0.0
  0
SPLINE
  5
361
100
AcDbEntity
  8
0
  6
CONTINUOUS
 62
           3
100
AcDbSpline
210
0.0
220
0.0
230
1.0
 70
           0
 71
           3
 72
           8
 73
           5
 74
           7
 42
0.00000000001
 43
0.00000000001
 44
0.00000000001
 40
0.0
 40
0.0
 40
0.0
 40
0.7097104926811817
 40
1.687855056018011
 40
2.9354142011740803
 40
2.9354142011740803
 40
2.9354142011740803
 10
4236.7986784445584
 20
1373.04657697686
 30
0.0
 10
4237.0120350056686
 20
1372.9869356693489
 30
0.0
 10
4237.9523370083662
 20
1372.7240853468579
 30
0.0
 10
4238.9297748218851
 20
1372.654105412621
 30
0.0
 10
4239.6854298783883
 20
1372.6000040770409
 30
0.0
 11
4236.7986784445584
 21
1373.04657697686
 31
0.0
 11
4237.0575405788668
 21
1372.9742151236569
 31
0.0
 11
4237.4074138595715
 21
1372.8764121790696
 31
0.0
 11
4237.9234964680873
 21
1372.7544784200811
 31
0.0
 11
4238.3818979960415
 21
1372.6933308075384
 31
0.0
 11
4238.9817193795498
 21
1372.6503864274555
 31
0.0
 11
4239.6854298783883
 21
1372.6000040770409
 31
0.0
  0
SPLINE
  5
360
100
AcDbEntity
  8
0
  6
CONTINUOUS
 62
           3
100
AcDbSpline
210
0.0
220
0.0
230
1.0
 70
           0
 71
           3
 72
           8
 73
           5
 74
           7
 42
0.00000000001
 43
0.00000000001
 44
0.00000000001
 40
0.0
 40
0.0
 40
0.0
 40
0.7273675739554827
 40
1.7065896374626464
 40
2.9387184666011046
 40
2.9387184666011046
 40
2.9387184666011046
 10
4239.6854298783883
 20
1372.6000040770409
 30
0.0
 10
4239.9241526218693
 20
1372.605483801264
 30
0.0
 10
4240.9010591828064
 20
1372.6279080515189
 30
0.0
 10
4241.8529216577663
 20
1372.8663796942849
 30
0.0
 10
4242.5721813120763
 20
1373.046576976911
 30
0.0
 11
4239.6854298783883
 21
1372.6000040770409
 31
0.0
 11
4239.9685640592033
 21
1372.6065032367183
 31
0.0
 11
4240.3405211146874
 21
1372.6150412673048
 31
0.0
 11
4240.8662997037236
 21
1372.6510911338646
 31
0.0
 11
4241.3225593345942
 21
1372.7335071651169
 31
0.0
 11
4241.9001459905503
 21
1372.8782108826495
 31
0.0
 11
4242.5721813120763
 21
1373.046576976911
 31
0.0
  0
SPLINE
  5
35F
100
AcDbEntity
  8
0
  6
CONTINUOUS
 62
           3
100
AcDbSpline
210
0.0
220
0.0
230
1.0
 70
           0
 71
           3
 72
           8
 73
           5
 74
           7
 42
0.00000000001
 43
0.00000000001
 44
0.00000000001
 40
0.0
 40
0.0
 40
0.0
 40
1.232129848301474
 40
2.2113525386976418
 40
2.9387203954176369
 40
2.9387203954176369
 40
2.9387203954176369
 10
4242.5721813122154
 20
1377.1534189582669
 30
0.0
 10
4241.8529218353578
 20
1377.333619661815
 30
0.0
 10
4240.9010597432462
 20
1377.5720957948331
 30
0.0
 10
4239.9241526398064
 20
1377.5945196770219
 30
0.0
 10
4239.6854298783883
 20
1377.5999993086659
 30
0.0
 11
4242.5721813122154
 21
1377.1534189582669
 31
0.0
 11
4241.900146166131
 21
1377.3217882464442
 31
0.0
 11
4241.3225596815928
 21
1377.4664947038796
 31
0.0
 11
4240.8663001179648
 21
1377.5489121656949
 31
0.0
 11
4240.3405213037749
 21
1377.5849623692338
 31
0.0
 11
4239.9685641154438
 21
1377.5935002579859
 31
0.0
 11
4239.6854298783883
 21
1377.5999993086659
 31
0.0
  0
SPLINE
  5
35E
100
AcDbEntity
  8
0
  6
CONTINUOUS
 62
           3
100
AcDbSpline
210
0.0
220
0.0
230
1.0
 70
           0
 71
           3
 72
           8
 73
           5
 74
           7
 42
0.00000000001
 43
0.00000000001
 44
0.00000000001
 40
0.0
 40
0.0
 40
0.0
 40
1.2475604207866562
 40
2.2257060852955828
 40
2.9354176594296488
 40
2.9354176594296488
 40
2.9354176594296488
 10
4239.6854298783883
 20
1377.5999993086659
 30
0.0
 10
4238.9297740214352
 20
1377.5459010071061
 30
0.0
 10
4237.9523345388743
 20
1377.4759249520059
 30
0.0
 10
4237.0120349330764
 20
1377.2130630295719
 30
0.0
 10
4236.7986784445584
 20
1377.1534189582669
 30
0.0
 11
4239.6854298783883
 21
1377.5999993086659
 31
0.0
 11
4238.9817185515449
 21
1377.5496197777986
 31
0.0
 11
4238.3818962849209
 21
1377.5066777883162
 31
0.0
 11
4237.9234945582493
 21
1377.4455297788063
 31
0.0
 11
4237.4074128703269
 21
1377.3235914228978
 31
0.0
 11
4237.05754029526
 21
1377.225784110077
 31
0.0
 11
4236.7986784445584
 21
1377.1534189582669
 31
0.0
  0
SPLINE
  5
35D
100
AcDbEntity
  8
0
  6
CONTINUOUS
 62
           3
100
AcDbSpline
210
0.0
220
0.0
230
1.0
 70
           0
 71
           3
 72
           8
 73
           5
 74
           7
 42
0.00000000001
 43
0.00000000001
 44
0.00000000001
 40
0.0
 40
0.0
 40
0.0
 40
0.2779454797466383
 40
0.7862825386904746
 40
1.542963890722983
 40
1.542963890722983
 40
1.542963890722983
 10
4235.3553028440592
 20
1359.9999994040479
 30
0.0
 10
4235.3895193886374
 20
1360.0004450963061
 30
0.0
 10
4235.8769301067441
 20
1360.0067939309631
 30
0.0
 10
4236.3545695739094
 20
1360.23468978547
 30
0.0
 10
4236.7986784445584
 20
1360.4465872050239
 30
0.0
 11
4235.3553028440592
 21
1359.9999994040479
 31
0.0
 11
4235.4240393382097
 21
1360.0008947406086
 31
0.0
 11
4235.5618157315057
 21
1360.0026893657739
 31
0.0
 11
4235.8461353683215
 21
1360.0286623000184
 31
0.0
 11
4236.0688655282902
 21
1360.0983719723736
 31
0.0
 11
4236.3941707801669
 21
1360.2535846870844
 31
0.0
 11
4236.7986784445584
 21
1360.4465872050239
 31
0.0
  0
SPLINE
  5
35C
100
AcDbEntity
  8
0
  6
CONTINUOUS
 62
           3
100
AcDbSpline
210
0.0
220
0.0
230
1.0
 70
           0
 71
           3
 72
           8
 73
           5
 74
           7
 42
0.00000000001
 43
0.00000000001
 44
0.00000000001
 40
0.0
 40
0.0
 40
0.0
 40
0.2779462752374747
 40
0.7862820883289698
 40
1.5429577306136333
 40
1.5429577306136333
 40
1.5429577306136333
 10
4235.3553028440592
 20
1364.9999946356729
 30
0.0
 10
4235.3210862957458
 20
1364.9995489277901
 30
0.0
 10
4234.8336739975584
 20
1364.993199850662
 30
0.0
 10
4234.3560352848954
 20
1364.7653118774831
 30
0.0
 10
4233.9119270106867
 20
1364.5534217359159
 30
0.0
 11
4235.3553028440592
 21
1364.9999946356729
 31
0.0
 11
4235.286566059518
 21
1364.9990992640385
 31
0.0
 11
4235.1487888025222
 21
1364.9973045649017
 31
0.0
 11
4234.8644687729757
 21
1364.9713322408597
 31
0.0
 11
4234.6417382942618
 21
1364.9016246972139
 31
0.0
 11
4234.3164339686846
 21
1364.7464175470241
 31
0.0
 11
4233.9119270106867
 21
1364.5534217359159
 31
0.0
  0
SPLINE
  5
35B
100
AcDbEntity
  8
0
  6
CONTINUOUS
 62
           3
100
AcDbSpline
210
0.0
220
0.0
230
1.0
 70
           0
 71
           3
 72
           8
 73
           5
 74
           7
 42
0.00000000001
 43
0.00000000001
 44
0.00000000001
 40
0.0
 40
0.0
 40
0.0
 40
0.2779464854698519
 40
0.7862840844056858
 40
1.5429642659457083
 40
1.5429642659457083
 40
1.5429642659457083
 10
4244.0155569126773
 20
1359.999999403921
 30
0.0
 10
4244.0497734620776
 20
1360.000445099424
 30
0.0
 10
4244.5371861811664
 20
1360.0067940036531
 30
0.0
 10
4245.0148246607132
 20
1360.2346897876159
 30
0.0
 10
4245.4589327460781
 20
1360.4465872051219
 30
0.0
 11
4244.0155569126773
 21
1359.999999403921
 31
0.0
 11
4244.0842936584604
 21
1360.0008947499907
 31
0.0
 11
4244.2220707970109
 21
1360.002689397194
 31
0.0
 11
4244.5063911661855
 21
1360.0286623910351
 31
0.0
 11
4244.7291215053965
 21
1360.0983721596403
 31
0.0
 11
4245.0544258932259
 21
1360.2535847349986
 31
0.0
 11
4245.4589327460781
 21
1360.4465872051219
 31
0.0
  0
SPLINE
  5
35A
100
AcDbEntity
  8
0
  6
CONTINUOUS
 62
           3
100
AcDbSpline
210
0.0
220
0.0
230
1.0
 70
           0
 71
           3
 72
           8
 73
           5
 74
           7
 42
0.00000000001
 43
0.00000000001
 44
0.00000000001
 40
0.0
 40
0.0
 40
0.0
 40
0.2779452695527626
 40
0.7862805426557556
 40
1.5429573555005023
 40
1.5429573555005023
 40
1.5429573555005023
 10
4244.0155569127173
 20
1364.9999946356729
 30
0.0
 10
4243.9813403691878
 20
1364.999548930904
 30
0.0
 10
4243.4939300719852
 20
1364.993199923352
 30
0.0
 10
4243.0162903716964
 20
1364.7653118796329
 30
0.0
 10
4242.5721813122154
 20
1364.5534217358579
 30
0.0
 11
4244.0155569127173
 21
1364.9999946356729
 31
0.0
 11
4243.9468203797769
 21
1364.9990992734502
 31
0.0
 11
4243.8090438680165
 21
1364.9973045963191
 31
0.0
 11
4243.5247245708424
 21
1364.9713323318763
 31
0.0
 11
4243.30199427138
 21
1364.9016248844828
 31
0.0
 11
4242.9766890817473
 21
1364.7464175949017
 31
0.0
 11
4242.5721813122154
 21
1364.5534217358579
 31
0.0
  0
SPLINE
  5
359
100
AcDbEntity
  8
0
  6
CONTINUOUS
 62
           3
100
AcDbSpline
210
0.0
220
0.0
230
1.0
 70
           0
 71
           3
 72
           8
 73
           5
 74
           7
 42
0.00000000001
 43
0.00000000001
 44
0.00000000001
 40
0.0
 40
0.0
 40
0.0
 40
0.7097126556357039
 40
1.6878594213848097
 40
2.9354211178779428
 40
2.9354211178779428
 40
2.9354211178779428
 10
4236.7986784445584
 20
1360.4465872050239
 30
0.0
 10
4237.012034860476
 20
1360.386940369928
 30
0.0
 10
4237.952332069297
 20
1360.12406684762
 30
0.0
 10
4238.929773220967
 20
1360.0540946716169
 30
0.0
 10
4239.6854298783883
 20
1359.9999994040479
 30
0.0
 11
4236.7986784445584
 21
1360.4465872050239
 31
0.0
 11
4237.0575400116377
 21
1360.3742187546154
 31
0.0
 11
4237.4074118810404
 21
1360.2764070735825
 31
0.0
 11
4237.9234926483459
 21
1360.1544641207811
 31
0.0
 11
4238.3818945737466
 21
1360.0933157143018
 31
0.0
 11
4238.9817177235172
 21
1360.0503761153959
 31
0.0
 11
4239.6854298783883
 21
1359.9999994040479
 31
0.0
  0
SPLINE
  5
358
100
AcDbEntity
  8
0
  6
CONTINUOUS
 62
           3
100
AcDbSpline
210
0.0
220
0.0
230
1.0
 70
           0
 71
           3
 72
           8
 73
           5
 74
           7
 42
0.00000000001
 43
0.00000000001
 44
0.00000000001
 40
0.0
 40
0.0
 40
0.0
 40
0.7273681394906273
 40
1.7065914567886966
 40
2.9387223240343445
 40
2.9387223240343445
 40
2.9387223240343445
 10
4239.6854298783883
 20
1359.9999994040479
 30
0.0
 10
4239.9241526577462
 20
1360.005478943116
 30
0.0
 10
4240.901060303695
 20
1360.027902457241
 30
0.0
 10
4241.8529220129576
 20
1360.2663830805111
 30
0.0
 10
4242.5721813120763
 20
1360.4465872051219
 30
0.0
 11
4239.6854298783883
 21
1359.9999994040479
 31
0.0
 11
4239.9685641716869
 21
1360.0064983457332
 31
0.0
 11
4240.3405214928653
 21
1360.0150360926523
 31
0.0
 11
4240.8663005322251
 21
1360.051086633174
 31
0.0
 11
4241.322560028646
 21
1360.1335055255608
 31
0.0
 11
4241.9001463416598
 21
1360.2782147229264
 31
0.0
 11
4242.5721813120763
 21
1360.4465872051219
 31
0.0
  0
SPLINE
  5
357
100
AcDbEntity
  8
0
  6
CONTINUOUS
 62
           3
100
AcDbSpline
210
0.0
220
0.0
230
1.0
 70
           0
 71
           3
 72
           8
 73
           5
 74
           7
 42
0.00000000001
 43
0.00000000001
 44
0.00000000001
 40
0.0
 40
0.0
 40
0.0
 40
1.232128829260454
 40
2.2113508927680146
 40
2.9387184667234139
 40
2.9387184667234139
 40
2.9387184667234139
 10
4242.5721813122154
 20
1364.5534217358579
 30
0.0
 10
4241.8529216577663
 20
1364.733619018429
 30
0.0
 10
4240.9010591828064
 20
1364.9720906611981
 30
0.0
 10
4239.9241526218693
 20
1364.994514911454
 30
0.0
 10
4239.6854298783883
 20
1364.9999946356729
 30
0.0
 11
4242.5721813122154
 21
1364.5534217358579
 31
0.0
 11
4241.9001459905794
 21
1364.7217878300801
 31
0.0
 11
4241.3225593345705
 21
1364.8664915476045
 31
0.0
 11
4240.8662997037172
 21
1364.9489075788533
 31
0.0
 11
4240.3405211146874
 21
1364.9849574454126
 31
0.0
 11
4239.9685640592043
 21
1364.9934954759985
 31
0.0
 11
4239.6854298783883
 21
1364.9999946356729
 31
0.0
  0
SPLINE
  5
356
100
AcDbEntity
  8
0
  6
CONTINUOUS
 62
           3
100
AcDbSpline
210
0.0
220
0.0
230
1.0
 70
           0
 71
           3
 72
           8
 73
           5
 74
           7
 42
0.00000000001
 43
0.00000000001
 44
0.00000000001
 40
0.0
 40
0.0
 40
0.0
 40
1.2475591451560206
 40
2.2257037084928175
 40
2.9354142011732032
 40
2.9354142011732032
 40
2.9354142011732032
 10
4239.6854298783883
 20
1364.9999946356729
 30
0.0
 10
4238.9297748218851
 20
1364.9458933000931
 30
0.0
 10
4237.9523370083662
 20
1364.8759133658571
 30
0.0
 10
4237.0120350056686
 20
1364.6130630433661
 30
0.0
 10
4236.7986784445584
 20
1364.5534217358579
 30
0.0
 11
4239.6854298783883
 21
1364.9999946356729
 31
0.0
 11
4238.9817193795507
 21
1364.9496122852588
 31
0.0
 11
4238.3818979960415
 21
1364.9066679051764
 31
0.0
 11
4237.9234964680873
 21
1364.8455202926339
 31
0.0
 11
4237.4074138595715
 21
1364.7235865336452
 31
0.0
 11
4237.0575405788677
 21
1364.625783589059
 31
0.0
 11
4236.7986784445584
 21
1364.5534217358579
 31
0.0
  0
SPLINE
  5
355
100
AcDbEntity
  8
0
  6
CONTINUOUS
 62
           3
100
AcDbSpline
210
0.0
220
0.0
230
1.0
 70
           0
 71
           3
 72
           8
 73
           5
 74
           7
 42
0.00000000001
 43
0.00000000001
 44
0.00000000001
 40
0.0
 40
0.0
 40
0.0
 40
0.2779464854665173
 40
0.7862840844024268
 40
1.5429642659222305
 40
1.5429642659222305
 40
1.5429642659222305
 10
4244.0155569126773
 20
1359.999999403921
 30
0.0
 10
4244.0497734620776
 20
1359.9995537086761
 30
0.0
 10
4244.5371861811664
 20
1359.9932048044429
 30
0.0
 10
4245.0148246607132
 20
1359.7653090204799
 30
0.0
 10
4245.4589327460781
 20
1359.553411603021
 30
0.0
 11
4244.0155569126773
 21
1359.999999403921
 31
0.0
 11
4244.0842936584604
 21
1359.9991040580446
 31
0.0
 11
4244.22207079701
 21
1359.997309410905
 31
0.0
 11
4244.5063911661855
 21
1359.9713364170614
 31
0.0
 11
4244.7291215053992
 21
1359.9016266484539
 31
0.0
 11
4245.0544258932259
 21
1359.7464140731086
 31
0.0
 11
4245.4589327460781
 21
1359.553411603021
 31
0.0
  0
SPLINE
  5
354
100
AcDbEntity
  8
0
  6
CONTINUOUS
 62
           3
100
AcDbSpline
210
0.0
220
0.0
230
1.0
 70
           0
 71
           3
 72
           8
 73
           5
 74
           7
 42
0.00000000001
 43
0.00000000001
 44
0.00000000001
 40
0.0
 40
0.0
 40
0.0
 40
0.3778155284987199
 40
0.8942062233973662
 40
1.5357514174666138
 40
1.5357514174666138
 40
1.5357514174666138
 10
4233.9119270106867
 20
1359.553411603021
 30
0.0
 10
4234.0064450537484
 20
1359.6064716909059
 30
0.0
 10
4234.4763149516166
 20
1359.870245011374
 30
0.0
 10
4234.9649558910169
 20
1359.9423771861991
 30
0.0
 10
4235.3553028440592
 20
1359.9999994040479
 30
0.0
 11
4233.9119270106867
 21
1359.553411603021
 31
0.0
 11
4234.0324473111204
 21
1359.6210687140278
 31
0.0
 11
4234.2049721263002
 21
1359.7179198712797
 31
0.0
 11
4234.4629575710433
 21
1359.8402057052365
 31
0.0
 11
4234.6942282546388
 21
1359.9024129269187
 31
0.0
 11
4234.9948607201832
 21
1359.9467916758413
 31
0.0
 11
4235.3553028440592
 21
1359.9999994040479
 31
0.0
  0
SPLINE
  5
353
100
AcDbEntity
  8
0
  6
CONTINUOUS
 62
           3
100
AcDbSpline
210
0.0
220
0.0
230
1.0
 70
           0
 71
           3
 72
           8
 73
           5
 74
           7
 42
0.00000000001
 43
0.00000000001
 44
0.00000000001
 40
0.0
 40
0.0
 40
0.0
 40
0.6415450374771292
 40
1.1579303686103857
 40
1.5357381749053365
 40
1.5357381749053365
 40
1.5357381749053365
 10
4235.3553028440592
 20
1355.0000041724199
 30
0.0
 10
4234.9649568653258
 20
1355.0576336938759
 30
0.0
 10
4234.4763177860732
 20
1355.1297749168839
 30
0.0
 10
4234.0064451188273
 20
1355.3935224482559
 30
0.0
 10
4233.9119270106867
 20
1355.4465770722229
 30
0.0
 11
4235.3553028440592
 21
1355.0000041724199
 31
0.0
 11
4234.994861402417
 21
1355.0532186767994
 31
0.0
 11
4234.6942290349571
 21
1355.0976031470254
 31
0.0
 11
4234.4629592040328
 21
1355.1598096979619
 31
0.0
 11
4234.2049722090269
 21
1355.2820858110549
 31
0.0
 11
4234.0324473643423
 21
1355.3789269449474
 31
0.0
 11
4233.9119270106867
 21
1355.4465770722229
 31
0.0
  0
SPLINE
  5
352
100
AcDbEntity
  8
0
  6
CONTINUOUS
 62
           3
100
AcDbSpline
210
0.0
220
0.0
230
1.0
 70
           0
 71
           3
 72
           8
 73
           5
 74
           7
 42
0.00000000001
 43
0.00000000001
 44
0.00000000001
 40
0.0
 40
0.0
 40
0.0
 40
0.3539460334951224
 40
0.8643414136598189
 40
1.5431068114000444
 40
1.5431068114000444
 40
1.5431068114000444
 10
4235.3553028440592
 20
1359.9999994040479
 30
0.0
 10
4235.4647569991366
 20
1359.9953935078299
 30
0.0
 10
4235.9531148277574
 20
1359.97484311874
 30
0.0
 10
4236.4292545051594
 20
1359.7375336343539
 30
0.0
 10
4236.7986784446839
 20
1359.553411603021
 30
0.0
 11
4235.3553028440592
 21
1359.9999994040479
 31
0.0
 11
4235.4873888422944
 21
1359.9944411463539
 31
0.0
 11
4235.6647385268461
 21
1359.9869781657089
 31
0.0
 11
4235.9321112981006
 21
1359.9524131949254
 31
0.0
 11
4236.1574770100415
 21
1359.8729883765131
 31
0.0
 11
4236.453666116262
 21
1359.7253668120604
 31
0.0
 11
4236.7986784446839
 21
1359.553411603021
 31
0.0
  0
SPLINE
  5
351
100
AcDbEntity
  8
0
  6
CONTINUOUS
 62
           3
100
AcDbSpline
210
0.0
220
0.0
230
1.0
 70
           0
 71
           3
 72
           8
 73
           5
 74
           7
 42
0.00000000001
 43
0.00000000001
 44
0.00000000001
 40
0.0
 40
0.0
 40
0.0
 40
0.6787700534943651
 40
1.1891668948835652
 40
1.5431123743468111
 40
1.5431123743468111
 40
1.5431123743468111
 10
4236.7986784445584
 20
1355.446577072242
 30
0.0
 10
4236.4292546311162
 20
1355.2624483716061
 30
0.0
 10
4235.9531152073359
 20
1355.0251303367841
 30
0.0
 10
4235.4647570092984
 20
1355.0046045512611
 30
0.0
 10
4235.3553028440592
 20
1355.0000041724199
 30
0.0
 11
4236.7986784445584
 21
1355.446577072242
 31
0.0
 11
4236.4536661303509
 21
1355.2746155830066
 31
0.0
 11
4236.157476814612
 21
1355.1269885165727
 31
0.0
 11
4235.9321113486603
 21
1355.0475647466085
 31
0.0
 11
4235.6647381653565
 21
1355.0130097962931
 31
0.0
 11
4235.4873887570038
 21
1355.0055557678088
 31
0.0
 11
4235.3553028440592
 21
1355.0000041724199
 31
0.0
  0
SPLINE
  5
350
100
AcDbEntity
  8
0
  6
CONTINUOUS
 62
           3
100
AcDbSpline
210
0.0
220
0.0
230
1.0
 70
           0
 71
           3
 72
           8
 73
           5
 74
           7
 42
0.00000000001
 43
0.00000000001
 44
0.00000000001
 40
0.0
 40
0.0
 40
0.0
 40
0.2779452695527848
 40
0.7862805426566293
 40
1.5429573556195739
 40
1.5429573556195739
 40
1.5429573556195739
 10
4244.0155569127173
 20
1355.0000041724199
 30
0.0
 10
4243.9813403691878
 20
1355.0004498771891
 30
0.0
 10
4243.4939300719852
 20
1355.0067988847441
 30
0.0
 10
4243.0162903716964
 20
1355.234686928467
 30
0.0
 10
4242.5721813120763
 20
1355.4465770722229
 30
0.0
 11
4244.0155569127173
 21
1355.0000041724199
 31
0.0
 11
4243.9468203797769
 21
1355.0008995346434
 31
0.0
 11
4243.8090438680165
 21
1355.0026942117752
 31
0.0
 11
4243.524724570846
 21
1355.0286664762175
 31
0.0
 11
4243.3019942713981
 21
1355.0983739236067
 31
0.0
 11
4242.9766890817173
 21
1355.2535812131907
 31
0.0
 11
4242.5721813120763
 21
1355.4465770722229
 31
0.0
  0
SPLINE
  5
34F
100
AcDbEntity
  8
0
  6
CONTINUOUS
 62
           3
100
AcDbSpline
210
0.0
220
0.0
230
1.0
 70
           0
 71
           3
 72
           8
 73
           5
 74
           7
 42
0.00000000001
 43
0.00000000001
 44
0.00000000001
 40
0.0
 40
0.0
 40
0.0
 40
0.5558558490683105
 40
1.5343195422051348
 40
2.9385037456627776
 40
2.9385037456627776
 40
2.9385037456627776
 10
4239.6854298783883
 20
1355.000004172322
 30
0.0
 10
4239.6169967930064
 20
1355.0004498783021
 30
0.0
 10
4238.6421748439543
 20
1355.0067989106681
 30
0.0
 10
4237.6868960729771
 20
1355.234686929231
 30
0.0
 10
4236.7986784445584
 20
1355.446577072242
 30
0.0
 11
4239.6854298783883
 21
1355.000004172322
 31
0.0
 11
4239.5458150329605
 21
1355.0009134863224
 31
0.0
 11
4239.2638366674419
 21
1355.0027500163631
 31
0.0
 11
4238.6995160527285
 21
1355.0291829422185
 31
0.0
 11
4238.2498778555655
 21
1355.1003839311757
 31
0.0
 11
4237.6055871115186
 21
1355.2540837154697
 31
0.0
 11
4236.7986784445584
 21
1355.446577072242
 31
0.0
  0
SPLINE
  5
34E
100
AcDbEntity
  8
0
  6
CONTINUOUS
 62
           3
100
AcDbSpline
210
0.0
220
0.0
230
1.0
 70
           0
 71
           3
 72
           8
 73
           5
 74
           7
 42
0.00000000001
 43
0.00000000001
 44
0.00000000001
 40
0.0
 40
0.0
 40
0.0
 40
0.5558562714160742
 40
1.5343210643712788
 40
2.9385072682926525
 40
2.9385072682926525
 40
2.9385072682926525
 10
4239.6854298783883
 20
1359.9999994040479
 30
0.0
 10
4239.7538629658584
 20
1359.999553710677
 30
0.0
 10
4240.7286857567378
 20
1359.993204851213
 30
0.0
 10
4241.6839640614562
 20
1359.765309021863
 30
0.0
 10
4242.5721813122154
 20
1359.553411603069
 30
0.0
 11
4239.6854298783883
 21
1359.9999994040479
 31
0.0
 11
4239.8250447811206
 21
1359.9990901152978
 31
0.0
 11
4240.1070233143746
 21
1359.9972536357895
 31
0.0
 11
4240.6713443280005
 21
1359.9708199944766
 31
0.0
 11
4241.1209824841499
 21
1359.8996166396905
 31
0.0
 11
4241.7652729798192
 21
1359.7459115716215
 31
0.0
 11
4242.5721813122154
 21
1359.553411603069
 31
0.0
  0
CIRCLE
  5
34D
100
AcDbEntity
  8
1
  6
CONTINUOUS
 62
           7
100
AcDbCircle
 10
0.0
 20
5539.999999999999
 40
360.000000000002
  0
CIRCLE
  5
34C
100
AcDbEntity
  8
1
  6
CONTINUOUS
 62
           4
100
AcDbCircle
 10
0.0
 20
5539.999999999999
 40
125.0
  0
CIRCLE
  5
34B
100
AcDbEntity
  8
1
  6
CONTINUOUS
 62
           4
100
AcDbCircle
 10
0.0
 20
5539.999999999999
 40
100.9476
  0
CIRCLE
  5
34A
100
AcDbEntity
  8
1
  6
CONTINUOUS
 62
           3
100
AcDbCircle
 10
-491.52774467812
 20
1295.20084832705
 40
40.0
  0
CIRCLE
  5
349
100
AcDbEntity
  8
1
  6
CONTINUOUS
 62
           7
100
AcDbCircle
 10
4623.785433156709
 20
600.0
 40
15.0
  0
CIRCLE
  5
348
100
AcDbEntity
  8
1
  6
CONTINUOUS
 62
           2
100
AcDbCircle
 10
4623.785433156709
 20
600.0
 40
8.350000000001
  0
CIRCLE
  5
347
100
AcDbEntity
  8
1
  6
CONTINUOUS
 62
           7
100
AcDbCircle
 10
4623.785433156709
 20
600.0
 40
7.5
  0
ARC
  5
346
100
AcDbEntity
  8
1
  6
CONTINUOUS
 62
           7
100
AcDbCircle
 10
-657.980582219212
 20
5539.999999999999
 40
4.999999999997
100
AcDbArc
 50
-85.143317425418
 51
94.394618584461
  0
ARC
  5
345
100
AcDbEntity
  8
1
  6
CONTINUOUS
 62
           7
100
AcDbCircle
 10
-39.999999999996
 20
5589.999999999999
 40
620.0
100
AcDbArc
 50
-179.999999999999
 51
-175.836413410616
  0
ARC
  5
344
100
AcDbEntity
  8
1
  6
CONTINUOUS
 62
           7
100
AcDbCircle
 10
168.972870673508
 20
5919.519281324853
 40
5.0
100
AcDbArc
 50
161.151717651222
 51
-19.471065626763
  0
ARC
  5
343
100
AcDbEntity
  8
1
  6
CONTINUOUS
 62
           7
100
AcDbCircle
 10
18.000000000004
 20
5484.999785420928
 40
460.0
100
AcDbArc
 50
19.808653410673
 51
70.217542734251
  0
ARC
  5
342
100
AcDbEntity
  8
1
  6
CONTINUOUS
 62
           7
100
AcDbCircle
 10
-46.999999999996
 20
5494.999999999999
 40
525.000000000001
100
AcDbArc
 50
-89.633899153763
 51
-3.883455762483
  0
ARC
  5
341
100
AcDbEntity
  8
1
  6
CONTINUOUS
 62
           7
100
AcDbCircle
 10
477.10941262802
 20
5464.43329270734
 40
5.000000000002
100
AcDbArc
 50
86.935058466827
 51
-93.610617686046
  0
ARC
  5
340
100
AcDbEntity
  8
1
  6
CONTINUOUS
 62
           7
100
AcDbCircle
 10
452.450424338096
 20
5636.171306523446
 40
5.0
100
AcDbArc
 50
-90.0
 51
-71.125521506268
  0
ARC
  5
33F
100
AcDbEntity
  8
1
  6
CONTINUOUS
 62
           7
100
AcDbCircle
 10
18.000000000004
 20
5484.999785420928
 40
460.0
100
AcDbArc
 50
0.602232686388
 51
18.563086854737
  0
ARC
  5
33E
100
AcDbEntity
  8
1
  6
CONTINUOUS
 62
           7
100
AcDbCircle
 10
452.450424338096
 20
5636.171306523446
 40
5.000000000001
100
AcDbArc
 50
109.49726177166
 51
-90.0
  0
ARC
  5
33D
100
AcDbEntity
  8
1
  6
CONTINUOUS
 62
           7
100
AcDbCircle
 10
-39.999999999996
 20
5589.999999999999
 40
620.000000000001
100
AcDbArc
 50
-174.912285430338
 51
-90.336887134984
  0
ARC
  5
33C
100
AcDbEntity
  8
1
  6
CONTINUOUS
 62
           7
100
AcDbCircle
 10
-46.999999999996
 20
5494.999999999999
 40
525.000000000001
100
AcDbArc
 50
-2.792103456718
 51
-0.563719865862
  0
ARC
  5
33B
100
AcDbEntity
  8
1
  6
CONTINUOUS
 62
           7
100
AcDbCircle
 10
18.000000000004
 20
5484.999785420928
 40
459.999999999998
100
AcDbArc
 50
71.463109290188
 51
88.271493544498
  0
ARC
  5
33A
100
AcDbEntity
  8
1
  6
CONTINUOUS
 62
           7
100
AcDbCircle
 10
0.0
 20
5539.999999999999
 40
150.000000000002
100
AcDbArc
 50
-89.999999999999
 51
-23.882765003116
  0
ARC
  5
339
100
AcDbEntity
  8
1
  6
CONTINUOUS
 62
           7
100
AcDbCircle
 10
0.0
 20
5539.999999999999
 40
150.0
100
AcDbArc
 50
23.882765003116
 51
-89.999999999999
  0
ARC
  5
338
100
AcDbEntity
  8
7
  6
CONTINUOUS
 62
           7
100
AcDbCircle
 10
-113.959999999997
 20
3049.133628400002
 40
7.440000000001
100
AcDbArc
 50
122.681915000004
 51
180.0
  0
ARC
  5
337
100
AcDbEntity
  8
7
  6
CONTINUOUS
 62
           7
100
AcDbCircle
 10
-88.519999999999
 20
3075.160000000001
 40
3.84
100
AcDbArc
 50
90.0
 51
180.0
  0
ARC
  5
336
100
AcDbEntity
  8
7
  6
CONTINUOUS
 62
           7
100
AcDbCircle
 10
-94.759999999998
 20
3075.449360800002
 40
2.4
100
AcDbArc
 50
-55.000000000028
 51
0.0
  0
ARC
  5
335
100
AcDbEntity
  8
7
  6
CONTINUOUS
 62
           7
100
AcDbCircle
 10
85.52
 20
3075.160000000001
 40
3.84
100
AcDbArc
 50
0.0
 51
90.0
  0
ARC
  5
334
100
AcDbEntity
  8
7
  6
CONTINUOUS
 62
           7
100
AcDbCircle
 10
91.76
 20
3075.449360800002
 40
2.4
100
AcDbArc
 50
180.0
 51
-124.999999999972
  0
ARC
  5
333
100
AcDbEntity
  8
7
  6
CONTINUOUS
 62
           7
100
AcDbCircle
 10
116.507824400002
 20
3055.600000000003
 40
2.400000000001
100
AcDbArc
 50
-124.999999999947
 51
-90.0
  0
ARC
  5
332
100
AcDbEntity
  8
7
  6
CONTINUOUS
 62
           7
100
AcDbCircle
 10
117.560000000001
 20
3049.360000000002
 40
3.84
100
AcDbArc
 50
0.0
 51
90.0
  0
ARC
  5
331
100
AcDbEntity
  8
7
  6
CONTINUOUS
 62
           7
100
AcDbCircle
 10
4981.34543315671
 20
3049.360000000001
 40
3.839999999997
100
AcDbArc
 50
0.0
 51
90.0
  0
ARC
  5
330
100
AcDbEntity
  8
7
  6
CONTINUOUS
 62
           7
100
AcDbCircle
 10
4980.293257556708
 20
3055.600000000003
 40
2.400000000002
100
AcDbArc
 50
-124.999999999983
 51
-90.0
  0
ARC
  5
32F
100
AcDbEntity
  8
7
  6
CONTINUOUS
 62
           7
100
AcDbCircle
 10
4955.545433156707
 20
3075.449360800002
 40
2.400000000001
100
AcDbArc
 50
180.0
 51
-125.000000000007
  0
ARC
  5
32E
100
AcDbEntity
  8
7
  6
CONTINUOUS
 62
           7
100
AcDbCircle
 10
4949.305433156709
 20
3075.16
 40
3.839999999997
100
AcDbArc
 50
0.0
 51
90.0
  0
ARC
  5
32D
100
AcDbEntity
  8
7
  6
CONTINUOUS
 62
           7
100
AcDbCircle
 10
4769.025433156707
 20
3075.449360800002
 40
2.400000000001
100
AcDbArc
 50
-54.999999999992
 51
0.0
  0
ARC
  5
32C
100
AcDbEntity
  8
7
  6
CONTINUOUS
 62
           7
100
AcDbCircle
 10
4775.265433156705
 20
3075.16
 40
3.840000000001
100
AcDbArc
 50
90.0
 51
180.0
  0
ARC
  5
32B
100
AcDbEntity
  8
7
  6
CONTINUOUS
 62
           7
100
AcDbCircle
 10
4749.825433156706
 20
3049.133628400001
 40
7.440000000001
100
AcDbArc
 50
122.681915000002
 51
180.0
  0
ARC
  5
32A
100
AcDbEntity
  8
1
  6
CONTINUOUS
 62
           3
100
AcDbCircle
 10
4743.949000847755
 20
1925.0
 40
9.499999999999
100
AcDbArc
 50
-124.797812779177
 51
0.0
  0
ARC
  5
329
100
AcDbEntity
  8
1
  6
CONTINUOUS
 62
           3
100
AcDbCircle
 10
4743.949000847755
 20
1925.0
 40
9.5
100
AcDbArc
 50
0.0
 51
125.916957371441
  0
ARC
  5
328
100
AcDbEntity
  8
1
  6
CONTINUOUS
 62
           3
100
AcDbCircle
 10
4743.949000847755
 20
1925.0
 40
5.871834995062
100
AcDbArc
 50
0.0
 51
38.599713917924
  0
ARC
  5
327
100
AcDbEntity
  8
1
  6
CONTINUOUS
 62
           3
100
AcDbCircle
 10
4743.949000847755
 20
1925.0
 40
5.871834995069
100
AcDbArc
 50
38.599713917924
 51
90.0
  0
ARC
  5
326
100
AcDbEntity
  8
1
  6
CONTINUOUS
 62
           3
100
AcDbCircle
 10
4743.949000847755
 20
1925.0
 40
5.871834995066
100
AcDbArc
 50
-90.0
 51
0.0
  0
ARC
  5
325
100
AcDbEntity
  8
0
  6
CONTINUOUS
 62
           3
100
AcDbCircle
 10
4302.185429878227
 20
1368.000000000113
 40
2.5
100
AcDbArc
 50
0.0
 51
180.0
  0
ARC
  5
324
100
AcDbEntity
  8
0
  6
CONTINUOUS
 62
           3
100
AcDbCircle
 10
4302.185429878227
 20
1631.999999999898
 40
2.499999999991
100
AcDbArc
 50
180.0
 51
0.0
  0
ARC
  5
323
100
AcDbEntity
  8
0
  6
CONTINUOUS
 62
           3
100
AcDbCircle
 10
4177.185429878537
 20
1631.999999999898
 40
2.5
100
AcDbArc
 50
180.0
 51
0.0
  0
ARC
  5
322
100
AcDbEntity
  8
0
  6
CONTINUOUS
 62
           3
100
AcDbCircle
 10
4177.185429878537
 20
1368.000000000113
 40
2.49999999999
100
AcDbArc
 50
0.0
 51
180.0
  0
ARC
  5
321
100
AcDbEntity
  8
0
  6
CONTINUOUS
 62
           3
100
AcDbCircle
 10
4181.685429878527
 20
1508.999999999996
 40
0.999999999996
100
AcDbArc
 50
-90.0
 51
90.0
  0
ARC
  5
320
100
AcDbEntity
  8
0
  6
CONTINUOUS
 62
           3
100
AcDbCircle
 10
4181.685429878527
 20
1431.000000000062
 40
1.0
100
AcDbArc
 50
-90.0
 51
90.0
  0
ARC
  5
31F
100
AcDbEntity
  8
0
  6
CONTINUOUS
 62
           3
100
AcDbCircle
 10
4181.685429878527
 20
1409.000000000178
 40
0.999999999996
100
AcDbArc
 50
-90.0
 51
90.0
  0
ARC
  5
31E
100
AcDbEntity
  8
0
  6
CONTINUOUS
 62
           3
100
AcDbCircle
 10
4297.685429878236
 20
1409.000000000178
 40
1.0
100
AcDbArc
 50
90.0
 51
-90.0
  0
ARC
  5
31D
100
AcDbEntity
  8
0
  6
CONTINUOUS
 62
           3
100
AcDbCircle
 10
4297.685429878236
 20
1431.000000000062
 40
0.999999999996
100
AcDbArc
 50
90.0
 51
-90.0
  0
ARC
  5
31C
100
AcDbEntity
  8
0
  6
CONTINUOUS
 62
           3
100
AcDbCircle
 10
4297.685429878236
 20
1508.999999999996
 40
1.0
100
AcDbArc
 50
90.0
 51
-90.0
  0
ARC
  5
31B
100
AcDbEntity
  8
0
  6
CONTINUOUS
 62
           3
100
AcDbCircle
 10
4297.685429878236
 20
1530.99999999988
 40
1.0
100
AcDbArc
 50
90.0
 51
-90.0
  0
ARC
  5
31A
100
AcDbEntity
  8
0
  6
CONTINUOUS
 62
           3
100
AcDbCircle
 10
4181.685429878527
 20
1530.99999999988
 40
0.999999999997
100
AcDbArc
 50
-90.0
 51
90.0
  0
ARC
  5
319
100
AcDbEntity
  8
0
  6
CONTINUOUS
 62
           3
100
AcDbCircle
 10
4246.158932570175
 20
1389.999999999996
 40
0.900000000001
100
AcDbArc
 50
-90.0
 51
-62.733955549507
  0
ARC
  5
318
100
AcDbEntity
  8
0
  6
CONTINUOUS
 62
           3
100
AcDbCircle
 10
4233.211927186585
 20
1389.999999999996
 40
0.9
100
AcDbArc
 50
-117.266044450441
 51
-90.0
  0
ARC
  5
317
100
AcDbEntity
  8
0
  6
CONTINUOUS
 62
           3
100
AcDbCircle
 10
4239.685429878388
 20
1315.000000000058
 40
53.999999999964
100
AcDbArc
 50
180.0
 51
0.0
  0
ARC
  5
316
100
AcDbEntity
  8
0
  6
CONTINUOUS
 62
           3
100
AcDbCircle
 10
4239.685429878388
 20
1315.000000000058
 40
45.999999999971
100
AcDbArc
 50
180.0
 51
0.0
  0
ARC
  5
315
100
AcDbEntity
  8
0
  6
CONTINUOUS
 62
           3
100
AcDbCircle
 10
4239.685429878388
 20
1355.000000000222
 40
4.0
100
AcDbArc
 50
180.0
 51
0.0
  0
ARC
  5
314
100
AcDbEntity
  8
1
  6
CONTINUOUS
 62
           3
100
AcDbCircle
 10
-491.52774467812
 20
1295.20084832705
 40
28.75000000001
100
AcDbArc
 50
83.827497999999
 51
96.17250199999
  0
ARC
  5
313
100
AcDbEntity
  8
1
  6
CONTINUOUS
 62
           3
100
AcDbCircle
 10
-491.52774467812
 20
1295.20084832705
 40
28.749999999988
100
AcDbArc
 50
-96.172501999994
 51
-83.827497999994
  0
ARC
  5
312
100
AcDbEntity
  8
1
  6
CONTINUOUS
 62
           3
100
AcDbCircle
 10
-491.52774467812
 20
1295.20084832705
 40
10.75
100
AcDbArc
 50
0.0
 51
61.226493000001
  0
ARC
  5
311
100
AcDbEntity
  8
1
  6
CONTINUOUS
 62
           3
100
AcDbCircle
 10
-491.52774467812
 20
1295.20084832705
 40
10.75
100
AcDbArc
 50
-61.226493000021
 51
0.0
  0
ARC
  5
310
100
AcDbEntity
  8
1
  6
CONTINUOUS
 62
           3
100
AcDbCircle
 10
-491.52774467812
 20
1295.20084832705
 40
10.74999999999
100
AcDbArc
 50
118.773506999973
 51
-118.773506999952
  0
ARC
  5
30F
100
AcDbEntity
  8
1
  6
CONTINUOUS
 62
           3
100
AcDbCircle
 10
-487.48944267812
 20
1295.20084832705
 40
10.0
100
AcDbArc
 50
174.993206999976
 51
-174.993207000022
  0
ARC
  5
30E
100
AcDbEntity
  8
1
  6
CONTINUOUS
 62
           3
100
AcDbCircle
 10
-495.566047678114
 20
1295.20084832705
 40
9.999999999999
100
AcDbArc
 50
-5.006792999977
 51
5.006793000024
  0
ARC
  5
30D
100
AcDbEntity
  8
1
  6
CONTINUOUS
 62
           3
100
AcDbCircle
 10
-494.56524767812
 20
1323.287074327051
 40
0.499999999999
100
AcDbArc
 50
96.172501999307
 51
174.993206998663
  0
ARC
  5
30C
100
AcDbEntity
  8
1
  6
CONTINUOUS
 62
           3
100
AcDbCircle
 10
-488.490241678121
 20
1323.287074327051
 40
0.500000000005
100
AcDbArc
 50
5.006793001257
 51
83.827497998154
  0
ARC
  5
30B
100
AcDbEntity
  8
1
  6
CONTINUOUS
 62
           3
100
AcDbCircle
 10
-494.56524767812
 20
1267.114622327059
 40
0.499999999996
100
AcDbArc
 50
-174.993206999701
 51
-96.172501999296
  0
ARC
  5
30A
100
AcDbEntity
  8
1
  6
CONTINUOUS
 62
           3
100
AcDbCircle
 10
-488.490241678121
 20
1267.114622327059
 40
0.500000000002
100
AcDbArc
 50
-83.827497998165
 51
-5.006793000219
  0
LINE
  5
309
100
AcDbEntity
  8
1
  6
CONTINUOUS
 62
           7
100
AcDbLine
 10
216.000000000006
 20
5756.000000000001
 11
-269.999999999996
 21
5756.000000000001
  0
LINE
  5
308
100
AcDbEntity
  8
1
  6
CONTINUOUS
 62
           7
100
AcDbLine
 10
-215.999999999998
 20
5756.000000000001
 11
-215.999999999996
 21
5269.999999999999
  0
LINE
  5
307
100
AcDbEntity
  8
1
  6
CONTINUOUS
 62
           7
100
AcDbLine
 10
-215.999999999996
 20
5324.000000000001
 11
270.000000000004
 21
5324.000000000001
  0
LINE
  5
306
100
AcDbEntity
  8
1
  6
CONTINUOUS
 62
           7
100
AcDbLine
 10
216.0
 20
5324.000000000001
 11
216.000000000004
 21
5809.999999999999
  0
LINE
  5
305
100
AcDbEntity
  8
1
  6
CONTINUOUS
 62
           7
100
AcDbLine
 10
-649.999999999998
 20
5539.999999999999
 11
-650.226009489052
 21
5539.773990510947
  0
LINE
  5
304
100
AcDbEntity
  8
1
  6
CONTINUOUS
 62
           7
100
AcDbLine
 10
-56.963420073538
 20
4946.511401095432
 11
-52.720779386418
 21
4942.268760408312
  0
LINE
  5
303
100
AcDbEntity
  8
1
  6
CONTINUOUS
 62
           7
100
AcDbLine
 10
-52.720779386418
 20
4942.268760408312
 11
470.538238691626
 21
5465.527778486357
  0
LINE
  5
302
100
AcDbEntity
  8
1
  6
CONTINUOUS
 62
           7
100
AcDbLine
 10
-650.226009489052
 20
5539.773990510947
 11
-645.983368801932
 21
5535.531349823827
  0
LINE
  5
301
100
AcDbEntity
  8
1
  6
CONTINUOUS
 62
           7
100
AcDbLine
 10
-179.999999999996
 20
6009.999999999999
 11
-649.999999999998
 21
5539.999999999999
  0
LINE
  5
300
100
AcDbEntity
  8
1
  6
CONTINUOUS
 62
           7
100
AcDbLine
 10
-645.983368801932
 20
5535.531349823827
 11
-56.963420073538
 21
4946.511401095432
  0
LINE
  5
2FF
100
AcDbEntity
  8
1
  6
CONTINUOUS
 62
           7
100
AcDbLine
 10
445.000000000004
 20
5639.999999999999
 11
170.000000200063
 21
5914.999999999999
  0
LINE
  5
2FE
100
AcDbEntity
  8
1
  6
CONTINUOUS
 62
           7
100
AcDbLine
 10
-689.999999999996
 20
6049.999999999999
 11
-689.999999999996
 21
6014.999999999999
  0
LINE
  5
2FD
100
AcDbEntity
  8
1
  6
CONTINUOUS
 62
           7
100
AcDbLine
 10
-684.999999999996
 20
6009.999999999999
 11
-689.999999999996
 21
6014.999999999999
  0
LINE
  5
2FC
100
AcDbEntity
  8
1
  6
CONTINUOUS
 62
           7
100
AcDbLine
 10
-684.999999999996
 20
6009.999999999999
 11
35.000000000004
 21
6009.999999999999
  0
LINE
  5
2FB
100
AcDbEntity
  8
1
  6
CONTINUOUS
 62
           7
100
AcDbLine
 10
40.000000000004
 20
6014.999999999999
 11
35.000000000004
 21
6009.999999999999
  0
LINE
  5
2FA
100
AcDbEntity
  8
1
  6
CONTINUOUS
 62
           7
100
AcDbLine
 10
40.000000000004
 20
6014.999999999999
 11
40.000000000004
 21
6049.999999999999
  0
LINE
  5
2F9
100
AcDbEntity
  8
1
  6
CONTINUOUS
 62
           7
100
AcDbLine
 10
40.000000000004
 20
6049.999999999999
 11
40.000000000004
 21
6084.999999999999
  0
LINE
  5
2F8
100
AcDbEntity
  8
1
  6
CONTINUOUS
 62
           7
100
AcDbLine
 10
35.000000000004
 20
6089.999999999999
 11
40.000000000004
 21
6084.999999999999
  0
LINE
  5
2F7
100
AcDbEntity
  8
1
  6
CONTINUOUS
 62
           7
100
AcDbLine
 10
35.000000000004
 20
6089.999999999999
 11
-684.999999999996
 21
6089.999999999999
  0
LINE
  5
2F6
100
AcDbEntity
  8
1
  6
CONTINUOUS
 62
           7
100
AcDbLine
 10
-689.999999999996
 20
6084.999999999999
 11
-684.999999999996
 21
6089.999999999999
  0
LINE
  5
2F5
100
AcDbEntity
  8
1
  6
CONTINUOUS
 62
           7
100
AcDbLine
 10
-689.999999999996
 20
6084.999999999999
 11
-689.999999999996
 21
6049.999999999999
  0
LINE
  5
2F4
100
AcDbEntity
  8
1
  6
CONTINUOUS
 62
           7
100
AcDbLine
 10
-659.999999999996
 20
5989.999999999999
 11
-659.999999999996
 21
5589.999999999997
  0
LINE
  5
2F3
100
AcDbEntity
  8
1
  6
CONTINUOUS
 62
           7
100
AcDbLine
 10
31.875234341349
 20
5944.790474617624
 11
0.000000000002
 21
5999.999999999999
  0
LINE
  5
2F2
100
AcDbEntity
  8
1
  6
CONTINUOUS
 62
           7
100
AcDbLine
 10
-659.999999999996
 20
5989.999999999999
 11
-649.999999999996
 21
5999.999999999999
  0
LINE
  5
2F1
100
AcDbEntity
  8
1
  6
CONTINUOUS
 62
           7
100
AcDbLine
 10
-649.999999999996
 20
6009.999999999999
 11
-649.999999999996
 21
5999.999999999999
  0
LINE
  5
2F0
100
AcDbEntity
  8
1
  6
CONTINUOUS
 62
           7
100
AcDbLine
 10
0.000000000002
 20
5999.999999999999
 11
0.000000000004
 21
6009.999999999999
  0
LINE
  5
2EF
100
AcDbEntity
  8
1
  6
CONTINUOUS
 62
           4
100
AcDbLine
 10
40.000000000004
 20
6054.499999999999
 11
-689.999999999996
 21
6054.499999999999
  0
LINE
  5
2EE
100
AcDbEntity
  8
1
  6
CONTINUOUS
 62
           7
100
AcDbLine
 10
40.000000000004
 20
6049.999999999999
 11
-689.999999999996
 21
6049.999999999999
  0
LINE
  5
2ED
100
AcDbEntity
  8
1
  6
CONTINUOUS
 62
           4
100
AcDbLine
 10
-689.999999999996
 20
6045.499999999999
 11
40.000000000004
 21
6045.499999999999
  0
LINE
  5
2EC
100
AcDbEntity
  8
1
  6
CONTINUOUS
 62
           7
100
AcDbLine
 10
197.000000000002
 20
5591.499999999999
 11
197.000000000002
 21
5488.499999999999
  0
LINE
  5
2EB
100
AcDbEntity
  8
1
  6
CONTINUOUS
 62
           7
100
AcDbLine
 10
132.824966598197
 20
5488.499999999999
 11
132.824966598197
 21
5591.499999999999
  0
LINE
  5
2EA
100
AcDbEntity
  8
1
  6
CONTINUOUS
 62
           7
100
AcDbLine
 10
144.824966598197
 20
5603.499999999999
 11
185.000000000002
 21
5603.499999999999
  0
LINE
  5
2E9
100
AcDbEntity
  8
1
  6
CONTINUOUS
 62
           7
100
AcDbLine
 10
185.000000000002
 20
5476.499999999999
 11
144.824966598197
 21
5476.499999999999
  0
LINE
  5
2E8
100
AcDbEntity
  8
1
  6
CONTINUOUS
 62
           4
100
AcDbLine
 10
134.432661752784
 20
5597.499999999999
 11
117.908702762046
 21
5597.499999999999
  0
LINE
  5
2E7
100
AcDbEntity
  8
1
  6
CONTINUOUS
 62
           4
100
AcDbLine
 10
134.432661752784
 20
5482.499999999999
 11
117.908702762046
 21
5482.499999999999
  0
LINE
  5
2E6
100
AcDbEntity
  8
7
  6
CONTINUOUS
 62
           7
100
AcDbLine
 10
-93.383417599998
 20
3073.483396000001
 11
-117.977411599999
 21
3055.3957372
  0
LINE
  5
2E5
100
AcDbEntity
  8
7
  6
CONTINUOUS
 62
           7
100
AcDbLine
 10
0.0
 20
3079.000000000001
 11
-88.519999999999
 21
3079.000000000001
  0
LINE
  5
2E4
100
AcDbEntity
  8
7
  6
CONTINUOUS
 62
           7
100
AcDbLine
 10
-124.999999999998
 20
2983.186819200001
 11
-124.999999999998
 21
3016.231865248044
  0
LINE
  5
2E3
100
AcDbEntity
  8
7
  6
CONTINUOUS
 62
           7
100
AcDbLine
 10
125.0
 20
2983.186819200001
 11
-124.999999999998
 21
2983.186819200001
  0
LINE
  5
2E2
100
AcDbEntity
  8
7
  6
CONTINUOUS
 62
           7
100
AcDbLine
 10
121.400000000002
 20
3049.360000000002
 11
125.0
 21
3016.231865248044
  0
LINE
  5
2E1
100
AcDbEntity
  8
7
  6
CONTINUOUS
 62
           4
100
AcDbLine
 10
-120.190427599999
 20
3053.200000000002
 11
117.560000000001
 21
3053.200000000002
  0
LINE
  5
2E0
100
AcDbEntity
  8
7
  6
CONTINUOUS
 62
           7
100
AcDbLine
 10
90.3834164
 20
3073.483396000001
 11
115.131240800001
 21
3053.634035200002
  0
LINE
  5
2DF
100
AcDbEntity
  8
7
  6
CONTINUOUS
 62
           7
100
AcDbLine
 10
0.0
 20
3079.000000000001
 11
85.52
 21
3079.000000000001
  0
LINE
  5
2DE
100
AcDbEntity
  8
2
  6
CONTINUOUS
 62
           7
100
AcDbLine
 10
122.496396800001
 20
2690.900000000002
 11
109.242370400001
 21
2659.099999999999
  0
LINE
  5
2DD
100
AcDbEntity
  8
2
  6
CONTINUOUS
 62
           7
100
AcDbLine
 10
122.496396800001
 20
2690.900000000002
 11
122.496396800001
 21
2766.150000000002
  0
LINE
  5
2DC
100
AcDbEntity
  8
2
  6
CONTINUOUS
 62
           7
100
AcDbLine
 10
122.496396800001
 20
2969.3868192
 11
116.7446492
 21
2983.186819200001
  0
LINE
  5
2DB
100
AcDbEntity
  8
2
  6
CONTINUOUS
 62
           7
100
AcDbLine
 10
122.496396800001
 20
2969.3868192
 11
122.496396800001
 21
2766.150000000002
  0
LINE
  5
2DA
100
AcDbEntity
  8
2
  6
CONTINUOUS
 62
           4
100
AcDbLine
 10
104.060000000001
 20
2649.0
 11
104.060000000001
 21
2659.099999999999
  0
LINE
  5
2D9
100
AcDbEntity
  8
2
  6
CONTINUOUS
 62
           4
100
AcDbLine
 10
-107.06
 20
2659.099999999999
 11
-107.06
 21
2649.0
  0
LINE
  5
2D8
100
AcDbEntity
  8
2
  6
CONTINUOUS
 62
           7
100
AcDbLine
 10
-125.496396799999
 20
2766.150000000002
 11
-125.496396799999
 21
2969.386819199999
  0
LINE
  5
2D7
100
AcDbEntity
  8
2
  6
CONTINUOUS
 62
           7
100
AcDbLine
 10
-119.744649199998
 20
2983.186819200001
 11
-125.496396799999
 21
2969.386819199999
  0
LINE
  5
2D6
100
AcDbEntity
  8
2
  6
CONTINUOUS
 62
           7
100
AcDbLine
 10
-125.496396799999
 20
2766.150000000002
 11
-125.496396799999
 21
2690.900000000002
  0
LINE
  5
2D5
100
AcDbEntity
  8
2
  6
CONTINUOUS
 62
           7
100
AcDbLine
 10
-112.242370399998
 20
2659.099999999999
 11
-125.496396799999
 21
2690.900000000002
  0
LINE
  5
2D4
100
AcDbEntity
  8
1
  6
CONTINUOUS
 62
           4
100
AcDbLine
 10
125.0
 20
3016.231865248044
 11
-124.999999999998
 21
3016.231865248044
  0
LINE
  5
2D3
100
AcDbEntity
  8
7
  6
CONTINUOUS
 62
           7
100
AcDbLine
 10
-124.999999999998
 20
3016.231865248044
 11
-121.4
 21
3049.133628400002
  0
LINE
  5
2D2
100
AcDbEntity
  8
7
  6
CONTINUOUS
 62
           7
100
AcDbLine
 10
125.0
 20
3016.231865248044
 11
125.0
 21
2983.186819200001
  0
LINE
  5
2D1
100
AcDbEntity
  8
2
  6
CONTINUOUS
 62
           4
100
AcDbLine
 10
109.242370400001
 20
2659.099999999999
 11
-112.242370399998
 21
2659.099999999999
  0
LINE
  5
2D0
100
AcDbEntity
  8
1
  6
CONTINUOUS
 62
           7
100
AcDbLine
 10
185.000000000002
 20
2700.3
 11
134.496396800001
 21
2700.3
  0
LINE
  5
2CF
100
AcDbEntity
  8
1
  6
CONTINUOUS
 62
           7
100
AcDbLine
 10
134.496396800001
 20
2800.3
 11
185.000000000002
 21
2800.3
  0
LINE
  5
2CE
100
AcDbEntity
  8
1
  6
CONTINUOUS
 62
           7
100
AcDbLine
 10
122.496396800001
 20
2712.3
 11
122.496396800001
 21
2788.3
  0
LINE
  5
2CD
100
AcDbEntity
  8
1
  6
CONTINUOUS
 62
           7
100
AcDbLine
 10
197.000000000002
 20
2788.3
 11
197.000000000002
 21
2712.3
  0
LINE
  5
2CC
100
AcDbEntity
  8
1
  6
CONTINUOUS
 62
           2
100
AcDbLine
 10
4609.104995929125
 20
2205.0
 11
5016.317695900414
 21
2205.0
  0
LINE
  5
2CB
100
AcDbEntity
  8
1
  6
CONTINUOUS
 62
           2
100
AcDbLine
 10
4609.104995929125
 20
2565.0
 11
4609.104995929125
 21
2205.0
  0
LINE
  5
2CA
100
AcDbEntity
  8
1
  6
CONTINUOUS
 62
           2
100
AcDbLine
 10
5016.317695900414
 20
2565.0
 11
4609.104995929125
 21
2565.0
  0
LINE
  5
2C9
100
AcDbEntity
  8
1
  6
CONTINUOUS
 62
           2
100
AcDbLine
 10
5016.317695900414
 20
2205.0
 11
5016.317695900414
 21
2565.0
  0
LINE
  5
2C8
100
AcDbEntity
  8
1
  6
CONTINUOUS
 62
           7
100
AcDbLine
 10
5379.285433156709
 20
2165.0
 11
5368.285433156709
 21
2165.0
  0
LINE
  5
2C7
100
AcDbEntity
  8
1
  6
CONTINUOUS
 62
           4
100
AcDbLine
 10
5368.285433156709
 20
2160.5
 11
5333.785433156705
 21
2160.5
  0
LINE
  5
2C6
100
AcDbEntity
  8
1
  6
CONTINUOUS
 62
           7
100
AcDbLine
 10
5413.785433156709
 20
2165.0
 11
5413.785433156709
 21
2160.5
  0
LINE
  5
2C5
100
AcDbEntity
  8
1
  6
CONTINUOUS
 62
           4
100
AcDbLine
 10
5413.785433156709
 20
2160.5
 11
5379.285433156709
 21
2160.5
  0
LINE
  5
2C4
100
AcDbEntity
  8
1
  6
CONTINUOUS
 62
           7
100
AcDbLine
 10
5333.785433156705
 20
2160.5
 11
5333.785433156709
 21
2165.0
  0
LINE
  5
2C3
100
AcDbEntity
  8
1
  6
CONTINUOUS
 62
           4
100
AcDbLine
 10
5369.285433156709
 20
2125.0
 11
5378.285433156709
 21
2125.0
  0
LINE
  5
2C2
100
AcDbEntity
  8
1
  6
CONTINUOUS
 62
           7
100
AcDbLine
 10
5379.285433156709
 20
2605.000000000001
 11
5368.285433156727
 21
2605.000000000001
  0
LINE
  5
2C1
100
AcDbEntity
  8
1
  6
CONTINUOUS
 62
           4
100
AcDbLine
 10
5369.285433156709
 20
2645.000000000001
 11
5378.285433156709
 21
2645.000000000001
  0
LINE
  5
2C0
100
AcDbEntity
  8
1
  6
CONTINUOUS
 62
           7
100
AcDbLine
 10
5413.785433156709
 20
2605.0
 11
5413.785433156709
 21
2609.500000000003
  0
LINE
  5
2BF
100
AcDbEntity
  8
1
  6
CONTINUOUS
 62
           4
100
AcDbLine
 10
5413.785433156709
 20
2609.500000000003
 11
5379.285433156709
 21
2609.500000000001
  0
LINE
  5
2BE
100
AcDbEntity
  8
1
  6
CONTINUOUS
 62
           7
100
AcDbLine
 10
5333.785433156709
 20
2605.0
 11
5333.785433156709
 21
2609.5
  0
LINE
  5
2BD
100
AcDbEntity
  8
1
  6
CONTINUOUS
 62
           4
100
AcDbLine
 10
5333.785433156709
 20
2609.5
 11
5368.285433156709
 21
2609.500000000001
  0
LINE
  5
2BC
100
AcDbEntity
  8
1
  6
CONTINUOUS
 62
           7
100
AcDbLine
 10
5373.785433156709
 20
2125.0
 11
5373.785433156709
 21
2645.000000000001
  0
LINE
  5
2BB
100
AcDbEntity
  8
1
  6
CONTINUOUS
 62
           7
100
AcDbLine
 10
5379.285433156709
 20
2165.0
 11
5413.785433156709
 21
2165.0
  0
LINE
  5
2BA
100
AcDbEntity
  8
1
  6
CONTINUOUS
 62
           7
100
AcDbLine
 10
5413.785433156709
 20
2165.0
 11
5413.785433156709
 21
2605.0
  0
LINE
  5
2B9
100
AcDbEntity
  8
1
  6
CONTINUOUS
 62
           4
100
AcDbLine
 10
5378.285433156709
 20
2165.0
 11
5378.285433156709
 21
2605.000000000001
  0
LINE
  5
2B8
100
AcDbEntity
  8
1
  6
CONTINUOUS
 62
           4
100
AcDbLine
 10
5378.285433156709
 20
2159.5
 11
5378.285433156709
 21
2125.0
  0
LINE
  5
2B7
100
AcDbEntity
  8
1
  6
CONTINUOUS
 62
           4
100
AcDbLine
 10
5378.285433156709
 20
2645.000000000001
 11
5378.285433156709
 21
2610.500000000001
  0
LINE
  5
2B6
100
AcDbEntity
  8
1
  6
CONTINUOUS
 62
           7
100
AcDbLine
 10
5413.785433156709
 20
2605.0
 11
5379.285433156709
 21
2605.000000000001
  0
LINE
  5
2B5
100
AcDbEntity
  8
1
  6
CONTINUOUS
 62
           7
100
AcDbLine
 10
5368.285433156727
 20
2605.000000000001
 11
5333.785433156709
 21
2605.0
  0
LINE
  5
2B4
100
AcDbEntity
  8
1
  6
CONTINUOUS
 62
           4
100
AcDbLine
 10
5369.285433156709
 20
2610.500000000001
 11
5369.285433156709
 21
2645.000000000001
  0
LINE
  5
2B3
100
AcDbEntity
  8
1
  6
CONTINUOUS
 62
           4
100
AcDbLine
 10
5369.285433156709
 20
2125.0
 11
5369.285433156709
 21
2159.5
  0
LINE
  5
2B2
100
AcDbEntity
  8
1
  6
CONTINUOUS
 62
           4
100
AcDbLine
 10
5369.285433156709
 20
2605.000000000001
 11
5369.285433156709
 21
2165.0
  0
LINE
  5
2B1
100
AcDbEntity
  8
1
  6
CONTINUOUS
 62
           7
100
AcDbLine
 10
5333.785433156709
 20
2605.0
 11
5333.785433156709
 21
2165.0
  0
LINE
  5
2B0
100
AcDbEntity
  8
1
  6
CONTINUOUS
 62
           7
100
AcDbLine
 10
5333.785433156709
 20
2165.0
 11
5368.285433156709
 21
2165.0
  0
LINE
  5
2AF
100
AcDbEntity
  8
1
  6
CONTINUOUS
 62
           7
100
AcDbLine
 10
5330.249899250777
 20
2127.0
 11
4963.785433156709
 21
2127.0
  0
LINE
  5
2AE
100
AcDbEntity
  8
1
  6
CONTINUOUS
 62
           7
100
AcDbLine
 10
5333.785433156709
 20
2165.0
 11
5333.785433156709
 21
2132.0
  0
LINE
  5
2AD
100
AcDbEntity
  8
1
  6
CONTINUOUS
 62
           7
100
AcDbLine
 10
5333.785433156709
 20
2638.0
 11
5333.785433156709
 21
2605.0
  0
LINE
  5
2AC
100
AcDbEntity
  8
1
  6
CONTINUOUS
 62
           7
100
AcDbLine
 10
4266.054193565024
 20
2643.0
 11
4789.313211643066
 21
2643.0
  0
LINE
  5
2AB
100
AcDbEntity
  8
1
  6
CONTINUOUS
 62
           7
100
AcDbLine
 10
4266.054193565024
 20
2605.0
 11
4266.054193565024
 21
2643.0
  0
LINE
  5
2AA
100
AcDbEntity
  8
1
  6
CONTINUOUS
 62
           7
100
AcDbLine
 10
5330.249899250777
 20
2643.0
 11
5333.785433156709
 21
2638.0
  0
LINE
  5
2A9
100
AcDbEntity
  8
1
  6
CONTINUOUS
 62
           7
100
AcDbLine
 10
5333.785433156709
 20
2132.0
 11
5330.249899250777
 21
2127.0
  0
LINE
  5
2A8
100
AcDbEntity
  8
1
  6
CONTINUOUS
 62
           7
100
AcDbLine
 10
4266.054193565024
 20
2127.0
 11
4266.054193565024
 21
2165.0
  0
LINE
  5
2A7
100
AcDbEntity
  8
1
  6
CONTINUOUS
 62
           7
100
AcDbLine
 10
5333.785433156709
 20
2605.0
 11
4266.054193565024
 21
2605.0
  0
LINE
  5
2A6
100
AcDbEntity
  8
1
  6
CONTINUOUS
 62
           7
100
AcDbLine
 10
5333.785433156709
 20
2165.0
 11
4266.054193565024
 21
2165.0
  0
LINE
  5
2A5
100
AcDbEntity
  8
1
  6
CONTINUOUS
 62
           4
100
AcDbLine
 10
5133.785433156709
 20
2643.0
 11
5133.785433156709
 21
2643.999999999996
  0
LINE
  5
2A4
100
AcDbEntity
  8
1
  6
CONTINUOUS
 62
           4
100
AcDbLine
 10
5133.785433156709
 20
2643.999999999996
 11
5128.778496892317
 21
2649.0
  0
LINE
  5
2A3
100
AcDbEntity
  8
1
  6
CONTINUOUS
 62
           4
100
AcDbLine
 10
4598.785433156709
 20
2649.0
 11
4593.785433156709
 21
2643.999999999996
  0
LINE
  5
2A2
100
AcDbEntity
  8
1
  6
CONTINUOUS
 62
           4
100
AcDbLine
 10
5128.778496892317
 20
2649.0
 11
4598.785433156709
 21
2649.0
  0
LINE
  5
2A1
100
AcDbEntity
  8
1
  6
CONTINUOUS
 62
           4
100
AcDbLine
 10
4593.785433156709
 20
2643.999999999996
 11
4593.785433156709
 21
2643.0
  0
LINE
  5
2A0
100
AcDbEntity
  8
0
  6
CONTINUOUS
 62
           7
100
AcDbLine
 10
5161.985433156709
 20
2081.0
 11
5161.985433156709
 21
2127.0
  0
LINE
  5
29F
100
AcDbEntity
  8
0
  6
CONTINUOUS
 62
           7
100
AcDbLine
 10
4565.585433156708
 20
2127.0
 11
4565.585433156708
 21
2081.0
  0
LINE
  5
29E
100
AcDbEntity
  8
0
  6
CONTINUOUS
 62
           7
100
AcDbLine
 10
5183.785433156709
 20
2164.999999999996
 11
5117.997149501023
 21
2164.999999999996
  0
LINE
  5
29D
100
AcDbEntity
  8
1
  6
CONTINUOUS
 62
           4
100
AcDbLine
 10
5203.785433156709
 20
2081.0
 11
4523.785433156709
 21
2081.0
  0
LINE
  5
29C
100
AcDbEntity
  8
1
  6
CONTINUOUS
 62
           7
100
AcDbLine
 10
4523.785433156709
 20
2075.0
 11
5203.785433156709
 21
2075.0
  0
LINE
  5
29B
100
AcDbEntity
  8
1
  6
CONTINUOUS
 62
           4
100
AcDbLine
 10
4523.785433156709
 20
2081.0
 11
4523.785433156709
 21
2075.0
  0
LINE
  5
29A
100
AcDbEntity
  8
1
  6
CONTINUOUS
 62
           4
100
AcDbLine
 10
5203.785433156709
 20
2075.0
 11
5203.785433156709
 21
2081.0
  0
LINE
  5
299
100
AcDbEntity
  8
1
  6
CONTINUOUS
 62
           7
100
AcDbLine
 10
4303.796341633066
 20
2165.0
 11
4303.796341633066
 21
2605.0
  0
LINE
  5
298
100
AcDbEntity
  8
1
  6
DOT_CENTER
 62
           2
100
AcDbLine
 10
4863.785433156709
 20
2041.28830218332
 11
4863.785433156709
 21
3141.574769301889
  0
LINE
  5
297
100
AcDbEntity
  8
1
  6
CONTINUOUS
 62
           7
100
AcDbLine
 10
4963.785433156709
 20
2643.0
 11
4963.785433156709
 21
2605.0
  0
LINE
  5
296
100
AcDbEntity
  8
1
  6
CONTINUOUS
 62
           7
100
AcDbLine
 10
4789.313211643066
 20
2643.0
 11
4789.313211643066
 21
2605.0
  0
LINE
  5
295
100
AcDbEntity
  8
1
  6
CONTINUOUS
 62
           7
100
AcDbLine
 10
4963.785433156709
 20
2643.0
 11
5330.249899250777
 21
2643.0
  0
LINE
  5
294
100
AcDbEntity
  8
1
  6
CONTINUOUS
 62
           7
100
AcDbLine
 10
5238.785433156709
 20
2642.7
 11
5238.785433156709
 21
2605.0
  0
LINE
  5
293
100
AcDbEntity
  8
1
  6
CONTINUOUS
 62
           7
100
AcDbLine
 10
5238.785433156709
 20
2165.0
 11
5238.785433156709
 21
2127.0
  0
LINE
  5
292
100
AcDbEntity
  8
1
  6
CONTINUOUS
 62
           7
100
AcDbLine
 10
4963.785433156709
 20
2165.0
 11
4963.785433156709
 21
2127.0
  0
LINE
  5
291
100
AcDbEntity
  8
1
  6
CONTINUOUS
 62
           7
100
AcDbLine
 10
4789.313211643066
 20
2165.0
 11
4789.313211643066
 21
2127.0
  0
LINE
  5
290
100
AcDbEntity
  8
1
  6
CONTINUOUS
 62
           7
100
AcDbLine
 10
4789.313211643066
 20
2127.0
 11
4266.054193565024
 21
2127.0
  0
LINE
  5
28F
100
AcDbEntity
  8
1
  6
CONTINUOUS
 62
           7
100
AcDbLine
 10
4927.285433156709
 20
2788.299999999997
 11
4927.285433156709
 21
2712.299999999997
  0
LINE
  5
28E
100
AcDbEntity
  8
1
  6
CONTINUOUS
 62
           7
100
AcDbLine
 10
4800.285433156709
 20
2712.299999999997
 11
4800.285433156709
 21
2788.299999999997
  0
LINE
  5
28D
100
AcDbEntity
  8
1
  6
CONTINUOUS
 62
           7
100
AcDbLine
 10
4812.285433156709
 20
2800.299999999997
 11
4915.285433156709
 21
2800.299999999997
  0
LINE
  5
28C
100
AcDbEntity
  8
1
  6
CONTINUOUS
 62
           7
100
AcDbLine
 10
4915.285433156709
 20
2700.299999999997
 11
4812.285433156709
 21
2700.299999999997
  0
LINE
  5
28B
100
AcDbEntity
  8
2
  6
CONTINUOUS
 62
           4
100
AcDbLine
 10
4973.027803556708
 20
2659.099999999998
 11
4751.543062756706
 21
2659.099999999998
  0
LINE
  5
28A
100
AcDbEntity
  8
7
  6
CONTINUOUS
 62
           7
100
AcDbLine
 10
4988.785433156709
 20
3016.231865248043
 11
4988.785433156709
 21
2983.186819200001
  0
LINE
  5
289
100
AcDbEntity
  8
7
  6
CONTINUOUS
 62
           7
100
AcDbLine
 10
4738.785433156709
 20
3016.231865248043
 11
4742.385433156707
 21
3049.133628400001
  0
LINE
  5
288
100
AcDbEntity
  8
1
  6
CONTINUOUS
 62
           4
100
AcDbLine
 10
4988.785433156709
 20
3016.231865248043
 11
4738.785433156709
 21
3016.231865248043
  0
LINE
  5
287
100
AcDbEntity
  8
2
  6
CONTINUOUS
 62
           7
100
AcDbLine
 10
4751.543062756706
 20
2659.099999999998
 11
4738.289036356708
 21
2690.900000000001
  0
LINE
  5
286
100
AcDbEntity
  8
2
  6
CONTINUOUS
 62
           7
100
AcDbLine
 10
4738.289036356708
 20
2766.150000000001
 11
4738.289036356708
 21
2690.900000000001
  0
LINE
  5
285
100
AcDbEntity
  8
2
  6
CONTINUOUS
 62
           7
100
AcDbLine
 10
4744.040783956707
 20
2983.186819200001
 11
4738.289036356708
 21
2969.386819200001
  0
LINE
  5
284
100
AcDbEntity
  8
2
  6
CONTINUOUS
 62
           7
100
AcDbLine
 10
4738.289036356708
 20
2766.150000000001
 11
4738.289036356708
 21
2969.386819200001
  0
LINE
  5
283
100
AcDbEntity
  8
2
  6
CONTINUOUS
 62
           4
100
AcDbLine
 10
4756.725433156707
 20
2659.099999999998
 11
4756.725433156707
 21
2649.0
  0
LINE
  5
282
100
AcDbEntity
  8
2
  6
CONTINUOUS
 62
           7
100
AcDbLine
 10
4986.281829956706
 20
2969.386819200001
 11
4986.281829956706
 21
2766.150000000001
  0
LINE
  5
281
100
AcDbEntity
  8
2
  6
CONTINUOUS
 62
           7
100
AcDbLine
 10
4986.281829956706
 20
2969.386819200001
 11
4980.530082356707
 21
2983.186819200001
  0
LINE
  5
280
100
AcDbEntity
  8
2
  6
CONTINUOUS
 62
           7
100
AcDbLine
 10
4986.281829956706
 20
2690.900000000001
 11
4986.281829956706
 21
2766.150000000001
  0
LINE
  5
27F
100
AcDbEntity
  8
2
  6
CONTINUOUS
 62
           7
100
AcDbLine
 10
4986.281829956706
 20
2690.900000000001
 11
4973.027803556708
 21
2659.099999999998
  0
LINE
  5
27E
100
AcDbEntity
  8
7
  6
CONTINUOUS
 62
           7
100
AcDbLine
 10
4863.785433156709
 20
3079.000000000001
 11
4949.305433156709
 21
3079.000000000001
  0
LINE
  5
27D
100
AcDbEntity
  8
7
  6
CONTINUOUS
 62
           7
100
AcDbLine
 10
4954.168849556709
 20
3073.483396
 11
4978.91667395671
 21
3053.634035200001
  0
LINE
  5
27C
100
AcDbEntity
  8
7
  6
CONTINUOUS
 62
           4
100
AcDbLine
 10
4743.59500555671
 20
3053.200000000001
 11
4981.34543315671
 21
3053.200000000001
  0
LINE
  5
27B
100
AcDbEntity
  8
7
  6
CONTINUOUS
 62
           7
100
AcDbLine
 10
4985.185433156707
 20
3049.360000000001
 11
4988.785433156709
 21
3016.231865248043
  0
LINE
  5
27A
100
AcDbEntity
  8
7
  6
CONTINUOUS
 62
           7
100
AcDbLine
 10
4988.785433156709
 20
2983.186819200001
 11
4738.785433156709
 21
2983.186819200001
  0
LINE
  5
279
100
AcDbEntity
  8
7
  6
CONTINUOUS
 62
           7
100
AcDbLine
 10
4738.785433156709
 20
2983.186819200001
 11
4738.785433156709
 21
3016.231865248043
  0
LINE
  5
278
100
AcDbEntity
  8
7
  6
CONTINUOUS
 62
           7
100
AcDbLine
 10
4863.785433156709
 20
3079.000000000001
 11
4775.265433156705
 21
3079.000000000001
  0
LINE
  5
277
100
AcDbEntity
  8
7
  6
CONTINUOUS
 62
           7
100
AcDbLine
 10
4770.402015556707
 20
3073.483396
 11
4745.808021556704
 21
3055.395737200001
  0
LINE
  5
276
100
AcDbEntity
  8
2
  6
CONTINUOUS
 62
           4
100
AcDbLine
 10
4967.84543315671
 20
2649.0
 11
4967.84543315671
 21
2659.099999999998
  0
LINE
  5
275
100
AcDbEntity
  8
1
  6
DOT_CENTER
 62
           2
100
AcDbLine
 10
5474.373515433317
 20
2385.0
 11
4239.777228026773
 21
2385.0
  0
LINE
  5
274
100
AcDbEntity
  8
1
  6
CONTINUOUS
 62
           3
100
AcDbLine
 10
4743.949000847755
 20
1935.969655114602
 11
4738.274960824936
 21
1932.69374658004
  0
LINE
  5
273
100
AcDbEntity
  8
1
  6
CONTINUOUS
 62
           3
100
AcDbLine
 10
4753.449000847755
 20
1930.484827557302
 11
4743.949000847755
 21
1935.969655114602
  0
LINE
  5
272
100
AcDbEntity
  8
1
  6
CONTINUOUS
 62
           3
100
AcDbLine
 10
4753.449000847755
 20
1919.515172442699
 11
4753.449000847755
 21
1930.484827557302
  0
LINE
  5
271
100
AcDbEntity
  8
1
  6
CONTINUOUS
 62
           3
100
AcDbLine
 10
4743.949000847755
 20
1914.030344885398
 11
4753.449000847755
 21
1919.515172442699
  0
LINE
  5
270
100
AcDbEntity
  8
1
  6
CONTINUOUS
 62
           3
100
AcDbLine
 10
4738.274960824943
 20
1917.30625341996
 11
4743.949000847755
 21
1914.030344885398
  0
LINE
  5
26F
100
AcDbEntity
  8
1
  6
DOT_CENTER
 62
           3
100
AcDbLine
 10
4720.003952715335
 20
1925.0
 11
4761.453128419154
 21
1925.0
  0
LINE
  5
26E
100
AcDbEntity
  8
1
  6
CONTINUOUS
 62
           3
100
AcDbLine
 10
4733.174648028657
 20
1916.75
 11
4733.174648028657
 21
1917.30625341996
  0
LINE
  5
26D
100
AcDbEntity
  8
1
  6
CONTINUOUS
 62
           3
100
AcDbLine
 10
4733.174648028657
 20
1916.75
 11
4723.500037063357
 21
1916.75
  0
LINE
  5
26C
100
AcDbEntity
  8
1
  6
CONTINUOUS
 62
           3
100
AcDbLine
 10
4723.500037063357
 20
1916.75
 11
4723.500037063357
 21
1925.0
  0
LINE
  5
26B
100
AcDbEntity
  8
1
  6
CONTINUOUS
 62
           3
100
AcDbLine
 10
4723.500037063357
 20
1919.0
 11
4722.654231541175
 21
1919.0
  0
LINE
  5
26A
100
AcDbEntity
  8
1
  6
CONTINUOUS
 62
           3
100
AcDbLine
 10
4722.654231541175
 20
1917.30625341996
 11
4722.654231541175
 21
1925.0
  0
LINE
  5
269
100
AcDbEntity
  8
1
  6
CONTINUOUS
 62
           3
100
AcDbLine
 10
4722.654231541175
 20
1917.30625341996
 11
4721.949000847755
 21
1917.30625341996
  0
LINE
  5
268
100
AcDbEntity
  8
1
  6
CONTINUOUS
 62
           3
100
AcDbLine
 10
4721.449000847755
 20
1925.0
 11
4721.449000847755
 21
1917.80625341996
  0
LINE
  5
267
100
AcDbEntity
  8
1
  6
CONTINUOUS
 62
           3
100
AcDbLine
 10
4721.449000847755
 20
1932.19374658004
 11
4721.449000847755
 21
1925.0
  0
LINE
  5
266
100
AcDbEntity
  8
1
  6
CONTINUOUS
 62
           3
100
AcDbLine
 10
4721.949000847755
 20
1932.69374658004
 11
4722.654231541175
 21
1932.69374658004
  0
LINE
  5
265
100
AcDbEntity
  8
1
  6
CONTINUOUS
 62
           3
100
AcDbLine
 10
4722.654231541175
 20
1925.0
 11
4722.654231541175
 21
1932.69374658004
  0
LINE
  5
264
100
AcDbEntity
  8
1
  6
CONTINUOUS
 62
           3
100
AcDbLine
 10
4722.654231541175
 20
1931.0
 11
4723.500037063357
 21
1931.0
  0
LINE
  5
263
100
AcDbEntity
  8
1
  6
CONTINUOUS
 62
           3
100
AcDbLine
 10
4723.500037063357
 20
1933.25
 11
4733.174648028657
 21
1933.25
  0
LINE
  5
262
100
AcDbEntity
  8
1
  6
CONTINUOUS
 62
           3
100
AcDbLine
 10
4723.500037063357
 20
1925.0
 11
4723.500037063357
 21
1933.25
  0
LINE
  5
261
100
AcDbEntity
  8
1
  6
CONTINUOUS
 62
           3
100
AcDbLine
 10
4733.174648028657
 20
1932.69374658004
 11
4733.174648028657
 21
1933.25
  0
LINE
  5
260
100
AcDbEntity
  8
1
  6
CONTINUOUS
 62
           3
100
AcDbLine
 10
4733.174648028657
 20
1917.30625341996
 11
4733.174648028657
 21
1932.69374658004
  0
LINE
  5
25F
100
AcDbEntity
  8
1
  6
CONTINUOUS
 62
           3
100
AcDbLine
 10
4739.039763575347
 20
1917.30625341996
 11
4739.039763575347
 21
1932.69374658004
  0
LINE
  5
25E
100
AcDbEntity
  8
1
  6
CONTINUOUS
 62
           3
100
AcDbLine
 10
4739.039763575347
 20
1917.30625341996
 11
4733.174648028657
 21
1917.30625341996
  0
LINE
  5
25D
100
AcDbEntity
  8
1
  6
CONTINUOUS
 62
           3
100
AcDbLine
 10
4739.039763575347
 20
1932.69374658004
 11
4733.174648028657
 21
1932.69374658004
  0
LINE
  5
25C
100
AcDbEntity
  8
1
  6
CONTINUOUS
 62
           3
100
AcDbLine
 10
4739.039763575347
 20
1930.871834995069
 11
4743.949000847755
 21
1930.871834995069
  0
LINE
  5
25B
100
AcDbEntity
  8
1
  6
DOT_CENTER
 62
           3
100
AcDbLine
 10
4743.949000847755
 20
1938.643555804874
 11
4743.949000847755
 21
1907.508008255125
  0
LINE
  5
25A
100
AcDbEntity
  8
1
  6
CONTINUOUS
 62
           3
100
AcDbLine
 10
4743.949000847755
 20
1919.128165004934
 11
4739.039763575347
 21
1919.128165004934
  0
LINE
  5
259
100
AcDbEntity
  8
0
  6
CONTINUOUS
 62
           3
100
AcDbLine
 10
4238.630156650886
 20
1393.116392195192
 11
4239.685429878388
 21
1393.131740391393
  0
LINE
  5
258
100
AcDbEntity
  8
0
  6
CONTINUOUS
 62
           3
100
AcDbLine
 10
4237.689238659988
 20
1393.072016537193
 11
4238.630156650886
 21
1393.116392195192
  0
LINE
  5
257
100
AcDbEntity
  8
0
  6
CONTINUOUS
 62
           3
100
AcDbLine
 10
4236.964638730286
 20
1393.003411590991
 11
4237.689238659988
 21
1393.072016537193
  0
LINE
  5
256
100
AcDbEntity
  8
0
  6
CONTINUOUS
 62
           3
100
AcDbLine
 10
4236.534878997089
 20
1392.918020486792
 11
4236.964638730286
 21
1393.003411590991
  0
LINE
  5
255
100
AcDbEntity
  8
0
  6
CONTINUOUS
 62
           3
100
AcDbLine
 10
4236.446530245085
 20
1392.825089394992
 11
4236.534878997089
 21
1392.918020486792
  0
LINE
  5
254
100
AcDbEntity
  8
0
  6
CONTINUOUS
 62
           3
100
AcDbLine
 10
4236.685429852289
 20
1392.739541828793
 11
4236.446530245085
 21
1392.825089394992
  0
LINE
  5
253
100
AcDbEntity
  8
0
  6
CONTINUOUS
 62
           3
100
AcDbLine
 10
4242.924329511677
 20
1392.825089394992
 11
4242.685429904476
 21
1392.739541828793
  0
LINE
  5
252
100
AcDbEntity
  8
0
  6
CONTINUOUS
 62
           3
100
AcDbLine
 10
4242.835980759675
 20
1392.918020486792
 11
4242.924329511677
 21
1392.825089394992
  0
LINE
  5
251
100
AcDbEntity
  8
0
  6
CONTINUOUS
 62
           3
100
AcDbLine
 10
4242.406221026477
 20
1393.003411590991
 11
4242.835980759675
 21
1392.918020486792
  0
LINE
  5
250
100
AcDbEntity
  8
0
  6
CONTINUOUS
 62
           3
100
AcDbLine
 10
4241.681621096775
 20
1393.072016537193
 11
4242.406221026477
 21
1393.003411590991
  0
LINE
  5
24F
100
AcDbEntity
  8
0
  6
CONTINUOUS
 62
           3
100
AcDbLine
 10
4240.740703105887
 20
1393.116392195192
 11
4241.681621096775
 21
1393.072016537193
  0
LINE
  5
24E
100
AcDbEntity
  8
0
  6
CONTINUOUS
 62
           3
100
AcDbLine
 10
4239.685429878388
 20
1393.131740391393
 11
4240.740703105887
 21
1393.116392195192
  0
LINE
  5
24D
100
AcDbEntity
  8
FORMAT
  6
CONTINUOUS
 62
           3
100
AcDbLine
 10
4236.185429878286
 20
1392.596845102893
 11
4225.685429878297
 21
1392.596845102893
  0
LINE
  5
24C
100
AcDbEntity
  8
FORMAT
  6
DOT_CENTER
 62
           3
100
AcDbLine
 10
4239.685429878388
 20
1249.759397252255
 11
4239.685429878388
 21
1725.394390768569
  0
LINE
  5
24B
100
AcDbEntity
  8
FORMAT
  6
CONTINUOUS
 62
           3
100
AcDbLine
 10
4243.185429878477
 20
1392.596845102893
 11
4236.185429878286
 21
1392.596845102893
  0
LINE
  5
24A
100
AcDbEntity
  8
FORMAT
  6
CONTINUOUS
 62
           3
100
AcDbLine
 10
4253.685429878468
 20
1392.596845102893
 11
4243.185429878477
 21
1392.596845102893
  0
LINE
  5
249
100
AcDbEntity
  8
FORMAT
  6
DOT_CENTER
 62
           3
100
AcDbLine
 10
4164.785429878346
 20
1375.000000000007
 11
4151.185429878457
 21
1375.000000000007
  0
LINE
  5
248
100
AcDbEntity
  8
FORMAT
  6
DOT_CENTER
 62
           3
100
AcDbLine
 10
4164.785429878346
 20
1625.0
 11
4151.185429878457
 21
1625.0
  0
LINE
  5
247
100
AcDbEntity
  8
0
  6
CONTINUOUS
 62
           3
100
AcDbLine
 10
4174.685432262733
 20
1364.999994635815
 11
4159.285432345947
 21
1364.999994635815
  0
LINE
  5
246
100
AcDbEntity
  8
0
  6
CONTINUOUS
 62
           3
100
AcDbLine
 10
4178.185428179837
 20
1590.000003576231
 11
4178.185428179837
 21
1509.999999776395
  0
LINE
  5
245
100
AcDbEntity
  8
0
  6
CONTINUOUS
 62
           3
100
AcDbLine
 10
4181.18543053423
 20
1590.000003576231
 11
4178.185428179837
 21
1590.000003576231
  0
LINE
  5
244
100
AcDbEntity
  8
0
  6
CONTINUOUS
 62
           3
100
AcDbLine
 10
4181.18543053423
 20
1550.000000744964
 11
4181.18543053423
 21
1590.000003576231
  0
LINE
  5
243
100
AcDbEntity
  8
0
  6
CONTINUOUS
 62
           3
100
AcDbLine
 10
4181.18543053423
 20
1529.999999329481
 11
4181.18543053423
 21
1532.000001519879
  0
LINE
  5
242
100
AcDbEntity
  8
0
  6
CONTINUOUS
 62
           3
100
AcDbLine
 10
4178.185428179837
 20
1509.999999776395
 11
4179.760622479036
 21
1509.999999776395
  0
LINE
  5
241
100
AcDbEntity
  8
0
  6
CONTINUOUS
 62
           3
100
AcDbLine
 10
4299.685428537334
 20
1368.000000715314
 11
4299.685428537334
 21
1367.300003767014
  0
LINE
  5
240
100
AcDbEntity
  8
0
  6
CONTINUOUS
 62
           3
100
AcDbLine
 10
4304.685427494027
 20
1364.999994635815
 11
4304.685427494027
 21
1368.000000715314
  0
LINE
  5
23F
100
AcDbEntity
  8
0
  6
CONTINUOUS
 62
           3
100
AcDbLine
 10
4304.685427494027
 20
1635.000005364196
 11
4304.685427494027
 21
1631.999999284697
  0
LINE
  5
23E
100
AcDbEntity
  8
0
  6
CONTINUOUS
 62
           3
100
AcDbLine
 10
4299.685428537334
 20
1631.999999284697
 11
4299.685428537334
 21
1632.699996232994
  0
LINE
  5
23D
100
AcDbEntity
  8
0
  6
CONTINUOUS
 62
           3
100
AcDbLine
 10
4179.685431219427
 20
1631.999999284697
 11
4179.685431219427
 21
1632.699996232994
  0
LINE
  5
23C
100
AcDbEntity
  8
0
  6
CONTINUOUS
 62
           3
100
AcDbLine
 10
4174.685432262733
 20
1635.000005364196
 11
4174.685432262733
 21
1631.999999284697
  0
LINE
  5
23B
100
AcDbEntity
  8
0
  6
CONTINUOUS
 62
           3
100
AcDbLine
 10
4174.685432262733
 20
1635.000005364196
 11
4159.285432345947
 21
1635.000005364196
  0
LINE
  5
23A
100
AcDbEntity
  8
0
  6
CONTINUOUS
 62
           3
100
AcDbLine
 10
4174.685432262733
 20
1364.999994635815
 11
4174.685432262733
 21
1368.000000715314
  0
LINE
  5
239
100
AcDbEntity
  8
0
  6
CONTINUOUS
 62
           3
100
AcDbLine
 10
4179.685431219427
 20
1368.000000715314
 11
4179.685431219427
 21
1367.300003767014
  0
LINE
  5
238
100
AcDbEntity
  8
0
  6
CONTINUOUS
 62
           3
100
AcDbLine
 10
4178.185428179837
 20
1409.99999642378
 11
4178.185428179837
 21
1490.000000223612
  0
LINE
  5
237
100
AcDbEntity
  8
0
  6
CONTINUOUS
 62
           3
100
AcDbLine
 10
4178.185428179837
 20
1490.000000223612
 11
4179.685431219427
 21
1490.000000223612
  0
LINE
  5
236
100
AcDbEntity
  8
0
  6
CONTINUOUS
 62
           3
100
AcDbLine
 10
4181.18543053423
 20
1431.999996304559
 11
4181.18543053423
 21
1429.999999701962
  0
LINE
  5
235
100
AcDbEntity
  8
0
  6
CONTINUOUS
 62
           3
100
AcDbLine
 10
4179.760622479036
 20
1409.99999642378
 11
4178.185428179837
 21
1409.99999642378
  0
LINE
  5
234
100
AcDbEntity
  8
0
  6
CONTINUOUS
 62
           3
100
AcDbLine
 10
4301.185431576938
 20
1590.000003576231
 11
4301.185431576938
 21
1509.999999776395
  0
LINE
  5
233
100
AcDbEntity
  8
0
  6
CONTINUOUS
 62
           3
100
AcDbLine
 10
4301.185431576938
 20
1509.999999776395
 11
4299.610237277735
 21
1509.999999776395
  0
LINE
  5
232
100
AcDbEntity
  8
0
  6
CONTINUOUS
 62
           3
100
AcDbLine
 10
4298.185429222838
 20
1550.000000744964
 11
4298.185429222838
 21
1590.000003576231
  0
LINE
  5
231
100
AcDbEntity
  8
0
  6
CONTINUOUS
 62
           3
100
AcDbLine
 10
4298.185429222838
 20
1529.999999329481
 11
4298.185429222838
 21
1532.000001519879
  0
LINE
  5
230
100
AcDbEntity
  8
0
  6
CONTINUOUS
 62
           3
100
AcDbLine
 10
4298.185429222838
 20
1590.000003576231
 11
4301.185431576938
 21
1590.000003576231
  0
LINE
  5
22F
100
AcDbEntity
  8
0
  6
CONTINUOUS
 62
           3
100
AcDbLine
 10
4301.185431576938
 20
1409.99999642378
 11
4301.185431576938
 21
1490.000000223612
  0
LINE
  5
22E
100
AcDbEntity
  8
0
  6
CONTINUOUS
 62
           3
100
AcDbLine
 10
4299.610237277735
 20
1409.99999642378
 11
4301.185431576938
 21
1409.99999642378
  0
LINE
  5
22D
100
AcDbEntity
  8
0
  6
CONTINUOUS
 62
           3
100
AcDbLine
 10
4298.185429222838
 20
1431.999996304559
 11
4298.185429222838
 21
1429.999999701962
  0
LINE
  5
22C
100
AcDbEntity
  8
0
  6
CONTINUOUS
 62
           3
100
AcDbLine
 10
4301.185431576938
 20
1490.000000223612
 11
4299.685428537334
 21
1490.000000223612
  0
LINE
  5
22B
100
AcDbEntity
  8
0
  6
CONTINUOUS
 62
           3
100
AcDbLine
 10
4159.285432345947
 20
1635.000005364196
 11
4157.185426600046
 21
1635.000005364196
  0
LINE
  5
22A
100
AcDbEntity
  8
0
  6
CONTINUOUS
 62
           3
100
AcDbLine
 10
4157.185426600046
 20
1635.000005364196
 11
4157.185426600046
 21
1364.999994635815
  0
LINE
  5
229
100
AcDbEntity
  8
0
  6
CONTINUOUS
 62
           3
100
AcDbLine
 10
4159.285432345947
 20
1364.999994635815
 11
4157.185426600046
 21
1364.999994635815
  0
LINE
  5
228
100
AcDbEntity
  8
0
  6
CONTINUOUS
 62
           3
100
AcDbLine
 10
4179.685431219427
 20
1366.600006818713
 11
4179.685431219427
 21
1367.300003767014
  0
LINE
  5
227
100
AcDbEntity
  8
0
  6
CONTINUOUS
 62
           3
100
AcDbLine
 10
4299.685428537334
 20
1366.600006818713
 11
4299.685428537334
 21
1367.300003767014
  0
LINE
  5
226
100
AcDbEntity
  8
0
  6
CONTINUOUS
 62
           3
100
AcDbLine
 10
4179.685431219427
 20
1633.399993180996
 11
4179.685431219427
 21
1632.699996232994
  0
LINE
  5
225
100
AcDbEntity
  8
0
  6
CONTINUOUS
 62
           3
100
AcDbLine
 10
4299.685428537334
 20
1633.399993180996
 11
4299.685428537334
 21
1632.699996232994
  0
LINE
  5
224
100
AcDbEntity
  8
0
  6
CONTINUOUS
 62
           3
100
AcDbLine
 10
4294.685429580335
 20
1633.399993180996
 11
4299.685428537334
 21
1633.399993180996
  0
LINE
  5
223
100
AcDbEntity
  8
0
  6
CONTINUOUS
 62
           3
100
AcDbLine
 10
4299.685428537334
 20
1635.000005364196
 11
4294.685429580335
 21
1635.000005364196
  0
LINE
  5
222
100
AcDbEntity
  8
0
  6
CONTINUOUS
 62
           3
100
AcDbLine
 10
4299.685428537334
 20
1633.399993180996
 11
4299.685428537334
 21
1635.000005364196
  0
LINE
  5
221
100
AcDbEntity
  8
0
  6
CONTINUOUS
 62
           3
100
AcDbLine
 10
4294.685429580335
 20
1366.600006818713
 11
4299.685428537334
 21
1366.600006818713
  0
LINE
  5
220
100
AcDbEntity
  8
0
  6
CONTINUOUS
 62
           3
100
AcDbLine
 10
4299.685428537334
 20
1364.999994635815
 11
4294.685429580335
 21
1364.999994635815
  0
LINE
  5
21F
100
AcDbEntity
  8
0
  6
CONTINUOUS
 62
           3
100
AcDbLine
 10
4299.685428537334
 20
1366.600006818713
 11
4299.685428537334
 21
1364.999994635815
  0
LINE
  5
21E
100
AcDbEntity
  8
0
  6
CONTINUOUS
 62
           3
100
AcDbLine
 10
4284.685431666345
 20
1366.600006818713
 11
4286.685428268947
 21
1366.600006818713
  0
LINE
  5
21D
100
AcDbEntity
  8
0
  6
CONTINUOUS
 62
           3
100
AcDbLine
 10
4286.685428268947
 20
1364.999994635815
 11
4284.685431666345
 21
1364.999994635815
  0
LINE
  5
21C
100
AcDbEntity
  8
0
  6
CONTINUOUS
 62
           3
100
AcDbLine
 10
4286.685428268947
 20
1366.600006818713
 11
4286.685428268947
 21
1364.999994635815
  0
LINE
  5
21B
100
AcDbEntity
  8
0
  6
CONTINUOUS
 62
           3
100
AcDbLine
 10
4284.685431666345
 20
1633.399993180996
 11
4286.685428268947
 21
1633.399993180996
  0
LINE
  5
21A
100
AcDbEntity
  8
0
  6
CONTINUOUS
 62
           3
100
AcDbLine
 10
4286.685428268947
 20
1635.000005364196
 11
4284.685431666345
 21
1635.000005364196
  0
LINE
  5
219
100
AcDbEntity
  8
0
  6
CONTINUOUS
 62
           3
100
AcDbLine
 10
4286.685428268947
 20
1633.399993180996
 11
4286.685428268947
 21
1635.000005364196
  0
LINE
  5
218
100
AcDbEntity
  8
0
  6
CONTINUOUS
 62
           3
100
AcDbLine
 10
4292.685429252633
 20
1366.600006818713
 11
4294.685429580335
 21
1366.600006818713
  0
LINE
  5
217
100
AcDbEntity
  8
0
  6
CONTINUOUS
 62
           3
100
AcDbLine
 10
4294.685429580335
 20
1364.999994635815
 11
4292.685429252633
 21
1364.999994635815
  0
LINE
  5
216
100
AcDbEntity
  8
0
  6
CONTINUOUS
 62
           3
100
AcDbLine
 10
4292.685429252633
 20
1364.999994635815
 11
4292.685429252633
 21
1366.600006818713
  0
LINE
  5
215
100
AcDbEntity
  8
0
  6
CONTINUOUS
 62
           3
100
AcDbLine
 10
4292.685429252633
 20
1633.399993180996
 11
4294.685429580335
 21
1633.399993180996
  0
LINE
  5
214
100
AcDbEntity
  8
0
  6
CONTINUOUS
 62
           3
100
AcDbLine
 10
4294.685429580335
 20
1635.000005364196
 11
4292.685429252633
 21
1635.000005364196
  0
LINE
  5
213
100
AcDbEntity
  8
0
  6
CONTINUOUS
 62
           3
100
AcDbLine
 10
4292.685429252633
 20
1635.000005364196
 11
4292.685429252633
 21
1633.399993180996
  0
LINE
  5
212
100
AcDbEntity
  8
0
  6
CONTINUOUS
 62
           3
100
AcDbLine
 10
4184.685430176425
 20
1633.399993180996
 11
4179.685431219427
 21
1633.399993180996
  0
LINE
  5
211
100
AcDbEntity
  8
0
  6
CONTINUOUS
 62
           3
100
AcDbLine
 10
4179.685431219427
 20
1635.000005364196
 11
4184.685430176425
 21
1635.000005364196
  0
LINE
  5
210
100
AcDbEntity
  8
0
  6
CONTINUOUS
 62
           3
100
AcDbLine
 10
4179.685431219427
 20
1633.399993180996
 11
4179.685431219427
 21
1635.000005364196
  0
LINE
  5
20F
100
AcDbEntity
  8
0
  6
CONTINUOUS
 62
           3
100
AcDbLine
 10
4184.685430176425
 20
1366.600006818713
 11
4179.685431219427
 21
1366.600006818713
  0
LINE
  5
20E
100
AcDbEntity
  8
0
  6
CONTINUOUS
 62
           3
100
AcDbLine
 10
4179.685431219427
 20
1364.999994635815
 11
4184.685430176425
 21
1364.999994635815
  0
LINE
  5
20D
100
AcDbEntity
  8
0
  6
CONTINUOUS
 62
           3
100
AcDbLine
 10
4179.685431219427
 20
1366.600006818713
 11
4179.685431219427
 21
1364.999994635815
  0
LINE
  5
20C
100
AcDbEntity
  8
0
  6
CONTINUOUS
 62
           3
100
AcDbLine
 10
4194.685428090416
 20
1633.399993180996
 11
4284.685431666345
 21
1633.399993180996
  0
LINE
  5
20B
100
AcDbEntity
  8
0
  6
CONTINUOUS
 62
           3
100
AcDbLine
 10
4194.685428090416
 20
1635.000005364196
 11
4284.685431666345
 21
1635.000005364196
  0
LINE
  5
20A
100
AcDbEntity
  8
0
  6
CONTINUOUS
 62
           3
100
AcDbLine
 10
4194.685428090416
 20
1366.600006818713
 11
4284.685431666345
 21
1366.600006818713
  0
LINE
  5
209
100
AcDbEntity
  8
0
  6
CONTINUOUS
 62
           3
100
AcDbLine
 10
4194.685428090416
 20
1364.999994635815
 11
4284.685431666345
 21
1364.999994635815
  0
LINE
  5
208
100
AcDbEntity
  8
0
  6
CONTINUOUS
 62
           3
100
AcDbLine
 10
4194.685428090416
 20
1366.600006818713
 11
4192.685431487817
 21
1366.600006818713
  0
LINE
  5
207
100
AcDbEntity
  8
0
  6
CONTINUOUS
 62
           3
100
AcDbLine
 10
4192.685431487817
 20
1366.600006818713
 11
4192.685431487817
 21
1364.999994635815
  0
LINE
  5
206
100
AcDbEntity
  8
0
  6
CONTINUOUS
 62
           3
100
AcDbLine
 10
4192.685431487817
 20
1364.999994635815
 11
4194.685428090416
 21
1364.999994635815
  0
LINE
  5
205
100
AcDbEntity
  8
0
  6
CONTINUOUS
 62
           3
100
AcDbLine
 10
4194.685428090416
 20
1633.399993180996
 11
4192.685431487817
 21
1633.399993180996
  0
LINE
  5
204
100
AcDbEntity
  8
0
  6
CONTINUOUS
 62
           3
100
AcDbLine
 10
4192.685431487817
 20
1635.000005364196
 11
4194.685428090416
 21
1635.000005364196
  0
LINE
  5
203
100
AcDbEntity
  8
0
  6
CONTINUOUS
 62
           3
100
AcDbLine
 10
4192.685431487817
 20
1633.399993180996
 11
4192.685431487817
 21
1635.000005364196
  0
LINE
  5
202
100
AcDbEntity
  8
0
  6
CONTINUOUS
 62
           3
100
AcDbLine
 10
4186.685430504426
 20
1633.399993180996
 11
4184.685430176425
 21
1633.399993180996
  0
LINE
  5
201
100
AcDbEntity
  8
0
  6
CONTINUOUS
 62
           3
100
AcDbLine
 10
4186.685430504426
 20
1635.000005364196
 11
4186.685430504426
 21
1633.399993180996
  0
LINE
  5
200
100
AcDbEntity
  8
0
  6
CONTINUOUS
 62
           3
100
AcDbLine
 10
4184.685430176425
 20
1635.000005364196
 11
4186.685430504426
 21
1635.000005364196
  0
LINE
  5
1FF
100
AcDbEntity
  8
0
  6
CONTINUOUS
 62
           3
100
AcDbLine
 10
4186.685430504426
 20
1366.600006818713
 11
4184.685430176425
 21
1366.600006818713
  0
LINE
  5
1FE
100
AcDbEntity
  8
0
  6
CONTINUOUS
 62
           3
100
AcDbLine
 10
4184.685430176425
 20
1364.999994635815
 11
4186.685430504426
 21
1364.999994635815
  0
LINE
  5
1FD
100
AcDbEntity
  8
0
  6
CONTINUOUS
 62
           3
100
AcDbLine
 10
4186.685430504426
 20
1364.999994635815
 11
4186.685430504426
 21
1366.600006818713
  0
LINE
  5
1FC
100
AcDbEntity
  8
0
  6
CONTINUOUS
 62
           3
100
AcDbLine
 10
4299.610237277735
 20
1409.99999642378
 11
4297.985429562337
 21
1409.99999642378
  0
LINE
  5
1FB
100
AcDbEntity
  8
0
  6
CONTINUOUS
 62
           3
100
AcDbLine
 10
4297.985429562337
 20
1429.999999701962
 11
4299.685428537334
 21
1429.999999701962
  0
LINE
  5
1FA
100
AcDbEntity
  8
0
  6
CONTINUOUS
 62
           3
100
AcDbLine
 10
4299.685428537334
 20
1429.999999701962
 11
4299.685428537334
 21
1409.99999642378
  0
LINE
  5
1F9
100
AcDbEntity
  8
0
  6
CONTINUOUS
 62
           3
100
AcDbLine
 10
4179.685431219427
 20
1529.999999329481
 11
4181.385430194428
 21
1529.999999329481
  0
LINE
  5
1F8
100
AcDbEntity
  8
0
  6
CONTINUOUS
 62
           3
100
AcDbLine
 10
4179.685431219427
 20
1509.999999776395
 11
4179.685431219427
 21
1529.999999329481
  0
LINE
  5
1F7
100
AcDbEntity
  8
0
  6
CONTINUOUS
 62
           3
100
AcDbLine
 10
4181.385430194428
 20
1509.999999776395
 11
4179.760622479036
 21
1509.999999776395
  0
LINE
  5
1F6
100
AcDbEntity
  8
0
  6
CONTINUOUS
 62
           3
100
AcDbLine
 10
4179.760622479036
 20
1409.99999642378
 11
4181.385430194428
 21
1409.99999642378
  0
LINE
  5
1F5
100
AcDbEntity
  8
0
  6
CONTINUOUS
 62
           3
100
AcDbLine
 10
4181.385430194428
 20
1429.999999701962
 11
4179.685431219427
 21
1429.999999701962
  0
LINE
  5
1F4
100
AcDbEntity
  8
0
  6
CONTINUOUS
 62
           3
100
AcDbLine
 10
4179.685431219427
 20
1429.999999701962
 11
4179.685431219427
 21
1409.99999642378
  0
LINE
  5
1F3
100
AcDbEntity
  8
0
  6
CONTINUOUS
 62
           3
100
AcDbLine
 10
4181.385430194428
 20
1529.999999329481
 11
4181.685431547428
 21
1529.999999329481
  0
LINE
  5
1F2
100
AcDbEntity
  8
0
  6
CONTINUOUS
 62
           3
100
AcDbLine
 10
4181.685431547428
 20
1509.999999776395
 11
4181.385430194428
 21
1509.999999776395
  0
LINE
  5
1F1
100
AcDbEntity
  8
0
  6
CONTINUOUS
 62
           3
100
AcDbLine
 10
4179.685431219427
 20
1508.000000379899
 11
4181.685431547428
 21
1508.000000379899
  0
LINE
  5
1F0
100
AcDbEntity
  8
0
  6
CONTINUOUS
 62
           3
100
AcDbLine
 10
4179.685431219427
 20
1508.000000379899
 11
4179.685431219427
 21
1431.999996304559
  0
LINE
  5
1EF
100
AcDbEntity
  8
0
  6
CONTINUOUS
 62
           3
100
AcDbLine
 10
4179.685431219427
 20
1431.999996304559
 11
4181.685431547428
 21
1431.999996304559
  0
LINE
  5
1EE
100
AcDbEntity
  8
0
  6
CONTINUOUS
 62
           3
100
AcDbLine
 10
4181.685431547428
 20
1429.999999701962
 11
4181.385430194428
 21
1429.999999701962
  0
LINE
  5
1ED
100
AcDbEntity
  8
0
  6
CONTINUOUS
 62
           3
100
AcDbLine
 10
4181.385430194428
 20
1409.99999642378
 11
4181.685431547428
 21
1409.99999642378
  0
LINE
  5
1EC
100
AcDbEntity
  8
0
  6
CONTINUOUS
 62
           3
100
AcDbLine
 10
4181.685431547428
 20
1407.999999821183
 11
4179.685431219427
 21
1407.999999821183
  0
LINE
  5
1EB
100
AcDbEntity
  8
0
  6
CONTINUOUS
 62
           3
100
AcDbLine
 10
4179.685431219427
 20
1391.699999570792
 11
4179.685431219427
 21
1407.999999821183
  0
LINE
  5
1EA
100
AcDbEntity
  8
0
  6
CONTINUOUS
 62
           3
100
AcDbLine
 10
4299.685428537334
 20
1391.699999570792
 11
4299.685428537334
 21
1407.999999821183
  0
LINE
  5
1E9
100
AcDbEntity
  8
0
  6
CONTINUOUS
 62
           3
100
AcDbLine
 10
4297.685428209335
 20
1407.999999821183
 11
4299.685428537334
 21
1407.999999821183
  0
LINE
  5
1E8
100
AcDbEntity
  8
0
  6
CONTINUOUS
 62
           3
100
AcDbLine
 10
4297.985429562337
 20
1409.99999642378
 11
4297.685428209335
 21
1409.99999642378
  0
LINE
  5
1E7
100
AcDbEntity
  8
0
  6
CONTINUOUS
 62
           3
100
AcDbLine
 10
4297.685428209335
 20
1429.999999701962
 11
4297.985429562337
 21
1429.999999701962
  0
LINE
  5
1E6
100
AcDbEntity
  8
0
  6
CONTINUOUS
 62
           3
100
AcDbLine
 10
4299.685428537334
 20
1431.999996304559
 11
4297.685428209335
 21
1431.999996304559
  0
LINE
  5
1E5
100
AcDbEntity
  8
0
  6
CONTINUOUS
 62
           3
100
AcDbLine
 10
4299.685428537334
 20
1508.000000379899
 11
4299.685428537334
 21
1431.999996304559
  0
LINE
  5
1E4
100
AcDbEntity
  8
0
  6
CONTINUOUS
 62
           3
100
AcDbLine
 10
4299.685428537334
 20
1508.000000379899
 11
4297.685428209335
 21
1508.000000379899
  0
LINE
  5
1E3
100
AcDbEntity
  8
0
  6
CONTINUOUS
 62
           3
100
AcDbLine
 10
4297.685428209335
 20
1509.999999776395
 11
4297.985429562337
 21
1509.999999776395
  0
LINE
  5
1E2
100
AcDbEntity
  8
0
  6
CONTINUOUS
 62
           3
100
AcDbLine
 10
4297.985429562337
 20
1529.999999329481
 11
4297.685428209335
 21
1529.999999329481
  0
LINE
  5
1E1
100
AcDbEntity
  8
0
  6
CONTINUOUS
 62
           3
100
AcDbLine
 10
4297.685428209335
 20
1532.000001519879
 11
4299.685428537334
 21
1532.000001519879
  0
LINE
  5
1E0
100
AcDbEntity
  8
0
  6
CONTINUOUS
 62
           3
100
AcDbLine
 10
4299.685428537334
 20
1548.300001770265
 11
4299.685428537334
 21
1532.000001519879
  0
LINE
  5
1DF
100
AcDbEntity
  8
0
  6
CONTINUOUS
 62
           3
100
AcDbLine
 10
4179.685431219427
 20
1548.300001770265
 11
4179.685431219427
 21
1532.000001519879
  0
LINE
  5
1DE
100
AcDbEntity
  8
0
  6
CONTINUOUS
 62
           3
100
AcDbLine
 10
4181.685431547428
 20
1532.000001519879
 11
4179.685431219427
 21
1532.000001519879
  0
LINE
  5
1DD
100
AcDbEntity
  8
0
  6
CONTINUOUS
 62
           3
100
AcDbLine
 10
4297.985429562337
 20
1509.999999776395
 11
4299.610237277735
 21
1509.999999776395
  0
LINE
  5
1DC
100
AcDbEntity
  8
0
  6
CONTINUOUS
 62
           3
100
AcDbLine
 10
4299.685428537334
 20
1509.999999776395
 11
4299.685428537334
 21
1529.999999329481
  0
LINE
  5
1DB
100
AcDbEntity
  8
0
  6
CONTINUOUS
 62
           3
100
AcDbLine
 10
4299.685428537334
 20
1529.999999329481
 11
4297.985429562337
 21
1529.999999329481
  0
LINE
  5
1DA
100
AcDbEntity
  8
0
  6
CONTINUOUS
 62
           3
100
AcDbLine
 10
4299.685428537334
 20
1548.799999058065
 11
4299.685428537334
 21
1548.300001770265
  0
LINE
  5
1D9
100
AcDbEntity
  8
0
  6
CONTINUOUS
 62
           3
100
AcDbLine
 10
4179.685431219427
 20
1548.799999058065
 11
4179.685431219427
 21
1548.300001770265
  0
LINE
  5
1D8
100
AcDbEntity
  8
0
  6
CONTINUOUS
 62
           3
100
AcDbLine
 10
4179.685431219427
 20
1391.199998557593
 11
4179.685431219427
 21
1391.699999570792
  0
LINE
  5
1D7
100
AcDbEntity
  8
0
  6
CONTINUOUS
 62
           3
100
AcDbLine
 10
4299.685428537334
 20
1391.199998557593
 11
4299.685428537334
 21
1391.699999570792
  0
LINE
  5
1D6
100
AcDbEntity
  8
0
  6
CONTINUOUS
 62
           3
100
AcDbLine
 10
4242.685429904476
 20
1550.000000744964
 11
4242.935429945476
 21
1550.000000744964
  0
LINE
  5
1D5
100
AcDbEntity
  8
0
  6
CONTINUOUS
 62
           3
100
AcDbLine
 10
4236.435429811289
 20
1550.000000744964
 11
4236.685429852289
 21
1550.000000744964
  0
LINE
  5
1D4
100
AcDbEntity
  8
0
  6
CONTINUOUS
 62
           3
100
AcDbLine
 10
4242.685429904476
 20
1548.799999058065
 11
4242.935429945476
 21
1548.799999058065
  0
LINE
  5
1D3
100
AcDbEntity
  8
0
  6
CONTINUOUS
 62
           3
100
AcDbLine
 10
4236.435429811289
 20
1548.799999058065
 11
4236.685429852289
 21
1548.799999058065
  0
LINE
  5
1D2
100
AcDbEntity
  8
0
  6
CONTINUOUS
 62
           3
100
AcDbLine
 10
4236.685429852289
 20
1391.199998557593
 11
4236.435429811289
 21
1391.199998557593
  0
LINE
  5
1D1
100
AcDbEntity
  8
0
  6
CONTINUOUS
 62
           3
100
AcDbLine
 10
4242.935429945476
 20
1391.199998557593
 11
4242.685429904476
 21
1391.199998557593
  0
LINE
  5
1D0
100
AcDbEntity
  8
0
  6
CONTINUOUS
 62
           3
100
AcDbLine
 10
4184.685430176425
 20
1391.199998557593
 11
4179.685431219427
 21
1391.199998557593
  0
LINE
  5
1CF
100
AcDbEntity
  8
0
  6
CONTINUOUS
 62
           3
100
AcDbLine
 10
4179.685431219427
 20
1390.000000596097
 11
4184.685430176425
 21
1390.000000596097
  0
LINE
  5
1CE
100
AcDbEntity
  8
0
  6
CONTINUOUS
 62
           3
100
AcDbLine
 10
4179.685431219427
 20
1391.199998557593
 11
4179.685431219427
 21
1390.000000596097
  0
LINE
  5
1CD
100
AcDbEntity
  8
0
  6
CONTINUOUS
 62
           3
100
AcDbLine
 10
4179.685431219427
 20
1550.000000744964
 11
4184.685430176425
 21
1550.000000744964
  0
LINE
  5
1CC
100
AcDbEntity
  8
0
  6
CONTINUOUS
 62
           3
100
AcDbLine
 10
4184.685430176425
 20
1548.799999058065
 11
4179.685431219427
 21
1548.799999058065
  0
LINE
  5
1CB
100
AcDbEntity
  8
0
  6
CONTINUOUS
 62
           3
100
AcDbLine
 10
4179.685431219427
 20
1548.799999058065
 11
4179.685431219427
 21
1550.000000744964
  0
LINE
  5
1CA
100
AcDbEntity
  8
0
  6
CONTINUOUS
 62
           3
100
AcDbLine
 10
4284.685431666345
 20
1550.000000744964
 11
4269.685429207857
 21
1550.000000744964
  0
LINE
  5
1C9
100
AcDbEntity
  8
0
  6
CONTINUOUS
 62
           3
100
AcDbLine
 10
4284.685431666345
 20
1548.799999058065
 11
4269.685429207857
 21
1548.799999058065
  0
LINE
  5
1C8
100
AcDbEntity
  8
0
  6
CONTINUOUS
 62
           3
100
AcDbLine
 10
4299.685428537334
 20
1550.000000744964
 11
4294.685429580335
 21
1550.000000744964
  0
LINE
  5
1C7
100
AcDbEntity
  8
0
  6
CONTINUOUS
 62
           3
100
AcDbLine
 10
4294.685429580335
 20
1548.799999058065
 11
4299.685428537334
 21
1548.799999058065
  0
LINE
  5
1C6
100
AcDbEntity
  8
0
  6
CONTINUOUS
 62
           3
100
AcDbLine
 10
4299.685428537334
 20
1548.799999058065
 11
4299.685428537334
 21
1550.000000744964
  0
LINE
  5
1C5
100
AcDbEntity
  8
0
  6
CONTINUOUS
 62
           3
100
AcDbLine
 10
4284.685431666345
 20
1391.199998557593
 11
4269.685429207857
 21
1391.199998557593
  0
LINE
  5
1C4
100
AcDbEntity
  8
0
  6
CONTINUOUS
 62
           3
100
AcDbLine
 10
4284.685431666345
 20
1390.000000596097
 11
4269.685429207857
 21
1390.000000596097
  0
LINE
  5
1C3
100
AcDbEntity
  8
0
  6
CONTINUOUS
 62
           3
100
AcDbLine
 10
4194.685428090416
 20
1550.000000744964
 11
4209.685430548903
 21
1550.000000744964
  0
LINE
  5
1C2
100
AcDbEntity
  8
0
  6
CONTINUOUS
 62
           3
100
AcDbLine
 10
4194.685428090416
 20
1548.799999058065
 11
4209.685430548903
 21
1548.799999058065
  0
LINE
  5
1C1
100
AcDbEntity
  8
0
  6
CONTINUOUS
 62
           3
100
AcDbLine
 10
4294.685429580335
 20
1391.199998557593
 11
4299.685428537334
 21
1391.199998557593
  0
LINE
  5
1C0
100
AcDbEntity
  8
0
  6
CONTINUOUS
 62
           3
100
AcDbLine
 10
4299.685428537334
 20
1390.000000596097
 11
4294.685429580335
 21
1390.000000596097
  0
LINE
  5
1BF
100
AcDbEntity
  8
0
  6
CONTINUOUS
 62
           3
100
AcDbLine
 10
4299.685428537334
 20
1391.199998557593
 11
4299.685428537334
 21
1390.000000596097
  0
LINE
  5
1BE
100
AcDbEntity
  8
0
  6
CONTINUOUS
 62
           3
100
AcDbLine
 10
4194.685428090416
 20
1391.199998557593
 11
4209.685430548903
 21
1391.199998557593
  0
LINE
  5
1BD
100
AcDbEntity
  8
0
  6
CONTINUOUS
 62
           3
100
AcDbLine
 10
4194.685428090416
 20
1390.000000596097
 11
4209.685430548903
 21
1390.000000596097
  0
LINE
  5
1BC
100
AcDbEntity
  8
0
  6
CONTINUOUS
 62
           3
100
AcDbLine
 10
4192.685431487817
 20
1550.000000744964
 11
4194.685428090416
 21
1550.000000744964
  0
LINE
  5
1BB
100
AcDbEntity
  8
0
  6
CONTINUOUS
 62
           3
100
AcDbLine
 10
4194.685428090416
 20
1548.799999058065
 11
4192.685431487817
 21
1548.799999058065
  0
LINE
  5
1BA
100
AcDbEntity
  8
0
  6
CONTINUOUS
 62
           3
100
AcDbLine
 10
4192.685431487817
 20
1548.799999058065
 11
4192.685431487817
 21
1550.000000744964
  0
LINE
  5
1B9
100
AcDbEntity
  8
0
  6
CONTINUOUS
 62
           3
100
AcDbLine
 10
4184.685430176425
 20
1550.000000744964
 11
4186.685430504426
 21
1550.000000744964
  0
LINE
  5
1B8
100
AcDbEntity
  8
0
  6
CONTINUOUS
 62
           3
100
AcDbLine
 10
4186.685430504426
 20
1548.799999058065
 11
4184.685430176425
 21
1548.799999058065
  0
LINE
  5
1B7
100
AcDbEntity
  8
0
  6
CONTINUOUS
 62
           3
100
AcDbLine
 10
4186.685430504426
 20
1550.000000744964
 11
4186.685430504426
 21
1548.799999058065
  0
LINE
  5
1B6
100
AcDbEntity
  8
0
  6
CONTINUOUS
 62
           3
100
AcDbLine
 10
4284.685431666345
 20
1391.199998557593
 11
4286.685428268947
 21
1391.199998557593
  0
LINE
  5
1B5
100
AcDbEntity
  8
0
  6
CONTINUOUS
 62
           3
100
AcDbLine
 10
4286.685428268947
 20
1390.000000596097
 11
4284.685431666345
 21
1390.000000596097
  0
LINE
  5
1B4
100
AcDbEntity
  8
0
  6
CONTINUOUS
 62
           3
100
AcDbLine
 10
4286.685428268947
 20
1391.199998557593
 11
4286.685428268947
 21
1390.000000596097
  0
LINE
  5
1B3
100
AcDbEntity
  8
0
  6
CONTINUOUS
 62
           3
100
AcDbLine
 10
4292.685429252633
 20
1391.199998557593
 11
4294.685429580335
 21
1391.199998557593
  0
LINE
  5
1B2
100
AcDbEntity
  8
0
  6
CONTINUOUS
 62
           3
100
AcDbLine
 10
4294.685429580335
 20
1390.000000596097
 11
4292.685429252633
 21
1390.000000596097
  0
LINE
  5
1B1
100
AcDbEntity
  8
0
  6
CONTINUOUS
 62
           3
100
AcDbLine
 10
4292.685429252633
 20
1390.000000596097
 11
4292.685429252633
 21
1391.199998557593
  0
LINE
  5
1B0
100
AcDbEntity
  8
0
  6
CONTINUOUS
 62
           3
100
AcDbLine
 10
4286.685428268947
 20
1550.000000744964
 11
4284.685431666345
 21
1550.000000744964
  0
LINE
  5
1AF
100
AcDbEntity
  8
0
  6
CONTINUOUS
 62
           3
100
AcDbLine
 10
4284.685431666345
 20
1548.799999058065
 11
4286.685428268947
 21
1548.799999058065
  0
LINE
  5
1AE
100
AcDbEntity
  8
0
  6
CONTINUOUS
 62
           3
100
AcDbLine
 10
4286.685428268947
 20
1548.799999058065
 11
4286.685428268947
 21
1550.000000744964
  0
LINE
  5
1AD
100
AcDbEntity
  8
0
  6
CONTINUOUS
 62
           3
100
AcDbLine
 10
4294.685429580335
 20
1550.000000744964
 11
4292.685429252633
 21
1550.000000744964
  0
LINE
  5
1AC
100
AcDbEntity
  8
0
  6
CONTINUOUS
 62
           3
100
AcDbLine
 10
4292.685429252633
 20
1548.799999058065
 11
4294.685429580335
 21
1548.799999058065
  0
LINE
  5
1AB
100
AcDbEntity
  8
0
  6
CONTINUOUS
 62
           3
100
AcDbLine
 10
4292.685429252633
 20
1550.000000744964
 11
4292.685429252633
 21
1548.799999058065
  0
LINE
  5
1AA
100
AcDbEntity
  8
0
  6
CONTINUOUS
 62
           3
100
AcDbLine
 10
4194.685428090416
 20
1391.199998557593
 11
4192.685431487817
 21
1391.199998557593
  0
LINE
  5
1A9
100
AcDbEntity
  8
0
  6
CONTINUOUS
 62
           3
100
AcDbLine
 10
4192.685431487817
 20
1390.000000596097
 11
4194.685428090416
 21
1390.000000596097
  0
LINE
  5
1A8
100
AcDbEntity
  8
0
  6
CONTINUOUS
 62
           3
100
AcDbLine
 10
4192.685431487817
 20
1391.199998557593
 11
4192.685431487817
 21
1390.000000596097
  0
LINE
  5
1A7
100
AcDbEntity
  8
0
  6
CONTINUOUS
 62
           3
100
AcDbLine
 10
4186.685430504426
 20
1391.199998557593
 11
4184.685430176425
 21
1391.199998557593
  0
LINE
  5
1A6
100
AcDbEntity
  8
0
  6
CONTINUOUS
 62
           3
100
AcDbLine
 10
4184.685430176425
 20
1390.000000596097
 11
4186.685430504426
 21
1390.000000596097
  0
LINE
  5
1A5
100
AcDbEntity
  8
0
  6
CONTINUOUS
 62
           3
100
AcDbLine
 10
4186.685430504426
 20
1390.000000596097
 11
4186.685430504426
 21
1391.199998557593
  0
LINE
  5
1A4
100
AcDbEntity
  8
0
  6
CONTINUOUS
 62
           3
100
AcDbLine
 10
4236.185429770289
 20
1391.199998557593
 11
4236.435429811289
 21
1391.199998557593
  0
LINE
  5
1A3
100
AcDbEntity
  8
0
  6
CONTINUOUS
 62
           3
100
AcDbLine
 10
4236.435429811289
 20
1391.199998557593
 11
4236.435429811289
 21
1390.000000596097
  0
LINE
  5
1A2
100
AcDbEntity
  8
0
  6
CONTINUOUS
 62
           3
100
AcDbLine
 10
4269.685429207857
 20
1391.199998557593
 11
4259.685429431465
 21
1391.199998557593
  0
LINE
  5
1A1
100
AcDbEntity
  8
0
  6
CONTINUOUS
 62
           3
100
AcDbLine
 10
4269.685429207857
 20
1390.000000596097
 11
4259.685429431465
 21
1390.000000596097
  0
LINE
  5
1A0
100
AcDbEntity
  8
0
  6
CONTINUOUS
 62
           3
100
AcDbLine
 10
4269.685429207857
 20
1391.199998557593
 11
4269.685429207857
 21
1390.000000596097
  0
LINE
  5
19F
100
AcDbEntity
  8
0
  6
CONTINUOUS
 62
           3
100
AcDbLine
 10
4234.435429949186
 20
1550.000000744964
 11
4236.435429811289
 21
1550.000000744964
  0
LINE
  5
19E
100
AcDbEntity
  8
0
  6
CONTINUOUS
 62
           3
100
AcDbLine
 10
4236.435429811289
 20
1548.799999058065
 11
4234.435429949186
 21
1548.799999058065
  0
LINE
  5
19D
100
AcDbEntity
  8
0
  6
CONTINUOUS
 62
           3
100
AcDbLine
 10
4236.435429811289
 20
1550.000000744964
 11
4236.435429811289
 21
1548.799999058065
  0
LINE
  5
19C
100
AcDbEntity
  8
0
  6
CONTINUOUS
 62
           3
100
AcDbLine
 10
4247.685430258276
 20
1391.199998557593
 11
4259.685429431465
 21
1391.199998557593
  0
LINE
  5
19B
100
AcDbEntity
  8
0
  6
CONTINUOUS
 62
           3
100
AcDbLine
 10
4247.685430258276
 20
1390.000000596097
 11
4259.685429431465
 21
1390.000000596097
  0
LINE
  5
19A
100
AcDbEntity
  8
0
  6
CONTINUOUS
 62
           3
100
AcDbLine
 10
4259.685429431465
 20
1391.199998557593
 11
4259.685429431465
 21
1390.000000596097
  0
LINE
  5
199
100
AcDbEntity
  8
0
  6
CONTINUOUS
 62
           3
100
AcDbLine
 10
4209.685430548903
 20
1391.199998557593
 11
4219.685430325299
 21
1391.199998557593
  0
LINE
  5
198
100
AcDbEntity
  8
0
  6
CONTINUOUS
 62
           3
100
AcDbLine
 10
4209.685430548903
 20
1390.000000596097
 11
4219.685430325299
 21
1390.000000596097
  0
LINE
  5
197
100
AcDbEntity
  8
0
  6
CONTINUOUS
 62
           3
100
AcDbLine
 10
4209.685430548903
 20
1391.199998557593
 11
4209.685430548903
 21
1390.000000596097
  0
LINE
  5
196
100
AcDbEntity
  8
0
  6
CONTINUOUS
 62
           3
100
AcDbLine
 10
4242.935429945476
 20
1550.000000744964
 11
4244.935429807579
 21
1550.000000744964
  0
LINE
  5
195
100
AcDbEntity
  8
0
  6
CONTINUOUS
 62
           3
100
AcDbLine
 10
4244.935429807579
 20
1548.799999058065
 11
4242.935429945476
 21
1548.799999058065
  0
LINE
  5
194
100
AcDbEntity
  8
0
  6
CONTINUOUS
 62
           3
100
AcDbLine
 10
4242.935429945476
 20
1548.799999058065
 11
4242.935429945476
 21
1550.000000744964
  0
LINE
  5
193
100
AcDbEntity
  8
0
  6
CONTINUOUS
 62
           3
100
AcDbLine
 10
4269.685429207857
 20
1550.000000744964
 11
4259.685429431465
 21
1550.000000744964
  0
LINE
  5
192
100
AcDbEntity
  8
0
  6
CONTINUOUS
 62
           3
100
AcDbLine
 10
4269.685429207857
 20
1548.799999058065
 11
4259.685429431465
 21
1548.799999058065
  0
LINE
  5
191
100
AcDbEntity
  8
0
  6
CONTINUOUS
 62
           3
100
AcDbLine
 10
4269.685429207857
 20
1548.799999058065
 11
4269.685429207857
 21
1550.000000744964
  0
LINE
  5
190
100
AcDbEntity
  8
0
  6
CONTINUOUS
 62
           3
100
AcDbLine
 10
4242.935429945476
 20
1391.199998557593
 11
4243.185429986476
 21
1391.199998557593
  0
LINE
  5
18F
100
AcDbEntity
  8
0
  6
CONTINUOUS
 62
           3
100
AcDbLine
 10
4242.935429945476
 20
1390.000000596097
 11
4242.935429945476
 21
1391.199998557593
  0
LINE
  5
18E
100
AcDbEntity
  8
0
  6
CONTINUOUS
 62
           3
100
AcDbLine
 10
4219.685430325299
 20
1391.199998557593
 11
4231.685429498488
 21
1391.199998557593
  0
LINE
  5
18D
100
AcDbEntity
  8
0
  6
CONTINUOUS
 62
           3
100
AcDbLine
 10
4219.685430325299
 20
1390.000000596097
 11
4231.685429498488
 21
1390.000000596097
  0
LINE
  5
18C
100
AcDbEntity
  8
0
  6
CONTINUOUS
 62
           3
100
AcDbLine
 10
4219.685430325299
 20
1391.199998557593
 11
4219.685430325299
 21
1390.000000596097
  0
LINE
  5
18B
100
AcDbEntity
  8
0
  6
CONTINUOUS
 62
           3
100
AcDbLine
 10
4219.685430325299
 20
1550.000000744964
 11
4234.435429949186
 21
1550.000000744964
  0
LINE
  5
18A
100
AcDbEntity
  8
0
  6
CONTINUOUS
 62
           3
100
AcDbLine
 10
4219.685430325299
 20
1548.799999058065
 11
4234.435429949186
 21
1548.799999058065
  0
LINE
  5
189
100
AcDbEntity
  8
0
  6
CONTINUOUS
 62
           3
100
AcDbLine
 10
4244.935429807579
 20
1550.000000744964
 11
4259.685429431465
 21
1550.000000744964
  0
LINE
  5
188
100
AcDbEntity
  8
0
  6
CONTINUOUS
 62
           3
100
AcDbLine
 10
4244.935429807579
 20
1548.799999058065
 11
4259.685429431465
 21
1548.799999058065
  0
LINE
  5
187
100
AcDbEntity
  8
0
  6
CONTINUOUS
 62
           3
100
AcDbLine
 10
4259.685429431465
 20
1548.799999058065
 11
4259.685429431465
 21
1550.000000744964
  0
LINE
  5
186
100
AcDbEntity
  8
0
  6
CONTINUOUS
 62
           3
100
AcDbLine
 10
4209.685430548903
 20
1548.799999058065
 11
4209.685430548903
 21
1550.000000744964
  0
LINE
  5
185
100
AcDbEntity
  8
0
  6
CONTINUOUS
 62
           3
100
AcDbLine
 10
4209.685430548903
 20
1548.799999058065
 11
4219.685430325299
 21
1548.799999058065
  0
LINE
  5
184
100
AcDbEntity
  8
0
  6
CONTINUOUS
 62
           3
100
AcDbLine
 10
4219.685430325299
 20
1548.799999058065
 11
4219.685430325299
 21
1550.000000744964
  0
LINE
  5
183
100
AcDbEntity
  8
0
  6
CONTINUOUS
 62
           3
100
AcDbLine
 10
4209.685430548903
 20
1550.000000744964
 11
4219.685430325299
 21
1550.000000744964
  0
LINE
  5
182
100
AcDbEntity
  8
0
  6
CONTINUOUS
 62
           3
100
AcDbLine
 10
4247.685430258276
 20
1389.200001954996
 11
4247.685430258276
 21
1388.276241719796
  0
LINE
  5
181
100
AcDbEntity
  8
0
  6
CONTINUOUS
 62
           3
100
AcDbLine
 10
4231.685429498488
 20
1389.200001954996
 11
4231.685429498488
 21
1388.276241719796
  0
LINE
  5
180
100
AcDbEntity
  8
0
  6
CONTINUOUS
 62
           3
100
AcDbLine
 10
4234.685429990186
 20
1388.276241719796
 11
4231.685429498488
 21
1388.276241719796
  0
LINE
  5
17F
100
AcDbEntity
  8
0
  6
CONTINUOUS
 62
           3
100
AcDbLine
 10
4247.685430258276
 20
1388.276241719796
 11
4244.685429766579
 21
1388.276241719796
  0
LINE
  5
17E
100
AcDbEntity
  8
0
  6
CONTINUOUS
 62
           3
100
AcDbLine
 10
4242.185429822475
 20
1384.1999992729
 11
4244.685429766625
 21
1384.1999992729
  0
LINE
  5
17D
100
AcDbEntity
  8
0
  6
CONTINUOUS
 62
           3
100
AcDbLine
 10
4234.685429990146
 20
1384.1999992729
 11
4237.185429934268
 21
1384.1999992729
  0
LINE
  5
17C
100
AcDbEntity
  8
0
  6
CONTINUOUS
 62
           3
100
AcDbLine
 10
4244.685429766579
 20
1384.646579623302
 11
4244.685429766579
 21
1389.100000262195
  0
LINE
  5
17B
100
AcDbEntity
  8
0
  6
CONTINUOUS
 62
           3
100
AcDbLine
 10
4234.685429990186
 20
1384.646579623302
 11
4234.685429990186
 21
1389.100000262195
  0
LINE
  5
17A
100
AcDbEntity
  8
0
  6
CONTINUOUS
 62
           3
100
AcDbLine
 10
4234.685429990186
 20
1384.646579623302
 11
4237.185429934268
 21
1384.1999992729
  0
LINE
  5
179
100
AcDbEntity
  8
0
  6
CONTINUOUS
 62
           3
100
AcDbLine
 10
4239.685429878388
 20
1384.646579623295
 11
4239.685429878388
 21
1389.100000262195
  0
LINE
  5
178
100
AcDbEntity
  8
0
  6
CONTINUOUS
 62
           3
100
AcDbLine
 10
4237.185429934268
 20
1384.1999992729
 11
4242.185429822475
 21
1384.1999992729
  0
LINE
  5
177
100
AcDbEntity
  8
0
  6
CONTINUOUS
 62
           3
100
AcDbLine
 10
4239.685429878388
 20
1384.646579623295
 11
4242.185429822475
 21
1384.1999992729
  0
LINE
  5
176
100
AcDbEntity
  8
0
  6
CONTINUOUS
 62
           3
100
AcDbLine
 10
4236.185429770289
 20
1389.200001954996
 11
4243.185429986476
 21
1389.200001954996
  0
LINE
  5
175
100
AcDbEntity
  8
0
  6
CONTINUOUS
 62
           3
100
AcDbLine
 10
4236.185429770289
 20
1390.000000596097
 11
4243.185429986476
 21
1390.000000596097
  0
LINE
  5
174
100
AcDbEntity
  8
0
  6
CONTINUOUS
 62
           3
100
AcDbLine
 10
4243.185429986476
 20
1393.990144133492
 11
4236.185429770289
 21
1393.990144133492
  0
LINE
  5
173
100
AcDbEntity
  8
0
  6
CONTINUOUS
 62
           3
100
AcDbLine
 10
4236.685429852289
 20
1392.246469855294
 11
4236.185429770289
 21
1392.246469855294
  0
LINE
  5
172
100
AcDbEntity
  8
0
  6
CONTINUOUS
 62
           3
100
AcDbLine
 10
4243.185429986476
 20
1392.246469855294
 11
4242.685429904476
 21
1392.246469855294
  0
LINE
  5
171
100
AcDbEntity
  8
0
  6
CONTINUOUS
 62
           3
100
AcDbLine
 10
4247.685430258276
 20
1394.799999892894
 11
4247.685430258276
 21
1389.200001954996
  0
LINE
  5
170
100
AcDbEntity
  8
0
  6
CONTINUOUS
 62
           3
100
AcDbLine
 10
4231.685429498488
 20
1394.799999892894
 11
4231.685429498488
 21
1389.200001954996
  0
LINE
  5
16F
100
AcDbEntity
  8
0
  6
CONTINUOUS
 62
           3
100
AcDbLine
 10
4236.185429770289
 20
1389.200001954996
 11
4236.185429770289
 21
1394.799999892894
  0
LINE
  5
16E
100
AcDbEntity
  8
0
  6
CONTINUOUS
 62
           3
100
AcDbLine
 10
4243.185429986476
 20
1394.799999892894
 11
4243.185429986476
 21
1389.200001954996
  0
LINE
  5
16D
100
AcDbEntity
  8
0
  6
CONTINUOUS
 62
           3
100
AcDbLine
 10
4236.185429770289
 20
1389.200001954996
 11
4231.685429498488
 21
1389.200001954996
  0
LINE
  5
16C
100
AcDbEntity
  8
0
  6
CONTINUOUS
 62
           3
100
AcDbLine
 10
4236.185429770289
 20
1394.792847335491
 11
4243.185429986476
 21
1394.792847335491
  0
LINE
  5
16B
100
AcDbEntity
  8
0
  6
CONTINUOUS
 62
           3
100
AcDbLine
 10
4247.685430258276
 20
1389.200001954996
 11
4243.185429986476
 21
1389.200001954996
  0
LINE
  5
16A
100
AcDbEntity
  8
0
  6
CONTINUOUS
 62
           3
100
AcDbLine
 10
4241.685429973273
 20
1638.422653078993
 11
4237.685429783487
 21
1638.422653078993
  0
LINE
  5
169
100
AcDbEntity
  8
0
  6
CONTINUOUS
 62
           3
100
AcDbLine
 10
4236.685429852289
 20
1637.422651052293
 11
4242.685429904476
 21
1637.422651052293
  0
LINE
  5
168
100
AcDbEntity
  8
0
  6
CONTINUOUS
 62
           3
100
AcDbLine
 10
4185.685428477726
 20
1665.000006556369
 11
4189.685429133424
 21
1665.000006556369
  0
LINE
  5
167
100
AcDbEntity
  8
0
  6
CONTINUOUS
 62
           3
100
AcDbLine
 10
4189.685429133424
 20
1665.000006556369
 11
4193.685429789126
 21
1665.000006556369
  0
LINE
  5
166
100
AcDbEntity
  8
0
  6
CONTINUOUS
 62
           3
100
AcDbLine
 10
4235.355302844059
 20
1367.599993944256
 11
4234.685429990186
 21
1367.599993944114
  0
LINE
  5
165
100
AcDbEntity
  8
0
  6
CONTINUOUS
 62
           3
100
AcDbLine
 10
4244.685429766579
 20
1367.599993944114
 11
4244.015556912717
 21
1367.599993944256
  0
LINE
  5
164
100
AcDbEntity
  8
0
  6
CONTINUOUS
 62
           3
100
AcDbLine
 10
4235.355302844059
 20
1372.600004077041
 11
4234.685429990186
 21
1372.600004077009
  0
LINE
  5
163
100
AcDbEntity
  8
0
  6
CONTINUOUS
 62
           3
100
AcDbLine
 10
4244.015556912717
 20
1367.599993944256
 11
4239.685429878388
 21
1367.599993944256
  0
LINE
  5
162
100
AcDbEntity
  8
0
  6
CONTINUOUS
 62
           3
100
AcDbLine
 10
4239.685429878388
 20
1367.599993944256
 11
4235.355302844059
 21
1367.599993944256
  0
LINE
  5
161
100
AcDbEntity
  8
0
  6
CONTINUOUS
 62
           3
100
AcDbLine
 10
4233.911927010687
 20
1372.153416276109
 11
4233.911927010687
 21
1368.046581745312
  0
LINE
  5
160
100
AcDbEntity
  8
0
  6
CONTINUOUS
 62
           3
100
AcDbLine
 10
4233.911927010687
 20
1368.046581745312
 11
4235.355302844059
 21
1367.599993944256
  0
LINE
  5
15F
100
AcDbEntity
  8
0
  6
CONTINUOUS
 62
           3
100
AcDbLine
 10
4236.798678444558
 20
1372.153416276062
 11
4235.355302844059
 21
1372.600004077041
  0
LINE
  5
15E
100
AcDbEntity
  8
0
  6
CONTINUOUS
 62
           3
100
AcDbLine
 10
4242.572181312076
 20
1368.046581745312
 11
4244.015556912717
 21
1367.599993944256
  0
LINE
  5
15D
100
AcDbEntity
  8
0
  6
CONTINUOUS
 62
           3
100
AcDbLine
 10
4245.458932746078
 20
1372.153416276109
 11
4245.458932746078
 21
1368.046581745312
  0
LINE
  5
15C
100
AcDbEntity
  8
0
  6
CONTINUOUS
 62
           3
100
AcDbLine
 10
4245.458932746078
 20
1372.153416276109
 11
4244.015556912717
 21
1372.600004077041
  0
LINE
  5
15B
100
AcDbEntity
  8
0
  6
CONTINUOUS
 62
           3
100
AcDbLine
 10
4236.798678444558
 20
1372.153416276062
 11
4236.798678444558
 21
1368.046581745235
  0
LINE
  5
15A
100
AcDbEntity
  8
0
  6
CONTINUOUS
 62
           3
100
AcDbLine
 10
4242.572181312215
 20
1372.153416276062
 11
4242.572181312076
 21
1368.046581745312
  0
LINE
  5
159
100
AcDbEntity
  8
0
  6
CONTINUOUS
 62
           3
100
AcDbLine
 10
4244.685429766579
 20
1372.600004077009
 11
4244.015556912717
 21
1372.600004077041
  0
LINE
  5
158
100
AcDbEntity
  8
0
  6
CONTINUOUS
 62
           3
100
AcDbLine
 10
4244.685429766579
 20
1377.599999308604
 11
4244.015556912717
 21
1377.599999308666
  0
LINE
  5
157
100
AcDbEntity
  8
0
  6
CONTINUOUS
 62
           3
100
AcDbLine
 10
4235.355302844059
 20
1377.599999308666
 11
4234.685429990186
 21
1377.599999308604
  0
LINE
  5
156
100
AcDbEntity
  8
0
  6
CONTINUOUS
 62
           3
100
AcDbLine
 10
4239.685429878388
 20
1372.600004077041
 11
4235.355302844059
 21
1372.600004077041
  0
LINE
  5
155
100
AcDbEntity
  8
0
  6
CONTINUOUS
 62
           3
100
AcDbLine
 10
4244.015556912717
 20
1372.600004077041
 11
4239.685429878388
 21
1372.600004077041
  0
LINE
  5
154
100
AcDbEntity
  8
0
  6
CONTINUOUS
 62
           3
100
AcDbLine
 10
4239.685429878388
 20
1377.599999308666
 11
4235.355302844059
 21
1377.599999308666
  0
LINE
  5
153
100
AcDbEntity
  8
0
  6
CONTINUOUS
 62
           3
100
AcDbLine
 10
4233.911927010687
 20
1377.153418958205
 11
4233.911927010687
 21
1373.046576976911
  0
LINE
  5
152
100
AcDbEntity
  8
0
  6
CONTINUOUS
 62
           3
100
AcDbLine
 10
4233.911927010687
 20
1373.046576976911
 11
4235.355302844059
 21
1372.600004077041
  0
LINE
  5
151
100
AcDbEntity
  8
0
  6
CONTINUOUS
 62
           3
100
AcDbLine
 10
4236.798678444558
 20
1377.153418958267
 11
4235.355302844059
 21
1377.599999308666
  0
LINE
  5
150
100
AcDbEntity
  8
0
  6
CONTINUOUS
 62
           3
100
AcDbLine
 10
4244.015556912717
 20
1377.599999308666
 11
4239.685429878388
 21
1377.599999308666
  0
LINE
  5
14F
100
AcDbEntity
  8
0
  6
CONTINUOUS
 62
           3
100
AcDbLine
 10
4242.572181312076
 20
1373.046576976911
 11
4244.015556912717
 21
1372.600004077041
  0
LINE
  5
14E
100
AcDbEntity
  8
0
  6
CONTINUOUS
 62
           3
100
AcDbLine
 10
4245.458932746078
 20
1377.153418958205
 11
4245.458932746078
 21
1373.046576976911
  0
LINE
  5
14D
100
AcDbEntity
  8
0
  6
CONTINUOUS
 62
           3
100
AcDbLine
 10
4245.458932746078
 20
1377.153418958205
 11
4244.015556912717
 21
1377.599999308666
  0
LINE
  5
14C
100
AcDbEntity
  8
0
  6
CONTINUOUS
 62
           3
100
AcDbLine
 10
4236.798678444558
 20
1377.153418958267
 11
4236.798678444558
 21
1373.04657697686
  0
LINE
  5
14B
100
AcDbEntity
  8
0
  6
CONTINUOUS
 62
           3
100
AcDbLine
 10
4242.572181312215
 20
1377.153418958267
 11
4242.572181312076
 21
1373.046576976911
  0
LINE
  5
14A
100
AcDbEntity
  8
0
  6
CONTINUOUS
 62
           3
100
AcDbLine
 10
4233.911927010687
 20
1364.553421735916
 11
4233.911927010687
 21
1360.446587205122
  0
LINE
  5
149
100
AcDbEntity
  8
0
  6
CONTINUOUS
 62
           3
100
AcDbLine
 10
4233.911927010687
 20
1360.446587205122
 11
4235.355302844059
 21
1359.999999404048
  0
LINE
  5
148
100
AcDbEntity
  8
0
  6
CONTINUOUS
 62
           3
100
AcDbLine
 10
4236.798678444558
 20
1364.553421735858
 11
4235.355302844059
 21
1364.999994635673
  0
LINE
  5
147
100
AcDbEntity
  8
0
  6
CONTINUOUS
 62
           3
100
AcDbLine
 10
4242.572181312076
 20
1360.446587205122
 11
4244.015556912677
 21
1359.999999403921
  0
LINE
  5
146
100
AcDbEntity
  8
0
  6
CONTINUOUS
 62
           3
100
AcDbLine
 10
4245.458932746078
 20
1364.553421735916
 11
4245.458932746078
 21
1360.446587205122
  0
LINE
  5
145
100
AcDbEntity
  8
0
  6
CONTINUOUS
 62
           3
100
AcDbLine
 10
4245.458932746078
 20
1364.553421735916
 11
4244.015556912717
 21
1364.999994635673
  0
LINE
  5
144
100
AcDbEntity
  8
0
  6
CONTINUOUS
 62
           3
100
AcDbLine
 10
4236.798678444558
 20
1364.553421735858
 11
4236.798678444558
 21
1360.446587205024
  0
LINE
  5
143
100
AcDbEntity
  8
0
  6
CONTINUOUS
 62
           3
100
AcDbLine
 10
4242.572181312215
 20
1364.553421735858
 11
4242.572181312076
 21
1360.446587205122
  0
LINE
  5
142
100
AcDbEntity
  8
0
  6
CONTINUOUS
 62
           3
100
AcDbLine
 10
4234.685429990186
 20
1359.999999403921
 11
4235.355302844059
 21
1359.999999404048
  0
LINE
  5
141
100
AcDbEntity
  8
0
  6
CONTINUOUS
 62
           3
100
AcDbLine
 10
4244.685429766579
 20
1355.000004172322
 11
4244.015556912717
 21
1355.00000417242
  0
LINE
  5
140
100
AcDbEntity
  8
0
  6
CONTINUOUS
 62
           3
100
AcDbLine
 10
4234.685429990186
 20
1355.000004172322
 11
4235.355302844059
 21
1355.00000417242
  0
LINE
  5
13F
100
AcDbEntity
  8
0
  6
CONTINUOUS
 62
           3
100
AcDbLine
 10
4245.458932746078
 20
1355.446577072223
 11
4244.015556912717
 21
1355.00000417242
  0
LINE
  5
13E
100
AcDbEntity
  8
0
  6
CONTINUOUS
 62
           3
100
AcDbLine
 10
4245.458932746078
 20
1355.446577072223
 11
4245.458932746078
 21
1359.553411603021
  0
LINE
  5
13D
100
AcDbEntity
  8
0
  6
CONTINUOUS
 62
           3
100
AcDbLine
 10
4233.911927010687
 20
1355.446577072223
 11
4233.911927010687
 21
1359.553411603021
  0
LINE
  5
13C
100
AcDbEntity
  8
0
  6
CONTINUOUS
 62
           3
100
AcDbLine
 10
4239.685429878388
 20
1359.999999404048
 11
4244.015556912677
 21
1359.999999403921
  0
LINE
  5
13B
100
AcDbEntity
  8
0
  6
CONTINUOUS
 62
           3
100
AcDbLine
 10
4242.572181312215
 20
1359.553411603069
 11
4244.015556912677
 21
1359.999999403921
  0
LINE
  5
13A
100
AcDbEntity
  8
0
  6
CONTINUOUS
 62
           3
100
AcDbLine
 10
4235.355302844059
 20
1359.999999404048
 11
4239.685429878388
 21
1359.999999404048
  0
LINE
  5
139
100
AcDbEntity
  8
0
  6
CONTINUOUS
 62
           3
100
AcDbLine
 10
4235.355302844059
 20
1355.00000417242
 11
4239.685429878388
 21
1355.000004172322
  0
LINE
  5
138
100
AcDbEntity
  8
0
  6
CONTINUOUS
 62
           3
100
AcDbLine
 10
4239.685429878388
 20
1355.000004172322
 11
4244.015556912717
 21
1355.00000417242
  0
LINE
  5
137
100
AcDbEntity
  8
0
  6
CONTINUOUS
 62
           3
100
AcDbLine
 10
4236.798678444684
 20
1359.553411603021
 11
4239.685429878388
 21
1359.999999404048
  0
LINE
  5
136
100
AcDbEntity
  8
0
  6
CONTINUOUS
 62
           3
100
AcDbLine
 10
4236.798678444558
 20
1355.446577072242
 11
4236.798678444684
 21
1359.553411603021
  0
LINE
  5
135
100
AcDbEntity
  8
0
  6
CONTINUOUS
 62
           3
100
AcDbLine
 10
4242.572181312076
 20
1355.446577072223
 11
4239.685429878388
 21
1355.000004172322
  0
LINE
  5
134
100
AcDbEntity
  8
0
  6
CONTINUOUS
 62
           3
100
AcDbLine
 10
4242.572181312076
 20
1355.446577072223
 11
4242.572181312215
 21
1359.553411603069
  0
LINE
  5
133
100
AcDbEntity
  8
0
  6
CONTINUOUS
 62
           3
100
AcDbLine
 10
4296.685429908037
 20
1393.799997866194
 11
4296.685429908037
 21
1543.800000101368
  0
LINE
  5
132
100
AcDbEntity
  8
0
  6
CONTINUOUS
 62
           3
100
AcDbLine
 10
4185.685428477726
 20
1543.800000101368
 11
4182.685429848723
 21
1543.800000101368
  0
LINE
  5
131
100
AcDbEntity
  8
0
  6
CONTINUOUS
 62
           3
100
AcDbLine
 10
4236.685429852289
 20
1543.800000101368
 11
4193.685429789126
 21
1543.800000101368
  0
LINE
  5
130
100
AcDbEntity
  8
0
  6
CONTINUOUS
 62
           3
100
AcDbLine
 10
4285.685429967645
 20
1543.800000101368
 11
4242.685429904476
 21
1543.800000101368
  0
LINE
  5
12F
100
AcDbEntity
  8
0
  6
CONTINUOUS
 62
           3
100
AcDbLine
 10
4296.685429908037
 20
1543.800000101368
 11
4293.685431279039
 21
1543.800000101368
  0
LINE
  5
12E
100
AcDbEntity
  8
0
  6
CONTINUOUS
 62
           3
100
AcDbLine
 10
4182.685429848723
 20
1543.800000101368
 11
4182.685429848723
 21
1393.799997866194
  0
LINE
  5
12D
100
AcDbEntity
  8
0
  6
CONTINUOUS
 62
           3
100
AcDbLine
 10
4293.685431279039
 20
1393.799997866194
 11
4296.685429908037
 21
1393.799997866194
  0
LINE
  5
12C
100
AcDbEntity
  8
0
  6
CONTINUOUS
 62
           3
100
AcDbLine
 10
4247.685430258276
 20
1393.799997866194
 11
4285.685429967645
 21
1393.799997866194
  0
LINE
  5
12B
100
AcDbEntity
  8
0
  6
CONTINUOUS
 62
           3
100
AcDbLine
 10
4193.685429789126
 20
1393.799997866194
 11
4231.685429498488
 21
1393.799997866194
  0
LINE
  5
12A
100
AcDbEntity
  8
0
  6
CONTINUOUS
 62
           3
100
AcDbLine
 10
4182.685429848723
 20
1393.799997866194
 11
4185.685428477726
 21
1393.799997866194
  0
LINE
  5
129
100
AcDbEntity
  8
0
  6
CONTINUOUS
 62
           3
100
AcDbLine
 10
4233.211927186585
 20
1389.099999999995
 11
4246.158932570175
 21
1389.099999999995
  0
LINE
  5
128
100
AcDbEntity
  8
0
  6
CONTINUOUS
 62
           3
100
AcDbLine
 10
4247.685430258276
 20
1394.799999892894
 11
4243.185429986476
 21
1394.799999892894
  0
LINE
  5
127
100
AcDbEntity
  8
0
  6
CONTINUOUS
 62
           3
100
AcDbLine
 10
4236.185429770289
 20
1394.799999892894
 11
4231.685429498488
 21
1394.799999892894
  0
LINE
  5
126
100
AcDbEntity
  8
0
  6
CONTINUOUS
 62
           3
100
AcDbLine
 10
4237.685429783487
 20
1638.422653078993
 11
4236.685429852289
 21
1637.422651052293
  0
LINE
  5
125
100
AcDbEntity
  8
0
  6
CONTINUOUS
 62
           3
100
AcDbLine
 10
4242.685429904476
 20
1637.422651052293
 11
4241.685429973273
 21
1638.422653078993
  0
LINE
  5
124
100
AcDbEntity
  8
0
  6
CONTINUOUS
 62
           3
100
AcDbLine
 10
4236.685429852289
 20
1367.599993944114
 11
4236.685429852289
 21
1366.600006818713
  0
LINE
  5
123
100
AcDbEntity
  8
0
  6
CONTINUOUS
 62
           3
100
AcDbLine
 10
4236.685429852289
 20
1384.1999992729
 11
4236.685429852289
 21
1377.599999308604
  0
LINE
  5
122
100
AcDbEntity
  8
0
  6
CONTINUOUS
 62
           3
100
AcDbLine
 10
4236.685429852289
 20
1392.957426607594
 11
4236.685429852289
 21
1390.000000596097
  0
LINE
  5
121
100
AcDbEntity
  8
0
  6
CONTINUOUS
 62
           3
100
AcDbLine
 10
4236.685429852289
 20
1633.399993180996
 11
4236.685429852289
 21
1394.792847335491
  0
LINE
  5
120
100
AcDbEntity
  8
0
  6
CONTINUOUS
 62
           3
100
AcDbLine
 10
4236.685429852289
 20
1637.422651052293
 11
4236.685429852289
 21
1635.000005364196
  0
LINE
  5
11F
100
AcDbEntity
  8
0
  6
CONTINUOUS
 62
           3
100
AcDbLine
 10
4242.685429904476
 20
1635.000005364196
 11
4242.685429904476
 21
1637.422651052293
  0
LINE
  5
11E
100
AcDbEntity
  8
0
  6
CONTINUOUS
 62
           3
100
AcDbLine
 10
4242.685429904476
 20
1394.792847335491
 11
4242.685429904476
 21
1633.399993180996
  0
LINE
  5
11D
100
AcDbEntity
  8
0
  6
CONTINUOUS
 62
           3
100
AcDbLine
 10
4242.685429904476
 20
1390.000000596097
 11
4242.685429904476
 21
1392.957426607594
  0
LINE
  5
11C
100
AcDbEntity
  8
0
  6
CONTINUOUS
 62
           3
100
AcDbLine
 10
4242.685429904476
 20
1377.599999308604
 11
4242.685429904476
 21
1384.1999992729
  0
LINE
  5
11B
100
AcDbEntity
  8
0
  6
CONTINUOUS
 62
           3
100
AcDbLine
 10
4242.685429904476
 20
1366.600006818713
 11
4242.685429904476
 21
1367.599993944114
  0
LINE
  5
11A
100
AcDbEntity
  8
0
  6
CONTINUOUS
 62
           3
100
AcDbLine
 10
4193.685429789126
 20
1635.000005364196
 11
4193.685429789126
 21
1665.000006556369
  0
LINE
  5
119
100
AcDbEntity
  8
0
  6
CONTINUOUS
 62
           3
100
AcDbLine
 10
4193.685429789126
 20
1550.000000744964
 11
4193.685429789126
 21
1633.399993180996
  0
LINE
  5
118
100
AcDbEntity
  8
0
  6
CONTINUOUS
 62
           3
100
AcDbLine
 10
4193.685429789126
 20
1391.199998557593
 11
4193.685429789126
 21
1548.799999058065
  0
LINE
  5
117
100
AcDbEntity
  8
0
  6
CONTINUOUS
 62
           3
100
AcDbLine
 10
4193.685429789126
 20
1366.600006818713
 11
4193.685429789126
 21
1390.000000596097
  0
LINE
  5
116
100
AcDbEntity
  8
0
  6
CONTINUOUS
 62
           3
100
AcDbLine
 10
4185.685428477726
 20
1364.999994635815
 11
4185.685428477726
 21
1314.999997615956
  0
LINE
  5
115
100
AcDbEntity
  8
0
  6
CONTINUOUS
 62
           3
100
AcDbLine
 10
4185.685428477726
 20
1390.000000596097
 11
4185.685428477726
 21
1366.600006818713
  0
LINE
  5
114
100
AcDbEntity
  8
0
  6
CONTINUOUS
 62
           3
100
AcDbLine
 10
4185.685428477726
 20
1548.799999058065
 11
4185.685428477726
 21
1391.199998557593
  0
LINE
  5
113
100
AcDbEntity
  8
0
  6
CONTINUOUS
 62
           3
100
AcDbLine
 10
4185.685428477726
 20
1633.399993180996
 11
4185.685428477726
 21
1550.000000744964
  0
LINE
  5
112
100
AcDbEntity
  8
0
  6
CONTINUOUS
 62
           3
100
AcDbLine
 10
4185.685428477726
 20
1665.000006556369
 11
4185.685428477726
 21
1635.000005364196
  0
LINE
  5
111
100
AcDbEntity
  8
0
  6
CONTINUOUS
 62
           3
100
AcDbLine
 10
4293.685431279039
 20
1635.000005364196
 11
4293.685431279039
 21
1641.000000000001
  0
LINE
  5
110
100
AcDbEntity
  8
0
  6
CONTINUOUS
 62
           3
100
AcDbLine
 10
4293.685431279039
 20
1550.000000744964
 11
4293.685431279039
 21
1633.399993180996
  0
LINE
  5
10F
100
AcDbEntity
  8
0
  6
CONTINUOUS
 62
           3
100
AcDbLine
 10
4293.685431279039
 20
1391.199998557593
 11
4293.685431279039
 21
1548.799999058065
  0
LINE
  5
10E
100
AcDbEntity
  8
0
  6
CONTINUOUS
 62
           3
100
AcDbLine
 10
4293.685431279039
 20
1366.600006818713
 11
4293.685431279039
 21
1390.000000596097
  0
LINE
  5
10D
100
AcDbEntity
  8
0
  6
CONTINUOUS
 62
           3
100
AcDbLine
 10
4293.685431279039
 20
1314.999997615956
 11
4293.685431279039
 21
1364.999994635815
  0
LINE
  5
10C
100
AcDbEntity
  8
0
  6
CONTINUOUS
 62
           3
100
AcDbLine
 10
4285.685429967645
 20
1364.999994635815
 11
4285.685429967645
 21
1314.999997615956
  0
LINE
  5
10B
100
AcDbEntity
  8
0
  6
CONTINUOUS
 62
           3
100
AcDbLine
 10
4285.685429967645
 20
1390.000000596097
 11
4285.685429967645
 21
1366.600006818713
  0
LINE
  5
10A
100
AcDbEntity
  8
0
  6
CONTINUOUS
 62
           3
100
AcDbLine
 10
4285.685429967645
 20
1548.799999058065
 11
4285.685429967645
 21
1391.199998557593
  0
LINE
  5
109
100
AcDbEntity
  8
0
  6
CONTINUOUS
 62
           3
100
AcDbLine
 10
4285.685429967645
 20
1633.399993180996
 11
4285.685429967645
 21
1550.000000744964
  0
LINE
  5
108
100
AcDbEntity
  8
0
  6
CONTINUOUS
 62
           3
100
AcDbLine
 10
4285.685429967645
 20
1641.0
 11
4285.685429967645
 21
1635.000005364196
  0
LINE
  5
107
100
AcDbEntity
  8
0
  6
CONTINUOUS
 62
           3
100
AcDbLine
 10
4233.911927010687
 20
1368.046581745312
 11
4234.685429990186
 21
1367.599993944114
  0
LINE
  5
106
100
AcDbEntity
  8
0
  6
CONTINUOUS
 62
           3
100
AcDbLine
 10
4244.685429766579
 20
1367.599993944114
 11
4245.458932746078
 21
1368.046581745312
  0
LINE
  5
105
100
AcDbEntity
  8
0
  6
CONTINUOUS
 62
           3
100
AcDbLine
 10
4245.458932746078
 20
1372.153416276109
 11
4244.685429766579
 21
1372.600004077009
  0
LINE
  5
104
100
AcDbEntity
  8
0
  6
CONTINUOUS
 62
           3
100
AcDbLine
 10
4234.685429990186
 20
1372.600004077009
 11
4233.911927010687
 21
1372.153416276109
  0
LINE
  5
103
100
AcDbEntity
  8
0
  6
CONTINUOUS
 62
           3
100
AcDbLine
 10
4233.911927010687
 20
1373.046576976911
 11
4234.685429990186
 21
1372.600004077009
  0
LINE
  5
102
100
AcDbEntity
  8
0
  6
CONTINUOUS
 62
           3
100
AcDbLine
 10
4244.685429766579
 20
1372.600004077009
 11
4245.458932746078
 21
1373.046576976911
  0
LINE
  5
101
100
AcDbEntity
  8
0
  6
CONTINUOUS
 62
           3
100
AcDbLine
 10
4245.458932746078
 20
1377.153418958205
 11
4244.685429766579
 21
1377.599999308604
  0
LINE
  5
100
100
AcDbEntity
  8
0
  6
CONTINUOUS
 62
           3
100
AcDbLine
 10
4234.685429990186
 20
1377.599999308604
 11
4233.911927010687
 21
1377.153418958205
  0
LINE
  5
FF
100
AcDbEntity
  8
0
  6
CONTINUOUS
 62
           3
100
AcDbLine
 10
4233.911927010687
 20
1360.446587205122
 11
4234.685429990186
 21
1359.999999403921
  0
LINE
  5
FE
100
AcDbEntity
  8
0
  6
CONTINUOUS
 62
           3
100
AcDbLine
 10
4244.685429766579
 20
1359.999999403921
 11
4245.458932746078
 21
1360.446587205122
  0
LINE
  5
FD
100
AcDbEntity
  8
0
  6
CONTINUOUS
 62
           3
100
AcDbLine
 10
4245.458932746078
 20
1364.553421735916
 11
4244.685429766579
 21
1364.999994635815
  0
LINE
  5
FC
100
AcDbEntity
  8
0
  6
CONTINUOUS
 62
           3
100
AcDbLine
 10
4234.685429990186
 20
1364.999994635815
 11
4233.911927010687
 21
1364.553421735916
  0
LINE
  5
FB
100
AcDbEntity
  8
0
  6
CONTINUOUS
 62
           3
100
AcDbLine
 10
4245.458932746078
 20
1359.553411603021
 11
4244.685429766579
 21
1359.999999403921
  0
LINE
  5
FA
100
AcDbEntity
  8
0
  6
CONTINUOUS
 62
           3
100
AcDbLine
 10
4234.685429990186
 20
1359.999999403921
 11
4233.911927010687
 21
1359.553411603021
  0
LINE
  5
F9
100
AcDbEntity
  8
0
  6
CONTINUOUS
 62
           3
100
AcDbLine
 10
4244.685429766579
 20
1355.000004172322
 11
4245.458932746078
 21
1355.446577072223
  0
LINE
  5
F8
100
AcDbEntity
  8
0
  6
CONTINUOUS
 62
           3
100
AcDbLine
 10
4233.911927010687
 20
1355.446577072223
 11
4234.685429990186
 21
1355.000004172322
  0
LINE
  5
F7
100
AcDbEntity
  8
0
  6
CONTINUOUS
 62
           3
100
AcDbLine
 10
4193.685429789126
 20
1314.999997615956
 11
4193.685429789126
 21
1364.999994635815
  0
LINE
  5
F6
100
AcDbEntity
  8
1
  6
CONTINUOUS
 62
           3
100
AcDbLine
 10
4721.285433156714
 20
1929.0
 11
4573.685429967645
 21
1929.0
  0
LINE
  5
F5
100
AcDbEntity
  8
1
  6
CONTINUOUS
 62
           3
100
AcDbLine
 10
4721.285433156714
 20
1921.000000000001
 11
4573.685431279038
 21
1921.000000000001
  0
LINE
  5
F4
100
AcDbEntity
  8
1
  6
CONTINUOUS
 62
           7
100
AcDbLine
 10
4323.785433156712
 20
500.0
 11
4323.785433156712
 21
1767.29327352817
  0
LINE
  5
F3
100
AcDbEntity
  8
1
  6
CONTINUOUS
 62
           4
100
AcDbLine
 10
4303.785433156712
 20
520.0
 11
4303.785433156712
 21
1714.44658929451
  0
LINE
  5
F2
100
AcDbEntity
  8
1
  6
CONTINUOUS
 62
           4
100
AcDbLine
 10
4343.785433156712
 20
1980.0
 11
4343.785433156712
 21
1814.464669216337
  0
LINE
  5
F1
100
AcDbEntity
  8
1
  6
DOT_CENTER
 62
           3
100
AcDbLine
 10
-491.52774467812
 20
1340.20084832705
 11
-491.52774467812
 21
1250.20227732705
  0
LINE
  5
F0
100
AcDbEntity
  8
1
  6
DOT_CENTER
 62
           3
100
AcDbLine
 10
-446.52774467812
 20
1295.20084832705
 11
-536.525199678125
 21
1295.20084832705
  0
LINE
  5
EF
100
AcDbEntity
  8
1
  6
CONTINUOUS
 62
           3
100
AcDbLine
 10
-495.063339678115
 20
1323.33071132706
 11
-497.451285678124
 21
1296.073587327061
  0
LINE
  5
EE
100
AcDbEntity
  8
1
  6
CONTINUOUS
 62
           3
100
AcDbLine
 10
-497.451285678124
 20
1294.32810932706
 11
-495.063339678115
 21
1267.070985327059
  0
LINE
  5
ED
100
AcDbEntity
  8
1
  6
CONTINUOUS
 62
           3
100
AcDbLine
 10
-487.992149678105
 20
1323.33071132706
 11
-485.604203678124
 21
1296.073587327061
  0
LINE
  5
EC
100
AcDbEntity
  8
1
  6
CONTINUOUS
 62
           3
100
AcDbLine
 10
-485.604203678124
 20
1294.32810932706
 11
-487.992149678105
 21
1267.070985327059
  0
LINE
  5
EB
100
AcDbEntity
  8
1
  6
CONTINUOUS
 62
           7
100
AcDbLine
 10
-424.999999999998
 20
1646.282992387802
 11
-1574.999999999998
 21
1646.282992387802
  0
LINE
  5
EA
100
AcDbEntity
  8
1
  6
CONTINUOUS
 62
           7
100
AcDbLine
 10
-1574.999999999998
 20
941.513526798366
 11
-1574.999999999998
 21
1646.282992387802
  0
LINE
  5
E9
100
AcDbEntity
  8
1
  6
CONTINUOUS
 62
           7
100
AcDbLine
 10
-424.999999999998
 20
941.513526798366
 11
-424.999999999998
 21
1646.282992387802
  0
LINE
  5
E8
100
AcDbEntity
  8
1
  6
CONTINUOUS
 62
           7
100
AcDbLine
 10
-1574.999999999998
 20
941.513526798366
 11
-424.999999999998
 21
941.513526798366
  0
LINE
  5
E7
100
AcDbEntity
  8
___S__
  6
DOT_CENTER
 62
           3
100
AcDbLine
 10
-1574.999999999974
 20
1621.052837286497
 11
-1574.999999999975
 21
1536.057127055389
  0
LINE
  5
E6
100
AcDbEntity
  8
____
  6
CONTINUOUS
 62
           3
100
AcDbLine
 10
-1569.595947044855
 20
1614.449075506231
 11
-1569.595947044855
 21
1612.571144758108
  0
LINE
  5
E5
100
AcDbEntity
  8
____
  6
CONTINUOUS
 62
           3
100
AcDbLine
 10
-1579.912775413718
 20
1614.918558193263
 11
-1570.08722458623
 21
1614.918558193263
  0
LINE
  5
E4
100
AcDbEntity
  8
____
  6
CONTINUOUS
 62
           3
100
AcDbLine
 10
-1580.404052955093
 20
1612.571144758109
 11
-1580.404052955093
 21
1614.449075506231
  0
LINE
  5
E3
100
AcDbEntity
  8
____
  6
CONTINUOUS
 62
           3
100
AcDbLine
 10
-1569.49769153659
 20
1576.890460543777
 11
-1580.502308463367
 21
1576.890460543777
  0
LINE
  5
E2
100
AcDbEntity
  8
____
  6
CONTINUOUS
 62
           3
100
AcDbLine
 10
-1569.497691536589
 20
1612.571144758108
 11
-1569.49769153659
 21
1576.890460543777
  0
LINE
  5
E1
100
AcDbEntity
  8
____
  6
CONTINUOUS
 62
           3
100
AcDbLine
 10
-1580.502308463366
 20
1612.571144758109
 11
-1569.497691536589
 21
1612.571144758108
  0
LINE
  5
E0
100
AcDbEntity
  8
____
  6
CONTINUOUS
 62
           3
100
AcDbLine
 10
-1580.502308463367
 20
1576.890460543777
 11
-1580.502308463366
 21
1612.571144758109
  0
LINE
  5
DF
100
AcDbEntity
  8
____
  6
CONTINUOUS
 62
           3
100
AcDbLine
 10
-1580.404052955094
 20
1538.392880207259
 11
-1580.404052955094
 21
1540.270810955382
  0
LINE
  5
DE
100
AcDbEntity
  8
____
  6
CONTINUOUS
 62
           3
100
AcDbLine
 10
-1570.08722458623
 20
1537.92339752023
 11
-1579.912775413719
 21
1537.92339752023
  0
LINE
  5
DD
100
AcDbEntity
  8
____
  6
CONTINUOUS
 62
           3
100
AcDbLine
 10
-1569.595947044856
 20
1540.270810955382
 11
-1569.595947044856
 21
1538.392880207259
  0
LINE
  5
DC
100
AcDbEntity
  8
____
  6
CONTINUOUS
 62
           3
100
AcDbLine
 10
-1580.158414184406
 20
1576.890460543777
 11
-1580.158414184406
 21
1575.951495169715
  0
LINE
  5
DB
100
AcDbEntity
  8
____
  6
CONTINUOUS
 62
           3
100
AcDbLine
 10
-1569.841585815543
 20
1576.890460543777
 11
-1580.158414184406
 21
1576.890460543777
  0
LINE
  5
DA
100
AcDbEntity
  8
____
  6
CONTINUOUS
 62
           3
100
AcDbLine
 10
-1569.841585815543
 20
1575.951495169715
 11
-1569.841585815543
 21
1576.890460543777
  0
LINE
  5
D9
100
AcDbEntity
  8
____
  6
CONTINUOUS
 62
           3
100
AcDbLine
 10
-1580.404052955093
 20
1614.449075506231
 11
-1569.595947044855
 21
1614.449075506231
  0
LINE
  5
D8
100
AcDbEntity
  8
____
  6
CONTINUOUS
 62
           3
100
AcDbLine
 10
-1580.502308463367
 20
1575.951495169715
 11
-1569.49769153659
 21
1575.951495169715
  0
LINE
  5
D7
100
AcDbEntity
  8
____
  6
CONTINUOUS
 62
           3
100
AcDbLine
 10
-1580.502308463367
 20
1540.270810955382
 11
-1580.502308463367
 21
1575.951495169715
  0
LINE
  5
D6
100
AcDbEntity
  8
____
  6
CONTINUOUS
 62
           3
100
AcDbLine
 10
-1569.49769153659
 20
1540.270810955382
 11
-1580.502308463367
 21
1540.270810955382
  0
LINE
  5
D5
100
AcDbEntity
  8
____
  6
CONTINUOUS
 62
           3
100
AcDbLine
 10
-1569.49769153659
 20
1575.951495169715
 11
-1569.49769153659
 21
1540.270810955382
  0
LINE
  5
D4
100
AcDbEntity
  8
____
  6
CONTINUOUS
 62
           3
100
AcDbLine
 10
-1580.404052955093
 20
1614.449075506231
 11
-1579.912775413718
 21
1614.918558193263
  0
LINE
  5
D3
100
AcDbEntity
  8
____
  6
CONTINUOUS
 62
           3
100
AcDbLine
 10
-1570.08722458623
 20
1614.918558193263
 11
-1569.595947044855
 21
1614.449075506231
  0
LINE
  5
D2
100
AcDbEntity
  8
____
  6
CONTINUOUS
 62
           3
100
AcDbLine
 10
-1579.912775413719
 20
1537.92339752023
 11
-1580.404052955094
 21
1538.392880207259
  0
LINE
  5
D1
100
AcDbEntity
  8
____
  6
CONTINUOUS
 62
           3
100
AcDbLine
 10
-1569.595947044856
 20
1538.392880207259
 11
-1570.08722458623
 21
1537.92339752023
  0
LINE
  5
D0
100
AcDbEntity
  8
____
  6
CONTINUOUS
 62
           3
100
AcDbLine
 10
-1580.404052955094
 20
1538.392880207259
 11
-1569.595947044856
 21
1538.392880207259
  0
LINE
  5
CF
100
AcDbEntity
  8
____
  6
CONTINUOUS
 62
           3
100
AcDbLine
 10
-1580.404052955118
 20
984.403309517206
 11
-1569.59594704488
 21
984.403309517206
  0
LINE
  5
CE
100
AcDbEntity
  8
____
  6
CONTINUOUS
 62
           3
100
AcDbLine
 10
-1569.59594704488
 20
984.403309517206
 11
-1570.087224586255
 21
983.933826830174
  0
LINE
  5
CD
100
AcDbEntity
  8
____
  6
CONTINUOUS
 62
           3
100
AcDbLine
 10
-1579.912775413744
 20
983.933826830174
 11
-1580.404052955118
 21
984.403309517206
  0
LINE
  5
CC
100
AcDbEntity
  8
____
  6
CONTINUOUS
 62
           3
100
AcDbLine
 10
-1570.087224586253
 20
1060.928987503209
 11
-1569.595947044878
 21
1060.459504816178
  0
LINE
  5
CB
100
AcDbEntity
  8
____
  6
CONTINUOUS
 62
           3
100
AcDbLine
 10
-1580.404052955116
 20
1060.459504816178
 11
-1579.912775413742
 21
1060.928987503209
  0
LINE
  5
CA
100
AcDbEntity
  8
____
  6
CONTINUOUS
 62
           3
100
AcDbLine
 10
-1569.497691536606
 20
1021.961924479661
 11
-1569.497691536607
 21
986.281240265329
  0
LINE
  5
C9
100
AcDbEntity
  8
____
  6
CONTINUOUS
 62
           3
100
AcDbLine
 10
-1569.497691536607
 20
986.281240265329
 11
-1580.502308463383
 21
986.281240265329
  0
LINE
  5
C8
100
AcDbEntity
  8
____
  6
CONTINUOUS
 62
           3
100
AcDbLine
 10
-1580.502308463383
 20
986.281240265329
 11
-1580.502308463383
 21
1021.961924479661
  0
LINE
  5
C7
100
AcDbEntity
  8
____
  6
CONTINUOUS
 62
           3
100
AcDbLine
 10
-1580.502308463383
 20
1021.961924479661
 11
-1569.497691536606
 21
1021.961924479661
  0
LINE
  5
C6
100
AcDbEntity
  8
____
  6
CONTINUOUS
 62
           3
100
AcDbLine
 10
-1580.404052955116
 20
1060.459504816178
 11
-1569.595947044878
 21
1060.459504816178
  0
LINE
  5
C5
100
AcDbEntity
  8
____
  6
CONTINUOUS
 62
           3
100
AcDbLine
 10
-1569.841585815567
 20
1021.961924479661
 11
-1569.841585815567
 21
1022.900889853722
  0
LINE
  5
C4
100
AcDbEntity
  8
____
  6
CONTINUOUS
 62
           3
100
AcDbLine
 10
-1569.841585815567
 20
1022.900889853722
 11
-1580.15841418443
 21
1022.900889853723
  0
LINE
  5
C3
100
AcDbEntity
  8
____
  6
CONTINUOUS
 62
           3
100
AcDbLine
 10
-1580.15841418443
 20
1022.900889853723
 11
-1580.15841418443
 21
1021.961924479661
  0
LINE
  5
C2
100
AcDbEntity
  8
____
  6
CONTINUOUS
 62
           3
100
AcDbLine
 10
-1569.59594704488
 20
986.281240265329
 11
-1569.59594704488
 21
984.403309517206
  0
LINE
  5
C1
100
AcDbEntity
  8
____
  6
CONTINUOUS
 62
           3
100
AcDbLine
 10
-1570.087224586255
 20
983.933826830174
 11
-1579.912775413744
 21
983.933826830174
  0
LINE
  5
C0
100
AcDbEntity
  8
____
  6
CONTINUOUS
 62
           3
100
AcDbLine
 10
-1580.404052955118
 20
984.403309517206
 11
-1580.404052955118
 21
986.281240265329
  0
LINE
  5
BF
100
AcDbEntity
  8
____
  6
CONTINUOUS
 62
           3
100
AcDbLine
 10
-1580.502308463383
 20
1022.900889853723
 11
-1580.502308463382
 21
1058.581574068056
  0
LINE
  5
BE
100
AcDbEntity
  8
____
  6
CONTINUOUS
 62
           3
100
AcDbLine
 10
-1580.502308463382
 20
1058.581574068056
 11
-1569.497691536605
 21
1058.581574068056
  0
LINE
  5
BD
100
AcDbEntity
  8
____
  6
CONTINUOUS
 62
           3
100
AcDbLine
 10
-1569.497691536605
 20
1058.581574068056
 11
-1569.497691536606
 21
1022.900889853722
  0
LINE
  5
BC
100
AcDbEntity
  8
____
  6
CONTINUOUS
 62
           3
100
AcDbLine
 10
-1569.497691536606
 20
1022.900889853722
 11
-1580.502308463383
 21
1022.900889853723
  0
LINE
  5
BB
100
AcDbEntity
  8
____
  6
CONTINUOUS
 62
           3
100
AcDbLine
 10
-1580.404052955116
 20
1058.581574068056
 11
-1580.404052955116
 21
1060.459504816178
  0
LINE
  5
BA
100
AcDbEntity
  8
____
  6
CONTINUOUS
 62
           3
100
AcDbLine
 10
-1579.912775413742
 20
1060.928987503209
 11
-1570.087224586253
 21
1060.928987503209
  0
LINE
  5
B9
100
AcDbEntity
  8
____
  6
CONTINUOUS
 62
           3
100
AcDbLine
 10
-1569.595947044878
 20
1060.459504816178
 11
-1569.595947044878
 21
1058.581574068056
  0
LINE
  5
B8
100
AcDbEntity
  8
___S__
  6
DOT_CENTER
 62
           3
100
AcDbLine
 10
-1574.999999999998
 20
1067.06326659646
 11
-1574.999999999999
 21
982.067556365335
  0
LINE
  5
B7
100
AcDbEntity
  8
1
  6
CONTINUOUS
 62
           7
100
AcDbLine
 10
-1569.497691536607
 20
986.513526798368
 11
-424.999999999998
 21
986.513526798368
  0
LINE
  5
B6
100
AcDbEntity
  8
1
  6
CONTINUOUS
 62
           4
100
AcDbLine
 10
4343.785433156712
 20
1800.831132334581
 11
4343.785433156712
 21
520.0
  0
LINE
  5
B5
100
AcDbEntity
  8
1
  6
CONTINUOUS
 62
           7
100
AcDbLine
 10
4323.785433156712
 20
1784.157226830837
 11
4323.785433156712
 21
2000.0
  0
LINE
  5
B4
100
AcDbEntity
  8
1
  6
CONTINUOUS
 62
           4
100
AcDbLine
 10
4303.785433156712
 20
1741.488764155295
 11
4303.785433156712
 21
1980.0
  0
LINE
  5
B3
100
AcDbEntity
  8
1
  6
CONTINUOUS
 62
           7
100
AcDbLine
 10
2000.000000000001
 20
1763.744569986044
 11
-1999.999999999999
 21
1763.744569986044
  0
LINE
  5
B2
100
AcDbEntity
  8
1
  6
CONTINUOUS
 62
           7
100
AcDbLine
 10
-1000.0
 20
2000.0
 11
-999.999999999999
 21
1763.744569986044
  0
LINE
  5
B1
100
AcDbEntity
  8
1
  6
CONTINUOUS
 62
           7
100
AcDbLine
 10
1000.0
 20
1763.744569986044
 11
1000.0
 21
2000.0
  0
LINE
  5
B0
100
AcDbEntity
  8
1
  6
CONTINUOUS
 62
           7
100
AcDbLine
 10
3873.785433156713
 20
1639.999999999999
 11
4053.785433156712
 21
1639.999999999999
  0
LINE
  5
AF
100
AcDbEntity
  8
1
  6
CONTINUOUS
 62
           7
100
AcDbLine
 10
4053.785433156712
 20
1639.999999999999
 11
4053.785433156712
 21
1753.0
  0
LINE
  5
AE
100
AcDbEntity
  8
1
  6
CONTINUOUS
 62
           7
100
AcDbLine
 10
4053.785433156712
 20
1753.0
 11
3873.785433156713
 21
1752.999999999999
  0
LINE
  5
AD
100
AcDbEntity
  8
1
  6
CONTINUOUS
 62
           7
100
AcDbLine
 10
3873.785433156713
 20
1752.999999999999
 11
3873.785433156713
 21
1639.999999999999
  0
LINE
  5
AC
100
AcDbEntity
  8
1
  6
DOT_CENTER
 62
           2
100
AcDbLine
 10
-324.999999999996
 20
6158.888968922948
 11
-324.999999999996
 21
5918.045008217871
  0
LINE
  5
AB
100
AcDbEntity
  8
1
  6
DOT_CENTER
 62
           2
100
AcDbLine
 10
-684.888003224811
 20
5539.999999999999
 11
545.186362609778
 21
5539.999999999999
  0
LINE
  5
AA
100
AcDbEntity
  8
1
  6
CONTINUOUS
 62
           7
100
AcDbLine
 10
127.928556845361
 20
5000.0
 11
2050.000000000001
 21
5000.0
  0
LINE
  5
A9
100
AcDbEntity
  8
1
  6
CONTINUOUS
 62
           4
100
AcDbLine
 10
-659.999999999999
 20
5980.0
 11
-1979.999999999999
 21
5980.0
  0
LINE
  5
A8
100
AcDbEntity
  8
1
  6
CONTINUOUS
 62
           7
100
AcDbLine
 10
4323.785433156709
 20
2050.0
 11
5323.785433156709
 21
2050.0
  0
LINE
  5
A7
100
AcDbEntity
  8
1
  6
CONTINUOUS
 62
           7
100
AcDbLine
 10
5323.785433156709
 20
2000.0
 11
3823.78543315671
 21
2000.0
  0
LINE
  5
A6
100
AcDbEntity
  8
1
  6
CONTINUOUS
 62
           7
100
AcDbLine
 10
3823.78543315671
 20
2500.0
 11
3323.78543315671
 21
2500.0
  0
LINE
  5
A5
100
AcDbEntity
  8
1
  6
CONTINUOUS
 62
           4
100
AcDbLine
 10
4323.785433156709
 20
2003.0
 11
5323.785433156709
 21
2003.0
  0
LINE
  5
A4
100
AcDbEntity
  8
1
  6
CONTINUOUS
 62
           4
100
AcDbLine
 10
4323.785433156709
 20
2040.0
 11
5323.785433156709
 21
2040.0
  0
LINE
  5
A3
100
AcDbEntity
  8
1
  6
CONTINUOUS
 62
           7
100
AcDbLine
 10
3823.785433156708
 20
2550.0
 11
4323.785433156709
 21
2050.0
  0
LINE
  5
A2
100
AcDbEntity
  8
1
  6
CONTINUOUS
 62
           7
100
AcDbLine
 10
2000.000000000001
 20
2000.0
 11
-1999.999999999999
 21
2000.0
  0
LINE
  5
A1
100
AcDbEntity
  8
1
  6
CONTINUOUS
 62
           4
100
AcDbLine
 10
-2039.999999999999
 20
4500.0
 11
-2039.999999999999
 21
4050.0
  0
LINE
  5
A0
100
AcDbEntity
  8
1
  6
CONTINUOUS
 62
           4
100
AcDbLine
 10
-2002.999999999999
 20
4500.0
 11
-2002.999999999999
 21
4050.0
  0
LINE
  5
9F
100
AcDbEntity
  8
1
  6
CONTINUOUS
 62
           4
100
AcDbLine
 10
2003.000000000001
 20
4500.0
 11
2003.000000000001
 21
4050.0
  0
LINE
  5
9E
100
AcDbEntity
  8
1
  6
CONTINUOUS
 62
           4
100
AcDbLine
 10
2040.000000000001
 20
4500.0
 11
2040.000000000001
 21
4050.0
  0
LINE
  5
9D
100
AcDbEntity
  8
1
  6
CONTINUOUS
 62
           7
100
AcDbLine
 10
-1000.0
 20
4500.0
 11
-1000.0
 21
5000.0
  0
LINE
  5
9C
100
AcDbEntity
  8
1
  6
CONTINUOUS
 62
           7
100
AcDbLine
 10
1000.000000000001
 20
5000.0
 11
1000.000000000001
 21
4500.0
  0
LINE
  5
9B
100
AcDbEntity
  8
1
  6
CONTINUOUS
 62
           7
100
AcDbLine
 10
-2049.999999999999
 20
4500.0
 11
2050.000000000001
 21
4500.0
  0
LINE
  5
9A
100
AcDbEntity
  8
1
  6
CONTINUOUS
 62
           4
100
AcDbLine
 10
-20.0
 20
4480.000000000001
 11
-1979.999999999999
 21
4480.0
  0
LINE
  5
99
100
AcDbEntity
  8
1
  6
CONTINUOUS
 62
           7
100
AcDbLine
 10
2325.32493487326
 20
0.0
 11
-2213.22080291971
 21
0.0
  0
LINE
  5
98
100
AcDbEntity
  8
1
  6
CONTINUOUS
 62
           7
100
AcDbLine
 10
500.000000000001
 20
5000.0
 11
500.000000000001
 21
6000.0
  0
LINE
  5
97
100
AcDbEntity
  8
1
  6
CONTINUOUS
 62
           7
100
AcDbLine
 10
-2049.999999999999
 20
5000.0
 11
-469.686848609768
 21
5000.0
  0
LINE
  5
96
100
AcDbEntity
  8
1
  6
CONTINUOUS
 62
           7
100
AcDbLine
 10
4053.78543315671
 20
1589.999999999999
 11
4053.78543315671
 21
1350.0
  0
LINE
  5
95
100
AcDbEntity
  8
1
  6
CONTINUOUS
 62
           7
100
AcDbLine
 10
3873.78543315671
 20
1350.0
 11
3873.78543315671
 21
1589.999999999999
  0
LINE
  5
94
100
AcDbEntity
  8
1
  6
CONTINUOUS
 62
           7
100
AcDbLine
 10
3873.78543315671
 20
1589.999999999999
 11
4053.78543315671
 21
1589.999999999999
  0
LINE
  5
93
100
AcDbEntity
  8
1
  6
CONTINUOUS
 62
           7
100
AcDbLine
 10
4053.78543315671
 20
1350.0
 11
3873.78543315671
 21
1350.0
  0
LINE
  5
92
100
AcDbEntity
  8
1
  6
CONTINUOUS
 62
           7
100
AcDbLine
 10
3563.785433156709
 20
1950.0
 11
3373.78543315671
 21
1950.0
  0
LINE
  5
91
100
AcDbEntity
  8
1
  6
CONTINUOUS
 62
           7
100
AcDbLine
 10
3373.78543315671
 20
1950.0
 11
3373.78543315671
 21
1862.0
  0
LINE
  5
90
100
AcDbEntity
  8
1
  6
CONTINUOUS
 62
           7
100
AcDbLine
 10
3373.78543315671
 20
1862.0
 11
3563.785433156709
 21
1862.0
  0
LINE
  5
8F
100
AcDbEntity
  8
1
  6
CONTINUOUS
 62
           7
100
AcDbLine
 10
3563.785433156709
 20
1862.0
 11
3563.785433156709
 21
1950.0
  0
LINE
  5
8E
100
AcDbEntity
  8
1
  6
CONTINUOUS
 62
           4
100
AcDbLine
 10
-2039.999999999999
 20
6000.0
 11
-2039.999999999999
 21
5000.0
  0
LINE
  5
8D
100
AcDbEntity
  8
1
  6
CONTINUOUS
 62
           4
100
AcDbLine
 10
2040.000000000001
 20
6000.0
 11
2040.000000000001
 21
5000.0
  0
LINE
  5
8C
100
AcDbEntity
  8
1
  6
CONTINUOUS
 62
           4
100
AcDbLine
 10
3323.78543315671
 20
2540.0
 11
3823.78543315671
 21
2540.0
  0
LINE
  5
8B
100
AcDbEntity
  8
1
  6
CONTINUOUS
 62
           7
100
AcDbLine
 10
0.0
 20
475.000000000001
 11
0.0
 21
400.0
  0
LINE
  5
8A
100
AcDbEntity
  8
1
  6
CONTINUOUS
 62
           4
100
AcDbLine
 10
1980.000000000001
 20
4480.0
 11
20.0
 21
4480.0
  0
LINE
  5
89
100
AcDbEntity
  8
1
  6
CONTINUOUS
 62
           7
100
AcDbLine
 10
5823.78543315671
 20
0.0
 11
2823.78543315671
 21
0.0
  0
LINE
  5
88
100
AcDbEntity
  8
1
  6
CONTINUOUS
 62
           4
100
AcDbLine
 10
-2002.999999999999
 20
6000.0
 11
-2002.999999999999
 21
5000.0
  0
LINE
  5
87
100
AcDbEntity
  8
1
  6
CONTINUOUS
 62
           4
100
AcDbLine
 10
1980.000000000001
 20
5020.0
 11
520.0
 21
5020.0
  0
LINE
  5
86
100
AcDbEntity
  8
1
  6
CONTINUOUS
 62
           4
100
AcDbLine
 10
1980.000000000001
 20
5980.0
 11
520.0
 21
5980.0
  0
LINE
  5
85
100
AcDbEntity
  8
1
  6
CONTINUOUS
 62
           4
100
AcDbLine
 10
2003.000000000001
 20
6000.0
 11
2003.000000000001
 21
5000.0
  0
LINE
  5
84
100
AcDbEntity
  8
1
  6
CONTINUOUS
 62
           7
100
AcDbLine
 10
3803.785433156709
 20
1092.5
 11
3706.285433156709
 21
1092.5
  0
LINE
  5
83
100
AcDbEntity
  8
1
  6
CONTINUOUS
 62
           7
100
AcDbLine
 10
3803.785433156709
 20
1107.5
 11
3706.285433156709
 21
1107.5
  0
LINE
  5
82
100
AcDbEntity
  8
1
  6
CONTINUOUS
 62
           7
100
AcDbLine
 10
3686.285433156709
 20
1180.0
 11
3686.285433156709
 21
1112.5
  0
LINE
  5
81
100
AcDbEntity
  8
1
  6
CONTINUOUS
 62
           7
100
AcDbLine
 10
3701.28543315671
 20
1180.0
 11
3701.28543315671
 21
1112.5
  0
LINE
  5
80
100
AcDbEntity
  8
1
  6
CONTINUOUS
 62
           4
100
AcDbLine
 10
1980.000000000001
 20
4480.0
 11
1980.000000000001
 21
4050.0
  0
LINE
  5
7F
100
AcDbEntity
  8
1
  6
CONTINUOUS
 62
           4
100
AcDbLine
 10
1980.000000000001
 20
5980.0
 11
1980.000000000001
 21
5020.0
  0
LINE
  5
7E
100
AcDbEntity
  8
1
  6
CONTINUOUS
 62
           7
100
AcDbLine
 10
2050.000000000001
 20
4000.0
 11
2050.000000000001
 21
6000.0
  0
LINE
  5
7D
100
AcDbEntity
  8
1
  6
CONTINUOUS
 62
           7
100
AcDbLine
 10
3423.78543315671
 20
1630.0
 11
3423.78543315671
 21
1180.0
  0
LINE
  5
7C
100
AcDbEntity
  8
1
  6
CONTINUOUS
 62
           7
100
AcDbLine
 10
3723.785433156709
 20
1630.0
 11
3423.78543315671
 21
1630.0
  0
LINE
  5
7B
100
AcDbEntity
  8
1
  6
CONTINUOUS
 62
           7
100
AcDbLine
 10
3723.785433156709
 20
1180.0
 11
3723.785433156709
 21
1630.0
  0
LINE
  5
7A
100
AcDbEntity
  8
1
  6
CONTINUOUS
 62
           7
100
AcDbLine
 10
3423.78543315671
 20
1180.0
 11
3723.785433156709
 21
1180.0
  0
LINE
  5
79
100
AcDbEntity
  8
1
  6
DOT_CENTER
 62
           2
100
AcDbLine
 10
4623.785433156709
 20
675.0
 11
4623.785433156709
 21
525.0
  0
LINE
  5
78
100
AcDbEntity
  8
1
  6
DOT_CENTER
 62
           2
100
AcDbLine
 10
4548.785433156709
 20
600.0
 11
4698.785433156709
 21
600.0
  0
LINE
  5
77
100
AcDbEntity
  8
1
  6
DOT_CENTER
 62
           2
100
AcDbLine
 10
0.0
 20
400.0
 11
0.0
 21
-130.0
  0
LINE
  5
76
100
AcDbEntity
  8
1
  6
CONTINUOUS
 62
           7
100
AcDbLine
 10
0.0
 20
1763.744569986044
 11
0.0
 21
500.0
  0
LINE
  5
75
100
AcDbEntity
  8
1
  6
CONTINUOUS
 62
           7
100
AcDbLine
 10
1985.000000000001
 20
540.0
 11
15.0
 21
540.0
  0
LINE
  5
74
100
AcDbEntity
  8
1
  6
CONTINUOUS
 62
           7
100
AcDbLine
 10
-1999.999999999999
 20
500.0
 11
-1984.999999999999
 21
500.0
  0
LINE
  5
73
100
AcDbEntity
  8
1
  6
CONTINUOUS
 62
           7
100
AcDbLine
 10
1985.000000000001
 20
500.0
 11
2000.000000000001
 21
500.0
  0
LINE
  5
72
100
AcDbEntity
  8
1
  6
CONTINUOUS
 62
           7
100
AcDbLine
 10
-1999.999999999999
 20
800.0
 11
2000.000000000001
 21
800.0
  0
LINE
  5
71
100
AcDbEntity
  8
1
  6
CONTINUOUS
 62
           7
100
AcDbLine
 10
-1999.999999999999
 20
513.85332266763
 11
-1999.999999999999
 21
572.607085651512
  0
LINE
  5
70
100
AcDbEntity
  8
1
  6
CONTINUOUS
 62
           7
100
AcDbLine
 10
15.0
 20
540.0
 11
15.0
 21
475.000000000001
  0
LINE
  5
6F
100
AcDbEntity
  8
1
  6
CONTINUOUS
 62
           7
100
AcDbLine
 10
1985.000000000001
 20
540.0
 11
1985.000000000001
 21
475.000000000001
  0
LINE
  5
6E
100
AcDbEntity
  8
1
  6
CONTINUOUS
 62
           7
100
AcDbLine
 10
-1999.999999999999
 20
400.0
 11
2000.000000000001
 21
400.0
  0
LINE
  5
6D
100
AcDbEntity
  8
1
  6
CONTINUOUS
 62
           7
100
AcDbLine
 10
2000.000000000001
 20
50.0
 11
-1999.999999999999
 21
50.0
  0
LINE
  5
6C
100
AcDbEntity
  8
1
  6
CONTINUOUS
 62
           7
100
AcDbLine
 10
2000.000000000001
 20
1900.0
 11
-1999.999999999999
 21
1900.0
  0
LINE
  5
6B
100
AcDbEntity
  8
1
  6
CONTINUOUS
 62
           7
100
AcDbLine
 10
2000.000000000001
 20
0.0
 11
2000.000000000001
 21
2500.0
  0
LINE
  5
6A
100
AcDbEntity
  8
1
  6
CONTINUOUS
 62
           7
100
AcDbLine
 10
-1999.999999999999
 20
0.0
 11
-1999.999999999999
 21
2500.0
  0
LINE
  5
69
100
AcDbEntity
  8
1
  6
CONTINUOUS
 62
           7
100
AcDbLine
 10
4323.785433156709
 20
2075.0
 11
5323.785433156709
 21
2075.0
  0
LINE
  5
68
100
AcDbEntity
  8
1
  6
CONTINUOUS
 62
           7
100
AcDbLine
 10
4323.785433156709
 20
2000.0
 11
4323.785433156709
 21
2075.0
  0
LINE
  5
67
100
AcDbEntity
  8
1
  6
CONTINUOUS
 62
           7
100
AcDbLine
 10
3323.78543315671
 20
2550.0
 11
3823.785433156708
 21
2550.0
  0
LINE
  5
66
100
AcDbEntity
  8
1
  6
CONTINUOUS
 62
           4
100
AcDbLine
 10
3323.78543315671
 20
2503.000000000001
 11
3823.78543315671
 21
2503.0
  0
LINE
  5
65
100
AcDbEntity
  8
1
  6
CONTINUOUS
 62
           7
100
AcDbLine
 10
3373.78543315671
 20
2630.0
 11
3373.785433156711
 21
2650.0
  0
LINE
  5
64
100
AcDbEntity
  8
1
  6
CONTINUOUS
 62
           7
100
AcDbLine
 10
3323.78543315671
 20
2650.0
 11
3373.785433156711
 21
2650.0
  0
LINE
  5
63
100
AcDbEntity
  8
1
  6
CONTINUOUS
 62
           7
100
AcDbLine
 10
5323.78543315671
 20
0.0
 11
5323.785433156709
 21
2075.0
  0
LINE
  5
62
100
AcDbEntity
  8
1
  6
CONTINUOUS
 62
           7
100
AcDbLine
 10
3323.78543315671
 20
0.0
 11
3323.78543315671
 21
2650.0
  0
LINE
  5
61
100
AcDbEntity
  8
1
  6
CONTINUOUS
 62
           7
100
AcDbLine
 10
2050.000000000001
 20
2500.0
 11
-2049.999999999999
 21
2500.0
  0
LINE
  5
60
100
AcDbEntity
  8
1
  6
CONTINUOUS
 62
           7
100
AcDbLine
 10
-2049.999999999999
 20
2650.0
 11
-2049.999999999999
 21
0.0
  0
LINE
  5
5F
100
AcDbEntity
  8
1
  6
CONTINUOUS
 62
           7
100
AcDbLine
 10
2050.000000000001
 20
0.0
 11
2050.000000000001
 21
2650.0
  0
LINE
  5
5E
100
AcDbEntity
  8
1
  6
CONTINUOUS
 62
           7
100
AcDbLine
 10
2050.000000000001
 20
1630.0
 11
2170.000000000001
 21
1630.0
  0
LINE
  5
5D
100
AcDbEntity
  8
1
  6
CONTINUOUS
 62
           7
100
AcDbLine
 10
2050.000000000001
 20
1180.0
 11
2170.000000000001
 21
1180.0
  0
LINE
  5
5C
100
AcDbEntity
  8
1
  6
CONTINUOUS
 62
           7
100
AcDbLine
 10
2050.000000000001
 20
6000.0
 11
0.999999999998
 21
6000.0
  0
LINE
  5
5B
100
AcDbEntity
  8
1
  6
CONTINUOUS
 62
           7
100
AcDbLine
 10
2050.000000000001
 20
4100.0
 11
2170.000000000001
 21
4100.0
  0
LINE
  5
5A
100
AcDbEntity
  8
1
  6
CONTINUOUS
 62
           7
100
AcDbLine
 10
2050.000000000001
 20
4400.0
 11
2170.000000000001
 21
4400.0
  0
LINE
  5
59
100
AcDbEntity
  8
1
  6
CONTINUOUS
 62
           4
100
AcDbLine
 10
-1979.999999999999
 20
5020.0
 11
-1979.999999999999
 21
5980.0
  0
LINE
  5
58
100
AcDbEntity
  8
1
  6
CONTINUOUS
 62
           4
100
AcDbLine
 10
-1979.999999999999
 20
5020.0
 11
-520.0
 21
5020.0
  0
LINE
  5
57
100
AcDbEntity
  8
1
  6
CONTINUOUS
 62
           7
100
AcDbLine
 10
2000.000000000001
 20
4050.0
 11
2000.000000000001
 21
6000.0
  0
LINE
  5
56
100
AcDbEntity
  8
1
  6
CONTINUOUS
 62
           7
100
AcDbLine
 10
-1999.999999999999
 20
4050.0
 11
-1999.999999999999
 21
6000.0
  0
LINE
  5
55
100
AcDbEntity
  8
1
  6
CONTINUOUS
 62
           4
100
AcDbLine
 10
-1979.999999999999
 20
4480.0
 11
-1979.999999999999
 21
4050.0
  0
LINE
  5
54
100
AcDbEntity
  8
1
  6
CONTINUOUS
 62
           7
100
AcDbLine
 10
-2049.999999999999
 20
4050.0
 11
2050.000000000001
 21
4050.0
  0
LINE
  5
53
100
AcDbEntity
  8
1
  6
CONTINUOUS
 62
           4
100
AcDbLine
 10
-20.0
 20
4050.0
 11
-20.0
 21
4476.83281642833
  0
LINE
  5
52
100
AcDbEntity
  8
1
  6
CONTINUOUS
 62
           7
100
AcDbLine
 10
-2049.999999999999
 20
6000.0
 11
-2049.999999999999
 21
4000.0
  0
LINE
  5
51
100
AcDbEntity
  8
1
  6
CONTINUOUS
 62
           7
100
AcDbLine
 10
-2049.999999999999
 20
4000.0
 11
2050.000000000001
 21
4000.0
  0
LINE
  5
50
100
AcDbEntity
  8
1
  6
CONTINUOUS
 62
           4
100
AcDbLine
 10
3343.78543315671
 20
20.0
 11
3803.785433156709
 21
20.0
  0
LINE
  5
4F
100
AcDbEntity
  8
1
  6
CONTINUOUS
 62
           4
100
AcDbLine
 10
3803.785433156709
 20
20.0
 11
3803.78543315671
 21
2480.000000000001
  0
LINE
  5
4E
100
AcDbEntity
  8
1
  6
CONTINUOUS
 62
           4
100
AcDbLine
 10
3803.78543315671
 20
2480.000000000001
 11
3343.78543315671
 21
2480.0
  0
LINE
  5
4D
100
AcDbEntity
  8
1
  6
CONTINUOUS
 62
           4
100
AcDbLine
 10
3343.78543315671
 20
2480.0
 11
3343.78543315671
 21
20.0
  0
LINE
  5
4C
100
AcDbEntity
  8
1
  6
CONTINUOUS
 62
           7
100
AcDbLine
 10
3823.78543315671
 20
0.0
 11
3823.785433156708
 21
2550.0
  0
LINE
  5
4B
100
AcDbEntity
  8
1
  6
CONTINUOUS
 62
           7
100
AcDbLine
 10
3823.785433156709
 20
500.0
 11
5323.785433156709
 21
500.0
  0
LINE
  5
4A
100
AcDbEntity
  8
1
  6
CONTINUOUS
 62
           4
100
AcDbLine
 10
5303.21875846127
 20
479.385061529882
 11
3843.785433156709
 21
479.385061529882
  0
LINE
  5
49
100
AcDbEntity
  8
1
  6
CONTINUOUS
 62
           4
100
AcDbLine
 10
3843.785433156709
 20
479.385061529882
 11
3843.785433156709
 21
20.0
  0
LINE
  5
48
100
AcDbEntity
  8
1
  6
CONTINUOUS
 62
           4
100
AcDbLine
 10
3843.785433156709
 20
20.0
 11
5303.21875846127
 21
20.0
  0
LINE
  5
47
100
AcDbEntity
  8
1
  6
CONTINUOUS
 62
           4
100
AcDbLine
 10
5303.21875846127
 20
20.0
 11
5303.21875846127
 21
479.385061529882
  0
LINE
  5
46
100
AcDbEntity
  8
1
  6
CONTINUOUS
 62
           4
100
AcDbLine
 10
4303.785433156709
 20
1980.0
 11
3843.785433156709
 21
1980.0
  0
LINE
  5
45
100
AcDbEntity
  8
1
  6
CONTINUOUS
 62
           4
100
AcDbLine
 10
3843.785433156709
 20
1980.0
 11
3843.785433156709
 21
520.0
  0
LINE
  5
44
100
AcDbEntity
  8
1
  6
CONTINUOUS
 62
           4
100
AcDbLine
 10
3843.785433156709
 20
520.0
 11
4303.785433156709
 21
520.0
  0
LINE
  5
43
100
AcDbEntity
  8
1
  6
CONTINUOUS
 62
           4
100
AcDbLine
 10
4343.785433156709
 20
520.0
 11
5303.785433156709
 21
520.0
  0
LINE
  5
42
100
AcDbEntity
  8
1
  6
CONTINUOUS
 62
           4
100
AcDbLine
 10
5303.785433156709
 20
520.0
 11
5303.785433156709
 21
1980.0
  0
LINE
  5
41
100
AcDbEntity
  8
1
  6
CONTINUOUS
 62
           4
100
AcDbLine
 10
5303.785433156709
 20
1980.0
 11
4343.785433156709
 21
1980.0
  0
LINE
  5
40
100
AcDbEntity
  8
1
  6
CONTINUOUS
 62
           7
100
AcDbLine
 10
2170.000000000001
 20
1180.0
 11
2170.000000000001
 21
1630.0
  0
LINE
  5
3F
100
AcDbEntity
  8
1
  6
CONTINUOUS
 62
           7
100
AcDbLine
 10
2170.000000000001
 20
4400.0
 11
2170.000000000001
 21
4100.0
  0
LINE
  5
3E
100
AcDbEntity
  8
1
  6
CONTINUOUS
 62
           7
100
AcDbLine
 10
-1999.999999999999
 20
475.000000000001
 11
2000.000000000001
 21
475.000000000001
  0
LINE
  5
3D
100
AcDbEntity
  8
1
  6
CONTINUOUS
 62
           7
100
AcDbLine
 10
-1984.999999999999
 20
475.000000000001
 11
-1984.999999999999
 21
540.0
  0
LINE
  5
3C
100
AcDbEntity
  8
1
  6
CONTINUOUS
 62
           7
100
AcDbLine
 10
-15.0
 20
475.000000000001
 11
-15.0
 21
540.0
  0
LINE
  5
3B
100
AcDbEntity
  8
1
  6
CONTINUOUS
 62
           7
100
AcDbLine
 10
-15.0
 20
540.0
 11
-1984.999999999999
 21
540.0
  0
LINE
  5
3A
100
AcDbEntity
  8
1
  6
CONTINUOUS
 62
           7
100
AcDbLine
 10
-15.0
 20
500.0
 11
15.0
 21
500.0
  0
LINE
  5
39
100
AcDbEntity
  8
1
  6
CONTINUOUS
 62
           4
100
AcDbLine
 10
520.0
 20
5980.0
 11
520.0
 21
5020.0
  0
LINE
  5
38
100
AcDbEntity
  8
1
  6
CONTINUOUS
 62
           4
100
AcDbLine
 10
-520.0
 20
5020.0
 11
-520.0
 21
5197.571662593027
  0
LINE
  5
37
100
AcDbEntity
  8
1
  6
CONTINUOUS
 62
           7
100
AcDbLine
 10
-499.999999999999
 20
5000.0
 11
-499.999999999999
 21
5174.307806183469
  0
LINE
  5
36
100
AcDbEntity
  8
1
  6
CONTINUOUS
 62
           4
100
AcDbLine
 10
20.0
 20
4480.0
 11
20.0
 21
4050.0
  0
LINE
  5
35
100
AcDbEntity
  8
1
  6
CONTINUOUS
 62
           7
100
AcDbLine
 10
-469.686848609768
 20
5000.0
 11
-230.52558883258
 21
5000.0
  0
LINE
  5
34
100
AcDbEntity
  8
1
  6
CONTINUOUS
 62
           7
100
AcDbLine
 10
-651.000000000002
 20
6000.0
 11
-2049.999999999999
 21
6000.0
  0
LINE
  5
33
100
AcDbEntity
  8
1
  6
CONTINUOUS
 62
           7
100
AcDbLine
 10
2050.000000000001
 20
2650.0
 11
-2049.999999999999
 21
2650.0
  0
LINE
  5
32
100
AcDbEntity
  8
1
  6
DOT_CENTER
 62
           2
100
AcDbLine
 10
0.0
 20
1763.744569986044
 11
0.0
 21
3206.29466281406
  0
LINE
  5
31
100
AcDbEntity
  8
1
  6
CONTINUOUS
 62
           7
100
AcDbLine
 10
-0.000000000001
 20
4500.0
 11
0.0
 21
4050.0
  0
LINE
  5
30
100
AcDbEntity
  8
1
  6
CONTINUOUS
 62
           7
100
AcDbLine
 10
-1000.0
 20
2500.0
 11
-1000.0
 21
2000.0
  0
LINE
  5
2F
100
AcDbEntity
  8
1
  6
CONTINUOUS
 62
           7
100
AcDbLine
 10
1000.000000000001
 20
2500.0
 11
1000.000000000001
 21
2000.0
  0
LINE
  5
2E
100
AcDbEntity
  8
1
  6
DOT_CENTER
 62
           2
100
AcDbLine
 10
0.0
 20
6209.995588494465
 11
0.0
 21
3892.48376547512
  0
POINT
  5
2D
100
AcDbEntity
  8
0
 62
           3
100
AcDbPoint
 10
4157.185429878447
 20
1365.000000000117
  0
ENDSEC
  0
SECTION
  2
OBJECTS
  0
DICTIONARY
  5
19
100
AcDbDictionary
  3
ACAD_GROUP
350
1A
  3
ACAD_MLINESTYLE
350
1B
  0
DICTIONARY
  5
1A
102
{ACAD_REACTORS
330
19
102
}
100
AcDbDictionary
  0
DICTIONARY
  5
1B
102
{ACAD_REACTORS
330
19
102
}
100
AcDbDictionary
  3
STANDARD
350
1C
  0
MLINESTYLE
  5
1C
102
{ACAD_REACTORS
330
1B
102
}
100
AcDbMlineStyle
  2
STANDARD
 70
           0
  3

 62
           0
 51
90.0
 52
90.0
 71
           2
 49
0.5
 62
         256
  6
BYLAYER
 49
-0.5
 62
         256
  6
BYLAYER
  0
ENDSEC
  0
EOF
