  0
SECTION
  2
HEADER
  9
$ACADVER
  1
AC1014
  9
$ACADMAINTVER
 70
           0
  9
$DWGCODEPAGE
  3
DOS932
  9
$INSBASE
 10
0.0
 20
0.0
 30
0.0
  9
$EXTMIN
 10
1.000000000000E+20
 20
1.000000000000E+20
 30
1.000000000000E+20
  9
$EXTMAX
 10
-1.000000000000E+20
 20
-1.000000000000E+20
 30
-1.000000000000E+20
  9
$LIMMIN
 10
0.0
 20
0.0
  9
$LIMMAX
 10
0.0
 20
0.0
  9
$ORTHOMODE
 70
           0
  9
$REGENMODE
 70
           1
  9
$FILLMODE
 70
           1
  9
$QTEXTMODE
 70
           0
  9
$MIRRTEXT
 70
           1
  9
$DRAGMODE
 70
           2
  9
$LTSCALE
 40
1.0
  9
$OSMODE
 70
           0
  9
$ATTMODE
 70
           1
  9
$TEXTSIZE
 40
0.2
  9
$TRACEWID
 40
0.05
  9
$TEXTSTYLE
  7
STANDARD
  9
$CLAYER
  8
0
  9
$CELTYPE
  6
CONTINUOUS
  9
$CECOLOR
 62
         256
  9
$CELTSCALE
 40
1.0
  9
$DELOBJ
 70
           1
  9
$DISPSILH
 70
           0
  9
$DIMSCALE
 40
1.0
  9
$DIMASZ
 40
0.18
  9
$DIMEXO
 40
0.0625
  9
$DIMDLI
 40
0.38
  9
$DIMRND
 40
0.0
  9
$DIMDLE
 40
0.0
  9
$DIMEXE
 40
0.18
  9
$DIMTP
 40
0.0
  9
$DIMTM
 40
0.0
  9
$DIMTXT
 40
0.18
  9
$DIMCEN
 40
0.09
  9
$DIMTSZ
 40
0.0
  9
$DIMTOL
 70
           0
  9
$DIMLIM
 70
           0
  9
$DIMTIH
 70
           1
  9
$DIMTOH
 70
           1
  9
$DIMSE1
 70
           0
  9
$DIMSE2
 70
           0
  9
$DIMTAD
 70
           0
  9
$DIMZIN
 70
           0
  9
$DIMBLK
  1

  9
$DIMASO
 70
           1
  9
$DIMSHO
 70
           1
  9
$DIMPOST
  1

  9
$DIMAPOST
  1

  9
$DIMALT
 70
           0
  9
$DIMALTD
 70
           2
  9
$DIMALTF
 40
25.4
  9
$DIMLFAC
 40
1.0
  9
$DIMTOFL
 70
           0
  9
$DIMTVP
 40
0.0
  9
$DIMTIX
 70
           0
  9
$DIMSOXD
 70
           0
  9
$DIMSAH
 70
           0
  9
$DIMBLK1
  1

  9
$DIMBLK2
  1

  9
$DIMSTYLE
  2
STANDARD
  9
$DIMCLRD
 70
           0
  9
$DIMCLRE
 70
           0
  9
$DIMCLRT
 70
           0
  9
$DIMTFAC
 40
1.0
  9
$DIMGAP
 40
0.09
  9
$DIMJUST
 70
           0
  9
$DIMSD1
 70
           0
  9
$DIMSD2
 70
           0
  9
$DIMTOLJ
 70
           1
  9
$DIMTZIN
 70
           0
  9
$DIMALTZ
 70
           0
  9
$DIMALTTZ
 70
           0
  9
$DIMFIT
 70
           3
  9
$DIMUPT
 70
           0
  9
$DIMUNIT
 70
           2
  9
$DIMDEC
 70
           4
  9
$DIMTDEC
 70
           4
  9
$DIMALTU
 70
           2
  9
$DIMALTTD
 70
           2
  9
$DIMTXSTY
  7
STANDARD
  9
$DIMAUNIT
 70
           0
  9
$LUNITS
 70
           2
  9
$LUPREC
 70
           4
  9
$SKETCHINC
 40
0.1
  9
$FILLETRAD
 40
0.0
  9
$AUNITS
 70
           0
  9
$AUPREC
 70
           0
  9
$MENU
  1
acad
  9
$ELEVATION
 40
0.0
  9
$PELEVATION
 40
0.0
  9
$THICKNESS
 40
0.0
  9
$LIMCHECK
 70
           0
  9
$BLIPMODE
 70
           1
  9
$CHAMFERA
 40
0.0
  9
$CHAMFERB
 40
0.0
  9
$CHAMFERC
 40
0.0
  9
$CHAMFERD
 40
0.0
  9
$SKPOLY
 70
           0
  9
$TDCREATE
 40
0.000000000
  9
$TDUPDATE
 40
0.000000000
  9
$TDINDWG
 40
0.0000000000
  9
$TDUSRTIMER
 40
0.0000000000
  9
$USRTIMER
 70
           1
  9
$ANGBASE
 50
0.0
  9
$ANGDIR
 70
           0
  9
$PDMODE
 70
           0
  9
$PDSIZE
 40
0.0
  9
$PLINEWID
 40
0.0
  9
$COORDS
 70
           0
  9
$SPLFRAME
 70
           0
  9
$SPLINETYPE
 70
           6
  9
$SPLINESEGS
 70
           8
  9
$ATTDIA
 70
           0
  9
$ATTREQ
 70
           1
  9
$HANDLING
 70
           1
  9
$HANDSEED
  5
3C1
  9
$SURFTAB1
 70
           6
  9
$SURFTAB2
 70
           6
  9
$SURFTYPE
 70
           6
  9
$SURFU
 70
           6
  9
$SURFV
 70
           6
  9
$UCSNAME
  2

  9
$UCSORG
 10
0.0
 20
0.0
 30
0.0
  9
$UCSXDIR
 10
1.0
 20
0.0
 30
0.0
  9
$UCSYDIR
 10
0.0
 20
1.0
 30
0.0
  9
$PUCSNAME
  2

  9
$PUCSORG
 10
0.0
 20
0.0
 30
0.0
  9
$PUCSXDIR
 10
1.0
 20
0.0
 30
0.0
  9
$PUCSYDIR
 10
0.0
 20
1.0
 30
0.0
  9
$USERI1
 70
           0
  9
$USERI2
 70
           0
  9
$USERI3
 70
           0
  9
$USERI4
 70
           0
  9
$USERI5
 70
           0
  9
$USERR1
 40
0.0
  9
$USERR2
 40
0.0
  9
$USERR3
 40
0.0
  9
$USERR4
 40
0.0
  9
$USERR5
 40
0.0
  9
$WORLDVIEW
 70
           1
  9
$SHADEDGE
 70
           3
  9
$SHADEDIF
 70
          70
  9
$TILEMODE
 70
           1
  9
$MAXACTVP
 70
          16
  9
$PINSBASE
 10
0.0
 20
0.0
 30
0.0
  9
$PLIMCHECK
 70
           0
  9
$PEXTMIN
 10
1.000000000000E+20
 20
1.000000000000E+20
 30
1.000000000000E+20
  9
$PEXTMAX
 10
-1.000000000000E+20
 20
-1.000000000000E+20
 30
-1.000000000000E+20
  9
$PLIMMIN
 10
0.0
 20
0.0
  9
$PLIMMAX
 10
12.0
 20
9.0
  9
$UNITMODE
 70
           0
  9
$VISRETAIN
 70
           0
  9
$PLINEGEN
 70
           1
  9
$PSLTSCALE
 70
           0
  9
$TREEDEPTH
 70
        3020
  9
$PICKSTYLE
 70
           1
  9
$CMLSTYLE
  2
STANDARD
  9
$CMLJUST
 70
           0
  9
$CMLSCALE
 40
1.0
  9
$PROXYGRAPHICS
 70
           0
  9
$MEASUREMENT
 70
           0
  0
ENDSEC
  0
SECTION
  2
CLASSES
  0
CLASS
  1
LWPOLYLINE
  2
AcDbPolyline
  3
"AutoCAD"
 90
        0
280
           0
281
           1
  0
CLASS
  1
IMAGE
  2
AcDbRasterImage
  3
ISM
 90
      127
280
           0
281
           1
  0
CLASS
  1
OLE2FRAME
  2
AcDbOle2Frame
  3
""
 90
        0
280
           0
281
           1
  0
CLASS
  1
HATCH
  2
AcDbHatch
  3
"ACAD_SEDONA"
 90
        0
280
           0
281
           1
  0
CLASS
  1
DICTIONARYVAR
  2
AcDbDictionaryVar
  3
"AutoCAD"
 90
        0
280
           0
281
           0
  0
CLASS
  1
RASTERVARIABLES
  2
AcDbRasterVariables
  3
ISM
 90
        0
280
           0
281
           0
  0
CLASS
  1
IMAGEDEF
  2
AcDbRasterImageDef
  3
ISM
 90
        0
280
           0
281
           0
  0
CLASS
  1
IMAGEDEF_REACTOR
  2
AcDbRasterImageDefReactor
  3
ISM
 90
        1
280
           0
281
           0
  0
CLASS
  1
IDBUFFER
  2
AcDbIdBuffer
  3
"Acad"
 90
        0
280
           0
281
           0
  0
CLASS
  1
SPATIAL_FILTER
  2
AcDbSpatialFilter
  3
"Acad"
 90
        0
280
           0
281
           0
  0
CLASS
  1
XRECORD
  2
AcDbXrecord
  3
"<Built In>"
 90
        0
280
           0
281
           0
  0
CLASS
  1
SORTENTSTABLE
  2
AcDbSortentsTable
  3
"AutoCAD"
 90
        0
280
           0
281
           0
  0
CLASS
  1
LAYER_INDEX
  2
AcDbLayerIndex
  3
"Acad"
 90
        0
280
           0
281
           0
  0
CLASS
  1
SPATIAL_INDEX
  2
AcDbSpatialIndex
  3
"Acad"
 90
        0
280
           0
281
           0
  0
CLASS
  1
OBJECT_PTR
  2
CAseDLPNTableRecord
  3
"ASE-LPNTableRecord"
 90
        1
280
           0
281
           0
  0
CLASS
  1
LAYOUT
  2
AcDbLayout
  3
"AutoCAD 2000"
 90
        1
280
           0
281
           0
  0
CLASS
  1
PLOTSETTINGS
  2
AcDbPlotSettings
  3
"AutoCAD 2000"
 90
        1
280
           0
281
           0
  0
CLASS
  1
ACDBDICTIONARYWDFLT
  2
AcDbDictionaryWithDefault
  3
"AutoCAD 2000"
 90
        1
280
           0
281
           0
  0
CLASS
  1
ACDBPLACEHOLDER
  2
AcDbPlaceHolder
  3
"AutoCAD 2000"
 90
        1
280
           0
281
           0
  0
CLASS
  1
VBA_PROJECT
  2
AcDbVbaProject
  3
"acadvba"
 90
        1
280
           0
281
           0
  0
CLASS
  1
WIPEOUT
  2
AcDbWipeout
  3
WipeOut|AutoCAD Express Tool|expresstools@autodesk.com
 90
      127
280
           0
281
           1
  0
CLASS
  1
WIPEOUTVARIABLES
  2
AcDbWipeoutVariables
  3
WipeOut|AutoCAD Express Tool|expresstools@autodesk.com
 90
        0
280
           0
281
           0
  0
CLASS
  1
RTEXT
  2
RText
  3
RText|AutoCAD Express Tool|expresstools@autodesk.com
 90
        0
280
           0
281
           1
  0
CLASS
  1
ARCALIGNEDTEXT
  2
AcDbArcAlignedText
  3
ATEXT|AutoCAD Express Tool|expresstools@autodesk.com
 90
        0
280
           0
281
           1
  0
ENDSEC
  0
SECTION
  2
TABLES
  0
TABLE
  2
VPORT
  5
7
100
AcDbSymbolTable
 70
           1
  0
VPORT
  5
15
100
AcDbSymbolTableRecord
100
AcDbViewportTableRecord
  2
*ACTIVE
 70
           0
 10
0.0
 20
0.0
 11
1.0
 21
1.0
 12
6.591288
 22
4.579184
 13
0.0
 23
0.0
 14
1.0
 24
1.0
 15
0.0
 25
0.0
 16
0.0
 26
0.0
 36
1.0
 17
0.0
 27
0.0
 37
0.0
 40
9.158369
 41
0.688564
 42
50.0
 43
0.0
 44
0.0
 50
0.0
 51
0.0
 71
           0
 72
         100
 73
           1
 74
           1
 75
           0
 76
           0
 77
           0
 78
           0
  0
ENDTAB
  0
TABLE
  2
LTYPE
  5
4
100
AcDbSymbolTable
 70
          10
  0
LTYPE
  5
11
100
AcDbSymbolTableRecord
100
AcDbLinetypeTableRecord
  2
BYBLOCK
 70
          64
  3

 72
          65
 73
           0
 40
0.0
  0
LTYPE
  5
12
100
AcDbSymbolTableRecord
100
AcDbLinetypeTableRecord
  2
BYLAYER
 70
          64
  3

 72
          65
 73
           0
 40
0.0
  0
LTYPE
  5
13
100
AcDbSymbolTableRecord
100
AcDbLinetypeTableRecord
  2
CONTINUOUS
 70
          64
  3
Solid line
 72
          65
 73
           0
 40
0.0
  0
LTYPE
  5
1D
100
AcDbSymbolTableRecord
100
AcDbLinetypeTableRecord
  2
DASHED
 70
          64
  3
Dashed
 72
          65
 73
           2
 40
15.0
 49
12.0
 74
           0
 49
-3.0
 74
           0
  0
LTYPE
  5
1E
100
AcDbSymbolTableRecord
100
AcDbLinetypeTableRecord
  2
DOTTED
 70
          64
  3
Dotted
 72
          65
 73
           2
 40
3.5
 49
0.5
 74
           0
 49
-3.0
 74
           0
  0
LTYPE
  5
1F
100
AcDbSymbolTableRecord
100
AcDbLinetypeTableRecord
  2
DOT_CENTER
 70
          64
  3
Dot_Center
 72
          65
 73
           4
 40
2.0
 49
1.25
 74
           0
 49
-0.25
 74
           0
 49
0.25
 74
           0
 49
-0.25
 74
           0
  0
LTYPE
  5
20
100
AcDbSymbolTableRecord
100
AcDbLinetypeTableRecord
  2
LONG_DASHED
 70
          64
  3
Long_Dashed
 72
          65
 73
           2
 40
2.0
 49
1.5
 74
           0
 49
-0.5
 74
           0
  0
LTYPE
  5
21
100
AcDbSymbolTableRecord
100
AcDbLinetypeTableRecord
  2
DASH_CENTER
 70
          64
  3
Dash_Center
 72
          65
 73
           4
 40
36.0
 49
24.0
 74
           0
 49
-3.0
 74
           0
 49
6.0
 74
           0
 49
-3.0
 74
           0
  0
LTYPE
  5
22
100
AcDbSymbolTableRecord
100
AcDbLinetypeTableRecord
  2
PHANTOM
 70
          64
  3
Phantom
 72
          65
 73
           6
 40
2.5
 49
1.25
 74
           0
 49
-0.25
 74
           0
 49
0.25
 74
           0
 49
-0.25
 74
           0
 49
0.25
 74
           0
 49
-0.25
 74
           0
  0
LTYPE
  5
23
100
AcDbSymbolTableRecord
100
AcDbLinetypeTableRecord
  2
CENTER_DASH_DASH
 70
          64
  3
Center_Dash_Dash
 72
          65
 73
           6
 40
22.0
 49
12.0
 74
           0
 49
-3.0
 74
           0
 49
0.5
 74
           0
 49
-3.0
 74
           0
 49
0.5
 74
           0
 49
-3.0
 74
           0
  0
ENDTAB
  0
TABLE
  2
LAYER
  5
2
100
AcDbSymbolTable
 70
           9
  0
LAYER
  5
14
100
AcDbSymbolTableRecord
100
AcDbLayerTableRecord
  2
0
 70
           0
 62
           7
  6
CONTINUOUS
  0
LAYER
  5
24
100
AcDbSymbolTableRecord
100
AcDbLayerTableRecord
  2
___S__
 70
           0
 62
           7
  6
CONTINUOUS
  0
LAYER
  5
25
100
AcDbSymbolTableRecord
100
AcDbLayerTableRecord
  2
976
 70
           0
 62
           7
  6
CONTINUOUS
  0
LAYER
  5
26
100
AcDbSymbolTableRecord
100
AcDbLayerTableRecord
  2
FORMAT
 70
           0
 62
           7
  6
CONTINUOUS
  0
LAYER
  5
27
100
AcDbSymbolTableRecord
100
AcDbLayerTableRecord
  2
1
 70
           0
 62
           7
  6
CONTINUOUS
  0
LAYER
  5
28
100
AcDbSymbolTableRecord
100
AcDbLayerTableRecord
  2
2
 70
           0
 62
           7
  6
CONTINUOUS
  0
LAYER
  5
29
100
AcDbSymbolTableRecord
100
AcDbLayerTableRecord
  2
6
 70
           0
 62
           7
  6
CONTINUOUS
  0
LAYER
  5
2A
100
AcDbSymbolTableRecord
100
AcDbLayerTableRecord
  2
7
 70
           0
 62
           7
  6
CONTINUOUS
  0
LAYER
  5
2B
100
AcDbSymbolTableRecord
100
AcDbLayerTableRecord
  2
____
 70
           0
 62
           7
  6
CONTINUOUS
  0
ENDTAB
  0
TABLE
  2
STYLE
  5
3
100
AcDbSymbolTable
 70
           1
  0
STYLE
  5
17
100
AcDbSymbolTableRecord
100
AcDbTextStyleTableRecord
  2
STANDARD
 70
           0
 40
0.0
 41
1.0
 50
0.0
 71
           0
 42
0.0
  3
txt
  4

  0
ENDTAB
  0
TABLE
  2
VIEW
  5
5
100
AcDbSymbolTable
 70
           0
  0
ENDTAB
  0
TABLE
  2
UCS
  5
6
100
AcDbSymbolTable
 70
           0
  0
ENDTAB
  0
TABLE
  2
APPID
  5
8
100
AcDbSymbolTable
 70
           1
  0
APPID
  5
16
100
AcDbSymbolTableRecord
100
AcDbRegAppTableRecord
  2
ACAD
 70
           0
  0
ENDTAB
  0
TABLE
  2
DIMSTYLE
  5
9
100
AcDbSymbolTable
 70
           1
  0
DIMSTYLE
105
18
100
AcDbSymbolTableRecord
100
AcDbDimStyleTableRecord
  2
STANDARD
 70
           0
  3

  4

  5

  6

  7

 40
1.0
 41
0.18
 42
0.0625
 43
0.38
 44
0.18
 45
0.0
 46
0.0
 47
0.0
 48
0.0
 71
           0
 72
           0
 73
           1
 74
           1
 75
           0
 76
           0
 77
           0
 78
           0
140
0.18
141
0.09
142
0.0
143
25.4
144
1.0
145
0.0
146
1.0
147
0.09
170
           0
171
           2
172
           0
173
           0
174
           0
175
           0
176
           0
177
           0
178
           0
270
           2
271
           4
272
           4
273
           2
274
           2
275
           0
280
           0
281
           0
282
           0
283
           1
284
           0
285
           0
286
           0
287
           0
288
           0
340
17
  0
ENDTAB
  0
TABLE
  2
BLOCK_RECORD
  5
1
100
AcDbSymbolTable
 70
           0
  0
BLOCK_RECORD
  5
A
100
AcDbSymbolTableRecord
100
AcDbBlockTableRecord
  2
*MODEL_SPACE
  0
BLOCK_RECORD
  5
B
100
AcDbSymbolTableRecord
100
AcDbBlockTableRecord
  2
*PAPER_SPACE
  0
ENDTAB
  0
ENDSEC
  0
SECTION
  2
BLOCKS
  0
BLOCK
  5
D
100
AcDbEntity
  8
0
100
AcDbBlockBegin
  2
*MODEL_SPACE
 70
           0
 10
0.0
 20
0.0
 30
0.0
  3
*MODEL_SPACE
  1

  0
ENDBLK
  5
E
100
AcDbEntity
  8
0
100
AcDbBlockEnd
  0
BLOCK
  5
F
100
AcDbEntity
 67
           1
  8
0
100
AcDbBlockBegin
  2
*PAPER_SPACE
 70
           0
 10
0.0
 20
0.0
 30
0.0
  3
*PAPER_SPACE
  1

  0
ENDBLK
  5
10
100
AcDbEntity
 67
           1
  8
0
100
AcDbBlockEnd
  0
ENDSEC
  0
SECTION
  2
ENTITIES
  0
HATCH
  5
3BF
100
AcDbEntity
  8
0
  6
CONTINUOUS
 62
           2
100
AcDbHatch
 10
0.0
 20
0.0
 30
0.0
210
0.0
220
0.0
230
1.0
  2
USER
 70
           0
 71
           1
 91
        1
 92
        1
 93
        8
 72
           1
 10
4842.4999999999991
 20
307.49999999999818
 11
4842.4999999999991
 21
292.49999999999818
 72
           1
 10
4842.4999999999991
 20
292.49999999999818
 11
4745.0
 21
292.49999999999818
 72
           2
 10
4745.0
 20
312.49999999999818
 40
20.000000000000909
 50
180.0
 51
-90.0
 73
           1
 72
           1
 10
4724.9999999999991
 20
379.99999999999818
 11
4724.9999999999991
 21
312.49999999999818
 72
           1
 10
4724.9999999999991
 20
379.99999999999818
 11
4739.9999999999991
 21
379.99999999999818
 72
           1
 10
4739.9999999999991
 20
379.99999999999818
 11
4739.9999999999991
 21
312.49999999999818
 72
           2
 10
4745.0
 20
312.49999999999818
 40
5.0000000000009095
 50
180.0
 51
-90.0
 73
           1
 72
           1
 10
4842.4999999999991
 20
307.49999999999818
 11
4745.0
 21
307.49999999999818
 97
        7
330
3A6
330
3A8
330
8B
330
3A5
330
8C
330
3A7
330
8A
 75
           1
 76
           0
 52
45.0
 41
10.0
 77
           0
 78
           1
 53
45.0
 43
0.0
 44
0.0
 45
-7.0710678118654746
 46
7.0710678118654755
 79
           0
 98
        1
 10
0.0
 20
0.0
  0
ARC
  5
3BE
100
AcDbEntity
  8
1
  6
CONTINUOUS
 62
           3
100
AcDbCircle
 10
5612.399996810931
 20
841.000000000004
 40
288.0
100
AcDbArc
 50
90.0
 51
180.0
  0
ARC
  5
3BD
100
AcDbEntity
  8
1
  6
CONTINUOUS
 62
           3
100
AcDbCircle
 10
5612.399998122324
 20
841.000000000004
 40
280.0
100
AcDbArc
 50
90.0
 51
180.0
  0
ARC
  5
3BC
100
AcDbEntity
  8
1
  6
CONTINUOUS
 62
           3
100
AcDbCircle
 10
5760.663567691041
 20
1132.193746580044
 40
0.5
100
AcDbArc
 50
90.0
 51
180.0
  0
ARC
  5
3BB
100
AcDbEntity
  8
1
  6
CONTINUOUS
 62
           3
100
AcDbCircle
 10
5760.663567691041
 20
1117.806253419964
 40
0.5
100
AcDbArc
 50
180.0
 51
-90.0
  0
ARC
  5
3BA
100
AcDbEntity
  8
1
  6
CONTINUOUS
 62
           7
100
AcDbCircle
 10
5767.500000000002
 20
2259.199999999998
 40
10.0
100
AcDbArc
 50
90.0
 51
180.0
  0
ARC
  5
3B9
100
AcDbEntity
  8
1
  6
CONTINUOUS
 62
           7
100
AcDbCircle
 10
5877.500000000002
 20
2259.199999999998
 40
10.0
100
AcDbArc
 50
0.0
 51
90.0
  0
ARC
  5
3B8
100
AcDbEntity
  8
1
  6
CONTINUOUS
 62
           7
100
AcDbCircle
 10
5767.500000000002
 20
2159.199999999998
 40
10.0
100
AcDbArc
 50
180.0
 51
-90.0
  0
ARC
  5
3B7
100
AcDbEntity
  8
1
  6
CONTINUOUS
 62
           7
100
AcDbCircle
 10
5877.500000000002
 20
2159.199999999998
 40
10.0
100
AcDbArc
 50
-90.0
 51
0.0
  0
ARC
  5
3B6
100
AcDbEntity
  8
1
  6
CONTINUOUS
 62
           4
100
AcDbCircle
 10
6418.000000000002
 20
1494.500000000002
 40
1.0
100
AcDbArc
 50
90.0
 51
180.0
  0
ARC
  5
3B5
100
AcDbEntity
  8
1
  6
CONTINUOUS
 62
           4
100
AcDbCircle
 10
6407.000000000002
 20
1494.500000000002
 40
1.0
100
AcDbArc
 50
0.0
 51
90.0
  0
ARC
  5
3B4
100
AcDbEntity
  8
1
  6
CONTINUOUS
 62
           4
100
AcDbCircle
 10
6407.000000000002
 20
2055.500000000001
 40
1.0
100
AcDbArc
 50
-90.0
 51
0.0
  0
ARC
  5
3B3
100
AcDbEntity
  8
1
  6
CONTINUOUS
 62
           4
100
AcDbCircle
 10
6418.000000000002
 20
2055.500000000001
 40
1.0
100
AcDbArc
 50
180.0
 51
-90.0
  0
ARC
  5
3B2
100
AcDbEntity
  8
1
  6
CONTINUOUS
 62
           7
100
AcDbCircle
 10
246.000000000002
 20
2160.000000000001
 40
10.0
100
AcDbArc
 50
-90.0
 51
0.0
  0
ARC
  5
3B1
100
AcDbEntity
  8
1
  6
CONTINUOUS
 62
           7
100
AcDbCircle
 10
246.000000000002
 20
2260.000000000001
 40
10.0
100
AcDbArc
 50
0.0
 51
90.0
  0
ARC
  5
3B0
100
AcDbEntity
  8
1
  6
CONTINUOUS
 62
           7
100
AcDbCircle
 10
161.076193000001
 20
2160.000000000001
 40
10.0
100
AcDbArc
 50
180.0
 51
-90.0
  0
ARC
  5
3AF
100
AcDbEntity
  8
1
  6
CONTINUOUS
 62
           7
100
AcDbCircle
 10
161.076193000001
 20
2260.000000000001
 40
10.0
100
AcDbArc
 50
90.0
 51
180.0
  0
ARC
  5
3AE
100
AcDbEntity
  8
1
  6
CONTINUOUS
 62
           7
100
AcDbCircle
 10
246.000000000002
 20
5090.0
 40
10.0
100
AcDbArc
 50
0.0
 51
90.0
  0
ARC
  5
3AD
100
AcDbEntity
  8
1
  6
CONTINUOUS
 62
           7
100
AcDbCircle
 10
246.000000000002
 20
4980.0
 40
10.0
100
AcDbArc
 50
-90.0
 51
0.0
  0
ARC
  5
3AC
100
AcDbEntity
  8
1
  6
CONTINUOUS
 62
           7
100
AcDbCircle
 10
196.000000000002
 20
5090.0
 40
10.0
100
AcDbArc
 50
90.0
 51
180.0
  0
ARC
  5
3AB
100
AcDbEntity
  8
1
  6
CONTINUOUS
 62
           7
100
AcDbCircle
 10
196.000000000002
 20
4980.0
 40
10.0
100
AcDbArc
 50
180.0
 51
-90.0
  0
ARC
  5
3AA
100
AcDbEntity
  8
1
  6
CONTINUOUS
 62
           4
100
AcDbCircle
 10
181.319409665062
 20
4985.0
 40
10.0
100
AcDbArc
 50
180.0
 51
-90.0
  0
ARC
  5
3A9
100
AcDbEntity
  8
1
  6
CONTINUOUS
 62
           4
100
AcDbCircle
 10
181.319409665062
 20
5085.0
 40
10.0
100
AcDbArc
 50
90.0
 51
180.0
  0
ARC
  5
3A8
100
AcDbEntity
  8
1
  6
CONTINUOUS
 62
           7
100
AcDbCircle
 10
4745.0
 20
312.499999999998
 40
20.000000000001
100
AcDbArc
 50
180.0
 51
-90.0
  0
ARC
  5
3A7
100
AcDbEntity
  8
1
  6
CONTINUOUS
 62
           7
100
AcDbCircle
 10
4745.0
 20
312.499999999998
 40
5.000000000001
100
AcDbArc
 50
180.0
 51
-90.0
  0
LWPOLYLINE
  5
3A6
100
AcDbEntity
  8
1
  6
CONTINUOUS
 62
           7
 60
           1
100
AcDbPolyline
 90
        3
 70
           0
 10
4842.499999999999
 20
307.499999999998
 10
4842.499999999999
 20
292.499999999998
 10
4745.0
 20
292.499999999998
  0
LWPOLYLINE
  5
3A5
100
AcDbEntity
  8
1
  6
CONTINUOUS
 62
           7
 60
           1
100
AcDbPolyline
 90
        2
 70
           0
 10
4724.999999999999
 20
379.999999999998
 10
4739.999999999999
 20
379.999999999998
  0
SPLINE
  5
3A4
100
AcDbEntity
  8
0
  6
CONTINUOUS
 62
           3
100
AcDbSpline
210
0.0
220
0.0
230
1.0
 70
           0
 71
           3
 72
           8
 73
           5
 74
           7
 42
0.00000000001
 43
0.00000000001
 44
0.00000000001
 40
0.0
 40
0.0
 40
0.0
 40
0.5558562714165312
 40
1.5343210643721912
 40
2.9385072682927329
 40
2.9385072682927329
 40
2.9385072682927329
 10
5278.3999967216732
 20
559.99999940405178
 30
0.0
 10
5278.4684298091433
 20
559.99955371068063
 30
0.0
 10
5279.4432526000237
 20
559.99320485121643
 30
0.0
 10
5280.3985309047421
 20
559.76530902186641
 30
0.0
 10
5281.2867481555004
 20
559.55341160307216
 30
0.0
 11
5278.3999967216732
 21
559.99999940405178
 31
0.0
 11
5278.5396116244046
 21
559.99909011530156
 31
0.0
 11
5278.8215901576605
 21
559.99725363579319
 31
0.0
 11
5279.3859111712864
 21
559.97081999447994
 31
0.0
 11
5279.8355493274366
 21
559.8996166396937
 31
0.0
 11
5280.4798398231051
 21
559.74591157162467
 31
0.0
 11
5281.2867481555004
 21
559.55341160307216
 31
0.0
  0
SPLINE
  5
3A3
100
AcDbEntity
  8
0
  6
CONTINUOUS
 62
           3
100
AcDbSpline
210
0.0
220
0.0
230
1.0
 70
           0
 71
           3
 72
           8
 73
           5
 74
           7
 42
0.00000000001
 43
0.00000000001
 44
0.00000000001
 40
0.0
 40
0.0
 40
0.0
 40
0.5558558490687683
 40
1.5343195422046176
 40
2.9385037456626759
 40
2.9385037456626759
 40
2.9385037456626759
 10
5278.3999967216732
 20
555.00000417232513
 30
0.0
 10
5278.3315636362904
 20
555.00044987830552
 30
0.0
 10
5277.3567416872393
 20
555.00679891067193
 30
0.0
 10
5276.401462916263
 20
555.23468692923416
 30
0.0
 10
5275.5132452878433
 20
555.44657707224542
 30
0.0
 11
5278.3999967216732
 21
555.00000417232513
 31
0.0
 11
5278.2603818762454
 21
555.00091348632566
 31
0.0
 11
5277.9784035107259
 21
555.00275001636646
 31
0.0
 11
5277.4140828960135
 21
555.02918294222229
 31
0.0
 11
5276.9644446988514
 21
555.10038393117895
 31
0.0
 11
5276.3201539548054
 21
555.25408371547314
 31
0.0
 11
5275.5132452878433
 21
555.44657707224542
 31
0.0
  0
SPLINE
  5
3A2
100
AcDbEntity
  8
0
  6
CONTINUOUS
 62
           3
100
AcDbSpline
210
0.0
220
0.0
230
1.0
 70
           0
 71
           3
 72
           8
 73
           5
 74
           7
 42
0.00000000001
 43
0.00000000001
 44
0.00000000001
 40
0.0
 40
0.0
 40
0.0
 40
0.2779452695518754
 40
0.7862805426560352
 40
1.5429573556189611
 40
1.5429573556189611
 40
1.5429573556189611
 10
5282.7301237560023
 20
555.00000417242336
 30
0.0
 10
5282.6959072124737
 20
555.0004498771923
 30
0.0
 10
5282.2084969152711
 20
555.0067988847477
 30
0.0
 10
5281.7308572149814
 20
555.23468692847018
 30
0.0
 10
5281.2867481553621
 20
555.44657707222723
 30
0.0
 11
5282.7301237560023
 21
555.00000417242336
 31
0.0
 11
5282.6613872230628
 21
555.00089953464658
 31
0.0
 11
5282.5236107113033
 21
555.00269421177859
 31
0.0
 11
5282.239291414131
 21
555.02866647622091
 31
0.0
 11
5282.016561114684
 21
555.09837392360998
 31
0.0
 11
5281.6912559250013
 21
555.25358121319437
 31
0.0
 11
5281.2867481553621
 21
555.44657707222723
 31
0.0
  0
SPLINE
  5
3A1
100
AcDbEntity
  8
0
  6
CONTINUOUS
 62
           3
100
AcDbSpline
210
0.0
220
0.0
230
1.0
 70
           0
 71
           3
 72
           8
 73
           5
 74
           7
 42
0.00000000001
 43
0.00000000001
 44
0.00000000001
 40
0.0
 40
0.0
 40
0.0
 40
0.678770053493806
 40
1.1891668948831091
 40
1.5431123743468143
 40
1.5431123743468143
 40
1.5431123743468143
 10
5275.5132452878433
 20
555.44657707224542
 30
0.0
 10
5275.1438214744012
 20
555.26244837160993
 30
0.0
 10
5274.6676820506218
 20
555.0251303367877
 30
0.0
 10
5274.1793238525834
 20
555.00460455126449
 30
0.0
 10
5274.0698696873442
 20
555.00000417242336
 30
0.0
 11
5275.5132452878433
 21
555.44657707224542
 31
0.0
 11
5275.1682329736359
 21
555.27461558301047
 31
0.0
 11
5274.8720436578978
 21
555.1269885165766
 31
0.0
 11
5274.6466781919462
 21
555.04756474661212
 31
0.0
 11
5274.3793050086424
 21
555.0130097962965
 31
0.0
 11
5274.201955600287
 21
555.00555576781221
 31
0.0
 11
5274.0698696873442
 21
555.00000417242336
 31
0.0
  0
SPLINE
  5
3A0
100
AcDbEntity
  8
0
  6
CONTINUOUS
 62
           3
100
AcDbSpline
210
0.0
220
0.0
230
1.0
 70
           0
 71
           3
 72
           8
 73
           5
 74
           7
 42
0.00000000001
 43
0.00000000001
 44
0.00000000001
 40
0.0
 40
0.0
 40
0.0
 40
0.3539460334951272
 40
0.8643414136598282
 40
1.543106811400766
 40
1.543106811400766
 40
1.543106811400766
 10
5274.0698696873442
 20
559.99999940405178
 30
0.0
 10
5274.1793238424216
 20
559.9953935078338
 30
0.0
 10
5274.6676816710424
 20
559.97484311874359
 30
0.0
 10
5275.1438213484444
 20
559.73753363435753
 30
0.0
 10
5275.5132452879698
 20
559.55341160302487
 30
0.0
 11
5274.0698696873442
 21
559.99999940405178
 31
0.0
 11
5274.2019556855794
 21
559.99444114635799
 31
0.0
 11
5274.379305370132
 21
559.9869781657128
 31
0.0
 11
5274.6466781413856
 21
559.95241319492925
 31
0.0
 11
5274.8720438533255
 21
559.87298837651667
 31
0.0
 11
5275.168232959546
 21
559.72536681206418
 31
0.0
 11
5275.5132452879698
 21
559.55341160302487
 31
0.0
  0
SPLINE
  5
39F
100
AcDbEntity
  8
0
  6
CONTINUOUS
 62
           3
100
AcDbSpline
210
0.0
220
0.0
230
1.0
 70
           0
 71
           3
 72
           8
 73
           5
 74
           7
 42
0.00000000001
 43
0.00000000001
 44
0.00000000001
 40
0.0
 40
0.0
 40
0.0
 40
0.6415450374762793
 40
1.1579303686098152
 40
1.5357381749054408
 40
1.5357381749054408
 40
1.5357381749054408
 10
5274.0698696873442
 20
555.00000417242336
 30
0.0
 10
5273.6795237086117
 20
555.05763369387932
 30
0.0
 10
5273.1908846293591
 20
555.12977491688798
 30
0.0
 10
5272.7210119621122
 20
555.39352244825932
 30
0.0
 10
5272.6264938539716
 20
555.44657707222723
 30
0.0
 11
5274.0698696873442
 21
555.00000417242336
 31
0.0
 11
5273.7094282457028
 21
555.05321867680277
 31
0.0
 11
5273.4087958782429
 21
555.09760314702896
 31
0.0
 11
5273.1775260473187
 21
555.15980969796578
 31
0.0
 11
5272.9195390523118
 21
555.28208581105832
 31
0.0
 11
5272.7470142076272
 21
555.37892694495099
 31
0.0
 11
5272.6264938539716
 21
555.44657707222723
 31
0.0
  0
SPLINE
  5
39E
100
AcDbEntity
  8
0
  6
CONTINUOUS
 62
           3
100
AcDbSpline
210
0.0
220
0.0
230
1.0
 70
           0
 71
           3
 72
           8
 73
           5
 74
           7
 42
0.00000000001
 43
0.00000000001
 44
0.00000000001
 40
0.0
 40
0.0
 40
0.0
 40
0.3778155284982677
 40
0.8942062233974064
 40
1.5357514174667204
 40
1.5357514174667204
 40
1.5357514174667204
 10
5272.6264938539716
 20
559.55341160302487
 30
0.0
 10
5272.7210118970333
 20
559.60647169090953
 30
0.0
 10
5273.1908817949006
 20
559.87024501137785
 30
0.0
 10
5273.6795227343027
 20
559.94237718620207
 30
0.0
 10
5274.0698696873442
 20
559.99999940405178
 30
0.0
 11
5272.6264938539716
 21
559.55341160302487
 31
0.0
 11
5272.7470141544054
 21
559.62106871403171
 31
0.0
 11
5272.9195389695851
 21
559.71791987128324
 31
0.0
 11
5273.1775244143282
 21
559.84020570524024
 31
0.0
 11
5273.4087950979238
 21
559.90241292692212
 31
0.0
 11
5273.7094275634681
 21
559.94679167584445
 31
0.0
 11
5274.0698696873442
 21
559.99999940405178
 31
0.0
  0
SPLINE
  5
39D
100
AcDbEntity
  8
0
  6
CONTINUOUS
 62
           3
100
AcDbSpline
210
0.0
220
0.0
230
1.0
 70
           0
 71
           3
 72
           8
 73
           5
 74
           7
 42
0.00000000001
 43
0.00000000001
 44
0.00000000001
 40
0.0
 40
0.0
 40
0.0
 40
0.2779464854665143
 40
0.7862840844027363
 40
1.5429642659229503
 40
1.5429642659229503
 40
1.5429642659229503
 10
5282.7301237559623
 20
559.99999940392445
 30
0.0
 10
5282.7643403053626
 20
559.99955370867974
 30
0.0
 10
5283.2517530244513
 20
559.99320480444658
 30
0.0
 10
5283.7293915039991
 20
559.76530902048398
 30
0.0
 10
5284.1734995893639
 20
559.55341160302487
 30
0.0
 11
5282.7301237559623
 21
559.99999940392445
 31
0.0
 11
5282.7988605017454
 21
559.99910405804803
 31
0.0
 11
5282.936637640295
 21
559.99730941090854
 31
0.0
 11
5283.2209580094705
 21
559.97133641706489
 31
0.0
 11
5283.4436883486851
 21
559.90162664845775
 31
0.0
 11
5283.7689927365118
 21
559.74641407311265
 31
0.0
 11
5284.1734995893639
 21
559.55341160302487
 31
0.0
  0
SPLINE
  5
39C
100
AcDbEntity
  8
0
  6
CONTINUOUS
 62
           3
100
AcDbSpline
210
0.0
220
0.0
230
1.0
 70
           0
 71
           3
 72
           8
 73
           5
 74
           7
 42
0.00000000001
 43
0.00000000001
 44
0.00000000001
 40
0.0
 40
0.0
 40
0.0
 40
1.2475591451551133
 40
2.2257037084924258
 40
2.935414201173066
 40
2.935414201173066
 40
2.935414201173066
 10
5278.3999967216732
 20
564.99999463567656
 30
0.0
 10
5277.6443416651709
 20
564.94589330009694
 30
0.0
 10
5276.666903851652
 20
564.87591336586047
 30
0.0
 10
5275.7266018489536
 20
564.61306304336904
 30
0.0
 10
5275.5132452878433
 20
564.55342173586178
 30
0.0
 11
5278.3999967216732
 21
564.99999463567656
 31
0.0
 11
5277.6962862228365
 21
564.94961228526256
 31
0.0
 11
5277.0964648393274
 21
564.9066679051798
 31
0.0
 11
5276.6380633113722
 21
564.84552029263727
 31
0.0
 11
5276.1219807028574
 21
564.72358653364836
 31
0.0
 11
5275.7721074221517
 21
564.62578358906194
 31
0.0
 11
5275.5132452878433
 21
564.55342173586178
 31
0.0
  0
SPLINE
  5
39B
100
AcDbEntity
  8
0
  6
CONTINUOUS
 62
           3
100
AcDbSpline
210
0.0
220
0.0
230
1.0
 70
           0
 71
           3
 72
           8
 73
           5
 74
           7
 42
0.00000000001
 43
0.00000000001
 44
0.00000000001
 40
0.0
 40
0.0
 40
0.0
 40
1.2321288292599575
 40
2.2113508927680092
 40
2.9387184667234085
 40
2.9387184667234085
 40
2.9387184667234085
 10
5281.2867481555004
 20
564.55342173586178
 30
0.0
 10
5280.5674885010521
 20
564.73361901843236
 30
0.0
 10
5279.6156260260914
 20
564.97209066120195
 30
0.0
 10
5278.6387194651543
 20
564.99451491145737
 30
0.0
 10
5278.3999967216732
 20
564.99999463567656
 30
0.0
 11
5281.2867481555004
 21
564.55342173586178
 31
0.0
 11
5280.6147128338653
 21
564.72178783008371
 31
0.0
 11
5280.0371261778564
 21
564.86649154760823
 31
0.0
 11
5279.5808665470022
 21
564.94890757885707
 31
0.0
 11
5279.0550879579714
 21
564.98495744541628
 31
0.0
 11
5278.6831309024892
 21
564.99349547600195
 31
0.0
 11
5278.3999967216732
 21
564.99999463567656
 31
0.0
  0
SPLINE
  5
39A
100
AcDbEntity
  8
0
  6
CONTINUOUS
 62
           3
100
AcDbSpline
210
0.0
220
0.0
230
1.0
 70
           0
 71
           3
 72
           8
 73
           5
 74
           7
 42
0.00000000001
 43
0.00000000001
 44
0.00000000001
 40
0.0
 40
0.0
 40
0.0
 40
0.7273681394915312
 40
1.7065914567890765
 40
2.9387223240353588
 40
2.9387223240353588
 40
2.9387223240353588
 10
5278.3999967216732
 20
559.99999940405178
 30
0.0
 10
5278.638719501032
 20
560.00547894311967
 30
0.0
 10
5279.6156271469808
 20
560.02790245724464
 30
0.0
 10
5280.5674888562426
 20
560.26638308051406
 30
0.0
 10
5281.2867481553621
 20
560.44658720512598
 30
0.0
 11
5278.3999967216732
 21
559.99999940405178
 31
0.0
 11
5278.6831310149728
 21
560.00649834573687
 31
0.0
 11
5279.055088336152
 21
560.01503609265603
 31
0.0
 11
5279.5808673755109
 21
560.05108663317742
 31
0.0
 11
5280.03712687193
 21
560.13350552556415
 31
0.0
 11
5280.6147131849439
 21
560.27821472292953
 31
0.0
 11
5281.2867481553621
 21
560.44658720512598
 31
0.0
  0
SPLINE
  5
399
100
AcDbEntity
  8
0
  6
CONTINUOUS
 62
           3
100
AcDbSpline
210
0.0
220
0.0
230
1.0
 70
           0
 71
           3
 72
           8
 73
           5
 74
           7
 42
0.00000000001
 43
0.00000000001
 44
0.00000000001
 40
0.0
 40
0.0
 40
0.0
 40
0.7097126556365796
 40
1.6878594213856775
 40
2.9354211178779117
 40
2.9354211178779117
 40
2.9354211178779117
 10
5275.5132452878433
 20
560.44658720502775
 30
0.0
 10
5275.7266017037618
 20
560.38694036993184
 30
0.0
 10
5276.6668989125828
 20
560.12406684762391
 30
0.0
 10
5277.6443400642529
 20
560.05409467162099
 30
0.0
 10
5278.3999967216732
 20
559.99999940405178
 30
0.0
 11
5275.5132452878433
 21
560.44658720502775
 31
0.0
 11
5275.7721068549235
 21
560.37421875461939
 31
0.0
 11
5276.1219787243263
 21
560.27640707358626
 31
0.0
 11
5276.6380594916318
 21
560.15446412078495
 31
0.0
 11
5277.0964614170334
 21
560.09331571430585
 31
0.0
 11
5277.6962845668031
 21
560.0503761153999
 31
0.0
 11
5278.3999967216732
 21
559.99999940405178
 31
0.0
  0
SPLINE
  5
398
100
AcDbEntity
  8
0
  6
CONTINUOUS
 62
           3
100
AcDbSpline
210
0.0
220
0.0
230
1.0
 70
           0
 71
           3
 72
           8
 73
           5
 74
           7
 42
0.00000000001
 43
0.00000000001
 44
0.00000000001
 40
0.0
 40
0.0
 40
0.0
 40
0.2779452695518517
 40
0.7862805426552046
 40
1.5429573555004104
 40
1.5429573555004104
 40
1.5429573555004104
 10
5282.7301237560023
 20
564.99999463567656
 30
0.0
 10
5282.6959072124737
 20
564.99954893090762
 30
0.0
 10
5282.2084969152711
 20
564.99319992335586
 30
0.0
 10
5281.7308572149814
 20
564.76531187963701
 30
0.0
 10
5281.2867481555004
 20
564.55342173586178
 30
0.0
 11
5282.7301237560023
 21
564.99999463567656
 31
0.0
 11
5282.6613872230637
 21
564.99909927345368
 31
0.0
 11
5282.5236107113033
 21
564.99730459632269
 31
0.0
 11
5282.2392914141274
 21
564.97133233188026
 31
0.0
 11
5282.0165611146658
 21
564.90162488448664
 31
0.0
 11
5281.6912559250322
 21
564.74641759490555
 31
0.0
 11
5281.2867481555004
 21
564.55342173586178
 31
0.0
  0
SPLINE
  5
397
100
AcDbEntity
  8
0
  6
CONTINUOUS
 62
           3
100
AcDbSpline
210
0.0
220
0.0
230
1.0
 70
           0
 71
           3
 72
           8
 73
           5
 74
           7
 42
0.00000000001
 43
0.00000000001
 44
0.00000000001
 40
0.0
 40
0.0
 40
0.0
 40
0.2779464854698548
 40
0.786284084406053
 40
1.5429642659466327
 40
1.5429642659466327
 40
1.5429642659466327
 10
5282.7301237559623
 20
559.99999940392445
 30
0.0
 10
5282.7643403053626
 20
560.00044509942745
 30
0.0
 10
5283.2517530244513
 20
560.00679400365698
 30
0.0
 10
5283.7293915039991
 20
560.23468978761957
 30
0.0
 10
5284.1734995893639
 20
560.44658720512598
 30
0.0
 11
5282.7301237559623
 21
559.99999940392445
 31
0.0
 11
5282.7988605017454
 21
560.00089474999425
 31
0.0
 11
5282.9366376402959
 21
560.0026893971974
 31
0.0
 11
5283.2209580094705
 21
560.02866239103889
 31
0.0
 11
5283.4436883486815
 21
560.09837215964433
 31
0.0
 11
5283.76899273651
 21
560.25358473500228
 31
0.0
 11
5284.1734995893639
 21
560.44658720512598
 31
0.0
  0
SPLINE
  5
396
100
AcDbEntity
  8
0
  6
CONTINUOUS
 62
           3
100
AcDbSpline
210
0.0
220
0.0
230
1.0
 70
           0
 71
           3
 72
           8
 73
           5
 74
           7
 42
0.00000000001
 43
0.00000000001
 44
0.00000000001
 40
0.0
 40
0.0
 40
0.0
 40
0.277946275237023
 40
0.786282088328875
 40
1.5429577306133426
 40
1.5429577306133426
 40
1.5429577306133426
 10
5274.0698696873442
 20
564.99999463567656
 30
0.0
 10
5274.0356531390316
 20
564.99954892779351
 30
0.0
 10
5273.5482408408434
 20
564.99319985066541
 30
0.0
 10
5273.0706021281803
 20
564.76531187748697
 30
0.0
 10
5272.6264938539716
 20
564.55342173591998
 30
0.0
 11
5274.0698696873442
 21
564.99999463567656
 31
0.0
 11
5274.001132902803
 21
564.99909926404212
 31
0.0
 11
5273.8633556458071
 21
564.99730456490499
 31
0.0
 11
5273.5790356162597
 21
564.97133224086338
 31
0.0
 11
5273.3563051375477
 21
564.90162469721747
 31
0.0
 11
5273.0310008119695
 21
564.7464175470277
 31
0.0
 11
5272.6264938539716
 21
564.55342173591998
 31
0.0
  0
SPLINE
  5
395
100
AcDbEntity
  8
0
  6
CONTINUOUS
 62
           3
100
AcDbSpline
210
0.0
220
0.0
230
1.0
 70
           0
 71
           3
 72
           8
 73
           5
 74
           7
 42
0.00000000001
 43
0.00000000001
 44
0.00000000001
 40
0.0
 40
0.0
 40
0.0
 40
0.2779454797470885
 40
0.7862825386909188
 40
1.5429638907232617
 40
1.5429638907232617
 40
1.5429638907232617
 10
5274.0698696873442
 20
559.99999940405178
 30
0.0
 10
5274.1040862319223
 20
560.0004450963097
 30
0.0
 10
5274.59149695003
 20
560.00679393096652
 30
0.0
 10
5275.0691364171944
 20
560.23468978547317
 30
0.0
 10
5275.5132452878433
 20
560.44658720502775
 30
0.0
 11
5274.0698696873442
 21
559.99999940405178
 31
0.0
 11
5274.1386061814947
 21
560.00089474061213
 31
0.0
 11
5274.2763825747916
 21
560.00268936577731
 31
0.0
 11
5274.5607022116064
 21
560.02866230002178
 31
0.0
 11
5274.7834323715761
 21
560.09837197237698
 31
0.0
 11
5275.1087376234509
 21
560.25358468708771
 31
0.0
 11
5275.5132452878433
 21
560.44658720502775
 31
0.0
  0
SPLINE
  5
394
100
AcDbEntity
  8
0
  6
CONTINUOUS
 62
           3
100
AcDbSpline
210
0.0
220
0.0
230
1.0
 70
           0
 71
           3
 72
           8
 73
           5
 74
           7
 42
0.00000000001
 43
0.00000000001
 44
0.00000000001
 40
0.0
 40
0.0
 40
0.0
 40
1.2475604207861863
 40
2.2257060852955806
 40
2.935417659429739
 40
2.935417659429739
 40
2.935417659429739
 10
5278.3999967216732
 20
577.59999930866979
 30
0.0
 10
5277.644340864721
 20
577.54590100710993
 30
0.0
 10
5276.6669013821593
 20
577.47592495201025
 30
0.0
 10
5275.7266017763613
 20
577.21306302957601
 30
0.0
 10
5275.5132452878433
 20
577.15341895827078
 30
0.0
 11
5278.3999967216732
 21
577.59999930866979
 31
0.0
 11
5277.6962853948307
 21
577.54961977780249
 31
0.0
 11
5277.0964631282068
 21
577.50667778832019
 31
0.0
 11
5276.6380614015343
 21
577.44552977881062
 31
0.0
 11
5276.1219797136127
 21
577.32359142290193
 31
0.0
 11
5275.772107138544
 21
577.22578411008112
 31
0.0
 11
5275.5132452878433
 21
577.15341895827078
 31
0.0
  0
SPLINE
  5
393
100
AcDbEntity
  8
0
  6
CONTINUOUS
 62
           3
100
AcDbSpline
210
0.0
220
0.0
230
1.0
 70
           0
 71
           3
 72
           8
 73
           5
 74
           7
 42
0.00000000001
 43
0.00000000001
 44
0.00000000001
 40
0.0
 40
0.0
 40
0.0
 40
1.2321298483004262
 40
2.2113525386970085
 40
2.9387203954174637
 40
2.9387203954174637
 40
2.9387203954174637
 10
5281.2867481555004
 20
577.15341895827078
 30
0.0
 10
5280.5674886786437
 20
577.33361966181837
 30
0.0
 10
5279.615626586532
 20
577.57209579483606
 30
0.0
 10
5278.6387194830913
 20
577.59451967702626
 30
0.0
 10
5278.3999967216732
 20
577.59999930866979
 30
0.0
 11
5281.2867481555004
 21
577.15341895827078
 31
0.0
 11
5280.6147130094168
 21
577.32178824644757
 31
0.0
 11
5280.0371265248787
 21
577.46649470388263
 31
0.0
 11
5279.5808669612506
 21
577.54891216569808
 31
0.0
 11
5279.0550881470599
 21
577.58496236923759
 31
0.0
 11
5278.6831309587296
 21
577.59350025798994
 31
0.0
 11
5278.3999967216732
 21
577.59999930866979
 31
0.0
  0
SPLINE
  5
392
100
AcDbEntity
  8
0
  6
CONTINUOUS
 62
           3
100
AcDbSpline
210
0.0
220
0.0
230
1.0
 70
           0
 71
           3
 72
           8
 73
           5
 74
           7
 42
0.00000000001
 43
0.00000000001
 44
0.00000000001
 40
0.0
 40
0.0
 40
0.0
 40
0.7273675739554828
 40
1.7065896374630929
 40
2.9387184666017712
 40
2.9387184666017712
 40
2.9387184666017712
 10
5278.3999967216732
 20
572.60000407704501
 30
0.0
 10
5278.6387194651543
 20
572.60548380126784
 30
0.0
 10
5279.6156260260914
 20
572.62790805152326
 30
0.0
 10
5280.5674885010521
 20
572.86637969428921
 30
0.0
 10
5281.2867481553621
 20
573.04657697691437
 30
0.0
 11
5278.3999967216732
 21
572.60000407704501
 31
0.0
 11
5278.6831309024883
 21
572.60650323672235
 31
0.0
 11
5279.0550879579732
 21
572.61504126730892
 31
0.0
 11
5279.5808665470076
 21
572.65109113386904
 31
0.0
 11
5280.0371261778791
 21
572.73350716512118
 31
0.0
 11
5280.6147128338371
 21
572.87821088265355
 31
0.0
 11
5281.2867481553621
 21
573.04657697691437
 31
0.0
  0
SPLINE
  5
391
100
AcDbEntity
  8
0
  6
CONTINUOUS
 62
           3
100
AcDbSpline
210
0.0
220
0.0
230
1.0
 70
           0
 71
           3
 72
           8
 73
           5
 74
           7
 42
0.00000000001
 43
0.00000000001
 44
0.00000000001
 40
0.0
 40
0.0
 40
0.0
 40
0.7097104926816197
 40
1.6878550560189318
 40
2.9354142011740452
 40
2.9354142011740452
 40
2.9354142011740452
 10
5275.5132452878433
 20
573.04657697686343
 30
0.0
 10
5275.7266018489536
 20
572.98693566935253
 30
0.0
 10
5276.666903851652
 20
572.7240853468611
 30
0.0
 10
5277.6443416651709
 20
572.65410541262463
 30
0.0
 10
5278.3999967216732
 20
572.60000407704501
 30
0.0
 11
5275.5132452878433
 21
573.04657697686343
 31
0.0
 11
5275.7721074221517
 21
572.97421512366054
 31
0.0
 11
5276.1219807028574
 21
572.87641217907321
 31
0.0
 11
5276.6380633113722
 21
572.7544784200843
 31
0.0
 11
5277.0964648393274
 21
572.69333080754177
 31
0.0
 11
5277.6962862228356
 21
572.65038642745901
 31
0.0
 11
5278.3999967216732
 21
572.60000407704501
 31
0.0
  0
SPLINE
  5
390
100
AcDbEntity
  8
0
  6
CONTINUOUS
 62
           3
100
AcDbSpline
210
0.0
220
0.0
230
1.0
 70
           0
 71
           3
 72
           8
 73
           5
 74
           7
 42
0.00000000001
 43
0.00000000001
 44
0.00000000001
 40
0.0
 40
0.0
 40
0.0
 40
0.2779453746508651
 40
0.7862815406654214
 40
1.5429606230901585
 40
1.5429606230901585
 40
1.5429606230901585
 10
5282.7301237560023
 20
577.59999930866979
 30
0.0
 10
5282.6959072119498
 20
577.59955361015454
 30
0.0
 10
5282.2084967042902
 20
577.59320468904843
 30
0.0
 10
5281.7308571205722
 20
577.36531273994115
 30
0.0
 10
5281.2867481555004
 20
577.15341895827078
 30
0.0
 11
5282.7301237560023
 21
577.59999930866979
 31
0.0
 11
5282.6613872424577
 21
577.5991039592767
 31
0.0
 11
5282.5236107899254
 21
577.59730930812759
 31
0.0
 11
5282.2392913229314
 21
577.57133670878352
 31
0.0
 11
5282.0165610932181
 21
577.50162814890973
 31
0.0
 11
5281.6912558724653
 21
577.3464181467657
 31
0.0
 11
5281.2867481555004
 21
577.15341895827078
 31
0.0
  0
SPLINE
  5
38F
100
AcDbEntity
  8
0
  6
CONTINUOUS
 62
           3
100
AcDbSpline
210
0.0
220
0.0
230
1.0
 70
           0
 71
           3
 72
           8
 73
           5
 74
           7
 42
0.00000000001
 43
0.00000000001
 44
0.00000000001
 40
0.0
 40
0.0
 40
0.0
 40
0.2779462752411391
 40
0.7862820883289261
 40
1.5429577306521445
 40
1.5429577306521445
 40
1.5429577306521445
 10
5282.7301237560023
 20
572.60000407704501
 30
0.0
 10
5282.7643403043221
 20
572.6004497849317
 30
0.0
 10
5283.251752602504
 20
572.60679886205617
 30
0.0
 10
5283.7293913151634
 20
572.83468683523824
 30
0.0
 10
5284.1734995893639
 20
573.04657697691437
 30
0.0
 11
5282.7301237560023
 21
572.60000407704501
 31
0.0
 11
5282.7988605405471
 21
572.60089944868184
 31
0.0
 11
5282.9366377975466
 21
572.60269414781897
 31
0.0
 11
5283.2209578270867
 21
572.62866647185842
 31
0.0
 11
5283.4436883057915
 21
572.6983740155024
 31
0.0
 11
5283.7689926313715
 21
572.85358116572331
 31
0.0
 11
5284.1734995893639
 21
573.04657697691437
 31
0.0
  0
SPLINE
  5
38E
100
AcDbEntity
  8
0
  6
CONTINUOUS
 62
           3
100
AcDbSpline
210
0.0
220
0.0
230
1.0
 70
           0
 71
           3
 72
           8
 73
           5
 74
           7
 42
0.00000000001
 43
0.00000000001
 44
0.00000000001
 40
0.0
 40
0.0
 40
0.0
 40
0.2779463803323705
 40
0.7862830863399779
 40
1.5429609982599495
 40
1.5429609982599495
 40
1.5429609982599495
 10
5274.0698696873442
 20
577.59999930866979
 30
0.0
 10
5274.0356531385041
 20
577.59955360704043
 30
0.0
 10
5273.5482406298734
 20
577.59320461636162
 30
0.0
 10
5273.0706020337602
 20
577.3653127377911
 30
0.0
 10
5272.6264938539716
 20
577.15341895820893
 30
0.0
 11
5274.0698696873442
 21
577.59999930866979
 31
0.0
 11
5274.001132922197
 21
577.59910394986548
 31
0.0
 11
5273.8633557244357
 21
577.59730927671137
 31
0.0
 11
5273.5790355250729
 21
577.5713366177697
 31
0.0
 11
5273.3563051161091
 21
577.5016279616442
 31
0.0
 11
5273.0310007593998
 21
577.34641809885886
 31
0.0
 11
5272.6264938539716
 21
577.15341895820893
 31
0.0
  0
SPLINE
  5
38D
100
AcDbEntity
  8
0
  6
CONTINUOUS
 62
           3
100
AcDbSpline
210
0.0
220
0.0
230
1.0
 70
           0
 71
           3
 72
           8
 73
           5
 74
           7
 42
0.00000000001
 43
0.00000000001
 44
0.00000000001
 40
0.0
 40
0.0
 40
0.0
 40
0.2779452695555131
 40
0.7862805426580126
 40
1.5429573554987037
 40
1.5429573554987037
 40
1.5429573554987037
 10
5274.0698696873442
 20
572.60000407704501
 30
0.0
 10
5274.1040862308728
 20
572.60044978181395
 30
0.0
 10
5274.5914965280826
 20
572.60679878936935
 30
0.0
 10
5275.0691362283624
 20
572.8346868330882
 30
0.0
 10
5275.5132452878433
 20
573.04657697686343
 30
0.0
 11
5274.0698696873442
 21
572.60000407704501
 31
0.0
 11
5274.1386062202837
 21
572.60089943926835
 31
0.0
 11
5274.2763827320478
 21
572.60269411640024
 31
0.0
 11
5274.5607020292246
 21
572.62866638084438
 31
0.0
 11
5274.7834323286843
 21
572.6983738282388
 31
0.0
 11
5275.1087375183133
 21
572.85358111781966
 31
0.0
 11
5275.5132452878433
 21
573.04657697686343
 31
0.0
  0
SPLINE
  5
38C
100
AcDbEntity
  8
0
  6
CONTINUOUS
 62
           3
100
AcDbSpline
210
0.0
220
0.0
230
1.0
 70
           0
 71
           3
 72
           8
 73
           5
 74
           7
 42
0.00000000001
 43
0.00000000001
 44
0.00000000001
 40
0.0
 40
0.0
 40
0.0
 40
1.2475616964922343
 40
2.2257084622413319
 40
2.9354211178788909
 40
2.9354211178788909
 40
2.9354211178788909
 10
5278.3999967216732
 20
572.60000407704501
 30
0.0
 10
5277.6443400642529
 20
572.5459088094758
 30
0.0
 10
5276.6668989125828
 20
572.47593663347288
 30
0.0
 10
5275.7266017037618
 20
572.21306311116496
 30
0.0
 10
5275.5132452878433
 20
572.1534162760654
 30
0.0
 11
5278.3999967216732
 21
572.60000407704501
 31
0.0
 11
5277.6962845668022
 21
572.54962736569689
 31
0.0
 11
5277.0964614170334
 21
572.50668776679106
 31
0.0
 11
5276.6380594916309
 21
572.44553936031184
 31
0.0
 11
5276.1219787243281
 21
572.32359640751065
 31
0.0
 11
5275.7721068549235
 21
572.22578472647649
 31
0.0
 11
5275.5132452878433
 21
572.1534162760654
 31
0.0
  0
SPLINE
  5
38B
100
AcDbEntity
  8
0
  6
CONTINUOUS
 62
           3
100
AcDbSpline
210
0.0
220
0.0
230
1.0
 70
           0
 71
           3
 72
           8
 73
           5
 74
           7
 42
0.00000000001
 43
0.00000000001
 44
0.00000000001
 40
0.0
 40
0.0
 40
0.0
 40
1.2321308673573934
 40
2.2113541846548967
 40
2.9387223241464699
 40
2.9387223241464699
 40
2.9387223241464699
 10
5281.2867481555004
 20
572.1534162760654
 30
0.0
 10
5280.5674888562426
 20
572.33362040058273
 30
0.0
 10
5279.6156271469808
 20
572.57210102385216
 30
0.0
 10
5278.638719501032
 20
572.59452453797348
 30
0.0
 10
5278.3999967216732
 20
572.60000407704501
 30
0.0
 11
5281.2867481555004
 21
572.1534162760654
 31
0.0
 11
5280.6147131849739
 21
572.32178875819227
 31
0.0
 11
5280.0371268719091
 21
572.46649795553799
 31
0.0
 11
5279.5808673755055
 21
572.54891684792017
 31
0.0
 11
5279.0550883361511
 21
572.5849673884386
 31
0.0
 11
5278.6831310149719
 21
572.59350513535765
 31
0.0
 11
5278.3999967216732
 21
572.60000407704501
 31
0.0
  0
SPLINE
  5
38A
100
AcDbEntity
  8
0
  6
CONTINUOUS
 62
           3
100
AcDbSpline
210
0.0
220
0.0
230
1.0
 70
           0
 71
           3
 72
           8
 73
           5
 74
           7
 42
0.00000000001
 43
0.00000000001
 44
0.00000000001
 40
0.0
 40
0.0
 40
0.0
 40
0.7273681394916147
 40
1.70659145678916
 40
2.9387223240301377
 40
2.9387223240301377
 40
2.9387223240301377
 10
5278.3999967216732
 20
567.59999394425904
 30
0.0
 10
5278.638719501032
 20
567.60547348333057
 30
0.0
 10
5279.6156271469808
 20
567.62789699745554
 30
0.0
 10
5280.5674888562426
 20
567.86637762072496
 30
0.0
 10
5281.2867481553621
 20
568.04658174531505
 30
0.0
 11
5278.3999967216732
 21
567.59999394425904
 31
0.0
 11
5278.6831310149728
 21
567.60649288594675
 31
0.0
 11
5279.055088336152
 21
567.61503063286682
 31
0.0
 11
5279.5808673755109
 21
567.65108117338832
 31
0.0
 11
5280.0371268719318
 21
567.73350006577539
 31
0.0
 11
5280.6147131849439
 21
567.87820926313498
 31
0.0
 11
5281.2867481553621
 21
568.04658174531505
 31
0.0
  0
SPLINE
  5
389
100
AcDbEntity
  8
0
  6
CONTINUOUS
 62
           3
100
AcDbSpline
210
0.0
220
0.0
230
1.0
 70
           0
 71
           3
 72
           8
 73
           5
 74
           7
 42
0.00000000001
 43
0.00000000001
 44
0.00000000001
 40
0.0
 40
0.0
 40
0.0
 40
0.7097107189131068
 40
1.6878556121181039
 40
2.9354150974109121
 40
2.9354150974109121
 40
2.9354150974109121
 10
5275.5132452878433
 20
568.04658174523865
 30
0.0
 10
5275.7266018694936
 20
567.98694060269918
 30
0.0
 10
5276.6669045504614
 20
567.72409084295577
 30
0.0
 10
5277.6443418916824
 20
567.65410209987022
 30
0.0
 10
5278.3999967216732
 20
567.59999394425904
 30
0.0
 11
5275.5132452878433
 21
568.04658174523865
 31
0.0
 11
5275.7721075077989
 21
567.97422007521618
 31
0.0
 11
5276.121981004364
 21
567.87641735022771
 31
0.0
 11
5276.6380638628534
 21
567.75448286684491
 31
0.0
 11
5277.0964653461269
 21
567.69333243124015
 31
0.0
 11
5277.6962864627903
 21
567.65038264380985
 31
0.0
 11
5278.3999967216732
 21
567.59999394425904
 31
0.0
  0
SPLINE
  5
388
100
AcDbEntity
  8
0
  6
CONTINUOUS
 62
           3
100
AcDbSpline
210
0.0
220
0.0
230
1.0
 70
           0
 71
           3
 72
           8
 73
           5
 74
           7
 42
0.00000000001
 43
0.00000000001
 44
0.00000000001
 40
0.0
 40
0.0
 40
0.0
 40
0.2779454797516356
 40
0.7862825386949106
 40
1.542963890727999
 40
1.542963890727999
 40
1.542963890727999
 10
5282.7301237560023
 20
572.60000407704501
 30
0.0
 10
5282.6959072114223
 20
572.59955838478709
 30
0.0
 10
5282.2084964933092
 20
572.59320955013027
 30
0.0
 10
5281.7308570261521
 20
572.36531369562363
 30
0.0
 10
5281.2867481555004
 20
572.1534162760654
 30
0.0
 11
5282.7301237560023
 21
572.60000407704501
 31
0.0
 11
5282.6613872618491
 21
572.59910874048467
 31
0.0
 11
5282.5236108685494
 21
572.59731411531948
 31
0.0
 11
5282.2392912317337
 21
572.57134118107501
 31
0.0
 11
5282.0165610717668
 21
572.50163150871981
 31
0.0
 11
5281.6912558198928
 21
572.34641879400817
 31
0.0
 11
5281.2867481555004
 21
572.1534162760654
 31
0.0
  0
SPLINE
  5
387
100
AcDbEntity
  8
0
  6
CONTINUOUS
 62
           3
100
AcDbSpline
210
0.0
220
0.0
230
1.0
 70
           0
 71
           3
 72
           8
 73
           5
 74
           7
 42
0.00000000001
 43
0.00000000001
 44
0.00000000001
 40
0.0
 40
0.0
 40
0.0
 40
0.2779464854282294
 40
0.7862840843636444
 40
1.542964265895608
 40
1.542964265895608
 40
1.542964265895608
 10
5282.7301237560023
 20
567.59999394425904
 30
0.0
 10
5282.7643403053626
 20
567.60043963963835
 30
0.0
 10
5283.2517530244513
 20
567.60678854386788
 30
0.0
 10
5283.7293915039991
 20
567.83468432782684
 30
0.0
 10
5284.1734995893639
 20
568.04658174531505
 30
0.0
 11
5282.7301237560023
 21
567.59999394425904
 31
0.0
 11
5282.7988605017526
 21
567.60088929023595
 31
0.0
 11
5282.9366376402795
 21
567.60268393740807
 31
0.0
 11
5283.2209580094668
 21
567.62865693124957
 31
0.0
 11
5283.4436883486824
 21
567.6983666998542
 31
0.0
 11
5283.7689927365118
 21
567.8535792752059
 31
0.0
 11
5284.1734995893639
 21
568.04658174531505
 31
0.0
  0
SPLINE
  5
386
100
AcDbEntity
  8
0
  6
CONTINUOUS
 62
           3
100
AcDbSpline
210
0.0
220
0.0
230
1.0
 70
           0
 71
           3
 72
           8
 73
           5
 74
           7
 42
0.00000000001
 43
0.00000000001
 44
0.00000000001
 40
0.0
 40
0.0
 40
0.0
 40
0.2779464854372288
 40
0.7862840843763836
 40
1.5429642658566494
 40
1.5429642658566494
 40
1.5429642658566494
 10
5274.0698696873442
 20
572.60000407704501
 30
0.0
 10
5274.0356531379803
 20
572.59955838167298
 30
0.0
 10
5273.5482404188806
 20
572.59320947744345
 30
0.0
 10
5273.0706019393401
 20
572.36531369347722
 30
0.0
 10
5272.6264938539716
 20
572.15341627611269
 30
0.0
 11
5274.0698696873442
 21
572.60000407704501
 31
0.0
 11
5274.0011329415902
 21
572.59910873107356
 31
0.0
 11
5273.863355803056
 21
572.59731408390326
 31
0.0
 11
5273.5790354338651
 21
572.57134109006006
 31
0.0
 11
5273.3563050946432
 21
572.50163132144996
 31
0.0
 11
5273.0310007068238
 21
572.3464187461293
 31
0.0
 11
5272.6264938539716
 21
572.15341627611269
 31
0.0
  0
SPLINE
  5
385
100
AcDbEntity
  8
0
  6
CONTINUOUS
 62
           3
100
AcDbSpline
210
0.0
220
0.0
230
1.0
 70
           0
 71
           3
 72
           8
 73
           5
 74
           7
 42
0.00000000001
 43
0.00000000001
 44
0.00000000001
 40
0.0
 40
0.0
 40
0.0
 40
0.2779454797471122
 40
0.7862825386901827
 40
1.5429638907233088
 40
1.5429638907233088
 40
1.5429638907233088
 10
5274.0698696873442
 20
567.59999394425904
 30
0.0
 10
5274.1040862319223
 20
567.60043963651697
 30
0.0
 10
5274.59149695003
 20
567.60678847117742
 30
0.0
 10
5275.0691364171944
 20
567.83468432568043
 30
0.0
 10
5275.5132452878433
 20
568.04658174523865
 30
0.0
 11
5274.0698696873442
 21
567.59999394425904
 31
0.0
 11
5274.1386061814947
 21
567.60088928081973
 31
0.0
 11
5274.2763825747916
 21
567.60268390598594
 31
0.0
 11
5274.5607022116064
 21
567.62865684023177
 31
0.0
 11
5274.7834323715761
 21
567.69836651258629
 31
0.0
 11
5275.1087376234518
 21
567.85357922729645
 31
0.0
 11
5275.5132452878433
 21
568.04658174523865
 31
0.0
  0
SPLINE
  5
384
100
AcDbEntity
  8
0
  6
CONTINUOUS
 62
           3
100
AcDbSpline
210
0.0
220
0.0
230
1.0
 70
           0
 71
           3
 72
           8
 73
           5
 74
           7
 42
0.00000000001
 43
0.00000000001
 44
0.00000000001
 40
0.0
 40
0.0
 40
0.0
 40
0.4813884775056248
 40
1.3325655942398793
 40
2.5594910572531906
 40
2.5594910572531906
 40
2.5594910572531906
 10
5275.8999967775526
 20
584.19999927290337
 30
0.0
 10
5275.959261584394
 20
584.20044497155686
 30
0.0
 10
5276.8034817008302
 20
584.20679389583165
 30
0.0
 10
5277.6307775679597
 20
584.43468584173024
 30
0.0
 10
5278.3999967216732
 20
584.64657962329875
 30
0.0
 11
5275.8999967775526
 21
584.19999927290337
 31
0.0
 11
5276.0206888783669
 21
584.20090693311238
 31
0.0
 11
5276.2642355671287
 21
584.20273851643265
 31
0.0
 11
5276.7533839007083
 21
584.22911581064648
 31
0.0
 11
5277.1423366340423
 21
584.30013693448973
 31
0.0
 11
5277.7009721229088
 21
584.45402206031224
 31
0.0
 11
5278.3999967216732
 21
584.64657962329875
 31
0.0
  0
SPLINE
  5
383
100
AcDbEntity
  8
0
  6
CONTINUOUS
 62
           3
100
AcDbSpline
210
0.0
220
0.0
230
1.0
 70
           0
 71
           3
 72
           8
 73
           5
 74
           7
 42
0.00000000001
 43
0.00000000001
 44
0.00000000001
 40
0.0
 40
0.0
 40
0.0
 40
0.4813883392837715
 40
1.3325653926426611
 40
2.5594910488304463
 40
2.5594910488304463
 40
2.5594910488304463
 10
5280.8999966657611
 20
584.19999927290337
 30
0.0
 10
5280.959261471944
 20
584.20044497131312
 30
0.0
 10
5281.8034813132908
 20
584.20679389006909
 30
0.0
 10
5282.630777332779
 20
584.43468584155926
 30
0.0
 10
5283.3999966098636
 20
584.64657962330602
 30
0.0
 11
5280.8999966657611
 21
584.19999927290337
 31
0.0
 11
5281.0206887308805
 21
584.20090693235329
 31
0.0
 11
5281.2642353138735
 21
584.20273851388379
 31
0.0
 11
5281.753383550742
 21
584.22911580306481
 31
0.0
 11
5282.1423362625137
 21
584.30013691823729
 31
0.0
 11
5282.7009718844829
 21
584.45402205616551
 31
0.0
 11
5283.3999966098636
 21
584.64657962330602
 31
0.0
  0
SPLINE
  5
382
100
AcDbEntity
  8
0
  6
CONTINUOUS
 62
           3
100
AcDbSpline
210
0.0
220
0.0
230
1.0
 70
           0
 71
           3
 72
           8
 73
           5
 74
           7
 42
0.00000000001
 43
0.00000000001
 44
0.00000000001
 40
0.0
 40
0.0
 40
0.0
 40
0.0169507227492431
 40
0.1476151553706586
 40
0.4465803504026553
 40
0.4465803504026553
 40
0.4465803504026553
 10
5273.3999968334319
 20
584.19999927290337
 30
0.0
 10
5273.3999968334319
 20
584.20560769818621
 30
0.0
 10
5273.3999968334319
 20
584.22829229311901
 30
0.0
 10
5273.3999968334319
 20
584.46693656342904
 30
0.0
 10
5273.399996833472
 20
584.64657962330602
 30
0.0
 11
5273.3999968334319
 21
584.19999927290337
 31
0.0
 11
5273.3999968334319
 21
584.20485681273522
 31
0.0
 11
5273.3999968334319
 21
584.20821258166461
 31
0.0
 11
5273.3999968334319
 21
584.24141724876165
 31
0.0
 11
5273.3999968334319
 21
584.30087182714396
 31
0.0
 11
5273.3999968334419
 21
584.47033114432702
 31
0.0
 11
5273.399996833472
 21
584.64657962330602
 31
0.0
  0
SPLINE
  5
381
100
AcDbEntity
  8
0
  6
CONTINUOUS
 62
           3
100
AcDbSpline
210
0.0
220
0.0
230
1.0
 70
           0
 71
           3
 72
           8
 73
           5
 74
           7
 42
0.00000000001
 43
0.00000000001
 44
0.00000000001
 40
0.0
 40
0.0
 40
0.0
 40
0.2989651950319967
 40
0.4296296276534122
 40
0.4465803504026553
 40
0.4465803504026553
 40
0.4465803504026553
 10
5283.3999966098636
 20
584.64657962330602
 30
0.0
 10
5283.3999966099109
 20
584.46693656342904
 30
0.0
 10
5283.3999966099109
 20
584.22829229311901
 30
0.0
 10
5283.3999966099109
 20
584.20560769818621
 30
0.0
 10
5283.3999966099109
 20
584.19999927290337
 30
0.0
 11
5283.3999966098636
 21
584.64657962330602
 31
0.0
 11
5283.3999966098982
 21
584.47033114432702
 31
0.0
 11
5283.3999966099109
 21
584.30087182714396
 31
0.0
 11
5283.39999660991
 21
584.24141724876165
 31
0.0
 11
5283.3999966099109
 21
584.20821258166461
 31
0.0
 11
5283.3999966099109
 21
584.2048568127351
 31
0.0
 11
5283.3999966099109
 21
584.19999927290337
 31
0.0
  0
CIRCLE
  5
380
100
AcDbEntity
  8
1
  6
CONTINUOUS
 62
           7
100
AcDbCircle
 10
0.000000000002
 20
5035.0
 40
175.0
  0
CIRCLE
  5
37F
100
AcDbEntity
  8
1
  6
CONTINUOUS
 62
           4
100
AcDbCircle
 10
0.000000000002
 20
5035.0
 40
145.0
  0
CIRCLE
  5
37E
100
AcDbEntity
  8
1
  6
CONTINUOUS
 62
           4
100
AcDbCircle
 10
0.000000000002
 20
5035.0
 40
117.5
  0
CIRCLE
  5
37D
100
AcDbEntity
  8
1
  6
CONTINUOUS
 62
           7
100
AcDbCircle
 10
0.000000000002
 20
5035.0
 40
400.0
  0
CIRCLE
  5
37C
100
AcDbEntity
  8
1
  6
CONTINUOUS
 62
           7
100
AcDbCircle
 10
5662.499999999999
 20
-200.0
 40
7.5
  0
CIRCLE
  5
37B
100
AcDbEntity
  8
1
  6
CONTINUOUS
 62
           2
100
AcDbCircle
 10
5662.499999999999
 20
-200.0
 40
8.350000000001
  0
CIRCLE
  5
37A
100
AcDbEntity
  8
1
  6
CONTINUOUS
 62
           7
100
AcDbCircle
 10
5662.499999999999
 20
-200.0
 40
15.0
  0
CIRCLE
  5
379
100
AcDbEntity
  8
1
  6
CONTINUOUS
 62
           3
100
AcDbCircle
 10
-1241.527744678122
 20
495.200848327053
 40
40.0
  0
ARC
  5
378
100
AcDbEntity
  8
0
  6
CONTINUOUS
 62
           3
100
AcDbCircle
 10
5278.399996721673
 20
555.000000000226
 40
4.0
100
AcDbArc
 50
180.0
 51
0.0
  0
ARC
  5
377
100
AcDbEntity
  8
0
  6
CONTINUOUS
 62
           3
100
AcDbCircle
 10
5278.399996721673
 20
515.000000000062
 40
45.999999999971
100
AcDbArc
 50
180.0
 51
0.0
  0
ARC
  5
376
100
AcDbEntity
  8
0
  6
CONTINUOUS
 62
           3
100
AcDbCircle
 10
5278.399996721673
 20
515.000000000062
 40
53.999999999964
100
AcDbArc
 50
180.0
 51
0.0
  0
ARC
  5
375
100
AcDbEntity
  8
0
  6
CONTINUOUS
 62
           3
100
AcDbCircle
 10
5271.926494029871
 20
590.0
 40
0.900000000001
100
AcDbArc
 50
-117.266044450466
 51
-90.0
  0
ARC
  5
374
100
AcDbEntity
  8
0
  6
CONTINUOUS
 62
           3
100
AcDbCircle
 10
5284.873499413461
 20
590.0
 40
0.900000000001
100
AcDbArc
 50
-90.0
 51
-62.733955549533
  0
ARC
  5
373
100
AcDbEntity
  8
0
  6
CONTINUOUS
 62
           3
100
AcDbCircle
 10
5220.399996721812
 20
730.999999999884
 40
0.999999999996
100
AcDbArc
 50
-90.0
 51
90.0
  0
ARC
  5
372
100
AcDbEntity
  8
0
  6
CONTINUOUS
 62
           3
100
AcDbCircle
 10
5336.399996721521
 20
730.999999999884
 40
1.0
100
AcDbArc
 50
90.0
 51
-90.0
  0
ARC
  5
371
100
AcDbEntity
  8
0
  6
CONTINUOUS
 62
           3
100
AcDbCircle
 10
5336.399996721521
 20
709.0
 40
1.0
100
AcDbArc
 50
90.0
 51
-90.0
  0
ARC
  5
370
100
AcDbEntity
  8
0
  6
CONTINUOUS
 62
           3
100
AcDbCircle
 10
5336.399996721521
 20
631.000000000065
 40
0.999999999996
100
AcDbArc
 50
90.0
 51
-90.0
  0
ARC
  5
36F
100
AcDbEntity
  8
0
  6
CONTINUOUS
 62
           3
100
AcDbCircle
 10
5336.399996721521
 20
609.000000000182
 40
1.0
100
AcDbArc
 50
90.0
 51
-90.0
  0
ARC
  5
36E
100
AcDbEntity
  8
0
  6
CONTINUOUS
 62
           3
100
AcDbCircle
 10
5220.399996721812
 20
609.000000000182
 40
0.999999999996
100
AcDbArc
 50
-90.0
 51
90.0
  0
ARC
  5
36D
100
AcDbEntity
  8
0
  6
CONTINUOUS
 62
           3
100
AcDbCircle
 10
5220.399996721812
 20
631.000000000065
 40
1.0
100
AcDbArc
 50
-90.0
 51
90.0
  0
ARC
  5
36C
100
AcDbEntity
  8
0
  6
CONTINUOUS
 62
           3
100
AcDbCircle
 10
5220.399996721812
 20
709.0
 40
0.999999999996
100
AcDbArc
 50
-90.0
 51
90.0
  0
ARC
  5
36B
100
AcDbEntity
  8
0
  6
CONTINUOUS
 62
           3
100
AcDbCircle
 10
5215.899996721822
 20
568.000000000116
 40
2.49999999999
100
AcDbArc
 50
0.0
 51
180.0
  0
ARC
  5
36A
100
AcDbEntity
  8
0
  6
CONTINUOUS
 62
           3
100
AcDbCircle
 10
5215.899996721822
 20
831.999999999902
 40
2.5
100
AcDbArc
 50
180.0
 51
0.0
  0
ARC
  5
369
100
AcDbEntity
  8
0
  6
CONTINUOUS
 62
           3
100
AcDbCircle
 10
5340.899996721513
 20
831.999999999902
 40
2.499999999992
100
AcDbArc
 50
180.0
 51
0.0
  0
ARC
  5
368
100
AcDbEntity
  8
0
  6
CONTINUOUS
 62
           3
100
AcDbCircle
 10
5340.899996721513
 20
568.000000000116
 40
2.5
100
AcDbArc
 50
0.0
 51
180.0
  0
ARC
  5
367
100
AcDbEntity
  8
1
  6
CONTINUOUS
 62
           3
100
AcDbCircle
 10
5782.663567691041
 20
1125.000000000004
 40
5.871834995065
100
AcDbArc
 50
-90.0
 51
0.0
  0
ARC
  5
366
100
AcDbEntity
  8
1
  6
CONTINUOUS
 62
           3
100
AcDbCircle
 10
5782.663567691041
 20
1125.000000000004
 40
5.871834995068
100
AcDbArc
 50
38.599713917915
 51
90.0
  0
ARC
  5
365
100
AcDbEntity
  8
1
  6
CONTINUOUS
 62
           3
100
AcDbCircle
 10
5782.663567691041
 20
1125.000000000004
 40
5.871834995061
100
AcDbArc
 50
0.0
 51
38.599713917915
  0
ARC
  5
364
100
AcDbEntity
  8
1
  6
CONTINUOUS
 62
           3
100
AcDbCircle
 10
5782.663567691041
 20
1125.000000000004
 40
9.5
100
AcDbArc
 50
0.0
 51
125.916957371441
  0
ARC
  5
363
100
AcDbEntity
  8
1
  6
CONTINUOUS
 62
           3
100
AcDbCircle
 10
5782.663567691041
 20
1125.000000000004
 40
9.5
100
AcDbArc
 50
-124.79781277917
 51
0.0
  0
ARC
  5
362
100
AcDbEntity
  8
7
  6
CONTINUOUS
 62
           7
100
AcDbCircle
 10
5678.000000000002
 20
2462.099999999999
 40
1.999999999999
100
AcDbArc
 50
-50.926689999969
 51
0.0
  0
ARC
  5
361
100
AcDbEntity
  8
7
  6
CONTINUOUS
 62
           7
100
AcDbCircle
 10
5680.950000000003
 20
2457.474999998539
 40
3.489717037459
100
AcDbArc
 50
120.420768185212
 51
171.347458185169
  0
ARC
  5
360
100
AcDbEntity
  8
7
  6
CONTINUOUS
 62
           7
100
AcDbCircle
 10
5964.300000000001
 20
2458.0
 40
3.200000000001
100
AcDbArc
 50
0.0
 51
50.926689999954
  0
ARC
  5
35F
100
AcDbEntity
  8
7
  6
CONTINUOUS
 62
           7
100
AcDbCircle
 10
5967.250000000002
 20
2462.62500000146
 40
2.310438270444
100
AcDbArc
 50
-166.865977658316
 51
-115.939287658323
  0
ARC
  5
35E
100
AcDbEntity
  8
7
  6
CONTINUOUS
 62
           7
100
AcDbCircle
 10
5936.960263000003
 20
2521.799999999999
 40
3.199999999998
100
AcDbArc
 50
5.31002899998
 51
90.0
  0
ARC
  5
35D
100
AcDbEntity
  8
7
  6
CONTINUOUS
 62
           7
100
AcDbCircle
 10
5942.160263000003
 20
2522.041133999999
 40
2.000000000003
100
AcDbArc
 50
-174.689970999946
 51
-125.000000000072
  0
ARC
  5
35C
100
AcDbEntity
  8
7
  6
CONTINUOUS
 62
           7
100
AcDbCircle
 10
5961.800000000001
 20
2495.799999999999
 40
3.200000000001
100
AcDbArc
 50
0.0
 51
90.0
  0
ARC
  5
35B
100
AcDbEntity
  8
7
  6
CONTINUOUS
 62
           7
100
AcDbCircle
 10
5960.665153
 20
2502.0
 40
2.999999999999
100
AcDbArc
 50
-124.999999999946
 51
-90.0
  0
ARC
  5
35A
100
AcDbEntity
  8
7
  6
CONTINUOUS
 62
           7
100
AcDbCircle
 10
5708.039736000001
 20
2521.799999999999
 40
3.200000000001
100
AcDbArc
 50
90.0
 51
174.689971000019
  0
ARC
  5
359
100
AcDbEntity
  8
7
  6
CONTINUOUS
 62
           7
100
AcDbCircle
 10
5702.839736
 20
2522.041133999999
 40
2.000000000002
100
AcDbArc
 50
-54.999999999928
 51
-5.310029000054
  0
ARC
  5
358
100
AcDbEntity
  8
7
  6
CONTINUOUS
 62
           7
100
AcDbCircle
 10
5683.200000000003
 20
2495.799999999999
 40
3.200000000001
100
AcDbArc
 50
90.0
 51
180.0
  0
ARC
  5
357
100
AcDbEntity
  8
7
  6
CONTINUOUS
 62
           7
100
AcDbCircle
 10
5684.334848
 20
2502.0
 40
3.0
100
AcDbArc
 50
-90.0
 51
-54.999999999997
  0
ARC
  5
356
100
AcDbEntity
  8
7
  6
CONTINUOUS
 62
           7
100
AcDbCircle
 10
138.165152000001
 20
2502.0
 40
3.000000000002
100
AcDbArc
 50
-124.999999999992
 51
-90.0
  0
ARC
  5
355
100
AcDbEntity
  8
7
  6
CONTINUOUS
 62
           7
100
AcDbCircle
 10
139.300000000001
 20
2495.799999999998
 40
3.199999999999
100
AcDbArc
 50
0.0
 51
90.0
  0
ARC
  5
354
100
AcDbEntity
  8
7
  6
CONTINUOUS
 62
           7
100
AcDbCircle
 10
119.660264000002
 20
2522.041134000001
 40
2.000000000002
100
AcDbArc
 50
-174.689970999941
 51
-125.00000000003
  0
ARC
  5
353
100
AcDbEntity
  8
7
  6
CONTINUOUS
 62
           7
100
AcDbCircle
 10
114.460264000001
 20
2521.799999999998
 40
3.200000000001
100
AcDbArc
 50
5.310029000042
 51
90.0
  0
ARC
  5
352
100
AcDbEntity
  8
7
  6
CONTINUOUS
 62
           7
100
AcDbCircle
 10
-138.165152999998
 20
2502.0
 40
3.0
100
AcDbArc
 50
-90.0
 51
-55.000000000035
  0
ARC
  5
351
100
AcDbEntity
  8
7
  6
CONTINUOUS
 62
           7
100
AcDbCircle
 10
-139.299999999999
 20
2495.799999999998
 40
3.200000000002
100
AcDbArc
 50
90.0
 51
180.0
  0
ARC
  5
350
100
AcDbEntity
  8
7
  6
CONTINUOUS
 62
           7
100
AcDbCircle
 10
-119.660263
 20
2522.041134000001
 40
2.000000000001
100
AcDbArc
 50
-54.999999999972
 51
-5.310029000059
  0
ARC
  5
34F
100
AcDbEntity
  8
7
  6
CONTINUOUS
 62
           7
100
AcDbCircle
 10
-114.460262999999
 20
2521.799999999998
 40
3.200000000002
100
AcDbArc
 50
90.0
 51
174.689970999958
  0
ARC
  5
34E
100
AcDbEntity
  8
7
  6
CONTINUOUS
 62
           7
100
AcDbCircle
 10
-144.749999999998
 20
2462.625000001463
 40
2.310438270446
100
AcDbArc
 50
-64.060712341686
 51
-13.134022341728
  0
ARC
  5
34D
100
AcDbEntity
  8
7
  6
CONTINUOUS
 62
           7
100
AcDbCircle
 10
-141.799999999999
 20
2458.0
 40
3.2
100
AcDbArc
 50
129.073309999983
 51
180.0
  0
ARC
  5
34C
100
AcDbEntity
  8
7
  6
CONTINUOUS
 62
           7
100
AcDbCircle
 10
141.550000000001
 20
2457.474999998539
 40
3.48971703746
100
AcDbArc
 50
8.65254181483
 51
59.579231814841
  0
ARC
  5
34B
100
AcDbEntity
  8
7
  6
CONTINUOUS
 62
           7
100
AcDbCircle
 10
144.500000000002
 20
2462.1
 40
2.0
100
AcDbArc
 50
180.0
 51
-129.073310000015
  0
ARC
  5
34A
100
AcDbEntity
  8
0
  6
CONTINUOUS
 62
           7
100
AcDbCircle
 10
21.782943312386
 20
4952.136382018492
 40
572.282825445526
100
AcDbArc
 50
32.140798007649
 51
73.328702057894
  0
ARC
  5
349
100
AcDbEntity
  8
1
  6
CONTINUOUS
 62
           7
100
AcDbCircle
 10
181.182082628217
 20
5501.83823800455
 40
5.0
100
AcDbArc
 50
163.46182990047
 51
-17.147702543132
  0
ARC
  5
348
100
AcDbEntity
  8
1
  6
CONTINUOUS
 62
           7
100
AcDbCircle
 10
590.022726517385
 20
4960.516111890456
 40
4.999833824393
100
AcDbArc
 50
90.260436258246
 51
-90.260436258246
  0
ARC
  5
347
100
AcDbEntity
  8
0
  6
CONTINUOUS
 62
           7
100
AcDbCircle
 10
-45.556018666513
 20
4977.719433636255
 40
635.943732327677
100
AcDbArc
 50
-66.384222171459
 51
-2.000810249325
  0
ARC
  5
346
100
AcDbEntity
  8
0
  6
CONTINUOUS
 62
           7
100
AcDbCircle
 10
40.00926063416
 20
4965.056493636275
 40
549.990931231541
100
AcDbArc
 50
0.047858441198
 51
18.188262890001
  0
ARC
  5
345
100
AcDbEntity
  8
1
  6
CONTINUOUS
 62
           7
100
AcDbCircle
 10
560.937688295464
 20
5141.4737072463
 40
4.999999999997
100
AcDbArc
 50
108.975456054183
 51
-71.545416462339
  0
ARC
  5
344
100
AcDbEntity
  8
0
  6
CONTINUOUS
 62
           7
100
AcDbCircle
 10
-153.0
 20
5075.0
 40
670.0
100
AcDbArc
 50
180.0
 51
-177.004902602006
  0
ARC
  5
343
100
AcDbEntity
  8
1
  6
CONTINUOUS
 62
           7
100
AcDbCircle
 10
-821.804904288238
 20
5035.0
 40
5.000000000001
100
AcDbArc
 50
-86.36353044751
 51
93.208888116184
  0
ARC
  5
342
100
AcDbEntity
  8
0
  6
CONTINUOUS
 62
           7
100
AcDbCircle
 10
-73.065287554535
 20
5085.456436540922
 40
750.473530701588
100
AcDbArc
 50
-175.763021490041
 51
-89.613281760692
  0
ARC
  5
341
100
AcDbEntity
  8
0
  6
CONTINUOUS
 62
           7
100
AcDbCircle
 10
40.018279316735
 20
4965.0
 40
550.0
100
AcDbArc
 50
19.235892312416
 51
32.0167313156
  0
ARC
  5
340
100
AcDbEntity
  8
0
  6
CONTINUOUS
 62
           7
100
AcDbCircle
 10
45.000000000002
 20
5052.0
 40
469.999999999995
100
AcDbArc
 50
73.766596122265
 51
91.7405042324
  0
ARC
  5
33F
100
AcDbEntity
  8
0
  6
CONTINUOUS
 62
           7
100
AcDbCircle
 10
-67.999999999998
 20
5004.999999999998
 40
670.0
100
AcDbArc
 50
-90.0
 51
-65.560184603745
  0
ARC
  5
33E
100
AcDbEntity
  8
1
  6
CONTINUOUS
 62
           3
100
AcDbCircle
 10
-1238.490241678123
 20
467.114622327061
 40
0.500000000003
100
AcDbArc
 50
-83.827497998184
 51
-5.006793000162
  0
ARC
  5
33D
100
AcDbEntity
  8
1
  6
CONTINUOUS
 62
           3
100
AcDbCircle
 10
-1244.565247678122
 20
467.114622327061
 40
0.499999999996
100
AcDbArc
 50
-174.993206999758
 51
-96.172501999303
  0
ARC
  5
33C
100
AcDbEntity
  8
1
  6
CONTINUOUS
 62
           3
100
AcDbCircle
 10
-1238.490241678123
 20
523.287074327052
 40
0.500000000005
100
AcDbArc
 50
5.006793001414
 51
83.827497998184
  0
ARC
  5
33B
100
AcDbEntity
  8
1
  6
CONTINUOUS
 62
           3
100
AcDbCircle
 10
-1244.565247678122
 20
523.287074327052
 40
0.5
100
AcDbArc
 50
96.172501999303
 51
174.993206998506
  0
ARC
  5
33A
100
AcDbEntity
  8
1
  6
CONTINUOUS
 62
           3
100
AcDbCircle
 10
-1245.566047678116
 20
495.200848327053
 40
9.999999999999
100
AcDbArc
 50
-5.006792999978
 51
5.006793000019
  0
ARC
  5
339
100
AcDbEntity
  8
1
  6
CONTINUOUS
 62
           3
100
AcDbCircle
 10
-1237.489442678122
 20
495.200848327053
 40
10.0
100
AcDbArc
 50
174.993206999981
 51
-174.993207000022
  0
ARC
  5
338
100
AcDbEntity
  8
1
  6
CONTINUOUS
 62
           3
100
AcDbCircle
 10
-1241.527744678122
 20
495.200848327053
 40
10.749999999989
100
AcDbArc
 50
118.773506999975
 51
-118.773506999947
  0
ARC
  5
337
100
AcDbEntity
  8
1
  6
CONTINUOUS
 62
           3
100
AcDbCircle
 10
-1241.527744678122
 20
495.200848327053
 40
10.750000000001
100
AcDbArc
 50
-61.226493000025
 51
0.0
  0
ARC
  5
336
100
AcDbEntity
  8
1
  6
CONTINUOUS
 62
           3
100
AcDbCircle
 10
-1241.527744678122
 20
495.200848327053
 40
10.75
100
AcDbArc
 50
0.0
 51
61.226492999997
  0
ARC
  5
335
100
AcDbEntity
  8
1
  6
CONTINUOUS
 62
           3
100
AcDbCircle
 10
-1241.527744678122
 20
495.200848327053
 40
28.749999999989
100
AcDbArc
 50
-96.172501999994
 51
-83.827497999994
  0
ARC
  5
334
100
AcDbEntity
  8
1
  6
CONTINUOUS
 62
           3
100
AcDbCircle
 10
-1241.527744678122
 20
495.200848327053
 40
28.750000000008
100
AcDbArc
 50
83.827497999998
 51
96.17250199999
  0
LINE
  5
333
100
AcDbEntity
  8
1
  6
CONTINUOUS
 62
           3
100
AcDbLine
 10
5760.0
 20
1121.000000000004
 11
5612.399998122324
 21
1121.000000000004
  0
LINE
  5
332
100
AcDbEntity
  8
1
  6
CONTINUOUS
 62
           3
100
AcDbLine
 10
5760.0
 20
1129.000000000004
 11
5612.399996810931
 21
1129.000000000004
  0
LINE
  5
331
100
AcDbEntity
  8
0
  6
CONTINUOUS
 62
           3
100
AcDbLine
 10
5232.399996632412
 20
514.99999761596
 11
5232.399996632412
 21
564.999994635818
  0
LINE
  5
330
100
AcDbEntity
  8
0
  6
CONTINUOUS
 62
           3
100
AcDbLine
 10
5272.626493853972
 20
555.446577072227
 11
5273.399996833472
 21
555.000004172325
  0
LINE
  5
32F
100
AcDbEntity
  8
0
  6
CONTINUOUS
 62
           3
100
AcDbLine
 10
5283.399996609864
 20
555.000004172325
 11
5284.173499589364
 21
555.446577072227
  0
LINE
  5
32E
100
AcDbEntity
  8
0
  6
CONTINUOUS
 62
           3
100
AcDbLine
 10
5273.399996833472
 20
559.999999403924
 11
5272.626493853972
 21
559.553411603025
  0
LINE
  5
32D
100
AcDbEntity
  8
0
  6
CONTINUOUS
 62
           3
100
AcDbLine
 10
5284.173499589364
 20
559.553411603025
 11
5283.399996609864
 21
559.999999403924
  0
LINE
  5
32C
100
AcDbEntity
  8
0
  6
CONTINUOUS
 62
           3
100
AcDbLine
 10
5273.399996833472
 20
564.999994635818
 11
5272.626493853972
 21
564.55342173592
  0
LINE
  5
32B
100
AcDbEntity
  8
0
  6
CONTINUOUS
 62
           3
100
AcDbLine
 10
5284.173499589364
 20
564.55342173592
 11
5283.399996609864
 21
564.999994635818
  0
LINE
  5
32A
100
AcDbEntity
  8
0
  6
CONTINUOUS
 62
           3
100
AcDbLine
 10
5283.399996609864
 20
559.999999403924
 11
5284.173499589364
 21
560.446587205126
  0
LINE
  5
329
100
AcDbEntity
  8
0
  6
CONTINUOUS
 62
           3
100
AcDbLine
 10
5272.626493853972
 20
560.446587205126
 11
5273.399996833472
 21
559.999999403924
  0
LINE
  5
328
100
AcDbEntity
  8
0
  6
CONTINUOUS
 62
           3
100
AcDbLine
 10
5273.399996833472
 20
577.599999308608
 11
5272.626493853972
 21
577.153418958209
  0
LINE
  5
327
100
AcDbEntity
  8
0
  6
CONTINUOUS
 62
           3
100
AcDbLine
 10
5284.173499589364
 20
577.153418958209
 11
5283.399996609864
 21
577.599999308608
  0
LINE
  5
326
100
AcDbEntity
  8
0
  6
CONTINUOUS
 62
           3
100
AcDbLine
 10
5283.399996609864
 20
572.600004077012
 11
5284.173499589364
 21
573.046576976914
  0
LINE
  5
325
100
AcDbEntity
  8
0
  6
CONTINUOUS
 62
           3
100
AcDbLine
 10
5272.626493853972
 20
573.046576976914
 11
5273.399996833472
 21
572.600004077012
  0
LINE
  5
324
100
AcDbEntity
  8
0
  6
CONTINUOUS
 62
           3
100
AcDbLine
 10
5273.399996833472
 20
572.600004077012
 11
5272.626493853972
 21
572.153416276113
  0
LINE
  5
323
100
AcDbEntity
  8
0
  6
CONTINUOUS
 62
           3
100
AcDbLine
 10
5284.173499589364
 20
572.153416276113
 11
5283.399996609864
 21
572.600004077012
  0
LINE
  5
322
100
AcDbEntity
  8
0
  6
CONTINUOUS
 62
           3
100
AcDbLine
 10
5283.399996609864
 20
567.599993944117
 11
5284.173499589364
 21
568.046581745315
  0
LINE
  5
321
100
AcDbEntity
  8
0
  6
CONTINUOUS
 62
           3
100
AcDbLine
 10
5272.626493853972
 20
568.046581745315
 11
5273.399996833472
 21
567.599993944117
  0
LINE
  5
320
100
AcDbEntity
  8
0
  6
CONTINUOUS
 62
           3
100
AcDbLine
 10
5324.399996810931
 20
841.000000000004
 11
5324.399996810931
 21
835.0000053642
  0
LINE
  5
31F
100
AcDbEntity
  8
0
  6
CONTINUOUS
 62
           3
100
AcDbLine
 10
5324.399996810931
 20
833.399993180999
 11
5324.399996810931
 21
750.000000744967
  0
LINE
  5
31E
100
AcDbEntity
  8
0
  6
CONTINUOUS
 62
           3
100
AcDbLine
 10
5324.399996810931
 20
748.799999058068
 11
5324.399996810931
 21
591.199998557597
  0
LINE
  5
31D
100
AcDbEntity
  8
0
  6
CONTINUOUS
 62
           3
100
AcDbLine
 10
5324.399996810931
 20
590.000000596101
 11
5324.399996810931
 21
566.600006818717
  0
LINE
  5
31C
100
AcDbEntity
  8
0
  6
CONTINUOUS
 62
           3
100
AcDbLine
 10
5324.399996810931
 20
564.999994635818
 11
5324.399996810931
 21
514.99999761596
  0
LINE
  5
31B
100
AcDbEntity
  8
0
  6
CONTINUOUS
 62
           3
100
AcDbLine
 10
5332.399998122324
 20
514.99999761596
 11
5332.399998122324
 21
564.999994635818
  0
LINE
  5
31A
100
AcDbEntity
  8
0
  6
CONTINUOUS
 62
           3
100
AcDbLine
 10
5332.399998122324
 20
566.600006818717
 11
5332.399998122324
 21
590.000000596101
  0
LINE
  5
319
100
AcDbEntity
  8
0
  6
CONTINUOUS
 62
           3
100
AcDbLine
 10
5332.399998122324
 20
591.199998557597
 11
5332.399998122324
 21
748.799999058068
  0
LINE
  5
318
100
AcDbEntity
  8
0
  6
CONTINUOUS
 62
           3
100
AcDbLine
 10
5332.399998122324
 20
750.000000744967
 11
5332.399998122324
 21
833.399993180999
  0
LINE
  5
317
100
AcDbEntity
  8
0
  6
CONTINUOUS
 62
           3
100
AcDbLine
 10
5332.399998122324
 20
835.0000053642
 11
5332.399998122324
 21
841.000000000004
  0
LINE
  5
316
100
AcDbEntity
  8
0
  6
CONTINUOUS
 62
           3
100
AcDbLine
 10
5224.399995321011
 20
865.000006556373
 11
5224.399995321011
 21
835.0000053642
  0
LINE
  5
315
100
AcDbEntity
  8
0
  6
CONTINUOUS
 62
           3
100
AcDbLine
 10
5224.399995321011
 20
833.399993180999
 11
5224.399995321011
 21
750.000000744967
  0
LINE
  5
314
100
AcDbEntity
  8
0
  6
CONTINUOUS
 62
           3
100
AcDbLine
 10
5224.399995321011
 20
748.799999058068
 11
5224.399995321011
 21
591.199998557597
  0
LINE
  5
313
100
AcDbEntity
  8
0
  6
CONTINUOUS
 62
           3
100
AcDbLine
 10
5224.399995321011
 20
590.000000596101
 11
5224.399995321011
 21
566.600006818717
  0
LINE
  5
312
100
AcDbEntity
  8
0
  6
CONTINUOUS
 62
           3
100
AcDbLine
 10
5224.399995321011
 20
564.999994635818
 11
5224.399995321011
 21
514.99999761596
  0
LINE
  5
311
100
AcDbEntity
  8
0
  6
CONTINUOUS
 62
           3
100
AcDbLine
 10
5232.399996632412
 20
566.600006818717
 11
5232.399996632412
 21
590.000000596101
  0
LINE
  5
310
100
AcDbEntity
  8
0
  6
CONTINUOUS
 62
           3
100
AcDbLine
 10
5232.399996632412
 20
591.199998557597
 11
5232.399996632412
 21
748.799999058068
  0
LINE
  5
30F
100
AcDbEntity
  8
0
  6
CONTINUOUS
 62
           3
100
AcDbLine
 10
5232.399996632412
 20
750.000000744967
 11
5232.399996632412
 21
833.399993180999
  0
LINE
  5
30E
100
AcDbEntity
  8
0
  6
CONTINUOUS
 62
           3
100
AcDbLine
 10
5232.399996632412
 20
835.0000053642
 11
5232.399996632412
 21
865.000006556373
  0
LINE
  5
30D
100
AcDbEntity
  8
0
  6
CONTINUOUS
 62
           3
100
AcDbLine
 10
5281.399996747761
 20
566.600006818717
 11
5281.399996747761
 21
567.599993944117
  0
LINE
  5
30C
100
AcDbEntity
  8
0
  6
CONTINUOUS
 62
           3
100
AcDbLine
 10
5281.399996747761
 20
577.599999308608
 11
5281.399996747761
 21
584.199999272903
  0
LINE
  5
30B
100
AcDbEntity
  8
0
  6
CONTINUOUS
 62
           3
100
AcDbLine
 10
5281.399996747761
 20
590.000000596101
 11
5281.399996747761
 21
592.957426607598
  0
LINE
  5
30A
100
AcDbEntity
  8
0
  6
CONTINUOUS
 62
           3
100
AcDbLine
 10
5281.399996747761
 20
594.792847335495
 11
5281.399996747761
 21
833.399993180999
  0
LINE
  5
309
100
AcDbEntity
  8
0
  6
CONTINUOUS
 62
           3
100
AcDbLine
 10
5281.399996747761
 20
835.0000053642
 11
5281.399996747761
 21
837.422651052297
  0
LINE
  5
308
100
AcDbEntity
  8
0
  6
CONTINUOUS
 62
           3
100
AcDbLine
 10
5275.399996695574
 20
837.422651052297
 11
5275.399996695574
 21
835.0000053642
  0
LINE
  5
307
100
AcDbEntity
  8
0
  6
CONTINUOUS
 62
           3
100
AcDbLine
 10
5275.399996695574
 20
833.399993180999
 11
5275.399996695574
 21
594.792847335495
  0
LINE
  5
306
100
AcDbEntity
  8
0
  6
CONTINUOUS
 62
           3
100
AcDbLine
 10
5275.399996695574
 20
592.957426607598
 11
5275.399996695574
 21
590.000000596101
  0
LINE
  5
305
100
AcDbEntity
  8
0
  6
CONTINUOUS
 62
           3
100
AcDbLine
 10
5275.399996695574
 20
584.199999272903
 11
5275.399996695574
 21
577.599999308608
  0
LINE
  5
304
100
AcDbEntity
  8
0
  6
CONTINUOUS
 62
           3
100
AcDbLine
 10
5275.399996695574
 20
567.599993944117
 11
5275.399996695574
 21
566.600006818717
  0
LINE
  5
303
100
AcDbEntity
  8
0
  6
CONTINUOUS
 62
           3
100
AcDbLine
 10
5281.399996747761
 20
837.422651052297
 11
5280.399996816559
 21
838.422653078997
  0
LINE
  5
302
100
AcDbEntity
  8
0
  6
CONTINUOUS
 62
           3
100
AcDbLine
 10
5276.399996626773
 20
838.422653078997
 11
5275.399996695574
 21
837.422651052297
  0
LINE
  5
301
100
AcDbEntity
  8
0
  6
CONTINUOUS
 62
           3
100
AcDbLine
 10
5274.899996613574
 20
594.799999892897
 11
5270.399996341774
 21
594.799999892897
  0
LINE
  5
300
100
AcDbEntity
  8
0
  6
CONTINUOUS
 62
           3
100
AcDbLine
 10
5286.399997101562
 20
594.799999892897
 11
5281.899996829761
 21
594.799999892897
  0
LINE
  5
2FF
100
AcDbEntity
  8
0
  6
CONTINUOUS
 62
           3
100
AcDbLine
 10
5271.926494029871
 20
589.099999999999
 11
5284.873499413461
 21
589.099999999999
  0
LINE
  5
2FE
100
AcDbEntity
  8
0
  6
CONTINUOUS
 62
           3
100
AcDbLine
 10
5221.399996692009
 20
593.799997866197
 11
5224.399995321011
 21
593.799997866197
  0
LINE
  5
2FD
100
AcDbEntity
  8
0
  6
CONTINUOUS
 62
           3
100
AcDbLine
 10
5232.399996632412
 20
593.799997866197
 11
5270.399996341774
 21
593.799997866197
  0
LINE
  5
2FC
100
AcDbEntity
  8
0
  6
CONTINUOUS
 62
           3
100
AcDbLine
 10
5286.399997101562
 20
593.799997866197
 11
5324.399996810931
 21
593.799997866197
  0
LINE
  5
2FB
100
AcDbEntity
  8
0
  6
CONTINUOUS
 62
           3
100
AcDbLine
 10
5332.399998122324
 20
593.799997866197
 11
5335.399996751323
 21
593.799997866197
  0
LINE
  5
2FA
100
AcDbEntity
  8
0
  6
CONTINUOUS
 62
           3
100
AcDbLine
 10
5221.399996692009
 20
743.800000101372
 11
5221.399996692009
 21
593.799997866197
  0
LINE
  5
2F9
100
AcDbEntity
  8
0
  6
CONTINUOUS
 62
           3
100
AcDbLine
 10
5335.399996751323
 20
743.800000101372
 11
5332.399998122324
 21
743.800000101372
  0
LINE
  5
2F8
100
AcDbEntity
  8
0
  6
CONTINUOUS
 62
           3
100
AcDbLine
 10
5324.399996810931
 20
743.800000101372
 11
5281.399996747761
 21
743.800000101372
  0
LINE
  5
2F7
100
AcDbEntity
  8
0
  6
CONTINUOUS
 62
           3
100
AcDbLine
 10
5275.399996695574
 20
743.800000101372
 11
5232.399996632412
 21
743.800000101372
  0
LINE
  5
2F6
100
AcDbEntity
  8
0
  6
CONTINUOUS
 62
           3
100
AcDbLine
 10
5224.399995321011
 20
743.800000101372
 11
5221.399996692009
 21
743.800000101372
  0
LINE
  5
2F5
100
AcDbEntity
  8
0
  6
CONTINUOUS
 62
           3
100
AcDbLine
 10
5335.399996751323
 20
593.799997866197
 11
5335.399996751323
 21
743.800000101372
  0
LINE
  5
2F4
100
AcDbEntity
  8
0
  6
CONTINUOUS
 62
           3
100
AcDbLine
 10
5281.286748155362
 20
555.446577072227
 11
5281.2867481555
 21
559.553411603072
  0
LINE
  5
2F3
100
AcDbEntity
  8
0
  6
CONTINUOUS
 62
           3
100
AcDbLine
 10
5281.286748155362
 20
555.446577072227
 11
5278.399996721673
 21
555.000004172325
  0
LINE
  5
2F2
100
AcDbEntity
  8
0
  6
CONTINUOUS
 62
           3
100
AcDbLine
 10
5275.513245287843
 20
555.446577072245
 11
5275.51324528797
 21
559.553411603025
  0
LINE
  5
2F1
100
AcDbEntity
  8
0
  6
CONTINUOUS
 62
           3
100
AcDbLine
 10
5275.51324528797
 20
559.553411603025
 11
5278.399996721673
 21
559.999999404052
  0
LINE
  5
2F0
100
AcDbEntity
  8
0
  6
CONTINUOUS
 62
           3
100
AcDbLine
 10
5278.399996721673
 20
555.000004172325
 11
5282.730123756002
 21
555.000004172423
  0
LINE
  5
2EF
100
AcDbEntity
  8
0
  6
CONTINUOUS
 62
           3
100
AcDbLine
 10
5274.069869687344
 20
555.000004172423
 11
5278.399996721673
 21
555.000004172325
  0
LINE
  5
2EE
100
AcDbEntity
  8
0
  6
CONTINUOUS
 62
           3
100
AcDbLine
 10
5274.069869687344
 20
559.999999404052
 11
5278.399996721673
 21
559.999999404052
  0
LINE
  5
2ED
100
AcDbEntity
  8
0
  6
CONTINUOUS
 62
           3
100
AcDbLine
 10
5281.2867481555
 20
559.553411603072
 11
5282.730123755962
 21
559.999999403924
  0
LINE
  5
2EC
100
AcDbEntity
  8
0
  6
CONTINUOUS
 62
           3
100
AcDbLine
 10
5278.399996721673
 20
559.999999404052
 11
5282.730123755962
 21
559.999999403924
  0
LINE
  5
2EB
100
AcDbEntity
  8
0
  6
CONTINUOUS
 62
           3
100
AcDbLine
 10
5272.626493853972
 20
555.446577072227
 11
5272.626493853972
 21
559.553411603025
  0
LINE
  5
2EA
100
AcDbEntity
  8
0
  6
CONTINUOUS
 62
           3
100
AcDbLine
 10
5284.173499589364
 20
555.446577072227
 11
5284.173499589364
 21
559.553411603025
  0
LINE
  5
2E9
100
AcDbEntity
  8
0
  6
CONTINUOUS
 62
           3
100
AcDbLine
 10
5284.173499589364
 20
555.446577072227
 11
5282.730123756002
 21
555.000004172423
  0
LINE
  5
2E8
100
AcDbEntity
  8
0
  6
CONTINUOUS
 62
           3
100
AcDbLine
 10
5273.399996833472
 20
555.000004172325
 11
5274.069869687344
 21
555.000004172423
  0
LINE
  5
2E7
100
AcDbEntity
  8
0
  6
CONTINUOUS
 62
           3
100
AcDbLine
 10
5283.399996609864
 20
555.000004172325
 11
5282.730123756002
 21
555.000004172423
  0
LINE
  5
2E6
100
AcDbEntity
  8
0
  6
CONTINUOUS
 62
           3
100
AcDbLine
 10
5273.399996833472
 20
559.999999403924
 11
5274.069869687344
 21
559.999999404052
  0
LINE
  5
2E5
100
AcDbEntity
  8
0
  6
CONTINUOUS
 62
           3
100
AcDbLine
 10
5281.2867481555
 20
564.553421735862
 11
5281.286748155362
 21
560.446587205126
  0
LINE
  5
2E4
100
AcDbEntity
  8
0
  6
CONTINUOUS
 62
           3
100
AcDbLine
 10
5275.513245287843
 20
564.553421735862
 11
5275.513245287843
 21
560.446587205028
  0
LINE
  5
2E3
100
AcDbEntity
  8
0
  6
CONTINUOUS
 62
           3
100
AcDbLine
 10
5284.173499589364
 20
564.55342173592
 11
5282.730123756002
 21
564.999994635677
  0
LINE
  5
2E2
100
AcDbEntity
  8
0
  6
CONTINUOUS
 62
           3
100
AcDbLine
 10
5284.173499589364
 20
564.55342173592
 11
5284.173499589364
 21
560.446587205126
  0
LINE
  5
2E1
100
AcDbEntity
  8
0
  6
CONTINUOUS
 62
           3
100
AcDbLine
 10
5281.286748155362
 20
560.446587205126
 11
5282.730123755962
 21
559.999999403924
  0
LINE
  5
2E0
100
AcDbEntity
  8
0
  6
CONTINUOUS
 62
           3
100
AcDbLine
 10
5275.513245287843
 20
564.553421735862
 11
5274.069869687344
 21
564.999994635677
  0
LINE
  5
2DF
100
AcDbEntity
  8
0
  6
CONTINUOUS
 62
           3
100
AcDbLine
 10
5272.626493853972
 20
560.446587205126
 11
5274.069869687344
 21
559.999999404052
  0
LINE
  5
2DE
100
AcDbEntity
  8
0
  6
CONTINUOUS
 62
           3
100
AcDbLine
 10
5272.626493853972
 20
564.55342173592
 11
5272.626493853972
 21
560.446587205126
  0
LINE
  5
2DD
100
AcDbEntity
  8
0
  6
CONTINUOUS
 62
           3
100
AcDbLine
 10
5281.2867481555
 20
577.153418958271
 11
5281.286748155362
 21
573.046576976914
  0
LINE
  5
2DC
100
AcDbEntity
  8
0
  6
CONTINUOUS
 62
           3
100
AcDbLine
 10
5275.513245287843
 20
577.153418958271
 11
5275.513245287843
 21
573.046576976863
  0
LINE
  5
2DB
100
AcDbEntity
  8
0
  6
CONTINUOUS
 62
           3
100
AcDbLine
 10
5284.173499589364
 20
577.153418958209
 11
5282.730123756002
 21
577.59999930867
  0
LINE
  5
2DA
100
AcDbEntity
  8
0
  6
CONTINUOUS
 62
           3
100
AcDbLine
 10
5284.173499589364
 20
577.153418958209
 11
5284.173499589364
 21
573.046576976914
  0
LINE
  5
2D9
100
AcDbEntity
  8
0
  6
CONTINUOUS
 62
           3
100
AcDbLine
 10
5281.286748155362
 20
573.046576976914
 11
5282.730123756002
 21
572.600004077045
  0
LINE
  5
2D8
100
AcDbEntity
  8
0
  6
CONTINUOUS
 62
           3
100
AcDbLine
 10
5282.730123756002
 20
577.59999930867
 11
5278.399996721673
 21
577.59999930867
  0
LINE
  5
2D7
100
AcDbEntity
  8
0
  6
CONTINUOUS
 62
           3
100
AcDbLine
 10
5275.513245287843
 20
577.153418958271
 11
5274.069869687344
 21
577.59999930867
  0
LINE
  5
2D6
100
AcDbEntity
  8
0
  6
CONTINUOUS
 62
           3
100
AcDbLine
 10
5272.626493853972
 20
573.046576976914
 11
5274.069869687344
 21
572.600004077045
  0
LINE
  5
2D5
100
AcDbEntity
  8
0
  6
CONTINUOUS
 62
           3
100
AcDbLine
 10
5272.626493853972
 20
577.153418958209
 11
5272.626493853972
 21
573.046576976914
  0
LINE
  5
2D4
100
AcDbEntity
  8
0
  6
CONTINUOUS
 62
           3
100
AcDbLine
 10
5278.399996721673
 20
577.59999930867
 11
5274.069869687344
 21
577.59999930867
  0
LINE
  5
2D3
100
AcDbEntity
  8
0
  6
CONTINUOUS
 62
           3
100
AcDbLine
 10
5282.730123756002
 20
572.600004077045
 11
5278.399996721673
 21
572.600004077045
  0
LINE
  5
2D2
100
AcDbEntity
  8
0
  6
CONTINUOUS
 62
           3
100
AcDbLine
 10
5278.399996721673
 20
572.600004077045
 11
5274.069869687344
 21
572.600004077045
  0
LINE
  5
2D1
100
AcDbEntity
  8
0
  6
CONTINUOUS
 62
           3
100
AcDbLine
 10
5274.069869687344
 20
577.59999930867
 11
5273.399996833472
 21
577.599999308608
  0
LINE
  5
2D0
100
AcDbEntity
  8
0
  6
CONTINUOUS
 62
           3
100
AcDbLine
 10
5283.399996609864
 20
577.599999308608
 11
5282.730123756002
 21
577.59999930867
  0
LINE
  5
2CF
100
AcDbEntity
  8
0
  6
CONTINUOUS
 62
           3
100
AcDbLine
 10
5283.399996609864
 20
572.600004077012
 11
5282.730123756002
 21
572.600004077045
  0
LINE
  5
2CE
100
AcDbEntity
  8
0
  6
CONTINUOUS
 62
           3
100
AcDbLine
 10
5281.2867481555
 20
572.153416276065
 11
5281.286748155362
 21
568.046581745315
  0
LINE
  5
2CD
100
AcDbEntity
  8
0
  6
CONTINUOUS
 62
           3
100
AcDbLine
 10
5275.513245287843
 20
572.153416276065
 11
5275.513245287843
 21
568.046581745239
  0
LINE
  5
2CC
100
AcDbEntity
  8
0
  6
CONTINUOUS
 62
           3
100
AcDbLine
 10
5284.173499589364
 20
572.153416276113
 11
5282.730123756002
 21
572.600004077045
  0
LINE
  5
2CB
100
AcDbEntity
  8
0
  6
CONTINUOUS
 62
           3
100
AcDbLine
 10
5284.173499589364
 20
572.153416276113
 11
5284.173499589364
 21
568.046581745315
  0
LINE
  5
2CA
100
AcDbEntity
  8
0
  6
CONTINUOUS
 62
           3
100
AcDbLine
 10
5281.286748155362
 20
568.046581745315
 11
5282.730123756002
 21
567.599993944259
  0
LINE
  5
2C9
100
AcDbEntity
  8
0
  6
CONTINUOUS
 62
           3
100
AcDbLine
 10
5275.513245287843
 20
572.153416276065
 11
5274.069869687344
 21
572.600004077045
  0
LINE
  5
2C8
100
AcDbEntity
  8
0
  6
CONTINUOUS
 62
           3
100
AcDbLine
 10
5272.626493853972
 20
568.046581745315
 11
5274.069869687344
 21
567.599993944259
  0
LINE
  5
2C7
100
AcDbEntity
  8
0
  6
CONTINUOUS
 62
           3
100
AcDbLine
 10
5272.626493853972
 20
572.153416276113
 11
5272.626493853972
 21
568.046581745315
  0
LINE
  5
2C6
100
AcDbEntity
  8
0
  6
CONTINUOUS
 62
           3
100
AcDbLine
 10
5278.399996721673
 20
567.599993944259
 11
5274.069869687344
 21
567.599993944259
  0
LINE
  5
2C5
100
AcDbEntity
  8
0
  6
CONTINUOUS
 62
           3
100
AcDbLine
 10
5282.730123756002
 20
567.599993944259
 11
5278.399996721673
 21
567.599993944259
  0
LINE
  5
2C4
100
AcDbEntity
  8
0
  6
CONTINUOUS
 62
           3
100
AcDbLine
 10
5274.069869687344
 20
572.600004077045
 11
5273.399996833472
 21
572.600004077012
  0
LINE
  5
2C3
100
AcDbEntity
  8
0
  6
CONTINUOUS
 62
           3
100
AcDbLine
 10
5283.399996609864
 20
567.599993944117
 11
5282.730123756002
 21
567.599993944259
  0
LINE
  5
2C2
100
AcDbEntity
  8
0
  6
CONTINUOUS
 62
           3
100
AcDbLine
 10
5274.069869687344
 20
567.599993944259
 11
5273.399996833472
 21
567.599993944117
  0
LINE
  5
2C1
100
AcDbEntity
  8
0
  6
CONTINUOUS
 62
           3
100
AcDbLine
 10
5228.39999597671
 20
865.000006556373
 11
5232.399996632412
 21
865.000006556373
  0
LINE
  5
2C0
100
AcDbEntity
  8
0
  6
CONTINUOUS
 62
           3
100
AcDbLine
 10
5224.399995321011
 20
865.000006556373
 11
5228.39999597671
 21
865.000006556373
  0
LINE
  5
2BF
100
AcDbEntity
  8
0
  6
CONTINUOUS
 62
           3
100
AcDbLine
 10
5275.399996695574
 20
837.422651052297
 11
5281.399996747761
 21
837.422651052297
  0
LINE
  5
2BE
100
AcDbEntity
  8
0
  6
CONTINUOUS
 62
           3
100
AcDbLine
 10
5280.399996816559
 20
838.422653078997
 11
5276.399996626773
 21
838.422653078997
  0
LINE
  5
2BD
100
AcDbEntity
  8
0
  6
CONTINUOUS
 62
           3
100
AcDbLine
 10
5286.399997101562
 20
589.200001955
 11
5281.899996829761
 21
589.200001955
  0
LINE
  5
2BC
100
AcDbEntity
  8
0
  6
CONTINUOUS
 62
           3
100
AcDbLine
 10
5274.899996613574
 20
594.792847335495
 11
5281.899996829761
 21
594.792847335495
  0
LINE
  5
2BB
100
AcDbEntity
  8
0
  6
CONTINUOUS
 62
           3
100
AcDbLine
 10
5274.899996613574
 20
589.200001955
 11
5270.399996341774
 21
589.200001955
  0
LINE
  5
2BA
100
AcDbEntity
  8
0
  6
CONTINUOUS
 62
           3
100
AcDbLine
 10
5281.899996829761
 20
594.799999892897
 11
5281.899996829761
 21
589.200001955
  0
LINE
  5
2B9
100
AcDbEntity
  8
0
  6
CONTINUOUS
 62
           3
100
AcDbLine
 10
5274.899996613574
 20
589.200001955
 11
5274.899996613574
 21
594.799999892897
  0
LINE
  5
2B8
100
AcDbEntity
  8
0
  6
CONTINUOUS
 62
           3
100
AcDbLine
 10
5270.399996341774
 20
594.799999892897
 11
5270.399996341774
 21
589.200001955
  0
LINE
  5
2B7
100
AcDbEntity
  8
0
  6
CONTINUOUS
 62
           3
100
AcDbLine
 10
5286.399997101562
 20
594.799999892897
 11
5286.399997101562
 21
589.200001955
  0
LINE
  5
2B6
100
AcDbEntity
  8
0
  6
CONTINUOUS
 62
           3
100
AcDbLine
 10
5281.899996829761
 20
592.246469855298
 11
5281.399996747761
 21
592.246469855298
  0
LINE
  5
2B5
100
AcDbEntity
  8
0
  6
CONTINUOUS
 62
           3
100
AcDbLine
 10
5275.399996695574
 20
592.246469855298
 11
5274.899996613574
 21
592.246469855298
  0
LINE
  5
2B4
100
AcDbEntity
  8
0
  6
CONTINUOUS
 62
           3
100
AcDbLine
 10
5281.899996829761
 20
593.990144133495
 11
5274.899996613574
 21
593.990144133495
  0
LINE
  5
2B3
100
AcDbEntity
  8
0
  6
CONTINUOUS
 62
           3
100
AcDbLine
 10
5274.899996613574
 20
590.000000596101
 11
5281.899996829761
 21
590.000000596101
  0
LINE
  5
2B2
100
AcDbEntity
  8
0
  6
CONTINUOUS
 62
           3
100
AcDbLine
 10
5274.899996613574
 20
589.200001955
 11
5281.899996829761
 21
589.200001955
  0
LINE
  5
2B1
100
AcDbEntity
  8
0
  6
CONTINUOUS
 62
           3
100
AcDbLine
 10
5278.399996721673
 20
584.646579623299
 11
5280.899996665761
 21
584.199999272903
  0
LINE
  5
2B0
100
AcDbEntity
  8
0
  6
CONTINUOUS
 62
           3
100
AcDbLine
 10
5275.899996777553
 20
584.199999272903
 11
5280.899996665761
 21
584.199999272903
  0
LINE
  5
2AF
100
AcDbEntity
  8
0
  6
CONTINUOUS
 62
           3
100
AcDbLine
 10
5278.399996721673
 20
584.646579623299
 11
5278.399996721673
 21
589.100000262199
  0
LINE
  5
2AE
100
AcDbEntity
  8
0
  6
CONTINUOUS
 62
           3
100
AcDbLine
 10
5273.399996833472
 20
584.646579623306
 11
5275.899996777553
 21
584.199999272903
  0
LINE
  5
2AD
100
AcDbEntity
  8
0
  6
CONTINUOUS
 62
           3
100
AcDbLine
 10
5273.399996833472
 20
584.646579623306
 11
5273.399996833472
 21
589.100000262199
  0
LINE
  5
2AC
100
AcDbEntity
  8
0
  6
CONTINUOUS
 62
           3
100
AcDbLine
 10
5283.399996609864
 20
584.646579623306
 11
5283.399996609864
 21
589.100000262199
  0
LINE
  5
2AB
100
AcDbEntity
  8
0
  6
CONTINUOUS
 62
           3
100
AcDbLine
 10
5273.399996833432
 20
584.199999272903
 11
5275.899996777553
 21
584.199999272903
  0
LINE
  5
2AA
100
AcDbEntity
  8
0
  6
CONTINUOUS
 62
           3
100
AcDbLine
 10
5280.899996665761
 20
584.199999272903
 11
5283.399996609911
 21
584.199999272903
  0
LINE
  5
2A9
100
AcDbEntity
  8
0
  6
CONTINUOUS
 62
           3
100
AcDbLine
 10
5286.399997101562
 20
588.276241719799
 11
5283.399996609864
 21
588.276241719799
  0
LINE
  5
2A8
100
AcDbEntity
  8
0
  6
CONTINUOUS
 62
           3
100
AcDbLine
 10
5273.399996833472
 20
588.276241719799
 11
5270.399996341774
 21
588.276241719799
  0
LINE
  5
2A7
100
AcDbEntity
  8
0
  6
CONTINUOUS
 62
           3
100
AcDbLine
 10
5270.399996341774
 20
589.200001955
 11
5270.399996341774
 21
588.276241719799
  0
LINE
  5
2A6
100
AcDbEntity
  8
0
  6
CONTINUOUS
 62
           3
100
AcDbLine
 10
5286.399997101562
 20
589.200001955
 11
5286.399997101562
 21
588.276241719799
  0
LINE
  5
2A5
100
AcDbEntity
  8
0
  6
CONTINUOUS
 62
           3
100
AcDbLine
 10
5248.399997392189
 20
750.000000744967
 11
5258.399997168584
 21
750.000000744967
  0
LINE
  5
2A4
100
AcDbEntity
  8
0
  6
CONTINUOUS
 62
           3
100
AcDbLine
 10
5258.399997168584
 20
748.799999058068
 11
5258.399997168584
 21
750.000000744967
  0
LINE
  5
2A3
100
AcDbEntity
  8
0
  6
CONTINUOUS
 62
           3
100
AcDbLine
 10
5248.399997392189
 20
748.799999058068
 11
5258.399997168584
 21
748.799999058068
  0
LINE
  5
2A2
100
AcDbEntity
  8
0
  6
CONTINUOUS
 62
           3
100
AcDbLine
 10
5248.399997392189
 20
748.799999058068
 11
5248.399997392189
 21
750.000000744967
  0
LINE
  5
2A1
100
AcDbEntity
  8
0
  6
CONTINUOUS
 62
           3
100
AcDbLine
 10
5298.399996274751
 20
748.799999058068
 11
5298.399996274751
 21
750.000000744967
  0
LINE
  5
2A0
100
AcDbEntity
  8
0
  6
CONTINUOUS
 62
           3
100
AcDbLine
 10
5283.649996650864
 20
748.799999058068
 11
5298.399996274751
 21
748.799999058068
  0
LINE
  5
29F
100
AcDbEntity
  8
0
  6
CONTINUOUS
 62
           3
100
AcDbLine
 10
5283.649996650864
 20
750.000000744967
 11
5298.399996274751
 21
750.000000744967
  0
LINE
  5
29E
100
AcDbEntity
  8
0
  6
CONTINUOUS
 62
           3
100
AcDbLine
 10
5258.399997168584
 20
748.799999058068
 11
5273.149996792472
 21
748.799999058068
  0
LINE
  5
29D
100
AcDbEntity
  8
0
  6
CONTINUOUS
 62
           3
100
AcDbLine
 10
5258.399997168584
 20
750.000000744967
 11
5273.149996792472
 21
750.000000744967
  0
LINE
  5
29C
100
AcDbEntity
  8
0
  6
CONTINUOUS
 62
           3
100
AcDbLine
 10
5258.399997168584
 20
591.199998557597
 11
5258.399997168584
 21
590.000000596101
  0
LINE
  5
29B
100
AcDbEntity
  8
0
  6
CONTINUOUS
 62
           3
100
AcDbLine
 10
5258.399997168584
 20
590.000000596101
 11
5270.399996341774
 21
590.000000596101
  0
LINE
  5
29A
100
AcDbEntity
  8
0
  6
CONTINUOUS
 62
           3
100
AcDbLine
 10
5258.399997168584
 20
591.199998557597
 11
5270.399996341774
 21
591.199998557597
  0
LINE
  5
299
100
AcDbEntity
  8
0
  6
CONTINUOUS
 62
           3
100
AcDbLine
 10
5281.649996788761
 20
590.000000596101
 11
5281.649996788761
 21
591.199998557597
  0
LINE
  5
298
100
AcDbEntity
  8
0
  6
CONTINUOUS
 62
           3
100
AcDbLine
 10
5281.649996788761
 20
591.199998557597
 11
5281.899996829761
 21
591.199998557597
  0
LINE
  5
297
100
AcDbEntity
  8
0
  6
CONTINUOUS
 62
           3
100
AcDbLine
 10
5308.399996051143
 20
748.799999058068
 11
5308.399996051143
 21
750.000000744967
  0
LINE
  5
296
100
AcDbEntity
  8
0
  6
CONTINUOUS
 62
           3
100
AcDbLine
 10
5308.399996051143
 20
748.799999058068
 11
5298.399996274751
 21
748.799999058068
  0
LINE
  5
295
100
AcDbEntity
  8
0
  6
CONTINUOUS
 62
           3
100
AcDbLine
 10
5308.399996051143
 20
750.000000744967
 11
5298.399996274751
 21
750.000000744967
  0
LINE
  5
294
100
AcDbEntity
  8
0
  6
CONTINUOUS
 62
           3
100
AcDbLine
 10
5281.649996788761
 20
748.799999058068
 11
5281.649996788761
 21
750.000000744967
  0
LINE
  5
293
100
AcDbEntity
  8
0
  6
CONTINUOUS
 62
           3
100
AcDbLine
 10
5283.649996650864
 20
748.799999058068
 11
5281.649996788761
 21
748.799999058068
  0
LINE
  5
292
100
AcDbEntity
  8
0
  6
CONTINUOUS
 62
           3
100
AcDbLine
 10
5281.649996788761
 20
750.000000744967
 11
5283.649996650864
 21
750.000000744967
  0
LINE
  5
291
100
AcDbEntity
  8
0
  6
CONTINUOUS
 62
           3
100
AcDbLine
 10
5248.399997392189
 20
591.199998557597
 11
5248.399997392189
 21
590.000000596101
  0
LINE
  5
290
100
AcDbEntity
  8
0
  6
CONTINUOUS
 62
           3
100
AcDbLine
 10
5248.399997392189
 20
590.000000596101
 11
5258.399997168584
 21
590.000000596101
  0
LINE
  5
28F
100
AcDbEntity
  8
0
  6
CONTINUOUS
 62
           3
100
AcDbLine
 10
5248.399997392189
 20
591.199998557597
 11
5258.399997168584
 21
591.199998557597
  0
LINE
  5
28E
100
AcDbEntity
  8
0
  6
CONTINUOUS
 62
           3
100
AcDbLine
 10
5298.399996274751
 20
591.199998557597
 11
5298.399996274751
 21
590.000000596101
  0
LINE
  5
28D
100
AcDbEntity
  8
0
  6
CONTINUOUS
 62
           3
100
AcDbLine
 10
5286.399997101562
 20
590.000000596101
 11
5298.399996274751
 21
590.000000596101
  0
LINE
  5
28C
100
AcDbEntity
  8
0
  6
CONTINUOUS
 62
           3
100
AcDbLine
 10
5286.399997101562
 20
591.199998557597
 11
5298.399996274751
 21
591.199998557597
  0
LINE
  5
28B
100
AcDbEntity
  8
0
  6
CONTINUOUS
 62
           3
100
AcDbLine
 10
5275.149996654574
 20
750.000000744967
 11
5275.149996654574
 21
748.799999058068
  0
LINE
  5
28A
100
AcDbEntity
  8
0
  6
CONTINUOUS
 62
           3
100
AcDbLine
 10
5275.149996654574
 20
748.799999058068
 11
5273.149996792472
 21
748.799999058068
  0
LINE
  5
289
100
AcDbEntity
  8
0
  6
CONTINUOUS
 62
           3
100
AcDbLine
 10
5273.149996792472
 20
750.000000744967
 11
5275.149996654574
 21
750.000000744967
  0
LINE
  5
288
100
AcDbEntity
  8
0
  6
CONTINUOUS
 62
           3
100
AcDbLine
 10
5308.399996051143
 20
591.199998557597
 11
5308.399996051143
 21
590.000000596101
  0
LINE
  5
287
100
AcDbEntity
  8
0
  6
CONTINUOUS
 62
           3
100
AcDbLine
 10
5308.399996051143
 20
590.000000596101
 11
5298.399996274751
 21
590.000000596101
  0
LINE
  5
286
100
AcDbEntity
  8
0
  6
CONTINUOUS
 62
           3
100
AcDbLine
 10
5308.399996051143
 20
591.199998557597
 11
5298.399996274751
 21
591.199998557597
  0
LINE
  5
285
100
AcDbEntity
  8
0
  6
CONTINUOUS
 62
           3
100
AcDbLine
 10
5275.149996654574
 20
591.199998557597
 11
5275.149996654574
 21
590.000000596101
  0
LINE
  5
284
100
AcDbEntity
  8
0
  6
CONTINUOUS
 62
           3
100
AcDbLine
 10
5274.899996613574
 20
591.199998557597
 11
5275.149996654574
 21
591.199998557597
  0
LINE
  5
283
100
AcDbEntity
  8
0
  6
CONTINUOUS
 62
           3
100
AcDbLine
 10
5225.399997347711
 20
590.000000596101
 11
5225.399997347711
 21
591.199998557597
  0
LINE
  5
282
100
AcDbEntity
  8
0
  6
CONTINUOUS
 62
           3
100
AcDbLine
 10
5223.399997019711
 20
590.000000596101
 11
5225.399997347711
 21
590.000000596101
  0
LINE
  5
281
100
AcDbEntity
  8
0
  6
CONTINUOUS
 62
           3
100
AcDbLine
 10
5225.399997347711
 20
591.199998557597
 11
5223.399997019711
 21
591.199998557597
  0
LINE
  5
280
100
AcDbEntity
  8
0
  6
CONTINUOUS
 62
           3
100
AcDbLine
 10
5231.399998331101
 20
591.199998557597
 11
5231.399998331101
 21
590.000000596101
  0
LINE
  5
27F
100
AcDbEntity
  8
0
  6
CONTINUOUS
 62
           3
100
AcDbLine
 10
5231.399998331101
 20
590.000000596101
 11
5233.399994933701
 21
590.000000596101
  0
LINE
  5
27E
100
AcDbEntity
  8
0
  6
CONTINUOUS
 62
           3
100
AcDbLine
 10
5233.399994933701
 20
591.199998557597
 11
5231.399998331101
 21
591.199998557597
  0
LINE
  5
27D
100
AcDbEntity
  8
0
  6
CONTINUOUS
 62
           3
100
AcDbLine
 10
5331.399996095919
 20
750.000000744967
 11
5331.399996095919
 21
748.799999058068
  0
LINE
  5
27C
100
AcDbEntity
  8
0
  6
CONTINUOUS
 62
           3
100
AcDbLine
 10
5331.399996095919
 20
748.799999058068
 11
5333.399996423621
 21
748.799999058068
  0
LINE
  5
27B
100
AcDbEntity
  8
0
  6
CONTINUOUS
 62
           3
100
AcDbLine
 10
5333.399996423621
 20
750.000000744967
 11
5331.399996095919
 21
750.000000744967
  0
LINE
  5
27A
100
AcDbEntity
  8
0
  6
CONTINUOUS
 62
           3
100
AcDbLine
 10
5325.399995112231
 20
748.799999058068
 11
5325.399995112231
 21
750.000000744967
  0
LINE
  5
279
100
AcDbEntity
  8
0
  6
CONTINUOUS
 62
           3
100
AcDbLine
 10
5323.399998509631
 20
748.799999058068
 11
5325.399995112231
 21
748.799999058068
  0
LINE
  5
278
100
AcDbEntity
  8
0
  6
CONTINUOUS
 62
           3
100
AcDbLine
 10
5325.399995112231
 20
750.000000744967
 11
5323.399998509631
 21
750.000000744967
  0
LINE
  5
277
100
AcDbEntity
  8
0
  6
CONTINUOUS
 62
           3
100
AcDbLine
 10
5331.399996095919
 20
590.000000596101
 11
5331.399996095919
 21
591.199998557597
  0
LINE
  5
276
100
AcDbEntity
  8
0
  6
CONTINUOUS
 62
           3
100
AcDbLine
 10
5333.399996423621
 20
590.000000596101
 11
5331.399996095919
 21
590.000000596101
  0
LINE
  5
275
100
AcDbEntity
  8
0
  6
CONTINUOUS
 62
           3
100
AcDbLine
 10
5331.399996095919
 20
591.199998557597
 11
5333.399996423621
 21
591.199998557597
  0
LINE
  5
274
100
AcDbEntity
  8
0
  6
CONTINUOUS
 62
           3
100
AcDbLine
 10
5325.399995112231
 20
591.199998557597
 11
5325.399995112231
 21
590.000000596101
  0
LINE
  5
273
100
AcDbEntity
  8
0
  6
CONTINUOUS
 62
           3
100
AcDbLine
 10
5325.399995112231
 20
590.000000596101
 11
5323.399998509631
 21
590.000000596101
  0
LINE
  5
272
100
AcDbEntity
  8
0
  6
CONTINUOUS
 62
           3
100
AcDbLine
 10
5323.399998509631
 20
591.199998557597
 11
5325.399995112231
 21
591.199998557597
  0
LINE
  5
271
100
AcDbEntity
  8
0
  6
CONTINUOUS
 62
           3
100
AcDbLine
 10
5225.399997347711
 20
750.000000744967
 11
5225.399997347711
 21
748.799999058068
  0
LINE
  5
270
100
AcDbEntity
  8
0
  6
CONTINUOUS
 62
           3
100
AcDbLine
 10
5225.399997347711
 20
748.799999058068
 11
5223.399997019711
 21
748.799999058068
  0
LINE
  5
26F
100
AcDbEntity
  8
0
  6
CONTINUOUS
 62
           3
100
AcDbLine
 10
5223.399997019711
 20
750.000000744967
 11
5225.399997347711
 21
750.000000744967
  0
LINE
  5
26E
100
AcDbEntity
  8
0
  6
CONTINUOUS
 62
           3
100
AcDbLine
 10
5231.399998331101
 20
748.799999058068
 11
5231.399998331101
 21
750.000000744967
  0
LINE
  5
26D
100
AcDbEntity
  8
0
  6
CONTINUOUS
 62
           3
100
AcDbLine
 10
5233.399994933701
 20
748.799999058068
 11
5231.399998331101
 21
748.799999058068
  0
LINE
  5
26C
100
AcDbEntity
  8
0
  6
CONTINUOUS
 62
           3
100
AcDbLine
 10
5231.399998331101
 20
750.000000744967
 11
5233.399994933701
 21
750.000000744967
  0
LINE
  5
26B
100
AcDbEntity
  8
0
  6
CONTINUOUS
 62
           3
100
AcDbLine
 10
5233.399994933701
 20
590.000000596101
 11
5248.399997392189
 21
590.000000596101
  0
LINE
  5
26A
100
AcDbEntity
  8
0
  6
CONTINUOUS
 62
           3
100
AcDbLine
 10
5233.399994933701
 20
591.199998557597
 11
5248.399997392189
 21
591.199998557597
  0
LINE
  5
269
100
AcDbEntity
  8
0
  6
CONTINUOUS
 62
           3
100
AcDbLine
 10
5338.39999538062
 20
591.199998557597
 11
5338.39999538062
 21
590.000000596101
  0
LINE
  5
268
100
AcDbEntity
  8
0
  6
CONTINUOUS
 62
           3
100
AcDbLine
 10
5338.39999538062
 20
590.000000596101
 11
5333.399996423621
 21
590.000000596101
  0
LINE
  5
267
100
AcDbEntity
  8
0
  6
CONTINUOUS
 62
           3
100
AcDbLine
 10
5333.399996423621
 20
591.199998557597
 11
5338.39999538062
 21
591.199998557597
  0
LINE
  5
266
100
AcDbEntity
  8
0
  6
CONTINUOUS
 62
           3
100
AcDbLine
 10
5233.399994933701
 20
748.799999058068
 11
5248.399997392189
 21
748.799999058068
  0
LINE
  5
265
100
AcDbEntity
  8
0
  6
CONTINUOUS
 62
           3
100
AcDbLine
 10
5233.399994933701
 20
750.000000744967
 11
5248.399997392189
 21
750.000000744967
  0
LINE
  5
264
100
AcDbEntity
  8
0
  6
CONTINUOUS
 62
           3
100
AcDbLine
 10
5323.399998509631
 20
590.000000596101
 11
5308.399996051143
 21
590.000000596101
  0
LINE
  5
263
100
AcDbEntity
  8
0
  6
CONTINUOUS
 62
           3
100
AcDbLine
 10
5323.399998509631
 20
591.199998557597
 11
5308.399996051143
 21
591.199998557597
  0
LINE
  5
262
100
AcDbEntity
  8
0
  6
CONTINUOUS
 62
           3
100
AcDbLine
 10
5338.39999538062
 20
748.799999058068
 11
5338.39999538062
 21
750.000000744967
  0
LINE
  5
261
100
AcDbEntity
  8
0
  6
CONTINUOUS
 62
           3
100
AcDbLine
 10
5333.399996423621
 20
748.799999058068
 11
5338.39999538062
 21
748.799999058068
  0
LINE
  5
260
100
AcDbEntity
  8
0
  6
CONTINUOUS
 62
           3
100
AcDbLine
 10
5338.39999538062
 20
750.000000744967
 11
5333.399996423621
 21
750.000000744967
  0
LINE
  5
25F
100
AcDbEntity
  8
0
  6
CONTINUOUS
 62
           3
100
AcDbLine
 10
5323.399998509631
 20
748.799999058068
 11
5308.399996051143
 21
748.799999058068
  0
LINE
  5
25E
100
AcDbEntity
  8
0
  6
CONTINUOUS
 62
           3
100
AcDbLine
 10
5323.399998509631
 20
750.000000744967
 11
5308.399996051143
 21
750.000000744967
  0
LINE
  5
25D
100
AcDbEntity
  8
0
  6
CONTINUOUS
 62
           3
100
AcDbLine
 10
5218.399998062712
 20
748.799999058068
 11
5218.399998062712
 21
750.000000744967
  0
LINE
  5
25C
100
AcDbEntity
  8
0
  6
CONTINUOUS
 62
           3
100
AcDbLine
 10
5223.399997019711
 20
748.799999058068
 11
5218.399998062712
 21
748.799999058068
  0
LINE
  5
25B
100
AcDbEntity
  8
0
  6
CONTINUOUS
 62
           3
100
AcDbLine
 10
5218.399998062712
 20
750.000000744967
 11
5223.399997019711
 21
750.000000744967
  0
LINE
  5
25A
100
AcDbEntity
  8
0
  6
CONTINUOUS
 62
           3
100
AcDbLine
 10
5218.399998062712
 20
591.199998557597
 11
5218.399998062712
 21
590.000000596101
  0
LINE
  5
259
100
AcDbEntity
  8
0
  6
CONTINUOUS
 62
           3
100
AcDbLine
 10
5218.399998062712
 20
590.000000596101
 11
5223.399997019711
 21
590.000000596101
  0
LINE
  5
258
100
AcDbEntity
  8
0
  6
CONTINUOUS
 62
           3
100
AcDbLine
 10
5223.399997019711
 20
591.199998557597
 11
5218.399998062712
 21
591.199998557597
  0
LINE
  5
257
100
AcDbEntity
  8
0
  6
CONTINUOUS
 62
           3
100
AcDbLine
 10
5281.649996788761
 20
591.199998557597
 11
5281.399996747761
 21
591.199998557597
  0
LINE
  5
256
100
AcDbEntity
  8
0
  6
CONTINUOUS
 62
           3
100
AcDbLine
 10
5275.399996695574
 20
591.199998557597
 11
5275.149996654574
 21
591.199998557597
  0
LINE
  5
255
100
AcDbEntity
  8
0
  6
CONTINUOUS
 62
           3
100
AcDbLine
 10
5275.149996654574
 20
748.799999058068
 11
5275.399996695574
 21
748.799999058068
  0
LINE
  5
254
100
AcDbEntity
  8
0
  6
CONTINUOUS
 62
           3
100
AcDbLine
 10
5281.399996747761
 20
748.799999058068
 11
5281.649996788761
 21
748.799999058068
  0
LINE
  5
253
100
AcDbEntity
  8
0
  6
CONTINUOUS
 62
           3
100
AcDbLine
 10
5275.149996654574
 20
750.000000744967
 11
5275.399996695574
 21
750.000000744967
  0
LINE
  5
252
100
AcDbEntity
  8
0
  6
CONTINUOUS
 62
           3
100
AcDbLine
 10
5281.399996747761
 20
750.000000744967
 11
5281.649996788761
 21
750.000000744967
  0
LINE
  5
251
100
AcDbEntity
  8
0
  6
CONTINUOUS
 62
           3
100
AcDbLine
 10
5338.39999538062
 20
591.199998557597
 11
5338.39999538062
 21
591.699999570796
  0
LINE
  5
250
100
AcDbEntity
  8
0
  6
CONTINUOUS
 62
           3
100
AcDbLine
 10
5218.399998062712
 20
591.199998557597
 11
5218.399998062712
 21
591.699999570796
  0
LINE
  5
24F
100
AcDbEntity
  8
0
  6
CONTINUOUS
 62
           3
100
AcDbLine
 10
5218.399998062712
 20
748.799999058068
 11
5218.399998062712
 21
748.300001770269
  0
LINE
  5
24E
100
AcDbEntity
  8
0
  6
CONTINUOUS
 62
           3
100
AcDbLine
 10
5338.39999538062
 20
748.799999058068
 11
5338.39999538062
 21
748.300001770269
  0
LINE
  5
24D
100
AcDbEntity
  8
0
  6
CONTINUOUS
 62
           3
100
AcDbLine
 10
5338.39999538062
 20
729.999999329484
 11
5336.699996405623
 21
729.999999329484
  0
LINE
  5
24C
100
AcDbEntity
  8
0
  6
CONTINUOUS
 62
           3
100
AcDbLine
 10
5338.39999538062
 20
709.999999776399
 11
5338.39999538062
 21
729.999999329484
  0
LINE
  5
24B
100
AcDbEntity
  8
0
  6
CONTINUOUS
 62
           3
100
AcDbLine
 10
5336.699996405623
 20
709.999999776399
 11
5338.324804121021
 21
709.999999776399
  0
LINE
  5
24A
100
AcDbEntity
  8
0
  6
CONTINUOUS
 62
           3
100
AcDbLine
 10
5220.399998390713
 20
732.000001519882
 11
5218.399998062712
 21
732.000001519882
  0
LINE
  5
249
100
AcDbEntity
  8
0
  6
CONTINUOUS
 62
           3
100
AcDbLine
 10
5218.399998062712
 20
748.300001770269
 11
5218.399998062712
 21
732.000001519882
  0
LINE
  5
248
100
AcDbEntity
  8
0
  6
CONTINUOUS
 62
           3
100
AcDbLine
 10
5338.39999538062
 20
748.300001770269
 11
5338.39999538062
 21
732.000001519882
  0
LINE
  5
247
100
AcDbEntity
  8
0
  6
CONTINUOUS
 62
           3
100
AcDbLine
 10
5336.39999505262
 20
732.000001519882
 11
5338.39999538062
 21
732.000001519882
  0
LINE
  5
246
100
AcDbEntity
  8
0
  6
CONTINUOUS
 62
           3
100
AcDbLine
 10
5336.699996405623
 20
729.999999329484
 11
5336.39999505262
 21
729.999999329484
  0
LINE
  5
245
100
AcDbEntity
  8
0
  6
CONTINUOUS
 62
           3
100
AcDbLine
 10
5336.39999505262
 20
709.999999776399
 11
5336.699996405623
 21
709.999999776399
  0
LINE
  5
244
100
AcDbEntity
  8
0
  6
CONTINUOUS
 62
           3
100
AcDbLine
 10
5338.39999538062
 20
708.000000379903
 11
5336.39999505262
 21
708.000000379903
  0
LINE
  5
243
100
AcDbEntity
  8
0
  6
CONTINUOUS
 62
           3
100
AcDbLine
 10
5338.39999538062
 20
708.000000379903
 11
5338.39999538062
 21
631.999996304563
  0
LINE
  5
242
100
AcDbEntity
  8
0
  6
CONTINUOUS
 62
           3
100
AcDbLine
 10
5338.39999538062
 20
631.999996304563
 11
5336.39999505262
 21
631.999996304563
  0
LINE
  5
241
100
AcDbEntity
  8
0
  6
CONTINUOUS
 62
           3
100
AcDbLine
 10
5336.39999505262
 20
629.999999701966
 11
5336.699996405623
 21
629.999999701966
  0
LINE
  5
240
100
AcDbEntity
  8
0
  6
CONTINUOUS
 62
           3
100
AcDbLine
 10
5336.699996405623
 20
609.999996423783
 11
5336.39999505262
 21
609.999996423783
  0
LINE
  5
23F
100
AcDbEntity
  8
0
  6
CONTINUOUS
 62
           3
100
AcDbLine
 10
5336.39999505262
 20
607.999999821186
 11
5338.39999538062
 21
607.999999821186
  0
LINE
  5
23E
100
AcDbEntity
  8
0
  6
CONTINUOUS
 62
           3
100
AcDbLine
 10
5338.39999538062
 20
591.699999570796
 11
5338.39999538062
 21
607.999999821186
  0
LINE
  5
23D
100
AcDbEntity
  8
0
  6
CONTINUOUS
 62
           3
100
AcDbLine
 10
5218.399998062712
 20
591.699999570796
 11
5218.399998062712
 21
607.999999821186
  0
LINE
  5
23C
100
AcDbEntity
  8
0
  6
CONTINUOUS
 62
           3
100
AcDbLine
 10
5220.399998390713
 20
607.999999821186
 11
5218.399998062712
 21
607.999999821186
  0
LINE
  5
23B
100
AcDbEntity
  8
0
  6
CONTINUOUS
 62
           3
100
AcDbLine
 10
5220.099997037713
 20
609.999996423783
 11
5220.399998390713
 21
609.999996423783
  0
LINE
  5
23A
100
AcDbEntity
  8
0
  6
CONTINUOUS
 62
           3
100
AcDbLine
 10
5220.399998390713
 20
629.999999701966
 11
5220.099997037713
 21
629.999999701966
  0
LINE
  5
239
100
AcDbEntity
  8
0
  6
CONTINUOUS
 62
           3
100
AcDbLine
 10
5218.399998062712
 20
631.999996304563
 11
5220.399998390713
 21
631.999996304563
  0
LINE
  5
238
100
AcDbEntity
  8
0
  6
CONTINUOUS
 62
           3
100
AcDbLine
 10
5218.399998062712
 20
708.000000379903
 11
5218.399998062712
 21
631.999996304563
  0
LINE
  5
237
100
AcDbEntity
  8
0
  6
CONTINUOUS
 62
           3
100
AcDbLine
 10
5218.399998062712
 20
708.000000379903
 11
5220.399998390713
 21
708.000000379903
  0
LINE
  5
236
100
AcDbEntity
  8
0
  6
CONTINUOUS
 62
           3
100
AcDbLine
 10
5220.399998390713
 20
709.999999776399
 11
5220.099997037713
 21
709.999999776399
  0
LINE
  5
235
100
AcDbEntity
  8
0
  6
CONTINUOUS
 62
           3
100
AcDbLine
 10
5220.099997037713
 20
729.999999329484
 11
5220.399998390713
 21
729.999999329484
  0
LINE
  5
234
100
AcDbEntity
  8
0
  6
CONTINUOUS
 62
           3
100
AcDbLine
 10
5218.399998062712
 20
629.999999701966
 11
5218.399998062712
 21
609.999996423783
  0
LINE
  5
233
100
AcDbEntity
  8
0
  6
CONTINUOUS
 62
           3
100
AcDbLine
 10
5220.099997037713
 20
629.999999701966
 11
5218.399998062712
 21
629.999999701966
  0
LINE
  5
232
100
AcDbEntity
  8
0
  6
CONTINUOUS
 62
           3
100
AcDbLine
 10
5218.475189322322
 20
609.999996423783
 11
5220.099997037713
 21
609.999996423783
  0
LINE
  5
231
100
AcDbEntity
  8
0
  6
CONTINUOUS
 62
           3
100
AcDbLine
 10
5220.099997037713
 20
709.999999776399
 11
5218.475189322322
 21
709.999999776399
  0
LINE
  5
230
100
AcDbEntity
  8
0
  6
CONTINUOUS
 62
           3
100
AcDbLine
 10
5218.399998062712
 20
709.999999776399
 11
5218.399998062712
 21
729.999999329484
  0
LINE
  5
22F
100
AcDbEntity
  8
0
  6
CONTINUOUS
 62
           3
100
AcDbLine
 10
5218.399998062712
 20
729.999999329484
 11
5220.099997037713
 21
729.999999329484
  0
LINE
  5
22E
100
AcDbEntity
  8
0
  6
CONTINUOUS
 62
           3
100
AcDbLine
 10
5338.39999538062
 20
629.999999701966
 11
5338.39999538062
 21
609.999996423783
  0
LINE
  5
22D
100
AcDbEntity
  8
0
  6
CONTINUOUS
 62
           3
100
AcDbLine
 10
5336.699996405623
 20
629.999999701966
 11
5338.39999538062
 21
629.999999701966
  0
LINE
  5
22C
100
AcDbEntity
  8
0
  6
CONTINUOUS
 62
           3
100
AcDbLine
 10
5338.324804121021
 20
609.999996423783
 11
5336.699996405623
 21
609.999996423783
  0
LINE
  5
22B
100
AcDbEntity
  8
0
  6
CONTINUOUS
 62
           3
100
AcDbLine
 10
5225.399997347711
 20
564.999994635818
 11
5225.399997347711
 21
566.600006818717
  0
LINE
  5
22A
100
AcDbEntity
  8
0
  6
CONTINUOUS
 62
           3
100
AcDbLine
 10
5223.399997019711
 20
564.999994635818
 11
5225.399997347711
 21
564.999994635818
  0
LINE
  5
229
100
AcDbEntity
  8
0
  6
CONTINUOUS
 62
           3
100
AcDbLine
 10
5225.399997347711
 20
566.600006818717
 11
5223.399997019711
 21
566.600006818717
  0
LINE
  5
228
100
AcDbEntity
  8
0
  6
CONTINUOUS
 62
           3
100
AcDbLine
 10
5223.399997019711
 20
835.0000053642
 11
5225.399997347711
 21
835.0000053642
  0
LINE
  5
227
100
AcDbEntity
  8
0
  6
CONTINUOUS
 62
           3
100
AcDbLine
 10
5225.399997347711
 20
835.0000053642
 11
5225.399997347711
 21
833.399993180999
  0
LINE
  5
226
100
AcDbEntity
  8
0
  6
CONTINUOUS
 62
           3
100
AcDbLine
 10
5225.399997347711
 20
833.399993180999
 11
5223.399997019711
 21
833.399993180999
  0
LINE
  5
225
100
AcDbEntity
  8
0
  6
CONTINUOUS
 62
           3
100
AcDbLine
 10
5231.399998331101
 20
833.399993180999
 11
5231.399998331101
 21
835.0000053642
  0
LINE
  5
224
100
AcDbEntity
  8
0
  6
CONTINUOUS
 62
           3
100
AcDbLine
 10
5231.399998331101
 20
835.0000053642
 11
5233.399994933701
 21
835.0000053642
  0
LINE
  5
223
100
AcDbEntity
  8
0
  6
CONTINUOUS
 62
           3
100
AcDbLine
 10
5233.399994933701
 20
833.399993180999
 11
5231.399998331101
 21
833.399993180999
  0
LINE
  5
222
100
AcDbEntity
  8
0
  6
CONTINUOUS
 62
           3
100
AcDbLine
 10
5231.399998331101
 20
564.999994635818
 11
5233.399994933701
 21
564.999994635818
  0
LINE
  5
221
100
AcDbEntity
  8
0
  6
CONTINUOUS
 62
           3
100
AcDbLine
 10
5231.399998331101
 20
566.600006818717
 11
5231.399998331101
 21
564.999994635818
  0
LINE
  5
220
100
AcDbEntity
  8
0
  6
CONTINUOUS
 62
           3
100
AcDbLine
 10
5233.399994933701
 20
566.600006818717
 11
5231.399998331101
 21
566.600006818717
  0
LINE
  5
21F
100
AcDbEntity
  8
0
  6
CONTINUOUS
 62
           3
100
AcDbLine
 10
5233.399994933701
 20
564.999994635818
 11
5323.399998509631
 21
564.999994635818
  0
LINE
  5
21E
100
AcDbEntity
  8
0
  6
CONTINUOUS
 62
           3
100
AcDbLine
 10
5233.399994933701
 20
566.600006818717
 11
5323.399998509631
 21
566.600006818717
  0
LINE
  5
21D
100
AcDbEntity
  8
0
  6
CONTINUOUS
 62
           3
100
AcDbLine
 10
5233.399994933701
 20
835.0000053642
 11
5323.399998509631
 21
835.0000053642
  0
LINE
  5
21C
100
AcDbEntity
  8
0
  6
CONTINUOUS
 62
           3
100
AcDbLine
 10
5233.399994933701
 20
833.399993180999
 11
5323.399998509631
 21
833.399993180999
  0
LINE
  5
21B
100
AcDbEntity
  8
0
  6
CONTINUOUS
 62
           3
100
AcDbLine
 10
5218.399998062712
 20
566.600006818717
 11
5218.399998062712
 21
564.999994635818
  0
LINE
  5
21A
100
AcDbEntity
  8
0
  6
CONTINUOUS
 62
           3
100
AcDbLine
 10
5218.399998062712
 20
564.999994635818
 11
5223.399997019711
 21
564.999994635818
  0
LINE
  5
219
100
AcDbEntity
  8
0
  6
CONTINUOUS
 62
           3
100
AcDbLine
 10
5223.399997019711
 20
566.600006818717
 11
5218.399998062712
 21
566.600006818717
  0
LINE
  5
218
100
AcDbEntity
  8
0
  6
CONTINUOUS
 62
           3
100
AcDbLine
 10
5218.399998062712
 20
833.399993180999
 11
5218.399998062712
 21
835.0000053642
  0
LINE
  5
217
100
AcDbEntity
  8
0
  6
CONTINUOUS
 62
           3
100
AcDbLine
 10
5218.399998062712
 20
835.0000053642
 11
5223.399997019711
 21
835.0000053642
  0
LINE
  5
216
100
AcDbEntity
  8
0
  6
CONTINUOUS
 62
           3
100
AcDbLine
 10
5223.399997019711
 20
833.399993180999
 11
5218.399998062712
 21
833.399993180999
  0
LINE
  5
215
100
AcDbEntity
  8
0
  6
CONTINUOUS
 62
           3
100
AcDbLine
 10
5331.399996095919
 20
835.0000053642
 11
5331.399996095919
 21
833.399993180999
  0
LINE
  5
214
100
AcDbEntity
  8
0
  6
CONTINUOUS
 62
           3
100
AcDbLine
 10
5333.399996423621
 20
835.0000053642
 11
5331.399996095919
 21
835.0000053642
  0
LINE
  5
213
100
AcDbEntity
  8
0
  6
CONTINUOUS
 62
           3
100
AcDbLine
 10
5331.399996095919
 20
833.399993180999
 11
5333.399996423621
 21
833.399993180999
  0
LINE
  5
212
100
AcDbEntity
  8
0
  6
CONTINUOUS
 62
           3
100
AcDbLine
 10
5331.399996095919
 20
564.999994635818
 11
5331.399996095919
 21
566.600006818717
  0
LINE
  5
211
100
AcDbEntity
  8
0
  6
CONTINUOUS
 62
           3
100
AcDbLine
 10
5333.399996423621
 20
564.999994635818
 11
5331.399996095919
 21
564.999994635818
  0
LINE
  5
210
100
AcDbEntity
  8
0
  6
CONTINUOUS
 62
           3
100
AcDbLine
 10
5331.399996095919
 20
566.600006818717
 11
5333.399996423621
 21
566.600006818717
  0
LINE
  5
20F
100
AcDbEntity
  8
0
  6
CONTINUOUS
 62
           3
100
AcDbLine
 10
5325.399995112231
 20
833.399993180999
 11
5325.399995112231
 21
835.0000053642
  0
LINE
  5
20E
100
AcDbEntity
  8
0
  6
CONTINUOUS
 62
           3
100
AcDbLine
 10
5325.399995112231
 20
835.0000053642
 11
5323.399998509631
 21
835.0000053642
  0
LINE
  5
20D
100
AcDbEntity
  8
0
  6
CONTINUOUS
 62
           3
100
AcDbLine
 10
5323.399998509631
 20
833.399993180999
 11
5325.399995112231
 21
833.399993180999
  0
LINE
  5
20C
100
AcDbEntity
  8
0
  6
CONTINUOUS
 62
           3
100
AcDbLine
 10
5325.399995112231
 20
566.600006818717
 11
5325.399995112231
 21
564.999994635818
  0
LINE
  5
20B
100
AcDbEntity
  8
0
  6
CONTINUOUS
 62
           3
100
AcDbLine
 10
5325.399995112231
 20
564.999994635818
 11
5323.399998509631
 21
564.999994635818
  0
LINE
  5
20A
100
AcDbEntity
  8
0
  6
CONTINUOUS
 62
           3
100
AcDbLine
 10
5323.399998509631
 20
566.600006818717
 11
5325.399995112231
 21
566.600006818717
  0
LINE
  5
209
100
AcDbEntity
  8
0
  6
CONTINUOUS
 62
           3
100
AcDbLine
 10
5338.39999538062
 20
566.600006818717
 11
5338.39999538062
 21
564.999994635818
  0
LINE
  5
208
100
AcDbEntity
  8
0
  6
CONTINUOUS
 62
           3
100
AcDbLine
 10
5338.39999538062
 20
564.999994635818
 11
5333.399996423621
 21
564.999994635818
  0
LINE
  5
207
100
AcDbEntity
  8
0
  6
CONTINUOUS
 62
           3
100
AcDbLine
 10
5333.399996423621
 20
566.600006818717
 11
5338.39999538062
 21
566.600006818717
  0
LINE
  5
206
100
AcDbEntity
  8
0
  6
CONTINUOUS
 62
           3
100
AcDbLine
 10
5338.39999538062
 20
833.399993180999
 11
5338.39999538062
 21
835.0000053642
  0
LINE
  5
205
100
AcDbEntity
  8
0
  6
CONTINUOUS
 62
           3
100
AcDbLine
 10
5338.39999538062
 20
835.0000053642
 11
5333.399996423621
 21
835.0000053642
  0
LINE
  5
204
100
AcDbEntity
  8
0
  6
CONTINUOUS
 62
           3
100
AcDbLine
 10
5333.399996423621
 20
833.399993180999
 11
5338.39999538062
 21
833.399993180999
  0
LINE
  5
203
100
AcDbEntity
  8
0
  6
CONTINUOUS
 62
           3
100
AcDbLine
 10
5338.39999538062
 20
833.399993180999
 11
5338.39999538062
 21
832.699996232997
  0
LINE
  5
202
100
AcDbEntity
  8
0
  6
CONTINUOUS
 62
           3
100
AcDbLine
 10
5218.399998062712
 20
833.399993180999
 11
5218.399998062712
 21
832.699996232997
  0
LINE
  5
201
100
AcDbEntity
  8
0
  6
CONTINUOUS
 62
           3
100
AcDbLine
 10
5338.39999538062
 20
566.600006818717
 11
5338.39999538062
 21
567.300003767017
  0
LINE
  5
200
100
AcDbEntity
  8
0
  6
CONTINUOUS
 62
           3
100
AcDbLine
 10
5218.399998062712
 20
566.600006818717
 11
5218.399998062712
 21
567.300003767017
  0
LINE
  5
1FF
100
AcDbEntity
  8
0
  6
CONTINUOUS
 62
           3
100
AcDbLine
 10
5197.999999189233
 20
564.999994635818
 11
5195.899993443331
 21
564.999994635818
  0
LINE
  5
1FE
100
AcDbEntity
  8
0
  6
CONTINUOUS
 62
           3
100
AcDbLine
 10
5195.899993443331
 20
835.0000053642
 11
5195.899993443331
 21
564.999994635818
  0
LINE
  5
1FD
100
AcDbEntity
  8
0
  6
CONTINUOUS
 62
           3
100
AcDbLine
 10
5197.999999189233
 20
835.0000053642
 11
5195.899993443331
 21
835.0000053642
  0
LINE
  5
1FC
100
AcDbEntity
  8
0
  6
CONTINUOUS
 62
           3
100
AcDbLine
 10
5339.899998420224
 20
690.000000223616
 11
5338.39999538062
 21
690.000000223616
  0
LINE
  5
1FB
100
AcDbEntity
  8
0
  6
CONTINUOUS
 62
           3
100
AcDbLine
 10
5336.899996066124
 20
631.999996304563
 11
5336.899996066124
 21
629.999999701966
  0
LINE
  5
1FA
100
AcDbEntity
  8
0
  6
CONTINUOUS
 62
           3
100
AcDbLine
 10
5338.324804121021
 20
609.999996423783
 11
5339.899998420224
 21
609.999996423783
  0
LINE
  5
1F9
100
AcDbEntity
  8
0
  6
CONTINUOUS
 62
           3
100
AcDbLine
 10
5339.899998420224
 20
609.999996423783
 11
5339.899998420224
 21
690.000000223616
  0
LINE
  5
1F8
100
AcDbEntity
  8
0
  6
CONTINUOUS
 62
           3
100
AcDbLine
 10
5336.899996066124
 20
790.000003576235
 11
5339.899998420224
 21
790.000003576235
  0
LINE
  5
1F7
100
AcDbEntity
  8
0
  6
CONTINUOUS
 62
           3
100
AcDbLine
 10
5336.899996066124
 20
729.999999329484
 11
5336.899996066124
 21
732.000001519882
  0
LINE
  5
1F6
100
AcDbEntity
  8
0
  6
CONTINUOUS
 62
           3
100
AcDbLine
 10
5336.899996066124
 20
750.000000744967
 11
5336.899996066124
 21
790.000003576235
  0
LINE
  5
1F5
100
AcDbEntity
  8
0
  6
CONTINUOUS
 62
           3
100
AcDbLine
 10
5339.899998420224
 20
709.999999776399
 11
5338.324804121021
 21
709.999999776399
  0
LINE
  5
1F4
100
AcDbEntity
  8
0
  6
CONTINUOUS
 62
           3
100
AcDbLine
 10
5339.899998420224
 20
790.000003576235
 11
5339.899998420224
 21
709.999999776399
  0
LINE
  5
1F3
100
AcDbEntity
  8
0
  6
CONTINUOUS
 62
           3
100
AcDbLine
 10
5218.475189322322
 20
609.999996423783
 11
5216.899995023123
 21
609.999996423783
  0
LINE
  5
1F2
100
AcDbEntity
  8
0
  6
CONTINUOUS
 62
           3
100
AcDbLine
 10
5219.899997377514
 20
631.999996304563
 11
5219.899997377514
 21
629.999999701966
  0
LINE
  5
1F1
100
AcDbEntity
  8
0
  6
CONTINUOUS
 62
           3
100
AcDbLine
 10
5216.899995023123
 20
690.000000223616
 11
5218.399998062712
 21
690.000000223616
  0
LINE
  5
1F0
100
AcDbEntity
  8
0
  6
CONTINUOUS
 62
           3
100
AcDbLine
 10
5216.899995023123
 20
609.999996423783
 11
5216.899995023123
 21
690.000000223616
  0
LINE
  5
1EF
100
AcDbEntity
  8
0
  6
CONTINUOUS
 62
           3
100
AcDbLine
 10
5218.399998062712
 20
568.000000715318
 11
5218.399998062712
 21
567.300003767017
  0
LINE
  5
1EE
100
AcDbEntity
  8
0
  6
CONTINUOUS
 62
           3
100
AcDbLine
 10
5213.399999106019
 20
564.999994635818
 11
5213.399999106019
 21
568.000000715318
  0
LINE
  5
1ED
100
AcDbEntity
  8
0
  6
CONTINUOUS
 62
           3
100
AcDbLine
 10
5213.399999106019
 20
835.0000053642
 11
5197.999999189233
 21
835.0000053642
  0
LINE
  5
1EC
100
AcDbEntity
  8
0
  6
CONTINUOUS
 62
           3
100
AcDbLine
 10
5213.399999106019
 20
835.0000053642
 11
5213.399999106019
 21
831.999999284701
  0
LINE
  5
1EB
100
AcDbEntity
  8
0
  6
CONTINUOUS
 62
           3
100
AcDbLine
 10
5218.399998062712
 20
831.999999284701
 11
5218.399998062712
 21
832.699996232997
  0
LINE
  5
1EA
100
AcDbEntity
  8
0
  6
CONTINUOUS
 62
           3
100
AcDbLine
 10
5338.39999538062
 20
831.999999284701
 11
5338.39999538062
 21
832.699996232997
  0
LINE
  5
1E9
100
AcDbEntity
  8
0
  6
CONTINUOUS
 62
           3
100
AcDbLine
 10
5343.399994337313
 20
835.0000053642
 11
5343.399994337313
 21
831.999999284701
  0
LINE
  5
1E8
100
AcDbEntity
  8
0
  6
CONTINUOUS
 62
           3
100
AcDbLine
 10
5343.399994337313
 20
564.999994635818
 11
5343.399994337313
 21
568.000000715318
  0
LINE
  5
1E7
100
AcDbEntity
  8
0
  6
CONTINUOUS
 62
           3
100
AcDbLine
 10
5338.39999538062
 20
568.000000715318
 11
5338.39999538062
 21
567.300003767017
  0
LINE
  5
1E6
100
AcDbEntity
  8
0
  6
CONTINUOUS
 62
           3
100
AcDbLine
 10
5216.899995023123
 20
709.999999776399
 11
5218.475189322322
 21
709.999999776399
  0
LINE
  5
1E5
100
AcDbEntity
  8
0
  6
CONTINUOUS
 62
           3
100
AcDbLine
 10
5219.899997377514
 20
729.999999329484
 11
5219.899997377514
 21
732.000001519882
  0
LINE
  5
1E4
100
AcDbEntity
  8
0
  6
CONTINUOUS
 62
           3
100
AcDbLine
 10
5219.899997377514
 20
750.000000744967
 11
5219.899997377514
 21
790.000003576235
  0
LINE
  5
1E3
100
AcDbEntity
  8
0
  6
CONTINUOUS
 62
           3
100
AcDbLine
 10
5219.899997377514
 20
790.000003576235
 11
5216.899995023123
 21
790.000003576235
  0
LINE
  5
1E2
100
AcDbEntity
  8
0
  6
CONTINUOUS
 62
           3
100
AcDbLine
 10
5216.899995023123
 20
790.000003576235
 11
5216.899995023123
 21
709.999999776399
  0
LINE
  5
1E1
100
AcDbEntity
  8
0
  6
CONTINUOUS
 62
           3
100
AcDbLine
 10
5213.399999106019
 20
564.999994635818
 11
5197.999999189233
 21
564.999994635818
  0
LINE
  5
1E0
100
AcDbEntity
  8
FORMAT
  6
DOT_CENTER
 62
           3
100
AcDbLine
 10
5203.499996721632
 20
825.000000000004
 11
5189.899996721742
 21
825.000000000004
  0
LINE
  5
1DF
100
AcDbEntity
  8
FORMAT
  6
DOT_CENTER
 62
           3
100
AcDbLine
 10
5203.499996721632
 20
575.000000000011
 11
5189.899996721742
 21
575.000000000011
  0
LINE
  5
1DE
100
AcDbEntity
  8
FORMAT
  6
CONTINUOUS
 62
           3
100
AcDbLine
 10
5292.399996721753
 20
592.596845102897
 11
5281.899996721762
 21
592.596845102897
  0
LINE
  5
1DD
100
AcDbEntity
  8
FORMAT
  6
CONTINUOUS
 62
           3
100
AcDbLine
 10
5281.899996721762
 20
592.596845102897
 11
5274.899996721571
 21
592.596845102897
  0
LINE
  5
1DC
100
AcDbEntity
  8
FORMAT
  6
DOT_CENTER
 62
           3
100
AcDbLine
 10
5278.399996721673
 20
449.759397252259
 11
5278.399996721673
 21
925.394390768572
  0
LINE
  5
1DB
100
AcDbEntity
  8
FORMAT
  6
CONTINUOUS
 62
           3
100
AcDbLine
 10
5274.899996721571
 20
592.596845102897
 11
5264.399996721582
 21
592.596845102897
  0
LINE
  5
1DA
100
AcDbEntity
  8
0
  6
CONTINUOUS
 62
           3
100
AcDbLine
 10
5278.399996721673
 20
593.131740391396
 11
5279.455269949172
 21
593.116392195196
  0
LINE
  5
1D9
100
AcDbEntity
  8
0
  6
CONTINUOUS
 62
           3
100
AcDbLine
 10
5279.455269949172
 20
593.116392195196
 11
5280.39618794006
 21
593.072016537197
  0
LINE
  5
1D8
100
AcDbEntity
  8
0
  6
CONTINUOUS
 62
           3
100
AcDbLine
 10
5280.39618794006
 20
593.072016537197
 11
5281.120787869762
 21
593.003411590995
  0
LINE
  5
1D7
100
AcDbEntity
  8
0
  6
CONTINUOUS
 62
           3
100
AcDbLine
 10
5281.120787869762
 20
593.003411590995
 11
5281.550547602961
 21
592.918020486795
  0
LINE
  5
1D6
100
AcDbEntity
  8
0
  6
CONTINUOUS
 62
           3
100
AcDbLine
 10
5281.550547602961
 20
592.918020486795
 11
5281.638896354962
 21
592.825089394995
  0
LINE
  5
1D5
100
AcDbEntity
  8
0
  6
CONTINUOUS
 62
           3
100
AcDbLine
 10
5281.638896354962
 20
592.825089394995
 11
5281.399996747761
 21
592.739541828796
  0
LINE
  5
1D4
100
AcDbEntity
  8
0
  6
CONTINUOUS
 62
           3
100
AcDbLine
 10
5275.399996695574
 20
592.739541828796
 11
5275.16109708837
 21
592.825089394995
  0
LINE
  5
1D3
100
AcDbEntity
  8
0
  6
CONTINUOUS
 62
           3
100
AcDbLine
 10
5275.16109708837
 20
592.825089394995
 11
5275.249445840374
 21
592.918020486795
  0
LINE
  5
1D2
100
AcDbEntity
  8
0
  6
CONTINUOUS
 62
           3
100
AcDbLine
 10
5275.249445840374
 20
592.918020486795
 11
5275.679205573571
 21
593.003411590995
  0
LINE
  5
1D1
100
AcDbEntity
  8
0
  6
CONTINUOUS
 62
           3
100
AcDbLine
 10
5275.679205573571
 20
593.003411590995
 11
5276.403805503273
 21
593.072016537197
  0
LINE
  5
1D0
100
AcDbEntity
  8
0
  6
CONTINUOUS
 62
           3
100
AcDbLine
 10
5276.403805503273
 20
593.072016537197
 11
5277.344723494171
 21
593.116392195196
  0
LINE
  5
1CF
100
AcDbEntity
  8
0
  6
CONTINUOUS
 62
           3
100
AcDbLine
 10
5277.344723494171
 20
593.116392195196
 11
5278.399996721673
 21
593.131740391396
  0
LINE
  5
1CE
100
AcDbEntity
  8
1
  6
CONTINUOUS
 62
           3
100
AcDbLine
 10
5782.663567691041
 20
1119.128165004939
 11
5777.754330418633
 21
1119.128165004939
  0
LINE
  5
1CD
100
AcDbEntity
  8
1
  6
DOT_CENTER
 62
           3
100
AcDbLine
 10
5782.663567691041
 20
1138.643555804876
 11
5782.663567691041
 21
1107.508008255129
  0
LINE
  5
1CC
100
AcDbEntity
  8
1
  6
CONTINUOUS
 62
           3
100
AcDbLine
 10
5777.754330418633
 20
1130.871834995072
 11
5782.663567691041
 21
1130.871834995072
  0
LINE
  5
1CB
100
AcDbEntity
  8
1
  6
CONTINUOUS
 62
           3
100
AcDbLine
 10
5777.754330418633
 20
1132.693746580044
 11
5771.889214871942
 21
1132.693746580044
  0
LINE
  5
1CA
100
AcDbEntity
  8
1
  6
CONTINUOUS
 62
           3
100
AcDbLine
 10
5777.754330418633
 20
1117.306253419964
 11
5771.889214871942
 21
1117.306253419964
  0
LINE
  5
1C9
100
AcDbEntity
  8
1
  6
CONTINUOUS
 62
           3
100
AcDbLine
 10
5777.754330418633
 20
1117.306253419964
 11
5777.754330418633
 21
1132.693746580044
  0
LINE
  5
1C8
100
AcDbEntity
  8
1
  6
CONTINUOUS
 62
           3
100
AcDbLine
 10
5771.889214871942
 20
1117.306253419964
 11
5771.889214871942
 21
1132.693746580044
  0
LINE
  5
1C7
100
AcDbEntity
  8
1
  6
CONTINUOUS
 62
           3
100
AcDbLine
 10
5771.889214871942
 20
1132.693746580044
 11
5771.889214871942
 21
1133.250000000004
  0
LINE
  5
1C6
100
AcDbEntity
  8
1
  6
CONTINUOUS
 62
           3
100
AcDbLine
 10
5762.214603906643
 20
1125.000000000004
 11
5762.214603906643
 21
1133.250000000004
  0
LINE
  5
1C5
100
AcDbEntity
  8
1
  6
CONTINUOUS
 62
           3
100
AcDbLine
 10
5762.214603906643
 20
1133.250000000004
 11
5771.889214871942
 21
1133.250000000004
  0
LINE
  5
1C4
100
AcDbEntity
  8
1
  6
CONTINUOUS
 62
           3
100
AcDbLine
 10
5761.368798384461
 20
1131.000000000004
 11
5762.214603906643
 21
1131.000000000004
  0
LINE
  5
1C3
100
AcDbEntity
  8
1
  6
CONTINUOUS
 62
           3
100
AcDbLine
 10
5761.368798384461
 20
1125.000000000004
 11
5761.368798384461
 21
1132.693746580044
  0
LINE
  5
1C2
100
AcDbEntity
  8
1
  6
CONTINUOUS
 62
           3
100
AcDbLine
 10
5760.663567691041
 20
1132.693746580044
 11
5761.368798384461
 21
1132.693746580044
  0
LINE
  5
1C1
100
AcDbEntity
  8
1
  6
CONTINUOUS
 62
           3
100
AcDbLine
 10
5760.163567691041
 20
1132.193746580044
 11
5760.163567691041
 21
1125.000000000004
  0
LINE
  5
1C0
100
AcDbEntity
  8
1
  6
CONTINUOUS
 62
           3
100
AcDbLine
 10
5760.163567691041
 20
1125.000000000004
 11
5760.163567691041
 21
1117.806253419964
  0
LINE
  5
1BF
100
AcDbEntity
  8
1
  6
CONTINUOUS
 62
           3
100
AcDbLine
 10
5761.368798384461
 20
1117.306253419964
 11
5760.663567691041
 21
1117.306253419964
  0
LINE
  5
1BE
100
AcDbEntity
  8
1
  6
CONTINUOUS
 62
           3
100
AcDbLine
 10
5761.368798384461
 20
1117.306253419964
 11
5761.368798384461
 21
1125.000000000004
  0
LINE
  5
1BD
100
AcDbEntity
  8
1
  6
CONTINUOUS
 62
           3
100
AcDbLine
 10
5762.214603906643
 20
1119.000000000004
 11
5761.368798384461
 21
1119.000000000004
  0
LINE
  5
1BC
100
AcDbEntity
  8
1
  6
CONTINUOUS
 62
           3
100
AcDbLine
 10
5762.214603906643
 20
1116.750000000004
 11
5762.214603906643
 21
1125.000000000004
  0
LINE
  5
1BB
100
AcDbEntity
  8
1
  6
CONTINUOUS
 62
           3
100
AcDbLine
 10
5771.889214871942
 20
1116.750000000004
 11
5762.214603906643
 21
1116.750000000004
  0
LINE
  5
1BA
100
AcDbEntity
  8
1
  6
CONTINUOUS
 62
           3
100
AcDbLine
 10
5771.889214871942
 20
1116.750000000004
 11
5771.889214871942
 21
1117.306253419964
  0
LINE
  5
1B9
100
AcDbEntity
  8
1
  6
DOT_CENTER
 62
           3
100
AcDbLine
 10
5758.718519558621
 20
1125.000000000004
 11
5800.16769526244
 21
1125.000000000004
  0
LINE
  5
1B8
100
AcDbEntity
  8
1
  6
CONTINUOUS
 62
           3
100
AcDbLine
 10
5776.989527668229
 20
1117.306253419964
 11
5782.663567691041
 21
1114.030344885403
  0
LINE
  5
1B7
100
AcDbEntity
  8
1
  6
CONTINUOUS
 62
           3
100
AcDbLine
 10
5782.663567691041
 20
1114.030344885403
 11
5792.163567691041
 21
1119.515172442701
  0
LINE
  5
1B6
100
AcDbEntity
  8
1
  6
CONTINUOUS
 62
           3
100
AcDbLine
 10
5792.163567691041
 20
1119.515172442701
 11
5792.163567691041
 21
1130.484827557306
  0
LINE
  5
1B5
100
AcDbEntity
  8
1
  6
CONTINUOUS
 62
           3
100
AcDbLine
 10
5792.163567691041
 20
1130.484827557306
 11
5782.663567691041
 21
1135.969655114608
  0
LINE
  5
1B4
100
AcDbEntity
  8
1
  6
CONTINUOUS
 62
           3
100
AcDbLine
 10
5782.663567691041
 20
1135.969655114608
 11
5776.989527668222
 21
1132.693746580044
  0
LINE
  5
1B3
100
AcDbEntity
  8
1
  6
CONTINUOUS
 62
           7
100
AcDbLine
 10
6452.500000000002
 20
2054.500000000001
 11
6452.500000000002
 21
1495.500000000002
  0
LINE
  5
1B2
100
AcDbEntity
  8
7
  6
CONTINUOUS
 62
           7
100
AcDbLine
 10
5708.039736000001
 20
2525.0
 11
5936.960263000003
 21
2525.0
  0
LINE
  5
1B1
100
AcDbEntity
  8
976
  6
CONTINUOUS
 62
           7
100
AcDbLine
 10
6372.500000000002
 20
2049.199999999998
 11
5102.500000000002
 21
2049.199999999997
  0
LINE
  5
1B0
100
AcDbEntity
  8
1
  6
CONTINUOUS
 62
           7
100
AcDbLine
 10
6452.500000000002
 20
1500.000000000002
 11
6412.500000000002
 21
1500.000000000002
  0
LINE
  5
1AF
100
AcDbEntity
  8
1
  6
CONTINUOUS
 62
           4
100
AcDbLine
 10
6418.000000000002
 20
2054.500000000001
 11
6452.500000000002
 21
2054.500000000001
  0
LINE
  5
1AE
100
AcDbEntity
  8
1
  6
DOT_CENTER
 62
           2
100
AcDbLine
 10
5056.271485574418
 20
1775.000000000002
 11
6507.264587761994
 21
1775.000000000002
  0
LINE
  5
1AD
100
AcDbEntity
  8
7
  6
CONTINUOUS
 62
           4
100
AcDbLine
 10
5967.500000000002
 20
2420.0
 11
5677.500000000002
 21
2420.0
  0
LINE
  5
1AC
100
AcDbEntity
  8
7
  6
CONTINUOUS
 62
           4
100
AcDbLine
 10
5680.305225000002
 20
2460.5
 11
5964.228719000001
 21
2460.5
  0
LINE
  5
1AB
100
AcDbEntity
  8
7
  6
CONTINUOUS
 62
           4
100
AcDbLine
 10
5961.800000000001
 20
2499.0
 11
5683.200000000003
 21
2499.0
  0
LINE
  5
1AA
100
AcDbEntity
  8
1
  6
DOT_CENTER
 62
           2
100
AcDbLine
 10
5822.500000000002
 20
1361.87133595567
 11
5822.500000000002
 21
2569.11549543174
  0
LINE
  5
1A9
100
AcDbEntity
  8
1
  6
CONTINUOUS
 62
           2
100
AcDbLine
 10
5958.013456000908
 20
1955.000000000002
 11
5546.986543999092
 21
1955.000000000002
  0
LINE
  5
1A8
100
AcDbEntity
  8
1
  6
CONTINUOUS
 62
           2
100
AcDbLine
 10
5958.013456000908
 20
1595.000000000002
 11
5958.013456000908
 21
1955.000000000002
  0
LINE
  5
1A7
100
AcDbEntity
  8
1
  6
CONTINUOUS
 62
           2
100
AcDbLine
 10
5546.986543999092
 20
1595.000000000002
 11
5958.013456000908
 21
1595.000000000002
  0
LINE
  5
1A6
100
AcDbEntity
  8
1
  6
CONTINUOUS
 62
           2
100
AcDbLine
 10
5546.986543999092
 20
1955.000000000002
 11
5546.986543999092
 21
1595.000000000002
  0
LINE
  5
1A5
100
AcDbEntity
  8
976
  6
CONTINUOUS
 62
           7
100
AcDbLine
 10
5930.50015977289
 20
1462.800000000001
 11
6368.940677966102
 21
1462.800000000001
  0
LINE
  5
1A4
100
AcDbEntity
  8
976
  6
CONTINUOUS
 62
           7
100
AcDbLine
 10
5747.722691958728
 20
1462.800000000001
 11
5747.722691958725
 21
1500.800000000001
  0
LINE
  5
1A3
100
AcDbEntity
  8
976
  6
CONTINUOUS
 62
           7
100
AcDbLine
 10
5930.50015977289
 20
1462.800000000001
 11
5930.50015977289
 21
1500.800000000001
  0
LINE
  5
1A2
100
AcDbEntity
  8
976
  6
CONTINUOUS
 62
           7
100
AcDbLine
 10
6284.500000000002
 20
1462.800000000001
 11
6284.500000000002
 21
1500.800000000001
  0
LINE
  5
1A1
100
AcDbEntity
  8
976
  6
CONTINUOUS
 62
           7
100
AcDbLine
 10
5747.722691958728
 20
2087.199999999998
 11
5102.500000000002
 21
2087.199999999998
  0
LINE
  5
1A0
100
AcDbEntity
  8
976
  6
CONTINUOUS
 62
           7
100
AcDbLine
 10
5747.722691958725
 20
2049.199999999998
 11
5747.722691958728
 21
2087.199999999998
  0
LINE
  5
19F
100
AcDbEntity
  8
976
  6
CONTINUOUS
 62
           7
100
AcDbLine
 10
5930.50015977289
 20
2049.199999999998
 11
5930.50015977289
 21
2087.199999999998
  0
LINE
  5
19E
100
AcDbEntity
  8
976
  6
CONTINUOUS
 62
           7
100
AcDbLine
 10
6284.500000000002
 20
2049.199999999998
 11
6284.500000000002
 21
2087.199999999998
  0
LINE
  5
19D
100
AcDbEntity
  8
976
  6
CONTINUOUS
 62
           7
100
AcDbLine
 10
6372.500000000002
 20
2049.199999999998
 11
6372.500000000002
 21
2082.199999999998
  0
LINE
  5
19C
100
AcDbEntity
  8
1
  6
CONTINUOUS
 62
           7
100
AcDbLine
 10
5757.500000000002
 20
2159.199999999998
 11
5757.500000000002
 21
2259.199999999998
  0
LINE
  5
19B
100
AcDbEntity
  8
1
  6
CONTINUOUS
 62
           7
100
AcDbLine
 10
5887.500000000002
 20
2259.199999999998
 11
5887.500000000002
 21
2159.199999999998
  0
LINE
  5
19A
100
AcDbEntity
  8
1
  6
CONTINUOUS
 62
           7
100
AcDbLine
 10
5767.500000000002
 20
2269.199999999998
 11
5877.500000000002
 21
2269.199999999998
  0
LINE
  5
199
100
AcDbEntity
  8
1
  6
CONTINUOUS
 62
           7
100
AcDbLine
 10
5877.500000000002
 20
2149.199999999998
 11
5767.500000000002
 21
2149.199999999998
  0
LINE
  5
198
100
AcDbEntity
  8
1
  6
CONTINUOUS
 62
           4
100
AcDbLine
 10
6407.000000000002
 20
1495.500000000002
 11
6372.500000000002
 21
1495.500000000002
  0
LINE
  5
197
100
AcDbEntity
  8
1
  6
CONTINUOUS
 62
           7
100
AcDbLine
 10
6418.000000000002
 20
1500.000000000002
 11
6452.500000000002
 21
1500.000000000002
  0
LINE
  5
196
100
AcDbEntity
  8
1
  6
CONTINUOUS
 62
           4
100
AcDbLine
 10
6408.000000000002
 20
1460.000000000002
 11
6412.500000000002
 21
1460.000000000002
  0
LINE
  5
195
100
AcDbEntity
  8
1
  6
CONTINUOUS
 62
           4
100
AcDbLine
 10
6408.000000000002
 20
1494.500000000002
 11
6408.000000000002
 21
1460.000000000002
  0
LINE
  5
194
100
AcDbEntity
  8
1
  6
CONTINUOUS
 62
           4
100
AcDbLine
 10
6452.500000000002
 20
1495.500000000002
 11
6418.000000000002
 21
1495.500000000002
  0
LINE
  5
193
100
AcDbEntity
  8
1
  6
CONTINUOUS
 62
           4
100
AcDbLine
 10
6417.000000000002
 20
1460.000000000002
 11
6417.000000000002
 21
1494.500000000002
  0
LINE
  5
192
100
AcDbEntity
  8
1
  6
CONTINUOUS
 62
           4
100
AcDbLine
 10
6412.500000000002
 20
1460.000000000002
 11
6417.000000000002
 21
1460.000000000002
  0
LINE
  5
191
100
AcDbEntity
  8
1
  6
CONTINUOUS
 62
           4
100
AcDbLine
 10
6372.500000000002
 20
2054.500000000001
 11
6407.000000000002
 21
2054.500000000001
  0
LINE
  5
190
100
AcDbEntity
  8
1
  6
CONTINUOUS
 62
           4
100
AcDbLine
 10
6408.000000000002
 20
2090.000000000001
 11
6408.000000000002
 21
2055.500000000001
  0
LINE
  5
18F
100
AcDbEntity
  8
1
  6
CONTINUOUS
 62
           4
100
AcDbLine
 10
6412.500000000002
 20
2090.000000000001
 11
6408.000000000002
 21
2090.000000000001
  0
LINE
  5
18E
100
AcDbEntity
  8
1
  6
CONTINUOUS
 62
           4
100
AcDbLine
 10
6417.000000000002
 20
2090.000000000001
 11
6412.500000000002
 21
2090.000000000001
  0
LINE
  5
18D
100
AcDbEntity
  8
1
  6
CONTINUOUS
 62
           4
100
AcDbLine
 10
6417.000000000002
 20
2055.500000000001
 11
6417.000000000002
 21
2090.000000000001
  0
LINE
  5
18C
100
AcDbEntity
  8
1
  6
CONTINUOUS
 62
           7
100
AcDbLine
 10
6412.500000000002
 20
2090.000000000001
 11
6412.500000000002
 21
1460.000000000002
  0
LINE
  5
18B
100
AcDbEntity
  8
1
  6
CONTINUOUS
 62
           4
100
AcDbLine
 10
6416.800000000001
 20
1500.000000000002
 11
6416.800000000001
 21
2050.000000000001
  0
LINE
  5
18A
100
AcDbEntity
  8
1
  6
CONTINUOUS
 62
           4
100
AcDbLine
 10
6408.199999999999
 20
2050.000000000001
 11
6408.199999999999
 21
1500.000000000002
  0
LINE
  5
189
100
AcDbEntity
  8
1
  6
CONTINUOUS
 62
           7
100
AcDbLine
 10
6412.500000000002
 20
1500.000000000002
 11
6372.500000000002
 21
1500.000000000002
  0
LINE
  5
188
100
AcDbEntity
  8
1
  6
CONTINUOUS
 62
           7
100
AcDbLine
 10
6372.500000000002
 20
2050.000000000001
 11
6412.500000000002
 21
2050.000000000001
  0
LINE
  5
187
100
AcDbEntity
  8
1
  6
CONTINUOUS
 62
           7
100
AcDbLine
 10
6372.500000000002
 20
1495.500000000002
 11
6372.500000000002
 21
2054.500000000001
  0
LINE
  5
186
100
AcDbEntity
  8
1
  6
CONTINUOUS
 62
           7
100
AcDbLine
 10
6412.500000000002
 20
2050.000000000001
 11
6452.500000000002
 21
2050.000000000001
  0
LINE
  5
185
100
AcDbEntity
  8
1
  6
CONTINUOUS
 62
           7
100
AcDbLine
 10
5122.500000000002
 20
2049.199999999998
 11
5122.500000000002
 21
1500.800000000001
  0
LINE
  5
184
100
AcDbEntity
  8
1
  6
CONTINUOUS
 62
           7
100
AcDbLine
 10
6372.500000000002
 20
1500.000000000002
 11
6407.000000000002
 21
1500.000000000002
  0
LINE
  5
183
100
AcDbEntity
  8
1
  6
CONTINUOUS
 62
           7
100
AcDbLine
 10
6407.000000000002
 20
2050.000000000001
 11
6372.500000000002
 21
2050.000000000001
  0
LINE
  5
182
100
AcDbEntity
  8
1
  6
CONTINUOUS
 62
           7
100
AcDbLine
 10
6452.500000000002
 20
2050.000000000001
 11
6418.000000000002
 21
2050.000000000001
  0
LINE
  5
181
100
AcDbEntity
  8
1
  6
CONTINUOUS
 62
           7
100
AcDbLine
 10
6372.500000000002
 20
1467.800000000001
 11
6368.940677966102
 21
1462.800000000001
  0
LINE
  5
180
100
AcDbEntity
  8
1
  6
CONTINUOUS
 62
           7
100
AcDbLine
 10
6372.500000000002
 20
2082.199999999998
 11
6368.940677966102
 21
2087.199999999998
  0
LINE
  5
17F
100
AcDbEntity
  8
976
  6
CONTINUOUS
 62
           7
100
AcDbLine
 10
5102.500000000002
 20
1462.800000000001
 11
5102.500000000002
 21
1500.800000000001
  0
LINE
  5
17E
100
AcDbEntity
  8
976
  6
CONTINUOUS
 62
           7
100
AcDbLine
 10
5102.500000000002
 20
2049.199999999997
 11
5102.500000000002
 21
2087.199999999998
  0
LINE
  5
17D
100
AcDbEntity
  8
976
  6
CONTINUOUS
 62
           7
100
AcDbLine
 10
5102.500000000002
 20
1462.800000000001
 11
5747.722691958728
 21
1462.800000000001
  0
LINE
  5
17C
100
AcDbEntity
  8
976
  6
CONTINUOUS
 62
           7
100
AcDbLine
 10
6372.500000000002
 20
1500.800000000001
 11
6372.500000000002
 21
1467.800000000001
  0
LINE
  5
17B
100
AcDbEntity
  8
976
  6
CONTINUOUS
 62
           7
100
AcDbLine
 10
6372.500000000002
 20
1500.800000000001
 11
5102.500000000002
 21
1500.800000000001
  0
LINE
  5
17A
100
AcDbEntity
  8
976
  6
CONTINUOUS
 62
           7
100
AcDbLine
 10
6368.940677966102
 20
2087.199999999998
 11
5930.50015977289
 21
2087.199999999998
  0
LINE
  5
179
100
AcDbEntity
  8
1
  6
CONTINUOUS
 62
           4
100
AcDbLine
 10
5562.500000000002
 20
2088.199999999998
 11
5567.500000000002
 21
2093.199999999998
  0
LINE
  5
178
100
AcDbEntity
  8
1
  6
CONTINUOUS
 62
           4
100
AcDbLine
 10
6077.500000000002
 20
2093.199999999998
 11
5567.500000000002
 21
2093.199999999998
  0
LINE
  5
177
100
AcDbEntity
  8
1
  6
CONTINUOUS
 62
           4
100
AcDbLine
 10
6077.500000000002
 20
2093.199999999998
 11
6082.500000000002
 21
2088.199999999998
  0
LINE
  5
176
100
AcDbEntity
  8
1
  6
CONTINUOUS
 62
           4
100
AcDbLine
 10
6082.500000000002
 20
2088.199999999998
 11
6082.500000000002
 21
2087.199999999998
  0
LINE
  5
175
100
AcDbEntity
  8
1
  6
CONTINUOUS
 62
           4
100
AcDbLine
 10
5562.500000000002
 20
2088.199999999998
 11
5562.500000000002
 21
2087.199999999998
  0
LINE
  5
174
100
AcDbEntity
  8
0
  6
CONTINUOUS
 62
           7
100
AcDbLine
 10
5447.500000000002
 20
1462.800000000001
 11
5447.500000000002
 21
1406.000000000002
  0
LINE
  5
173
100
AcDbEntity
  8
0
  6
CONTINUOUS
 62
           7
100
AcDbLine
 10
6197.500000000002
 20
1406.000000000002
 11
6197.500000000002
 21
1462.800000000001
  0
LINE
  5
172
100
AcDbEntity
  8
1
  6
CONTINUOUS
 62
           4
100
AcDbLine
 10
5408.199999999999
 20
1406.000000000002
 11
6236.800000000001
 21
1406.000000000002
  0
LINE
  5
171
100
AcDbEntity
  8
1
  6
CONTINUOUS
 62
           7
100
AcDbLine
 10
6236.800000000001
 20
1400.000000000002
 11
5408.199999999999
 21
1400.000000000002
  0
LINE
  5
170
100
AcDbEntity
  8
1
  6
CONTINUOUS
 62
           4
100
AcDbLine
 10
5408.199999999999
 20
1400.000000000002
 11
5408.199999999999
 21
1406.000000000002
  0
LINE
  5
16F
100
AcDbEntity
  8
1
  6
CONTINUOUS
 62
           4
100
AcDbLine
 10
6236.800000000001
 20
1406.000000000002
 11
6236.800000000001
 21
1400.000000000002
  0
LINE
  5
16E
100
AcDbEntity
  8
2
  6
CONTINUOUS
 62
           4
100
AcDbLine
 10
5689.000000000002
 20
2109.200000000001
 11
5956.000000000002
 21
2109.200000000001
  0
LINE
  5
16D
100
AcDbEntity
  8
7
  6
CONTINUOUS
 62
           7
100
AcDbLine
 10
5677.500000000002
 20
2420.0
 11
5677.500000000002
 21
2458.0
  0
LINE
  5
16C
100
AcDbEntity
  8
7
  6
CONTINUOUS
 62
           7
100
AcDbLine
 10
5679.182994000001
 20
2460.484287999999
 11
5679.260628000002
 21
2460.547319999998
  0
LINE
  5
16B
100
AcDbEntity
  8
2
  6
CONTINUOUS
 62
           7
100
AcDbLine
 10
5973.576193000003
 20
2151.199999999998
 11
5973.576193000003
 21
2406.0
  0
LINE
  5
16A
100
AcDbEntity
  8
2
  6
CONTINUOUS
 62
           7
100
AcDbLine
 10
5973.576193000003
 20
2151.199999999998
 11
5956.057986000002
 21
2119.200000000001
  0
LINE
  5
169
100
AcDbEntity
  8
2
  6
CONTINUOUS
 62
           7
100
AcDbLine
 10
5973.576193000003
 20
2406.0
 11
5965.911978000002
 21
2420.0
  0
LINE
  5
168
100
AcDbEntity
  8
2
  6
CONTINUOUS
 62
           7
100
AcDbLine
 10
5973.576193000003
 20
2151.199999999998
 11
5972.547587000003
 21
2151.199999999998
  0
LINE
  5
167
100
AcDbEntity
  8
2
  6
CONTINUOUS
 62
           7
100
AcDbLine
 10
5679.088022000002
 20
2420.0
 11
5671.423807000001
 21
2406.0
  0
LINE
  5
166
100
AcDbEntity
  8
2
  6
CONTINUOUS
 62
           7
100
AcDbLine
 10
5688.942014000002
 20
2119.200000000001
 11
5671.423807000001
 21
2151.200000000001
  0
LINE
  5
165
100
AcDbEntity
  8
2
  6
CONTINUOUS
 62
           7
100
AcDbLine
 10
5671.423807000001
 20
2406.0
 11
5671.423807000001
 21
2151.200000000001
  0
LINE
  5
164
100
AcDbEntity
  8
7
  6
CONTINUOUS
 62
           7
100
AcDbLine
 10
5966.239372000002
 20
2460.547319999998
 11
5966.317006000003
 21
2460.484287999999
  0
LINE
  5
163
100
AcDbEntity
  8
7
  6
CONTINUOUS
 62
           7
100
AcDbLine
 10
5967.500000000002
 20
2458.0
 11
5967.500000000002
 21
2420.0
  0
LINE
  5
162
100
AcDbEntity
  8
7
  6
CONTINUOUS
 62
           7
100
AcDbLine
 10
5940.146531
 20
2522.096143999999
 11
5940.168846000002
 21
2521.856043999998
  0
LINE
  5
161
100
AcDbEntity
  8
7
  6
CONTINUOUS
 62
           7
100
AcDbLine
 10
5965.000000000002
 20
2495.799999999999
 11
5965.000000000002
 21
2462.099999999999
  0
LINE
  5
160
100
AcDbEntity
  8
7
  6
CONTINUOUS
 62
           7
100
AcDbLine
 10
5941.013111000002
 20
2520.402829999999
 11
5958.944424000003
 21
2499.542544
  0
LINE
  5
15F
100
AcDbEntity
  8
7
  6
CONTINUOUS
 62
           7
100
AcDbLine
 10
5704.853469
 20
2522.096143999999
 11
5704.831153000001
 21
2521.856043999998
  0
LINE
  5
15E
100
AcDbEntity
  8
7
  6
CONTINUOUS
 62
           7
100
AcDbLine
 10
5680.000000000002
 20
2495.799999999999
 11
5680.000000000002
 21
2462.099999999999
  0
LINE
  5
15D
100
AcDbEntity
  8
7
  6
CONTINUOUS
 62
           7
100
AcDbLine
 10
5703.986889000002
 20
2520.402829999999
 11
5686.055577000001
 21
2499.542544
  0
LINE
  5
15C
100
AcDbEntity
  8
1
  6
CONTINUOUS
 62
           7
100
AcDbLine
 10
5956.000000000002
 20
2093.199999999998
 11
5956.000000000002
 21
2119.200000000001
  0
LINE
  5
15B
100
AcDbEntity
  8
6
  6
CONTINUOUS
 62
           7
100
AcDbLine
 10
5689.000000000002
 20
2093.199999999998
 11
5689.000000000002
 21
2119.200000000001
  0
LINE
  5
15A
100
AcDbEntity
  8
1
  6
CONTINUOUS
 62
           7
100
AcDbLine
 10
590.000000000002
 20
1849.999999999998
 11
590.000000000002
 21
2050.000000000001
  0
LINE
  5
159
100
AcDbEntity
  8
1
  6
CONTINUOUS
 62
           2
100
AcDbLine
 10
-400.160800656586
 20
1849.999999999998
 11
-400.160800656586
 21
1955.000000000002
  0
LINE
  5
158
100
AcDbEntity
  8
1
  6
CONTINUOUS
 62
           7
100
AcDbLine
 10
-814.999999999998
 20
1849.999999999998
 11
-814.999999999998
 21
2050.000000000001
  0
LINE
  5
157
100
AcDbEntity
  8
1
  6
CONTINUOUS
 62
           7
100
AcDbLine
 10
-855.999999999998
 20
1849.999999999998
 11
-855.999999999998
 21
2090.800000000002
  0
LINE
  5
156
100
AcDbEntity
  8
7
  6
CONTINUOUS
 62
           4
100
AcDbLine
 10
-141.728718999999
 20
2460.5
 11
142.194775000002
 21
2460.5
  0
LINE
  5
155
100
AcDbEntity
  8
7
  6
CONTINUOUS
 62
           4
100
AcDbLine
 10
139.300000000001
 20
2499.0
 11
-139.299999999999
 21
2499.0
  0
LINE
  5
154
100
AcDbEntity
  8
7
  6
CONTINUOUS
 62
           4
100
AcDbLine
 10
145.000000000002
 20
2420.0
 11
-144.999999999998
 21
2420.0
  0
LINE
  5
153
100
AcDbEntity
  8
1
  6
CONTINUOUS
 62
           2
100
AcDbLine
 10
-717.59303205717
 20
1955.000000000002
 11
-717.59303205717
 21
1849.999999999998
  0
LINE
  5
152
100
AcDbEntity
  8
1
  6
CONTINUOUS
 62
           2
100
AcDbLine
 10
-400.160800656586
 20
1955.000000000002
 11
-717.59303205717
 21
1955.000000000002
  0
LINE
  5
151
100
AcDbEntity
  8
976
  6
CONTINUOUS
 62
           7
100
AcDbLine
 10
-816.116882454313
 20
2088.000000000001
 11
-816.116882454313
 21
2050.000000000001
  0
LINE
  5
150
100
AcDbEntity
  8
1
  6
CONTINUOUS
 62
           2
100
AcDbLine
 10
590.000000000002
 20
1955.000000000002
 11
551.093583477745
 21
1955.000000000002
  0
LINE
  5
14F
100
AcDbEntity
  8
1
  6
CONTINUOUS
 62
           2
100
AcDbLine
 10
551.093583477745
 20
1955.000000000002
 11
551.093583477744
 21
1849.999999999998
  0
LINE
  5
14E
100
AcDbEntity
  8
976
  6
CONTINUOUS
 62
           7
100
AcDbLine
 10
597.411867714183
 20
2088.000000000001
 11
-816.116882454313
 21
2088.000000000001
  0
LINE
  5
14D
100
AcDbEntity
  8
976
  6
CONTINUOUS
 62
           7
100
AcDbLine
 10
-63.022294576587
 20
2088.000000000001
 11
-63.022294576587
 21
2050.000000000001
  0
LINE
  5
14C
100
AcDbEntity
  8
976
  6
CONTINUOUS
 62
           7
100
AcDbLine
 10
566.000000000004
 20
2088.000000000001
 11
566.000000000004
 21
2050.000000000001
  0
LINE
  5
14B
100
AcDbEntity
  8
1
  6
CONTINUOUS
 62
           4
100
AcDbLine
 10
-855.999999999998
 20
2055.300000000002
 11
-834.999999999998
 21
2055.300000000002
  0
LINE
  5
14A
100
AcDbEntity
  8
1
  6
CONTINUOUS
 62
           7
100
AcDbLine
 10
-855.999999999998
 20
2090.800000000002
 11
-834.999999999998
 21
2090.800000000002
  0
LINE
  5
149
100
AcDbEntity
  8
1
  6
CONTINUOUS
 62
           7
100
AcDbLine
 10
-855.999999999998
 20
2050.800000000002
 11
-834.999999999998
 21
2050.800000000002
  0
LINE
  5
148
100
AcDbEntity
  8
976
  6
CONTINUOUS
 62
           7
100
AcDbLine
 10
600.000000000004
 20
2050.000000000001
 11
-824.999999999998
 21
2050.000000000001
  0
LINE
  5
147
100
AcDbEntity
  8
6
  6
CONTINUOUS
 62
           7
100
AcDbLine
 10
133.500000000002
 20
2120.000000000003
 11
133.500000000002
 21
2094.000000000001
  0
LINE
  5
146
100
AcDbEntity
  8
1
  6
CONTINUOUS
 62
           7
100
AcDbLine
 10
-133.499999999998
 20
2120.000000000003
 11
-133.499999999998
 21
2094.000000000001
  0
LINE
  5
145
100
AcDbEntity
  8
7
  6
CONTINUOUS
 62
           7
100
AcDbLine
 10
136.444423000001
 20
2499.542544
 11
118.513111000002
 21
2520.402829999999
  0
LINE
  5
144
100
AcDbEntity
  8
7
  6
CONTINUOUS
 62
           7
100
AcDbLine
 10
-114.460262999999
 20
2525.0
 11
114.460264000001
 21
2525.0
  0
LINE
  5
143
100
AcDbEntity
  8
7
  6
CONTINUOUS
 62
           7
100
AcDbLine
 10
142.500000000002
 20
2462.1
 11
142.5
 21
2495.799999999998
  0
LINE
  5
142
100
AcDbEntity
  8
7
  6
CONTINUOUS
 62
           7
100
AcDbLine
 10
117.668847000001
 20
2521.856044
 11
117.646531000002
 21
2522.096143999999
  0
LINE
  5
141
100
AcDbEntity
  8
7
  6
CONTINUOUS
 62
           7
100
AcDbLine
 10
-136.444423999999
 20
2499.542544
 11
-118.513110999999
 21
2520.402829999999
  0
LINE
  5
140
100
AcDbEntity
  8
7
  6
CONTINUOUS
 62
           7
100
AcDbLine
 10
-142.499999999998
 20
2462.1
 11
-142.499999999998
 21
2495.799999999998
  0
LINE
  5
13F
100
AcDbEntity
  8
7
  6
CONTINUOUS
 62
           7
100
AcDbLine
 10
-117.668845999999
 20
2521.856044
 11
-117.646530999999
 21
2522.096143999999
  0
LINE
  5
13E
100
AcDbEntity
  8
7
  6
CONTINUOUS
 62
           7
100
AcDbLine
 10
-144.999999999998
 20
2420.0
 11
-144.999999999998
 21
2458.0
  0
LINE
  5
13D
100
AcDbEntity
  8
7
  6
CONTINUOUS
 62
           7
100
AcDbLine
 10
-143.817005999999
 20
2460.484287999999
 11
-143.739371999998
 21
2460.547319999999
  0
LINE
  5
13C
100
AcDbEntity
  8
2
  6
CONTINUOUS
 62
           7
100
AcDbLine
 10
151.076193000001
 20
2152.000000000003
 11
151.076193000001
 21
2406.0
  0
LINE
  5
13B
100
AcDbEntity
  8
2
  6
CONTINUOUS
 62
           7
100
AcDbLine
 10
151.076193000001
 20
2152.000000000003
 11
133.557986000002
 21
2120.000000000003
  0
LINE
  5
13A
100
AcDbEntity
  8
2
  6
CONTINUOUS
 62
           7
100
AcDbLine
 10
151.076193000001
 20
2406.0
 11
143.411978000002
 21
2420.0
  0
LINE
  5
139
100
AcDbEntity
  8
2
  6
CONTINUOUS
 62
           7
100
AcDbLine
 10
-150.047586999999
 20
2152.000000000001
 11
-151.076192999999
 21
2152.000000000001
  0
LINE
  5
138
100
AcDbEntity
  8
2
  6
CONTINUOUS
 62
           7
100
AcDbLine
 10
-143.411977999998
 20
2420.0
 11
-151.076192999999
 21
2406.0
  0
LINE
  5
137
100
AcDbEntity
  8
2
  6
CONTINUOUS
 62
           7
100
AcDbLine
 10
-133.557985999998
 20
2120.000000000003
 11
-151.076192999999
 21
2152.000000000001
  0
LINE
  5
136
100
AcDbEntity
  8
2
  6
CONTINUOUS
 62
           7
100
AcDbLine
 10
-151.076192999999
 20
2406.0
 11
-151.076192999999
 21
2152.000000000001
  0
LINE
  5
135
100
AcDbEntity
  8
7
  6
CONTINUOUS
 62
           7
100
AcDbLine
 10
143.239372000002
 20
2460.547319999999
 11
143.317006000001
 21
2460.484287999999
  0
LINE
  5
134
100
AcDbEntity
  8
7
  6
CONTINUOUS
 62
           7
100
AcDbLine
 10
145.000000000002
 20
2458.0
 11
145.000000000002
 21
2420.0
  0
LINE
  5
133
100
AcDbEntity
  8
2
  6
CONTINUOUS
 62
           4
100
AcDbLine
 10
-133.499999999998
 20
2110.000000000003
 11
133.500000000002
 21
2110.000000000003
  0
LINE
  5
132
100
AcDbEntity
  8
1
  6
CONTINUOUS
 62
           4
100
AcDbLine
 10
260.000000000002
 20
2088.000000000001
 11
260.000000000002
 21
2089.000000000001
  0
LINE
  5
131
100
AcDbEntity
  8
1
  6
CONTINUOUS
 62
           4
100
AcDbLine
 10
-259.999999999998
 20
2088.000000000001
 11
-259.999999999998
 21
2089.000000000001
  0
LINE
  5
130
100
AcDbEntity
  8
1
  6
CONTINUOUS
 62
           4
100
AcDbLine
 10
-259.999999999998
 20
2089.000000000001
 11
-254.999999999998
 21
2094.000000000001
  0
LINE
  5
12F
100
AcDbEntity
  8
1
  6
CONTINUOUS
 62
           4
100
AcDbLine
 10
255.000000000002
 20
2094.000000000001
 11
-254.999999999998
 21
2094.000000000001
  0
LINE
  5
12E
100
AcDbEntity
  8
1
  6
CONTINUOUS
 62
           4
100
AcDbLine
 10
255.000000000002
 20
2094.000000000001
 11
260.000000000002
 21
2089.000000000001
  0
LINE
  5
12D
100
AcDbEntity
  8
976
  6
CONTINUOUS
 62
           7
100
AcDbLine
 10
597.411867714183
 20
2088.000000000001
 11
597.411867714183
 21
2050.000000000001
  0
LINE
  5
12C
100
AcDbEntity
  8
1
  6
CONTINUOUS
 62
           7
100
AcDbLine
 10
256.000000000002
 20
2260.000000000001
 11
256.000000000002
 21
2160.000000000001
  0
LINE
  5
12B
100
AcDbEntity
  8
1
  6
CONTINUOUS
 62
           7
100
AcDbLine
 10
151.076193000001
 20
2160.000000000001
 11
151.076193000001
 21
2260.000000000001
  0
LINE
  5
12A
100
AcDbEntity
  8
1
  6
CONTINUOUS
 62
           7
100
AcDbLine
 10
246.000000000002
 20
2150.000000000001
 11
161.076193000001
 21
2150.000000000001
  0
LINE
  5
129
100
AcDbEntity
  8
1
  6
CONTINUOUS
 62
           7
100
AcDbLine
 10
161.076193000001
 20
2270.000000000001
 11
246.000000000002
 21
2270.000000000001
  0
LINE
  5
128
100
AcDbEntity
  8
1
  6
DOT_CENTER
 62
           2
100
AcDbLine
 10
-407.5
 20
5718.027293831616
 11
-407.5
 21
5435.665095944234
  0
LINE
  5
127
100
AcDbEntity
  8
1
  6
CONTINUOUS
 62
           7
100
AcDbLine
 10
256.000000000002
 20
5090.0
 11
256.000000000002
 21
4980.0
  0
LINE
  5
126
100
AcDbEntity
  8
1
  6
CONTINUOUS
 62
           7
100
AcDbLine
 10
186.000000000002
 20
4980.0
 11
186.000000000002
 21
5090.0
  0
LINE
  5
125
100
AcDbEntity
  8
1
  6
CONTINUOUS
 62
           7
100
AcDbLine
 10
196.000000000002
 20
5100.0
 11
246.000000000002
 21
5100.0
  0
LINE
  5
124
100
AcDbEntity
  8
1
  6
CONTINUOUS
 62
           7
100
AcDbLine
 10
246.000000000002
 20
4970.0
 11
196.000000000002
 21
4970.0
  0
LINE
  5
123
100
AcDbEntity
  8
1
  6
CONTINUOUS
 62
           4
100
AcDbLine
 10
187.339745962159
 20
5095.0
 11
181.319409665062
 21
5095.0
  0
LINE
  5
122
100
AcDbEntity
  8
1
  6
CONTINUOUS
 62
           4
100
AcDbLine
 10
187.339745962157
 20
4975.0
 11
181.319409665062
 21
4975.0
  0
LINE
  5
121
100
AcDbEntity
  8
1
  6
CONTINUOUS
 62
           4
100
AcDbLine
 10
171.319409665062
 20
5085.0
 11
171.319409665062
 21
5070.702379080605
  0
LINE
  5
120
100
AcDbEntity
  8
1
  6
CONTINUOUS
 62
           4
100
AcDbLine
 10
171.319409665062
 20
4999.297620919395
 11
171.319409665062
 21
4985.0
  0
LINE
  5
11F
100
AcDbEntity
  8
1
  6
CONTINUOUS
 62
           7
100
AcDbLine
 10
226.000000000004
 20
5100.0
 11
226.000000000004
 21
5295.0
  0
LINE
  5
11E
100
AcDbEntity
  8
1
  6
CONTINUOUS
 62
           7
100
AcDbLine
 10
-225.999999999996
 20
4809.0
 11
260.000000000004
 21
4809.0
  0
LINE
  5
11D
100
AcDbEntity
  8
1
  6
CONTINUOUS
 62
           7
100
AcDbLine
 10
226.000000000004
 20
4809.0
 11
226.000000000004
 21
4970.0
  0
LINE
  5
11C
100
AcDbEntity
  8
1
  6
CONTINUOUS
 62
           7
100
AcDbLine
 10
226.000000000004
 20
5261.0
 11
-259.999999999996
 21
5261.0
  0
LINE
  5
11B
100
AcDbEntity
  8
1
  6
CONTINUOUS
 62
           7
100
AcDbLine
 10
-225.999999999996
 20
5261.0
 11
-225.999999999996
 21
4775.0
  0
LINE
  5
11A
100
AcDbEntity
  8
0
  6
CONTINUOUS
 62
           7
100
AcDbLine
 10
30.724756890084
 20
5521.783160015504
 11
0.000000000002
 21
5575.0
  0
LINE
  5
119
100
AcDbEntity
  8
0
  6
CONTINUOUS
 62
           7
100
AcDbLine
 10
-814.0
 20
5574.999999999999
 11
-823.0
 21
5565.0
  0
LINE
  5
118
100
AcDbEntity
  8
0
  6
CONTINUOUS
 62
           7
100
AcDbLine
 10
-823.0
 20
5565.0
 11
-823.0
 21
5075.0
  0
LINE
  5
117
100
AcDbEntity
  8
0
  6
CONTINUOUS
 62
           7
100
AcDbLine
 10
-814.0
 20
5585.0
 11
-814.0
 21
5574.999999999999
  0
LINE
  5
116
100
AcDbEntity
  8
1
  6
CONTINUOUS
 62
           7
100
AcDbLine
 10
0.000000000002
 20
5575.0
 11
0.000000000002
 21
5585.0
  0
LINE
  5
115
100
AcDbEntity
  8
0
  6
CONTINUOUS
 62
           7
100
AcDbLine
 10
0.000000000002
 20
5575.0
 11
0.000000000002
 21
5585.0
  0
LINE
  5
114
100
AcDbEntity
  8
1
  6
CONTINUOUS
 62
           7
100
AcDbLine
 10
-814.116882454315
 20
5035.883117545687
 11
-219.999999999998
 21
5585.0
  0
LINE
  5
113
100
AcDbEntity
  8
1
  6
CONTINUOUS
 62
           7
100
AcDbLine
 10
556.018279316735
 20
5143.000159772888
 11
182.000000000002
 21
5497.0
  0
LINE
  5
112
100
AcDbEntity
  8
1
  6
CONTINUOUS
 62
           7
100
AcDbLine
 10
-814.116882454315
 20
5035.883117545687
 11
-63.022294576585
 21
4299.788529667956
  0
LINE
  5
111
100
AcDbEntity
  8
1
  6
CONTINUOUS
 62
           7
100
AcDbLine
 10
587.430147030915
 20
4960.222691958725
 11
-63.022294576585
 21
4299.788529667956
  0
LINE
  5
110
100
AcDbEntity
  8
1
  6
CONTINUOUS
 62
           7
100
AcDbLine
 10
-855.0
 20
5660.0
 11
-850.0
 21
5664.999999999998
  0
LINE
  5
10F
100
AcDbEntity
  8
1
  6
CONTINUOUS
 62
           7
100
AcDbLine
 10
41.000000000002
 20
5660.0
 11
36.000000000002
 21
5665.0
  0
LINE
  5
10E
100
AcDbEntity
  8
1
  6
CONTINUOUS
 62
           7
100
AcDbLine
 10
-850.0
 20
5664.999999999998
 11
36.000000000002
 21
5665.0
  0
LINE
  5
10D
100
AcDbEntity
  8
1
  6
CONTINUOUS
 62
           7
100
AcDbLine
 10
-855.0
 20
5625.0
 11
-855.0
 21
5660.0
  0
LINE
  5
10C
100
AcDbEntity
  8
1
  6
CONTINUOUS
 62
           7
100
AcDbLine
 10
41.000000000002
 20
5660.0
 11
41.000000000002
 21
5625.0
  0
LINE
  5
10B
100
AcDbEntity
  8
1
  6
CONTINUOUS
 62
           4
100
AcDbLine
 10
-855.0
 20
5629.499999999998
 11
41.000000000002
 21
5629.5
  0
LINE
  5
10A
100
AcDbEntity
  8
1
  6
CONTINUOUS
 62
           4
100
AcDbLine
 10
41.000000000002
 20
5620.5
 11
-855.0
 21
5620.5
  0
LINE
  5
109
100
AcDbEntity
  8
1
  6
CONTINUOUS
 62
           7
100
AcDbLine
 10
41.000000000002
 20
5625.0
 11
41.000000000002
 21
5590.0
  0
LINE
  5
108
100
AcDbEntity
  8
1
  6
CONTINUOUS
 62
           7
100
AcDbLine
 10
-855.0
 20
5590.0
 11
-855.0
 21
5625.0
  0
LINE
  5
107
100
AcDbEntity
  8
1
  6
CONTINUOUS
 62
           7
100
AcDbLine
 10
36.000000000002
 20
5585.0
 11
-850.0
 21
5585.0
  0
LINE
  5
106
100
AcDbEntity
  8
1
  6
CONTINUOUS
 62
           7
100
AcDbLine
 10
36.000000000002
 20
5585.0
 11
41.000000000002
 21
5590.0
  0
LINE
  5
105
100
AcDbEntity
  8
1
  6
CONTINUOUS
 62
           7
100
AcDbLine
 10
-850.0
 20
5585.0
 11
-855.0
 21
5590.0
  0
LINE
  5
104
100
AcDbEntity
  8
1
  6
CONTINUOUS
 62
           7
100
AcDbLine
 10
-855.0
 20
5625.0
 11
41.000000000002
 21
5625.0
  0
LINE
  5
103
100
AcDbEntity
  8
1
  6
CONTINUOUS
 62
           7
100
AcDbLine
 10
446.624322731384
 20
4574.999999999998
 11
2550.0
 21
4574.999999999998
  0
LINE
  5
102
100
AcDbEntity
  8
1
  6
CONTINUOUS
 62
           4
100
AcDbLine
 10
520.0
 20
4686.90880721944
 11
520.0
 21
4594.999999999998
  0
LINE
  5
101
100
AcDbEntity
  8
1
  6
CONTINUOUS
 62
           7
100
AcDbLine
 10
500.000000000001
 20
5266.486630933536
 11
500.0
 21
5574.999999999998
  0
LINE
  5
100
100
AcDbEntity
  8
1
  6
CONTINUOUS
 62
           7
100
AcDbLine
 10
-1000.0
 20
1699.999999999998
 11
-1000.0
 21
1199.999999999998
  0
LINE
  5
FF
100
AcDbEntity
  8
1
  6
CONTINUOUS
 62
           7
100
AcDbLine
 10
1000.0
 20
1699.999999999998
 11
1000.0
 21
1199.999999999998
  0
LINE
  5
FE
100
AcDbEntity
  8
1
  6
CONTINUOUS
 62
           7
100
AcDbLine
 10
4862.499999999999
 20
1699.999999999998
 11
4362.5
 21
1699.999999999998
  0
LINE
  5
FD
100
AcDbEntity
  8
1
  6
CONTINUOUS
 62
           7
100
AcDbLine
 10
4862.499999999999
 20
1749.999999999998
 11
5362.499999999999
 21
1249.999999999998
  0
LINE
  5
FC
100
AcDbEntity
  8
1
  6
CONTINUOUS
 62
           7
100
AcDbLine
 10
5362.499999999999
 20
1249.999999999998
 11
6362.499999999999
 21
1249.999999999998
  0
LINE
  5
FB
100
AcDbEntity
  8
1
  6
CONTINUOUS
 62
           4
100
AcDbLine
 10
5362.499999999999
 20
1202.999999999998
 11
6362.499999999999
 21
1202.999999999998
  0
LINE
  5
FA
100
AcDbEntity
  8
1
  6
CONTINUOUS
 62
           4
100
AcDbLine
 10
5362.499999999999
 20
1239.999999999998
 11
6362.499999999999
 21
1239.999999999998
  0
LINE
  5
F9
100
AcDbEntity
  8
1
  6
CONTINUOUS
 62
           7
100
AcDbLine
 10
2500.0
 20
1199.999999999998
 11
-2500.0
 21
1199.999999999998
  0
LINE
  5
F8
100
AcDbEntity
  8
1
  6
CONTINUOUS
 62
           4
100
AcDbLine
 10
2540.0
 20
4074.999999999998
 11
2540.0
 21
3624.999999999998
  0
LINE
  5
F7
100
AcDbEntity
  8
1
  6
CONTINUOUS
 62
           4
100
AcDbLine
 10
2503.0
 20
4074.999999999998
 11
2503.0
 21
3624.999999999998
  0
LINE
  5
F6
100
AcDbEntity
  8
1
  6
CONTINUOUS
 62
           4
100
AcDbLine
 10
-2540.0
 20
4074.999999999998
 11
-2540.0
 21
3624.999999999998
  0
LINE
  5
F5
100
AcDbEntity
  8
1
  6
CONTINUOUS
 62
           4
100
AcDbLine
 10
-2503.0
 20
4074.999999999998
 11
-2503.0
 21
3624.999999999998
  0
LINE
  5
F4
100
AcDbEntity
  8
1
  6
CONTINUOUS
 62
           7
100
AcDbLine
 10
-2550.0
 20
4074.999999999998
 11
2550.0
 21
4074.999999999998
  0
LINE
  5
F3
100
AcDbEntity
  8
1
  6
CONTINUOUS
 62
           7
100
AcDbLine
 10
3050.0
 20
-800.0
 11
-2826.40817254997
 21
-800.0
  0
LINE
  5
F2
100
AcDbEntity
  8
1
  6
CONTINUOUS
 62
           4
100
AcDbLine
 10
520.0
 20
5554.999999999998
 11
520.0
 21
5233.54710538364
  0
LINE
  5
F1
100
AcDbEntity
  8
1
  6
CONTINUOUS
 62
           7
100
AcDbLine
 10
2485.0
 20
-260.0
 11
1015.0
 21
-260.0
  0
LINE
  5
F0
100
AcDbEntity
  8
1
  6
CONTINUOUS
 62
           7
100
AcDbLine
 10
-2485.0
 20
-325.0
 11
-2485.0
 21
-260.0
  0
LINE
  5
EF
100
AcDbEntity
  8
1
  6
CONTINUOUS
 62
           7
100
AcDbLine
 10
-2500.0
 20
-325.0
 11
2500.0
 21
-325.0
  0
LINE
  5
EE
100
AcDbEntity
  8
1
  6
CONTINUOUS
 62
           7
100
AcDbLine
 10
2670.0
 20
3974.999999999998
 11
2670.0
 21
3674.999999999998
  0
LINE
  5
ED
100
AcDbEntity
  8
1
  6
CONTINUOUS
 62
           7
100
AcDbLine
 10
2670.0
 20
379.999999999998
 11
2670.0
 21
829.999999999998
  0
LINE
  5
EC
100
AcDbEntity
  8
1
  6
CONTINUOUS
 62
           4
100
AcDbLine
 10
6342.499999999999
 20
1179.999999999998
 11
5382.499999999999
 21
1179.999999999998
  0
LINE
  5
EB
100
AcDbEntity
  8
1
  6
CONTINUOUS
 62
           4
100
AcDbLine
 10
6342.499999999999
 20
-280.0
 11
6342.499999999999
 21
1179.999999999998
  0
LINE
  5
EA
100
AcDbEntity
  8
1
  6
CONTINUOUS
 62
           4
100
AcDbLine
 10
5382.499999999999
 20
-280.0
 11
6342.499999999999
 21
-280.0
  0
LINE
  5
E9
100
AcDbEntity
  8
1
  6
CONTINUOUS
 62
           4
100
AcDbLine
 10
6341.933325304561
 20
-780.0
 11
6341.933325304561
 21
-320.61493847012
  0
LINE
  5
E8
100
AcDbEntity
  8
1
  6
CONTINUOUS
 62
           4
100
AcDbLine
 10
4882.499999999999
 20
-780.0
 11
6341.933325304561
 21
-780.0
  0
LINE
  5
E7
100
AcDbEntity
  8
1
  6
CONTINUOUS
 62
           4
100
AcDbLine
 10
6341.933325304561
 20
-320.61493847012
 11
4882.499999999999
 21
-320.61493847012
  0
LINE
  5
E6
100
AcDbEntity
  8
1
  6
CONTINUOUS
 62
           7
100
AcDbLine
 10
4862.499999999999
 20
-300.0
 11
6362.499999999999
 21
-300.0
  0
LINE
  5
E5
100
AcDbEntity
  8
1
  6
CONTINUOUS
 62
           7
100
AcDbLine
 10
-2550.0
 20
3574.999999999998
 11
2550.0
 21
3574.999999999998
  0
LINE
  5
E4
100
AcDbEntity
  8
1
  6
CONTINUOUS
 62
           7
100
AcDbLine
 10
-2550.0
 20
5574.999999999998
 11
-2550.0
 21
3574.999999999998
  0
LINE
  5
E3
100
AcDbEntity
  8
1
  6
CONTINUOUS
 62
           7
100
AcDbLine
 10
-2550.0
 20
4574.999999999998
 11
-623.196859705828
 21
4574.999999999998
  0
LINE
  5
E2
100
AcDbEntity
  8
1
  6
CONTINUOUS
 62
           7
100
AcDbLine
 10
-2550.0
 20
3624.999999999998
 11
2550.0
 21
3624.999999999998
  0
LINE
  5
E1
100
AcDbEntity
  8
1
  6
CONTINUOUS
 62
           4
100
AcDbLine
 10
-2480.0
 20
4054.999999999998
 11
-2480.0
 21
3624.999999999998
  0
LINE
  5
E0
100
AcDbEntity
  8
1
  6
CONTINUOUS
 62
           7
100
AcDbLine
 10
-2500.0
 20
3624.999999999998
 11
-2500.0
 21
5574.999999999998
  0
LINE
  5
DF
100
AcDbEntity
  8
1
  6
CONTINUOUS
 62
           7
100
AcDbLine
 10
2500.0
 20
3624.999999999998
 11
2500.0
 21
5574.999999999998
  0
LINE
  5
DE
100
AcDbEntity
  8
1
  6
CONTINUOUS
 62
           4
100
AcDbLine
 10
-2480.0
 20
4594.999999999998
 11
-1020.0
 21
4594.999999999998
  0
LINE
  5
DD
100
AcDbEntity
  8
1
  6
CONTINUOUS
 62
           4
100
AcDbLine
 10
-2480.0
 20
4594.999999999998
 11
-2480.0
 21
5554.999999999998
  0
LINE
  5
DC
100
AcDbEntity
  8
1
  6
CONTINUOUS
 62
           7
100
AcDbLine
 10
2550.0
 20
3974.999999999998
 11
2670.0
 21
3974.999999999998
  0
LINE
  5
DB
100
AcDbEntity
  8
1
  6
CONTINUOUS
 62
           7
100
AcDbLine
 10
2550.0
 20
3674.999999999998
 11
2670.0
 21
3674.999999999998
  0
LINE
  5
DA
100
AcDbEntity
  8
1
  6
CONTINUOUS
 62
           7
100
AcDbLine
 10
2550.0
 20
5574.999999999998
 11
0.0
 21
5574.999999999999
  0
LINE
  5
D9
100
AcDbEntity
  8
1
  6
CONTINUOUS
 62
           7
100
AcDbLine
 10
2550.0
 20
379.999999999998
 11
2670.0
 21
379.999999999998
  0
LINE
  5
D8
100
AcDbEntity
  8
1
  6
CONTINUOUS
 62
           7
100
AcDbLine
 10
2550.0
 20
829.999999999998
 11
2670.0
 21
829.999999999998
  0
LINE
  5
D7
100
AcDbEntity
  8
1
  6
CONTINUOUS
 62
           7
100
AcDbLine
 10
2550.0
 20
-800.0
 11
2550.0
 21
1849.999999999998
  0
LINE
  5
D6
100
AcDbEntity
  8
1
  6
CONTINUOUS
 62
           7
100
AcDbLine
 10
2550.0
 20
1849.999999999998
 11
-2550.0
 21
1849.999999999998
  0
LINE
  5
D5
100
AcDbEntity
  8
1
  6
CONTINUOUS
 62
           7
100
AcDbLine
 10
-2550.0
 20
1849.999999999998
 11
-2550.0
 21
-800.0
  0
LINE
  5
D4
100
AcDbEntity
  8
1
  6
CONTINUOUS
 62
           7
100
AcDbLine
 10
2550.0
 20
1699.999999999998
 11
-2550.0
 21
1699.999999999998
  0
LINE
  5
D3
100
AcDbEntity
  8
1
  6
CONTINUOUS
 62
           7
100
AcDbLine
 10
6362.499999999999
 20
-800.0
 11
6362.499999999999
 21
1399.999999999998
  0
LINE
  5
D2
100
AcDbEntity
  8
1
  6
CONTINUOUS
 62
           7
100
AcDbLine
 10
6362.499999999999
 20
1199.999999999998
 11
4862.499999999999
 21
1199.999999999998
  0
LINE
  5
D1
100
AcDbEntity
  8
1
  6
CONTINUOUS
 62
           4
100
AcDbLine
 10
4362.5
 20
1702.999999999998
 11
4862.499999999999
 21
1702.999999999998
  0
LINE
  5
D0
100
AcDbEntity
  8
1
  6
CONTINUOUS
 62
           7
100
AcDbLine
 10
4362.5
 20
1749.999999999998
 11
4862.499999999999
 21
1749.999999999998
  0
LINE
  5
CF
100
AcDbEntity
  8
1
  6
CONTINUOUS
 62
           7
100
AcDbLine
 10
5362.5
 20
1399.999999999998
 11
6362.499999999999
 21
1399.999999999998
  0
LINE
  5
CE
100
AcDbEntity
  8
1
  6
CONTINUOUS
 62
           7
100
AcDbLine
 10
-2500.0
 20
-800.0
 11
-2500.0
 21
1699.999999999998
  0
LINE
  5
CD
100
AcDbEntity
  8
1
  6
CONTINUOUS
 62
           7
100
AcDbLine
 10
2500.0
 20
-800.0
 11
2500.0
 21
1699.999999999998
  0
LINE
  5
CC
100
AcDbEntity
  8
1
  6
CONTINUOUS
 62
           7
100
AcDbLine
 10
2500.0
 20
1099.999999999998
 11
-2500.0
 21
1099.999999999998
  0
LINE
  5
CB
100
AcDbEntity
  8
1
  6
CONTINUOUS
 62
           7
100
AcDbLine
 10
2500.0
 20
-750.0
 11
-2500.0
 21
-750.0
  0
LINE
  5
CA
100
AcDbEntity
  8
1
  6
CONTINUOUS
 62
           7
100
AcDbLine
 10
-2500.0
 20
-400.0
 11
2500.0
 21
-400.0
  0
LINE
  5
C9
100
AcDbEntity
  8
1
  6
CONTINUOUS
 62
           7
100
AcDbLine
 10
2485.0
 20
-260.0
 11
2485.0
 21
-325.0
  0
LINE
  5
C8
100
AcDbEntity
  8
1
  6
CONTINUOUS
 62
           7
100
AcDbLine
 10
-2500.0
 20
-286.14667733237
 11
-2500.0
 21
-227.392914348489
  0
LINE
  5
C7
100
AcDbEntity
  8
1
  6
CONTINUOUS
 62
           7
100
AcDbLine
 10
-2500.0
 20
0.0
 11
2500.0
 21
0.0
  0
LINE
  5
C6
100
AcDbEntity
  8
1
  6
CONTINUOUS
 62
           7
100
AcDbLine
 10
2485.0
 20
-300.0
 11
2500.0
 21
-300.0
  0
LINE
  5
C5
100
AcDbEntity
  8
1
  6
CONTINUOUS
 62
           7
100
AcDbLine
 10
-2500.0
 20
-300.0
 11
-2485.0
 21
-300.0
  0
LINE
  5
C4
100
AcDbEntity
  8
1
  6
DOT_CENTER
 62
           2
100
AcDbLine
 10
0.0
 20
2632.352207025707
 11
0.0
 21
-930.0
  0
LINE
  5
C3
100
AcDbEntity
  8
1
  6
DOT_CENTER
 62
           2
100
AcDbLine
 10
5587.5
 20
-200.0
 11
5737.499999999999
 21
-200.0
  0
LINE
  5
C2
100
AcDbEntity
  8
1
  6
DOT_CENTER
 62
           2
100
AcDbLine
 10
5662.499999999999
 20
-125.0
 11
5662.499999999999
 21
-275.0
  0
LINE
  5
C1
100
AcDbEntity
  8
1
  6
CONTINUOUS
 62
           7
100
AcDbLine
 10
2550.0
 20
3574.999999999998
 11
2550.0
 21
5574.999999999998
  0
LINE
  5
C0
100
AcDbEntity
  8
1
  6
CONTINUOUS
 62
           4
100
AcDbLine
 10
2480.0
 20
5554.999999999998
 11
2480.0
 21
4594.999999999998
  0
LINE
  5
BF
100
AcDbEntity
  8
1
  6
CONTINUOUS
 62
           4
100
AcDbLine
 10
2480.0
 20
4054.999999999998
 11
2480.0
 21
3624.999999999998
  0
LINE
  5
BE
100
AcDbEntity
  8
1
  6
CONTINUOUS
 62
           4
100
AcDbLine
 10
2503.0
 20
5574.999999999998
 11
2503.0
 21
4574.999999999998
  0
LINE
  5
BD
100
AcDbEntity
  8
1
  6
CONTINUOUS
 62
           4
100
AcDbLine
 10
2480.0
 20
5554.999999999998
 11
1020.0
 21
5554.999999999998
  0
LINE
  5
BC
100
AcDbEntity
  8
1
  6
CONTINUOUS
 62
           4
100
AcDbLine
 10
2480.0
 20
4594.999999999998
 11
1020.0
 21
4594.999999999998
  0
LINE
  5
BB
100
AcDbEntity
  8
1
  6
CONTINUOUS
 62
           4
100
AcDbLine
 10
-2503.0
 20
5574.999999999998
 11
-2503.0
 21
4574.999999999998
  0
LINE
  5
BA
100
AcDbEntity
  8
1
  6
CONTINUOUS
 62
           4
100
AcDbLine
 10
-2480.0
 20
4054.999999999998
 11
-1020.0
 21
4054.999999999998
  0
LINE
  5
B9
100
AcDbEntity
  8
1
  6
CONTINUOUS
 62
           7
100
AcDbLine
 10
6862.499999999999
 20
-800.0
 11
3862.5
 21
-800.0
  0
LINE
  5
B8
100
AcDbEntity
  8
1
  6
CONTINUOUS
 62
           4
100
AcDbLine
 10
2480.0
 20
4054.999999999998
 11
1020.0
 21
4054.999999999998
  0
LINE
  5
B7
100
AcDbEntity
  8
1
  6
CONTINUOUS
 62
           4
100
AcDbLine
 10
4362.5
 20
1739.999999999998
 11
4862.499999999999
 21
1739.999999999998
  0
LINE
  5
B6
100
AcDbEntity
  8
1
  6
CONTINUOUS
 62
           4
100
AcDbLine
 10
2540.0
 20
5574.999999999998
 11
2540.0
 21
4574.999999999998
  0
LINE
  5
B5
100
AcDbEntity
  8
1
  6
CONTINUOUS
 62
           4
100
AcDbLine
 10
-2540.0
 20
5574.999999999998
 11
-2540.0
 21
4574.999999999998
  0
LINE
  5
B4
100
AcDbEntity
  8
1
  6
CONTINUOUS
 62
           4
100
AcDbLine
 10
980.0
 20
3624.999999999998
 11
980.0
 21
4054.999999999998
  0
LINE
  5
B3
100
AcDbEntity
  8
1
  6
CONTINUOUS
 62
           7
100
AcDbLine
 10
1000.0
 20
5574.999999999998
 11
1000.0
 21
3624.999999999998
  0
LINE
  5
B2
100
AcDbEntity
  8
1
  6
CONTINUOUS
 62
           4
100
AcDbLine
 10
-1020.0
 20
3624.999999999998
 11
-1020.0
 21
4054.999999999998
  0
LINE
  5
B1
100
AcDbEntity
  8
1
  6
CONTINUOUS
 62
           7
100
AcDbLine
 10
-1000.0
 20
5574.999999999998
 11
-1000.0
 21
3624.999999999998
  0
LINE
  5
B0
100
AcDbEntity
  8
1
  6
CONTINUOUS
 62
           4
100
AcDbLine
 10
-1020.0
 20
4594.999999999998
 11
-1020.0
 21
5554.999999999998
  0
LINE
  5
AF
100
AcDbEntity
  8
1
  6
CONTINUOUS
 62
           4
100
AcDbLine
 10
-980.0
 20
4054.999999999998
 11
-980.0
 21
3624.999999999998
  0
LINE
  5
AE
100
AcDbEntity
  8
1
  6
CONTINUOUS
 62
           4
100
AcDbLine
 10
-980.0
 20
4594.999999999998
 11
-641.09962114652
 21
4594.999999999998
  0
LINE
  5
AD
100
AcDbEntity
  8
1
  6
CONTINUOUS
 62
           4
100
AcDbLine
 10
980.0
 20
4594.999999999998
 11
520.0
 21
4594.999999999998
  0
LINE
  5
AC
100
AcDbEntity
  8
1
  6
CONTINUOUS
 62
           4
100
AcDbLine
 10
980.0
 20
4594.999999999998
 11
980.0
 21
5554.999999999998
  0
LINE
  5
AB
100
AcDbEntity
  8
1
  6
CONTINUOUS
 62
           4
100
AcDbLine
 10
1020.0
 20
4054.999999999998
 11
1020.0
 21
3624.999999999998
  0
LINE
  5
AA
100
AcDbEntity
  8
1
  6
CONTINUOUS
 62
           7
100
AcDbLine
 10
985.0
 20
-325.0
 11
985.0
 21
-260.0
  0
LINE
  5
A9
100
AcDbEntity
  8
1
  6
CONTINUOUS
 62
           7
100
AcDbLine
 10
1015.0
 20
-260.0
 11
1015.0
 21
-325.0
  0
LINE
  5
A8
100
AcDbEntity
  8
1
  6
CONTINUOUS
 62
           7
100
AcDbLine
 10
-1015.0
 20
-325.0
 11
-1015.0
 21
-260.0
  0
LINE
  5
A7
100
AcDbEntity
  8
1
  6
CONTINUOUS
 62
           7
100
AcDbLine
 10
-985.0
 20
-260.0
 11
-985.0
 21
-325.0
  0
LINE
  5
A6
100
AcDbEntity
  8
1
  6
CONTINUOUS
 62
           7
100
AcDbLine
 10
-1000.0
 20
-325.0
 11
-1000.0
 21
-400.0
  0
LINE
  5
A5
100
AcDbEntity
  8
1
  6
CONTINUOUS
 62
           7
100
AcDbLine
 10
1000.0
 20
-325.0
 11
1000.0
 21
-400.0
  0
LINE
  5
A4
100
AcDbEntity
  8
1
  6
CONTINUOUS
 62
           4
100
AcDbLine
 10
-1020.0
 20
5554.999999999998
 11
-2480.0
 21
5554.999999999998
  0
LINE
  5
A3
100
AcDbEntity
  8
1
  6
CONTINUOUS
 62
           4
100
AcDbLine
 10
-980.0
 20
5554.999999999998
 11
-980.0
 21
4594.999999999998
  0
LINE
  5
A2
100
AcDbEntity
  8
1
  6
CONTINUOUS
 62
           4
100
AcDbLine
 10
980.0
 20
5554.999999999998
 11
520.0
 21
5554.999999999998
  0
LINE
  5
A1
100
AcDbEntity
  8
1
  6
CONTINUOUS
 62
           4
100
AcDbLine
 10
1020.0
 20
5554.999999999998
 11
1020.0
 21
4594.999999999998
  0
LINE
  5
A0
100
AcDbEntity
  8
1
  6
CONTINUOUS
 62
           7
100
AcDbLine
 10
1000.0
 20
0.0
 11
1000.0
 21
-300.0
  0
LINE
  5
9F
100
AcDbEntity
  8
1
  6
CONTINUOUS
 62
           7
100
AcDbLine
 10
985.0
 20
-300.0
 11
1015.0
 21
-300.0
  0
LINE
  5
9E
100
AcDbEntity
  8
1
  6
CONTINUOUS
 62
           7
100
AcDbLine
 10
985.0
 20
-260.0
 11
-985.0
 21
-260.0
  0
LINE
  5
9D
100
AcDbEntity
  8
1
  6
CONTINUOUS
 62
           7
100
AcDbLine
 10
-1000.0
 20
-300.0
 11
-1000.0
 21
0.0
  0
LINE
  5
9C
100
AcDbEntity
  8
1
  6
CONTINUOUS
 62
           7
100
AcDbLine
 10
-1015.0
 20
-300.0
 11
-985.0
 21
-300.0
  0
LINE
  5
9B
100
AcDbEntity
  8
1
  6
CONTINUOUS
 62
           7
100
AcDbLine
 10
-1015.0
 20
-260.0
 11
-2485.0
 21
-260.0
  0
LINE
  5
9A
100
AcDbEntity
  8
1
  6
CONTINUOUS
 62
           4
100
AcDbLine
 10
4882.5
 20
1179.999999999998
 11
4882.499999999999
 21
-280.0
  0
LINE
  5
99
100
AcDbEntity
  8
1
  6
CONTINUOUS
 62
           4
100
AcDbLine
 10
4882.499999999999
 20
-320.61493847012
 11
4882.499999999999
 21
-780.0
  0
LINE
  5
98
100
AcDbEntity
  8
1
  6
CONTINUOUS
 62
           7
100
AcDbLine
 10
4862.499999999999
 20
-800.0
 11
4862.499999999999
 21
1749.999999999998
  0
LINE
  5
97
100
AcDbEntity
  8
1
  6
CONTINUOUS
 62
           4
100
AcDbLine
 10
4382.5
 20
1679.999999999998
 11
4382.500000000001
 21
-780.0
  0
LINE
  5
96
100
AcDbEntity
  8
1
  6
CONTINUOUS
 62
           4
100
AcDbLine
 10
4842.499999999999
 20
1679.999999999998
 11
4382.5
 21
1679.999999999998
  0
LINE
  5
95
100
AcDbEntity
  8
1
  6
CONTINUOUS
 62
           4
100
AcDbLine
 10
4842.499999999999
 20
-780.0
 11
4842.499999999999
 21
1679.999999999998
  0
LINE
  5
94
100
AcDbEntity
  8
1
  6
CONTINUOUS
 62
           4
100
AcDbLine
 10
4382.500000000001
 20
-780.0
 11
4842.499999999999
 21
-780.0
  0
LINE
  5
93
100
AcDbEntity
  8
1
  6
CONTINUOUS
 62
           7
100
AcDbLine
 10
4362.5
 20
-800.0
 11
4362.5
 21
1849.999999999998
  0
LINE
  5
92
100
AcDbEntity
  8
1
  6
CONTINUOUS
 62
           7
100
AcDbLine
 10
4362.5
 20
1849.999999999998
 11
4412.500000000001
 21
1849.999999999998
  0
LINE
  5
91
100
AcDbEntity
  8
1
  6
CONTINUOUS
 62
           7
100
AcDbLine
 10
4412.500000000001
 20
1829.999999999998
 11
4412.500000000001
 21
1849.999999999998
  0
LINE
  5
90
100
AcDbEntity
  8
1
  6
CONTINUOUS
 62
           7
100
AcDbLine
 10
4462.499999999999
 20
379.999999999998
 11
4762.499999999999
 21
379.999999999998
  0
LINE
  5
8F
100
AcDbEntity
  8
1
  6
CONTINUOUS
 62
           7
100
AcDbLine
 10
4762.499999999999
 20
379.999999999998
 11
4762.499999999999
 21
829.999999999998
  0
LINE
  5
8E
100
AcDbEntity
  8
1
  6
CONTINUOUS
 62
           7
100
AcDbLine
 10
4762.499999999999
 20
829.999999999998
 11
4462.499999999999
 21
829.999999999998
  0
LINE
  5
8D
100
AcDbEntity
  8
1
  6
CONTINUOUS
 62
           7
100
AcDbLine
 10
4462.499999999999
 20
829.999999999998
 11
4462.499999999999
 21
379.999999999998
  0
LINE
  5
8C
100
AcDbEntity
  8
1
  6
CONTINUOUS
 62
           7
100
AcDbLine
 10
4739.999999999999
 20
379.999999999998
 11
4739.999999999999
 21
312.499999999998
  0
LINE
  5
8B
100
AcDbEntity
  8
1
  6
CONTINUOUS
 62
           7
100
AcDbLine
 10
4724.999999999999
 20
379.999999999998
 11
4724.999999999999
 21
312.499999999998
  0
LINE
  5
8A
100
AcDbEntity
  8
1
  6
CONTINUOUS
 62
           7
100
AcDbLine
 10
4842.499999999999
 20
307.499999999998
 11
4745.0
 21
307.499999999998
  0
LINE
  5
89
100
AcDbEntity
  8
1
  6
CONTINUOUS
 62
           7
100
AcDbLine
 10
4842.499999999999
 20
292.499999999998
 11
4745.0
 21
292.499999999998
  0
LINE
  5
88
100
AcDbEntity
  8
1
  6
CONTINUOUS
 62
           7
100
AcDbLine
 10
4602.499999999999
 20
1071.999999999998
 11
4602.499999999999
 21
1159.999999999998
  0
LINE
  5
87
100
AcDbEntity
  8
1
  6
CONTINUOUS
 62
           7
100
AcDbLine
 10
4412.499999999999
 20
1071.999999999998
 11
4602.499999999999
 21
1071.999999999998
  0
LINE
  5
86
100
AcDbEntity
  8
1
  6
CONTINUOUS
 62
           7
100
AcDbLine
 10
4412.499999999999
 20
1159.999999999998
 11
4412.499999999999
 21
1071.999999999998
  0
LINE
  5
85
100
AcDbEntity
  8
1
  6
CONTINUOUS
 62
           7
100
AcDbLine
 10
4602.499999999999
 20
1159.999999999998
 11
4412.499999999999
 21
1159.999999999998
  0
LINE
  5
84
100
AcDbEntity
  8
1
  6
CONTINUOUS
 62
           7
100
AcDbLine
 10
5092.499999999999
 20
549.999999999998
 11
4912.499999999999
 21
549.999999999998
  0
LINE
  5
83
100
AcDbEntity
  8
1
  6
CONTINUOUS
 62
           7
100
AcDbLine
 10
4912.499999999999
 20
789.999999999998
 11
5092.499999999999
 21
789.999999999998
  0
LINE
  5
82
100
AcDbEntity
  8
1
  6
CONTINUOUS
 62
           7
100
AcDbLine
 10
4912.499999999999
 20
549.999999999998
 11
4912.499999999999
 21
789.999999999998
  0
LINE
  5
81
100
AcDbEntity
  8
1
  6
CONTINUOUS
 62
           7
100
AcDbLine
 10
5092.499999999999
 20
789.999999999998
 11
5092.499999999999
 21
549.999999999998
  0
LINE
  5
80
100
AcDbEntity
  8
1
  6
CONTINUOUS
 62
           4
100
AcDbLine
 10
5342.499999999999
 20
1179.999999999998
 11
4882.5
 21
1179.999999999998
  0
LINE
  5
7F
100
AcDbEntity
  8
1
  6
CONTINUOUS
 62
           7
100
AcDbLine
 10
5362.499999999999
 20
1199.999999999998
 11
5362.5
 21
1399.999999999998
  0
LINE
  5
7E
100
AcDbEntity
  8
1
  6
CONTINUOUS
 62
           7
100
AcDbLine
 10
500.000000000001
 20
4574.999999999998
 11
500.000000000001
 21
4650.927357258016
  0
LINE
  5
7D
100
AcDbEntity
  8
1
  6
CONTINUOUS
 62
           7
100
AcDbLine
 10
-814.0
 20
5574.999999999999
 11
-2550.0
 21
5574.999999999998
  0
LINE
  5
7C
100
AcDbEntity
  8
1
  6
CONTINUOUS
 62
           4
100
AcDbLine
 10
-824.0
 20
5554.999999999998
 11
-980.0
 21
5554.999999999998
  0
LINE
  5
7B
100
AcDbEntity
  8
1
  6
CONTINUOUS
 62
           4
100
AcDbLine
 10
-980.0
 20
4054.999999999998
 11
980.0
 21
4054.999999999998
  0
LINE
  5
7A
100
AcDbEntity
  8
1
  6
DOT_CENTER
 62
           2
100
AcDbLine
 10
-841.59249201616
 20
5035.0
 11
609.277679316332
 21
5035.0
  0
LINE
  5
79
100
AcDbEntity
  8
1
  6
DOT_CENTER
 62
           2
100
AcDbLine
 10
0.000000000002
 20
5774.999999999999
 11
0.000000000002
 21
3468.080224057148
  0
LINE
  5
78
100
AcDbEntity
  8
1
  6
CONTINUOUS
 62
           4
100
AcDbLine
 10
5342.499999999999
 20
-280.0
 11
4882.499999999999
 21
-280.0
  0
LINE
  5
77
100
AcDbEntity
  8
1
  6
CONTINUOUS
 62
           7
100
AcDbLine
 10
4912.499999999999
 20
953.000000000002
 11
4912.499999999999
 21
840.000000000002
  0
LINE
  5
76
100
AcDbEntity
  8
1
  6
CONTINUOUS
 62
           7
100
AcDbLine
 10
5092.499999999999
 20
953.000000000002
 11
4912.499999999999
 21
953.000000000002
  0
LINE
  5
75
100
AcDbEntity
  8
1
  6
CONTINUOUS
 62
           7
100
AcDbLine
 10
5092.499999999999
 20
840.000000000002
 11
5092.499999999999
 21
953.000000000002
  0
LINE
  5
74
100
AcDbEntity
  8
1
  6
CONTINUOUS
 62
           7
100
AcDbLine
 10
4912.499999999999
 20
840.000000000002
 11
5092.499999999999
 21
840.000000000002
  0
LINE
  5
73
100
AcDbEntity
  8
1
  6
CONTINUOUS
 62
           7
100
AcDbLine
 10
-2319.497691536609
 20
186.51352679837
 11
-1175.0
 21
186.51352679837
  0
LINE
  5
72
100
AcDbEntity
  8
1
  6
CONTINUOUS
 62
           7
100
AcDbLine
 10
5362.499999999999
 20
-300.0
 11
5362.499999999999
 21
967.293273528177
  0
LINE
  5
71
100
AcDbEntity
  8
1
  6
CONTINUOUS
 62
           4
100
AcDbLine
 10
5342.499999999999
 20
-280.0
 11
5342.499999999999
 21
911.735001917832
  0
LINE
  5
70
100
AcDbEntity
  8
1
  6
CONTINUOUS
 62
           7
100
AcDbLine
 10
-1000.0
 20
-300.0
 11
-1000.0
 21
1200.000000000002
  0
LINE
  5
6F
100
AcDbEntity
  8
1
  6
CONTINUOUS
 62
           7
100
AcDbLine
 10
1000.0
 20
1200.000000000002
 11
1000.0
 21
-300.0
  0
LINE
  5
6E
100
AcDbEntity
  8
1
  6
CONTINUOUS
 62
           4
100
AcDbLine
 10
5382.499999999999
 20
1180.000000000002
 11
5382.499999999999
 21
1014.464669216339
  0
LINE
  5
6D
100
AcDbEntity
  8
1
  6
CONTINUOUS
 62
           7
100
AcDbLine
 10
2500.0
 20
963.744569986045
 11
-2500.0
 21
963.744569986045
  0
LINE
  5
6C
100
AcDbEntity
  8
___S__
  6
DOT_CENTER
 62
           3
100
AcDbLine
 10
-2325.0
 20
267.06326659646
 11
-2325.000000000001
 21
182.06755636534
  0
LINE
  5
6B
100
AcDbEntity
  8
____
  6
CONTINUOUS
 62
           3
100
AcDbLine
 10
-2319.59594704488
 20
260.459504816181
 11
-2319.59594704488
 21
258.581574068057
  0
LINE
  5
6A
100
AcDbEntity
  8
____
  6
CONTINUOUS
 62
           3
100
AcDbLine
 10
-2329.912775413744
 20
260.92898750321
 11
-2320.087224586255
 21
260.92898750321
  0
LINE
  5
69
100
AcDbEntity
  8
____
  6
CONTINUOUS
 62
           3
100
AcDbLine
 10
-2330.404052955118
 20
258.581574068057
 11
-2330.404052955118
 21
260.459504816181
  0
LINE
  5
68
100
AcDbEntity
  8
____
  6
CONTINUOUS
 62
           3
100
AcDbLine
 10
-2319.497691536608
 20
222.900889853719
 11
-2330.502308463385
 21
222.900889853719
  0
LINE
  5
67
100
AcDbEntity
  8
____
  6
CONTINUOUS
 62
           3
100
AcDbLine
 10
-2319.497691536607
 20
258.581574068057
 11
-2319.497691536608
 21
222.900889853719
  0
LINE
  5
66
100
AcDbEntity
  8
____
  6
CONTINUOUS
 62
           3
100
AcDbLine
 10
-2330.502308463384
 20
258.581574068057
 11
-2319.497691536607
 21
258.581574068057
  0
LINE
  5
65
100
AcDbEntity
  8
____
  6
CONTINUOUS
 62
           3
100
AcDbLine
 10
-2330.502308463385
 20
222.900889853719
 11
-2330.502308463384
 21
258.581574068057
  0
LINE
  5
64
100
AcDbEntity
  8
____
  6
CONTINUOUS
 62
           3
100
AcDbLine
 10
-2330.40405295512
 20
184.403309517211
 11
-2330.40405295512
 21
186.281240265331
  0
LINE
  5
63
100
AcDbEntity
  8
____
  6
CONTINUOUS
 62
           3
100
AcDbLine
 10
-2320.087224586257
 20
183.93382683018
 11
-2329.912775413746
 21
183.93382683018
  0
LINE
  5
62
100
AcDbEntity
  8
____
  6
CONTINUOUS
 62
           3
100
AcDbLine
 10
-2319.595947044882
 20
186.281240265331
 11
-2319.595947044882
 21
184.403309517211
  0
LINE
  5
61
100
AcDbEntity
  8
____
  6
CONTINUOUS
 62
           3
100
AcDbLine
 10
-2330.158414184432
 20
222.900889853719
 11
-2330.158414184432
 21
221.96192447966
  0
LINE
  5
60
100
AcDbEntity
  8
____
  6
CONTINUOUS
 62
           3
100
AcDbLine
 10
-2319.841585815569
 20
222.900889853719
 11
-2330.158414184432
 21
222.900889853719
  0
LINE
  5
5F
100
AcDbEntity
  8
____
  6
CONTINUOUS
 62
           3
100
AcDbLine
 10
-2319.841585815569
 20
221.96192447966
 11
-2319.841585815569
 21
222.900889853719
  0
LINE
  5
5E
100
AcDbEntity
  8
____
  6
CONTINUOUS
 62
           3
100
AcDbLine
 10
-2330.404052955118
 20
260.459504816181
 11
-2319.59594704488
 21
260.459504816181
  0
LINE
  5
5D
100
AcDbEntity
  8
____
  6
CONTINUOUS
 62
           3
100
AcDbLine
 10
-2330.502308463385
 20
221.96192447966
 11
-2319.497691536608
 21
221.96192447966
  0
LINE
  5
5C
100
AcDbEntity
  8
____
  6
CONTINUOUS
 62
           3
100
AcDbLine
 10
-2330.502308463385
 20
186.281240265331
 11
-2330.502308463385
 21
221.96192447966
  0
LINE
  5
5B
100
AcDbEntity
  8
____
  6
CONTINUOUS
 62
           3
100
AcDbLine
 10
-2319.497691536609
 20
186.281240265331
 11
-2330.502308463385
 21
186.281240265331
  0
LINE
  5
5A
100
AcDbEntity
  8
____
  6
CONTINUOUS
 62
           3
100
AcDbLine
 10
-2319.497691536608
 20
221.96192447966
 11
-2319.497691536609
 21
186.281240265331
  0
LINE
  5
59
100
AcDbEntity
  8
____
  6
CONTINUOUS
 62
           3
100
AcDbLine
 10
-2330.404052955118
 20
260.459504816181
 11
-2329.912775413744
 21
260.92898750321
  0
LINE
  5
58
100
AcDbEntity
  8
____
  6
CONTINUOUS
 62
           3
100
AcDbLine
 10
-2320.087224586255
 20
260.92898750321
 11
-2319.59594704488
 21
260.459504816181
  0
LINE
  5
57
100
AcDbEntity
  8
____
  6
CONTINUOUS
 62
           3
100
AcDbLine
 10
-2329.912775413746
 20
183.93382683018
 11
-2330.40405295512
 21
184.403309517211
  0
LINE
  5
56
100
AcDbEntity
  8
____
  6
CONTINUOUS
 62
           3
100
AcDbLine
 10
-2319.595947044882
 20
184.403309517211
 11
-2320.087224586257
 21
183.93382683018
  0
LINE
  5
55
100
AcDbEntity
  8
____
  6
CONTINUOUS
 62
           3
100
AcDbLine
 10
-2330.40405295512
 20
184.403309517211
 11
-2319.595947044882
 21
184.403309517211
  0
LINE
  5
54
100
AcDbEntity
  8
____
  6
CONTINUOUS
 62
           3
100
AcDbLine
 10
-2330.404052955096
 20
738.392880207261
 11
-2319.595947044858
 21
738.392880207261
  0
LINE
  5
53
100
AcDbEntity
  8
____
  6
CONTINUOUS
 62
           3
100
AcDbLine
 10
-2319.595947044858
 20
738.392880207261
 11
-2320.087224586232
 21
737.923397520231
  0
LINE
  5
52
100
AcDbEntity
  8
____
  6
CONTINUOUS
 62
           3
100
AcDbLine
 10
-2329.912775413721
 20
737.923397520231
 11
-2330.404052955096
 21
738.392880207261
  0
LINE
  5
51
100
AcDbEntity
  8
____
  6
CONTINUOUS
 62
           3
100
AcDbLine
 10
-2320.087224586232
 20
814.918558193263
 11
-2319.595947044857
 21
814.449075506234
  0
LINE
  5
50
100
AcDbEntity
  8
____
  6
CONTINUOUS
 62
           3
100
AcDbLine
 10
-2330.404052955095
 20
814.449075506234
 11
-2329.91277541372
 21
814.918558193263
  0
LINE
  5
4F
100
AcDbEntity
  8
____
  6
CONTINUOUS
 62
           3
100
AcDbLine
 10
-2319.497691536592
 20
775.951495169718
 11
-2319.497691536592
 21
740.270810955384
  0
LINE
  5
4E
100
AcDbEntity
  8
____
  6
CONTINUOUS
 62
           3
100
AcDbLine
 10
-2319.497691536592
 20
740.270810955384
 11
-2330.502308463369
 21
740.270810955384
  0
LINE
  5
4D
100
AcDbEntity
  8
____
  6
CONTINUOUS
 62
           3
100
AcDbLine
 10
-2330.502308463369
 20
740.270810955384
 11
-2330.502308463369
 21
775.951495169718
  0
LINE
  5
4C
100
AcDbEntity
  8
____
  6
CONTINUOUS
 62
           3
100
AcDbLine
 10
-2330.502308463369
 20
775.951495169718
 11
-2319.497691536592
 21
775.951495169718
  0
LINE
  5
4B
100
AcDbEntity
  8
____
  6
CONTINUOUS
 62
           3
100
AcDbLine
 10
-2330.404052955095
 20
814.449075506234
 11
-2319.595947044857
 21
814.449075506234
  0
LINE
  5
4A
100
AcDbEntity
  8
____
  6
CONTINUOUS
 62
           3
100
AcDbLine
 10
-2319.841585815545
 20
775.951495169718
 11
-2319.841585815545
 21
776.89046054378
  0
LINE
  5
49
100
AcDbEntity
  8
____
  6
CONTINUOUS
 62
           3
100
AcDbLine
 10
-2319.841585815545
 20
776.89046054378
 11
-2330.158414184408
 21
776.89046054378
  0
LINE
  5
48
100
AcDbEntity
  8
____
  6
CONTINUOUS
 62
           3
100
AcDbLine
 10
-2330.158414184408
 20
776.89046054378
 11
-2330.158414184408
 21
775.951495169718
  0
LINE
  5
47
100
AcDbEntity
  8
____
  6
CONTINUOUS
 62
           3
100
AcDbLine
 10
-2319.595947044858
 20
740.270810955384
 11
-2319.595947044858
 21
738.392880207261
  0
LINE
  5
46
100
AcDbEntity
  8
____
  6
CONTINUOUS
 62
           3
100
AcDbLine
 10
-2320.087224586232
 20
737.923397520231
 11
-2329.912775413721
 21
737.923397520231
  0
LINE
  5
45
100
AcDbEntity
  8
____
  6
CONTINUOUS
 62
           3
100
AcDbLine
 10
-2330.404052955096
 20
738.392880207261
 11
-2330.404052955096
 21
740.270810955384
  0
LINE
  5
44
100
AcDbEntity
  8
____
  6
CONTINUOUS
 62
           3
100
AcDbLine
 10
-2330.502308463369
 20
776.89046054378
 11
-2330.502308463368
 21
812.571144758111
  0
LINE
  5
43
100
AcDbEntity
  8
____
  6
CONTINUOUS
 62
           3
100
AcDbLine
 10
-2330.502308463368
 20
812.571144758111
 11
-2319.497691536591
 21
812.571144758111
  0
LINE
  5
42
100
AcDbEntity
  8
____
  6
CONTINUOUS
 62
           3
100
AcDbLine
 10
-2319.497691536591
 20
812.571144758111
 11
-2319.497691536592
 21
776.89046054378
  0
LINE
  5
41
100
AcDbEntity
  8
____
  6
CONTINUOUS
 62
           3
100
AcDbLine
 10
-2319.497691536592
 20
776.89046054378
 11
-2330.502308463369
 21
776.89046054378
  0
LINE
  5
40
100
AcDbEntity
  8
____
  6
CONTINUOUS
 62
           3
100
AcDbLine
 10
-2330.404052955095
 20
812.571144758111
 11
-2330.404052955095
 21
814.449075506234
  0
LINE
  5
3F
100
AcDbEntity
  8
____
  6
CONTINUOUS
 62
           3
100
AcDbLine
 10
-2329.91277541372
 20
814.918558193263
 11
-2320.087224586232
 21
814.918558193263
  0
LINE
  5
3E
100
AcDbEntity
  8
____
  6
CONTINUOUS
 62
           3
100
AcDbLine
 10
-2319.595947044857
 20
814.449075506234
 11
-2319.595947044857
 21
812.571144758111
  0
LINE
  5
3D
100
AcDbEntity
  8
___S__
  6
DOT_CENTER
 62
           3
100
AcDbLine
 10
-2324.999999999976
 20
821.052837286499
 11
-2324.999999999977
 21
736.05712705539
  0
LINE
  5
3C
100
AcDbEntity
  8
1
  6
CONTINUOUS
 62
           7
100
AcDbLine
 10
-2325.0
 20
141.51352679837
 11
-1175.0
 21
141.51352679837
  0
LINE
  5
3B
100
AcDbEntity
  8
1
  6
CONTINUOUS
 62
           7
100
AcDbLine
 10
-1175.0
 20
141.51352679837
 11
-1175.0
 21
846.282992387803
  0
LINE
  5
3A
100
AcDbEntity
  8
1
  6
CONTINUOUS
 62
           7
100
AcDbLine
 10
-2325.0
 20
141.51352679837
 11
-2325.0
 21
846.282992387803
  0
LINE
  5
39
100
AcDbEntity
  8
1
  6
CONTINUOUS
 62
           7
100
AcDbLine
 10
-1175.0
 20
846.282992387803
 11
-2325.0
 21
846.282992387803
  0
LINE
  5
38
100
AcDbEntity
  8
1
  6
CONTINUOUS
 62
           3
100
AcDbLine
 10
-1235.604203678126
 20
494.328109327062
 11
-1237.992149678107
 21
467.070985327062
  0
LINE
  5
37
100
AcDbEntity
  8
1
  6
CONTINUOUS
 62
           3
100
AcDbLine
 10
-1237.992149678107
 20
523.330711327062
 11
-1235.604203678126
 21
496.073587327062
  0
LINE
  5
36
100
AcDbEntity
  8
1
  6
CONTINUOUS
 62
           3
100
AcDbLine
 10
-1247.451285678126
 20
494.328109327062
 11
-1245.063339678116
 21
467.070985327062
  0
LINE
  5
35
100
AcDbEntity
  8
1
  6
CONTINUOUS
 62
           3
100
AcDbLine
 10
-1245.063339678116
 20
523.330711327062
 11
-1247.451285678126
 21
496.073587327062
  0
LINE
  5
34
100
AcDbEntity
  8
1
  6
DOT_CENTER
 62
           3
100
AcDbLine
 10
-1196.527744678122
 20
495.200848327053
 11
-1286.525199678127
 21
495.200848327053
  0
LINE
  5
33
100
AcDbEntity
  8
1
  6
DOT_CENTER
 62
           3
100
AcDbLine
 10
-1241.527744678122
 20
540.200848327053
 11
-1241.527744678122
 21
450.202277327053
  0
LINE
  5
32
100
AcDbEntity
  8
1
  6
CONTINUOUS
 62
           4
100
AcDbLine
 10
5342.499999999999
 20
941.488764155298
 11
5342.499999999999
 21
1180.000000000002
  0
LINE
  5
31
100
AcDbEntity
  8
1
  6
CONTINUOUS
 62
           7
100
AcDbLine
 10
5362.499999999999
 20
984.157226830839
 11
5362.499999999999
 21
1200.000000000002
  0
LINE
  5
30
100
AcDbEntity
  8
1
  6
CONTINUOUS
 62
           4
100
AcDbLine
 10
5382.499999999999
 20
1000.831132334586
 11
5382.499999999999
 21
-280.0
  0
POINT
  5
2F
100
AcDbEntity
  8
0
 62
           3
100
AcDbPoint
 10
5195.899996721732
 20
565.00000000012
  0
ENDSEC
  0
SECTION
  2
OBJECTS
  0
DICTIONARY
  5
19
100
AcDbDictionary
  3
ACAD_GROUP
350
1A
  3
ACAD_MLINESTYLE
350
1B
  0
DICTIONARY
  5
1A
102
{ACAD_REACTORS
330
19
102
}
100
AcDbDictionary
  0
DICTIONARY
  5
1B
102
{ACAD_REACTORS
330
19
102
}
100
AcDbDictionary
  3
STANDARD
350
1C
  0
MLINESTYLE
  5
1C
102
{ACAD_REACTORS
330
1B
102
}
100
AcDbMlineStyle
  2
STANDARD
 70
           0
  3

 62
           0
 51
90.0
 52
90.0
 71
           2
 49
0.5
 62
         256
  6
BYLAYER
 49
-0.5
 62
         256
  6
BYLAYER
  0
ENDSEC
  0
EOF
