  0
SECTION
  2
HEADER
  9
$ACADVER
  1
AC1014
  9
$ACADMAINTVER
 70
           0
  9
$DWGCODEPAGE
  3
DOS932
  9
$INSBASE
 10
0.0
 20
0.0
 30
0.0
  9
$EXTMIN
 10
1.000000000000E+20
 20
1.000000000000E+20
 30
1.000000000000E+20
  9
$EXTMAX
 10
-1.000000000000E+20
 20
-1.000000000000E+20
 30
-1.000000000000E+20
  9
$LIMMIN
 10
0.0
 20
0.0
  9
$LIMMAX
 10
0.0
 20
0.0
  9
$ORTHOMODE
 70
           0
  9
$REGENMODE
 70
           1
  9
$FILLMODE
 70
           1
  9
$QTEXTMODE
 70
           0
  9
$MIRRTEXT
 70
           1
  9
$DRAGMODE
 70
           2
  9
$LTSCALE
 40
1.0
  9
$OSMODE
 70
           0
  9
$ATTMODE
 70
           1
  9
$TEXTSIZE
 40
0.2
  9
$TRACEWID
 40
0.05
  9
$TEXTSTYLE
  7
STANDARD
  9
$CLAYER
  8
0
  9
$CELTYPE
  6
CONTINUOUS
  9
$CECOLOR
 62
         256
  9
$CELTSCALE
 40
1.0
  9
$DELOBJ
 70
           1
  9
$DISPSILH
 70
           0
  9
$DIMSCALE
 40
1.0
  9
$DIMASZ
 40
0.18
  9
$DIMEXO
 40
0.0625
  9
$DIMDLI
 40
0.38
  9
$DIMRND
 40
0.0
  9
$DIMDLE
 40
0.0
  9
$DIMEXE
 40
0.18
  9
$DIMTP
 40
0.0
  9
$DIMTM
 40
0.0
  9
$DIMTXT
 40
0.18
  9
$DIMCEN
 40
0.09
  9
$DIMTSZ
 40
0.0
  9
$DIMTOL
 70
           0
  9
$DIMLIM
 70
           0
  9
$DIMTIH
 70
           1
  9
$DIMTOH
 70
           1
  9
$DIMSE1
 70
           0
  9
$DIMSE2
 70
           0
  9
$DIMTAD
 70
           0
  9
$DIMZIN
 70
           0
  9
$DIMBLK
  1

  9
$DIMASO
 70
           1
  9
$DIMSHO
 70
           1
  9
$DIMPOST
  1

  9
$DIMAPOST
  1

  9
$DIMALT
 70
           0
  9
$DIMALTD
 70
           2
  9
$DIMALTF
 40
25.4
  9
$DIMLFAC
 40
1.0
  9
$DIMTOFL
 70
           0
  9
$DIMTVP
 40
0.0
  9
$DIMTIX
 70
           0
  9
$DIMSOXD
 70
           0
  9
$DIMSAH
 70
           0
  9
$DIMBLK1
  1

  9
$DIMBLK2
  1

  9
$DIMSTYLE
  2
STANDARD
  9
$DIMCLRD
 70
           0
  9
$DIMCLRE
 70
           0
  9
$DIMCLRT
 70
           0
  9
$DIMTFAC
 40
1.0
  9
$DIMGAP
 40
0.09
  9
$DIMJUST
 70
           0
  9
$DIMSD1
 70
           0
  9
$DIMSD2
 70
           0
  9
$DIMTOLJ
 70
           1
  9
$DIMTZIN
 70
           0
  9
$DIMALTZ
 70
           0
  9
$DIMALTTZ
 70
           0
  9
$DIMFIT
 70
           3
  9
$DIMUPT
 70
           0
  9
$DIMUNIT
 70
           2
  9
$DIMDEC
 70
           4
  9
$DIMTDEC
 70
           4
  9
$DIMALTU
 70
           2
  9
$DIMALTTD
 70
           2
  9
$DIMTXSTY
  7
STANDARD
  9
$DIMAUNIT
 70
           0
  9
$LUNITS
 70
           2
  9
$LUPREC
 70
           4
  9
$SKETCHINC
 40
0.1
  9
$FILLETRAD
 40
0.0
  9
$AUNITS
 70
           0
  9
$AUPREC
 70
           0
  9
$MENU
  1
acad
  9
$ELEVATION
 40
0.0
  9
$PELEVATION
 40
0.0
  9
$THICKNESS
 40
0.0
  9
$LIMCHECK
 70
           0
  9
$BLIPMODE
 70
           1
  9
$CHAMFERA
 40
0.0
  9
$CHAMFERB
 40
0.0
  9
$CHAMFERC
 40
0.0
  9
$CHAMFERD
 40
0.0
  9
$SKPOLY
 70
           0
  9
$TDCREATE
 40
0.000000000
  9
$TDUPDATE
 40
0.000000000
  9
$TDINDWG
 40
0.0000000000
  9
$TDUSRTIMER
 40
0.0000000000
  9
$USRTIMER
 70
           1
  9
$ANGBASE
 50
0.0
  9
$ANGDIR
 70
           0
  9
$PDMODE
 70
           0
  9
$PDSIZE
 40
0.0
  9
$PLINEWID
 40
0.0
  9
$COORDS
 70
           0
  9
$SPLFRAME
 70
           0
  9
$SPLINETYPE
 70
           6
  9
$SPLINESEGS
 70
           8
  9
$ATTDIA
 70
           0
  9
$ATTREQ
 70
           1
  9
$HANDLING
 70
           1
  9
$HANDSEED
  5
38F
  9
$SURFTAB1
 70
           6
  9
$SURFTAB2
 70
           6
  9
$SURFTYPE
 70
           6
  9
$SURFU
 70
           6
  9
$SURFV
 70
           6
  9
$UCSNAME
  2

  9
$UCSORG
 10
0.0
 20
0.0
 30
0.0
  9
$UCSXDIR
 10
1.0
 20
0.0
 30
0.0
  9
$UCSYDIR
 10
0.0
 20
1.0
 30
0.0
  9
$PUCSNAME
  2

  9
$PUCSORG
 10
0.0
 20
0.0
 30
0.0
  9
$PUCSXDIR
 10
1.0
 20
0.0
 30
0.0
  9
$PUCSYDIR
 10
0.0
 20
1.0
 30
0.0
  9
$USERI1
 70
           0
  9
$USERI2
 70
           0
  9
$USERI3
 70
           0
  9
$USERI4
 70
           0
  9
$USERI5
 70
           0
  9
$USERR1
 40
0.0
  9
$USERR2
 40
0.0
  9
$USERR3
 40
0.0
  9
$USERR4
 40
0.0
  9
$USERR5
 40
0.0
  9
$WORLDVIEW
 70
           1
  9
$SHADEDGE
 70
           3
  9
$SHADEDIF
 70
          70
  9
$TILEMODE
 70
           1
  9
$MAXACTVP
 70
          16
  9
$PINSBASE
 10
0.0
 20
0.0
 30
0.0
  9
$PLIMCHECK
 70
           0
  9
$PEXTMIN
 10
1.000000000000E+20
 20
1.000000000000E+20
 30
1.000000000000E+20
  9
$PEXTMAX
 10
-1.000000000000E+20
 20
-1.000000000000E+20
 30
-1.000000000000E+20
  9
$PLIMMIN
 10
0.0
 20
0.0
  9
$PLIMMAX
 10
12.0
 20
9.0
  9
$UNITMODE
 70
           0
  9
$VISRETAIN
 70
           0
  9
$PLINEGEN
 70
           1
  9
$PSLTSCALE
 70
           0
  9
$TREEDEPTH
 70
        3020
  9
$PICKSTYLE
 70
           1
  9
$CMLSTYLE
  2
STANDARD
  9
$CMLJUST
 70
           0
  9
$CMLSCALE
 40
1.0
  9
$PROXYGRAPHICS
 70
           0
  9
$MEASUREMENT
 70
           0
  0
ENDSEC
  0
SECTION
  2
CLASSES
  0
CLASS
  1
LWPOLYLINE
  2
AcDbPolyline
  3
"AutoCAD"
 90
        0
280
           0
281
           1
  0
CLASS
  1
IMAGE
  2
AcDbRasterImage
  3
ISM
 90
      127
280
           0
281
           1
  0
CLASS
  1
OLE2FRAME
  2
AcDbOle2Frame
  3
""
 90
        0
280
           0
281
           1
  0
CLASS
  1
HATCH
  2
AcDbHatch
  3
"ACAD_SEDONA"
 90
        0
280
           0
281
           1
  0
CLASS
  1
DICTIONARYVAR
  2
AcDbDictionaryVar
  3
"AutoCAD"
 90
        0
280
           0
281
           0
  0
CLASS
  1
RASTERVARIABLES
  2
AcDbRasterVariables
  3
ISM
 90
        0
280
           0
281
           0
  0
CLASS
  1
IMAGEDEF
  2
AcDbRasterImageDef
  3
ISM
 90
        0
280
           0
281
           0
  0
CLASS
  1
IMAGEDEF_REACTOR
  2
AcDbRasterImageDefReactor
  3
ISM
 90
        1
280
           0
281
           0
  0
CLASS
  1
IDBUFFER
  2
AcDbIdBuffer
  3
"Acad"
 90
        0
280
           0
281
           0
  0
CLASS
  1
SPATIAL_FILTER
  2
AcDbSpatialFilter
  3
"Acad"
 90
        0
280
           0
281
           0
  0
CLASS
  1
XRECORD
  2
AcDbXrecord
  3
"<Built In>"
 90
        0
280
           0
281
           0
  0
CLASS
  1
SORTENTSTABLE
  2
AcDbSortentsTable
  3
"AutoCAD"
 90
        0
280
           0
281
           0
  0
CLASS
  1
LAYER_INDEX
  2
AcDbLayerIndex
  3
"Acad"
 90
        0
280
           0
281
           0
  0
CLASS
  1
SPATIAL_INDEX
  2
AcDbSpatialIndex
  3
"Acad"
 90
        0
280
           0
281
           0
  0
CLASS
  1
OBJECT_PTR
  2
CAseDLPNTableRecord
  3
"ASE-LPNTableRecord"
 90
        1
280
           0
281
           0
  0
CLASS
  1
LAYOUT
  2
AcDbLayout
  3
"AutoCAD 2000"
 90
        1
280
           0
281
           0
  0
CLASS
  1
PLOTSETTINGS
  2
AcDbPlotSettings
  3
"AutoCAD 2000"
 90
        1
280
           0
281
           0
  0
CLASS
  1
ACDBDICTIONARYWDFLT
  2
AcDbDictionaryWithDefault
  3
"AutoCAD 2000"
 90
        1
280
           0
281
           0
  0
CLASS
  1
ACDBPLACEHOLDER
  2
AcDbPlaceHolder
  3
"AutoCAD 2000"
 90
        1
280
           0
281
           0
  0
CLASS
  1
VBA_PROJECT
  2
AcDbVbaProject
  3
"acadvba"
 90
        1
280
           0
281
           0
  0
CLASS
  1
WIPEOUT
  2
AcDbWipeout
  3
WipeOut|AutoCAD Express Tool|expresstools@autodesk.com
 90
      127
280
           0
281
           1
  0
CLASS
  1
WIPEOUTVARIABLES
  2
AcDbWipeoutVariables
  3
WipeOut|AutoCAD Express Tool|expresstools@autodesk.com
 90
        0
280
           0
281
           0
  0
CLASS
  1
RTEXT
  2
RText
  3
RText|AutoCAD Express Tool|expresstools@autodesk.com
 90
        0
280
           0
281
           1
  0
CLASS
  1
ARCALIGNEDTEXT
  2
AcDbArcAlignedText
  3
ATEXT|AutoCAD Express Tool|expresstools@autodesk.com
 90
        0
280
           0
281
           1
  0
ENDSEC
  0
SECTION
  2
TABLES
  0
TABLE
  2
VPORT
  5
7
100
AcDbSymbolTable
 70
           1
  0
VPORT
  5
15
100
AcDbSymbolTableRecord
100
AcDbViewportTableRecord
  2
*ACTIVE
 70
           0
 10
0.0
 20
0.0
 11
1.0
 21
1.0
 12
6.591288
 22
4.579184
 13
0.0
 23
0.0
 14
1.0
 24
1.0
 15
0.0
 25
0.0
 16
0.0
 26
0.0
 36
1.0
 17
0.0
 27
0.0
 37
0.0
 40
9.158369
 41
0.688564
 42
50.0
 43
0.0
 44
0.0
 50
0.0
 51
0.0
 71
           0
 72
         100
 73
           1
 74
           1
 75
           0
 76
           0
 77
           0
 78
           0
  0
ENDTAB
  0
TABLE
  2
LTYPE
  5
4
100
AcDbSymbolTable
 70
          10
  0
LTYPE
  5
11
100
AcDbSymbolTableRecord
100
AcDbLinetypeTableRecord
  2
BYBLOCK
 70
          64
  3

 72
          65
 73
           0
 40
0.0
  0
LTYPE
  5
12
100
AcDbSymbolTableRecord
100
AcDbLinetypeTableRecord
  2
BYLAYER
 70
          64
  3

 72
          65
 73
           0
 40
0.0
  0
LTYPE
  5
13
100
AcDbSymbolTableRecord
100
AcDbLinetypeTableRecord
  2
CONTINUOUS
 70
          64
  3
Solid line
 72
          65
 73
           0
 40
0.0
  0
LTYPE
  5
1D
100
AcDbSymbolTableRecord
100
AcDbLinetypeTableRecord
  2
DASHED
 70
          64
  3
Dashed
 72
          65
 73
           2
 40
15.0
 49
12.0
 74
           0
 49
-3.0
 74
           0
  0
LTYPE
  5
1E
100
AcDbSymbolTableRecord
100
AcDbLinetypeTableRecord
  2
DOTTED
 70
          64
  3
Dotted
 72
          65
 73
           2
 40
3.5
 49
0.5
 74
           0
 49
-3.0
 74
           0
  0
LTYPE
  5
1F
100
AcDbSymbolTableRecord
100
AcDbLinetypeTableRecord
  2
DOT_CENTER
 70
          64
  3
Dot_Center
 72
          65
 73
           4
 40
2.0
 49
1.25
 74
           0
 49
-0.25
 74
           0
 49
0.25
 74
           0
 49
-0.25
 74
           0
  0
LTYPE
  5
20
100
AcDbSymbolTableRecord
100
AcDbLinetypeTableRecord
  2
LONG_DASHED
 70
          64
  3
Long_Dashed
 72
          65
 73
           2
 40
2.0
 49
1.5
 74
           0
 49
-0.5
 74
           0
  0
LTYPE
  5
21
100
AcDbSymbolTableRecord
100
AcDbLinetypeTableRecord
  2
DASH_CENTER
 70
          64
  3
Dash_Center
 72
          65
 73
           4
 40
36.0
 49
24.0
 74
           0
 49
-3.0
 74
           0
 49
6.0
 74
           0
 49
-3.0
 74
           0
  0
LTYPE
  5
22
100
AcDbSymbolTableRecord
100
AcDbLinetypeTableRecord
  2
PHANTOM
 70
          64
  3
Phantom
 72
          65
 73
           6
 40
2.5
 49
1.25
 74
           0
 49
-0.25
 74
           0
 49
0.25
 74
           0
 49
-0.25
 74
           0
 49
0.25
 74
           0
 49
-0.25
 74
           0
  0
LTYPE
  5
23
100
AcDbSymbolTableRecord
100
AcDbLinetypeTableRecord
  2
CENTER_DASH_DASH
 70
          64
  3
Center_Dash_Dash
 72
          65
 73
           6
 40
22.0
 49
12.0
 74
           0
 49
-3.0
 74
           0
 49
0.5
 74
           0
 49
-3.0
 74
           0
 49
0.5
 74
           0
 49
-3.0
 74
           0
  0
ENDTAB
  0
TABLE
  2
LAYER
  5
2
100
AcDbSymbolTable
 70
           7
  0
LAYER
  5
14
100
AcDbSymbolTableRecord
100
AcDbLayerTableRecord
  2
0
 70
           0
 62
           7
  6
CONTINUOUS
  0
LAYER
  5
24
100
AcDbSymbolTableRecord
100
AcDbLayerTableRecord
  2
___S__
 70
           0
 62
           7
  6
CONTINUOUS
  0
LAYER
  5
25
100
AcDbSymbolTableRecord
100
AcDbLayerTableRecord
  2
FORMAT
 70
           0
 62
           7
  6
CONTINUOUS
  0
LAYER
  5
26
100
AcDbSymbolTableRecord
100
AcDbLayerTableRecord
  2
1
 70
           0
 62
           7
  6
CONTINUOUS
  0
LAYER
  5
27
100
AcDbSymbolTableRecord
100
AcDbLayerTableRecord
  2
2
 70
           0
 62
           7
  6
CONTINUOUS
  0
LAYER
  5
28
100
AcDbSymbolTableRecord
100
AcDbLayerTableRecord
  2
7
 70
           0
 62
           7
  6
CONTINUOUS
  0
LAYER
  5
29
100
AcDbSymbolTableRecord
100
AcDbLayerTableRecord
  2
____
 70
           0
 62
           7
  6
CONTINUOUS
  0
ENDTAB
  0
TABLE
  2
STYLE
  5
3
100
AcDbSymbolTable
 70
           1
  0
STYLE
  5
17
100
AcDbSymbolTableRecord
100
AcDbTextStyleTableRecord
  2
STANDARD
 70
           0
 40
0.0
 41
1.0
 50
0.0
 71
           0
 42
0.0
  3
txt
  4

  0
ENDTAB
  0
TABLE
  2
VIEW
  5
5
100
AcDbSymbolTable
 70
           0
  0
ENDTAB
  0
TABLE
  2
UCS
  5
6
100
AcDbSymbolTable
 70
           0
  0
ENDTAB
  0
TABLE
  2
APPID
  5
8
100
AcDbSymbolTable
 70
           1
  0
APPID
  5
16
100
AcDbSymbolTableRecord
100
AcDbRegAppTableRecord
  2
ACAD
 70
           0
  0
ENDTAB
  0
TABLE
  2
DIMSTYLE
  5
9
100
AcDbSymbolTable
 70
           1
  0
DIMSTYLE
105
18
100
AcDbSymbolTableRecord
100
AcDbDimStyleTableRecord
  2
STANDARD
 70
           0
  3

  4

  5

  6

  7

 40
1.0
 41
0.18
 42
0.0625
 43
0.38
 44
0.18
 45
0.0
 46
0.0
 47
0.0
 48
0.0
 71
           0
 72
           0
 73
           1
 74
           1
 75
           0
 76
           0
 77
           0
 78
           0
140
0.18
141
0.09
142
0.0
143
25.4
144
1.0
145
0.0
146
1.0
147
0.09
170
           0
171
           2
172
           0
173
           0
174
           0
175
           0
176
           0
177
           0
178
           0
270
           2
271
           4
272
           4
273
           2
274
           2
275
           0
280
           0
281
           0
282
           0
283
           1
284
           0
285
           0
286
           0
287
           0
288
           0
340
17
  0
ENDTAB
  0
TABLE
  2
BLOCK_RECORD
  5
1
100
AcDbSymbolTable
 70
           0
  0
BLOCK_RECORD
  5
A
100
AcDbSymbolTableRecord
100
AcDbBlockTableRecord
  2
*MODEL_SPACE
  0
BLOCK_RECORD
  5
B
100
AcDbSymbolTableRecord
100
AcDbBlockTableRecord
  2
*PAPER_SPACE
  0
ENDTAB
  0
ENDSEC
  0
SECTION
  2
BLOCKS
  0
BLOCK
  5
D
100
AcDbEntity
  8
0
100
AcDbBlockBegin
  2
*MODEL_SPACE
 70
           0
 10
0.0
 20
0.0
 30
0.0
  3
*MODEL_SPACE
  1

  0
ENDBLK
  5
E
100
AcDbEntity
  8
0
100
AcDbBlockEnd
  0
BLOCK
  5
F
100
AcDbEntity
 67
           1
  8
0
100
AcDbBlockBegin
  2
*PAPER_SPACE
 70
           0
 10
0.0
 20
0.0
 30
0.0
  3
*PAPER_SPACE
  1

  0
ENDBLK
  5
10
100
AcDbEntity
 67
           1
  8
0
100
AcDbBlockEnd
  0
ENDSEC
  0
SECTION
  2
ENTITIES
  0
HATCH
  5
38D
100
AcDbEntity
  8
0
  6
CONTINUOUS
 62
           2
100
AcDbHatch
 10
0.0
 20
0.0
 30
0.0
210
0.0
220
0.0
230
1.0
  2
USER
 70
           0
 71
           1
 91
        1
 92
        1
 93
        8
 72
           1
 10
3402.0000000000018
 20
1739.750000000002
 11
3479.3589879047031
 21
1739.750000000002
 72
           2
 10
3402.0000000000018
 20
1756.750000000002
 40
17.0
 50
180.0
 51
-90.0
 73
           1
 72
           1
 10
3385.0000000000018
 20
1756.750000000002
 11
3385.0000000000018
 21
1770.000000000002
 72
           1
 10
3385.0000000000018
 20
1770.000000000002
 11
3365.0000000000018
 21
1770.000000000002
 72
           1
 10
3365.0000000000018
 20
1770.000000000002
 11
3365.0000000000018
 21
1756.750000000002
 72
           2
 10
3402.0000000000018
 20
1756.750000000002
 40
37.0
 50
180.0
 51
-90.0
 73
           1
 72
           1
 10
3402.0000000000018
 20
1719.750000000002
 11
3472.8757424576361
 21
1719.750000000002
 72
           1
 10
3472.8757424576361
 20
1719.750000000002
 11
3479.3589879047031
 21
1739.750000000002
 97
        7
330
B6
330
30B
330
376
330
B7
330
30C
330
B5
330
375
 75
           1
 76
           0
 52
45.0
 41
10.0
 77
           0
 78
           1
 53
45.0
 43
0.0
 44
0.0
 45
-7.0710678118654746
 46
7.0710678118654755
 79
           0
 98
        1
 10
0.0
 20
0.0
  0
ARC
  5
38C
100
AcDbEntity
  8
1
  6
CONTINUOUS
 62
           3
100
AcDbCircle
 10
3898.163567691039
 20
1917.80625341996
 40
0.5
100
AcDbArc
 50
180.0
 51
-90.0
  0
ARC
  5
38B
100
AcDbEntity
  8
1
  6
CONTINUOUS
 62
           3
100
AcDbCircle
 10
3898.163567691039
 20
1932.19374658004
 40
0.5
100
AcDbArc
 50
90.0
 51
180.0
  0
ARC
  5
38A
100
AcDbEntity
  8
1
  6
CONTINUOUS
 62
           3
100
AcDbCircle
 10
3749.899998122326
 20
1641.000000000001
 40
280.0
100
AcDbArc
 50
90.0
 51
180.0
  0
ARC
  5
389
100
AcDbEntity
  8
1
  6
CONTINUOUS
 62
           3
100
AcDbCircle
 10
3749.899996810931
 20
1641.0
 40
288.0
100
AcDbArc
 50
90.0
 51
180.0
  0
ARC
  5
388
100
AcDbEntity
  8
1
  6
CONTINUOUS
 62
           4
100
AcDbCircle
 10
109.265668111723
 20
5817.215598018147
 40
10.0
100
AcDbArc
 50
90.0
 51
120.43059420572
  0
ARC
  5
387
100
AcDbEntity
  8
1
  6
CONTINUOUS
 62
           4
100
AcDbCircle
 10
109.265668111723
 20
5759.715598018147
 40
10.000000000001
100
AcDbArc
 50
-120.43059420571
 51
-90.0
  0
ARC
  5
386
100
AcDbEntity
  8
1
  6
CONTINUOUS
 62
           7
100
AcDbCircle
 10
123.946258446662
 20
5754.715598018147
 40
10.0
100
AcDbArc
 50
180.0
 51
-90.0
  0
ARC
  5
385
100
AcDbEntity
  8
1
  6
CONTINUOUS
 62
           7
100
AcDbCircle
 10
123.946258446662
 20
5822.215598018147
 40
10.0
100
AcDbArc
 50
90.0
 51
180.0
  0
ARC
  5
384
100
AcDbEntity
  8
1
  6
CONTINUOUS
 62
           7
100
AcDbCircle
 10
156.500000000001
 20
5754.715598018147
 40
10.0
100
AcDbArc
 50
-90.0
 51
0.0
  0
ARC
  5
383
100
AcDbEntity
  8
1
  6
CONTINUOUS
 62
           7
100
AcDbCircle
 10
156.500000000001
 20
5822.215598018147
 40
10.0
100
AcDbArc
 50
0.0
 51
90.0
  0
ARC
  5
382
100
AcDbEntity
  8
1
  6
CONTINUOUS
 62
           4
100
AcDbCircle
 10
4544.500000000003
 20
2659.5
 40
1.0
100
AcDbArc
 50
0.0
 51
90.0
  0
ARC
  5
381
100
AcDbEntity
  8
1
  6
CONTINUOUS
 62
           4
100
AcDbCircle
 10
4555.500000000003
 20
2659.5
 40
1.0
100
AcDbArc
 50
90.0
 51
180.0
  0
ARC
  5
380
100
AcDbEntity
  8
1
  6
CONTINUOUS
 62
           4
100
AcDbCircle
 10
4544.500000000003
 20
3110.500000000002
 40
1.0
100
AcDbArc
 50
-89.999999999948
 51
0.0
  0
ARC
  5
37F
100
AcDbEntity
  8
1
  6
CONTINUOUS
 62
           4
100
AcDbCircle
 10
4555.500000000003
 20
3110.500000000002
 40
1.0
100
AcDbArc
 50
180.0
 51
-90.0
  0
ARC
  5
37E
100
AcDbEntity
  8
1
  6
CONTINUOUS
 62
           7
100
AcDbCircle
 10
4073.750000000003
 20
3235.000000000001
 40
10.0
100
AcDbArc
 50
-90.0
 51
0.0
  0
ARC
  5
37D
100
AcDbEntity
  8
1
  6
CONTINUOUS
 62
           7
100
AcDbCircle
 10
4006.250000000003
 20
3235.000000000001
 40
10.0
100
AcDbArc
 50
180.0
 51
-90.0
  0
ARC
  5
37C
100
AcDbEntity
  8
1
  6
CONTINUOUS
 62
           7
100
AcDbCircle
 10
4073.750000000003
 20
3295.000000000001
 40
10.0
100
AcDbArc
 50
0.0
 51
90.0
  0
ARC
  5
37B
100
AcDbEntity
  8
1
  6
CONTINUOUS
 62
           7
100
AcDbCircle
 10
4006.250000000003
 20
3295.000000000001
 40
10.0
100
AcDbArc
 50
90.0
 51
180.0
  0
ARC
  5
37A
100
AcDbEntity
  8
1
  6
CONTINUOUS
 62
           7
100
AcDbCircle
 10
118.613664000001
 20
3235.000000000001
 40
10.0
100
AcDbArc
 50
180.0
 51
-90.0
  0
ARC
  5
379
100
AcDbEntity
  8
1
  6
CONTINUOUS
 62
           7
100
AcDbCircle
 10
118.613664000001
 20
3295.000000000001
 40
10.0
100
AcDbArc
 50
90.0
 51
180.0
  0
ARC
  5
378
100
AcDbEntity
  8
1
  6
CONTINUOUS
 62
           7
100
AcDbCircle
 10
156.5
 20
3235.000000000001
 40
10.0
100
AcDbArc
 50
-90.0
 51
0.0
  0
ARC
  5
377
100
AcDbEntity
  8
1
  6
CONTINUOUS
 62
           7
100
AcDbCircle
 10
156.5
 20
3295.000000000001
 40
10.0
100
AcDbArc
 50
0.0
 51
90.0
  0
LWPOLYLINE
  5
376
100
AcDbEntity
  8
1
  6
CONTINUOUS
 62
           7
 60
           1
100
AcDbPolyline
 90
        3
 70
           0
 10
3385.000000000002
 20
1756.750000000002
 10
3385.000000000002
 20
1770.000000000002
 10
3365.000000000002
 20
1770.000000000002
  0
LWPOLYLINE
  5
375
100
AcDbEntity
  8
1
  6
CONTINUOUS
 62
           7
 60
           1
100
AcDbPolyline
 90
        2
 70
           0
 10
3472.875742457636
 20
1719.750000000002
 10
3479.358987904703
 20
1739.750000000002
  0
SPLINE
  5
374
100
AcDbEntity
  8
0
  6
CONTINUOUS
 62
           3
100
AcDbSpline
210
0.0
220
0.0
230
1.0
 70
           0
 71
           3
 72
           8
 73
           5
 74
           7
 42
0.00000000001
 43
0.00000000001
 44
0.00000000001
 40
0.0
 40
0.0
 40
0.0
 40
0.2989651950314283
 40
0.4296296276529574
 40
0.4465803504019732
 40
0.4465803504019732
 40
0.4465803504019732
 10
3420.899996609865
 20
1384.6465796233019
 30
0.0
 10
3420.8999966099109
 20
1384.4669365634261
 30
0.0
 10
3420.8999966099109
 20
1384.2282922931149
 30
0.0
 10
3420.8999966099109
 20
1384.205607698183
 30
0.0
 10
3420.8999966099109
 20
1384.1999992729
 30
0.0
 11
3420.899996609865
 21
1384.6465796233019
 31
0.0
 11
3420.8999966098995
 21
1384.4703311443234
 31
0.0
 11
3420.8999966099109
 21
1384.3008718271403
 31
0.0
 11
3420.8999966099109
 21
1384.2414172487579
 31
0.0
 11
3420.8999966099109
 21
1384.2082125816614
 31
0.0
 11
3420.8999966099113
 21
1384.2048568127318
 31
0.0
 11
3420.8999966099109
 21
1384.1999992729
 31
0.0
  0
SPLINE
  5
373
100
AcDbEntity
  8
0
  6
CONTINUOUS
 62
           3
100
AcDbSpline
210
0.0
220
0.0
230
1.0
 70
           0
 71
           3
 72
           8
 73
           5
 74
           7
 42
0.00000000001
 43
0.00000000001
 44
0.00000000001
 40
0.0
 40
0.0
 40
0.0
 40
0.0169507227490158
 40
0.1476151553705449
 40
0.4465803504019732
 40
0.4465803504019732
 40
0.4465803504019732
 10
3410.8999968334369
 20
1384.1999992729
 30
0.0
 10
3410.8999968334369
 20
1384.205607698183
 30
0.0
 10
3410.8999968334369
 20
1384.2282922931149
 30
0.0
 10
3410.8999968334369
 20
1384.4669365634261
 30
0.0
 10
3410.8999968334738
 20
1384.6465796233019
 30
0.0
 11
3410.8999968334369
 21
1384.1999992729
 31
0.0
 11
3410.8999968334369
 21
1384.2048568127318
 31
0.0
 11
3410.8999968334365
 21
1384.2082125816612
 31
0.0
 11
3410.8999968334365
 21
1384.2414172487579
 31
0.0
 11
3410.8999968334369
 21
1384.3008718271403
 31
0.0
 11
3410.899996833446
 21
1384.4703311443236
 31
0.0
 11
3410.8999968334738
 21
1384.6465796233019
 31
0.0
  0
SPLINE
  5
372
100
AcDbEntity
  8
0
  6
CONTINUOUS
 62
           3
100
AcDbSpline
210
0.0
220
0.0
230
1.0
 70
           0
 71
           3
 72
           8
 73
           5
 74
           7
 42
0.00000000001
 43
0.00000000001
 44
0.00000000001
 40
0.0
 40
0.0
 40
0.0
 40
0.4813883392787711
 40
1.3325653926385375
 40
2.5594910488265192
 40
2.5594910488265192
 40
2.5594910488265192
 10
3418.3999966657661
 20
1384.1999992729
 30
0.0
 10
3418.459261471944
 20
1384.2004449713099
 30
0.0
 10
3419.3034813132908
 20
1384.2067938900659
 30
0.0
 10
3420.1307773327808
 20
1384.4346858415561
 30
0.0
 10
3420.899996609865
 20
1384.6465796233019
 30
0.0
 11
3418.3999966657661
 21
1384.1999992729
 31
0.0
 11
3418.5206887308814
 21
1384.2009069323501
 31
0.0
 11
3418.7642353138713
 21
1384.2027385138806
 31
0.0
 11
3419.253383550742
 21
1384.2291158030616
 31
0.0
 11
3419.6423362625146
 21
1384.3001369182343
 31
0.0
 11
3420.2009718844852
 21
1384.4540220561621
 31
0.0
 11
3420.899996609865
 21
1384.6465796233019
 31
0.0
  0
SPLINE
  5
371
100
AcDbEntity
  8
0
  6
CONTINUOUS
 62
           3
100
AcDbSpline
210
0.0
220
0.0
230
1.0
 70
           0
 71
           3
 72
           8
 73
           5
 74
           7
 42
0.00000000001
 43
0.00000000001
 44
0.00000000001
 40
0.0
 40
0.0
 40
0.0
 40
0.4813884775015296
 40
1.3325655942391104
 40
2.5594910572492924
 40
2.5594910572492924
 40
2.5594910572492924
 10
3413.3999967775562
 20
1384.1999992729
 30
0.0
 10
3413.4592615843881
 20
1384.200444971553
 30
0.0
 10
3414.3034817008352
 20
1384.206793895828
 30
0.0
 10
3415.1307775679602
 20
1384.4346858417271
 30
0.0
 10
3415.8999967216728
 20
1384.6465796232951
 30
0.0
 11
3413.3999967775562
 21
1384.1999992729
 31
0.0
 11
3413.5206888783646
 21
1384.2009069331089
 31
0.0
 11
3413.7642355671246
 21
1384.202738516429
 31
0.0
 11
3414.2533839007106
 21
1384.229115810643
 31
0.0
 11
3414.6423366340473
 21
1384.3001369344865
 31
0.0
 11
3415.2009721229106
 21
1384.4540220603092
 31
0.0
 11
3415.8999967216728
 21
1384.6465796232951
 31
0.0
  0
SPLINE
  5
370
100
AcDbEntity
  8
0
  6
CONTINUOUS
 62
           3
100
AcDbSpline
210
0.0
220
0.0
230
1.0
 70
           0
 71
           3
 72
           8
 73
           5
 74
           7
 42
0.00000000001
 43
0.00000000001
 44
0.00000000001
 40
0.0
 40
0.0
 40
0.0
 40
0.2779454797525598
 40
0.7862825386945511
 40
1.5429638907265533
 40
1.5429638907265533
 40
1.5429638907265533
 10
3411.5698696873401
 20
1367.5999939442561
 30
0.0
 10
3411.6040862319201
 20
1367.6004396365131
 30
0.0
 10
3412.091496950035
 20
1367.606788471174
 30
0.0
 10
3412.5691364171889
 20
1367.834684325677
 30
0.0
 10
3413.013245287842
 20
1368.046581745235
 30
0.0
 11
3411.5698696873401
 21
1367.5999939442561
 31
0.0
 11
3411.6386061814937
 21
1367.6008892808161
 31
0.0
 11
3411.7763825747943
 21
1367.6026839059823
 31
0.0
 11
3412.0607022116101
 21
1367.6286568402281
 31
0.0
 11
3412.2834323715761
 21
1367.6983665125829
 31
0.0
 11
3412.6087376234491
 21
1367.853579227293
 31
0.0
 11
3413.013245287842
 21
1368.046581745235
 31
0.0
  0
SPLINE
  5
36F
100
AcDbEntity
  8
0
  6
CONTINUOUS
 62
           3
100
AcDbSpline
210
0.0
220
0.0
230
1.0
 70
           0
 71
           3
 72
           8
 73
           5
 74
           7
 42
0.00000000001
 43
0.00000000001
 44
0.00000000001
 40
0.0
 40
0.0
 40
0.0
 40
0.2779464854274467
 40
0.7862840843639157
 40
1.5429642658504845
 40
1.5429642658504845
 40
1.5429642658504845
 10
3411.5698696873401
 20
1372.6000040770409
 30
0.0
 10
3411.5356531379821
 20
1372.5995583816691
 30
0.0
 10
3411.0482404188901
 20
1372.59320947744
 30
0.0
 10
3410.5706019393469
 20
1372.365313693474
 30
0.0
 10
3410.126493853973
 20
1372.1534162761091
 30
0.0
 11
3411.5698696873401
 21
1372.6000040770409
 31
0.0
 11
3411.501132941592
 21
1372.5991087310697
 31
0.0
 11
3411.3633558030642
 21
1372.5973140838996
 31
0.0
 11
3411.0790354338742
 21
1372.5713410900569
 31
0.0
 11
3410.8563050946532
 21
1372.5016313214473
 31
0.0
 11
3410.5310007068301
 21
1372.3464187461261
 31
0.0
 11
3410.126493853973
 21
1372.1534162761091
 31
0.0
  0
SPLINE
  5
36E
100
AcDbEntity
  8
0
  6
CONTINUOUS
 62
           3
100
AcDbSpline
210
0.0
220
0.0
230
1.0
 70
           0
 71
           3
 72
           8
 73
           5
 74
           7
 42
0.00000000001
 43
0.00000000001
 44
0.00000000001
 40
0.0
 40
0.0
 40
0.0
 40
0.277946485425947
 40
0.7862840843605381
 40
1.5429642658924829
 40
1.5429642658924829
 40
1.5429642658924829
 10
3420.2301237560082
 20
1367.5999939442561
 30
0.0
 10
3420.2643403053662
 20
1367.6004396396349
 30
0.0
 10
3420.751753024455
 20
1367.606788543864
 30
0.0
 10
3421.2293915040009
 20
1367.834684327823
 30
0.0
 10
3421.6734995893662
 20
1368.0465817453121
 30
0.0
 11
3420.2301237560082
 21
1367.5999939442561
 31
0.0
 11
3420.2988605017558
 21
1367.6008892902328
 31
0.0
 11
3420.4366376402827
 21
1367.6026839374044
 31
0.0
 11
3420.7209580094695
 21
1367.6286569312458
 31
0.0
 11
3420.9436883486851
 21
1367.6983666998503
 31
0.0
 11
3421.2689927365132
 21
1367.8535792752023
 31
0.0
 11
3421.6734995893662
 21
1368.0465817453121
 31
0.0
  0
SPLINE
  5
36D
100
AcDbEntity
  8
0
  6
CONTINUOUS
 62
           3
100
AcDbSpline
210
0.0
220
0.0
230
1.0
 70
           0
 71
           3
 72
           8
 73
           5
 74
           7
 42
0.00000000001
 43
0.00000000001
 44
0.00000000001
 40
0.0
 40
0.0
 40
0.0
 40
0.2779454797527605
 40
0.7862825386970651
 40
1.5429638907287171
 40
1.5429638907287171
 40
1.5429638907287171
 10
3420.2301237560082
 20
1372.6000040770409
 30
0.0
 10
3420.1959072114282
 20
1372.5995583847839
 30
0.0
 10
3419.7084964933129
 20
1372.5932095501271
 30
0.0
 10
3419.2308570261562
 20
1372.36531369562
 30
0.0
 10
3418.7867481555058
 20
1372.153416276062
 30
0.0
 11
3420.2301237560082
 21
1372.6000040770409
 31
0.0
 11
3420.1613872618545
 21
1372.5991087404814
 31
0.0
 11
3420.023610868554
 21
1372.5973141153163
 31
0.0
 11
3419.7392912317373
 21
1372.5713411810716
 31
0.0
 11
3419.51656107177
 21
1372.5016315087164
 31
0.0
 11
3419.1912558198978
 21
1372.3464187940044
 31
0.0
 11
3418.7867481555058
 21
1372.153416276062
 31
0.0
  0
SPLINE
  5
36C
100
AcDbEntity
  8
0
  6
CONTINUOUS
 62
           3
100
AcDbSpline
210
0.0
220
0.0
230
1.0
 70
           0
 71
           3
 72
           8
 73
           5
 74
           7
 42
0.00000000001
 43
0.00000000001
 44
0.00000000001
 40
0.0
 40
0.0
 40
0.0
 40
0.7097107189163608
 40
1.6878556121225361
 40
2.9354150974116751
 40
2.9354150974116751
 40
2.9354150974116751
 10
3413.013245287842
 20
1368.046581745235
 30
0.0
 10
3413.226601869495
 20
1367.986940602696
 30
0.0
 10
3414.1669045504641
 20
1367.7240908429519
 30
0.0
 10
3415.1443418916861
 20
1367.654102099867
 30
0.0
 10
3415.8999967216728
 20
1367.5999939442561
 30
0.0
 11
3413.013245287842
 21
1368.046581745235
 31
0.0
 11
3413.2721075077998
 21
1367.9742200752128
 31
0.0
 11
3413.6219810043667
 21
1367.8764173502241
 31
0.0
 11
3414.1380638628561
 21
1367.754482866841
 31
0.0
 11
3414.5964653461306
 21
1367.6933324312367
 31
0.0
 11
3415.196286462794
 21
1367.6503826438066
 31
0.0
 11
3415.8999967216728
 21
1367.5999939442561
 31
0.0
  0
SPLINE
  5
36B
100
AcDbEntity
  8
0
  6
CONTINUOUS
 62
           3
100
AcDbSpline
210
0.0
220
0.0
230
1.0
 70
           0
 71
           3
 72
           8
 73
           5
 74
           7
 42
0.00000000001
 43
0.00000000001
 44
0.00000000001
 40
0.0
 40
0.0
 40
0.0
 40
0.727368139492963
 40
1.7065914567913358
 40
2.9387223240355946
 40
2.9387223240355946
 40
2.9387223240355946
 10
3415.8999967216728
 20
1367.5999939442561
 30
0.0
 10
3416.1387195010338
 20
1367.6054734833269
 30
0.0
 10
3417.1156271469808
 20
1367.6278969974519
 30
0.0
 10
3418.0674888562462
 20
1367.8663776207211
 30
0.0
 10
3418.7867481553671
 20
1368.0465817453121
 30
0.0
 11
3415.8999967216728
 21
1367.5999939442561
 31
0.0
 11
3416.1831310149737
 21
1367.6064928859432
 31
0.0
 11
3416.5550883361534
 21
1367.6150306328632
 31
0.0
 11
3417.0808673755123
 21
1367.6510811733847
 31
0.0
 11
3417.5371268719327
 21
1367.7335000657715
 31
0.0
 11
3418.114713184948
 21
1367.8782092631313
 31
0.0
 11
3418.7867481553671
 21
1368.0465817453121
 31
0.0
  0
SPLINE
  5
36A
100
AcDbEntity
  8
0
  6
CONTINUOUS
 62
           3
100
AcDbSpline
210
0.0
220
0.0
230
1.0
 70
           0
 71
           3
 72
           8
 73
           5
 74
           7
 42
0.00000000001
 43
0.00000000001
 44
0.00000000001
 40
0.0
 40
0.0
 40
0.0
 40
1.2321308673609224
 40
2.2113541846593341
 40
2.9387223241522529
 40
2.9387223241522529
 40
2.9387223241522529
 10
3418.7867481555058
 20
1372.153416276062
 30
0.0
 10
3418.0674888562462
 20
1372.3336204005791
 30
0.0
 10
3417.1156271469808
 20
1372.572101023849
 30
0.0
 10
3416.1387195010338
 20
1372.5945245379701
 30
0.0
 10
3415.8999967216728
 20
1372.6000040770409
 30
0.0
 11
3418.7867481555058
 21
1372.153416276062
 31
0.0
 11
3418.1147131849771
 21
1372.3217887581889
 31
0.0
 11
3417.5371268719109
 21
1372.4664979555346
 31
0.0
 11
3417.0808673755064
 21
1372.5489168479169
 31
0.0
 11
3416.5550883361529
 21
1372.5849673884354
 31
0.0
 11
3416.1831310149737
 21
1372.593505135354
 31
0.0
 11
3415.8999967216728
 21
1372.6000040770409
 31
0.0
  0
SPLINE
  5
369
100
AcDbEntity
  8
0
  6
CONTINUOUS
 62
           3
100
AcDbSpline
210
0.0
220
0.0
230
1.0
 70
           0
 71
           3
 72
           8
 73
           5
 74
           7
 42
0.00000000001
 43
0.00000000001
 44
0.00000000001
 40
0.0
 40
0.0
 40
0.0
 40
1.2475616964938057
 40
2.2257084622397674
 40
2.935421117879613
 40
2.935421117879613
 40
2.935421117879613
 10
3415.8999967216728
 20
1372.6000040770409
 30
0.0
 10
3415.1443400642488
 20
1372.5459088094719
 30
0.0
 10
3414.1668989125828
 20
1372.475936633469
 30
0.0
 10
3413.2266017037641
 20
1372.2130631111611
 30
0.0
 10
3413.013245287842
 20
1372.153416276062
 30
0.0
 11
3415.8999967216728
 21
1372.6000040770409
 31
0.0
 11
3415.1962845668004
 21
1372.5496273656931
 31
0.0
 11
3414.5964614170302
 21
1372.5066877667871
 31
0.0
 11
3414.1380594916318
 21
1372.445539360308
 31
0.0
 11
3413.6219787243299
 21
1372.3235964075072
 31
0.0
 11
3413.2721068549245
 21
1372.2257847264727
 31
0.0
 11
3413.013245287842
 21
1372.153416276062
 31
0.0
  0
SPLINE
  5
368
100
AcDbEntity
  8
0
  6
CONTINUOUS
 62
           3
100
AcDbSpline
210
0.0
220
0.0
230
1.0
 70
           0
 71
           3
 72
           8
 73
           5
 74
           7
 42
0.00000000001
 43
0.00000000001
 44
0.00000000001
 40
0.0
 40
0.0
 40
0.0
 40
0.2779452695568832
 40
0.7862805426591408
 40
1.5429573555012195
 40
1.5429573555012195
 40
1.5429573555012195
 10
3411.5698696873401
 20
1372.6000040770409
 30
0.0
 10
3411.604086230871
 20
1372.6004497818101
 30
0.0
 10
3412.091496528079
 20
1372.6067987893659
 30
0.0
 10
3412.5691362283601
 20
1372.834686833085
 30
0.0
 10
3413.013245287842
 20
1373.04657697686
 30
0.0
 11
3411.5698696873401
 21
1372.6000040770409
 31
0.0
 11
3411.6386062202819
 21
1372.6008994392644
 31
0.0
 11
3411.7763827320464
 21
1372.6026941163966
 31
0.0
 11
3412.0607020292209
 21
1372.628666380841
 31
0.0
 11
3412.2834323286806
 21
1372.6983738282354
 31
0.0
 11
3412.6087375183106
 21
1372.8535811178162
 31
0.0
 11
3413.013245287842
 21
1373.04657697686
 31
0.0
  0
SPLINE
  5
367
100
AcDbEntity
  8
0
  6
CONTINUOUS
 62
           3
100
AcDbSpline
210
0.0
220
0.0
230
1.0
 70
           0
 71
           3
 72
           8
 73
           5
 74
           7
 42
0.00000000001
 43
0.00000000001
 44
0.00000000001
 40
0.0
 40
0.0
 40
0.0
 40
0.2779463803285011
 40
0.7862830863353905
 40
1.5429609982549424
 40
1.5429609982549424
 40
1.5429609982549424
 10
3411.5698696873401
 20
1377.5999993086659
 30
0.0
 10
3411.5356531385059
 20
1377.599553607037
 30
0.0
 10
3411.0482406298711
 20
1377.593204616358
 30
0.0
 10
3410.5706020337639
 20
1377.3653127377879
 30
0.0
 10
3410.126493853973
 20
1377.1534189582051
 30
0.0
 11
3411.5698696873401
 21
1377.5999993086659
 31
0.0
 11
3411.5011329221966
 21
1377.5991039498617
 31
0.0
 11
3411.3633557244366
 21
1377.5973092767078
 31
0.0
 11
3411.0790355250729
 21
1377.5713366177661
 31
0.0
 11
3410.85630511611
 21
1377.5016279616409
 31
0.0
 11
3410.5310007594035
 21
1377.3464180988553
 31
0.0
 11
3410.126493853973
 21
1377.1534189582051
 31
0.0
  0
SPLINE
  5
366
100
AcDbEntity
  8
0
  6
CONTINUOUS
 62
           3
100
AcDbSpline
210
0.0
220
0.0
230
1.0
 70
           0
 71
           3
 72
           8
 73
           5
 74
           7
 42
0.00000000001
 43
0.00000000001
 44
0.00000000001
 40
0.0
 40
0.0
 40
0.0
 40
0.2779462752320538
 40
0.7862820883228333
 40
1.5429577306478006
 40
1.5429577306478006
 40
1.5429577306478006
 10
3420.2301237560082
 20
1372.6000040770409
 30
0.0
 10
3420.2643403043198
 20
1372.6004497849281
 30
0.0
 10
3420.7517526024999
 20
1372.606798862053
 30
0.0
 10
3421.229391315168
 20
1372.8346868352351
 30
0.0
 10
3421.6734995893662
 20
1373.046576976911
 30
0.0
 11
3420.2301237560082
 21
1372.6000040770409
 31
0.0
 11
3420.2988605405467
 21
1372.6008994486781
 31
0.0
 11
3420.4366377975393
 21
1372.6026941478153
 31
0.0
 11
3420.7209578270831
 21
1372.628666471855
 31
0.0
 11
3420.943688305792
 21
1372.6983740154992
 31
0.0
 11
3421.2689926313733
 21
1372.85358116572
 31
0.0
 11
3421.6734995893662
 21
1373.046576976911
 31
0.0
  0
SPLINE
  5
365
100
AcDbEntity
  8
0
  6
CONTINUOUS
 62
           3
100
AcDbSpline
210
0.0
220
0.0
230
1.0
 70
           0
 71
           3
 72
           8
 73
           5
 74
           7
 42
0.00000000001
 43
0.00000000001
 44
0.00000000001
 40
0.0
 40
0.0
 40
0.0
 40
0.2779453746551804
 40
0.786281540670457
 40
1.5429606230913346
 40
1.5429606230913346
 40
1.5429606230913346
 10
3420.2301237560082
 20
1377.5999993086659
 30
0.0
 10
3420.195907211953
 20
1377.5995536101509
 30
0.0
 10
3419.7084967042902
 20
1377.593204689045
 30
0.0
 10
3419.230857120574
 20
1377.365312739938
 30
0.0
 10
3418.7867481555058
 20
1377.1534189582669
 30
0.0
 11
3420.2301237560082
 21
1377.5999993086659
 31
0.0
 11
3420.16138724246
 21
1377.599103959273
 31
0.0
 11
3420.0236107899264
 21
1377.5973093081241
 31
0.0
 11
3419.7392913229314
 21
1377.5713367087799
 31
0.0
 11
3419.5165610932181
 21
1377.5016281489061
 31
0.0
 11
3419.191255872468
 21
1377.3464181467623
 31
0.0
 11
3418.7867481555058
 21
1377.1534189582669
 31
0.0
  0
SPLINE
  5
364
100
AcDbEntity
  8
0
  6
CONTINUOUS
 62
           3
100
AcDbSpline
210
0.0
220
0.0
230
1.0
 70
           0
 71
           3
 72
           8
 73
           5
 74
           7
 42
0.00000000001
 43
0.00000000001
 44
0.00000000001
 40
0.0
 40
0.0
 40
0.0
 40
0.7097104926827146
 40
1.6878550560209435
 40
2.9354142011749715
 40
2.9354142011749715
 40
2.9354142011749715
 10
3413.013245287842
 20
1373.04657697686
 30
0.0
 10
3413.2266018489549
 20
1372.9869356693489
 30
0.0
 10
3414.1669038516502
 20
1372.7240853468579
 30
0.0
 10
3415.1443416651741
 20
1372.654105412621
 30
0.0
 10
3415.8999967216728
 20
1372.6000040770409
 30
0.0
 11
3413.013245287842
 21
1373.04657697686
 31
0.0
 11
3413.2721074221517
 21
1372.9742151236569
 31
0.0
 11
3413.6219807028574
 21
1372.8764121790696
 31
0.0
 11
3414.1380633113713
 21
1372.7544784200807
 31
0.0
 11
3414.5964648393287
 21
1372.6933308075384
 31
0.0
 11
3415.1962862228374
 21
1372.6503864274553
 31
0.0
 11
3415.8999967216728
 21
1372.6000040770409
 31
0.0
  0
SPLINE
  5
363
100
AcDbEntity
  8
0
  6
CONTINUOUS
 62
           3
100
AcDbSpline
210
0.0
220
0.0
230
1.0
 70
           0
 71
           3
 72
           8
 73
           5
 74
           7
 42
0.00000000001
 43
0.00000000001
 44
0.00000000001
 40
0.0
 40
0.0
 40
0.0
 40
0.7273675739582235
 40
1.7065896374659766
 40
2.9387184666072459
 40
2.9387184666072459
 40
2.9387184666072459
 10
3415.8999967216728
 20
1372.6000040770409
 30
0.0
 10
3416.138719465152
 20
1372.605483801264
 30
0.0
 10
3417.1156260260982
 20
1372.6279080515201
 30
0.0
 10
3418.0674885010499
 20
1372.866379694286
 30
0.0
 10
3418.7867481553671
 20
1373.046576976911
 30
0.0
 11
3415.8999967216728
 21
1372.6000040770409
 31
0.0
 11
3416.1831309024883
 21
1372.6065032367185
 31
0.0
 11
3416.555087957975
 21
1372.6150412673053
 31
0.0
 11
3417.0808665470131
 21
1372.6510911338657
 31
0.0
 11
3417.5371261778814
 21
1372.7335071651178
 31
0.0
 11
3418.1147128338371
 21
1372.8782108826504
 31
0.0
 11
3418.7867481553671
 21
1373.046576976911
 31
0.0
  0
SPLINE
  5
362
100
AcDbEntity
  8
0
  6
CONTINUOUS
 62
           3
100
AcDbSpline
210
0.0
220
0.0
230
1.0
 70
           0
 71
           3
 72
           8
 73
           5
 74
           7
 42
0.00000000001
 43
0.00000000001
 44
0.00000000001
 40
0.0
 40
0.0
 40
0.0
 40
1.2321298483032386
 40
2.2113525386996873
 40
2.9387203954235339
 40
2.9387203954235339
 40
2.9387203954235339
 10
3418.7867481555058
 20
1377.1534189582669
 30
0.0
 10
3418.0674886786451
 20
1377.333619661815
 30
0.0
 10
3417.1156265865361
 20
1377.5720957948331
 30
0.0
 10
3416.1387194830932
 20
1377.5945196770231
 30
0.0
 10
3415.8999967216728
 20
1377.5999993086659
 30
0.0
 11
3418.7867481555058
 21
1377.1534189582669
 31
0.0
 11
3418.1147130094191
 21
1377.3217882464442
 31
0.0
 11
3417.5371265248814
 21
1377.4664947038796
 31
0.0
 11
3417.0808669612543
 21
1377.5489121656951
 31
0.0
 11
3416.5550881470635
 21
1377.5849623692343
 31
0.0
 11
3416.183130958731
 21
1377.5935002579865
 31
0.0
 11
3415.8999967216728
 21
1377.5999993086659
 31
0.0
  0
SPLINE
  5
361
100
AcDbEntity
  8
0
  6
CONTINUOUS
 62
           3
100
AcDbSpline
210
0.0
220
0.0
230
1.0
 70
           0
 71
           3
 72
           8
 73
           5
 74
           7
 42
0.00000000001
 43
0.00000000001
 44
0.00000000001
 40
0.0
 40
0.0
 40
0.0
 40
1.2475604207813995
 40
2.2257060852935431
 40
2.9354176594306089
 40
2.9354176594306089
 40
2.9354176594306089
 10
3415.8999967216728
 20
1377.5999993086659
 30
0.0
 10
3415.144340864726
 20
1377.5459010071061
 30
0.0
 10
3414.1669013821629
 20
1377.4759249520071
 30
0.0
 10
3413.2266017763609
 20
1377.2130630295719
 30
0.0
 10
3413.013245287842
 20
1377.1534189582669
 30
0.0
 11
3415.8999967216728
 21
1377.5999993086659
 31
0.0
 11
3415.1962853948344
 21
1377.5496197777986
 31
0.0
 11
3414.5964631282122
 21
1377.5066777883167
 31
0.0
 11
3414.1380614015379
 21
1377.4455297788072
 31
0.0
 11
3413.6219797136137
 21
1377.3235914228983
 31
0.0
 11
3413.272107138544
 21
1377.2257841100773
 31
0.0
 11
3413.013245287842
 21
1377.1534189582669
 31
0.0
  0
SPLINE
  5
360
100
AcDbEntity
  8
0
  6
CONTINUOUS
 62
           3
100
AcDbSpline
210
0.0
220
0.0
230
1.0
 70
           0
 71
           3
 72
           8
 73
           5
 74
           7
 42
0.00000000001
 43
0.00000000001
 44
0.00000000001
 40
0.0
 40
0.0
 40
0.0
 40
0.2779454797525494
 40
0.7862825386953479
 40
1.5429638907264198
 40
1.5429638907264198
 40
1.5429638907264198
 10
3411.5698696873401
 20
1359.9999994040479
 30
0.0
 10
3411.6040862319201
 20
1360.0004450963061
 30
0.0
 10
3412.091496950035
 20
1360.0067939309631
 30
0.0
 10
3412.5691364171889
 20
1360.23468978547
 30
0.0
 10
3413.013245287842
 20
1360.4465872050239
 30
0.0
 11
3411.5698696873401
 21
1359.9999994040479
 31
0.0
 11
3411.6386061814933
 21
1360.0008947406084
 31
0.0
 11
3411.7763825747943
 21
1360.0026893657739
 31
0.0
 11
3412.0607022116101
 21
1360.0286623000184
 31
0.0
 11
3412.2834323715765
 21
1360.0983719723736
 31
0.0
 11
3412.6087376234486
 21
1360.2535846870842
 31
0.0
 11
3413.013245287842
 21
1360.4465872050239
 31
0.0
  0
SPLINE
  5
35F
100
AcDbEntity
  8
0
  6
CONTINUOUS
 62
           3
100
AcDbSpline
210
0.0
220
0.0
230
1.0
 70
           0
 71
           3
 72
           8
 73
           5
 74
           7
 42
0.00000000001
 43
0.00000000001
 44
0.00000000001
 40
0.0
 40
0.0
 40
0.0
 40
0.277946275232473
 40
0.7862820883225878
 40
1.542957730607867
 40
1.542957730607867
 40
1.542957730607867
 10
3411.5698696873401
 20
1364.9999946356729
 30
0.0
 10
3411.535653139028
 20
1364.9995489277901
 30
0.0
 10
3411.0482408408479
 20
1364.993199850662
 30
0.0
 10
3410.5706021281799
 20
1364.7653118774831
 30
0.0
 10
3410.126493853973
 20
1364.5534217359159
 30
0.0
 11
3411.5698696873401
 21
1364.9999946356729
 31
0.0
 11
3411.5011329028011
 21
1364.9990992640385
 31
0.0
 11
3411.363355645808
 21
1364.9973045649017
 31
0.0
 11
3411.0790356162634
 21
1364.9713322408597
 31
0.0
 11
3410.85630513755
 21
1364.9016246972142
 31
0.0
 11
3410.5310008119709
 21
1364.7464175470241
 31
0.0
 11
3410.126493853973
 21
1364.5534217359159
 31
0.0
  0
SPLINE
  5
35E
100
AcDbEntity
  8
0
  6
CONTINUOUS
 62
           3
100
AcDbSpline
210
0.0
220
0.0
230
1.0
 70
           0
 71
           3
 72
           8
 73
           5
 74
           7
 42
0.00000000001
 43
0.00000000001
 44
0.00000000001
 40
0.0
 40
0.0
 40
0.0
 40
0.2779464854698519
 40
0.7862840844052754
 40
1.542964265945298
 40
1.542964265945298
 40
1.542964265945298
 10
3420.2301237559659
 20
1359.999999403921
 30
0.0
 10
3420.2643403053662
 20
1360.000445099424
 30
0.0
 10
3420.751753024455
 20
1360.0067940036531
 30
0.0
 10
3421.2293915040009
 20
1360.2346897876159
 30
0.0
 10
3421.6734995893662
 20
1360.4465872051219
 30
0.0
 11
3420.2301237559659
 21
1359.999999403921
 31
0.0
 11
3420.2988605017495
 21
1360.0008947499907
 31
0.0
 11
3420.4366376403004
 21
1360.0026893971938
 31
0.0
 11
3420.7209580094736
 21
1360.0286623910354
 31
0.0
 11
3420.9436883486842
 21
1360.0983721596403
 31
0.0
 11
3421.2689927365127
 21
1360.2535847349986
 31
0.0
 11
3421.6734995893662
 21
1360.4465872051219
 31
0.0
  0
SPLINE
  5
35D
100
AcDbEntity
  8
0
  6
CONTINUOUS
 62
           3
100
AcDbSpline
210
0.0
220
0.0
230
1.0
 70
           0
 71
           3
 72
           8
 73
           5
 74
           7
 42
0.00000000001
 43
0.00000000001
 44
0.00000000001
 40
0.0
 40
0.0
 40
0.0
 40
0.2779452695582191
 40
0.7862805426599526
 40
1.5429573555016209
 40
1.5429573555016209
 40
1.5429573555016209
 10
3420.2301237560082
 20
1364.9999946356729
 30
0.0
 10
3420.195907212475
 20
1364.999548930904
 30
0.0
 10
3419.7084969152688
 20
1364.993199923352
 30
0.0
 10
3419.2308572149868
 20
1364.7653118796329
 30
0.0
 10
3418.7867481555058
 20
1364.5534217358579
 30
0.0
 11
3420.2301237560082
 21
1364.9999946356729
 31
0.0
 11
3420.1613872230646
 21
1364.9990992734502
 31
0.0
 11
3420.0236107112996
 21
1364.9973045963188
 31
0.0
 11
3419.739291414126
 21
1364.9713323318763
 31
0.0
 11
3419.5165611146667
 21
1364.9016248844825
 31
0.0
 11
3419.1912559250363
 21
1364.7464175949015
 31
0.0
 11
3418.7867481555058
 21
1364.5534217358579
 31
0.0
  0
SPLINE
  5
35C
100
AcDbEntity
  8
0
  6
CONTINUOUS
 62
           3
100
AcDbSpline
210
0.0
220
0.0
230
1.0
 70
           0
 71
           3
 72
           8
 73
           5
 74
           7
 42
0.00000000001
 43
0.00000000001
 44
0.00000000001
 40
0.0
 40
0.0
 40
0.0
 40
0.7097126556389883
 40
1.6878594213849583
 40
2.9354211178787719
 40
2.9354211178787719
 40
2.9354211178787719
 10
3413.013245287842
 20
1360.4465872050239
 30
0.0
 10
3413.2266017037641
 20
1360.386940369928
 30
0.0
 10
3414.1668989125828
 20
1360.12406684762
 30
0.0
 10
3415.1443400642488
 20
1360.0540946716169
 30
0.0
 10
3415.8999967216728
 20
1359.9999994040479
 30
0.0
 11
3413.013245287842
 21
1360.4465872050239
 31
0.0
 11
3413.2721068549249
 21
1360.3742187546154
 31
0.0
 11
3413.6219787243299
 21
1360.276407073582
 31
0.0
 11
3414.1380594916313
 21
1360.1544641207806
 31
0.0
 11
3414.5964614170298
 21
1360.0933157143018
 31
0.0
 11
3415.1962845667999
 21
1360.0503761153959
 31
0.0
 11
3415.8999967216728
 21
1359.9999994040479
 31
0.0
  0
SPLINE
  5
35B
100
AcDbEntity
  8
0
  6
CONTINUOUS
 62
           3
100
AcDbSpline
210
0.0
220
0.0
230
1.0
 70
           0
 71
           3
 72
           8
 73
           5
 74
           7
 42
0.00000000001
 43
0.00000000001
 44
0.00000000001
 40
0.0
 40
0.0
 40
0.0
 40
0.7273681394929004
 40
1.7065914567913838
 40
2.9387223240405604
 40
2.9387223240405604
 40
2.9387223240405604
 10
3415.8999967216728
 20
1359.9999994040479
 30
0.0
 10
3416.1387195010338
 20
1360.005478943116
 30
0.0
 10
3417.1156271469808
 20
1360.027902457241
 30
0.0
 10
3418.0674888562462
 20
1360.2663830805111
 30
0.0
 10
3418.7867481553671
 20
1360.4465872051219
 30
0.0
 11
3415.8999967216728
 21
1359.9999994040479
 31
0.0
 11
3416.1831310149737
 21
1360.006498345733
 31
0.0
 11
3416.5550883361529
 21
1360.0150360926523
 31
0.0
 11
3417.0808673755114
 21
1360.0510866331738
 31
0.0
 11
3417.5371268719318
 21
1360.1335055255608
 31
0.0
 11
3418.1147131849484
 21
1360.2782147229264
 31
0.0
 11
3418.7867481553671
 21
1360.4465872051219
 31
0.0
  0
SPLINE
  5
35A
100
AcDbEntity
  8
0
  6
CONTINUOUS
 62
           3
100
AcDbSpline
210
0.0
220
0.0
230
1.0
 70
           0
 71
           3
 72
           8
 73
           5
 74
           7
 42
0.00000000001
 43
0.00000000001
 44
0.00000000001
 40
0.0
 40
0.0
 40
0.0
 40
1.2321288292631005
 40
2.2113508927712378
 40
2.9387184667293647
 40
2.9387184667293647
 40
2.9387184667293647
 10
3418.7867481555058
 20
1364.5534217358579
 30
0.0
 10
3418.0674885010499
 20
1364.733619018429
 30
0.0
 10
3417.1156260260982
 20
1364.9720906611981
 30
0.0
 10
3416.138719465152
 20
1364.994514911454
 30
0.0
 10
3415.8999967216728
 20
1364.9999946356729
 30
0.0
 11
3418.7867481555058
 21
1364.5534217358579
 31
0.0
 11
3418.1147128338653
 21
1364.7217878300801
 31
0.0
 11
3417.5371261778587
 21
1364.8664915476047
 31
0.0
 11
3417.0808665470081
 21
1364.9489075788536
 31
0.0
 11
3416.555087957975
 21
1364.9849574454126
 31
0.0
 11
3416.1831309024878
 21
1364.9934954759983
 31
0.0
 11
3415.8999967216728
 21
1364.9999946356729
 31
0.0
  0
SPLINE
  5
359
100
AcDbEntity
  8
0
  6
CONTINUOUS
 62
           3
100
AcDbSpline
210
0.0
220
0.0
230
1.0
 70
           0
 71
           3
 72
           8
 73
           5
 74
           7
 42
0.00000000001
 43
0.00000000001
 44
0.00000000001
 40
0.0
 40
0.0
 40
0.0
 40
1.2475591451551133
 40
2.2257037084933491
 40
2.9354142011741726
 40
2.9354142011741726
 40
2.9354142011741726
 10
3415.8999967216728
 20
1364.9999946356729
 30
0.0
 10
3415.1443416651741
 20
1364.9458933000931
 30
0.0
 10
3414.1669038516479
 20
1364.8759133658571
 30
0.0
 10
3413.2266018489549
 20
1364.6130630433661
 30
0.0
 10
3413.013245287842
 20
1364.5534217358579
 30
0.0
 11
3415.8999967216728
 21
1364.9999946356729
 31
0.0
 11
3415.196286222837
 21
1364.9496122852588
 31
0.0
 11
3414.5964648393274
 21
1364.9066679051762
 31
0.0
 11
3414.1380633113699
 21
1364.8455202926339
 31
0.0
 11
3413.6219807028565
 21
1364.7235865336452
 31
0.0
 11
3413.2721074221522
 21
1364.625783589059
 31
0.0
 11
3413.013245287842
 21
1364.5534217358579
 31
0.0
  0
SPLINE
  5
358
100
AcDbEntity
  8
0
  6
CONTINUOUS
 62
           3
100
AcDbSpline
210
0.0
220
0.0
230
1.0
 70
           0
 71
           3
 72
           8
 73
           5
 74
           7
 42
0.00000000001
 43
0.00000000001
 44
0.00000000001
 40
0.0
 40
0.0
 40
0.0
 40
0.2779464854665173
 40
0.7862840844020164
 40
1.5429642659218201
 40
1.5429642659218201
 40
1.5429642659218201
 10
3420.2301237559659
 20
1359.999999403921
 30
0.0
 10
3420.2643403053662
 20
1359.9995537086761
 30
0.0
 10
3420.751753024455
 20
1359.9932048044429
 30
0.0
 10
3421.2293915040009
 20
1359.7653090204799
 30
0.0
 10
3421.6734995893662
 20
1359.553411603021
 30
0.0
 11
3420.2301237559659
 21
1359.999999403921
 31
0.0
 11
3420.2988605017495
 21
1359.9991040580446
 31
0.0
 11
3420.4366376402986
 21
1359.9973094109048
 31
0.0
 11
3420.7209580094736
 21
1359.9713364170611
 31
0.0
 11
3420.9436883486869
 21
1359.9016266484541
 31
0.0
 11
3421.2689927365141
 21
1359.7464140731088
 31
0.0
 11
3421.6734995893662
 21
1359.553411603021
 31
0.0
  0
SPLINE
  5
357
100
AcDbEntity
  8
0
  6
CONTINUOUS
 62
           3
100
AcDbSpline
210
0.0
220
0.0
230
1.0
 70
           0
 71
           3
 72
           8
 73
           5
 74
           7
 42
0.00000000001
 43
0.00000000001
 44
0.00000000001
 40
0.0
 40
0.0
 40
0.0
 40
0.3778155284989183
 40
0.8942062233990173
 40
1.535751417460842
 40
1.535751417460842
 40
1.535751417460842
 10
3410.126493853973
 20
1359.553411603021
 30
0.0
 10
3410.221011897032
 20
1359.6064716909059
 30
0.0
 10
3410.6908817949061
 20
1359.870245011374
 30
0.0
 10
3411.1795227343041
 20
1359.9423771861991
 30
0.0
 10
3411.5698696873401
 20
1359.9999994040479
 30
0.0
 11
3410.126493853973
 21
1359.553411603021
 31
0.0
 11
3410.2470141544059
 21
1359.6210687140281
 31
0.0
 11
3410.419538969586
 21
1359.7179198712795
 31
0.0
 11
3410.6775244143319
 21
1359.8402057052365
 31
0.0
 11
3410.9087950979292
 21
1359.9024129269189
 31
0.0
 11
3411.2094275634695
 21
1359.9467916758413
 31
0.0
 11
3411.5698696873401
 21
1359.9999994040479
 31
0.0
  0
SPLINE
  5
356
100
AcDbEntity
  8
0
  6
CONTINUOUS
 62
           3
100
AcDbSpline
210
0.0
220
0.0
230
1.0
 70
           0
 71
           3
 72
           8
 73
           5
 74
           7
 42
0.00000000001
 43
0.00000000001
 44
0.00000000001
 40
0.0
 40
0.0
 40
0.0
 40
0.6415450374694814
 40
1.1579303686019833
 40
1.5357381749000683
 40
1.5357381749000683
 40
1.5357381749000683
 10
3411.5698696873401
 20
1355.0000041724199
 30
0.0
 10
3411.179523708613
 20
1355.0576336938759
 30
0.0
 10
3410.6908846293632
 20
1355.1297749168839
 30
0.0
 10
3410.2210119621159
 20
1355.3935224482559
 30
0.0
 10
3410.126493853973
 20
1355.446577072224
 30
0.0
 11
3411.5698696873401
 21
1355.0000041724199
 31
0.0
 11
3411.2094282457033
 21
1355.0532186767991
 31
0.0
 11
3410.908795878247
 21
1355.097603147025
 31
0.0
 11
3410.6775260473228
 21
1355.1598096979619
 31
0.0
 11
3410.4195390523173
 21
1355.282085811054
 31
0.0
 11
3410.2470142076304
 21
1355.3789269449474
 31
0.0
 11
3410.126493853973
 21
1355.446577072224
 31
0.0
  0
SPLINE
  5
355
100
AcDbEntity
  8
0
  6
CONTINUOUS
 62
           3
100
AcDbSpline
210
0.0
220
0.0
230
1.0
 70
           0
 71
           3
 72
           8
 73
           5
 74
           7
 42
0.00000000001
 43
0.00000000001
 44
0.00000000001
 40
0.0
 40
0.0
 40
0.0
 40
0.3539460334987572
 40
0.8643414136628571
 40
1.5431068114059314
 40
1.5431068114059314
 40
1.5431068114059314
 10
3411.5698696873401
 20
1359.9999994040479
 30
0.0
 10
3411.6793238424229
 20
1359.9953935078299
 30
0.0
 10
3412.1676816710401
 20
1359.97484311874
 30
0.0
 10
3412.6438213484448
 20
1359.7375336343539
 30
0.0
 10
3413.0132452879711
 20
1359.553411603021
 30
0.0
 11
3411.5698696873401
 21
1359.9999994040479
 31
0.0
 11
3411.7019556855798
 21
1359.9944411463541
 31
0.0
 11
3411.8793053701329
 21
1359.9869781657089
 31
0.0
 11
3412.1466781413847
 21
1359.9524131949256
 31
0.0
 11
3412.3720438533246
 21
1359.8729883765134
 31
0.0
 11
3412.6682329595465
 21
1359.7253668120607
 31
0.0
 11
3413.0132452879711
 21
1359.553411603021
 31
0.0
  0
SPLINE
  5
354
100
AcDbEntity
  8
0
  6
CONTINUOUS
 62
           3
100
AcDbSpline
210
0.0
220
0.0
230
1.0
 70
           0
 71
           3
 72
           8
 73
           5
 74
           7
 42
0.00000000001
 43
0.00000000001
 44
0.00000000001
 40
0.0
 40
0.0
 40
0.0
 40
0.6787700534896848
 40
1.1891668948804988
 40
1.5431123743501056
 40
1.5431123743501056
 40
1.5431123743501056
 10
3413.013245287842
 20
1355.446577072242
 30
0.0
 10
3412.6438214744048
 20
1355.2624483716061
 30
0.0
 10
3412.167682050625
 20
1355.0251303367841
 30
0.0
 10
3411.6793238525838
 20
1355.0046045512611
 30
0.0
 10
3411.5698696873401
 20
1355.0000041724199
 30
0.0
 11
3413.013245287842
 21
1355.446577072242
 31
0.0
 11
3412.6682329736386
 21
1355.2746155830071
 31
0.0
 11
3412.3720436579024
 21
1355.1269885165734
 31
0.0
 11
3412.1466781919494
 21
1355.0475647466087
 31
0.0
 11
3411.8793050086451
 21
1355.0130097962933
 31
0.0
 11
3411.7019556002883
 21
1355.0055557678088
 31
0.0
 11
3411.5698696873401
 21
1355.0000041724199
 31
0.0
  0
SPLINE
  5
353
100
AcDbEntity
  8
0
  6
CONTINUOUS
 62
           3
100
AcDbSpline
210
0.0
220
0.0
230
1.0
 70
           0
 71
           3
 72
           8
 73
           5
 74
           7
 42
0.00000000001
 43
0.00000000001
 44
0.00000000001
 40
0.0
 40
0.0
 40
0.0
 40
0.2779452695582413
 40
0.7862805426608265
 40
1.5429573556207723
 40
1.5429573556207723
 40
1.5429573556207723
 10
3420.2301237560082
 20
1355.0000041724199
 30
0.0
 10
3420.195907212475
 20
1355.0004498771891
 30
0.0
 10
3419.7084969152688
 20
1355.0067988847441
 30
0.0
 10
3419.2308572149868
 20
1355.234686928467
 30
0.0
 10
3418.7867481553671
 20
1355.446577072224
 30
0.0
 11
3420.2301237560082
 21
1355.0000041724199
 31
0.0
 11
3420.1613872230641
 21
1355.0008995346432
 31
0.0
 11
3420.0236107113001
 21
1355.0026942117752
 31
0.0
 11
3419.7392914141305
 21
1355.0286664762175
 31
0.0
 11
3419.5165611146845
 21
1355.0983739236067
 31
0.0
 11
3419.1912559250059
 21
1355.253581213191
 31
0.0
 11
3418.7867481553671
 21
1355.446577072224
 31
0.0
  0
SPLINE
  5
352
100
AcDbEntity
  8
0
  6
CONTINUOUS
 62
           3
100
AcDbSpline
210
0.0
220
0.0
230
1.0
 70
           0
 71
           3
 72
           8
 73
           5
 74
           7
 42
0.00000000001
 43
0.00000000001
 44
0.00000000001
 40
0.0
 40
0.0
 40
0.0
 40
0.5558558490614896
 40
1.5343195421996656
 40
2.9385037456599621
 40
2.9385037456599621
 40
2.9385037456599621
 10
3415.8999967216691
 20
1355.000004172322
 30
0.0
 10
3415.831563636295
 20
1355.0004498783021
 30
0.0
 10
3414.8567416872411
 20
1355.0067989106681
 30
0.0
 10
3413.901462916263
 20
1355.234686929231
 30
0.0
 10
3413.013245287842
 20
1355.446577072242
 30
0.0
 11
3415.8999967216691
 21
1355.000004172322
 31
0.0
 11
3415.7603818762482
 21
1355.0009134863224
 31
0.0
 11
3415.4784035107332
 21
1355.0027500163628
 31
0.0
 11
3414.9140828960167
 21
1355.0291829422185
 31
0.0
 11
3414.4644446988518
 21
1355.1003839311754
 31
0.0
 11
3413.8201539548049
 21
1355.2540837154697
 31
0.0
 11
3413.013245287842
 21
1355.446577072242
 31
0.0
  0
SPLINE
  5
351
100
AcDbEntity
  8
0
  6
CONTINUOUS
 62
           3
100
AcDbSpline
210
0.0
220
0.0
230
1.0
 70
           0
 71
           3
 72
           8
 73
           5
 74
           7
 42
0.00000000001
 43
0.00000000001
 44
0.00000000001
 40
0.0
 40
0.0
 40
0.0
 40
0.5558562714158468
 40
1.5343210643715972
 40
2.9385072682982787
 40
2.9385072682982787
 40
2.9385072682982787
 10
3415.8999967216728
 20
1359.9999994040479
 30
0.0
 10
3415.968429809147
 20
1359.999553710677
 30
0.0
 10
3416.9432526000178
 20
1359.993204851213
 30
0.0
 10
3417.8985309047462
 20
1359.765309021863
 30
0.0
 10
3418.7867481555058
 20
1359.553411603069
 30
0.0
 11
3415.8999967216728
 21
1359.9999994040479
 31
0.0
 11
3416.0396116244069
 21
1359.9990901152978
 31
0.0
 11
3416.32159015766
 21
1359.9972536357895
 31
0.0
 11
3416.8859111712823
 21
1359.9708199944766
 31
0.0
 11
3417.3355493274339
 21
1359.8996166396905
 31
0.0
 11
3417.9798398231073
 21
1359.7459115716213
 31
0.0
 11
3418.7867481555058
 21
1359.553411603069
 31
0.0
  0
CIRCLE
  5
350
100
AcDbEntity
  8
1
  6
CONTINUOUS
 62
           3
100
AcDbCircle
 10
508.472255321876
 20
1295.200848327053
 40
40.0
  0
CIRCLE
  5
34F
100
AcDbEntity
  8
1
  6
CONTINUOUS
 62
           7
100
AcDbCircle
 10
0.0
 20
5788.465598018147
 40
360.000000000002
  0
CIRCLE
  5
34E
100
AcDbEntity
  8
1
  6
CONTINUOUS
 62
           4
100
AcDbCircle
 10
0.0
 20
5788.465598018147
 40
84.122999999999
  0
CIRCLE
  5
34D
100
AcDbEntity
  8
1
  6
CONTINUOUS
 62
           4
100
AcDbCircle
 10
0.0
 20
5788.465598018147
 40
110.699999999999
  0
CIRCLE
  5
34C
100
AcDbEntity
  8
1
  6
CONTINUOUS
 62
           7
100
AcDbCircle
 10
3800.000000000001
 20
600.0
 40
7.500000000001
  0
CIRCLE
  5
34B
100
AcDbEntity
  8
1
  6
CONTINUOUS
 62
           2
100
AcDbCircle
 10
3800.000000000001
 20
600.0
 40
8.350000000003
  0
CIRCLE
  5
34A
100
AcDbEntity
  8
1
  6
CONTINUOUS
 62
           7
100
AcDbCircle
 10
3800.000000000001
 20
600.0
 40
15.000000000001
  0
ARC
  5
349
100
AcDbEntity
  8
1
  6
CONTINUOUS
 62
           3
100
AcDbCircle
 10
3920.163567691039
 20
1925.0
 40
9.499999999999
100
AcDbArc
 50
-124.797812779177
 51
0.0
  0
ARC
  5
348
100
AcDbEntity
  8
1
  6
CONTINUOUS
 62
           3
100
AcDbCircle
 10
3920.163567691039
 20
1925.0
 40
9.5
100
AcDbArc
 50
0.0
 51
125.916957371428
  0
ARC
  5
347
100
AcDbEntity
  8
1
  6
CONTINUOUS
 62
           3
100
AcDbCircle
 10
3920.163567691039
 20
1925.0
 40
5.871834995067
100
AcDbArc
 50
0.0
 51
38.599713917938
  0
ARC
  5
346
100
AcDbEntity
  8
1
  6
CONTINUOUS
 62
           3
100
AcDbCircle
 10
3920.163567691039
 20
1925.0
 40
5.871834995067
100
AcDbArc
 50
38.599713917938
 51
90.0
  0
ARC
  5
345
100
AcDbEntity
  8
1
  6
CONTINUOUS
 62
           3
100
AcDbCircle
 10
3920.163567691039
 20
1925.0
 40
5.871834995066
100
AcDbArc
 50
-90.0
 51
0.0
  0
ARC
  5
344
100
AcDbEntity
  8
0
  6
CONTINUOUS
 62
           3
100
AcDbCircle
 10
3478.399996721518
 20
1368.000000000113
 40
2.499999999997
100
AcDbArc
 50
0.0
 51
180.0
  0
ARC
  5
343
100
AcDbEntity
  8
0
  6
CONTINUOUS
 62
           3
100
AcDbCircle
 10
3478.399996721518
 20
1631.999999999898
 40
2.499999999998
100
AcDbArc
 50
180.0
 51
0.0
  0
ARC
  5
342
100
AcDbEntity
  8
0
  6
CONTINUOUS
 62
           3
100
AcDbCircle
 10
3353.39999672182
 20
1631.999999999898
 40
2.499999999996
100
AcDbArc
 50
180.0
 51
0.0
  0
ARC
  5
341
100
AcDbEntity
  8
0
  6
CONTINUOUS
 62
           3
100
AcDbCircle
 10
3353.39999672182
 20
1368.000000000113
 40
2.499999999997
100
AcDbArc
 50
0.0
 51
180.0
  0
ARC
  5
340
100
AcDbEntity
  8
0
  6
CONTINUOUS
 62
           3
100
AcDbCircle
 10
3357.899996721817
 20
1508.999999999996
 40
0.999999999996
100
AcDbArc
 50
-90.0
 51
90.0
  0
ARC
  5
33F
100
AcDbEntity
  8
0
  6
CONTINUOUS
 62
           3
100
AcDbCircle
 10
3357.899996721817
 20
1431.000000000062
 40
1.0
100
AcDbArc
 50
-90.0
 51
90.0
  0
ARC
  5
33E
100
AcDbEntity
  8
0
  6
CONTINUOUS
 62
           3
100
AcDbCircle
 10
3357.899996721817
 20
1409.000000000178
 40
0.999999999996
100
AcDbArc
 50
-90.0
 51
90.0
  0
ARC
  5
33D
100
AcDbEntity
  8
0
  6
CONTINUOUS
 62
           3
100
AcDbCircle
 10
3473.899996721522
 20
1409.000000000178
 40
1.0
100
AcDbArc
 50
90.0
 51
-90.0
  0
ARC
  5
33C
100
AcDbEntity
  8
0
  6
CONTINUOUS
 62
           3
100
AcDbCircle
 10
3473.899996721522
 20
1431.000000000062
 40
0.999999999996
100
AcDbArc
 50
90.0
 51
-90.0
  0
ARC
  5
33B
100
AcDbEntity
  8
0
  6
CONTINUOUS
 62
           3
100
AcDbCircle
 10
3473.899996721522
 20
1508.999999999996
 40
1.0
100
AcDbArc
 50
90.0
 51
-90.0
  0
ARC
  5
33A
100
AcDbEntity
  8
0
  6
CONTINUOUS
 62
           3
100
AcDbCircle
 10
3473.899996721522
 20
1530.99999999988
 40
1.0
100
AcDbArc
 50
90.0
 51
-90.0
  0
ARC
  5
339
100
AcDbEntity
  8
0
  6
CONTINUOUS
 62
           3
100
AcDbCircle
 10
3357.899996721817
 20
1530.99999999988
 40
0.999999999996
100
AcDbArc
 50
-90.0
 51
90.0
  0
ARC
  5
338
100
AcDbEntity
  8
0
  6
CONTINUOUS
 62
           3
100
AcDbCircle
 10
3422.373499413465
 20
1389.999999999996
 40
0.900000000001
100
AcDbArc
 50
-90.0
 51
-62.73395554943
  0
ARC
  5
337
100
AcDbEntity
  8
0
  6
CONTINUOUS
 62
           3
100
AcDbCircle
 10
3409.426494029874
 20
1389.999999999996
 40
0.900000000001
100
AcDbArc
 50
-117.26604445057
 51
-90.0
  0
ARC
  5
336
100
AcDbEntity
  8
0
  6
CONTINUOUS
 62
           3
100
AcDbCircle
 10
3415.899996721669
 20
1315.000000000058
 40
53.999999999956
100
AcDbArc
 50
180.0
 51
0.0
  0
ARC
  5
335
100
AcDbEntity
  8
0
  6
CONTINUOUS
 62
           3
100
AcDbCircle
 10
3415.899996721669
 20
1315.000000000058
 40
45.999999999961
100
AcDbArc
 50
180.0
 51
0.0
  0
ARC
  5
334
100
AcDbEntity
  8
0
  6
CONTINUOUS
 62
           3
100
AcDbCircle
 10
3415.899996721669
 20
1355.000000000222
 40
3.999999999996
100
AcDbArc
 50
180.0
 51
0.0
  0
ARC
  5
333
100
AcDbEntity
  8
1
  6
CONTINUOUS
 62
           3
100
AcDbCircle
 10
511.509758321875
 20
1267.114622327062
 40
0.500000000003
100
AcDbArc
 50
-83.827497998192
 51
-5.006793000225
  0
ARC
  5
332
100
AcDbEntity
  8
1
  6
CONTINUOUS
 62
           3
100
AcDbCircle
 10
505.434752321876
 20
1267.114622327062
 40
0.499999999996
100
AcDbArc
 50
-174.993206999703
 51
-96.172501999327
  0
ARC
  5
331
100
AcDbEntity
  8
1
  6
CONTINUOUS
 62
           3
100
AcDbCircle
 10
511.509758321875
 20
1323.287074327053
 40
0.500000000004
100
AcDbArc
 50
5.006793001367
 51
83.827497998178
  0
ARC
  5
330
100
AcDbEntity
  8
1
  6
CONTINUOUS
 62
           3
100
AcDbCircle
 10
505.434752321876
 20
1323.287074327053
 40
0.5
100
AcDbArc
 50
96.172501999341
 51
174.993206998561
  0
ARC
  5
32F
100
AcDbEntity
  8
1
  6
CONTINUOUS
 62
           3
100
AcDbCircle
 10
504.433952321882
 20
1295.200848327053
 40
9.999999999999
100
AcDbArc
 50
-5.006792999978
 51
5.006793000023
  0
ARC
  5
32E
100
AcDbEntity
  8
1
  6
CONTINUOUS
 62
           3
100
AcDbCircle
 10
512.510557321877
 20
1295.200848327053
 40
10.0
100
AcDbArc
 50
174.993206999977
 51
-174.993207000021
  0
ARC
  5
32D
100
AcDbEntity
  8
1
  6
CONTINUOUS
 62
           3
100
AcDbCircle
 10
508.472255321876
 20
1295.200848327053
 40
10.749999999989
100
AcDbArc
 50
118.77350699997
 51
-118.773506999946
  0
ARC
  5
32C
100
AcDbEntity
  8
1
  6
CONTINUOUS
 62
           3
100
AcDbCircle
 10
508.472255321876
 20
1295.200848327053
 40
10.750000000001
100
AcDbArc
 50
-61.22649300002
 51
0.0
  0
ARC
  5
32B
100
AcDbEntity
  8
1
  6
CONTINUOUS
 62
           3
100
AcDbCircle
 10
508.472255321876
 20
1295.200848327053
 40
10.75
100
AcDbArc
 50
0.0
 51
61.226492999996
  0
ARC
  5
32A
100
AcDbEntity
  8
1
  6
CONTINUOUS
 62
           3
100
AcDbCircle
 10
508.472255321876
 20
1295.200848327053
 40
28.749999999988
100
AcDbArc
 50
-96.172501999993
 51
-83.827497999993
  0
ARC
  5
329
100
AcDbEntity
  8
1
  6
CONTINUOUS
 62
           3
100
AcDbCircle
 10
508.472255321876
 20
1295.200848327053
 40
28.750000000008
100
AcDbArc
 50
83.827497999997
 51
96.172501999988
  0
ARC
  5
328
100
AcDbEntity
  8
1
  6
CONTINUOUS
 62
           7
100
AcDbCircle
 10
-657.980582219212
 20
5788.465598018147
 40
4.999999999996
100
AcDbArc
 50
-85.143317425416
 51
94.394618584451
  0
ARC
  5
327
100
AcDbEntity
  8
1
  6
CONTINUOUS
 62
           7
100
AcDbCircle
 10
-39.999999999996
 20
5838.465598018147
 40
620.0
100
AcDbArc
 50
-179.999999999999
 51
-175.836413410616
  0
ARC
  5
326
100
AcDbEntity
  8
1
  6
CONTINUOUS
 62
           7
100
AcDbCircle
 10
168.972870673509
 20
6167.984879343001
 40
5.000000000001
100
AcDbArc
 50
161.151717651225
 51
-19.471065626776
  0
ARC
  5
325
100
AcDbEntity
  8
1
  6
CONTINUOUS
 62
           7
100
AcDbCircle
 10
18.000000000004
 20
5733.465383439076
 40
459.999999999999
100
AcDbArc
 50
19.808653410673
 51
70.217542734251
  0
ARC
  5
324
100
AcDbEntity
  8
1
  6
CONTINUOUS
 62
           7
100
AcDbCircle
 10
-46.999999999996
 20
5743.465598018147
 40
525.000000000001
100
AcDbArc
 50
-89.633899153763
 51
-3.883455762483
  0
ARC
  5
323
100
AcDbEntity
  8
1
  6
CONTINUOUS
 62
           7
100
AcDbCircle
 10
477.10941262802
 20
5712.898890725488
 40
5.000000000003
100
AcDbArc
 50
86.935058466839
 51
-93.610617686046
  0
ARC
  5
322
100
AcDbEntity
  8
1
  6
CONTINUOUS
 62
           7
100
AcDbCircle
 10
452.450424338097
 20
5884.636904541594
 40
5.0
100
AcDbArc
 50
-90.0
 51
-71.125521506261
  0
ARC
  5
321
100
AcDbEntity
  8
1
  6
CONTINUOUS
 62
           7
100
AcDbCircle
 10
18.000000000004
 20
5733.465383439076
 40
460.0
100
AcDbArc
 50
0.602232686388
 51
18.563086854737
  0
ARC
  5
320
100
AcDbEntity
  8
1
  6
CONTINUOUS
 62
           7
100
AcDbCircle
 10
452.450424338097
 20
5884.636904541594
 40
5.0
100
AcDbArc
 50
109.497261771682
 51
-90.0
  0
ARC
  5
31F
100
AcDbEntity
  8
1
  6
CONTINUOUS
 62
           7
100
AcDbCircle
 10
-39.999999999996
 20
5838.465598018147
 40
620.000000000001
100
AcDbArc
 50
-174.912285430339
 51
-90.336887134984
  0
ARC
  5
31E
100
AcDbEntity
  8
1
  6
CONTINUOUS
 62
           7
100
AcDbCircle
 10
-46.999999999996
 20
5743.465598018147
 40
525.0
100
AcDbArc
 50
-2.792103456718
 51
-0.563719865862
  0
ARC
  5
31D
100
AcDbEntity
  8
1
  6
CONTINUOUS
 62
           7
100
AcDbCircle
 10
18.000000000004
 20
5733.465383439076
 40
459.999999999998
100
AcDbArc
 50
71.463109290188
 51
88.271493544498
  0
ARC
  5
31C
100
AcDbEntity
  8
1
  6
CONTINUOUS
 62
           7
100
AcDbCircle
 10
0.0
 20
5788.465598018147
 40
125.0
100
AcDbArc
 50
19.47546158221
 51
90.0
  0
ARC
  5
31B
100
AcDbEntity
  8
1
  6
CONTINUOUS
 62
           7
100
AcDbCircle
 10
0.0
 20
5788.465598018147
 40
124.999999999998
100
AcDbArc
 50
90.0
 51
-19.47546158221
  0
ARC
  5
31A
100
AcDbEntity
  8
7
  6
CONTINUOUS
 62
           7
100
AcDbCircle
 10
4145.800000000002
 20
3440.111356999998
 40
6.200000000001
100
AcDbArc
 50
0.0
 51
57.318085000004
  0
ARC
  5
319
100
AcDbEntity
  8
7
  6
CONTINUOUS
 62
           7
100
AcDbCircle
 10
4124.600000000003
 20
3461.799999999998
 40
3.199999999999
100
AcDbArc
 50
0.0
 51
90.0
  0
ARC
  5
318
100
AcDbEntity
  8
7
  6
CONTINUOUS
 62
           7
100
AcDbCircle
 10
4129.800000000002
 20
3462.041134000001
 40
2.0
100
AcDbArc
 50
180.0
 51
-124.999999999942
  0
ARC
  5
317
100
AcDbEntity
  8
7
  6
CONTINUOUS
 62
           7
100
AcDbCircle
 10
3957.900000000001
 20
3461.799999999998
 40
3.200000000002
100
AcDbArc
 50
90.0
 51
180.0
  0
ARC
  5
316
100
AcDbEntity
  8
7
  6
CONTINUOUS
 62
           7
100
AcDbCircle
 10
3952.700000000002
 20
3462.041134000001
 40
2.000000000003
100
AcDbArc
 50
-55.000000000026
 51
0.0
  0
ARC
  5
315
100
AcDbEntity
  8
7
  6
CONTINUOUS
 62
           7
100
AcDbCircle
 10
3932.076813000002
 20
3445.5
 40
2.0
100
AcDbArc
 50
-90.0
 51
-55.000000000017
  0
ARC
  5
314
100
AcDbEntity
  8
7
  6
CONTINUOUS
 62
           7
100
AcDbCircle
 10
3931.200000000002
 20
3440.299999999998
 40
3.200000000002
100
AcDbArc
 50
90.0
 51
180.0
  0
ARC
  5
313
100
AcDbEntity
  8
7
  6
CONTINUOUS
 62
           7
100
AcDbCircle
 10
-105.799999999999
 20
3440.111357
 40
6.2
100
AcDbArc
 50
122.68191500001
 51
180.0
  0
ARC
  5
312
100
AcDbEntity
  8
7
  6
CONTINUOUS
 62
           7
100
AcDbCircle
 10
-84.599999999999
 20
3461.799999999998
 40
3.200000000002
100
AcDbArc
 50
90.0
 51
180.0
  0
ARC
  5
311
100
AcDbEntity
  8
7
  6
CONTINUOUS
 62
           7
100
AcDbCircle
 10
-89.799999999999
 20
3462.041134000001
 40
2.0
100
AcDbArc
 50
-55.000000000028
 51
0.0
  0
ARC
  5
310
100
AcDbEntity
  8
7
  6
CONTINUOUS
 62
           7
100
AcDbCircle
 10
82.100000000001
 20
3461.799999999998
 40
3.2
100
AcDbArc
 50
0.0
 51
90.0
  0
ARC
  5
30F
100
AcDbEntity
  8
7
  6
CONTINUOUS
 62
           7
100
AcDbCircle
 10
87.300000000001
 20
3462.041134000001
 40
2.0
100
AcDbArc
 50
180.0
 51
-124.999999999971
  0
ARC
  5
30E
100
AcDbEntity
  8
7
  6
CONTINUOUS
 62
           7
100
AcDbCircle
 10
107.923187000001
 20
3445.5
 40
2.0
100
AcDbArc
 50
-125.000000000008
 51
-90.0
  0
ARC
  5
30D
100
AcDbEntity
  8
7
  6
CONTINUOUS
 62
           7
100
AcDbCircle
 10
108.800000000001
 20
3440.299999999998
 40
3.2
100
AcDbArc
 50
0.0
 51
90.0
  0
ARC
  5
30C
100
AcDbEntity
  8
1
  6
CONTINUOUS
 62
           7
100
AcDbCircle
 10
3402.000000000002
 20
1756.750000000002
 40
37.0
100
AcDbArc
 50
180.0
 51
-90.0
  0
ARC
  5
30B
100
AcDbEntity
  8
1
  6
CONTINUOUS
 62
           7
100
AcDbCircle
 10
3402.000000000002
 20
1756.750000000002
 40
17.0
100
AcDbArc
 50
180.0
 51
-90.0
  0
LINE
  5
30A
100
AcDbEntity
  8
1
  6
CONTINUOUS
 62
           3
100
AcDbLine
 10
3920.163567691039
 20
1935.969655114603
 11
3914.489527668228
 21
1932.69374658004
  0
LINE
  5
309
100
AcDbEntity
  8
1
  6
CONTINUOUS
 62
           3
100
AcDbLine
 10
3929.663567691039
 20
1930.484827557302
 11
3920.163567691039
 21
1935.969655114603
  0
LINE
  5
308
100
AcDbEntity
  8
1
  6
CONTINUOUS
 62
           3
100
AcDbLine
 10
3929.663567691039
 20
1919.515172442699
 11
3929.663567691039
 21
1930.484827557302
  0
LINE
  5
307
100
AcDbEntity
  8
1
  6
CONTINUOUS
 62
           3
100
AcDbLine
 10
3920.163567691039
 20
1914.030344885398
 11
3929.663567691039
 21
1919.515172442699
  0
LINE
  5
306
100
AcDbEntity
  8
1
  6
CONTINUOUS
 62
           3
100
AcDbLine
 10
3914.489527668228
 20
1917.30625341996
 11
3920.163567691039
 21
1914.030344885398
  0
LINE
  5
305
100
AcDbEntity
  8
1
  6
DOT_CENTER
 62
           3
100
AcDbLine
 10
3896.218519558621
 20
1925.0
 11
3937.667695262448
 21
1925.0
  0
LINE
  5
304
100
AcDbEntity
  8
1
  6
CONTINUOUS
 62
           3
100
AcDbLine
 10
3909.38921487194
 20
1916.75
 11
3909.38921487194
 21
1917.30625341996
  0
LINE
  5
303
100
AcDbEntity
  8
1
  6
CONTINUOUS
 62
           3
100
AcDbLine
 10
3909.38921487194
 20
1916.75
 11
3899.714603906643
 21
1916.75
  0
LINE
  5
302
100
AcDbEntity
  8
1
  6
CONTINUOUS
 62
           3
100
AcDbLine
 10
3899.714603906643
 20
1916.75
 11
3899.714603906643
 21
1925.0
  0
LINE
  5
301
100
AcDbEntity
  8
1
  6
CONTINUOUS
 62
           3
100
AcDbLine
 10
3899.714603906643
 20
1919.0
 11
3898.868798384463
 21
1919.0
  0
LINE
  5
300
100
AcDbEntity
  8
1
  6
CONTINUOUS
 62
           3
100
AcDbLine
 10
3898.868798384463
 20
1917.30625341996
 11
3898.868798384463
 21
1925.0
  0
LINE
  5
2FF
100
AcDbEntity
  8
1
  6
CONTINUOUS
 62
           3
100
AcDbLine
 10
3898.868798384463
 20
1917.30625341996
 11
3898.163567691039
 21
1917.30625341996
  0
LINE
  5
2FE
100
AcDbEntity
  8
1
  6
CONTINUOUS
 62
           3
100
AcDbLine
 10
3897.663567691039
 20
1925.0
 11
3897.663567691039
 21
1917.80625341996
  0
LINE
  5
2FD
100
AcDbEntity
  8
1
  6
CONTINUOUS
 62
           3
100
AcDbLine
 10
3897.663567691039
 20
1932.19374658004
 11
3897.663567691039
 21
1925.0
  0
LINE
  5
2FC
100
AcDbEntity
  8
1
  6
CONTINUOUS
 62
           3
100
AcDbLine
 10
3898.163567691039
 20
1932.69374658004
 11
3898.868798384463
 21
1932.69374658004
  0
LINE
  5
2FB
100
AcDbEntity
  8
1
  6
CONTINUOUS
 62
           3
100
AcDbLine
 10
3898.868798384463
 20
1925.0
 11
3898.868798384463
 21
1932.69374658004
  0
LINE
  5
2FA
100
AcDbEntity
  8
1
  6
CONTINUOUS
 62
           3
100
AcDbLine
 10
3898.868798384463
 20
1931.0
 11
3899.714603906643
 21
1931.0
  0
LINE
  5
2F9
100
AcDbEntity
  8
1
  6
CONTINUOUS
 62
           3
100
AcDbLine
 10
3899.714603906643
 20
1933.25
 11
3909.38921487194
 21
1933.25
  0
LINE
  5
2F8
100
AcDbEntity
  8
1
  6
CONTINUOUS
 62
           3
100
AcDbLine
 10
3899.714603906643
 20
1925.0
 11
3899.714603906643
 21
1933.25
  0
LINE
  5
2F7
100
AcDbEntity
  8
1
  6
CONTINUOUS
 62
           3
100
AcDbLine
 10
3909.38921487194
 20
1932.69374658004
 11
3909.38921487194
 21
1933.25
  0
LINE
  5
2F6
100
AcDbEntity
  8
1
  6
CONTINUOUS
 62
           3
100
AcDbLine
 10
3909.38921487194
 20
1917.30625341996
 11
3909.38921487194
 21
1932.69374658004
  0
LINE
  5
2F5
100
AcDbEntity
  8
1
  6
CONTINUOUS
 62
           3
100
AcDbLine
 10
3915.254330418629
 20
1917.30625341996
 11
3915.254330418629
 21
1932.69374658004
  0
LINE
  5
2F4
100
AcDbEntity
  8
1
  6
CONTINUOUS
 62
           3
100
AcDbLine
 10
3915.254330418629
 20
1917.30625341996
 11
3909.38921487194
 21
1917.30625341996
  0
LINE
  5
2F3
100
AcDbEntity
  8
1
  6
CONTINUOUS
 62
           3
100
AcDbLine
 10
3915.254330418629
 20
1932.69374658004
 11
3909.38921487194
 21
1932.69374658004
  0
LINE
  5
2F2
100
AcDbEntity
  8
1
  6
CONTINUOUS
 62
           3
100
AcDbLine
 10
3915.254330418629
 20
1930.871834995069
 11
3920.163567691039
 21
1930.871834995069
  0
LINE
  5
2F1
100
AcDbEntity
  8
1
  6
DOT_CENTER
 62
           3
100
AcDbLine
 10
3920.163567691039
 20
1938.643555804874
 11
3920.163567691039
 21
1907.508008255125
  0
LINE
  5
2F0
100
AcDbEntity
  8
1
  6
CONTINUOUS
 62
           3
100
AcDbLine
 10
3920.163567691039
 20
1919.128165004934
 11
3915.254330418629
 21
1919.128165004934
  0
LINE
  5
2EF
100
AcDbEntity
  8
0
  6
CONTINUOUS
 62
           3
100
AcDbLine
 10
3414.84472349417
 20
1393.116392195192
 11
3415.899996721669
 21
1393.131740391393
  0
LINE
  5
2EE
100
AcDbEntity
  8
0
  6
CONTINUOUS
 62
           3
100
AcDbLine
 10
3413.903805503271
 20
1393.072016537193
 11
3414.84472349417
 21
1393.116392195192
  0
LINE
  5
2ED
100
AcDbEntity
  8
0
  6
CONTINUOUS
 62
           3
100
AcDbLine
 10
3413.179205573573
 20
1393.003411590991
 11
3413.903805503271
 21
1393.072016537193
  0
LINE
  5
2EC
100
AcDbEntity
  8
0
  6
CONTINUOUS
 62
           3
100
AcDbLine
 10
3412.749445840372
 20
1392.918020486792
 11
3413.179205573573
 21
1393.003411590991
  0
LINE
  5
2EB
100
AcDbEntity
  8
0
  6
CONTINUOUS
 62
           3
100
AcDbLine
 10
3412.661097088372
 20
1392.825089394992
 11
3412.749445840372
 21
1392.918020486792
  0
LINE
  5
2EA
100
AcDbEntity
  8
0
  6
CONTINUOUS
 62
           3
100
AcDbLine
 10
3412.899996695572
 20
1392.739541828793
 11
3412.661097088372
 21
1392.825089394992
  0
LINE
  5
2E9
100
AcDbEntity
  8
0
  6
CONTINUOUS
 62
           3
100
AcDbLine
 10
3419.138896354967
 20
1392.825089394992
 11
3418.899996747767
 21
1392.739541828793
  0
LINE
  5
2E8
100
AcDbEntity
  8
0
  6
CONTINUOUS
 62
           3
100
AcDbLine
 10
3419.050547602966
 20
1392.918020486792
 11
3419.138896354967
 21
1392.825089394992
  0
LINE
  5
2E7
100
AcDbEntity
  8
0
  6
CONTINUOUS
 62
           3
100
AcDbLine
 10
3418.620787869768
 20
1393.003411590991
 11
3419.050547602966
 21
1392.918020486792
  0
LINE
  5
2E6
100
AcDbEntity
  8
0
  6
CONTINUOUS
 62
           3
100
AcDbLine
 10
3417.896187940068
 20
1393.072016537193
 11
3418.620787869768
 21
1393.003411590991
  0
LINE
  5
2E5
100
AcDbEntity
  8
0
  6
CONTINUOUS
 62
           3
100
AcDbLine
 10
3416.955269949169
 20
1393.116392195192
 11
3417.896187940068
 21
1393.072016537193
  0
LINE
  5
2E4
100
AcDbEntity
  8
0
  6
CONTINUOUS
 62
           3
100
AcDbLine
 10
3415.899996721669
 20
1393.131740391393
 11
3416.955269949169
 21
1393.116392195192
  0
LINE
  5
2E3
100
AcDbEntity
  8
FORMAT
  6
CONTINUOUS
 62
           3
100
AcDbLine
 10
3412.399996721573
 20
1392.596845102893
 11
3401.89999672158
 21
1392.596845102893
  0
LINE
  5
2E2
100
AcDbEntity
  8
FORMAT
  6
DOT_CENTER
 62
           3
100
AcDbLine
 10
3415.899996721669
 20
1249.759397252256
 11
3415.899996721669
 21
1725.394390768569
  0
LINE
  5
2E1
100
AcDbEntity
  8
FORMAT
  6
CONTINUOUS
 62
           3
100
AcDbLine
 10
3419.399996721766
 20
1392.596845102893
 11
3412.399996721573
 21
1392.596845102893
  0
LINE
  5
2E0
100
AcDbEntity
  8
FORMAT
  6
CONTINUOUS
 62
           3
100
AcDbLine
 10
3429.899996721759
 20
1392.596845102893
 11
3419.399996721766
 21
1392.596845102893
  0
LINE
  5
2DF
100
AcDbEntity
  8
FORMAT
  6
DOT_CENTER
 62
           3
100
AcDbLine
 10
3340.999996721632
 20
1375.000000000007
 11
3327.399996721742
 21
1375.000000000007
  0
LINE
  5
2DE
100
AcDbEntity
  8
FORMAT
  6
DOT_CENTER
 62
           3
100
AcDbLine
 10
3340.999996721632
 20
1625.0
 11
3327.399996721742
 21
1625.0
  0
LINE
  5
2DD
100
AcDbEntity
  8
0
  6
CONTINUOUS
 62
           3
100
AcDbLine
 10
3350.899999106023
 20
1364.999994635815
 11
3335.499999189234
 21
1364.999994635815
  0
LINE
  5
2DC
100
AcDbEntity
  8
0
  6
CONTINUOUS
 62
           3
100
AcDbLine
 10
3354.399995023119
 20
1590.000003576231
 11
3354.399995023119
 21
1509.999999776395
  0
LINE
  5
2DB
100
AcDbEntity
  8
0
  6
CONTINUOUS
 62
           3
100
AcDbLine
 10
3357.399997377517
 20
1590.000003576231
 11
3354.399995023119
 21
1590.000003576231
  0
LINE
  5
2DA
100
AcDbEntity
  8
0
  6
CONTINUOUS
 62
           3
100
AcDbLine
 10
3357.399997377517
 20
1550.000000744964
 11
3357.399997377517
 21
1590.000003576231
  0
LINE
  5
2D9
100
AcDbEntity
  8
0
  6
CONTINUOUS
 62
           3
100
AcDbLine
 10
3357.399997377517
 20
1529.999999329481
 11
3357.399997377517
 21
1532.000001519879
  0
LINE
  5
2D8
100
AcDbEntity
  8
0
  6
CONTINUOUS
 62
           3
100
AcDbLine
 10
3354.399995023119
 20
1509.999999776395
 11
3355.97518932232
 21
1509.999999776395
  0
LINE
  5
2D7
100
AcDbEntity
  8
0
  6
CONTINUOUS
 62
           3
100
AcDbLine
 10
3475.899995380621
 20
1368.000000715314
 11
3475.899995380621
 21
1367.300003767014
  0
LINE
  5
2D6
100
AcDbEntity
  8
0
  6
CONTINUOUS
 62
           3
100
AcDbLine
 10
3480.899994337316
 20
1364.999994635815
 11
3480.899994337316
 21
1368.000000715314
  0
LINE
  5
2D5
100
AcDbEntity
  8
0
  6
CONTINUOUS
 62
           3
100
AcDbLine
 10
3480.899994337316
 20
1635.000005364196
 11
3480.899994337316
 21
1631.999999284697
  0
LINE
  5
2D4
100
AcDbEntity
  8
0
  6
CONTINUOUS
 62
           3
100
AcDbLine
 10
3475.899995380621
 20
1631.999999284697
 11
3475.899995380621
 21
1632.699996232994
  0
LINE
  5
2D3
100
AcDbEntity
  8
0
  6
CONTINUOUS
 62
           3
100
AcDbLine
 10
3355.899998062718
 20
1631.999999284697
 11
3355.899998062718
 21
1632.699996232994
  0
LINE
  5
2D2
100
AcDbEntity
  8
0
  6
CONTINUOUS
 62
           3
100
AcDbLine
 10
3350.899999106023
 20
1635.000005364196
 11
3350.899999106023
 21
1631.999999284697
  0
LINE
  5
2D1
100
AcDbEntity
  8
0
  6
CONTINUOUS
 62
           3
100
AcDbLine
 10
3350.899999106023
 20
1635.000005364196
 11
3335.499999189234
 21
1635.000005364196
  0
LINE
  5
2D0
100
AcDbEntity
  8
0
  6
CONTINUOUS
 62
           3
100
AcDbLine
 10
3350.899999106023
 20
1364.999994635815
 11
3350.899999106023
 21
1368.000000715314
  0
LINE
  5
2CF
100
AcDbEntity
  8
0
  6
CONTINUOUS
 62
           3
100
AcDbLine
 10
3355.899998062718
 20
1368.000000715314
 11
3355.899998062718
 21
1367.300003767014
  0
LINE
  5
2CE
100
AcDbEntity
  8
0
  6
CONTINUOUS
 62
           3
100
AcDbLine
 10
3354.399995023119
 20
1409.99999642378
 11
3354.399995023119
 21
1490.000000223612
  0
LINE
  5
2CD
100
AcDbEntity
  8
0
  6
CONTINUOUS
 62
           3
100
AcDbLine
 10
3354.399995023119
 20
1490.000000223612
 11
3355.899998062718
 21
1490.000000223612
  0
LINE
  5
2CC
100
AcDbEntity
  8
0
  6
CONTINUOUS
 62
           3
100
AcDbLine
 10
3357.399997377517
 20
1431.999996304559
 11
3357.399997377517
 21
1429.999999701962
  0
LINE
  5
2CB
100
AcDbEntity
  8
0
  6
CONTINUOUS
 62
           3
100
AcDbLine
 10
3355.97518932232
 20
1409.99999642378
 11
3354.399995023119
 21
1409.99999642378
  0
LINE
  5
2CA
100
AcDbEntity
  8
0
  6
CONTINUOUS
 62
           3
100
AcDbLine
 10
3477.399998420218
 20
1590.000003576231
 11
3477.399998420218
 21
1509.999999776395
  0
LINE
  5
2C9
100
AcDbEntity
  8
0
  6
CONTINUOUS
 62
           3
100
AcDbLine
 10
3477.399998420218
 20
1509.999999776395
 11
3475.824804121021
 21
1509.999999776395
  0
LINE
  5
2C8
100
AcDbEntity
  8
0
  6
CONTINUOUS
 62
           3
100
AcDbLine
 10
3474.399996066122
 20
1550.000000744964
 11
3474.399996066122
 21
1590.000003576231
  0
LINE
  5
2C7
100
AcDbEntity
  8
0
  6
CONTINUOUS
 62
           3
100
AcDbLine
 10
3474.399996066122
 20
1529.999999329481
 11
3474.399996066122
 21
1532.000001519879
  0
LINE
  5
2C6
100
AcDbEntity
  8
0
  6
CONTINUOUS
 62
           3
100
AcDbLine
 10
3474.399996066122
 20
1590.000003576231
 11
3477.399998420218
 21
1590.000003576231
  0
LINE
  5
2C5
100
AcDbEntity
  8
0
  6
CONTINUOUS
 62
           3
100
AcDbLine
 10
3477.399998420218
 20
1409.99999642378
 11
3477.399998420218
 21
1490.000000223612
  0
LINE
  5
2C4
100
AcDbEntity
  8
0
  6
CONTINUOUS
 62
           3
100
AcDbLine
 10
3475.824804121021
 20
1409.99999642378
 11
3477.399998420218
 21
1409.99999642378
  0
LINE
  5
2C3
100
AcDbEntity
  8
0
  6
CONTINUOUS
 62
           3
100
AcDbLine
 10
3474.399996066122
 20
1431.999996304559
 11
3474.399996066122
 21
1429.999999701962
  0
LINE
  5
2C2
100
AcDbEntity
  8
0
  6
CONTINUOUS
 62
           3
100
AcDbLine
 10
3477.399998420218
 20
1490.000000223612
 11
3475.899995380621
 21
1490.000000223612
  0
LINE
  5
2C1
100
AcDbEntity
  8
0
  6
CONTINUOUS
 62
           3
100
AcDbLine
 10
3335.499999189234
 20
1635.000005364196
 11
3333.399993443338
 21
1635.000005364196
  0
LINE
  5
2C0
100
AcDbEntity
  8
0
  6
CONTINUOUS
 62
           3
100
AcDbLine
 10
3333.399993443338
 20
1635.000005364196
 11
3333.399993443338
 21
1364.999994635815
  0
LINE
  5
2BF
100
AcDbEntity
  8
0
  6
CONTINUOUS
 62
           3
100
AcDbLine
 10
3335.499999189234
 20
1364.999994635815
 11
3333.399993443338
 21
1364.999994635815
  0
LINE
  5
2BE
100
AcDbEntity
  8
0
  6
CONTINUOUS
 62
           3
100
AcDbLine
 10
3355.899998062718
 20
1366.600006818713
 11
3355.899998062718
 21
1367.300003767014
  0
LINE
  5
2BD
100
AcDbEntity
  8
0
  6
CONTINUOUS
 62
           3
100
AcDbLine
 10
3475.899995380621
 20
1366.600006818713
 11
3475.899995380621
 21
1367.300003767014
  0
LINE
  5
2BC
100
AcDbEntity
  8
0
  6
CONTINUOUS
 62
           3
100
AcDbLine
 10
3355.899998062718
 20
1633.399993180996
 11
3355.899998062718
 21
1632.699996232994
  0
LINE
  5
2BB
100
AcDbEntity
  8
0
  6
CONTINUOUS
 62
           3
100
AcDbLine
 10
3475.899995380621
 20
1633.399993180996
 11
3475.899995380621
 21
1632.699996232994
  0
LINE
  5
2BA
100
AcDbEntity
  8
0
  6
CONTINUOUS
 62
           3
100
AcDbLine
 10
3470.899996423624
 20
1633.399993180996
 11
3475.899995380621
 21
1633.399993180996
  0
LINE
  5
2B9
100
AcDbEntity
  8
0
  6
CONTINUOUS
 62
           3
100
AcDbLine
 10
3475.899995380621
 20
1635.000005364196
 11
3470.899996423624
 21
1635.000005364196
  0
LINE
  5
2B8
100
AcDbEntity
  8
0
  6
CONTINUOUS
 62
           3
100
AcDbLine
 10
3475.899995380621
 20
1633.399993180996
 11
3475.899995380621
 21
1635.000005364196
  0
LINE
  5
2B7
100
AcDbEntity
  8
0
  6
CONTINUOUS
 62
           3
100
AcDbLine
 10
3470.899996423624
 20
1366.600006818713
 11
3475.899995380621
 21
1366.600006818713
  0
LINE
  5
2B6
100
AcDbEntity
  8
0
  6
CONTINUOUS
 62
           3
100
AcDbLine
 10
3475.899995380621
 20
1364.999994635815
 11
3470.899996423624
 21
1364.999994635815
  0
LINE
  5
2B5
100
AcDbEntity
  8
0
  6
CONTINUOUS
 62
           3
100
AcDbLine
 10
3475.899995380621
 20
1366.600006818713
 11
3475.899995380621
 21
1364.999994635815
  0
LINE
  5
2B4
100
AcDbEntity
  8
0
  6
CONTINUOUS
 62
           3
100
AcDbLine
 10
3460.899998509632
 20
1366.600006818713
 11
3462.899995112231
 21
1366.600006818713
  0
LINE
  5
2B3
100
AcDbEntity
  8
0
  6
CONTINUOUS
 62
           3
100
AcDbLine
 10
3462.899995112231
 20
1364.999994635815
 11
3460.899998509632
 21
1364.999994635815
  0
LINE
  5
2B2
100
AcDbEntity
  8
0
  6
CONTINUOUS
 62
           3
100
AcDbLine
 10
3462.899995112231
 20
1366.600006818713
 11
3462.899995112231
 21
1364.999994635815
  0
LINE
  5
2B1
100
AcDbEntity
  8
0
  6
CONTINUOUS
 62
           3
100
AcDbLine
 10
3460.899998509632
 20
1633.399993180996
 11
3462.899995112231
 21
1633.399993180996
  0
LINE
  5
2B0
100
AcDbEntity
  8
0
  6
CONTINUOUS
 62
           3
100
AcDbLine
 10
3462.899995112231
 20
1635.000005364196
 11
3460.899998509632
 21
1635.000005364196
  0
LINE
  5
2AF
100
AcDbEntity
  8
0
  6
CONTINUOUS
 62
           3
100
AcDbLine
 10
3462.899995112231
 20
1633.399993180996
 11
3462.899995112231
 21
1635.000005364196
  0
LINE
  5
2AE
100
AcDbEntity
  8
0
  6
CONTINUOUS
 62
           3
100
AcDbLine
 10
3468.899996095926
 20
1366.600006818713
 11
3470.899996423624
 21
1366.600006818713
  0
LINE
  5
2AD
100
AcDbEntity
  8
0
  6
CONTINUOUS
 62
           3
100
AcDbLine
 10
3470.899996423624
 20
1364.999994635815
 11
3468.899996095926
 21
1364.999994635815
  0
LINE
  5
2AC
100
AcDbEntity
  8
0
  6
CONTINUOUS
 62
           3
100
AcDbLine
 10
3468.899996095926
 20
1364.999994635815
 11
3468.899996095926
 21
1366.600006818713
  0
LINE
  5
2AB
100
AcDbEntity
  8
0
  6
CONTINUOUS
 62
           3
100
AcDbLine
 10
3468.899996095926
 20
1633.399993180996
 11
3470.899996423624
 21
1633.399993180996
  0
LINE
  5
2AA
100
AcDbEntity
  8
0
  6
CONTINUOUS
 62
           3
100
AcDbLine
 10
3470.899996423624
 20
1635.000005364196
 11
3468.899996095926
 21
1635.000005364196
  0
LINE
  5
2A9
100
AcDbEntity
  8
0
  6
CONTINUOUS
 62
           3
100
AcDbLine
 10
3468.899996095926
 20
1635.000005364196
 11
3468.899996095926
 21
1633.399993180996
  0
LINE
  5
2A8
100
AcDbEntity
  8
0
  6
CONTINUOUS
 62
           3
100
AcDbLine
 10
3360.899997019715
 20
1633.399993180996
 11
3355.899998062718
 21
1633.399993180996
  0
LINE
  5
2A7
100
AcDbEntity
  8
0
  6
CONTINUOUS
 62
           3
100
AcDbLine
 10
3355.899998062718
 20
1635.000005364196
 11
3360.899997019715
 21
1635.000005364196
  0
LINE
  5
2A6
100
AcDbEntity
  8
0
  6
CONTINUOUS
 62
           3
100
AcDbLine
 10
3355.899998062718
 20
1633.399993180996
 11
3355.899998062718
 21
1635.000005364196
  0
LINE
  5
2A5
100
AcDbEntity
  8
0
  6
CONTINUOUS
 62
           3
100
AcDbLine
 10
3360.899997019715
 20
1366.600006818713
 11
3355.899998062718
 21
1366.600006818713
  0
LINE
  5
2A4
100
AcDbEntity
  8
0
  6
CONTINUOUS
 62
           3
100
AcDbLine
 10
3355.899998062718
 20
1364.999994635815
 11
3360.899997019715
 21
1364.999994635815
  0
LINE
  5
2A3
100
AcDbEntity
  8
0
  6
CONTINUOUS
 62
           3
100
AcDbLine
 10
3355.899998062718
 20
1366.600006818713
 11
3355.899998062718
 21
1364.999994635815
  0
LINE
  5
2A2
100
AcDbEntity
  8
0
  6
CONTINUOUS
 62
           3
100
AcDbLine
 10
3370.899994933707
 20
1633.399993180996
 11
3460.899998509632
 21
1633.399993180996
  0
LINE
  5
2A1
100
AcDbEntity
  8
0
  6
CONTINUOUS
 62
           3
100
AcDbLine
 10
3370.899994933707
 20
1635.000005364196
 11
3460.899998509632
 21
1635.000005364196
  0
LINE
  5
2A0
100
AcDbEntity
  8
0
  6
CONTINUOUS
 62
           3
100
AcDbLine
 10
3370.899994933707
 20
1366.600006818713
 11
3460.899998509632
 21
1366.600006818713
  0
LINE
  5
29F
100
AcDbEntity
  8
0
  6
CONTINUOUS
 62
           3
100
AcDbLine
 10
3370.899994933707
 20
1364.999994635815
 11
3460.899998509632
 21
1364.999994635815
  0
LINE
  5
29E
100
AcDbEntity
  8
0
  6
CONTINUOUS
 62
           3
100
AcDbLine
 10
3370.899994933707
 20
1366.600006818713
 11
3368.899998331108
 21
1366.600006818713
  0
LINE
  5
29D
100
AcDbEntity
  8
0
  6
CONTINUOUS
 62
           3
100
AcDbLine
 10
3368.899998331108
 20
1366.600006818713
 11
3368.899998331108
 21
1364.999994635815
  0
LINE
  5
29C
100
AcDbEntity
  8
0
  6
CONTINUOUS
 62
           3
100
AcDbLine
 10
3368.899998331108
 20
1364.999994635815
 11
3370.899994933707
 21
1364.999994635815
  0
LINE
  5
29B
100
AcDbEntity
  8
0
  6
CONTINUOUS
 62
           3
100
AcDbLine
 10
3370.899994933707
 20
1633.399993180996
 11
3368.899998331108
 21
1633.399993180996
  0
LINE
  5
29A
100
AcDbEntity
  8
0
  6
CONTINUOUS
 62
           3
100
AcDbLine
 10
3368.899998331108
 20
1635.000005364196
 11
3370.899994933707
 21
1635.000005364196
  0
LINE
  5
299
100
AcDbEntity
  8
0
  6
CONTINUOUS
 62
           3
100
AcDbLine
 10
3368.899998331108
 20
1633.399993180996
 11
3368.899998331108
 21
1635.000005364196
  0
LINE
  5
298
100
AcDbEntity
  8
0
  6
CONTINUOUS
 62
           3
100
AcDbLine
 10
3362.899997347713
 20
1633.399993180996
 11
3360.899997019715
 21
1633.399993180996
  0
LINE
  5
297
100
AcDbEntity
  8
0
  6
CONTINUOUS
 62
           3
100
AcDbLine
 10
3362.899997347713
 20
1635.000005364196
 11
3362.899997347713
 21
1633.399993180996
  0
LINE
  5
296
100
AcDbEntity
  8
0
  6
CONTINUOUS
 62
           3
100
AcDbLine
 10
3360.899997019715
 20
1635.000005364196
 11
3362.899997347713
 21
1635.000005364196
  0
LINE
  5
295
100
AcDbEntity
  8
0
  6
CONTINUOUS
 62
           3
100
AcDbLine
 10
3362.899997347713
 20
1366.600006818713
 11
3360.899997019715
 21
1366.600006818713
  0
LINE
  5
294
100
AcDbEntity
  8
0
  6
CONTINUOUS
 62
           3
100
AcDbLine
 10
3360.899997019715
 20
1364.999994635815
 11
3362.899997347713
 21
1364.999994635815
  0
LINE
  5
293
100
AcDbEntity
  8
0
  6
CONTINUOUS
 62
           3
100
AcDbLine
 10
3362.899997347713
 20
1364.999994635815
 11
3362.899997347713
 21
1366.600006818713
  0
LINE
  5
292
100
AcDbEntity
  8
0
  6
CONTINUOUS
 62
           3
100
AcDbLine
 10
3475.824804121021
 20
1409.99999642378
 11
3474.199996405621
 21
1409.99999642378
  0
LINE
  5
291
100
AcDbEntity
  8
0
  6
CONTINUOUS
 62
           3
100
AcDbLine
 10
3474.199996405621
 20
1429.999999701962
 11
3475.899995380621
 21
1429.999999701962
  0
LINE
  5
290
100
AcDbEntity
  8
0
  6
CONTINUOUS
 62
           3
100
AcDbLine
 10
3475.899995380621
 20
1429.999999701962
 11
3475.899995380621
 21
1409.99999642378
  0
LINE
  5
28F
100
AcDbEntity
  8
0
  6
CONTINUOUS
 62
           3
100
AcDbLine
 10
3355.899998062718
 20
1529.999999329481
 11
3357.599997037718
 21
1529.999999329481
  0
LINE
  5
28E
100
AcDbEntity
  8
0
  6
CONTINUOUS
 62
           3
100
AcDbLine
 10
3355.899998062718
 20
1509.999999776395
 11
3355.899998062718
 21
1529.999999329481
  0
LINE
  5
28D
100
AcDbEntity
  8
0
  6
CONTINUOUS
 62
           3
100
AcDbLine
 10
3357.599997037718
 20
1509.999999776395
 11
3355.97518932232
 21
1509.999999776395
  0
LINE
  5
28C
100
AcDbEntity
  8
0
  6
CONTINUOUS
 62
           3
100
AcDbLine
 10
3355.97518932232
 20
1409.99999642378
 11
3357.599997037718
 21
1409.99999642378
  0
LINE
  5
28B
100
AcDbEntity
  8
0
  6
CONTINUOUS
 62
           3
100
AcDbLine
 10
3357.599997037718
 20
1429.999999701962
 11
3355.899998062718
 21
1429.999999701962
  0
LINE
  5
28A
100
AcDbEntity
  8
0
  6
CONTINUOUS
 62
           3
100
AcDbLine
 10
3355.899998062718
 20
1429.999999701962
 11
3355.899998062718
 21
1409.99999642378
  0
LINE
  5
289
100
AcDbEntity
  8
0
  6
CONTINUOUS
 62
           3
100
AcDbLine
 10
3357.599997037718
 20
1529.999999329481
 11
3357.899998390718
 21
1529.999999329481
  0
LINE
  5
288
100
AcDbEntity
  8
0
  6
CONTINUOUS
 62
           3
100
AcDbLine
 10
3357.899998390718
 20
1509.999999776395
 11
3357.599997037718
 21
1509.999999776395
  0
LINE
  5
287
100
AcDbEntity
  8
0
  6
CONTINUOUS
 62
           3
100
AcDbLine
 10
3355.899998062718
 20
1508.0000003799
 11
3357.899998390718
 21
1508.0000003799
  0
LINE
  5
286
100
AcDbEntity
  8
0
  6
CONTINUOUS
 62
           3
100
AcDbLine
 10
3355.899998062718
 20
1508.0000003799
 11
3355.899998062718
 21
1431.999996304559
  0
LINE
  5
285
100
AcDbEntity
  8
0
  6
CONTINUOUS
 62
           3
100
AcDbLine
 10
3355.899998062718
 20
1431.999996304559
 11
3357.899998390718
 21
1431.999996304559
  0
LINE
  5
284
100
AcDbEntity
  8
0
  6
CONTINUOUS
 62
           3
100
AcDbLine
 10
3357.899998390718
 20
1429.999999701962
 11
3357.599997037718
 21
1429.999999701962
  0
LINE
  5
283
100
AcDbEntity
  8
0
  6
CONTINUOUS
 62
           3
100
AcDbLine
 10
3357.599997037718
 20
1409.99999642378
 11
3357.899998390718
 21
1409.99999642378
  0
LINE
  5
282
100
AcDbEntity
  8
0
  6
CONTINUOUS
 62
           3
100
AcDbLine
 10
3357.899998390718
 20
1407.999999821183
 11
3355.899998062718
 21
1407.999999821183
  0
LINE
  5
281
100
AcDbEntity
  8
0
  6
CONTINUOUS
 62
           3
100
AcDbLine
 10
3355.899998062718
 20
1391.699999570792
 11
3355.899998062718
 21
1407.999999821183
  0
LINE
  5
280
100
AcDbEntity
  8
0
  6
CONTINUOUS
 62
           3
100
AcDbLine
 10
3475.899995380621
 20
1391.699999570792
 11
3475.899995380621
 21
1407.999999821183
  0
LINE
  5
27F
100
AcDbEntity
  8
0
  6
CONTINUOUS
 62
           3
100
AcDbLine
 10
3473.899995052623
 20
1407.999999821183
 11
3475.899995380621
 21
1407.999999821183
  0
LINE
  5
27E
100
AcDbEntity
  8
0
  6
CONTINUOUS
 62
           3
100
AcDbLine
 10
3474.199996405621
 20
1409.99999642378
 11
3473.899995052623
 21
1409.99999642378
  0
LINE
  5
27D
100
AcDbEntity
  8
0
  6
CONTINUOUS
 62
           3
100
AcDbLine
 10
3473.899995052623
 20
1429.999999701962
 11
3474.199996405621
 21
1429.999999701962
  0
LINE
  5
27C
100
AcDbEntity
  8
0
  6
CONTINUOUS
 62
           3
100
AcDbLine
 10
3475.899995380621
 20
1431.999996304559
 11
3473.899995052623
 21
1431.999996304559
  0
LINE
  5
27B
100
AcDbEntity
  8
0
  6
CONTINUOUS
 62
           3
100
AcDbLine
 10
3475.899995380621
 20
1508.0000003799
 11
3475.899995380621
 21
1431.999996304559
  0
LINE
  5
27A
100
AcDbEntity
  8
0
  6
CONTINUOUS
 62
           3
100
AcDbLine
 10
3475.899995380621
 20
1508.0000003799
 11
3473.899995052623
 21
1508.0000003799
  0
LINE
  5
279
100
AcDbEntity
  8
0
  6
CONTINUOUS
 62
           3
100
AcDbLine
 10
3473.899995052623
 20
1509.999999776395
 11
3474.199996405621
 21
1509.999999776395
  0
LINE
  5
278
100
AcDbEntity
  8
0
  6
CONTINUOUS
 62
           3
100
AcDbLine
 10
3474.199996405621
 20
1529.999999329481
 11
3473.899995052623
 21
1529.999999329481
  0
LINE
  5
277
100
AcDbEntity
  8
0
  6
CONTINUOUS
 62
           3
100
AcDbLine
 10
3473.899995052623
 20
1532.000001519879
 11
3475.899995380621
 21
1532.000001519879
  0
LINE
  5
276
100
AcDbEntity
  8
0
  6
CONTINUOUS
 62
           3
100
AcDbLine
 10
3475.899995380621
 20
1548.300001770265
 11
3475.899995380621
 21
1532.000001519879
  0
LINE
  5
275
100
AcDbEntity
  8
0
  6
CONTINUOUS
 62
           3
100
AcDbLine
 10
3355.899998062718
 20
1548.300001770265
 11
3355.899998062718
 21
1532.000001519879
  0
LINE
  5
274
100
AcDbEntity
  8
0
  6
CONTINUOUS
 62
           3
100
AcDbLine
 10
3357.899998390718
 20
1532.000001519879
 11
3355.899998062718
 21
1532.000001519879
  0
LINE
  5
273
100
AcDbEntity
  8
0
  6
CONTINUOUS
 62
           3
100
AcDbLine
 10
3474.199996405621
 20
1509.999999776395
 11
3475.824804121021
 21
1509.999999776395
  0
LINE
  5
272
100
AcDbEntity
  8
0
  6
CONTINUOUS
 62
           3
100
AcDbLine
 10
3475.899995380621
 20
1509.999999776395
 11
3475.899995380621
 21
1529.999999329481
  0
LINE
  5
271
100
AcDbEntity
  8
0
  6
CONTINUOUS
 62
           3
100
AcDbLine
 10
3475.899995380621
 20
1529.999999329481
 11
3474.199996405621
 21
1529.999999329481
  0
LINE
  5
270
100
AcDbEntity
  8
0
  6
CONTINUOUS
 62
           3
100
AcDbLine
 10
3475.899995380621
 20
1548.799999058065
 11
3475.899995380621
 21
1548.300001770265
  0
LINE
  5
26F
100
AcDbEntity
  8
0
  6
CONTINUOUS
 62
           3
100
AcDbLine
 10
3355.899998062718
 20
1548.799999058065
 11
3355.899998062718
 21
1548.300001770265
  0
LINE
  5
26E
100
AcDbEntity
  8
0
  6
CONTINUOUS
 62
           3
100
AcDbLine
 10
3355.899998062718
 20
1391.199998557593
 11
3355.899998062718
 21
1391.699999570792
  0
LINE
  5
26D
100
AcDbEntity
  8
0
  6
CONTINUOUS
 62
           3
100
AcDbLine
 10
3475.899995380621
 20
1391.199998557593
 11
3475.899995380621
 21
1391.699999570792
  0
LINE
  5
26C
100
AcDbEntity
  8
0
  6
CONTINUOUS
 62
           3
100
AcDbLine
 10
3418.899996747767
 20
1550.000000744964
 11
3419.149996788767
 21
1550.000000744964
  0
LINE
  5
26B
100
AcDbEntity
  8
0
  6
CONTINUOUS
 62
           3
100
AcDbLine
 10
3412.649996654572
 20
1550.000000744964
 11
3412.899996695572
 21
1550.000000744964
  0
LINE
  5
26A
100
AcDbEntity
  8
0
  6
CONTINUOUS
 62
           3
100
AcDbLine
 10
3418.899996747767
 20
1548.799999058065
 11
3419.149996788767
 21
1548.799999058065
  0
LINE
  5
269
100
AcDbEntity
  8
0
  6
CONTINUOUS
 62
           3
100
AcDbLine
 10
3412.649996654572
 20
1548.799999058065
 11
3412.899996695572
 21
1548.799999058065
  0
LINE
  5
268
100
AcDbEntity
  8
0
  6
CONTINUOUS
 62
           3
100
AcDbLine
 10
3412.899996695572
 20
1391.199998557593
 11
3412.649996654572
 21
1391.199998557593
  0
LINE
  5
267
100
AcDbEntity
  8
0
  6
CONTINUOUS
 62
           3
100
AcDbLine
 10
3419.149996788767
 20
1391.199998557593
 11
3418.899996747767
 21
1391.199998557593
  0
LINE
  5
266
100
AcDbEntity
  8
0
  6
CONTINUOUS
 62
           3
100
AcDbLine
 10
3360.899997019715
 20
1391.199998557593
 11
3355.899998062718
 21
1391.199998557593
  0
LINE
  5
265
100
AcDbEntity
  8
0
  6
CONTINUOUS
 62
           3
100
AcDbLine
 10
3355.899998062718
 20
1390.000000596097
 11
3360.899997019715
 21
1390.000000596097
  0
LINE
  5
264
100
AcDbEntity
  8
0
  6
CONTINUOUS
 62
           3
100
AcDbLine
 10
3355.899998062718
 20
1391.199998557593
 11
3355.899998062718
 21
1390.000000596097
  0
LINE
  5
263
100
AcDbEntity
  8
0
  6
CONTINUOUS
 62
           3
100
AcDbLine
 10
3355.899998062718
 20
1550.000000744964
 11
3360.899997019715
 21
1550.000000744964
  0
LINE
  5
262
100
AcDbEntity
  8
0
  6
CONTINUOUS
 62
           3
100
AcDbLine
 10
3360.899997019715
 20
1548.799999058065
 11
3355.899998062718
 21
1548.799999058065
  0
LINE
  5
261
100
AcDbEntity
  8
0
  6
CONTINUOUS
 62
           3
100
AcDbLine
 10
3355.899998062718
 20
1548.799999058065
 11
3355.899998062718
 21
1550.000000744964
  0
LINE
  5
260
100
AcDbEntity
  8
0
  6
CONTINUOUS
 62
           3
100
AcDbLine
 10
3460.899998509632
 20
1550.000000744964
 11
3445.899996051144
 21
1550.000000744964
  0
LINE
  5
25F
100
AcDbEntity
  8
0
  6
CONTINUOUS
 62
           3
100
AcDbLine
 10
3460.899998509632
 20
1548.799999058065
 11
3445.899996051144
 21
1548.799999058065
  0
LINE
  5
25E
100
AcDbEntity
  8
0
  6
CONTINUOUS
 62
           3
100
AcDbLine
 10
3475.899995380621
 20
1550.000000744964
 11
3470.899996423624
 21
1550.000000744964
  0
LINE
  5
25D
100
AcDbEntity
  8
0
  6
CONTINUOUS
 62
           3
100
AcDbLine
 10
3470.899996423624
 20
1548.799999058065
 11
3475.899995380621
 21
1548.799999058065
  0
LINE
  5
25C
100
AcDbEntity
  8
0
  6
CONTINUOUS
 62
           3
100
AcDbLine
 10
3475.899995380621
 20
1548.799999058065
 11
3475.899995380621
 21
1550.000000744964
  0
LINE
  5
25B
100
AcDbEntity
  8
0
  6
CONTINUOUS
 62
           3
100
AcDbLine
 10
3460.899998509632
 20
1391.199998557593
 11
3445.899996051144
 21
1391.199998557593
  0
LINE
  5
25A
100
AcDbEntity
  8
0
  6
CONTINUOUS
 62
           3
100
AcDbLine
 10
3460.899998509632
 20
1390.000000596097
 11
3445.899996051144
 21
1390.000000596097
  0
LINE
  5
259
100
AcDbEntity
  8
0
  6
CONTINUOUS
 62
           3
100
AcDbLine
 10
3370.899994933707
 20
1550.000000744964
 11
3385.899997392194
 21
1550.000000744964
  0
LINE
  5
258
100
AcDbEntity
  8
0
  6
CONTINUOUS
 62
           3
100
AcDbLine
 10
3370.899994933707
 20
1548.799999058065
 11
3385.899997392194
 21
1548.799999058065
  0
LINE
  5
257
100
AcDbEntity
  8
0
  6
CONTINUOUS
 62
           3
100
AcDbLine
 10
3470.899996423624
 20
1391.199998557593
 11
3475.899995380621
 21
1391.199998557593
  0
LINE
  5
256
100
AcDbEntity
  8
0
  6
CONTINUOUS
 62
           3
100
AcDbLine
 10
3475.899995380621
 20
1390.000000596097
 11
3470.899996423624
 21
1390.000000596097
  0
LINE
  5
255
100
AcDbEntity
  8
0
  6
CONTINUOUS
 62
           3
100
AcDbLine
 10
3475.899995380621
 20
1391.199998557593
 11
3475.899995380621
 21
1390.000000596097
  0
LINE
  5
254
100
AcDbEntity
  8
0
  6
CONTINUOUS
 62
           3
100
AcDbLine
 10
3370.899994933707
 20
1391.199998557593
 11
3385.899997392194
 21
1391.199998557593
  0
LINE
  5
253
100
AcDbEntity
  8
0
  6
CONTINUOUS
 62
           3
100
AcDbLine
 10
3370.899994933707
 20
1390.000000596097
 11
3385.899997392194
 21
1390.000000596097
  0
LINE
  5
252
100
AcDbEntity
  8
0
  6
CONTINUOUS
 62
           3
100
AcDbLine
 10
3368.899998331108
 20
1550.000000744964
 11
3370.899994933707
 21
1550.000000744964
  0
LINE
  5
251
100
AcDbEntity
  8
0
  6
CONTINUOUS
 62
           3
100
AcDbLine
 10
3370.899994933707
 20
1548.799999058065
 11
3368.899998331108
 21
1548.799999058065
  0
LINE
  5
250
100
AcDbEntity
  8
0
  6
CONTINUOUS
 62
           3
100
AcDbLine
 10
3368.899998331108
 20
1548.799999058065
 11
3368.899998331108
 21
1550.000000744964
  0
LINE
  5
24F
100
AcDbEntity
  8
0
  6
CONTINUOUS
 62
           3
100
AcDbLine
 10
3360.899997019715
 20
1550.000000744964
 11
3362.899997347713
 21
1550.000000744964
  0
LINE
  5
24E
100
AcDbEntity
  8
0
  6
CONTINUOUS
 62
           3
100
AcDbLine
 10
3362.899997347713
 20
1548.799999058065
 11
3360.899997019715
 21
1548.799999058065
  0
LINE
  5
24D
100
AcDbEntity
  8
0
  6
CONTINUOUS
 62
           3
100
AcDbLine
 10
3362.899997347713
 20
1550.000000744964
 11
3362.899997347713
 21
1548.799999058065
  0
LINE
  5
24C
100
AcDbEntity
  8
0
  6
CONTINUOUS
 62
           3
100
AcDbLine
 10
3460.899998509632
 20
1391.199998557593
 11
3462.899995112231
 21
1391.199998557593
  0
LINE
  5
24B
100
AcDbEntity
  8
0
  6
CONTINUOUS
 62
           3
100
AcDbLine
 10
3462.899995112231
 20
1390.000000596097
 11
3460.899998509632
 21
1390.000000596097
  0
LINE
  5
24A
100
AcDbEntity
  8
0
  6
CONTINUOUS
 62
           3
100
AcDbLine
 10
3462.899995112231
 20
1391.199998557593
 11
3462.899995112231
 21
1390.000000596097
  0
LINE
  5
249
100
AcDbEntity
  8
0
  6
CONTINUOUS
 62
           3
100
AcDbLine
 10
3468.899996095926
 20
1391.199998557593
 11
3470.899996423624
 21
1391.199998557593
  0
LINE
  5
248
100
AcDbEntity
  8
0
  6
CONTINUOUS
 62
           3
100
AcDbLine
 10
3470.899996423624
 20
1390.000000596097
 11
3468.899996095926
 21
1390.000000596097
  0
LINE
  5
247
100
AcDbEntity
  8
0
  6
CONTINUOUS
 62
           3
100
AcDbLine
 10
3468.899996095926
 20
1390.000000596097
 11
3468.899996095926
 21
1391.199998557593
  0
LINE
  5
246
100
AcDbEntity
  8
0
  6
CONTINUOUS
 62
           3
100
AcDbLine
 10
3462.899995112231
 20
1550.000000744964
 11
3460.899998509632
 21
1550.000000744964
  0
LINE
  5
245
100
AcDbEntity
  8
0
  6
CONTINUOUS
 62
           3
100
AcDbLine
 10
3460.899998509632
 20
1548.799999058065
 11
3462.899995112231
 21
1548.799999058065
  0
LINE
  5
244
100
AcDbEntity
  8
0
  6
CONTINUOUS
 62
           3
100
AcDbLine
 10
3462.899995112231
 20
1548.799999058065
 11
3462.899995112231
 21
1550.000000744964
  0
LINE
  5
243
100
AcDbEntity
  8
0
  6
CONTINUOUS
 62
           3
100
AcDbLine
 10
3470.899996423624
 20
1550.000000744964
 11
3468.899996095926
 21
1550.000000744964
  0
LINE
  5
242
100
AcDbEntity
  8
0
  6
CONTINUOUS
 62
           3
100
AcDbLine
 10
3468.899996095926
 20
1548.799999058065
 11
3470.899996423624
 21
1548.799999058065
  0
LINE
  5
241
100
AcDbEntity
  8
0
  6
CONTINUOUS
 62
           3
100
AcDbLine
 10
3468.899996095926
 20
1550.000000744964
 11
3468.899996095926
 21
1548.799999058065
  0
LINE
  5
240
100
AcDbEntity
  8
0
  6
CONTINUOUS
 62
           3
100
AcDbLine
 10
3370.899994933707
 20
1391.199998557593
 11
3368.899998331108
 21
1391.199998557593
  0
LINE
  5
23F
100
AcDbEntity
  8
0
  6
CONTINUOUS
 62
           3
100
AcDbLine
 10
3368.899998331108
 20
1390.000000596097
 11
3370.899994933707
 21
1390.000000596097
  0
LINE
  5
23E
100
AcDbEntity
  8
0
  6
CONTINUOUS
 62
           3
100
AcDbLine
 10
3368.899998331108
 20
1391.199998557593
 11
3368.899998331108
 21
1390.000000596097
  0
LINE
  5
23D
100
AcDbEntity
  8
0
  6
CONTINUOUS
 62
           3
100
AcDbLine
 10
3362.899997347713
 20
1391.199998557593
 11
3360.899997019715
 21
1391.199998557593
  0
LINE
  5
23C
100
AcDbEntity
  8
0
  6
CONTINUOUS
 62
           3
100
AcDbLine
 10
3360.899997019715
 20
1390.000000596097
 11
3362.899997347713
 21
1390.000000596097
  0
LINE
  5
23B
100
AcDbEntity
  8
0
  6
CONTINUOUS
 62
           3
100
AcDbLine
 10
3362.899997347713
 20
1390.000000596097
 11
3362.899997347713
 21
1391.199998557593
  0
LINE
  5
23A
100
AcDbEntity
  8
0
  6
CONTINUOUS
 62
           3
100
AcDbLine
 10
3412.399996613572
 20
1391.199998557593
 11
3412.649996654572
 21
1391.199998557593
  0
LINE
  5
239
100
AcDbEntity
  8
0
  6
CONTINUOUS
 62
           3
100
AcDbLine
 10
3412.649996654572
 20
1391.199998557593
 11
3412.649996654572
 21
1390.000000596097
  0
LINE
  5
238
100
AcDbEntity
  8
0
  6
CONTINUOUS
 62
           3
100
AcDbLine
 10
3445.899996051144
 20
1391.199998557593
 11
3435.899996274753
 21
1391.199998557593
  0
LINE
  5
237
100
AcDbEntity
  8
0
  6
CONTINUOUS
 62
           3
100
AcDbLine
 10
3445.899996051144
 20
1390.000000596097
 11
3435.899996274753
 21
1390.000000596097
  0
LINE
  5
236
100
AcDbEntity
  8
0
  6
CONTINUOUS
 62
           3
100
AcDbLine
 10
3445.899996051144
 20
1391.199998557593
 11
3445.899996051144
 21
1390.000000596097
  0
LINE
  5
235
100
AcDbEntity
  8
0
  6
CONTINUOUS
 62
           3
100
AcDbLine
 10
3410.649996792474
 20
1550.000000744964
 11
3412.649996654572
 21
1550.000000744964
  0
LINE
  5
234
100
AcDbEntity
  8
0
  6
CONTINUOUS
 62
           3
100
AcDbLine
 10
3412.649996654572
 20
1548.799999058065
 11
3410.649996792474
 21
1548.799999058065
  0
LINE
  5
233
100
AcDbEntity
  8
0
  6
CONTINUOUS
 62
           3
100
AcDbLine
 10
3412.649996654572
 20
1550.000000744964
 11
3412.649996654572
 21
1548.799999058065
  0
LINE
  5
232
100
AcDbEntity
  8
0
  6
CONTINUOUS
 62
           3
100
AcDbLine
 10
3423.899997101562
 20
1391.199998557593
 11
3435.899996274753
 21
1391.199998557593
  0
LINE
  5
231
100
AcDbEntity
  8
0
  6
CONTINUOUS
 62
           3
100
AcDbLine
 10
3423.899997101562
 20
1390.000000596097
 11
3435.899996274753
 21
1390.000000596097
  0
LINE
  5
230
100
AcDbEntity
  8
0
  6
CONTINUOUS
 62
           3
100
AcDbLine
 10
3435.899996274753
 20
1391.199998557593
 11
3435.899996274753
 21
1390.000000596097
  0
LINE
  5
22F
100
AcDbEntity
  8
0
  6
CONTINUOUS
 62
           3
100
AcDbLine
 10
3385.899997392194
 20
1391.199998557593
 11
3395.899997168586
 21
1391.199998557593
  0
LINE
  5
22E
100
AcDbEntity
  8
0
  6
CONTINUOUS
 62
           3
100
AcDbLine
 10
3385.899997392194
 20
1390.000000596097
 11
3395.899997168586
 21
1390.000000596097
  0
LINE
  5
22D
100
AcDbEntity
  8
0
  6
CONTINUOUS
 62
           3
100
AcDbLine
 10
3385.899997392194
 20
1391.199998557593
 11
3385.899997392194
 21
1390.000000596097
  0
LINE
  5
22C
100
AcDbEntity
  8
0
  6
CONTINUOUS
 62
           3
100
AcDbLine
 10
3419.149996788767
 20
1550.000000744964
 11
3421.149996650865
 21
1550.000000744964
  0
LINE
  5
22B
100
AcDbEntity
  8
0
  6
CONTINUOUS
 62
           3
100
AcDbLine
 10
3421.149996650865
 20
1548.799999058065
 11
3419.149996788767
 21
1548.799999058065
  0
LINE
  5
22A
100
AcDbEntity
  8
0
  6
CONTINUOUS
 62
           3
100
AcDbLine
 10
3419.149996788767
 20
1548.799999058065
 11
3419.149996788767
 21
1550.000000744964
  0
LINE
  5
229
100
AcDbEntity
  8
0
  6
CONTINUOUS
 62
           3
100
AcDbLine
 10
3445.899996051144
 20
1550.000000744964
 11
3435.899996274753
 21
1550.000000744964
  0
LINE
  5
228
100
AcDbEntity
  8
0
  6
CONTINUOUS
 62
           3
100
AcDbLine
 10
3445.899996051144
 20
1548.799999058065
 11
3435.899996274753
 21
1548.799999058065
  0
LINE
  5
227
100
AcDbEntity
  8
0
  6
CONTINUOUS
 62
           3
100
AcDbLine
 10
3445.899996051144
 20
1548.799999058065
 11
3445.899996051144
 21
1550.000000744964
  0
LINE
  5
226
100
AcDbEntity
  8
0
  6
CONTINUOUS
 62
           3
100
AcDbLine
 10
3419.149996788767
 20
1391.199998557593
 11
3419.399996829767
 21
1391.199998557593
  0
LINE
  5
225
100
AcDbEntity
  8
0
  6
CONTINUOUS
 62
           3
100
AcDbLine
 10
3419.149996788767
 20
1390.000000596097
 11
3419.149996788767
 21
1391.199998557593
  0
LINE
  5
224
100
AcDbEntity
  8
0
  6
CONTINUOUS
 62
           3
100
AcDbLine
 10
3395.899997168586
 20
1391.199998557593
 11
3407.899996341775
 21
1391.199998557593
  0
LINE
  5
223
100
AcDbEntity
  8
0
  6
CONTINUOUS
 62
           3
100
AcDbLine
 10
3395.899997168586
 20
1390.000000596097
 11
3407.899996341775
 21
1390.000000596097
  0
LINE
  5
222
100
AcDbEntity
  8
0
  6
CONTINUOUS
 62
           3
100
AcDbLine
 10
3395.899997168586
 20
1391.199998557593
 11
3395.899997168586
 21
1390.000000596097
  0
LINE
  5
221
100
AcDbEntity
  8
0
  6
CONTINUOUS
 62
           3
100
AcDbLine
 10
3395.899997168586
 20
1550.000000744964
 11
3410.649996792474
 21
1550.000000744964
  0
LINE
  5
220
100
AcDbEntity
  8
0
  6
CONTINUOUS
 62
           3
100
AcDbLine
 10
3395.899997168586
 20
1548.799999058065
 11
3410.649996792474
 21
1548.799999058065
  0
LINE
  5
21F
100
AcDbEntity
  8
0
  6
CONTINUOUS
 62
           3
100
AcDbLine
 10
3421.149996650865
 20
1550.000000744964
 11
3435.899996274753
 21
1550.000000744964
  0
LINE
  5
21E
100
AcDbEntity
  8
0
  6
CONTINUOUS
 62
           3
100
AcDbLine
 10
3421.149996650865
 20
1548.799999058065
 11
3435.899996274753
 21
1548.799999058065
  0
LINE
  5
21D
100
AcDbEntity
  8
0
  6
CONTINUOUS
 62
           3
100
AcDbLine
 10
3435.899996274753
 20
1548.799999058065
 11
3435.899996274753
 21
1550.000000744964
  0
LINE
  5
21C
100
AcDbEntity
  8
0
  6
CONTINUOUS
 62
           3
100
AcDbLine
 10
3385.899997392194
 20
1548.799999058065
 11
3385.899997392194
 21
1550.000000744964
  0
LINE
  5
21B
100
AcDbEntity
  8
0
  6
CONTINUOUS
 62
           3
100
AcDbLine
 10
3385.899997392194
 20
1548.799999058065
 11
3395.899997168586
 21
1548.799999058065
  0
LINE
  5
21A
100
AcDbEntity
  8
0
  6
CONTINUOUS
 62
           3
100
AcDbLine
 10
3395.899997168586
 20
1548.799999058065
 11
3395.899997168586
 21
1550.000000744964
  0
LINE
  5
219
100
AcDbEntity
  8
0
  6
CONTINUOUS
 62
           3
100
AcDbLine
 10
3385.899997392194
 20
1550.000000744964
 11
3395.899997168586
 21
1550.000000744964
  0
LINE
  5
218
100
AcDbEntity
  8
0
  6
CONTINUOUS
 62
           3
100
AcDbLine
 10
3423.899997101562
 20
1389.200001954996
 11
3423.899997101562
 21
1388.276241719796
  0
LINE
  5
217
100
AcDbEntity
  8
0
  6
CONTINUOUS
 62
           3
100
AcDbLine
 10
3407.899996341775
 20
1389.200001954996
 11
3407.899996341775
 21
1388.276241719796
  0
LINE
  5
216
100
AcDbEntity
  8
0
  6
CONTINUOUS
 62
           3
100
AcDbLine
 10
3410.899996833474
 20
1388.276241719796
 11
3407.899996341775
 21
1388.276241719796
  0
LINE
  5
215
100
AcDbEntity
  8
0
  6
CONTINUOUS
 62
           3
100
AcDbLine
 10
3423.899997101562
 20
1388.276241719796
 11
3420.899996609865
 21
1388.276241719796
  0
LINE
  5
214
100
AcDbEntity
  8
0
  6
CONTINUOUS
 62
           3
100
AcDbLine
 10
3418.399996665766
 20
1384.1999992729
 11
3420.899996609911
 21
1384.1999992729
  0
LINE
  5
213
100
AcDbEntity
  8
0
  6
CONTINUOUS
 62
           3
100
AcDbLine
 10
3410.899996833437
 20
1384.1999992729
 11
3413.399996777556
 21
1384.1999992729
  0
LINE
  5
212
100
AcDbEntity
  8
0
  6
CONTINUOUS
 62
           3
100
AcDbLine
 10
3420.899996609865
 20
1384.646579623302
 11
3420.899996609865
 21
1389.100000262195
  0
LINE
  5
211
100
AcDbEntity
  8
0
  6
CONTINUOUS
 62
           3
100
AcDbLine
 10
3410.899996833474
 20
1384.646579623302
 11
3410.899996833474
 21
1389.100000262195
  0
LINE
  5
210
100
AcDbEntity
  8
0
  6
CONTINUOUS
 62
           3
100
AcDbLine
 10
3410.899996833474
 20
1384.646579623302
 11
3413.399996777556
 21
1384.1999992729
  0
LINE
  5
20F
100
AcDbEntity
  8
0
  6
CONTINUOUS
 62
           3
100
AcDbLine
 10
3415.899996721673
 20
1384.646579623295
 11
3415.899996721669
 21
1389.100000262195
  0
LINE
  5
20E
100
AcDbEntity
  8
0
  6
CONTINUOUS
 62
           3
100
AcDbLine
 10
3413.399996777556
 20
1384.1999992729
 11
3418.399996665766
 21
1384.1999992729
  0
LINE
  5
20D
100
AcDbEntity
  8
0
  6
CONTINUOUS
 62
           3
100
AcDbLine
 10
3415.899996721673
 20
1384.646579623295
 11
3418.399996665766
 21
1384.1999992729
  0
LINE
  5
20C
100
AcDbEntity
  8
0
  6
CONTINUOUS
 62
           3
100
AcDbLine
 10
3412.399996613572
 20
1389.200001954996
 11
3419.399996829767
 21
1389.200001954996
  0
LINE
  5
20B
100
AcDbEntity
  8
0
  6
CONTINUOUS
 62
           3
100
AcDbLine
 10
3412.399996613572
 20
1390.000000596097
 11
3419.399996829767
 21
1390.000000596097
  0
LINE
  5
20A
100
AcDbEntity
  8
0
  6
CONTINUOUS
 62
           3
100
AcDbLine
 10
3419.399996829767
 20
1393.990144133492
 11
3412.399996613572
 21
1393.990144133492
  0
LINE
  5
209
100
AcDbEntity
  8
0
  6
CONTINUOUS
 62
           3
100
AcDbLine
 10
3412.899996695572
 20
1392.246469855294
 11
3412.399996613572
 21
1392.246469855294
  0
LINE
  5
208
100
AcDbEntity
  8
0
  6
CONTINUOUS
 62
           3
100
AcDbLine
 10
3419.399996829767
 20
1392.246469855294
 11
3418.899996747767
 21
1392.246469855294
  0
LINE
  5
207
100
AcDbEntity
  8
0
  6
CONTINUOUS
 62
           3
100
AcDbLine
 10
3423.899997101562
 20
1394.799999892894
 11
3423.899997101562
 21
1389.200001954996
  0
LINE
  5
206
100
AcDbEntity
  8
0
  6
CONTINUOUS
 62
           3
100
AcDbLine
 10
3407.899996341775
 20
1394.799999892894
 11
3407.899996341775
 21
1389.200001954996
  0
LINE
  5
205
100
AcDbEntity
  8
0
  6
CONTINUOUS
 62
           3
100
AcDbLine
 10
3412.399996613572
 20
1389.200001954996
 11
3412.399996613572
 21
1394.799999892894
  0
LINE
  5
204
100
AcDbEntity
  8
0
  6
CONTINUOUS
 62
           3
100
AcDbLine
 10
3419.399996829767
 20
1394.799999892894
 11
3419.399996829767
 21
1389.200001954996
  0
LINE
  5
203
100
AcDbEntity
  8
0
  6
CONTINUOUS
 62
           3
100
AcDbLine
 10
3412.399996613572
 20
1389.200001954996
 11
3407.899996341775
 21
1389.200001954996
  0
LINE
  5
202
100
AcDbEntity
  8
0
  6
CONTINUOUS
 62
           3
100
AcDbLine
 10
3412.399996613572
 20
1394.792847335491
 11
3419.399996829767
 21
1394.792847335491
  0
LINE
  5
201
100
AcDbEntity
  8
0
  6
CONTINUOUS
 62
           3
100
AcDbLine
 10
3423.899997101562
 20
1389.200001954996
 11
3419.399996829767
 21
1389.200001954996
  0
LINE
  5
200
100
AcDbEntity
  8
0
  6
CONTINUOUS
 62
           3
100
AcDbLine
 10
3417.899996816568
 20
1638.422653078993
 11
3413.899996626771
 21
1638.422653078993
  0
LINE
  5
1FF
100
AcDbEntity
  8
0
  6
CONTINUOUS
 62
           3
100
AcDbLine
 10
3412.899996695572
 20
1637.422651052293
 11
3418.899996747767
 21
1637.422651052293
  0
LINE
  5
1FE
100
AcDbEntity
  8
0
  6
CONTINUOUS
 62
           3
100
AcDbLine
 10
3361.899995321015
 20
1665.000006556369
 11
3365.89999597671
 21
1665.000006556369
  0
LINE
  5
1FD
100
AcDbEntity
  8
0
  6
CONTINUOUS
 62
           3
100
AcDbLine
 10
3365.89999597671
 20
1665.000006556369
 11
3369.899996632408
 21
1665.000006556369
  0
LINE
  5
1FC
100
AcDbEntity
  8
0
  6
CONTINUOUS
 62
           3
100
AcDbLine
 10
3411.56986968734
 20
1367.599993944256
 11
3410.899996833474
 21
1367.599993944114
  0
LINE
  5
1FB
100
AcDbEntity
  8
0
  6
CONTINUOUS
 62
           3
100
AcDbLine
 10
3420.899996609865
 20
1367.599993944114
 11
3420.230123756008
 21
1367.599993944256
  0
LINE
  5
1FA
100
AcDbEntity
  8
0
  6
CONTINUOUS
 62
           3
100
AcDbLine
 10
3411.56986968734
 20
1372.600004077041
 11
3410.899996833474
 21
1372.600004077009
  0
LINE
  5
1F9
100
AcDbEntity
  8
0
  6
CONTINUOUS
 62
           3
100
AcDbLine
 10
3420.230123756008
 20
1367.599993944256
 11
3415.899996721673
 21
1367.599993944256
  0
LINE
  5
1F8
100
AcDbEntity
  8
0
  6
CONTINUOUS
 62
           3
100
AcDbLine
 10
3415.899996721673
 20
1367.599993944256
 11
3411.56986968734
 21
1367.599993944256
  0
LINE
  5
1F7
100
AcDbEntity
  8
0
  6
CONTINUOUS
 62
           3
100
AcDbLine
 10
3410.126493853973
 20
1372.153416276109
 11
3410.126493853973
 21
1368.046581745312
  0
LINE
  5
1F6
100
AcDbEntity
  8
0
  6
CONTINUOUS
 62
           3
100
AcDbLine
 10
3410.126493853973
 20
1368.046581745312
 11
3411.56986968734
 21
1367.599993944256
  0
LINE
  5
1F5
100
AcDbEntity
  8
0
  6
CONTINUOUS
 62
           3
100
AcDbLine
 10
3413.013245287842
 20
1372.153416276062
 11
3411.56986968734
 21
1372.600004077041
  0
LINE
  5
1F4
100
AcDbEntity
  8
0
  6
CONTINUOUS
 62
           3
100
AcDbLine
 10
3418.786748155367
 20
1368.046581745312
 11
3420.230123756008
 21
1367.599993944256
  0
LINE
  5
1F3
100
AcDbEntity
  8
0
  6
CONTINUOUS
 62
           3
100
AcDbLine
 10
3421.673499589366
 20
1372.153416276109
 11
3421.673499589366
 21
1368.046581745312
  0
LINE
  5
1F2
100
AcDbEntity
  8
0
  6
CONTINUOUS
 62
           3
100
AcDbLine
 10
3421.673499589366
 20
1372.153416276109
 11
3420.230123756008
 21
1372.600004077041
  0
LINE
  5
1F1
100
AcDbEntity
  8
0
  6
CONTINUOUS
 62
           3
100
AcDbLine
 10
3413.013245287842
 20
1372.153416276062
 11
3413.013245287842
 21
1368.046581745235
  0
LINE
  5
1F0
100
AcDbEntity
  8
0
  6
CONTINUOUS
 62
           3
100
AcDbLine
 10
3418.786748155506
 20
1372.153416276062
 11
3418.786748155367
 21
1368.046581745312
  0
LINE
  5
1EF
100
AcDbEntity
  8
0
  6
CONTINUOUS
 62
           3
100
AcDbLine
 10
3420.899996609865
 20
1372.600004077009
 11
3420.230123756008
 21
1372.600004077041
  0
LINE
  5
1EE
100
AcDbEntity
  8
0
  6
CONTINUOUS
 62
           3
100
AcDbLine
 10
3420.899996609865
 20
1377.599999308604
 11
3420.230123756008
 21
1377.599999308666
  0
LINE
  5
1ED
100
AcDbEntity
  8
0
  6
CONTINUOUS
 62
           3
100
AcDbLine
 10
3411.56986968734
 20
1377.599999308666
 11
3410.899996833474
 21
1377.599999308604
  0
LINE
  5
1EC
100
AcDbEntity
  8
0
  6
CONTINUOUS
 62
           3
100
AcDbLine
 10
3415.899996721673
 20
1372.600004077041
 11
3411.56986968734
 21
1372.600004077041
  0
LINE
  5
1EB
100
AcDbEntity
  8
0
  6
CONTINUOUS
 62
           3
100
AcDbLine
 10
3420.230123756008
 20
1372.600004077041
 11
3415.899996721673
 21
1372.600004077041
  0
LINE
  5
1EA
100
AcDbEntity
  8
0
  6
CONTINUOUS
 62
           3
100
AcDbLine
 10
3415.899996721673
 20
1377.599999308666
 11
3411.56986968734
 21
1377.599999308666
  0
LINE
  5
1E9
100
AcDbEntity
  8
0
  6
CONTINUOUS
 62
           3
100
AcDbLine
 10
3410.126493853973
 20
1377.153418958205
 11
3410.126493853973
 21
1373.046576976911
  0
LINE
  5
1E8
100
AcDbEntity
  8
0
  6
CONTINUOUS
 62
           3
100
AcDbLine
 10
3410.126493853973
 20
1373.046576976911
 11
3411.56986968734
 21
1372.600004077041
  0
LINE
  5
1E7
100
AcDbEntity
  8
0
  6
CONTINUOUS
 62
           3
100
AcDbLine
 10
3413.013245287842
 20
1377.153418958267
 11
3411.56986968734
 21
1377.599999308666
  0
LINE
  5
1E6
100
AcDbEntity
  8
0
  6
CONTINUOUS
 62
           3
100
AcDbLine
 10
3420.230123756008
 20
1377.599999308666
 11
3415.899996721673
 21
1377.599999308666
  0
LINE
  5
1E5
100
AcDbEntity
  8
0
  6
CONTINUOUS
 62
           3
100
AcDbLine
 10
3418.786748155367
 20
1373.046576976911
 11
3420.230123756008
 21
1372.600004077041
  0
LINE
  5
1E4
100
AcDbEntity
  8
0
  6
CONTINUOUS
 62
           3
100
AcDbLine
 10
3421.673499589366
 20
1377.153418958205
 11
3421.673499589366
 21
1373.046576976911
  0
LINE
  5
1E3
100
AcDbEntity
  8
0
  6
CONTINUOUS
 62
           3
100
AcDbLine
 10
3421.673499589366
 20
1377.153418958205
 11
3420.230123756008
 21
1377.599999308666
  0
LINE
  5
1E2
100
AcDbEntity
  8
0
  6
CONTINUOUS
 62
           3
100
AcDbLine
 10
3413.013245287842
 20
1377.153418958267
 11
3413.013245287842
 21
1373.04657697686
  0
LINE
  5
1E1
100
AcDbEntity
  8
0
  6
CONTINUOUS
 62
           3
100
AcDbLine
 10
3418.786748155506
 20
1377.153418958267
 11
3418.786748155367
 21
1373.046576976911
  0
LINE
  5
1E0
100
AcDbEntity
  8
0
  6
CONTINUOUS
 62
           3
100
AcDbLine
 10
3410.126493853973
 20
1364.553421735916
 11
3410.126493853973
 21
1360.446587205122
  0
LINE
  5
1DF
100
AcDbEntity
  8
0
  6
CONTINUOUS
 62
           3
100
AcDbLine
 10
3410.126493853973
 20
1360.446587205122
 11
3411.56986968734
 21
1359.999999404048
  0
LINE
  5
1DE
100
AcDbEntity
  8
0
  6
CONTINUOUS
 62
           3
100
AcDbLine
 10
3413.013245287842
 20
1364.553421735858
 11
3411.56986968734
 21
1364.999994635673
  0
LINE
  5
1DD
100
AcDbEntity
  8
0
  6
CONTINUOUS
 62
           3
100
AcDbLine
 10
3418.786748155367
 20
1360.446587205122
 11
3420.230123755966
 21
1359.999999403921
  0
LINE
  5
1DC
100
AcDbEntity
  8
0
  6
CONTINUOUS
 62
           3
100
AcDbLine
 10
3421.673499589366
 20
1364.553421735916
 11
3421.673499589366
 21
1360.446587205122
  0
LINE
  5
1DB
100
AcDbEntity
  8
0
  6
CONTINUOUS
 62
           3
100
AcDbLine
 10
3421.673499589366
 20
1364.553421735916
 11
3420.230123756008
 21
1364.999994635673
  0
LINE
  5
1DA
100
AcDbEntity
  8
0
  6
CONTINUOUS
 62
           3
100
AcDbLine
 10
3413.013245287842
 20
1364.553421735858
 11
3413.013245287842
 21
1360.446587205024
  0
LINE
  5
1D9
100
AcDbEntity
  8
0
  6
CONTINUOUS
 62
           3
100
AcDbLine
 10
3418.786748155506
 20
1364.553421735858
 11
3418.786748155367
 21
1360.446587205122
  0
LINE
  5
1D8
100
AcDbEntity
  8
0
  6
CONTINUOUS
 62
           3
100
AcDbLine
 10
3410.899996833474
 20
1359.999999403921
 11
3411.56986968734
 21
1359.999999404048
  0
LINE
  5
1D7
100
AcDbEntity
  8
0
  6
CONTINUOUS
 62
           3
100
AcDbLine
 10
3420.899996609865
 20
1355.000004172322
 11
3420.230123756008
 21
1355.00000417242
  0
LINE
  5
1D6
100
AcDbEntity
  8
0
  6
CONTINUOUS
 62
           3
100
AcDbLine
 10
3410.899996833474
 20
1355.000004172322
 11
3411.56986968734
 21
1355.00000417242
  0
LINE
  5
1D5
100
AcDbEntity
  8
0
  6
CONTINUOUS
 62
           3
100
AcDbLine
 10
3421.673499589366
 20
1355.446577072224
 11
3420.230123756008
 21
1355.00000417242
  0
LINE
  5
1D4
100
AcDbEntity
  8
0
  6
CONTINUOUS
 62
           3
100
AcDbLine
 10
3421.673499589366
 20
1355.446577072224
 11
3421.673499589366
 21
1359.553411603021
  0
LINE
  5
1D3
100
AcDbEntity
  8
0
  6
CONTINUOUS
 62
           3
100
AcDbLine
 10
3410.126493853973
 20
1355.446577072224
 11
3410.126493853973
 21
1359.553411603021
  0
LINE
  5
1D2
100
AcDbEntity
  8
0
  6
CONTINUOUS
 62
           3
100
AcDbLine
 10
3415.899996721673
 20
1359.999999404048
 11
3420.230123755966
 21
1359.999999403921
  0
LINE
  5
1D1
100
AcDbEntity
  8
0
  6
CONTINUOUS
 62
           3
100
AcDbLine
 10
3418.786748155506
 20
1359.553411603069
 11
3420.230123755966
 21
1359.999999403921
  0
LINE
  5
1D0
100
AcDbEntity
  8
0
  6
CONTINUOUS
 62
           3
100
AcDbLine
 10
3411.56986968734
 20
1359.999999404048
 11
3415.899996721673
 21
1359.999999404048
  0
LINE
  5
1CF
100
AcDbEntity
  8
0
  6
CONTINUOUS
 62
           3
100
AcDbLine
 10
3411.56986968734
 20
1355.00000417242
 11
3415.899996721669
 21
1355.000004172322
  0
LINE
  5
1CE
100
AcDbEntity
  8
0
  6
CONTINUOUS
 62
           3
100
AcDbLine
 10
3415.899996721669
 20
1355.000004172322
 11
3420.230123756008
 21
1355.00000417242
  0
LINE
  5
1CD
100
AcDbEntity
  8
0
  6
CONTINUOUS
 62
           3
100
AcDbLine
 10
3413.013245287971
 20
1359.553411603021
 11
3415.899996721673
 21
1359.999999404048
  0
LINE
  5
1CC
100
AcDbEntity
  8
0
  6
CONTINUOUS
 62
           3
100
AcDbLine
 10
3413.013245287842
 20
1355.446577072242
 11
3413.013245287971
 21
1359.553411603021
  0
LINE
  5
1CB
100
AcDbEntity
  8
0
  6
CONTINUOUS
 62
           3
100
AcDbLine
 10
3418.786748155367
 20
1355.446577072224
 11
3415.899996721669
 21
1355.000004172322
  0
LINE
  5
1CA
100
AcDbEntity
  8
0
  6
CONTINUOUS
 62
           3
100
AcDbLine
 10
3418.786748155367
 20
1355.446577072224
 11
3418.786748155506
 21
1359.553411603069
  0
LINE
  5
1C9
100
AcDbEntity
  8
0
  6
CONTINUOUS
 62
           3
100
AcDbLine
 10
3472.899996751323
 20
1393.799997866194
 11
3472.899996751323
 21
1543.800000101368
  0
LINE
  5
1C8
100
AcDbEntity
  8
0
  6
CONTINUOUS
 62
           3
100
AcDbLine
 10
3361.899995321015
 20
1543.800000101368
 11
3358.899996692016
 21
1543.800000101368
  0
LINE
  5
1C7
100
AcDbEntity
  8
0
  6
CONTINUOUS
 62
           3
100
AcDbLine
 10
3412.899996695572
 20
1543.800000101368
 11
3369.899996632408
 21
1543.800000101368
  0
LINE
  5
1C6
100
AcDbEntity
  8
0
  6
CONTINUOUS
 62
           3
100
AcDbLine
 10
3461.899996810931
 20
1543.800000101368
 11
3418.899996747767
 21
1543.800000101368
  0
LINE
  5
1C5
100
AcDbEntity
  8
0
  6
CONTINUOUS
 62
           3
100
AcDbLine
 10
3472.899996751323
 20
1543.800000101368
 11
3469.899998122326
 21
1543.800000101368
  0
LINE
  5
1C4
100
AcDbEntity
  8
0
  6
CONTINUOUS
 62
           3
100
AcDbLine
 10
3358.899996692016
 20
1543.800000101368
 11
3358.899996692016
 21
1393.799997866194
  0
LINE
  5
1C3
100
AcDbEntity
  8
0
  6
CONTINUOUS
 62
           3
100
AcDbLine
 10
3469.899998122326
 20
1393.799997866194
 11
3472.899996751323
 21
1393.799997866194
  0
LINE
  5
1C2
100
AcDbEntity
  8
0
  6
CONTINUOUS
 62
           3
100
AcDbLine
 10
3423.899997101562
 20
1393.799997866194
 11
3461.899996810931
 21
1393.799997866194
  0
LINE
  5
1C1
100
AcDbEntity
  8
0
  6
CONTINUOUS
 62
           3
100
AcDbLine
 10
3369.899996632408
 20
1393.799997866194
 11
3407.899996341775
 21
1393.799997866194
  0
LINE
  5
1C0
100
AcDbEntity
  8
0
  6
CONTINUOUS
 62
           3
100
AcDbLine
 10
3358.899996692016
 20
1393.799997866194
 11
3361.899995321015
 21
1393.799997866194
  0
LINE
  5
1BF
100
AcDbEntity
  8
0
  6
CONTINUOUS
 62
           3
100
AcDbLine
 10
3409.426494029874
 20
1389.099999999995
 11
3422.373499413465
 21
1389.099999999995
  0
LINE
  5
1BE
100
AcDbEntity
  8
0
  6
CONTINUOUS
 62
           3
100
AcDbLine
 10
3423.899997101562
 20
1394.799999892894
 11
3419.399996829767
 21
1394.799999892894
  0
LINE
  5
1BD
100
AcDbEntity
  8
0
  6
CONTINUOUS
 62
           3
100
AcDbLine
 10
3412.399996613572
 20
1394.799999892894
 11
3407.899996341775
 21
1394.799999892894
  0
LINE
  5
1BC
100
AcDbEntity
  8
0
  6
CONTINUOUS
 62
           3
100
AcDbLine
 10
3413.899996626771
 20
1638.422653078993
 11
3412.899996695572
 21
1637.422651052293
  0
LINE
  5
1BB
100
AcDbEntity
  8
0
  6
CONTINUOUS
 62
           3
100
AcDbLine
 10
3418.899996747767
 20
1637.422651052293
 11
3417.899996816568
 21
1638.422653078993
  0
LINE
  5
1BA
100
AcDbEntity
  8
0
  6
CONTINUOUS
 62
           3
100
AcDbLine
 10
3412.899996695572
 20
1367.599993944114
 11
3412.899996695572
 21
1366.600006818713
  0
LINE
  5
1B9
100
AcDbEntity
  8
0
  6
CONTINUOUS
 62
           3
100
AcDbLine
 10
3412.899996695572
 20
1384.1999992729
 11
3412.899996695572
 21
1377.599999308604
  0
LINE
  5
1B8
100
AcDbEntity
  8
0
  6
CONTINUOUS
 62
           3
100
AcDbLine
 10
3412.899996695572
 20
1392.957426607594
 11
3412.899996695572
 21
1390.000000596097
  0
LINE
  5
1B7
100
AcDbEntity
  8
0
  6
CONTINUOUS
 62
           3
100
AcDbLine
 10
3412.899996695572
 20
1633.399993180996
 11
3412.899996695572
 21
1394.792847335491
  0
LINE
  5
1B6
100
AcDbEntity
  8
0
  6
CONTINUOUS
 62
           3
100
AcDbLine
 10
3412.899996695572
 20
1637.422651052293
 11
3412.899996695572
 21
1635.000005364196
  0
LINE
  5
1B5
100
AcDbEntity
  8
0
  6
CONTINUOUS
 62
           3
100
AcDbLine
 10
3418.899996747767
 20
1635.000005364196
 11
3418.899996747767
 21
1637.422651052293
  0
LINE
  5
1B4
100
AcDbEntity
  8
0
  6
CONTINUOUS
 62
           3
100
AcDbLine
 10
3418.899996747767
 20
1394.792847335491
 11
3418.899996747767
 21
1633.399993180996
  0
LINE
  5
1B3
100
AcDbEntity
  8
0
  6
CONTINUOUS
 62
           3
100
AcDbLine
 10
3418.899996747767
 20
1390.000000596097
 11
3418.899996747767
 21
1392.957426607594
  0
LINE
  5
1B2
100
AcDbEntity
  8
0
  6
CONTINUOUS
 62
           3
100
AcDbLine
 10
3418.899996747767
 20
1377.599999308604
 11
3418.899996747767
 21
1384.1999992729
  0
LINE
  5
1B1
100
AcDbEntity
  8
0
  6
CONTINUOUS
 62
           3
100
AcDbLine
 10
3418.899996747767
 20
1366.600006818713
 11
3418.899996747767
 21
1367.599993944114
  0
LINE
  5
1B0
100
AcDbEntity
  8
0
  6
CONTINUOUS
 62
           3
100
AcDbLine
 10
3369.899996632408
 20
1635.000005364196
 11
3369.899996632408
 21
1665.000006556369
  0
LINE
  5
1AF
100
AcDbEntity
  8
0
  6
CONTINUOUS
 62
           3
100
AcDbLine
 10
3369.899996632408
 20
1550.000000744964
 11
3369.899996632408
 21
1633.399993180996
  0
LINE
  5
1AE
100
AcDbEntity
  8
0
  6
CONTINUOUS
 62
           3
100
AcDbLine
 10
3369.899996632408
 20
1391.199998557593
 11
3369.899996632408
 21
1548.799999058065
  0
LINE
  5
1AD
100
AcDbEntity
  8
0
  6
CONTINUOUS
 62
           3
100
AcDbLine
 10
3369.899996632408
 20
1366.600006818713
 11
3369.899996632408
 21
1390.000000596097
  0
LINE
  5
1AC
100
AcDbEntity
  8
0
  6
CONTINUOUS
 62
           3
100
AcDbLine
 10
3361.899995321015
 20
1364.999994635815
 11
3361.899995321015
 21
1314.999997615956
  0
LINE
  5
1AB
100
AcDbEntity
  8
0
  6
CONTINUOUS
 62
           3
100
AcDbLine
 10
3361.899995321015
 20
1390.000000596097
 11
3361.899995321015
 21
1366.600006818713
  0
LINE
  5
1AA
100
AcDbEntity
  8
0
  6
CONTINUOUS
 62
           3
100
AcDbLine
 10
3361.899995321015
 20
1548.799999058065
 11
3361.899995321015
 21
1391.199998557593
  0
LINE
  5
1A9
100
AcDbEntity
  8
0
  6
CONTINUOUS
 62
           3
100
AcDbLine
 10
3361.899995321015
 20
1633.399993180996
 11
3361.899995321015
 21
1550.000000744964
  0
LINE
  5
1A8
100
AcDbEntity
  8
0
  6
CONTINUOUS
 62
           3
100
AcDbLine
 10
3361.899995321015
 20
1665.000006556369
 11
3361.899995321015
 21
1635.000005364196
  0
LINE
  5
1A7
100
AcDbEntity
  8
0
  6
CONTINUOUS
 62
           3
100
AcDbLine
 10
3469.899998122326
 20
1635.000005364196
 11
3469.899998122326
 21
1641.000000000001
  0
LINE
  5
1A6
100
AcDbEntity
  8
0
  6
CONTINUOUS
 62
           3
100
AcDbLine
 10
3469.899998122326
 20
1550.000000744964
 11
3469.899998122326
 21
1633.399993180996
  0
LINE
  5
1A5
100
AcDbEntity
  8
0
  6
CONTINUOUS
 62
           3
100
AcDbLine
 10
3469.899998122326
 20
1391.199998557593
 11
3469.899998122326
 21
1548.799999058065
  0
LINE
  5
1A4
100
AcDbEntity
  8
0
  6
CONTINUOUS
 62
           3
100
AcDbLine
 10
3469.899998122326
 20
1366.600006818713
 11
3469.899998122326
 21
1390.000000596097
  0
LINE
  5
1A3
100
AcDbEntity
  8
0
  6
CONTINUOUS
 62
           3
100
AcDbLine
 10
3469.899998122326
 20
1314.999997615956
 11
3469.899998122326
 21
1364.999994635815
  0
LINE
  5
1A2
100
AcDbEntity
  8
0
  6
CONTINUOUS
 62
           3
100
AcDbLine
 10
3461.899996810931
 20
1364.999994635815
 11
3461.899996810931
 21
1314.999997615956
  0
LINE
  5
1A1
100
AcDbEntity
  8
0
  6
CONTINUOUS
 62
           3
100
AcDbLine
 10
3461.899996810931
 20
1390.000000596097
 11
3461.899996810931
 21
1366.600006818713
  0
LINE
  5
1A0
100
AcDbEntity
  8
0
  6
CONTINUOUS
 62
           3
100
AcDbLine
 10
3461.899996810931
 20
1548.799999058065
 11
3461.899996810931
 21
1391.199998557593
  0
LINE
  5
19F
100
AcDbEntity
  8
0
  6
CONTINUOUS
 62
           3
100
AcDbLine
 10
3461.899996810931
 20
1633.399993180996
 11
3461.899996810931
 21
1550.000000744964
  0
LINE
  5
19E
100
AcDbEntity
  8
0
  6
CONTINUOUS
 62
           3
100
AcDbLine
 10
3461.899996810931
 20
1641.0
 11
3461.899996810931
 21
1635.000005364196
  0
LINE
  5
19D
100
AcDbEntity
  8
0
  6
CONTINUOUS
 62
           3
100
AcDbLine
 10
3410.126493853973
 20
1368.046581745312
 11
3410.899996833474
 21
1367.599993944114
  0
LINE
  5
19C
100
AcDbEntity
  8
0
  6
CONTINUOUS
 62
           3
100
AcDbLine
 10
3420.899996609865
 20
1367.599993944114
 11
3421.673499589366
 21
1368.046581745312
  0
LINE
  5
19B
100
AcDbEntity
  8
0
  6
CONTINUOUS
 62
           3
100
AcDbLine
 10
3421.673499589366
 20
1372.153416276109
 11
3420.899996609865
 21
1372.600004077009
  0
LINE
  5
19A
100
AcDbEntity
  8
0
  6
CONTINUOUS
 62
           3
100
AcDbLine
 10
3410.899996833474
 20
1372.600004077009
 11
3410.126493853973
 21
1372.153416276109
  0
LINE
  5
199
100
AcDbEntity
  8
0
  6
CONTINUOUS
 62
           3
100
AcDbLine
 10
3410.126493853973
 20
1373.046576976911
 11
3410.899996833474
 21
1372.600004077009
  0
LINE
  5
198
100
AcDbEntity
  8
0
  6
CONTINUOUS
 62
           3
100
AcDbLine
 10
3420.899996609865
 20
1372.600004077009
 11
3421.673499589366
 21
1373.046576976911
  0
LINE
  5
197
100
AcDbEntity
  8
0
  6
CONTINUOUS
 62
           3
100
AcDbLine
 10
3421.673499589366
 20
1377.153418958205
 11
3420.899996609865
 21
1377.599999308604
  0
LINE
  5
196
100
AcDbEntity
  8
0
  6
CONTINUOUS
 62
           3
100
AcDbLine
 10
3410.899996833474
 20
1377.599999308604
 11
3410.126493853973
 21
1377.153418958205
  0
LINE
  5
195
100
AcDbEntity
  8
0
  6
CONTINUOUS
 62
           3
100
AcDbLine
 10
3410.126493853973
 20
1360.446587205122
 11
3410.899996833474
 21
1359.999999403921
  0
LINE
  5
194
100
AcDbEntity
  8
0
  6
CONTINUOUS
 62
           3
100
AcDbLine
 10
3420.899996609865
 20
1359.999999403921
 11
3421.673499589366
 21
1360.446587205122
  0
LINE
  5
193
100
AcDbEntity
  8
0
  6
CONTINUOUS
 62
           3
100
AcDbLine
 10
3421.673499589366
 20
1364.553421735916
 11
3420.899996609865
 21
1364.999994635815
  0
LINE
  5
192
100
AcDbEntity
  8
0
  6
CONTINUOUS
 62
           3
100
AcDbLine
 10
3410.899996833474
 20
1364.999994635815
 11
3410.126493853973
 21
1364.553421735916
  0
LINE
  5
191
100
AcDbEntity
  8
0
  6
CONTINUOUS
 62
           3
100
AcDbLine
 10
3421.673499589366
 20
1359.553411603021
 11
3420.899996609865
 21
1359.999999403921
  0
LINE
  5
190
100
AcDbEntity
  8
0
  6
CONTINUOUS
 62
           3
100
AcDbLine
 10
3410.899996833474
 20
1359.999999403921
 11
3410.126493853973
 21
1359.553411603021
  0
LINE
  5
18F
100
AcDbEntity
  8
0
  6
CONTINUOUS
 62
           3
100
AcDbLine
 10
3420.899996609865
 20
1355.000004172322
 11
3421.673499589366
 21
1355.446577072224
  0
LINE
  5
18E
100
AcDbEntity
  8
0
  6
CONTINUOUS
 62
           3
100
AcDbLine
 10
3410.126493853973
 20
1355.446577072224
 11
3410.899996833474
 21
1355.000004172322
  0
LINE
  5
18D
100
AcDbEntity
  8
0
  6
CONTINUOUS
 62
           3
100
AcDbLine
 10
3369.899996632408
 20
1314.999997615956
 11
3369.899996632408
 21
1364.999994635815
  0
LINE
  5
18C
100
AcDbEntity
  8
1
  6
CONTINUOUS
 62
           3
100
AcDbLine
 10
3897.500000000002
 20
1929.0
 11
3749.899996810931
 21
1929.0
  0
LINE
  5
18B
100
AcDbEntity
  8
1
  6
CONTINUOUS
 62
           3
100
AcDbLine
 10
3897.500000000002
 20
1921.000000000001
 11
3749.899998122326
 21
1921.000000000001
  0
LINE
  5
18A
100
AcDbEntity
  8
1
  6
CONTINUOUS
 62
           3
100
AcDbLine
 10
514.395796321872
 20
1294.328109327063
 11
512.007850321892
 21
1267.070985327062
  0
LINE
  5
189
100
AcDbEntity
  8
1
  6
CONTINUOUS
 62
           3
100
AcDbLine
 10
512.007850321892
 20
1323.330711327063
 11
514.395796321872
 21
1296.073587327063
  0
LINE
  5
188
100
AcDbEntity
  8
1
  6
CONTINUOUS
 62
           3
100
AcDbLine
 10
502.548714321872
 20
1294.328109327063
 11
504.936660321882
 21
1267.070985327062
  0
LINE
  5
187
100
AcDbEntity
  8
1
  6
CONTINUOUS
 62
           3
100
AcDbLine
 10
504.936660321882
 20
1323.330711327063
 11
502.548714321872
 21
1296.073587327063
  0
LINE
  5
186
100
AcDbEntity
  8
1
  6
DOT_CENTER
 62
           3
100
AcDbLine
 10
553.472255321876
 20
1295.200848327053
 11
463.474800321872
 21
1295.200848327053
  0
LINE
  5
185
100
AcDbEntity
  8
1
  6
DOT_CENTER
 62
           3
100
AcDbLine
 10
508.472255321876
 20
1340.200848327053
 11
508.472255321876
 21
1250.202277327053
  0
LINE
  5
184
100
AcDbEntity
  8
1
  6
CONTINUOUS
 62
           7
100
AcDbLine
 10
216.000000000005
 20
6004.465598018149
 11
-269.999999999996
 21
6004.465598018149
  0
LINE
  5
183
100
AcDbEntity
  8
1
  6
CONTINUOUS
 62
           7
100
AcDbLine
 10
-215.999999999998
 20
6004.465598018149
 11
-215.999999999996
 21
5518.465598018147
  0
LINE
  5
182
100
AcDbEntity
  8
1
  6
CONTINUOUS
 62
           7
100
AcDbLine
 10
-215.999999999996
 20
5572.465598018149
 11
270.000000000004
 21
5572.465598018149
  0
LINE
  5
181
100
AcDbEntity
  8
1
  6
CONTINUOUS
 62
           7
100
AcDbLine
 10
216.000000000001
 20
5572.465598018149
 11
216.000000000004
 21
6058.465598018147
  0
LINE
  5
180
100
AcDbEntity
  8
1
  6
CONTINUOUS
 62
           7
100
AcDbLine
 10
-649.999999999998
 20
5788.465598018147
 11
-650.226009489052
 21
5788.239588529097
  0
LINE
  5
17F
100
AcDbEntity
  8
1
  6
CONTINUOUS
 62
           7
100
AcDbLine
 10
-56.963420073538
 20
5194.97699911358
 11
-52.720779386418
 21
5190.73435842646
  0
LINE
  5
17E
100
AcDbEntity
  8
1
  6
CONTINUOUS
 62
           7
100
AcDbLine
 10
-52.720779386418
 20
5190.73435842646
 11
470.538238691626
 21
5713.993376504504
  0
LINE
  5
17D
100
AcDbEntity
  8
1
  6
CONTINUOUS
 62
           7
100
AcDbLine
 10
-650.226009489052
 20
5788.239588529097
 11
-645.983368801932
 21
5783.996947841977
  0
LINE
  5
17C
100
AcDbEntity
  8
1
  6
CONTINUOUS
 62
           7
100
AcDbLine
 10
-179.999999999996
 20
6258.465598018147
 11
-649.999999999998
 21
5788.465598018147
  0
LINE
  5
17B
100
AcDbEntity
  8
1
  6
CONTINUOUS
 62
           7
100
AcDbLine
 10
-645.983368801932
 20
5783.996947841977
 11
-56.963420073538
 21
5194.97699911358
  0
LINE
  5
17A
100
AcDbEntity
  8
1
  6
CONTINUOUS
 62
           7
100
AcDbLine
 10
445.000000000004
 20
5888.465598018147
 11
170.000000200063
 21
6163.465598018147
  0
LINE
  5
179
100
AcDbEntity
  8
1
  6
CONTINUOUS
 62
           7
100
AcDbLine
 10
-689.999999999996
 20
6298.465598018147
 11
-689.999999999996
 21
6263.465598018147
  0
LINE
  5
178
100
AcDbEntity
  8
1
  6
CONTINUOUS
 62
           7
100
AcDbLine
 10
-684.999999999996
 20
6258.465598018147
 11
-689.999999999996
 21
6263.465598018147
  0
LINE
  5
177
100
AcDbEntity
  8
1
  6
CONTINUOUS
 62
           7
100
AcDbLine
 10
-684.999999999996
 20
6258.465598018147
 11
35.000000000004
 21
6258.465598018147
  0
LINE
  5
176
100
AcDbEntity
  8
1
  6
CONTINUOUS
 62
           7
100
AcDbLine
 10
40.000000000004
 20
6263.465598018147
 11
35.000000000004
 21
6258.465598018147
  0
LINE
  5
175
100
AcDbEntity
  8
1
  6
CONTINUOUS
 62
           7
100
AcDbLine
 10
40.000000000004
 20
6263.465598018147
 11
40.000000000004
 21
6298.465598018147
  0
LINE
  5
174
100
AcDbEntity
  8
1
  6
CONTINUOUS
 62
           7
100
AcDbLine
 10
40.000000000004
 20
6298.465598018147
 11
40.000000000004
 21
6333.465598018147
  0
LINE
  5
173
100
AcDbEntity
  8
1
  6
CONTINUOUS
 62
           7
100
AcDbLine
 10
35.000000000004
 20
6338.465598018147
 11
40.000000000004
 21
6333.465598018147
  0
LINE
  5
172
100
AcDbEntity
  8
1
  6
CONTINUOUS
 62
           7
100
AcDbLine
 10
35.000000000004
 20
6338.465598018147
 11
-684.999999999996
 21
6338.465598018147
  0
LINE
  5
171
100
AcDbEntity
  8
1
  6
CONTINUOUS
 62
           7
100
AcDbLine
 10
-689.999999999996
 20
6333.465598018147
 11
-684.999999999996
 21
6338.465598018147
  0
LINE
  5
170
100
AcDbEntity
  8
1
  6
CONTINUOUS
 62
           7
100
AcDbLine
 10
-689.999999999996
 20
6333.465598018147
 11
-689.999999999996
 21
6298.465598018147
  0
LINE
  5
16F
100
AcDbEntity
  8
1
  6
CONTINUOUS
 62
           7
100
AcDbLine
 10
-659.999999999996
 20
6238.465598018147
 11
-659.999999999996
 21
5838.465598018145
  0
LINE
  5
16E
100
AcDbEntity
  8
1
  6
CONTINUOUS
 62
           7
100
AcDbLine
 10
31.875234341349
 20
6193.256072635772
 11
0.000000000002
 21
6248.465598018147
  0
LINE
  5
16D
100
AcDbEntity
  8
1
  6
CONTINUOUS
 62
           7
100
AcDbLine
 10
-659.999999999996
 20
6238.465598018147
 11
-649.999999999996
 21
6248.465598018147
  0
LINE
  5
16C
100
AcDbEntity
  8
1
  6
CONTINUOUS
 62
           7
100
AcDbLine
 10
-649.999999999996
 20
6258.465598018147
 11
-649.999999999996
 21
6248.465598018147
  0
LINE
  5
16B
100
AcDbEntity
  8
1
  6
CONTINUOUS
 62
           7
100
AcDbLine
 10
0.000000000002
 20
6248.465598018147
 11
0.000000000004
 21
6258.465598018147
  0
LINE
  5
16A
100
AcDbEntity
  8
1
  6
CONTINUOUS
 62
           4
100
AcDbLine
 10
115.286004408818
 20
5749.715598018147
 11
109.265668111723
 21
5749.715598018147
  0
LINE
  5
169
100
AcDbEntity
  8
1
  6
CONTINUOUS
 62
           4
100
AcDbLine
 10
115.286004408818
 20
5827.215598018147
 11
109.265668111723
 21
5827.215598018147
  0
LINE
  5
168
100
AcDbEntity
  8
1
  6
CONTINUOUS
 62
           7
100
AcDbLine
 10
156.500000000001
 20
5744.715598018147
 11
123.946258446662
 21
5744.715598018147
  0
LINE
  5
167
100
AcDbEntity
  8
1
  6
CONTINUOUS
 62
           7
100
AcDbLine
 10
123.946258446662
 20
5832.215598018147
 11
156.500000000001
 21
5832.215598018147
  0
LINE
  5
166
100
AcDbEntity
  8
1
  6
CONTINUOUS
 62
           7
100
AcDbLine
 10
113.946258446662
 20
5754.715598018147
 11
113.946258446662
 21
5822.215598018147
  0
LINE
  5
165
100
AcDbEntity
  8
1
  6
CONTINUOUS
 62
           7
100
AcDbLine
 10
166.500000000001
 20
5822.215598018147
 11
166.500000000001
 21
5754.715598018147
  0
LINE
  5
164
100
AcDbEntity
  8
1
  6
DOT_CENTER
 62
           2
100
AcDbLine
 10
-324.999999999996
 20
6407.354566941096
 11
-324.999999999996
 21
5975.117470474206
  0
LINE
  5
163
100
AcDbEntity
  8
1
  6
CONTINUOUS
 62
           4
100
AcDbLine
 10
40.000000000004
 20
6302.965598018147
 11
-689.999999999996
 21
6302.965598018147
  0
LINE
  5
162
100
AcDbEntity
  8
1
  6
CONTINUOUS
 62
           7
100
AcDbLine
 10
40.000000000004
 20
6298.465598018147
 11
-689.999999999996
 21
6298.465598018147
  0
LINE
  5
161
100
AcDbEntity
  8
1
  6
CONTINUOUS
 62
           4
100
AcDbLine
 10
-689.999999999996
 20
6293.965598018147
 11
40.000000000004
 21
6293.965598018147
  0
LINE
  5
160
100
AcDbEntity
  8
1
  6
CONTINUOUS
 62
           2
100
AcDbLine
 10
3785.319562772421
 20
2705.0
 11
4192.532262743705
 21
2705.0
  0
LINE
  5
15F
100
AcDbEntity
  8
1
  6
CONTINUOUS
 62
           2
100
AcDbLine
 10
3785.319562772421
 20
3065.000000000001
 11
3785.319562772421
 21
2705.0
  0
LINE
  5
15E
100
AcDbEntity
  8
1
  6
CONTINUOUS
 62
           2
100
AcDbLine
 10
4192.532262743705
 20
3065.000000000001
 11
3785.319562772421
 21
3065.000000000001
  0
LINE
  5
15D
100
AcDbEntity
  8
1
  6
CONTINUOUS
 62
           2
100
AcDbLine
 10
4192.532262743705
 20
2705.0
 11
4192.532262743705
 21
3065.000000000001
  0
LINE
  5
15C
100
AcDbEntity
  8
1
  6
CONTINUOUS
 62
           7
100
AcDbLine
 10
4555.500000000001
 20
2665.0
 11
4544.500000000001
 21
2665.0
  0
LINE
  5
15B
100
AcDbEntity
  8
1
  6
CONTINUOUS
 62
           4
100
AcDbLine
 10
4544.500000000003
 20
2660.5
 11
4510.000000000001
 21
2660.5
  0
LINE
  5
15A
100
AcDbEntity
  8
1
  6
CONTINUOUS
 62
           7
100
AcDbLine
 10
4590.000000000003
 20
2665.0
 11
4590.000000000003
 21
2660.5
  0
LINE
  5
159
100
AcDbEntity
  8
1
  6
CONTINUOUS
 62
           4
100
AcDbLine
 10
4590.000000000003
 20
2660.5
 11
4555.500000000003
 21
2660.5
  0
LINE
  5
158
100
AcDbEntity
  8
1
  6
CONTINUOUS
 62
           7
100
AcDbLine
 10
4510.000000000001
 20
2660.5
 11
4510.000000000003
 21
2665.0
  0
LINE
  5
157
100
AcDbEntity
  8
1
  6
CONTINUOUS
 62
           4
100
AcDbLine
 10
4545.500000000003
 20
2625.0
 11
4554.500000000005
 21
2625.0
  0
LINE
  5
156
100
AcDbEntity
  8
1
  6
CONTINUOUS
 62
           7
100
AcDbLine
 10
4555.500000000003
 20
3105.000000000002
 11
4544.500000000021
 21
3105.000000000002
  0
LINE
  5
155
100
AcDbEntity
  8
1
  6
CONTINUOUS
 62
           4
100
AcDbLine
 10
4545.500000000003
 20
3145.000000000002
 11
4554.500000000005
 21
3145.000000000002
  0
LINE
  5
154
100
AcDbEntity
  8
1
  6
CONTINUOUS
 62
           7
100
AcDbLine
 10
4590.000000000003
 20
3104.999999999999
 11
4590.000000000003
 21
3109.500000000004
  0
LINE
  5
153
100
AcDbEntity
  8
1
  6
CONTINUOUS
 62
           4
100
AcDbLine
 10
4590.000000000003
 20
3109.500000000004
 11
4555.500000000003
 21
3109.500000000002
  0
LINE
  5
152
100
AcDbEntity
  8
1
  6
CONTINUOUS
 62
           7
100
AcDbLine
 10
4510.000000000003
 20
3104.999999999999
 11
4510.000000000003
 21
3109.499999999999
  0
LINE
  5
151
100
AcDbEntity
  8
1
  6
CONTINUOUS
 62
           4
100
AcDbLine
 10
4510.000000000003
 20
3109.499999999999
 11
4544.500000000004
 21
3109.500000000002
  0
LINE
  5
150
100
AcDbEntity
  8
1
  6
CONTINUOUS
 62
           7
100
AcDbLine
 10
4550.000000000003
 20
2625.0
 11
4550.000000000003
 21
3145.000000000002
  0
LINE
  5
14F
100
AcDbEntity
  8
1
  6
CONTINUOUS
 62
           7
100
AcDbLine
 10
4555.500000000001
 20
2665.0
 11
4590.000000000003
 21
2665.0
  0
LINE
  5
14E
100
AcDbEntity
  8
1
  6
CONTINUOUS
 62
           7
100
AcDbLine
 10
4590.000000000003
 20
2665.0
 11
4590.000000000003
 21
3104.999999999999
  0
LINE
  5
14D
100
AcDbEntity
  8
1
  6
CONTINUOUS
 62
           4
100
AcDbLine
 10
4554.500000000003
 20
2665.0
 11
4554.500000000003
 21
3105.000000000001
  0
LINE
  5
14C
100
AcDbEntity
  8
1
  6
CONTINUOUS
 62
           4
100
AcDbLine
 10
4554.500000000003
 20
2659.5
 11
4554.500000000005
 21
2625.0
  0
LINE
  5
14B
100
AcDbEntity
  8
1
  6
CONTINUOUS
 62
           4
100
AcDbLine
 10
4554.500000000005
 20
3145.000000000002
 11
4554.500000000003
 21
3110.500000000002
  0
LINE
  5
14A
100
AcDbEntity
  8
1
  6
CONTINUOUS
 62
           7
100
AcDbLine
 10
4590.000000000003
 20
3104.999999999999
 11
4555.500000000003
 21
3105.000000000002
  0
LINE
  5
149
100
AcDbEntity
  8
1
  6
CONTINUOUS
 62
           7
100
AcDbLine
 10
4544.500000000021
 20
3105.000000000002
 11
4510.000000000003
 21
3104.999999999999
  0
LINE
  5
148
100
AcDbEntity
  8
1
  6
CONTINUOUS
 62
           4
100
AcDbLine
 10
4545.500000000003
 20
3110.500000000002
 11
4545.500000000003
 21
3145.000000000002
  0
LINE
  5
147
100
AcDbEntity
  8
1
  6
CONTINUOUS
 62
           4
100
AcDbLine
 10
4545.500000000003
 20
2625.0
 11
4545.500000000003
 21
2659.5
  0
LINE
  5
146
100
AcDbEntity
  8
1
  6
CONTINUOUS
 62
           4
100
AcDbLine
 10
4545.500000000003
 20
3105.000000000002
 11
4545.500000000003
 21
2665.0
  0
LINE
  5
145
100
AcDbEntity
  8
1
  6
CONTINUOUS
 62
           7
100
AcDbLine
 10
4510.000000000003
 20
3104.999999999999
 11
4510.000000000003
 21
2665.0
  0
LINE
  5
144
100
AcDbEntity
  8
1
  6
CONTINUOUS
 62
           7
100
AcDbLine
 10
4510.000000000003
 20
2665.0
 11
4544.500000000001
 21
2665.0
  0
LINE
  5
143
100
AcDbEntity
  8
1
  6
CONTINUOUS
 62
           7
100
AcDbLine
 10
4506.464466094071
 20
2627.299999999999
 11
4140.000000000003
 21
2627.299999999999
  0
LINE
  5
142
100
AcDbEntity
  8
1
  6
CONTINUOUS
 62
           7
100
AcDbLine
 10
4510.000000000003
 20
2665.299999999999
 11
4510.000000000003
 21
2632.299999999999
  0
LINE
  5
141
100
AcDbEntity
  8
1
  6
CONTINUOUS
 62
           7
100
AcDbLine
 10
4510.000000000003
 20
3137.7
 11
4510.000000000003
 21
3104.7
  0
LINE
  5
140
100
AcDbEntity
  8
1
  6
CONTINUOUS
 62
           7
100
AcDbLine
 10
3442.268760408318
 20
3142.7
 11
3965.52777848636
 21
3142.7
  0
LINE
  5
13F
100
AcDbEntity
  8
1
  6
CONTINUOUS
 62
           7
100
AcDbLine
 10
3442.268760408318
 20
3104.7
 11
3442.268760408318
 21
3142.7
  0
LINE
  5
13E
100
AcDbEntity
  8
1
  6
CONTINUOUS
 62
           7
100
AcDbLine
 10
4506.464466094071
 20
3142.7
 11
4510.000000000003
 21
3137.7
  0
LINE
  5
13D
100
AcDbEntity
  8
1
  6
CONTINUOUS
 62
           7
100
AcDbLine
 10
4510.000000000003
 20
2632.299999999999
 11
4506.464466094071
 21
2627.299999999999
  0
LINE
  5
13C
100
AcDbEntity
  8
1
  6
CONTINUOUS
 62
           7
100
AcDbLine
 10
3442.268760408318
 20
2627.299999999999
 11
3442.268760408318
 21
2665.299999999999
  0
LINE
  5
13B
100
AcDbEntity
  8
1
  6
CONTINUOUS
 62
           7
100
AcDbLine
 10
4510.000000000003
 20
3104.7
 11
3442.268760408318
 21
3104.7
  0
LINE
  5
13A
100
AcDbEntity
  8
1
  6
CONTINUOUS
 62
           7
100
AcDbLine
 10
4510.000000000003
 20
2665.299999999999
 11
3442.268760408318
 21
2665.299999999999
  0
LINE
  5
139
100
AcDbEntity
  8
1
  6
CONTINUOUS
 62
           4
100
AcDbLine
 10
4310.000000000005
 20
3142.7
 11
4310.000000000005
 21
3143.699999999999
  0
LINE
  5
138
100
AcDbEntity
  8
1
  6
CONTINUOUS
 62
           4
100
AcDbLine
 10
4310.000000000005
 20
3143.699999999999
 11
4304.993063735611
 21
3148.7
  0
LINE
  5
137
100
AcDbEntity
  8
1
  6
CONTINUOUS
 62
           4
100
AcDbLine
 10
3775.000000000003
 20
3148.7
 11
3770.000000000003
 21
3143.699999999999
  0
LINE
  5
136
100
AcDbEntity
  8
1
  6
CONTINUOUS
 62
           4
100
AcDbLine
 10
4304.993063735611
 20
3148.7
 11
3775.000000000003
 21
3148.7
  0
LINE
  5
135
100
AcDbEntity
  8
1
  6
CONTINUOUS
 62
           4
100
AcDbLine
 10
3770.000000000003
 20
3143.699999999999
 11
3770.000000000003
 21
3142.7
  0
LINE
  5
134
100
AcDbEntity
  8
0
  6
CONTINUOUS
 62
           7
100
AcDbLine
 10
4338.200000000004
 20
2581.0
 11
4338.200000000004
 21
2627.299999999999
  0
LINE
  5
133
100
AcDbEntity
  8
0
  6
CONTINUOUS
 62
           7
100
AcDbLine
 10
3741.800000000002
 20
2627.299999999999
 11
3741.800000000002
 21
2581.0
  0
LINE
  5
132
100
AcDbEntity
  8
0
  6
CONTINUOUS
 62
           7
100
AcDbLine
 10
4360.000000000003
 20
2665.299999999999
 11
4294.211716344319
 21
2665.299999999999
  0
LINE
  5
131
100
AcDbEntity
  8
1
  6
CONTINUOUS
 62
           4
100
AcDbLine
 10
4380.000000000003
 20
2581.0
 11
3700.000000000003
 21
2581.0
  0
LINE
  5
130
100
AcDbEntity
  8
1
  6
CONTINUOUS
 62
           7
100
AcDbLine
 10
3700.000000000003
 20
2575.0
 11
4380.000000000003
 21
2575.0
  0
LINE
  5
12F
100
AcDbEntity
  8
1
  6
CONTINUOUS
 62
           4
100
AcDbLine
 10
3700.000000000003
 20
2581.0
 11
3700.000000000003
 21
2575.0
  0
LINE
  5
12E
100
AcDbEntity
  8
1
  6
CONTINUOUS
 62
           4
100
AcDbLine
 10
4380.000000000003
 20
2575.0
 11
4380.000000000003
 21
2581.0
  0
LINE
  5
12D
100
AcDbEntity
  8
7
  6
CONTINUOUS
 62
           7
100
AcDbLine
 10
4155.000000000003
 20
3378.0
 11
4040.000000000003
 21
3378.0
  0
LINE
  5
12C
100
AcDbEntity
  8
7
  6
CONTINUOUS
 62
           7
100
AcDbLine
 10
4149.147843000002
 20
3445.329780999997
 11
4128.652848000001
 21
3460.402829999999
  0
LINE
  5
12B
100
AcDbEntity
  8
7
  6
CONTINUOUS
 62
           7
100
AcDbLine
 10
4124.600000000003
 20
3465.0
 11
4040.000000000003
 21
3465.0
  0
LINE
  5
12A
100
AcDbEntity
  8
7
  6
CONTINUOUS
 62
           7
100
AcDbLine
 10
4155.000000000003
 20
3405.537538373368
 11
4155.000000000003
 21
3378.0
  0
LINE
  5
129
100
AcDbEntity
  8
7
  6
CONTINUOUS
 62
           7
100
AcDbLine
 10
4040.000000000003
 20
3378.0
 11
3925.000000000003
 21
3378.0
  0
LINE
  5
128
100
AcDbEntity
  8
7
  6
CONTINUOUS
 62
           7
100
AcDbLine
 10
3925.000000000003
 20
3405.537538373368
 11
3928.000000000003
 21
3440.299999999998
  0
LINE
  5
127
100
AcDbEntity
  8
7
  6
CONTINUOUS
 62
           4
100
AcDbLine
 10
3931.200000000002
 20
3443.5
 11
4150.992023000002
 21
3443.5
  0
LINE
  5
126
100
AcDbEntity
  8
7
  6
CONTINUOUS
 62
           7
100
AcDbLine
 10
3933.223966000001
 20
3443.861695999999
 11
3953.847153000002
 21
3460.402829999999
  0
LINE
  5
125
100
AcDbEntity
  8
7
  6
CONTINUOUS
 62
           7
100
AcDbLine
 10
3957.900000000001
 20
3465.0
 11
4040.000000000003
 21
3465.0
  0
LINE
  5
124
100
AcDbEntity
  8
2
  6
CONTINUOUS
 62
           7
100
AcDbLine
 10
3942.431358000001
 20
3150.699999999999
 11
3931.386336000002
 21
3177.199999999999
  0
LINE
  5
123
100
AcDbEntity
  8
2
  6
CONTINUOUS
 62
           7
100
AcDbLine
 10
3931.386336000002
 20
3366.5
 11
3931.386336000002
 21
3177.199999999999
  0
LINE
  5
122
100
AcDbEntity
  8
2
  6
CONTINUOUS
 62
           7
100
AcDbLine
 10
3936.179459000002
 20
3378.0
 11
3931.386336000002
 21
3366.5
  0
LINE
  5
121
100
AcDbEntity
  8
2
  6
CONTINUOUS
 62
           4
100
AcDbLine
 10
4133.250000000003
 20
3148.7
 11
4133.250000000003
 21
3150.699999999999
  0
LINE
  5
120
100
AcDbEntity
  8
2
  6
CONTINUOUS
 62
           7
100
AcDbLine
 10
4148.613664000001
 20
3366.5
 11
4148.613664000001
 21
3177.199999999999
  0
LINE
  5
11F
100
AcDbEntity
  8
2
  6
CONTINUOUS
 62
           7
100
AcDbLine
 10
4148.613664000001
 20
3366.5
 11
4143.820541000002
 21
3378.0
  0
LINE
  5
11E
100
AcDbEntity
  8
2
  6
CONTINUOUS
 62
           4
100
AcDbLine
 10
4137.568642000001
 20
3150.699999999999
 11
3942.431358000001
 21
3150.699999999999
  0
LINE
  5
11D
100
AcDbEntity
  8
2
  6
CONTINUOUS
 62
           7
100
AcDbLine
 10
4148.613664000001
 20
3177.199999999999
 11
4137.568642000001
 21
3150.699999999999
  0
LINE
  5
11C
100
AcDbEntity
  8
1
  6
CONTINUOUS
 62
           4
100
AcDbLine
 10
4155.000000000003
 20
3405.537538373368
 11
3925.000000000003
 21
3405.537538373368
  0
LINE
  5
11B
100
AcDbEntity
  8
7
  6
CONTINUOUS
 62
           7
100
AcDbLine
 10
4152.000000000003
 20
3440.111356999998
 11
4155.000000000003
 21
3405.537538373368
  0
LINE
  5
11A
100
AcDbEntity
  8
7
  6
CONTINUOUS
 62
           7
100
AcDbLine
 10
3925.000000000003
 20
3378.0
 11
3925.000000000003
 21
3405.537538373368
  0
LINE
  5
119
100
AcDbEntity
  8
2
  6
CONTINUOUS
 62
           4
100
AcDbLine
 10
3946.750000000001
 20
3150.699999999999
 11
3946.750000000001
 21
3148.7
  0
LINE
  5
118
100
AcDbEntity
  8
1
  6
CONTINUOUS
 62
           7
100
AcDbLine
 10
3480.01090847636
 20
2665.299999999999
 11
3480.01090847636
 21
3104.7
  0
LINE
  5
117
100
AcDbEntity
  8
1
  6
DOT_CENTER
 62
           2
100
AcDbLine
 10
4650.588082276608
 20
2885.0
 11
3415.991794870069
 21
2885.0
  0
LINE
  5
116
100
AcDbEntity
  8
1
  6
DOT_CENTER
 62
           2
100
AcDbLine
 10
4040.000000000003
 20
2541.288302183322
 11
4040.000000000003
 21
3515.668407282449
  0
LINE
  5
115
100
AcDbEntity
  8
1
  6
CONTINUOUS
 62
           7
100
AcDbLine
 10
4140.000000000003
 20
3142.7
 11
4140.000000000003
 21
3104.7
  0
LINE
  5
114
100
AcDbEntity
  8
1
  6
CONTINUOUS
 62
           7
100
AcDbLine
 10
3965.52777848636
 20
3142.7
 11
3965.52777848636
 21
3104.7
  0
LINE
  5
113
100
AcDbEntity
  8
1
  6
CONTINUOUS
 62
           7
100
AcDbLine
 10
4140.000000000003
 20
3142.7
 11
4506.464466094071
 21
3142.7
  0
LINE
  5
112
100
AcDbEntity
  8
1
  6
CONTINUOUS
 62
           7
100
AcDbLine
 10
4415.000000000003
 20
3142.7
 11
4415.000000000003
 21
3104.7
  0
LINE
  5
111
100
AcDbEntity
  8
1
  6
CONTINUOUS
 62
           7
100
AcDbLine
 10
4415.000000000003
 20
2665.299999999999
 11
4415.000000000003
 21
2627.299999999999
  0
LINE
  5
110
100
AcDbEntity
  8
1
  6
CONTINUOUS
 62
           7
100
AcDbLine
 10
4140.000000000003
 20
2665.299999999999
 11
4140.000000000003
 21
2627.299999999999
  0
LINE
  5
10F
100
AcDbEntity
  8
1
  6
CONTINUOUS
 62
           7
100
AcDbLine
 10
3965.52777848636
 20
2665.299999999999
 11
3965.52777848636
 21
2627.299999999999
  0
LINE
  5
10E
100
AcDbEntity
  8
1
  6
CONTINUOUS
 62
           7
100
AcDbLine
 10
3965.52777848636
 20
2627.299999999999
 11
3442.268760408318
 21
2627.299999999999
  0
LINE
  5
10D
100
AcDbEntity
  8
1
  6
CONTINUOUS
 62
           7
100
AcDbLine
 10
4073.750000000003
 20
3225.000000000001
 11
4006.250000000003
 21
3225.000000000001
  0
LINE
  5
10C
100
AcDbEntity
  8
1
  6
CONTINUOUS
 62
           7
100
AcDbLine
 10
4006.250000000003
 20
3305.000000000001
 11
4073.750000000003
 21
3305.000000000001
  0
LINE
  5
10B
100
AcDbEntity
  8
1
  6
CONTINUOUS
 62
           7
100
AcDbLine
 10
4083.750000000003
 20
3295.000000000001
 11
4083.750000000003
 21
3235.000000000001
  0
LINE
  5
10A
100
AcDbEntity
  8
1
  6
CONTINUOUS
 62
           7
100
AcDbLine
 10
3996.250000000003
 20
3235.000000000001
 11
3996.250000000003
 21
3295.000000000001
  0
LINE
  5
109
100
AcDbEntity
  8
1
  6
CONTINUOUS
 62
           7
100
AcDbLine
 10
-52.720779386419
 20
3104.700000000002
 11
-52.720779386419
 21
3142.700000000001
  0
LINE
  5
108
100
AcDbEntity
  8
1
  6
CONTINUOUS
 62
           4
100
AcDbLine
 10
-264.993063735609
 20
3148.700000000002
 11
-271.00138725288
 21
3142.700000000002
  0
LINE
  5
107
100
AcDbEntity
  8
1
  6
CONTINUOUS
 62
           7
100
AcDbLine
 10
-690.773990510944
 20
3145.000000000001
 11
-690.773990510944
 21
2650.0
  0
LINE
  5
106
100
AcDbEntity
  8
1
  6
CONTINUOUS
 62
           7
100
AcDbLine
 10
-690.773990510944
 20
2665.000000000001
 11
-668.188191940733
 21
2665.000000000001
  0
LINE
  5
105
100
AcDbEntity
  8
1
  6
CONTINUOUS
 62
           7
100
AcDbLine
 10
477.974589850551
 20
3105.000000000002
 11
-659.776331535243
 21
3105.000000000002
  0
LINE
  5
104
100
AcDbEntity
  8
1
  6
CONTINUOUS
 62
           7
100
AcDbLine
 10
477.974589850551
 20
2665.000000000006
 11
-659.999999999997
 21
2665.000000000001
  0
LINE
  5
103
100
AcDbEntity
  8
1
  6
CONTINUOUS
 62
           2
100
AcDbLine
 10
-576.93489557894
 20
2705.000000000002
 11
-268.5423591195
 21
2705.000000000002
  0
LINE
  5
102
100
AcDbEntity
  8
1
  6
CONTINUOUS
 62
           2
100
AcDbLine
 10
-268.5423591195
 20
2705.000000000002
 11
-268.5423591195
 21
3065.000000000003
  0
LINE
  5
101
100
AcDbEntity
  8
1
  6
CONTINUOUS
 62
           2
100
AcDbLine
 10
-268.5423591195
 20
3065.000000000003
 11
-576.93489557894
 21
3065.000000000003
  0
LINE
  5
100
100
AcDbEntity
  8
1
  6
CONTINUOUS
 62
           2
100
AcDbLine
 10
-576.93489557894
 20
3065.000000000003
 11
-576.93489557894
 21
2705.000000000002
  0
LINE
  5
FF
100
AcDbEntity
  8
1
  6
CONTINUOUS
 62
           7
100
AcDbLine
 10
-650.0
 20
3142.700000000001
 11
470.538238691625
 21
3142.700000000002
  0
LINE
  5
FE
100
AcDbEntity
  8
1
  6
CONTINUOUS
 62
           7
100
AcDbLine
 10
470.538238691625
 20
3142.700000000002
 11
470.538238691625
 21
3104.700000000002
  0
LINE
  5
FD
100
AcDbEntity
  8
1
  6
CONTINUOUS
 62
           7
100
AcDbLine
 10
470.538238691625
 20
2665.300000000002
 11
470.538238691625
 21
2650.0
  0
LINE
  5
FC
100
AcDbEntity
  8
1
  6
CONTINUOUS
 62
           4
100
AcDbLine
 10
270.000000000001
 20
3143.7
 11
265.000000000001
 21
3148.700000000002
  0
LINE
  5
FB
100
AcDbEntity
  8
1
  6
CONTINUOUS
 62
           4
100
AcDbLine
 10
265.000000000001
 20
3148.700000000002
 11
-264.993063735609
 21
3148.700000000002
  0
LINE
  5
FA
100
AcDbEntity
  8
1
  6
CONTINUOUS
 62
           4
100
AcDbLine
 10
270.000000000001
 20
3142.700000000002
 11
270.000000000001
 21
3143.7
  0
LINE
  5
F9
100
AcDbEntity
  8
7
  6
CONTINUOUS
 62
           7
100
AcDbLine
 10
0.0
 20
3378.0
 11
-115.0
 21
3378.0
  0
LINE
  5
F8
100
AcDbEntity
  8
7
  6
CONTINUOUS
 62
           7
100
AcDbLine
 10
-88.652847999999
 20
3460.40283
 11
-109.147842999999
 21
3445.329780999999
  0
LINE
  5
F7
100
AcDbEntity
  8
7
  6
CONTINUOUS
 62
           7
100
AcDbLine
 10
0.0
 20
3465.0
 11
-84.599999999999
 21
3465.0
  0
LINE
  5
F6
100
AcDbEntity
  8
7
  6
CONTINUOUS
 62
           7
100
AcDbLine
 10
-115.0
 20
3378.0
 11
-115.0
 21
3405.537538373369
  0
LINE
  5
F5
100
AcDbEntity
  8
7
  6
CONTINUOUS
 62
           7
100
AcDbLine
 10
115.000000000001
 20
3378.0
 11
0.0
 21
3378.0
  0
LINE
  5
F4
100
AcDbEntity
  8
7
  6
CONTINUOUS
 62
           7
100
AcDbLine
 10
112.000000000001
 20
3440.299999999998
 11
115.000000000001
 21
3405.537538373369
  0
LINE
  5
F3
100
AcDbEntity
  8
7
  6
CONTINUOUS
 62
           4
100
AcDbLine
 10
-110.992022999999
 20
3443.5
 11
108.800000000001
 21
3443.5
  0
LINE
  5
F2
100
AcDbEntity
  8
7
  6
CONTINUOUS
 62
           7
100
AcDbLine
 10
86.152847000001
 20
3460.40283
 11
106.776034000001
 21
3443.861696
  0
LINE
  5
F1
100
AcDbEntity
  8
7
  6
CONTINUOUS
 62
           7
100
AcDbLine
 10
0.0
 20
3465.0
 11
82.100000000001
 21
3465.0
  0
LINE
  5
F0
100
AcDbEntity
  8
2
  6
CONTINUOUS
 62
           7
100
AcDbLine
 10
108.613664000001
 20
3177.2
 11
97.568642000001
 21
3150.7
  0
LINE
  5
EF
100
AcDbEntity
  8
2
  6
CONTINUOUS
 62
           7
100
AcDbLine
 10
108.613664000001
 20
3177.2
 11
108.613664000001
 21
3366.5
  0
LINE
  5
EE
100
AcDbEntity
  8
2
  6
CONTINUOUS
 62
           7
100
AcDbLine
 10
108.613664000001
 20
3366.5
 11
103.820541000001
 21
3378.0
  0
LINE
  5
ED
100
AcDbEntity
  8
2
  6
CONTINUOUS
 62
           4
100
AcDbLine
 10
-93.25
 20
3150.7
 11
-93.25
 21
3148.700000000002
  0
LINE
  5
EC
100
AcDbEntity
  8
2
  6
CONTINUOUS
 62
           7
100
AcDbLine
 10
-108.613663999999
 20
3177.2
 11
-108.613663999999
 21
3366.5
  0
LINE
  5
EB
100
AcDbEntity
  8
2
  6
CONTINUOUS
 62
           7
100
AcDbLine
 10
-103.820541
 20
3378.0
 11
-108.613663999999
 21
3366.5
  0
LINE
  5
EA
100
AcDbEntity
  8
2
  6
CONTINUOUS
 62
           4
100
AcDbLine
 10
97.568642000001
 20
3150.7
 11
-97.568642
 21
3150.7
  0
LINE
  5
E9
100
AcDbEntity
  8
2
  6
CONTINUOUS
 62
           7
100
AcDbLine
 10
-97.568642
 20
3150.7
 11
-108.613663999999
 21
3177.2
  0
LINE
  5
E8
100
AcDbEntity
  8
1
  6
CONTINUOUS
 62
           4
100
AcDbLine
 10
115.000000000001
 20
3405.537538373369
 11
-115.0
 21
3405.537538373369
  0
LINE
  5
E7
100
AcDbEntity
  8
7
  6
CONTINUOUS
 62
           7
100
AcDbLine
 10
-115.0
 20
3405.537538373369
 11
-112.0
 21
3440.111357
  0
LINE
  5
E6
100
AcDbEntity
  8
7
  6
CONTINUOUS
 62
           7
100
AcDbLine
 10
115.000000000001
 20
3405.537538373369
 11
115.000000000001
 21
3378.0
  0
LINE
  5
E5
100
AcDbEntity
  8
2
  6
CONTINUOUS
 62
           4
100
AcDbLine
 10
93.250000000001
 20
3148.700000000002
 11
93.250000000001
 21
3150.7
  0
LINE
  5
E4
100
AcDbEntity
  8
1
  6
CONTINUOUS
 62
           7
100
AcDbLine
 10
467.97406200061
 20
3104.700000000002
 11
467.97406200061
 21
2665.300000000002
  0
LINE
  5
E3
100
AcDbEntity
  8
1
  6
CONTINUOUS
 62
           7
100
AcDbLine
 10
-659.999999999997
 20
3145.000000000001
 11
-690.773990510944
 21
3145.000000000001
  0
LINE
  5
E2
100
AcDbEntity
  8
1
  6
CONTINUOUS
 62
           7
100
AcDbLine
 10
-668.432750797187
 20
3105.000000000001
 11
-690.773990510944
 21
3105.000000000001
  0
LINE
  5
E1
100
AcDbEntity
  8
1
  6
CONTINUOUS
 62
           7
100
AcDbLine
 10
-650.0
 20
3104.700000000002
 11
-650.0
 21
3142.700000000001
  0
LINE
  5
E0
100
AcDbEntity
  8
1
  6
CONTINUOUS
 62
           7
100
AcDbLine
 10
-649.999999999994
 20
3104.700000000002
 11
-649.999999999994
 21
2665.299999999998
  0
LINE
  5
DF
100
AcDbEntity
  8
1
  6
CONTINUOUS
 62
           7
100
AcDbLine
 10
-650.0
 20
2665.299999999998
 11
-649.999999999999
 21
2650.0
  0
LINE
  5
DE
100
AcDbEntity
  8
1
  6
CONTINUOUS
 62
           2
100
AcDbLine
 10
425.133110726257
 20
3065.000000000003
 11
425.133110726257
 21
2705.000000000002
  0
LINE
  5
DD
100
AcDbEntity
  8
1
  6
CONTINUOUS
 62
           2
100
AcDbLine
 10
425.133110726257
 20
2705.000000000002
 11
467.97406200061
 21
2705.000000000003
  0
LINE
  5
DC
100
AcDbEntity
  8
1
  6
CONTINUOUS
 62
           2
100
AcDbLine
 10
467.97406200061
 20
3065.000000000003
 11
425.133110726257
 21
3065.000000000003
  0
LINE
  5
DB
100
AcDbEntity
  8
1
  6
DOT_CENTER
 62
           2
100
AcDbLine
 10
533.829689541416
 20
2885.000000000003
 11
-733.147676803783
 21
2885.000000000001
  0
LINE
  5
DA
100
AcDbEntity
  8
1
  6
CONTINUOUS
 62
           7
100
AcDbLine
 10
156.5
 20
3225.000000000001
 11
118.613664000001
 21
3225.000000000001
  0
LINE
  5
D9
100
AcDbEntity
  8
1
  6
CONTINUOUS
 62
           7
100
AcDbLine
 10
118.613664000001
 20
3305.000000000001
 11
156.5
 21
3305.000000000001
  0
LINE
  5
D8
100
AcDbEntity
  8
1
  6
CONTINUOUS
 62
           7
100
AcDbLine
 10
108.613664000001
 20
3235.000000000001
 11
108.613664000001
 21
3295.000000000001
  0
LINE
  5
D7
100
AcDbEntity
  8
1
  6
CONTINUOUS
 62
           7
100
AcDbLine
 10
166.5
 20
3295.000000000001
 11
166.5
 21
3235.000000000001
  0
LINE
  5
D6
100
AcDbEntity
  8
1
  6
CONTINUOUS
 62
           7
100
AcDbLine
 10
-52.720779386419
 20
2650.0
 11
-52.720779386419
 21
2665.300000000002
  0
LINE
  5
D5
100
AcDbEntity
  8
1
  6
CONTINUOUS
 62
           7
100
AcDbLine
 10
1210.000000000001
 20
4998.465598018149
 11
1050.000000000001
 21
4998.465598018149
  0
LINE
  5
D4
100
AcDbEntity
  8
1
  6
CONTINUOUS
 62
           7
100
AcDbLine
 10
1210.000000000001
 20
5198.465598018149
 11
1210.000000000001
 21
4998.465598018149
  0
LINE
  5
D3
100
AcDbEntity
  8
1
  6
CONTINUOUS
 62
           7
100
AcDbLine
 10
1050.000000000001
 20
5198.465598018149
 11
1210.000000000001
 21
5198.465598018149
  0
LINE
  5
D2
100
AcDbEntity
  8
1
  6
CONTINUOUS
 62
           7
100
AcDbLine
 10
1210.000000000001
 20
1800.000000000002
 11
1050.000000000001
 21
1800.000000000002
  0
LINE
  5
D1
100
AcDbEntity
  8
1
  6
CONTINUOUS
 62
           7
100
AcDbLine
 10
1210.0
 20
2200.000000000004
 11
1210.000000000001
 21
1800.000000000002
  0
LINE
  5
D0
100
AcDbEntity
  8
1
  6
CONTINUOUS
 62
           7
100
AcDbLine
 10
1050.000000000001
 20
2200.000000000002
 11
1210.0
 21
2200.000000000004
  0
LINE
  5
CF
100
AcDbEntity
  8
1
  6
CONTINUOUS
 62
           4
100
AcDbLine
 10
3450.000000000002
 20
1800.000000000002
 11
3480.000000000002
 21
1800.000000000002
  0
LINE
  5
CE
100
AcDbEntity
  8
1
  6
CONTINUOUS
 62
           4
100
AcDbLine
 10
3450.000000000002
 20
2200.000000000002
 11
3480.000000000002
 21
2200.000000000002
  0
LINE
  5
CD
100
AcDbEntity
  8
1
  6
CONTINUOUS
 62
           7
100
AcDbLine
 10
3250.000000000002
 20
1800.000000000002
 11
3250.000000000002
 21
2200.000000000002
  0
LINE
  5
CC
100
AcDbEntity
  8
1
  6
CONTINUOUS
 62
           7
100
AcDbLine
 10
3450.000000000002
 20
1800.000000000002
 11
3250.000000000002
 21
1800.000000000002
  0
LINE
  5
CB
100
AcDbEntity
  8
1
  6
CONTINUOUS
 62
           7
100
AcDbLine
 10
3450.000000000002
 20
2200.000000000002
 11
3450.000000000002
 21
1800.000000000002
  0
LINE
  5
CA
100
AcDbEntity
  8
1
  6
CONTINUOUS
 62
           7
100
AcDbLine
 10
3250.000000000002
 20
2200.000000000002
 11
3450.000000000002
 21
2200.000000000002
  0
LINE
  5
C9
100
AcDbEntity
  8
1
  6
CONTINUOUS
 62
           7
100
AcDbLine
 10
985.000000000001
 20
500.0
 11
1000.000000000001
 21
500.0
  0
LINE
  5
C8
100
AcDbEntity
  8
1
  6
CONTINUOUS
 62
           7
100
AcDbLine
 10
-999.999999999999
 20
513.85332266763
 11
-999.999999999999
 21
2500.0
  0
LINE
  5
C7
100
AcDbEntity
  8
1
  6
CONTINUOUS
 62
           7
100
AcDbLine
 10
1000.000000000001
 20
500.0
 11
1000.000000000001
 21
2500.0
  0
LINE
  5
C6
100
AcDbEntity
  8
1
  6
CONTINUOUS
 62
           7
100
AcDbLine
 10
0.0
 20
2500.0
 11
0.0
 21
2000.0
  0
LINE
  5
C5
100
AcDbEntity
  8
1
  6
CONTINUOUS
 62
           7
100
AcDbLine
 10
1000.000000000001
 20
2000.0
 11
-999.999999999999
 21
2000.0
  0
LINE
  5
C4
100
AcDbEntity
  8
1
  6
CONTINUOUS
 62
           4
100
AcDbLine
 10
3520.000000000002
 20
2020.0
 11
4480.000000000002
 21
2020.0
  0
LINE
  5
C3
100
AcDbEntity
  8
1
  6
CONTINUOUS
 62
           4
100
AcDbLine
 10
4480.000000000002
 20
2020.0
 11
4480.000000000002
 21
2480.0
  0
LINE
  5
C2
100
AcDbEntity
  8
1
  6
CONTINUOUS
 62
           4
100
AcDbLine
 10
4480.000000000002
 20
2480.0
 11
3520.000000000002
 21
2480.0
  0
LINE
  5
C1
100
AcDbEntity
  8
1
  6
CONTINUOUS
 62
           4
100
AcDbLine
 10
3520.000000000002
 20
2480.0
 11
3520.000000000002
 21
2020.0
  0
LINE
  5
C0
100
AcDbEntity
  8
1
  6
CONTINUOUS
 62
           7
100
AcDbLine
 10
4500.000000000002
 20
2000.0
 11
3500.000000000002
 21
2000.0
  0
LINE
  5
BF
100
AcDbEntity
  8
1
  6
CONTINUOUS
 62
           4
100
AcDbLine
 10
54.980390271861
 20
5228.465598018149
 11
980.000000000001
 21
5228.465598018149
  0
LINE
  5
BE
100
AcDbEntity
  8
1
  6
CONTINUOUS
 62
           4
100
AcDbLine
 10
-979.999999999999
 20
5228.465598018149
 11
-150.905365064103
 21
5228.465598018147
  0
LINE
  5
BD
100
AcDbEntity
  8
1
  6
CONTINUOUS
 62
           4
100
AcDbLine
 10
1040.0
 20
5248.465598018149
 11
1040.000000000001
 21
4268.465598018149
  0
LINE
  5
BC
100
AcDbEntity
  8
1
  6
CONTINUOUS
 62
           7
100
AcDbLine
 10
2550.000000000002
 20
1849.999999999999
 11
2550.000000000002
 21
2089.999999999999
  0
LINE
  5
BB
100
AcDbEntity
  8
1
  6
CONTINUOUS
 62
           7
100
AcDbLine
 10
3385.000000000002
 20
1756.750000000002
 11
3385.000000000002
 21
1770.000000000002
  0
LINE
  5
BA
100
AcDbEntity
  8
1
  6
CONTINUOUS
 62
           7
100
AcDbLine
 10
3362.500000000002
 20
1800.000000000002
 11
3362.500000000002
 21
1770.000000000002
  0
LINE
  5
B9
100
AcDbEntity
  8
1
  6
CONTINUOUS
 62
           7
100
AcDbLine
 10
3387.500000000002
 20
1800.000000000002
 11
3387.500000000002
 21
1770.000000000002
  0
LINE
  5
B8
100
AcDbEntity
  8
1
  6
CONTINUOUS
 62
           7
100
AcDbLine
 10
3362.500000000002
 20
1770.000000000002
 11
3387.500000000002
 21
1770.000000000002
  0
LINE
  5
B7
100
AcDbEntity
  8
1
  6
CONTINUOUS
 62
           7
100
AcDbLine
 10
3365.000000000002
 20
1770.000000000002
 11
3365.000000000002
 21
1756.750000000002
  0
LINE
  5
B6
100
AcDbEntity
  8
1
  6
CONTINUOUS
 62
           7
100
AcDbLine
 10
3402.000000000002
 20
1739.750000000002
 11
3479.358987904703
 21
1739.750000000002
  0
LINE
  5
B5
100
AcDbEntity
  8
1
  6
CONTINUOUS
 62
           7
100
AcDbLine
 10
3402.000000000002
 20
1719.750000000002
 11
3472.875742457636
 21
1719.750000000002
  0
LINE
  5
B4
100
AcDbEntity
  8
1
  6
CONTINUOUS
 62
           4
100
AcDbLine
 10
-659.999999999996
 20
6228.465598018149
 11
-979.999999999999
 21
6228.465598018149
  0
LINE
  5
B3
100
AcDbEntity
  8
1
  6
CONTINUOUS
 62
           7
100
AcDbLine
 10
-649.999999999998
 20
6248.465598018149
 11
-1049.999999999999
 21
6248.465598018149
  0
LINE
  5
B2
100
AcDbEntity
  8
1
  6
CONTINUOUS
 62
           7
100
AcDbLine
 10
127.928556845363
 20
5248.465598018149
 11
1050.000000000001
 21
5248.465598018149
  0
LINE
  5
B1
100
AcDbEntity
  8
1
  6
DOT_CENTER
 62
           2
100
AcDbLine
 10
500.000000000001
 20
5788.465598018149
 11
-684.888003224811
 21
5788.465598018149
  0
LINE
  5
B0
100
AcDbEntity
  8
1
  6
CONTINUOUS
 62
           7
100
AcDbLine
 10
1166.893991579731
 20
500.0
 11
-1258.038310471419
 21
500.0
  0
LINE
  5
AF
100
AcDbEntity
  8
1
  6
CONTINUOUS
 62
           7
100
AcDbLine
 10
-499.999999999999
 20
5248.465598018149
 11
-499.999999999999
 21
5422.773404201616
  0
LINE
  5
AE
100
AcDbEntity
  8
1
  6
CONTINUOUS
 62
           4
100
AcDbLine
 10
-520.0
 20
5268.465598018149
 11
-520.0
 21
5446.037260611178
  0
LINE
  5
AD
100
AcDbEntity
  8
1
  6
CONTINUOUS
 62
           7
100
AcDbLine
 10
500.000000000001
 20
5248.465598018149
 11
500.000000000001
 21
6248.465598018149
  0
LINE
  5
AC
100
AcDbEntity
  8
1
  6
CONTINUOUS
 62
           4
100
AcDbLine
 10
520.0
 20
6228.465598018149
 11
520.0
 21
5268.465598018149
  0
LINE
  5
AB
100
AcDbEntity
  8
1
  6
CONTINUOUS
 62
           7
100
AcDbLine
 10
985.000000000001
 20
540.0
 11
-984.999999999999
 21
540.0
  0
LINE
  5
AA
100
AcDbEntity
  8
1
  6
CONTINUOUS
 62
           7
100
AcDbLine
 10
-984.999999999999
 20
500.0
 11
-984.999999999999
 21
540.0
  0
LINE
  5
A9
100
AcDbEntity
  8
1
  6
LONG_DASHED
 62
           2
100
AcDbLine
 10
4450.000000000002
 20
50.0
 11
4450.000000000002
 21
500.0
  0
LINE
  5
A8
100
AcDbEntity
  8
1
  6
LONG_DASHED
 62
           2
100
AcDbLine
 10
3050.000000000001
 20
50.0
 11
4450.000000000002
 21
50.0
  0
LINE
  5
A7
100
AcDbEntity
  8
1
  6
LONG_DASHED
 62
           2
100
AcDbLine
 10
3050.000000000001
 20
500.0
 11
3050.000000000001
 21
50.0
  0
LINE
  5
A6
100
AcDbEntity
  8
1
  6
CONTINUOUS
 62
           4
100
AcDbLine
 10
4480.000000000002
 20
1980.0
 11
3520.000000000002
 21
1980.0
  0
LINE
  5
A5
100
AcDbEntity
  8
1
  6
CONTINUOUS
 62
           4
100
AcDbLine
 10
4480.000000000002
 20
520.0
 11
4480.000000000002
 21
1980.0
  0
LINE
  5
A4
100
AcDbEntity
  8
1
  6
CONTINUOUS
 62
           4
100
AcDbLine
 10
3520.000000000002
 20
520.0
 11
4480.000000000002
 21
520.0
  0
LINE
  5
A3
100
AcDbEntity
  8
1
  6
CONTINUOUS
 62
           4
100
AcDbLine
 10
2520.000000000002
 20
520.0
 11
3480.000000000002
 21
520.0
  0
LINE
  5
A2
100
AcDbEntity
  8
1
  6
CONTINUOUS
 62
           4
100
AcDbLine
 10
2520.000000000002
 20
2480.0
 11
2520.000000000002
 21
520.0
  0
LINE
  5
A1
100
AcDbEntity
  8
1
  6
CONTINUOUS
 62
           4
100
AcDbLine
 10
3480.000000000002
 20
2480.0
 11
2520.000000000002
 21
2480.0
  0
LINE
  5
A0
100
AcDbEntity
  8
1
  6
CONTINUOUS
 62
           7
100
AcDbLine
 10
2354.239894890759
 20
500.0
 11
4651.820101124289
 21
500.0
  0
LINE
  5
9F
100
AcDbEntity
  8
1
  6
CONTINUOUS
 62
           7
100
AcDbLine
 10
-1049.999999999999
 20
4248.465598018149
 11
1050.000000000001
 21
4248.465598018149
  0
LINE
  5
9E
100
AcDbEntity
  8
1
  6
CONTINUOUS
 62
           7
100
AcDbLine
 10
-1049.999999999999
 20
6248.465598018149
 11
-1049.999999999999
 21
4248.465598018149
  0
LINE
  5
9D
100
AcDbEntity
  8
1
  6
CONTINUOUS
 62
           7
100
AcDbLine
 10
-1049.999999999999
 20
5248.465598018149
 11
-230.52558883258
 21
5248.465598018149
  0
LINE
  5
9C
100
AcDbEntity
  8
1
  6
CONTINUOUS
 62
           4
100
AcDbLine
 10
-979.999999999999
 20
5228.465598018149
 11
-979.999999999999
 21
4268.465598018149
  0
LINE
  5
9B
100
AcDbEntity
  8
1
  6
CONTINUOUS
 62
           4
100
AcDbLine
 10
-979.999999999999
 20
5268.465598018149
 11
-520.0
 21
5268.465598018149
  0
LINE
  5
9A
100
AcDbEntity
  8
1
  6
CONTINUOUS
 62
           4
100
AcDbLine
 10
-979.999999999999
 20
5268.465598018149
 11
-979.999999999999
 21
6228.465598018149
  0
LINE
  5
99
100
AcDbEntity
  8
1
  6
CONTINUOUS
 62
           7
100
AcDbLine
 10
1050.000000000001
 20
6248.465598018149
 11
0.0
 21
6248.465598018149
  0
LINE
  5
98
100
AcDbEntity
  8
1
  6
CONTINUOUS
 62
           7
100
AcDbLine
 10
1050.000000000001
 20
500.0
 11
1050.000000000001
 21
2650.0
  0
LINE
  5
97
100
AcDbEntity
  8
1
  6
CONTINUOUS
 62
           7
100
AcDbLine
 10
1050.000000000001
 20
2500.0
 11
-1049.999999999999
 21
2500.0
  0
LINE
  5
96
100
AcDbEntity
  8
1
  6
CONTINUOUS
 62
           7
100
AcDbLine
 10
2500.000000000003
 20
500.0
 11
2500.000000000003
 21
2550.0
  0
LINE
  5
95
100
AcDbEntity
  8
1
  6
CONTINUOUS
 62
           7
100
AcDbLine
 10
4500.000000000002
 20
500.0
 11
4500.000000000002
 21
2575.0
  0
LINE
  5
94
100
AcDbEntity
  8
1
  6
CONTINUOUS
 62
           7
100
AcDbLine
 10
4500.000000000002
 20
2500.0
 11
2500.000000000003
 21
2500.0
  0
LINE
  5
93
100
AcDbEntity
  8
1
  6
CONTINUOUS
 62
           4
100
AcDbLine
 10
2500.000000000003
 20
2503.0
 11
4500.000000000002
 21
2503.0
  0
LINE
  5
92
100
AcDbEntity
  8
1
  6
CONTINUOUS
 62
           7
100
AcDbLine
 10
2500.000000000003
 20
2550.0
 11
4500.000000000002
 21
2550.0
  0
LINE
  5
91
100
AcDbEntity
  8
1
  6
CONTINUOUS
 62
           7
100
AcDbLine
 10
3500.000000000002
 20
2000.0
 11
3500.000000000004
 21
2575.0
  0
LINE
  5
90
100
AcDbEntity
  8
1
  6
LONG_DASHED
 62
           2
100
AcDbLine
 10
-999.999999999999
 20
50.0
 11
-999.999999999999
 21
513.85332266763
  0
LINE
  5
8F
100
AcDbEntity
  8
1
  6
LONG_DASHED
 62
           2
100
AcDbLine
 10
1000.000000000001
 20
50.0
 11
1000.000000000001
 21
500.0
  0
LINE
  5
8E
100
AcDbEntity
  8
1
  6
CONTINUOUS
 62
           7
100
AcDbLine
 10
1000.000000000001
 20
1900.0
 11
-999.999999999999
 21
1900.0
  0
LINE
  5
8D
100
AcDbEntity
  8
1
  6
LONG_DASHED
 62
           2
100
AcDbLine
 10
1000.000000000001
 20
50.0
 11
-999.999999999999
 21
50.0
  0
LINE
  5
8C
100
AcDbEntity
  8
1
  6
CONTINUOUS
 62
           7
100
AcDbLine
 10
985.000000000001
 20
540.0
 11
985.000000000001
 21
500.0
  0
LINE
  5
8B
100
AcDbEntity
  8
1
  6
CONTINUOUS
 62
           7
100
AcDbLine
 10
-999.999999999999
 20
513.85332266763
 11
-999.999999999999
 21
572.607085651512
  0
LINE
  5
8A
100
AcDbEntity
  8
1
  6
CONTINUOUS
 62
           7
100
AcDbLine
 10
-999.999999999999
 20
800.0
 11
1000.000000000001
 21
800.0
  0
LINE
  5
89
100
AcDbEntity
  8
1
  6
DOT_CENTER
 62
           2
100
AcDbLine
 10
0.0
 20
3515.668407282447
 11
0.0
 21
-130.0
  0
LINE
  5
88
100
AcDbEntity
  8
1
  6
DOT_CENTER
 62
           2
100
AcDbLine
 10
3725.000000000002
 20
600.0
 11
3875.000000000002
 21
600.0
  0
LINE
  5
87
100
AcDbEntity
  8
1
  6
DOT_CENTER
 62
           2
100
AcDbLine
 10
3800.000000000001
 20
675.0
 11
3800.000000000001
 21
525.0
  0
LINE
  5
86
100
AcDbEntity
  8
1
  6
CONTINUOUS
 62
           7
100
AcDbLine
 10
1050.000000000001
 20
4248.465598018149
 11
1050.000000000001
 21
6248.465598018149
  0
LINE
  5
85
100
AcDbEntity
  8
1
  6
CONTINUOUS
 62
           4
100
AcDbLine
 10
980.000000000001
 20
6228.465598018149
 11
980.000000000001
 21
5268.465598018149
  0
LINE
  5
84
100
AcDbEntity
  8
1
  6
CONTINUOUS
 62
           4
100
AcDbLine
 10
980.000000000001
 20
5228.465598018149
 11
980.000000000001
 21
4268.465598018149
  0
LINE
  5
83
100
AcDbEntity
  8
1
  6
CONTINUOUS
 62
           4
100
AcDbLine
 10
1003.000000000001
 20
6248.465598018149
 11
1003.000000000001
 21
4268.465598018149
  0
LINE
  5
82
100
AcDbEntity
  8
1
  6
CONTINUOUS
 62
           4
100
AcDbLine
 10
980.000000000001
 20
6228.465598018149
 11
520.0
 21
6228.465598018149
  0
LINE
  5
81
100
AcDbEntity
  8
1
  6
CONTINUOUS
 62
           4
100
AcDbLine
 10
980.000000000001
 20
5268.465598018149
 11
520.0
 21
5268.465598018149
  0
LINE
  5
80
100
AcDbEntity
  8
1
  6
CONTINUOUS
 62
           4
100
AcDbLine
 10
-1002.999999999999
 20
6248.465598018149
 11
-1002.999999999999
 21
4268.465598018149
  0
LINE
  5
7F
100
AcDbEntity
  8
1
  6
CONTINUOUS
 62
           4
100
AcDbLine
 10
2500.000000000003
 20
2540.0
 11
4500.000000000002
 21
2540.0
  0
LINE
  5
7E
100
AcDbEntity
  8
1
  6
CONTINUOUS
 62
           4
100
AcDbLine
 10
-1039.999999999999
 20
6248.465598018149
 11
-1039.999999999999
 21
4268.465598018149
  0
LINE
  5
7D
100
AcDbEntity
  8
1
  6
CONTINUOUS
 62
           7
100
AcDbLine
 10
2740.000000000002
 20
2362.0
 11
2740.000000000002
 21
2450.0
  0
LINE
  5
7C
100
AcDbEntity
  8
1
  6
CONTINUOUS
 62
           7
100
AcDbLine
 10
2550.000000000002
 20
2362.0
 11
2740.000000000002
 21
2362.0
  0
LINE
  5
7B
100
AcDbEntity
  8
1
  6
CONTINUOUS
 62
           7
100
AcDbLine
 10
2550.000000000002
 20
2450.0
 11
2550.000000000002
 21
2362.0
  0
LINE
  5
7A
100
AcDbEntity
  8
1
  6
CONTINUOUS
 62
           7
100
AcDbLine
 10
2740.000000000002
 20
2450.0
 11
2550.000000000002
 21
2450.0
  0
LINE
  5
79
100
AcDbEntity
  8
1
  6
CONTINUOUS
 62
           7
100
AcDbLine
 10
2730.0
 20
1850.0
 11
2550.0
 21
1850.0
  0
LINE
  5
78
100
AcDbEntity
  8
1
  6
CONTINUOUS
 62
           7
100
AcDbLine
 10
2550.0
 20
2089.999999999999
 11
2730.0
 21
2089.999999999999
  0
LINE
  5
77
100
AcDbEntity
  8
1
  6
CONTINUOUS
 62
           7
100
AcDbLine
 10
2730.0
 20
2089.999999999999
 11
2730.0
 21
1850.0
  0
LINE
  5
76
100
AcDbEntity
  8
1
  6
CONTINUOUS
 62
           7
100
AcDbLine
 10
-1049.999999999999
 20
2650.0
 11
-1049.999999999999
 21
500.0
  0
LINE
  5
75
100
AcDbEntity
  8
1
  6
CONTINUOUS
 62
           7
100
AcDbLine
 10
3500.000000000004
 20
2575.0
 11
4500.000000000002
 21
2575.0
  0
LINE
  5
74
100
AcDbEntity
  8
1
  6
DOT_CENTER
 62
           2
100
AcDbLine
 10
0.000000000001
 20
6376.136063059303
 11
0.0
 21
4123.146274265819
  0
LINE
  5
73
100
AcDbEntity
  8
1
  6
CONTINUOUS
 62
           4
100
AcDbLine
 10
-1049.999999999999
 20
4268.465598018149
 11
1050.000000000001
 21
4268.465598018149
  0
LINE
  5
72
100
AcDbEntity
  8
1
  6
CONTINUOUS
 62
           7
100
AcDbLine
 10
1050.000000000001
 20
2650.0
 11
-1049.999999999999
 21
2650.0
  0
LINE
  5
71
100
AcDbEntity
  8
1
  6
CONTINUOUS
 62
           7
100
AcDbLine
 10
1000.000000000001
 20
4268.465598018149
 11
1000.000000000001
 21
6248.465598018149
  0
LINE
  5
70
100
AcDbEntity
  8
1
  6
CONTINUOUS
 62
           7
100
AcDbLine
 10
-999.999999999999
 20
4268.465598018149
 11
-999.999999999999
 21
6248.465598018149
  0
LINE
  5
6F
100
AcDbEntity
  8
1
  6
CONTINUOUS
 62
           7
100
AcDbLine
 10
2500.000000000003
 20
2550.0
 11
2500.000000000004
 21
2650.0
  0
LINE
  5
6E
100
AcDbEntity
  8
1
  6
CONTINUOUS
 62
           7
100
AcDbLine
 10
2500.000000000004
 20
2650.0
 11
2520.000000000004
 21
2650.0
  0
LINE
  5
6D
100
AcDbEntity
  8
1
  6
CONTINUOUS
 62
           7
100
AcDbLine
 10
2730.000000000003
 20
2140.0
 11
2550.000000000002
 21
2139.999999999999
  0
LINE
  5
6C
100
AcDbEntity
  8
1
  6
CONTINUOUS
 62
           7
100
AcDbLine
 10
2550.000000000003
 20
2253.0
 11
2730.000000000003
 21
2253.0
  0
LINE
  5
6B
100
AcDbEntity
  8
1
  6
CONTINUOUS
 62
           7
100
AcDbLine
 10
2730.000000000003
 20
2253.0
 11
2730.000000000003
 21
2140.0
  0
LINE
  5
6A
100
AcDbEntity
  8
1
  6
CONTINUOUS
 62
           7
100
AcDbLine
 10
2550.000000000002
 20
2139.999999999999
 11
2550.000000000003
 21
2253.0
  0
LINE
  5
69
100
AcDbEntity
  8
1
  6
CONTINUOUS
 62
           7
100
AcDbLine
 10
-569.497691536611
 20
986.513526798368
 11
574.999999999998
 21
986.513526798368
  0
LINE
  5
68
100
AcDbEntity
  8
1
  6
CONTINUOUS
 62
           4
100
AcDbLine
 10
3520.000000000003
 20
1800.831132334586
 11
3520.000000000002
 21
520.0
  0
LINE
  5
67
100
AcDbEntity
  8
1
  6
CONTINUOUS
 62
           7
100
AcDbLine
 10
3500.000000000003
 20
1784.157226830845
 11
3500.000000000002
 21
2000.0
  0
LINE
  5
66
100
AcDbEntity
  8
1
  6
CONTINUOUS
 62
           4
100
AcDbLine
 10
3480.000000000003
 20
1741.488764155307
 11
3480.000000000002
 21
2480.0
  0
LINE
  5
65
100
AcDbEntity
  8
1
  6
CONTINUOUS
 62
           4
100
AcDbLine
 10
3520.000000000002
 20
1980.0
 11
3520.000000000003
 21
1814.464669216343
  0
LINE
  5
64
100
AcDbEntity
  8
1
  6
CONTINUOUS
 62
           4
100
AcDbLine
 10
3480.000000000002
 20
520.0
 11
3480.000000000003
 21
1715.525103244275
  0
LINE
  5
63
100
AcDbEntity
  8
1
  6
CONTINUOUS
 62
           7
100
AcDbLine
 10
3500.000000000002
 20
500.0
 11
3500.000000000003
 21
1767.293273528177
  0
LINE
  5
62
100
AcDbEntity
  8
___S__
  6
DOT_CENTER
 62
           3
100
AcDbLine
 10
-575.000000000001
 20
1067.063266596461
 11
-575.000000000003
 21
982.067556365336
  0
LINE
  5
61
100
AcDbEntity
  8
____
  6
CONTINUOUS
 62
           3
100
AcDbLine
 10
-569.595947044882
 20
1060.459504816179
 11
-569.595947044882
 21
1058.581574068057
  0
LINE
  5
60
100
AcDbEntity
  8
____
  6
CONTINUOUS
 62
           3
100
AcDbLine
 10
-579.912775413746
 20
1060.92898750321
 11
-570.087224586257
 21
1060.92898750321
  0
LINE
  5
5F
100
AcDbEntity
  8
____
  6
CONTINUOUS
 62
           3
100
AcDbLine
 10
-580.40405295512
 20
1058.581574068057
 11
-580.40405295512
 21
1060.459504816179
  0
LINE
  5
5E
100
AcDbEntity
  8
____
  6
CONTINUOUS
 62
           3
100
AcDbLine
 10
-569.49769153661
 20
1022.900889853723
 11
-580.502308463386
 21
1022.900889853724
  0
LINE
  5
5D
100
AcDbEntity
  8
____
  6
CONTINUOUS
 62
           3
100
AcDbLine
 10
-569.497691536609
 20
1058.581574068057
 11
-569.49769153661
 21
1022.900889853723
  0
LINE
  5
5C
100
AcDbEntity
  8
____
  6
CONTINUOUS
 62
           3
100
AcDbLine
 10
-580.502308463385
 20
1058.581574068057
 11
-569.497691536609
 21
1058.581574068057
  0
LINE
  5
5B
100
AcDbEntity
  8
____
  6
CONTINUOUS
 62
           3
100
AcDbLine
 10
-580.502308463386
 20
1022.900889853724
 11
-580.502308463385
 21
1058.581574068057
  0
LINE
  5
5A
100
AcDbEntity
  8
____
  6
CONTINUOUS
 62
           3
100
AcDbLine
 10
-580.404052955121
 20
984.403309517207
 11
-580.404052955121
 21
986.28124026533
  0
LINE
  5
59
100
AcDbEntity
  8
____
  6
CONTINUOUS
 62
           3
100
AcDbLine
 10
-570.087224586259
 20
983.933826830176
 11
-579.912775413747
 21
983.933826830176
  0
LINE
  5
58
100
AcDbEntity
  8
____
  6
CONTINUOUS
 62
           3
100
AcDbLine
 10
-569.595947044884
 20
986.28124026533
 11
-569.595947044884
 21
984.403309517207
  0
LINE
  5
57
100
AcDbEntity
  8
____
  6
CONTINUOUS
 62
           3
100
AcDbLine
 10
-580.158414184433
 20
1022.900889853724
 11
-580.158414184433
 21
1021.961924479662
  0
LINE
  5
56
100
AcDbEntity
  8
____
  6
CONTINUOUS
 62
           3
100
AcDbLine
 10
-569.841585815571
 20
1022.900889853723
 11
-580.158414184433
 21
1022.900889853724
  0
LINE
  5
55
100
AcDbEntity
  8
____
  6
CONTINUOUS
 62
           3
100
AcDbLine
 10
-569.841585815571
 20
1021.961924479662
 11
-569.841585815571
 21
1022.900889853723
  0
LINE
  5
54
100
AcDbEntity
  8
____
  6
CONTINUOUS
 62
           3
100
AcDbLine
 10
-580.40405295512
 20
1060.459504816179
 11
-569.595947044882
 21
1060.459504816179
  0
LINE
  5
53
100
AcDbEntity
  8
____
  6
CONTINUOUS
 62
           3
100
AcDbLine
 10
-580.502308463386
 20
1021.961924479662
 11
-569.49769153661
 21
1021.961924479662
  0
LINE
  5
52
100
AcDbEntity
  8
____
  6
CONTINUOUS
 62
           3
100
AcDbLine
 10
-580.502308463387
 20
986.28124026533
 11
-580.502308463386
 21
1021.961924479662
  0
LINE
  5
51
100
AcDbEntity
  8
____
  6
CONTINUOUS
 62
           3
100
AcDbLine
 10
-569.497691536611
 20
986.28124026533
 11
-580.502308463387
 21
986.28124026533
  0
LINE
  5
50
100
AcDbEntity
  8
____
  6
CONTINUOUS
 62
           3
100
AcDbLine
 10
-569.49769153661
 20
1021.961924479662
 11
-569.497691536611
 21
986.28124026533
  0
LINE
  5
4F
100
AcDbEntity
  8
____
  6
CONTINUOUS
 62
           3
100
AcDbLine
 10
-580.40405295512
 20
1060.459504816179
 11
-579.912775413746
 21
1060.92898750321
  0
LINE
  5
4E
100
AcDbEntity
  8
____
  6
CONTINUOUS
 62
           3
100
AcDbLine
 10
-570.087224586257
 20
1060.92898750321
 11
-569.595947044882
 21
1060.459504816179
  0
LINE
  5
4D
100
AcDbEntity
  8
____
  6
CONTINUOUS
 62
           3
100
AcDbLine
 10
-579.912775413747
 20
983.933826830176
 11
-580.404052955121
 21
984.403309517207
  0
LINE
  5
4C
100
AcDbEntity
  8
____
  6
CONTINUOUS
 62
           3
100
AcDbLine
 10
-569.595947044884
 20
984.403309517207
 11
-570.087224586259
 21
983.933826830176
  0
LINE
  5
4B
100
AcDbEntity
  8
____
  6
CONTINUOUS
 62
           3
100
AcDbLine
 10
-580.404052955121
 20
984.403309517207
 11
-569.595947044884
 21
984.403309517207
  0
LINE
  5
4A
100
AcDbEntity
  8
____
  6
CONTINUOUS
 62
           3
100
AcDbLine
 10
-580.404052955098
 20
1538.39288020726
 11
-569.59594704486
 21
1538.39288020726
  0
LINE
  5
49
100
AcDbEntity
  8
____
  6
CONTINUOUS
 62
           3
100
AcDbLine
 10
-569.59594704486
 20
1538.39288020726
 11
-570.087224586234
 21
1537.923397520231
  0
LINE
  5
48
100
AcDbEntity
  8
____
  6
CONTINUOUS
 62
           3
100
AcDbLine
 10
-579.912775413723
 20
1537.923397520231
 11
-580.404052955098
 21
1538.39288020726
  0
LINE
  5
47
100
AcDbEntity
  8
____
  6
CONTINUOUS
 62
           3
100
AcDbLine
 10
-570.087224586233
 20
1614.918558193264
 11
-569.595947044859
 21
1614.449075506232
  0
LINE
  5
46
100
AcDbEntity
  8
____
  6
CONTINUOUS
 62
           3
100
AcDbLine
 10
-580.404052955097
 20
1614.449075506232
 11
-579.912775413722
 21
1614.918558193264
  0
LINE
  5
45
100
AcDbEntity
  8
____
  6
CONTINUOUS
 62
           3
100
AcDbLine
 10
-569.497691536593
 20
1575.951495169716
 11
-569.497691536593
 21
1540.270810955383
  0
LINE
  5
44
100
AcDbEntity
  8
____
  6
CONTINUOUS
 62
           3
100
AcDbLine
 10
-569.497691536593
 20
1540.270810955383
 11
-580.502308463371
 21
1540.270810955383
  0
LINE
  5
43
100
AcDbEntity
  8
____
  6
CONTINUOUS
 62
           3
100
AcDbLine
 10
-580.502308463371
 20
1540.270810955383
 11
-580.502308463371
 21
1575.951495169716
  0
LINE
  5
42
100
AcDbEntity
  8
____
  6
CONTINUOUS
 62
           3
100
AcDbLine
 10
-580.502308463371
 20
1575.951495169716
 11
-569.497691536593
 21
1575.951495169716
  0
LINE
  5
41
100
AcDbEntity
  8
____
  6
CONTINUOUS
 62
           3
100
AcDbLine
 10
-580.404052955097
 20
1614.449075506232
 11
-569.595947044859
 21
1614.449075506232
  0
LINE
  5
40
100
AcDbEntity
  8
____
  6
CONTINUOUS
 62
           3
100
AcDbLine
 10
-569.841585815547
 20
1575.951495169716
 11
-569.841585815547
 21
1576.890460543778
  0
LINE
  5
3F
100
AcDbEntity
  8
____
  6
CONTINUOUS
 62
           3
100
AcDbLine
 10
-569.841585815547
 20
1576.890460543778
 11
-580.15841418441
 21
1576.890460543778
  0
LINE
  5
3E
100
AcDbEntity
  8
____
  6
CONTINUOUS
 62
           3
100
AcDbLine
 10
-580.15841418441
 20
1576.890460543778
 11
-580.15841418441
 21
1575.951495169716
  0
LINE
  5
3D
100
AcDbEntity
  8
____
  6
CONTINUOUS
 62
           3
100
AcDbLine
 10
-569.59594704486
 20
1540.270810955383
 11
-569.59594704486
 21
1538.39288020726
  0
LINE
  5
3C
100
AcDbEntity
  8
____
  6
CONTINUOUS
 62
           3
100
AcDbLine
 10
-570.087224586234
 20
1537.923397520231
 11
-579.912775413723
 21
1537.923397520231
  0
LINE
  5
3B
100
AcDbEntity
  8
____
  6
CONTINUOUS
 62
           3
100
AcDbLine
 10
-580.404052955098
 20
1538.39288020726
 11
-580.404052955098
 21
1540.270810955383
  0
LINE
  5
3A
100
AcDbEntity
  8
____
  6
CONTINUOUS
 62
           3
100
AcDbLine
 10
-580.502308463371
 20
1576.890460543778
 11
-580.50230846337
 21
1612.57114475811
  0
LINE
  5
39
100
AcDbEntity
  8
____
  6
CONTINUOUS
 62
           3
100
AcDbLine
 10
-580.50230846337
 20
1612.57114475811
 11
-569.497691536593
 21
1612.571144758109
  0
LINE
  5
38
100
AcDbEntity
  8
____
  6
CONTINUOUS
 62
           3
100
AcDbLine
 10
-569.497691536593
 20
1612.571144758109
 11
-569.497691536593
 21
1576.890460543778
  0
LINE
  5
37
100
AcDbEntity
  8
____
  6
CONTINUOUS
 62
           3
100
AcDbLine
 10
-569.497691536593
 20
1576.890460543778
 11
-580.502308463371
 21
1576.890460543778
  0
LINE
  5
36
100
AcDbEntity
  8
____
  6
CONTINUOUS
 62
           3
100
AcDbLine
 10
-580.404052955097
 20
1612.57114475811
 11
-580.404052955097
 21
1614.449075506232
  0
LINE
  5
35
100
AcDbEntity
  8
____
  6
CONTINUOUS
 62
           3
100
AcDbLine
 10
-579.912775413722
 20
1614.918558193264
 11
-570.087224586233
 21
1614.918558193264
  0
LINE
  5
34
100
AcDbEntity
  8
____
  6
CONTINUOUS
 62
           3
100
AcDbLine
 10
-569.595947044859
 20
1614.449075506232
 11
-569.595947044859
 21
1612.571144758109
  0
LINE
  5
33
100
AcDbEntity
  8
___S__
  6
DOT_CENTER
 62
           3
100
AcDbLine
 10
-574.999999999977
 20
1621.052837286498
 11
-574.999999999978
 21
1536.05712705539
  0
LINE
  5
32
100
AcDbEntity
  8
1
  6
CONTINUOUS
 62
           7
100
AcDbLine
 10
-575.000000000002
 20
941.513526798368
 11
574.999999999998
 21
941.513526798368
  0
LINE
  5
31
100
AcDbEntity
  8
1
  6
CONTINUOUS
 62
           7
100
AcDbLine
 10
574.999999999998
 20
941.513526798368
 11
574.999999999998
 21
1646.282992387803
  0
LINE
  5
30
100
AcDbEntity
  8
1
  6
CONTINUOUS
 62
           7
100
AcDbLine
 10
-575.000000000002
 20
941.513526798368
 11
-575.000000000002
 21
1646.282992387803
  0
LINE
  5
2F
100
AcDbEntity
  8
1
  6
CONTINUOUS
 62
           7
100
AcDbLine
 10
574.999999999998
 20
1646.282992387803
 11
-575.000000000002
 21
1646.282992387803
  0
LINE
  5
2E
100
AcDbEntity
  8
1
  6
CONTINUOUS
 62
           7
100
AcDbLine
 10
999.999999999999
 20
1763.744569986044
 11
-999.999999999999
 21
1763.744569986044
  0
POINT
  5
2D
100
AcDbEntity
  8
0
 62
           3
100
AcDbPoint
 10
3333.399996721737
 20
1365.000000000117
  0
ENDSEC
  0
SECTION
  2
OBJECTS
  0
DICTIONARY
  5
19
100
AcDbDictionary
  3
ACAD_GROUP
350
1A
  3
ACAD_MLINESTYLE
350
1B
  0
DICTIONARY
  5
1A
102
{ACAD_REACTORS
330
19
102
}
100
AcDbDictionary
  0
DICTIONARY
  5
1B
102
{ACAD_REACTORS
330
19
102
}
100
AcDbDictionary
  3
STANDARD
350
1C
  0
MLINESTYLE
  5
1C
102
{ACAD_REACTORS
330
1B
102
}
100
AcDbMlineStyle
  2
STANDARD
 70
           0
  3

 62
           0
 51
90.0
 52
90.0
 71
           2
 49
0.5
 62
         256
  6
BYLAYER
 49
-0.5
 62
         256
  6
BYLAYER
  0
ENDSEC
  0
EOF
