  0
SECTION
  2
HEADER
  9
$ACADVER
  1
AC1014
  9
$ACADMAINTVER
 70
           0
  9
$DWGCODEPAGE
  3
DOS932
  9
$INSBASE
 10
0.0
 20
0.0
 30
0.0
  9
$EXTMIN
 10
1.000000000000E+20
 20
1.000000000000E+20
 30
1.000000000000E+20
  9
$EXTMAX
 10
-1.000000000000E+20
 20
-1.000000000000E+20
 30
-1.000000000000E+20
  9
$LIMMIN
 10
0.0
 20
0.0
  9
$LIMMAX
 10
0.0
 20
0.0
  9
$ORTHOMODE
 70
           0
  9
$REGENMODE
 70
           1
  9
$FILLMODE
 70
           1
  9
$QTEXTMODE
 70
           0
  9
$MIRRTEXT
 70
           1
  9
$DRAGMODE
 70
           2
  9
$LTSCALE
 40
1.0
  9
$OSMODE
 70
           0
  9
$ATTMODE
 70
           1
  9
$TEXTSIZE
 40
0.2
  9
$TRACEWID
 40
0.05
  9
$TEXTSTYLE
  7
STANDARD
  9
$CLAYER
  8
0
  9
$CELTYPE
  6
CONTINUOUS
  9
$CECOLOR
 62
         256
  9
$CELTSCALE
 40
1.0
  9
$DELOBJ
 70
           1
  9
$DISPSILH
 70
           0
  9
$DIMSCALE
 40
1.0
  9
$DIMASZ
 40
0.18
  9
$DIMEXO
 40
0.0625
  9
$DIMDLI
 40
0.38
  9
$DIMRND
 40
0.0
  9
$DIMDLE
 40
0.0
  9
$DIMEXE
 40
0.18
  9
$DIMTP
 40
0.0
  9
$DIMTM
 40
0.0
  9
$DIMTXT
 40
0.18
  9
$DIMCEN
 40
0.09
  9
$DIMTSZ
 40
0.0
  9
$DIMTOL
 70
           0
  9
$DIMLIM
 70
           0
  9
$DIMTIH
 70
           1
  9
$DIMTOH
 70
           1
  9
$DIMSE1
 70
           0
  9
$DIMSE2
 70
           0
  9
$DIMTAD
 70
           0
  9
$DIMZIN
 70
           0
  9
$DIMBLK
  1

  9
$DIMASO
 70
           1
  9
$DIMSHO
 70
           1
  9
$DIMPOST
  1

  9
$DIMAPOST
  1

  9
$DIMALT
 70
           0
  9
$DIMALTD
 70
           2
  9
$DIMALTF
 40
25.4
  9
$DIMLFAC
 40
1.0
  9
$DIMTOFL
 70
           0
  9
$DIMTVP
 40
0.0
  9
$DIMTIX
 70
           0
  9
$DIMSOXD
 70
           0
  9
$DIMSAH
 70
           0
  9
$DIMBLK1
  1

  9
$DIMBLK2
  1

  9
$DIMSTYLE
  2
STANDARD
  9
$DIMCLRD
 70
           0
  9
$DIMCLRE
 70
           0
  9
$DIMCLRT
 70
           0
  9
$DIMTFAC
 40
1.0
  9
$DIMGAP
 40
0.09
  9
$DIMJUST
 70
           0
  9
$DIMSD1
 70
           0
  9
$DIMSD2
 70
           0
  9
$DIMTOLJ
 70
           1
  9
$DIMTZIN
 70
           0
  9
$DIMALTZ
 70
           0
  9
$DIMALTTZ
 70
           0
  9
$DIMFIT
 70
           3
  9
$DIMUPT
 70
           0
  9
$DIMUNIT
 70
           2
  9
$DIMDEC
 70
           4
  9
$DIMTDEC
 70
           4
  9
$DIMALTU
 70
           2
  9
$DIMALTTD
 70
           2
  9
$DIMTXSTY
  7
STANDARD
  9
$DIMAUNIT
 70
           0
  9
$LUNITS
 70
           2
  9
$LUPREC
 70
           4
  9
$SKETCHINC
 40
0.1
  9
$FILLETRAD
 40
0.0
  9
$AUNITS
 70
           0
  9
$AUPREC
 70
           0
  9
$MENU
  1
acad
  9
$ELEVATION
 40
0.0
  9
$PELEVATION
 40
0.0
  9
$THICKNESS
 40
0.0
  9
$LIMCHECK
 70
           0
  9
$BLIPMODE
 70
           1
  9
$CHAMFERA
 40
0.0
  9
$CHAMFERB
 40
0.0
  9
$CHAMFERC
 40
0.0
  9
$CHAMFERD
 40
0.0
  9
$SKPOLY
 70
           0
  9
$TDCREATE
 40
0.000000000
  9
$TDUPDATE
 40
0.000000000
  9
$TDINDWG
 40
0.0000000000
  9
$TDUSRTIMER
 40
0.0000000000
  9
$USRTIMER
 70
           1
  9
$ANGBASE
 50
0.0
  9
$ANGDIR
 70
           0
  9
$PDMODE
 70
           0
  9
$PDSIZE
 40
0.0
  9
$PLINEWID
 40
0.0
  9
$COORDS
 70
           0
  9
$SPLFRAME
 70
           0
  9
$SPLINETYPE
 70
           6
  9
$SPLINESEGS
 70
           8
  9
$ATTDIA
 70
           0
  9
$ATTREQ
 70
           1
  9
$HANDLING
 70
           1
  9
$HANDSEED
  5
388
  9
$SURFTAB1
 70
           6
  9
$SURFTAB2
 70
           6
  9
$SURFTYPE
 70
           6
  9
$SURFU
 70
           6
  9
$SURFV
 70
           6
  9
$UCSNAME
  2

  9
$UCSORG
 10
0.0
 20
0.0
 30
0.0
  9
$UCSXDIR
 10
1.0
 20
0.0
 30
0.0
  9
$UCSYDIR
 10
0.0
 20
1.0
 30
0.0
  9
$PUCSNAME
  2

  9
$PUCSORG
 10
0.0
 20
0.0
 30
0.0
  9
$PUCSXDIR
 10
1.0
 20
0.0
 30
0.0
  9
$PUCSYDIR
 10
0.0
 20
1.0
 30
0.0
  9
$USERI1
 70
           0
  9
$USERI2
 70
           0
  9
$USERI3
 70
           0
  9
$USERI4
 70
           0
  9
$USERI5
 70
           0
  9
$USERR1
 40
0.0
  9
$USERR2
 40
0.0
  9
$USERR3
 40
0.0
  9
$USERR4
 40
0.0
  9
$USERR5
 40
0.0
  9
$WORLDVIEW
 70
           1
  9
$SHADEDGE
 70
           3
  9
$SHADEDIF
 70
          70
  9
$TILEMODE
 70
           1
  9
$MAXACTVP
 70
          16
  9
$PINSBASE
 10
0.0
 20
0.0
 30
0.0
  9
$PLIMCHECK
 70
           0
  9
$PEXTMIN
 10
1.000000000000E+20
 20
1.000000000000E+20
 30
1.000000000000E+20
  9
$PEXTMAX
 10
-1.000000000000E+20
 20
-1.000000000000E+20
 30
-1.000000000000E+20
  9
$PLIMMIN
 10
0.0
 20
0.0
  9
$PLIMMAX
 10
12.0
 20
9.0
  9
$UNITMODE
 70
           0
  9
$VISRETAIN
 70
           0
  9
$PLINEGEN
 70
           1
  9
$PSLTSCALE
 70
           0
  9
$TREEDEPTH
 70
        3020
  9
$PICKSTYLE
 70
           1
  9
$CMLSTYLE
  2
STANDARD
  9
$CMLJUST
 70
           0
  9
$CMLSCALE
 40
1.0
  9
$PROXYGRAPHICS
 70
           0
  9
$MEASUREMENT
 70
           0
  0
ENDSEC
  0
SECTION
  2
CLASSES
  0
CLASS
  1
LWPOLYLINE
  2
AcDbPolyline
  3
"AutoCAD"
 90
        0
280
           0
281
           1
  0
CLASS
  1
IMAGE
  2
AcDbRasterImage
  3
ISM
 90
      127
280
           0
281
           1
  0
CLASS
  1
OLE2FRAME
  2
AcDbOle2Frame
  3
""
 90
        0
280
           0
281
           1
  0
CLASS
  1
HATCH
  2
AcDbHatch
  3
"ACAD_SEDONA"
 90
        0
280
           0
281
           1
  0
CLASS
  1
DICTIONARYVAR
  2
AcDbDictionaryVar
  3
"AutoCAD"
 90
        0
280
           0
281
           0
  0
CLASS
  1
RASTERVARIABLES
  2
AcDbRasterVariables
  3
ISM
 90
        0
280
           0
281
           0
  0
CLASS
  1
IMAGEDEF
  2
AcDbRasterImageDef
  3
ISM
 90
        0
280
           0
281
           0
  0
CLASS
  1
IMAGEDEF_REACTOR
  2
AcDbRasterImageDefReactor
  3
ISM
 90
        1
280
           0
281
           0
  0
CLASS
  1
IDBUFFER
  2
AcDbIdBuffer
  3
"Acad"
 90
        0
280
           0
281
           0
  0
CLASS
  1
SPATIAL_FILTER
  2
AcDbSpatialFilter
  3
"Acad"
 90
        0
280
           0
281
           0
  0
CLASS
  1
XRECORD
  2
AcDbXrecord
  3
"<Built In>"
 90
        0
280
           0
281
           0
  0
CLASS
  1
SORTENTSTABLE
  2
AcDbSortentsTable
  3
"AutoCAD"
 90
        0
280
           0
281
           0
  0
CLASS
  1
LAYER_INDEX
  2
AcDbLayerIndex
  3
"Acad"
 90
        0
280
           0
281
           0
  0
CLASS
  1
SPATIAL_INDEX
  2
AcDbSpatialIndex
  3
"Acad"
 90
        0
280
           0
281
           0
  0
CLASS
  1
OBJECT_PTR
  2
CAseDLPNTableRecord
  3
"ASE-LPNTableRecord"
 90
        1
280
           0
281
           0
  0
CLASS
  1
LAYOUT
  2
AcDbLayout
  3
"AutoCAD 2000"
 90
        1
280
           0
281
           0
  0
CLASS
  1
PLOTSETTINGS
  2
AcDbPlotSettings
  3
"AutoCAD 2000"
 90
        1
280
           0
281
           0
  0
CLASS
  1
ACDBDICTIONARYWDFLT
  2
AcDbDictionaryWithDefault
  3
"AutoCAD 2000"
 90
        1
280
           0
281
           0
  0
CLASS
  1
ACDBPLACEHOLDER
  2
AcDbPlaceHolder
  3
"AutoCAD 2000"
 90
        1
280
           0
281
           0
  0
CLASS
  1
VBA_PROJECT
  2
AcDbVbaProject
  3
"acadvba"
 90
        1
280
           0
281
           0
  0
CLASS
  1
WIPEOUT
  2
AcDbWipeout
  3
WipeOut|AutoCAD Express Tool|expresstools@autodesk.com
 90
      127
280
           0
281
           1
  0
CLASS
  1
WIPEOUTVARIABLES
  2
AcDbWipeoutVariables
  3
WipeOut|AutoCAD Express Tool|expresstools@autodesk.com
 90
        0
280
           0
281
           0
  0
CLASS
  1
RTEXT
  2
RText
  3
RText|AutoCAD Express Tool|expresstools@autodesk.com
 90
        0
280
           0
281
           1
  0
CLASS
  1
ARCALIGNEDTEXT
  2
AcDbArcAlignedText
  3
ATEXT|AutoCAD Express Tool|expresstools@autodesk.com
 90
        0
280
           0
281
           1
  0
ENDSEC
  0
SECTION
  2
TABLES
  0
TABLE
  2
VPORT
  5
7
100
AcDbSymbolTable
 70
           1
  0
VPORT
  5
15
100
AcDbSymbolTableRecord
100
AcDbViewportTableRecord
  2
*ACTIVE
 70
           0
 10
0.0
 20
0.0
 11
1.0
 21
1.0
 12
6.591288
 22
4.579184
 13
0.0
 23
0.0
 14
1.0
 24
1.0
 15
0.0
 25
0.0
 16
0.0
 26
0.0
 36
1.0
 17
0.0
 27
0.0
 37
0.0
 40
9.158369
 41
0.688564
 42
50.0
 43
0.0
 44
0.0
 50
0.0
 51
0.0
 71
           0
 72
         100
 73
           1
 74
           1
 75
           0
 76
           0
 77
           0
 78
           0
  0
ENDTAB
  0
TABLE
  2
LTYPE
  5
4
100
AcDbSymbolTable
 70
          10
  0
LTYPE
  5
11
100
AcDbSymbolTableRecord
100
AcDbLinetypeTableRecord
  2
BYBLOCK
 70
          64
  3

 72
          65
 73
           0
 40
0.0
  0
LTYPE
  5
12
100
AcDbSymbolTableRecord
100
AcDbLinetypeTableRecord
  2
BYLAYER
 70
          64
  3

 72
          65
 73
           0
 40
0.0
  0
LTYPE
  5
13
100
AcDbSymbolTableRecord
100
AcDbLinetypeTableRecord
  2
CONTINUOUS
 70
          64
  3
Solid line
 72
          65
 73
           0
 40
0.0
  0
LTYPE
  5
1D
100
AcDbSymbolTableRecord
100
AcDbLinetypeTableRecord
  2
DASHED
 70
          64
  3
Dashed
 72
          65
 73
           2
 40
15.0
 49
12.0
 74
           0
 49
-3.0
 74
           0
  0
LTYPE
  5
1E
100
AcDbSymbolTableRecord
100
AcDbLinetypeTableRecord
  2
DOTTED
 70
          64
  3
Dotted
 72
          65
 73
           2
 40
3.5
 49
0.5
 74
           0
 49
-3.0
 74
           0
  0
LTYPE
  5
1F
100
AcDbSymbolTableRecord
100
AcDbLinetypeTableRecord
  2
DOT_CENTER
 70
          64
  3
Dot_Center
 72
          65
 73
           4
 40
2.0
 49
1.25
 74
           0
 49
-0.25
 74
           0
 49
0.25
 74
           0
 49
-0.25
 74
           0
  0
LTYPE
  5
20
100
AcDbSymbolTableRecord
100
AcDbLinetypeTableRecord
  2
LONG_DASHED
 70
          64
  3
Long_Dashed
 72
          65
 73
           2
 40
2.0
 49
1.5
 74
           0
 49
-0.5
 74
           0
  0
LTYPE
  5
21
100
AcDbSymbolTableRecord
100
AcDbLinetypeTableRecord
  2
DASH_CENTER
 70
          64
  3
Dash_Center
 72
          65
 73
           4
 40
36.0
 49
24.0
 74
           0
 49
-3.0
 74
           0
 49
6.0
 74
           0
 49
-3.0
 74
           0
  0
LTYPE
  5
22
100
AcDbSymbolTableRecord
100
AcDbLinetypeTableRecord
  2
PHANTOM
 70
          64
  3
Phantom
 72
          65
 73
           6
 40
2.5
 49
1.25
 74
           0
 49
-0.25
 74
           0
 49
0.25
 74
           0
 49
-0.25
 74
           0
 49
0.25
 74
           0
 49
-0.25
 74
           0
  0
LTYPE
  5
23
100
AcDbSymbolTableRecord
100
AcDbLinetypeTableRecord
  2
CENTER_DASH_DASH
 70
          64
  3
Center_Dash_Dash
 72
          65
 73
           6
 40
22.0
 49
12.0
 74
           0
 49
-3.0
 74
           0
 49
0.5
 74
           0
 49
-3.0
 74
           0
 49
0.5
 74
           0
 49
-3.0
 74
           0
  0
ENDTAB
  0
TABLE
  2
LAYER
  5
2
100
AcDbSymbolTable
 70
           7
  0
LAYER
  5
14
100
AcDbSymbolTableRecord
100
AcDbLayerTableRecord
  2
0
 70
           0
 62
           7
  6
CONTINUOUS
  0
LAYER
  5
24
100
AcDbSymbolTableRecord
100
AcDbLayerTableRecord
  2
___S__
 70
           0
 62
           7
  6
CONTINUOUS
  0
LAYER
  5
25
100
AcDbSymbolTableRecord
100
AcDbLayerTableRecord
  2
FORMAT
 70
           0
 62
           7
  6
CONTINUOUS
  0
LAYER
  5
26
100
AcDbSymbolTableRecord
100
AcDbLayerTableRecord
  2
1
 70
           0
 62
           7
  6
CONTINUOUS
  0
LAYER
  5
27
100
AcDbSymbolTableRecord
100
AcDbLayerTableRecord
  2
2
 70
           0
 62
           7
  6
CONTINUOUS
  0
LAYER
  5
28
100
AcDbSymbolTableRecord
100
AcDbLayerTableRecord
  2
7
 70
           0
 62
           7
  6
CONTINUOUS
  0
LAYER
  5
29
100
AcDbSymbolTableRecord
100
AcDbLayerTableRecord
  2
____
 70
           0
 62
           7
  6
CONTINUOUS
  0
ENDTAB
  0
TABLE
  2
STYLE
  5
3
100
AcDbSymbolTable
 70
           1
  0
STYLE
  5
17
100
AcDbSymbolTableRecord
100
AcDbTextStyleTableRecord
  2
STANDARD
 70
           0
 40
0.0
 41
1.0
 50
0.0
 71
           0
 42
0.0
  3
txt
  4

  0
ENDTAB
  0
TABLE
  2
VIEW
  5
5
100
AcDbSymbolTable
 70
           0
  0
ENDTAB
  0
TABLE
  2
UCS
  5
6
100
AcDbSymbolTable
 70
           0
  0
ENDTAB
  0
TABLE
  2
APPID
  5
8
100
AcDbSymbolTable
 70
           1
  0
APPID
  5
16
100
AcDbSymbolTableRecord
100
AcDbRegAppTableRecord
  2
ACAD
 70
           0
  0
ENDTAB
  0
TABLE
  2
DIMSTYLE
  5
9
100
AcDbSymbolTable
 70
           1
  0
DIMSTYLE
105
18
100
AcDbSymbolTableRecord
100
AcDbDimStyleTableRecord
  2
STANDARD
 70
           0
  3

  4

  5

  6

  7

 40
1.0
 41
0.18
 42
0.0625
 43
0.38
 44
0.18
 45
0.0
 46
0.0
 47
0.0
 48
0.0
 71
           0
 72
           0
 73
           1
 74
           1
 75
           0
 76
           0
 77
           0
 78
           0
140
0.18
141
0.09
142
0.0
143
25.4
144
1.0
145
0.0
146
1.0
147
0.09
170
           0
171
           2
172
           0
173
           0
174
           0
175
           0
176
           0
177
           0
178
           0
270
           2
271
           4
272
           4
273
           2
274
           2
275
           0
280
           0
281
           0
282
           0
283
           1
284
           0
285
           0
286
           0
287
           0
288
           0
340
17
  0
ENDTAB
  0
TABLE
  2
BLOCK_RECORD
  5
1
100
AcDbSymbolTable
 70
           0
  0
BLOCK_RECORD
  5
A
100
AcDbSymbolTableRecord
100
AcDbBlockTableRecord
  2
*MODEL_SPACE
  0
BLOCK_RECORD
  5
B
100
AcDbSymbolTableRecord
100
AcDbBlockTableRecord
  2
*PAPER_SPACE
  0
ENDTAB
  0
ENDSEC
  0
SECTION
  2
BLOCKS
  0
BLOCK
  5
D
100
AcDbEntity
  8
0
100
AcDbBlockBegin
  2
*MODEL_SPACE
 70
           0
 10
0.0
 20
0.0
 30
0.0
  3
*MODEL_SPACE
  1

  0
ENDBLK
  5
E
100
AcDbEntity
  8
0
100
AcDbBlockEnd
  0
BLOCK
  5
F
100
AcDbEntity
 67
           1
  8
0
100
AcDbBlockBegin
  2
*PAPER_SPACE
 70
           0
 10
0.0
 20
0.0
 30
0.0
  3
*PAPER_SPACE
  1

  0
ENDBLK
  5
10
100
AcDbEntity
 67
           1
  8
0
100
AcDbBlockEnd
  0
ENDSEC
  0
SECTION
  2
ENTITIES
  0
HATCH
  5
386
100
AcDbEntity
  8
0
  6
CONTINUOUS
 62
           2
100
AcDbHatch
 10
0.0
 20
0.0
 30
0.0
210
0.0
220
0.0
230
1.0
  2
USER
 70
           0
 71
           1
 91
        1
 92
        1
 93
        8
 72
           1
 10
3673.3719229482031
 20
1719.750000000002
 11
3679.855168395271
 21
1739.750000000002
 72
           1
 10
3602.4961804905688
 20
1719.750000000002
 11
3673.3719229482031
 21
1719.750000000002
 72
           2
 10
3602.4961804905688
 20
1756.750000000002
 40
37.0
 50
180.0
 51
-90.0
 73
           1
 72
           1
 10
3565.4961804905688
 20
1770.000000000002
 11
3565.4961804905688
 21
1756.750000000002
 72
           1
 10
3585.4961804905688
 20
1756.750000000002
 11
3585.4961804905688
 21
1770.000000000002
 72
           1
 10
3585.4961804905688
 20
1770.000000000002
 11
3565.4961804905688
 21
1770.000000000002
 72
           2
 10
3602.4961804905688
 20
1756.750000000002
 40
17.0
 50
180.0
 51
-90.0
 73
           1
 72
           1
 10
3602.4961804905688
 20
1739.750000000002
 11
3679.855168395271
 21
1739.750000000002
 97
        7
330
36F
330
8D
330
302
330
8B
330
36E
330
303
330
8C
 75
           1
 76
           0
 52
45.0
 41
10.0
 77
           0
 78
           1
 53
45.0
 43
0.0
 44
0.0
 45
-7.0710678118654746
 46
7.0710678118654755
 79
           0
 98
        1
 10
0.0
 20
0.0
  0
ARC
  5
385
100
AcDbEntity
  8
1
  6
CONTINUOUS
 62
           3
100
AcDbCircle
 10
4098.659748181607
 20
1917.806253419962
 40
0.5
100
AcDbArc
 50
180.0
 51
-90.0
  0
ARC
  5
384
100
AcDbEntity
  8
1
  6
CONTINUOUS
 62
           3
100
AcDbCircle
 10
4098.659748181607
 20
1932.193746580042
 40
0.5
100
AcDbArc
 50
90.0
 51
180.0
  0
ARC
  5
383
100
AcDbEntity
  8
1
  6
CONTINUOUS
 62
           3
100
AcDbCircle
 10
3950.396178612894
 20
1641.000000000003
 40
280.0
100
AcDbArc
 50
90.0
 51
180.0
  0
ARC
  5
382
100
AcDbEntity
  8
1
  6
CONTINUOUS
 62
           3
100
AcDbCircle
 10
3950.396177301499
 20
1641.000000000002
 40
288.0
100
AcDbArc
 50
90.0
 51
180.0
  0
ARC
  5
381
100
AcDbEntity
  8
1
  6
CONTINUOUS
 62
           7
100
AcDbCircle
 10
156.499999999999
 20
3241.300000000003
 40
10.0
100
AcDbArc
 50
0.0
 51
90.0
  0
ARC
  5
380
100
AcDbEntity
  8
1
  6
CONTINUOUS
 62
           7
100
AcDbCircle
 10
156.499999999999
 20
3181.300000000004
 40
10.0
100
AcDbArc
 50
-90.0
 51
0.0
  0
ARC
  5
37F
100
AcDbEntity
  8
1
  6
CONTINUOUS
 62
           7
100
AcDbCircle
 10
118.613664000001
 20
3241.300000000003
 40
10.0
100
AcDbArc
 50
90.0
 51
180.0
  0
ARC
  5
37E
100
AcDbEntity
  8
1
  6
CONTINUOUS
 62
           7
100
AcDbCircle
 10
118.613664000001
 20
3181.300000000004
 40
10.0
100
AcDbArc
 50
180.0
 51
-90.0
  0
ARC
  5
37D
100
AcDbEntity
  8
1
  6
CONTINUOUS
 62
           4
100
AcDbCircle
 10
4755.996180490569
 20
3056.0
 40
1.0
100
AcDbArc
 50
179.999999999947
 51
-90.0
  0
ARC
  5
37C
100
AcDbEntity
  8
1
  6
CONTINUOUS
 62
           4
100
AcDbCircle
 10
4744.996180490569
 20
3056.0
 40
1.0
100
AcDbArc
 50
-90.0
 51
0.0
  0
ARC
  5
37B
100
AcDbEntity
  8
1
  6
CONTINUOUS
 62
           4
100
AcDbCircle
 10
4755.996180490569
 20
2660.0
 40
1.0
100
AcDbArc
 50
90.0
 51
180.0
  0
ARC
  5
37A
100
AcDbEntity
  8
1
  6
CONTINUOUS
 62
           4
100
AcDbCircle
 10
4744.996180490569
 20
2660.0
 40
1.0
100
AcDbArc
 50
0.0
 51
90.0
  0
ARC
  5
379
100
AcDbEntity
  8
1
  6
CONTINUOUS
 62
           7
100
AcDbCircle
 10
4344.246180490569
 20
3180.804518154823
 40
10.0
100
AcDbArc
 50
-90.0
 51
0.0
  0
ARC
  5
378
100
AcDbEntity
  8
1
  6
CONTINUOUS
 62
           7
100
AcDbCircle
 10
4276.746180490569
 20
3180.804518154823
 40
10.0
100
AcDbArc
 50
180.0
 51
-90.0
  0
ARC
  5
377
100
AcDbEntity
  8
1
  6
CONTINUOUS
 62
           7
100
AcDbCircle
 10
4344.246180490569
 20
3240.804518154823
 40
10.0
100
AcDbArc
 50
0.0
 51
90.0
  0
ARC
  5
376
100
AcDbEntity
  8
1
  6
CONTINUOUS
 62
           7
100
AcDbCircle
 10
4276.746180490569
 20
3240.804518154823
 40
10.0
100
AcDbArc
 50
90.0
 51
180.0
  0
ARC
  5
375
100
AcDbEntity
  8
1
  6
CONTINUOUS
 62
           4
100
AcDbCircle
 10
109.265668111722
 20
5887.215598018149
 40
10.0
100
AcDbArc
 50
90.0
 51
120.430594205715
  0
ARC
  5
374
100
AcDbEntity
  8
1
  6
CONTINUOUS
 62
           4
100
AcDbCircle
 10
109.265668111722
 20
5829.715598018149
 40
10.000000000001
100
AcDbArc
 50
-120.43059420571
 51
-90.0
  0
ARC
  5
373
100
AcDbEntity
  8
1
  6
CONTINUOUS
 62
           7
100
AcDbCircle
 10
123.946258446661
 20
5824.715598018149
 40
10.0
100
AcDbArc
 50
180.0
 51
-90.0
  0
ARC
  5
372
100
AcDbEntity
  8
1
  6
CONTINUOUS
 62
           7
100
AcDbCircle
 10
123.946258446661
 20
5892.215598018149
 40
10.0
100
AcDbArc
 50
90.0
 51
180.0
  0
ARC
  5
371
100
AcDbEntity
  8
1
  6
CONTINUOUS
 62
           7
100
AcDbCircle
 10
156.500000000001
 20
5824.715598018149
 40
10.0
100
AcDbArc
 50
-90.0
 51
0.0
  0
ARC
  5
370
100
AcDbEntity
  8
1
  6
CONTINUOUS
 62
           7
100
AcDbCircle
 10
156.500000000001
 20
5892.215598018149
 40
10.0
100
AcDbArc
 50
0.0
 51
90.0
  0
LWPOLYLINE
  5
36F
100
AcDbEntity
  8
1
  6
CONTINUOUS
 62
           7
 60
           1
100
AcDbPolyline
 90
        2
 70
           0
 10
3673.371922948203
 20
1719.750000000002
 10
3679.855168395271
 20
1739.750000000002
  0
LWPOLYLINE
  5
36E
100
AcDbEntity
  8
1
  6
CONTINUOUS
 62
           7
 60
           1
100
AcDbPolyline
 90
        3
 70
           0
 10
3585.496180490569
 20
1756.750000000002
 10
3585.496180490569
 20
1770.000000000002
 10
3565.496180490569
 20
1770.000000000002
  0
SPLINE
  5
36D
100
AcDbEntity
  8
0
  6
CONTINUOUS
 62
           3
100
AcDbSpline
210
0.0
220
0.0
230
1.0
 70
           0
 71
           3
 72
           8
 73
           5
 74
           7
 42
0.00000000001
 43
0.00000000001
 44
0.00000000001
 40
0.0
 40
0.0
 40
0.0
 40
0.2989651950319967
 40
0.4296296276529574
 40
0.4465803504010637
 40
0.4465803504010637
 40
0.4465803504010637
 10
3621.3961771004319
 20
1384.646579623304
 30
0.0
 10
3621.3961771004811
 20
1384.466936563427
 30
0.0
 10
3621.3961771004811
 20
1384.228292293117
 30
0.0
 10
3621.3961771004811
 20
1384.2056076981851
 30
0.0
 10
3621.3961771004811
 20
1384.1999992729029
 30
0.0
 11
3621.3961771004319
 21
1384.646579623304
 31
0.0
 11
3621.3961771004692
 21
1384.470331144325
 31
0.0
 11
3621.3961771004815
 21
1384.3008718271417
 31
0.0
 11
3621.3961771004811
 21
1384.2414172487597
 31
0.0
 11
3621.3961771004811
 21
1384.2082125816635
 31
0.0
 11
3621.3961771004815
 21
1384.2048568127343
 31
0.0
 11
3621.3961771004811
 21
1384.1999992729029
 31
0.0
  0
SPLINE
  5
36C
100
AcDbEntity
  8
0
  6
CONTINUOUS
 62
           3
100
AcDbSpline
210
0.0
220
0.0
230
1.0
 70
           0
 71
           3
 72
           8
 73
           5
 74
           7
 42
0.00000000001
 43
0.00000000001
 44
0.00000000001
 40
0.0
 40
0.0
 40
0.0
 40
0.0169507227481063
 40
0.147615155369067
 40
0.4465803504010637
 40
0.4465803504010637
 40
0.4465803504010637
 10
3611.3961773240039
 20
1384.1999992729029
 30
0.0
 10
3611.3961773240039
 20
1384.2056076981851
 30
0.0
 10
3611.3961773240039
 20
1384.228292293117
 30
0.0
 10
3611.3961773240039
 20
1384.466936563427
 30
0.0
 10
3611.3961773240439
 20
1384.646579623304
 30
0.0
 11
3611.3961773240039
 21
1384.1999992729029
 31
0.0
 11
3611.3961773240044
 21
1384.2048568127341
 31
0.0
 11
3611.3961773240039
 21
1384.2082125816632
 31
0.0
 11
3611.3961773240035
 21
1384.2414172487597
 31
0.0
 11
3611.3961773240039
 21
1384.3008718271417
 31
0.0
 11
3611.3961773240139
 21
1384.470331144325
 31
0.0
 11
3611.3961773240439
 21
1384.646579623304
 31
0.0
  0
SPLINE
  5
36B
100
AcDbEntity
  8
0
  6
CONTINUOUS
 62
           3
100
AcDbSpline
210
0.0
220
0.0
230
1.0
 70
           0
 71
           3
 72
           8
 73
           5
 74
           7
 42
0.00000000001
 43
0.00000000001
 44
0.00000000001
 40
0.0
 40
0.0
 40
0.0
 40
0.4813883392789762
 40
1.3325653926401211
 40
2.5594910488253362
 40
2.5594910488253362
 40
2.5594910488253362
 10
3618.8961771563349
 20
1384.1999992729029
 30
0.0
 10
3618.9554419625119
 20
1384.2004449713099
 30
0.0
 10
3619.799661803861
 20
1384.2067938900659
 30
0.0
 10
3620.6269578233509
 20
1384.4346858415579
 30
0.0
 10
3621.3961771004319
 20
1384.646579623304
 30
0.0
 11
3618.8961771563349
 21
1384.1999992729029
 31
0.0
 11
3619.0168692214497
 21
1384.2009069323508
 31
0.0
 11
3619.2604158044396
 21
1384.2027385138806
 31
0.0
 11
3619.7495640413117
 21
1384.2291158030619
 31
0.0
 11
3620.1385167530857
 21
1384.3001369182352
 31
0.0
 11
3620.6971523750553
 21
1384.4540220561637
 31
0.0
 11
3621.3961771004319
 21
1384.646579623304
 31
0.0
  0
SPLINE
  5
36A
100
AcDbEntity
  8
0
  6
CONTINUOUS
 62
           3
100
AcDbSpline
210
0.0
220
0.0
230
1.0
 70
           0
 71
           3
 72
           8
 73
           5
 74
           7
 42
0.00000000001
 43
0.00000000001
 44
0.00000000001
 40
0.0
 40
0.0
 40
0.0
 40
0.4813884775019775
 40
1.3325655942404513
 40
2.559491057247504
 40
2.559491057247504
 40
2.559491057247504
 10
3613.8961772681241
 20
1384.1999992729029
 30
0.0
 10
3613.955442074956
 20
1384.200444971555
 30
0.0
 10
3614.799662191404
 20
1384.2067938958301
 30
0.0
 10
3615.6269580585299
 20
1384.4346858417291
 30
0.0
 10
3616.3961772122389
 20
1384.6465796232969
 30
0.0
 11
3613.8961772681241
 21
1384.1999992729029
 31
0.0
 11
3614.0168693689325
 21
1384.2009069331111
 31
0.0
 11
3614.2604160576925
 21
1384.2027385164311
 31
0.0
 11
3614.7495643912789
 21
1384.229115810645
 31
0.0
 11
3615.138517124617
 21
1384.3001369344888
 31
0.0
 11
3615.6971526134789
 21
1384.454022060311
 31
0.0
 11
3616.3961772122389
 21
1384.6465796232969
 31
0.0
  0
SPLINE
  5
369
100
AcDbEntity
  8
0
  6
CONTINUOUS
 62
           3
100
AcDbSpline
210
0.0
220
0.0
230
1.0
 70
           0
 71
           3
 72
           8
 73
           5
 74
           7
 42
0.00000000001
 43
0.00000000001
 44
0.00000000001
 40
0.0
 40
0.0
 40
0.0
 40
0.2779454797521184
 40
0.786282538695093
 40
1.5429638907256586
 40
1.5429638907256586
 40
1.5429638907256586
 10
3612.066050177908
 20
1367.599993944257
 30
0.0
 10
3612.100266722488
 20
1367.6004396365149
 30
0.0
 10
3612.587677440602
 20
1367.6067884711761
 30
0.0
 10
3613.0653169077591
 20
1367.8346843256791
 30
0.0
 10
3613.509425778409
 20
1368.0465817452371
 30
0.0
 11
3612.066050177908
 21
1367.599993944257
 31
0.0
 11
3612.1347866720607
 21
1367.6008892808177
 31
0.0
 11
3612.2725630653617
 21
1367.6026839059841
 31
0.0
 11
3612.5568827021775
 21
1367.6286568402304
 31
0.0
 11
3612.7796128621449
 21
1367.6983665125852
 31
0.0
 11
3613.1049181140179
 21
1367.8535792272949
 31
0.0
 11
3613.509425778409
 21
1368.0465817452371
 31
0.0
  0
SPLINE
  5
368
100
AcDbEntity
  8
0
  6
CONTINUOUS
 62
           3
100
AcDbSpline
210
0.0
220
0.0
230
1.0
 70
           0
 71
           3
 72
           8
 73
           5
 74
           7
 42
0.00000000001
 43
0.00000000001
 44
0.00000000001
 40
0.0
 40
0.0
 40
0.0
 40
0.2779464854269934
 40
0.7862840843638271
 40
1.5429642658512168
 40
1.5429642658512168
 40
1.5429642658512168
 10
3612.066050177908
 20
1372.600004077043
 30
0.0
 10
3612.03183362855
 20
1372.5995583816709
 30
0.0
 10
3611.5444209094589
 20
1372.5932094774421
 30
0.0
 10
3611.0667824299139
 20
1372.3653136934761
 30
0.0
 10
3610.62267434454
 20
1372.1534162761111
 30
0.0
 11
3612.066050177908
 21
1372.600004077043
 31
0.0
 11
3611.9973134321599
 21
1372.5991087310715
 31
0.0
 11
3611.8595362936326
 21
1372.5973140839014
 31
0.0
 11
3611.5752159244425
 21
1372.5713410900587
 31
0.0
 11
3611.3524855852211
 21
1372.5016313214494
 31
0.0
 11
3611.0271811973976
 21
1372.3464187461282
 31
0.0
 11
3610.62267434454
 21
1372.1534162761111
 31
0.0
  0
SPLINE
  5
367
100
AcDbEntity
  8
0
  6
CONTINUOUS
 62
           3
100
AcDbSpline
210
0.0
220
0.0
230
1.0
 70
           0
 71
           3
 72
           8
 73
           5
 74
           7
 42
0.00000000001
 43
0.00000000001
 44
0.00000000001
 40
0.0
 40
0.0
 40
0.0
 40
0.277946485424143
 40
0.7862840843597602
 40
1.542964265891831
 40
1.542964265891831
 40
1.542964265891831
 10
3620.7263042465779
 20
1367.599993944257
 30
0.0
 10
3620.7605207959341
 20
1367.600439639637
 30
0.0
 10
3621.2479335150229
 20
1367.6067885438661
 30
0.0
 10
3621.7255719945711
 20
1367.834684327825
 30
0.0
 10
3622.1696800799359
 20
1368.046581745313
 30
0.0
 11
3620.7263042465779
 21
1367.599993944257
 31
0.0
 11
3620.7950409923237
 21
1367.6008892902344
 31
0.0
 11
3620.9328181308497
 21
1367.6026839374065
 31
0.0
 11
3621.2171385000379
 21
1367.6286569312479
 31
0.0
 11
3621.4398688392548
 21
1367.6983666998526
 31
0.0
 11
3621.7651732270829
 21
1367.8535792752036
 31
0.0
 11
3622.1696800799359
 21
1368.046581745313
 31
0.0
  0
SPLINE
  5
366
100
AcDbEntity
  8
0
  6
CONTINUOUS
 62
           3
100
AcDbSpline
210
0.0
220
0.0
230
1.0
 70
           0
 71
           3
 72
           8
 73
           5
 74
           7
 42
0.00000000001
 43
0.00000000001
 44
0.00000000001
 40
0.0
 40
0.0
 40
0.0
 40
0.277945479752548
 40
0.7862825386971801
 40
1.5429638907281675
 40
1.5429638907281675
 40
1.5429638907281675
 10
3620.7263042465779
 20
1372.600004077043
 30
0.0
 10
3620.6920877019979
 20
1372.5995583847839
 30
0.0
 10
3620.204676983883
 20
1372.5932095501289
 30
0.0
 10
3619.727037516725
 20
1372.365313695622
 30
0.0
 10
3619.282928646076
 20
1372.153416276064
 30
0.0
 11
3620.7263042465779
 21
1372.600004077043
 31
0.0
 11
3620.6575677524247
 21
1372.5991087404818
 31
0.0
 11
3620.5197913591242
 21
1372.597314115317
 31
0.0
 11
3620.2354717223075
 21
1372.5713411810732
 31
0.0
 11
3620.0127415623392
 21
1372.5016315087182
 31
0.0
 11
3619.6874363104662
 21
1372.3464187940062
 31
0.0
 11
3619.282928646076
 21
1372.153416276064
 31
0.0
  0
SPLINE
  5
365
100
AcDbEntity
  8
0
  6
CONTINUOUS
 62
           3
100
AcDbSpline
210
0.0
220
0.0
230
1.0
 70
           0
 71
           3
 72
           8
 73
           5
 74
           7
 42
0.00000000001
 43
0.00000000001
 44
0.00000000001
 40
0.0
 40
0.0
 40
0.0
 40
0.7097107189170742
 40
1.6878556121234118
 40
2.935415097410818
 40
2.935415097410818
 40
2.935415097410818
 10
3613.509425778409
 20
1368.0465817452371
 30
0.0
 10
3613.722782360062
 20
1367.986940602696
 30
0.0
 10
3614.663085041032
 20
1367.724090842954
 30
0.0
 10
3615.6405223822539
 20
1367.6541020998691
 30
0.0
 10
3616.3961772122389
 20
1367.599993944257
 30
0.0
 11
3613.509425778409
 21
1368.0465817452371
 31
0.0
 11
3613.7682879983672
 21
1367.9742200752135
 31
0.0
 11
3614.1181614949342
 21
1367.8764173502248
 31
0.0
 11
3614.634244353424
 21
1367.7544828668426
 31
0.0
 11
3615.0926458366989
 21
1367.6933324312386
 31
0.0
 11
3615.6924669533614
 21
1367.6503826438086
 31
0.0
 11
3616.3961772122389
 21
1367.599993944257
 31
0.0
  0
SPLINE
  5
364
100
AcDbEntity
  8
0
  6
CONTINUOUS
 62
           3
100
AcDbSpline
210
0.0
220
0.0
230
1.0
 70
           0
 71
           3
 72
           8
 73
           5
 74
           7
 42
0.00000000001
 43
0.00000000001
 44
0.00000000001
 40
0.0
 40
0.0
 40
0.0
 40
0.7273681394970808
 40
1.7065914567943234
 40
2.9387223240381131
 40
2.9387223240381131
 40
2.9387223240381131
 10
3616.3961772122389
 20
1367.599993944257
 30
0.0
 10
3616.634899991604
 20
1367.605473483329
 30
0.0
 10
3617.611807637551
 20
1367.6278969974539
 30
0.0
 10
3618.5636693468141
 20
1367.8663776207229
 30
0.0
 10
3619.282928645936
 20
1368.046581745313
 30
0.0
 11
3616.3961772122389
 21
1367.599993944257
 31
0.0
 11
3616.679311505543
 21
1367.606492885945
 31
0.0
 11
3617.0512688267245
 21
1367.6150306328655
 31
0.0
 11
3617.5770478660825
 21
1367.6510811733867
 31
0.0
 11
3618.0333073625015
 21
1367.7335000657733
 31
0.0
 11
3618.6108936755168
 21
1367.8782092631332
 31
0.0
 11
3619.282928645936
 21
1368.046581745313
 31
0.0
  0
SPLINE
  5
363
100
AcDbEntity
  8
0
  6
CONTINUOUS
 62
           3
100
AcDbSpline
210
0.0
220
0.0
230
1.0
 70
           0
 71
           3
 72
           8
 73
           5
 74
           7
 42
0.00000000001
 43
0.00000000001
 44
0.00000000001
 40
0.0
 40
0.0
 40
0.0
 40
1.2321308673617488
 40
2.2113541846588576
 40
2.938722324155894
 40
2.938722324155894
 40
2.938722324155894
 10
3619.282928646076
 20
1372.153416276064
 30
0.0
 10
3618.5636693468141
 20
1372.3336204005809
 30
0.0
 10
3617.611807637551
 20
1372.572101023849
 30
0.0
 10
3616.634899991604
 20
1372.5945245379719
 30
0.0
 10
3616.3961772122389
 20
1372.600004077043
 30
0.0
 11
3619.282928646076
 21
1372.153416276064
 31
0.0
 11
3618.6108936755463
 21
1372.3217887581905
 31
0.0
 11
3618.0333073624797
 21
1372.4664979555355
 31
0.0
 11
3617.5770478660761
 21
1372.5489168479173
 31
0.0
 11
3617.0512688267249
 21
1372.5849673884363
 31
0.0
 11
3616.679311505543
 21
1372.5935051353558
 31
0.0
 11
3616.3961772122389
 21
1372.600004077043
 31
0.0
  0
SPLINE
  5
362
100
AcDbEntity
  8
0
  6
CONTINUOUS
 62
           3
100
AcDbSpline
210
0.0
220
0.0
230
1.0
 70
           0
 71
           3
 72
           8
 73
           5
 74
           7
 42
0.00000000001
 43
0.00000000001
 44
0.00000000001
 40
0.0
 40
0.0
 40
0.0
 40
1.2475616964917644
 40
2.2257084622363728
 40
2.9354211178785965
 40
2.9354211178785965
 40
2.9354211178785965
 10
3616.3961772122389
 20
1372.600004077043
 30
0.0
 10
3615.6405205548149
 20
1372.545908809474
 30
0.0
 10
3614.663079403153
 20
1372.4759366334711
 30
0.0
 10
3613.7227821943329
 20
1372.2130631111629
 30
0.0
 10
3613.509425778409
 20
1372.153416276064
 30
0.0
 11
3616.3961772122389
 21
1372.600004077043
 31
0.0
 11
3615.6924650573669
 21
1372.5496273656952
 31
0.0
 11
3615.0926419075986
 21
1372.5066877667891
 31
0.0
 11
3614.6342399822015
 21
1372.4455393603102
 31
0.0
 11
3614.1181592149005
 21
1372.3235964075093
 31
0.0
 11
3613.7682873454937
 21
1372.2257847264746
 31
0.0
 11
3613.509425778409
 21
1372.153416276064
 31
0.0
  0
SPLINE
  5
361
100
AcDbEntity
  8
0
  6
CONTINUOUS
 62
           3
100
AcDbSpline
210
0.0
220
0.0
230
1.0
 70
           0
 71
           3
 72
           8
 73
           5
 74
           7
 42
0.00000000001
 43
0.00000000001
 44
0.00000000001
 40
0.0
 40
0.0
 40
0.0
 40
0.2779452695568817
 40
0.7862805426591408
 40
1.5429573555003988
 40
1.5429573555003988
 40
1.5429573555003988
 10
3612.066050177908
 20
1372.600004077043
 30
0.0
 10
3612.1002667214389
 20
1372.6004497818119
 30
0.0
 10
3612.5876770186469
 20
1372.606798789368
 30
0.0
 10
3613.065316718928
 20
1372.8346868330871
 30
0.0
 10
3613.509425778409
 20
1373.0465769768621
 30
0.0
 11
3612.066050177908
 21
1372.600004077043
 31
0.0
 11
3612.1347867108498
 21
1372.6008994392664
 31
0.0
 11
3612.2725632226143
 21
1372.6026941163984
 31
0.0
 11
3612.5568825197888
 21
1372.628666380843
 31
0.0
 11
3612.779612819249
 21
1372.6983738282374
 31
0.0
 11
3613.1049180088789
 21
1372.8535811178185
 31
0.0
 11
3613.509425778409
 21
1373.0465769768621
 31
0.0
  0
SPLINE
  5
360
100
AcDbEntity
  8
0
  6
CONTINUOUS
 62
           3
100
AcDbSpline
210
0.0
220
0.0
230
1.0
 70
           0
 71
           3
 72
           8
 73
           5
 74
           7
 42
0.00000000001
 43
0.00000000001
 44
0.00000000001
 40
0.0
 40
0.0
 40
0.0
 40
0.2779463803273643
 40
0.786283086334805
 40
1.5429609982557633
 40
1.5429609982557633
 40
1.5429609982557633
 10
3612.066050177908
 20
1377.599999308668
 30
0.0
 10
3612.0318336290761
 20
1377.5995536070391
 30
0.0
 10
3611.544421120439
 20
1377.59320461636
 30
0.0
 10
3611.066782524334
 20
1377.3653127377879
 30
0.0
 10
3610.62267434454
 20
1377.1534189582071
 30
0.0
 11
3612.066050177908
 21
1377.599999308668
 31
0.0
 11
3611.9973134127667
 21
1377.5991039498638
 31
0.0
 11
3611.8595362150063
 21
1377.5973092767099
 31
0.0
 11
3611.5752160156412
 21
1377.5713366177683
 31
0.0
 11
3611.3524856066792
 21
1377.501627961642
 31
0.0
 11
3611.0271812499714
 21
1377.346418098856
 31
0.0
 11
3610.62267434454
 21
1377.1534189582071
 31
0.0
  0
SPLINE
  5
35F
100
AcDbEntity
  8
0
  6
CONTINUOUS
 62
           3
100
AcDbSpline
210
0.0
220
0.0
230
1.0
 70
           0
 71
           3
 72
           8
 73
           5
 74
           7
 42
0.00000000001
 43
0.00000000001
 44
0.00000000001
 40
0.0
 40
0.0
 40
0.0
 40
0.2779462752284028
 40
0.7862820883204305
 40
1.5429577306486926
 40
1.5429577306486926
 40
1.5429577306486926
 10
3620.7263042465779
 20
1372.600004077043
 30
0.0
 10
3620.7605207948859
 20
1372.6004497849301
 30
0.0
 10
3621.247933093066
 20
1372.606798862053
 30
0.0
 10
3621.7255718057359
 20
1372.8346868352371
 30
0.0
 10
3622.1696800799359
 20
1373.0465769769139
 30
0.0
 11
3620.7263042465779
 21
1372.600004077043
 31
0.0
 11
3620.7950410311132
 21
1372.6008994486799
 31
0.0
 11
3620.9328182881036
 21
1372.6026941478167
 31
0.0
 11
3621.2171383176483
 21
1372.6286664718557
 31
0.0
 11
3621.4398687963585
 21
1372.6983740155001
 31
0.0
 11
3621.7651731219421
 21
1372.8535811657221
 31
0.0
 11
3622.1696800799359
 21
1373.0465769769139
 31
0.0
  0
SPLINE
  5
35E
100
AcDbEntity
  8
0
  6
CONTINUOUS
 62
           3
100
AcDbSpline
210
0.0
220
0.0
230
1.0
 70
           0
 71
           3
 72
           8
 73
           5
 74
           7
 42
0.00000000001
 43
0.00000000001
 44
0.00000000001
 40
0.0
 40
0.0
 40
0.0
 40
0.277945374657454
 40
0.7862815406727164
 40
1.5429606230911013
 40
1.5429606230911013
 40
1.5429606230911013
 10
3620.7263042465779
 20
1377.599999308668
 30
0.0
 10
3620.69208770252
 20
1377.599553610153
 30
0.0
 10
3620.204677194858
 20
1377.5932046890471
 30
0.0
 10
3619.7270376111419
 20
1377.365312739938
 30
0.0
 10
3619.282928646076
 20
1377.153418958269
 30
0.0
 11
3620.7263042465779
 21
1377.599999308668
 31
0.0
 11
3620.6575677330279
 21
1377.599103959275
 31
0.0
 11
3620.5197912804924
 21
1377.5973093081261
 31
0.0
 11
3620.2354718134989
 21
1377.5713367087819
 31
0.0
 11
3620.012741583786
 21
1377.501628148907
 31
0.0
 11
3619.6874363630363
 21
1377.3464181467627
 31
0.0
 11
3619.282928646076
 21
1377.153418958269
 31
0.0
  0
SPLINE
  5
35D
100
AcDbEntity
  8
0
  6
CONTINUOUS
 62
           3
100
AcDbSpline
210
0.0
220
0.0
230
1.0
 70
           0
 71
           3
 72
           8
 73
           5
 74
           7
 42
0.00000000001
 43
0.00000000001
 44
0.00000000001
 40
0.0
 40
0.0
 40
0.0
 40
0.709710492683428
 40
1.687855056022751
 40
2.9354142011744382
 40
2.9354142011744382
 40
2.9354142011744382
 10
3613.509425778409
 20
1373.0465769768621
 30
0.0
 10
3613.7227823395219
 20
1372.9869356693509
 30
0.0
 10
3614.6630843422181
 20
1372.7240853468579
 30
0.0
 10
3615.6405221557429
 20
1372.654105412623
 30
0.0
 10
3616.3961772122389
 20
1372.600004077043
 30
0.0
 11
3613.509425778409
 21
1373.0465769768621
 31
0.0
 11
3613.7682879127196
 21
1372.9742151236587
 31
0.0
 11
3614.1181611934248
 21
1372.8764121790709
 31
0.0
 11
3614.6342438019396
 21
1372.7544784200813
 31
0.0
 11
3615.0926453298971
 21
1372.693330807539
 31
0.0
 11
3615.6924667134058
 21
1372.6503864274569
 31
0.0
 11
3616.3961772122389
 21
1372.600004077043
 31
0.0
  0
SPLINE
  5
35C
100
AcDbEntity
  8
0
  6
CONTINUOUS
 62
           3
100
AcDbSpline
210
0.0
220
0.0
230
1.0
 70
           0
 71
           3
 72
           8
 73
           5
 74
           7
 42
0.00000000001
 43
0.00000000001
 44
0.00000000001
 40
0.0
 40
0.0
 40
0.0
 40
0.727367573960494
 40
1.7065896374678715
 40
2.9387184666102719
 40
2.9387184666102719
 40
2.9387184666102719
 10
3616.3961772122389
 20
1372.600004077043
 30
0.0
 10
3616.634899955719
 20
1372.605483801266
 30
0.0
 10
3617.6118065166679
 20
1372.6279080515219
 30
0.0
 10
3618.5636689916159
 20
1372.8663796942881
 30
0.0
 10
3619.282928645936
 20
1373.0465769769139
 30
0.0
 11
3616.3961772122389
 21
1372.600004077043
 31
0.0
 11
3616.6793113930553
 21
1372.6065032367205
 31
0.0
 11
3617.0512684485439
 21
1372.6150412673073
 31
0.0
 11
3617.5770470375824
 21
1372.6510911338678
 31
0.0
 11
3618.0333066684493
 21
1372.7335071651196
 31
0.0
 11
3618.6108933244041
 21
1372.8782108826522
 31
0.0
 11
3619.282928645936
 21
1373.0465769769139
 31
0.0
  0
SPLINE
  5
35B
100
AcDbEntity
  8
0
  6
CONTINUOUS
 62
           3
100
AcDbSpline
210
0.0
220
0.0
230
1.0
 70
           0
 71
           3
 72
           8
 73
           5
 74
           7
 42
0.00000000001
 43
0.00000000001
 44
0.00000000001
 40
0.0
 40
0.0
 40
0.0
 40
1.2321298483049752
 40
2.211352538701199
 40
2.9387203954273344
 40
2.9387203954273344
 40
2.9387203954273344
 10
3619.282928646076
 20
1377.153418958269
 30
0.0
 10
3618.563669169213
 20
1377.3336196618179
 30
0.0
 10
3617.6118070771049
 20
1377.572095794834
 30
0.0
 10
3616.634899973661
 20
1377.5945196770249
 30
0.0
 10
3616.3961772122389
 20
1377.599999308668
 30
0.0
 11
3619.282928646076
 21
1377.153418958269
 31
0.0
 11
3618.6108934999879
 21
1377.3217882464464
 31
0.0
 11
3618.0333070154493
 21
1377.4664947038814
 31
0.0
 11
3617.5770474518231
 21
1377.5489121656963
 31
0.0
 11
3617.0512686376323
 21
1377.5849623692357
 31
0.0
 11
3616.679311449298
 21
1377.5935002579884
 31
0.0
 11
3616.3961772122389
 21
1377.599999308668
 31
0.0
  0
SPLINE
  5
35A
100
AcDbEntity
  8
0
  6
CONTINUOUS
 62
           3
100
AcDbSpline
210
0.0
220
0.0
230
1.0
 70
           0
 71
           3
 72
           8
 73
           5
 74
           7
 42
0.00000000001
 43
0.00000000001
 44
0.00000000001
 40
0.0
 40
0.0
 40
0.0
 40
1.2475604207784592
 40
2.2257060852914314
 40
2.9354176594295924
 40
2.9354176594295924
 40
2.9354176594295924
 10
3616.3961772122389
 20
1377.599999308668
 30
0.0
 10
3615.6405213552939
 20
1377.5459010071079
 30
0.0
 10
3614.6630818727331
 20
1377.4759249520091
 30
0.0
 10
3613.722782266927
 20
1377.213063029574
 30
0.0
 10
3613.509425778409
 20
1377.153418958269
 30
0.0
 11
3616.3961772122389
 21
1377.599999308668
 31
0.0
 11
3615.6924658854023
 21
1377.5496197778009
 31
0.0
 11
3615.0926436187824
 21
1377.5066777883189
 31
0.0
 11
3614.6342418921076
 21
1377.4455297788095
 31
0.0
 11
3614.1181602041815
 21
1377.3235914229003
 31
0.0
 11
3613.768287629111
 21
1377.2257841100793
 31
0.0
 11
3613.509425778409
 21
1377.153418958269
 31
0.0
  0
SPLINE
  5
359
100
AcDbEntity
  8
0
  6
CONTINUOUS
 62
           3
100
AcDbSpline
210
0.0
220
0.0
230
1.0
 70
           0
 71
           3
 72
           8
 73
           5
 74
           7
 42
0.00000000001
 43
0.00000000001
 44
0.00000000001
 40
0.0
 40
0.0
 40
0.0
 40
0.2779454797520932
 40
0.7862825386954804
 40
1.5429638907256054
 40
1.5429638907256054
 40
1.5429638907256054
 10
3612.066050177908
 20
1359.99999940405
 30
0.0
 10
3612.100266722488
 20
1360.0004450963081
 30
0.0
 10
3612.587677440602
 20
1360.0067939309649
 30
0.0
 10
3613.0653169077591
 20
1360.23468978547
 30
0.0
 10
3613.509425778409
 20
1360.4465872050259
 30
0.0
 11
3612.066050177908
 21
1359.99999940405
 31
0.0
 11
3612.1347866720607
 21
1360.0008947406104
 31
0.0
 11
3612.2725630653613
 21
1360.0026893657757
 31
0.0
 11
3612.5568827021775
 21
1360.0286623000202
 31
0.0
 11
3612.7796128621449
 21
1360.0983719723749
 31
0.0
 11
3613.1049181140183
 21
1360.2535846870851
 31
0.0
 11
3613.509425778409
 21
1360.4465872050259
 31
0.0
  0
SPLINE
  5
358
100
AcDbEntity
  8
0
  6
CONTINUOUS
 62
           3
100
AcDbSpline
210
0.0
220
0.0
230
1.0
 70
           0
 71
           3
 72
           8
 73
           5
 74
           7
 42
0.00000000001
 43
0.00000000001
 44
0.00000000001
 40
0.0
 40
0.0
 40
0.0
 40
0.2779462752313377
 40
0.7862820883222103
 40
1.5429577306084665
 40
1.5429577306084665
 40
1.5429577306084665
 10
3612.066050177908
 20
1364.999994635675
 30
0.0
 10
3612.0318336295959
 20
1364.9995489277919
 30
0.0
 10
3611.5444213314181
 20
1364.993199850664
 30
0.0
 10
3611.0667826187459
 20
1364.7653118774849
 30
0.0
 10
3610.62267434454
 20
1364.5534217359179
 30
0.0
 11
3612.066050177908
 21
1364.999994635675
 31
0.0
 11
3611.997313393369
 21
1364.9990992640408
 31
0.0
 11
3611.8595361363773
 21
1364.9973045649035
 31
0.0
 11
3611.5752161068331
 21
1364.9713322408618
 31
0.0
 11
3611.3524856281188
 21
1364.901624697216
 31
0.0
 11
3611.0271813025374
 21
1364.7464175470259
 31
0.0
 11
3610.62267434454
 21
1364.5534217359179
 31
0.0
  0
SPLINE
  5
357
100
AcDbEntity
  8
0
  6
CONTINUOUS
 62
           3
100
AcDbSpline
210
0.0
220
0.0
230
1.0
 70
           0
 71
           3
 72
           8
 73
           5
 74
           7
 42
0.00000000001
 43
0.00000000001
 44
0.00000000001
 40
0.0
 40
0.0
 40
0.0
 40
0.2779464854675768
 40
0.7862840844040738
 40
1.5429642659447611
 40
1.5429642659447611
 40
1.5429642659447611
 10
3620.7263042465361
 20
1359.9999994039231
 30
0.0
 10
3620.7605207959341
 20
1360.0004450994261
 30
0.0
 10
3621.2479335150229
 20
1360.0067940036549
 30
0.0
 10
3621.7255719945711
 20
1360.234689787618
 30
0.0
 10
3622.1696800799359
 20
1360.4465872051239
 30
0.0
 11
3620.7263042465361
 21
1359.9999994039231
 31
0.0
 11
3620.7950409923183
 21
1360.0008947499928
 31
0.0
 11
3620.9328181308665
 21
1360.0026893971958
 31
0.0
 11
3621.2171385000411
 21
1360.028662391037
 31
0.0
 11
3621.439868839253
 21
1360.0983721596424
 31
0.0
 11
3621.7651732270824
 21
1360.2535847350005
 31
0.0
 11
3622.1696800799359
 21
1360.4465872051239
 31
0.0
  0
SPLINE
  5
356
100
AcDbEntity
  8
0
  6
CONTINUOUS
 62
           3
100
AcDbSpline
210
0.0
220
0.0
230
1.0
 70
           0
 71
           3
 72
           8
 73
           5
 74
           7
 42
0.00000000001
 43
0.00000000001
 44
0.00000000001
 40
0.0
 40
0.0
 40
0.0
 40
0.2779452695609474
 40
0.7862805426617435
 40
1.542957355501565
 40
1.542957355501565
 40
1.542957355501565
 10
3620.7263042465779
 20
1364.999994635675
 30
0.0
 10
3620.6920877030429
 20
1364.999548930906
 30
0.0
 10
3620.2046774058349
 20
1364.993199923354
 30
0.0
 10
3619.727037705557
 20
1364.765311879635
 30
0.0
 10
3619.282928646076
 20
1364.55342173586
 30
0.0
 11
3620.7263042465779
 21
1364.999994635675
 31
0.0
 11
3620.6575677136325
 21
1364.999099273452
 31
0.0
 11
3620.5197912018657
 21
1364.9973045963209
 31
0.0
 11
3620.2354719046925
 21
1364.9713323318783
 31
0.0
 11
3620.0127416052346
 21
1364.9016248844846
 31
0.0
 11
3619.687436415606
 21
1364.7464175949035
 31
0.0
 11
3619.282928646076
 21
1364.55342173586
 31
0.0
  0
SPLINE
  5
355
100
AcDbEntity
  8
0
  6
CONTINUOUS
 62
           3
100
AcDbSpline
210
0.0
220
0.0
230
1.0
 70
           0
 71
           3
 72
           8
 73
           5
 74
           7
 42
0.00000000001
 43
0.00000000001
 44
0.00000000001
 40
0.0
 40
0.0
 40
0.0
 40
0.7097126556413972
 40
1.687859421385983
 40
2.9354211178777554
 40
2.9354211178777554
 40
2.9354211178777554
 10
3613.509425778409
 20
1360.4465872050259
 30
0.0
 10
3613.7227821943329
 20
1360.38694036993
 30
0.0
 10
3614.663079403153
 20
1360.1240668476221
 30
0.0
 10
3615.6405205548149
 20
1360.0540946716189
 30
0.0
 10
3616.3961772122389
 20
1359.99999940405
 30
0.0
 11
3613.509425778409
 21
1360.4465872050259
 31
0.0
 11
3613.7682873454937
 21
1360.3742187546172
 31
0.0
 11
3614.1181592149005
 21
1360.2764070735836
 31
0.0
 11
3614.6342399822011
 21
1360.1544641207829
 31
0.0
 11
3615.0926419075986
 21
1360.093315714304
 31
0.0
 11
3615.6924650573669
 21
1360.050376115398
 31
0.0
 11
3616.3961772122389
 21
1359.99999940405
 31
0.0
  0
SPLINE
  5
354
100
AcDbEntity
  8
0
  6
CONTINUOUS
 62
           3
100
AcDbSpline
210
0.0
220
0.0
230
1.0
 70
           0
 71
           3
 72
           8
 73
           5
 74
           7
 42
0.00000000001
 43
0.00000000001
 44
0.00000000001
 40
0.0
 40
0.0
 40
0.0
 40
0.727368139496992
 40
1.7065914567942346
 40
2.9387223240433293
 40
2.9387223240433293
 40
2.9387223240433293
 10
3616.3961772122389
 20
1359.99999940405
 30
0.0
 10
3616.634899991604
 20
1360.0054789431181
 30
0.0
 10
3617.611807637551
 20
1360.027902457243
 30
0.0
 10
3618.5636693468141
 20
1360.266383080512
 30
0.0
 10
3619.282928645936
 20
1360.4465872051239
 30
0.0
 11
3616.3961772122389
 21
1359.99999940405
 31
0.0
 11
3616.6793115055425
 21
1360.0064983457348
 31
0.0
 11
3617.0512688267245
 21
1360.0150360926543
 31
0.0
 11
3617.5770478660825
 21
1360.0510866331758
 31
0.0
 11
3618.0333073625006
 21
1360.1335055255622
 31
0.0
 11
3618.6108936755163
 21
1360.2782147229275
 31
0.0
 11
3619.282928645936
 21
1360.4465872051239
 31
0.0
  0
SPLINE
  5
353
100
AcDbEntity
  8
0
  6
CONTINUOUS
 62
           3
100
AcDbSpline
210
0.0
220
0.0
230
1.0
 70
           0
 71
           3
 72
           8
 73
           5
 74
           7
 42
0.00000000001
 43
0.00000000001
 44
0.00000000001
 40
0.0
 40
0.0
 40
0.0
 40
1.2321288292653891
 40
2.2113508927730008
 40
2.938718466733393
 40
2.938718466733393
 40
2.938718466733393
 10
3619.282928646076
 20
1364.55342173586
 30
0.0
 10
3618.5636689916159
 20
1364.7336190184319
 30
0.0
 10
3617.6118065166679
 20
1364.9720906611999
 30
0.0
 10
3616.634899955719
 20
1364.9945149114569
 30
0.0
 10
3616.3961772122389
 20
1364.999994635675
 30
0.0
 11
3619.282928646076
 21
1364.55342173586
 31
0.0
 11
3618.6108933244336
 21
1364.7217878300828
 31
0.0
 11
3618.0333066684261
 21
1364.8664915476072
 31
0.0
 11
3617.5770470375769
 21
1364.9489075788556
 31
0.0
 11
3617.0512684485439
 21
1364.9849574454151
 31
0.0
 11
3616.6793113930553
 21
1364.993495476001
 31
0.0
 11
3616.3961772122389
 21
1364.999994635675
 31
0.0
  0
SPLINE
  5
352
100
AcDbEntity
  8
0
  6
CONTINUOUS
 62
           3
100
AcDbSpline
210
0.0
220
0.0
230
1.0
 70
           0
 71
           3
 72
           8
 73
           5
 74
           7
 42
0.00000000001
 43
0.00000000001
 44
0.00000000001
 40
0.0
 40
0.0
 40
0.0
 40
1.2475591451533072
 40
2.225703708492595
 40
2.9354142011732658
 40
2.9354142011732658
 40
2.9354142011732658
 10
3616.3961772122389
 20
1364.999994635675
 30
0.0
 10
3615.6405221557429
 20
1364.9458933000949
 30
0.0
 10
3614.6630843422149
 20
1364.8759133658591
 30
0.0
 10
3613.7227823395219
 20
1364.613063043367
 30
0.0
 10
3613.509425778409
 20
1364.55342173586
 30
0.0
 11
3616.3961772122389
 21
1364.999994635675
 31
0.0
 11
3615.6924667134049
 21
1364.9496122852609
 31
0.0
 11
3615.0926453298957
 21
1364.9066679051784
 31
0.0
 11
3614.6342438019365
 21
1364.8455202926357
 31
0.0
 11
3614.1181611934226
 21
1364.7235865336465
 31
0.0
 11
3613.7682879127192
 21
1364.6257835890601
 31
0.0
 11
3613.509425778409
 21
1364.55342173586
 31
0.0
  0
SPLINE
  5
351
100
AcDbEntity
  8
0
  6
CONTINUOUS
 62
           3
100
AcDbSpline
210
0.0
220
0.0
230
1.0
 70
           0
 71
           3
 72
           8
 73
           5
 74
           7
 42
0.00000000001
 43
0.00000000001
 44
0.00000000001
 40
0.0
 40
0.0
 40
0.0
 40
0.2779464854642452
 40
0.7862840844007688
 40
1.5429642659211882
 40
1.5429642659211882
 40
1.5429642659211882
 10
3620.7263042465361
 20
1359.9999994039231
 30
0.0
 10
3620.7605207959341
 20
1359.9995537086779
 30
0.0
 10
3621.2479335150229
 20
1359.993204804445
 30
0.0
 10
3621.7255719945711
 20
1359.7653090204819
 30
0.0
 10
3622.1696800799359
 20
1359.5534116030231
 30
0.0
 11
3620.7263042465361
 21
1359.9999994039231
 31
0.0
 11
3620.7950409923178
 21
1359.9991040580462
 31
0.0
 11
3620.9328181308656
 21
1359.9973094109068
 31
0.0
 11
3621.2171385000424
 21
1359.9713364170634
 31
0.0
 11
3621.4398688392566
 21
1359.9016266484559
 31
0.0
 11
3621.7651732270842
 21
1359.7464140731108
 31
0.0
 11
3622.1696800799359
 21
1359.5534116030231
 31
0.0
  0
SPLINE
  5
350
100
AcDbEntity
  8
0
  6
CONTINUOUS
 62
           3
100
AcDbSpline
210
0.0
220
0.0
230
1.0
 70
           0
 71
           3
 72
           8
 73
           5
 74
           7
 42
0.00000000001
 43
0.00000000001
 44
0.00000000001
 40
0.0
 40
0.0
 40
0.0
 40
0.3778155284993148
 40
0.8942062233997274
 40
1.5357514174616351
 40
1.5357514174616351
 40
1.5357514174616351
 10
3610.62267434454
 20
1359.5534116030231
 30
0.0
 10
3610.717192387599
 20
1359.6064716909079
 30
0.0
 10
3611.187062285474
 20
1359.870245011376
 30
0.0
 10
3611.675703224872
 20
1359.9423771862
 30
0.0
 10
3612.066050177908
 20
1359.99999940405
 30
0.0
 11
3610.62267434454
 21
1359.5534116030231
 31
0.0
 11
3610.7431946449724
 21
1359.6210687140301
 31
0.0
 11
3610.915719460153
 21
1359.7179198712815
 31
0.0
 11
3611.1737049048998
 21
1359.8402057052385
 31
0.0
 11
3611.4049755884971
 21
1359.9024129269205
 31
0.0
 11
3611.7056080540374
 21
1359.9467916758426
 31
0.0
 11
3612.066050177908
 21
1359.99999940405
 31
0.0
  0
SPLINE
  5
34F
100
AcDbEntity
  8
0
  6
CONTINUOUS
 62
           3
100
AcDbSpline
210
0.0
220
0.0
230
1.0
 70
           0
 71
           3
 72
           8
 73
           5
 74
           7
 42
0.00000000001
 43
0.00000000001
 44
0.00000000001
 40
0.0
 40
0.0
 40
0.0
 40
0.6415450374688987
 40
1.1579303686003557
 40
1.5357381749006216
 40
1.5357381749006216
 40
1.5357381749006216
 10
3612.066050177908
 20
1355.0000041724229
 30
0.0
 10
3611.6757041991809
 20
1355.057633693878
 30
0.0
 10
3611.187065119932
 20
1355.1297749168859
 30
0.0
 10
3610.717192452686
 20
1355.393522448258
 30
0.0
 10
3610.62267434454
 20
1355.4465770722261
 30
0.0
 11
3612.066050177908
 21
1355.0000041724229
 31
0.0
 11
3611.7056087362712
 21
1355.0532186768014
 31
0.0
 11
3611.4049763688154
 21
1355.0976031470273
 31
0.0
 11
3611.173706537892
 21
1355.1598096979637
 31
0.0
 11
3610.9157195428875
 21
1355.2820858110556
 31
0.0
 11
3610.7431946982001
 21
1355.3789269449494
 31
0.0
 11
3610.62267434454
 21
1355.4465770722261
 31
0.0
  0
SPLINE
  5
34E
100
AcDbEntity
  8
0
  6
CONTINUOUS
 62
           3
100
AcDbSpline
210
0.0
220
0.0
230
1.0
 70
           0
 71
           3
 72
           8
 73
           5
 74
           7
 42
0.00000000001
 43
0.00000000001
 44
0.00000000001
 40
0.0
 40
0.0
 40
0.0
 40
0.3539460334983028
 40
0.8643414136620431
 40
1.5431068114067454
 40
1.5431068114067454
 40
1.5431068114067454
 10
3612.066050177908
 20
1359.99999940405
 30
0.0
 10
3612.1755043329899
 20
1359.995393507832
 30
0.0
 10
3612.663862161608
 20
1359.974843118742
 30
0.0
 10
3613.1400018390109
 20
1359.7375336343559
 30
0.0
 10
3613.5094257785399
 20
1359.5534116030231
 30
0.0
 11
3612.066050177908
 21
1359.99999940405
 31
0.0
 11
3612.1981361761468
 21
1359.9944411463562
 31
0.0
 11
3612.3754858606999
 21
1359.986978165711
 31
0.0
 11
3612.6428586319516
 21
1359.9524131949274
 31
0.0
 11
3612.8682243438907
 21
1359.8729883765154
 31
0.0
 11
3613.164413450113
 21
1359.7253668120625
 31
0.0
 11
3613.5094257785399
 21
1359.5534116030231
 31
0.0
  0
SPLINE
  5
34D
100
AcDbEntity
  8
0
  6
CONTINUOUS
 62
           3
100
AcDbSpline
210
0.0
220
0.0
230
1.0
 70
           0
 71
           3
 72
           8
 73
           5
 74
           7
 42
0.00000000001
 43
0.00000000001
 44
0.00000000001
 40
0.0
 40
0.0
 40
0.0
 40
0.678770053488311
 40
1.1891668948809579
 40
1.5431123743491586
 40
1.5431123743491586
 40
1.5431123743491586
 10
3613.509425778409
 20
1355.4465770722441
 30
0.0
 10
3613.140001964975
 20
1355.2624483716079
 30
0.0
 10
3612.663862541192
 20
1355.0251303367861
 30
0.0
 10
3612.1755043431499
 20
1355.0046045512629
 30
0.0
 10
3612.066050177908
 20
1355.0000041724229
 30
0.0
 11
3613.509425778409
 21
1355.4465770722441
 31
0.0
 11
3613.1644134642079
 21
1355.2746155830089
 31
0.0
 11
3612.8682241484712
 21
1355.1269885165757
 31
0.0
 11
3612.6428586825164
 21
1355.0475647466108
 31
0.0
 11
3612.3754854992108
 21
1355.0130097962949
 31
0.0
 11
3612.1981360908544
 21
1355.0055557678111
 31
0.0
 11
3612.066050177908
 21
1355.0000041724229
 31
0.0
  0
SPLINE
  5
34C
100
AcDbEntity
  8
0
  6
CONTINUOUS
 62
           3
100
AcDbSpline
210
0.0
220
0.0
230
1.0
 70
           0
 71
           3
 72
           8
 73
           5
 74
           7
 42
0.00000000001
 43
0.00000000001
 44
0.00000000001
 40
0.0
 40
0.0
 40
0.0
 40
0.2779452695609562
 40
0.7862805426626053
 40
1.5429573556219354
 40
1.5429573556219354
 40
1.5429573556219354
 10
3620.7263042465779
 20
1355.0000041724229
 30
0.0
 10
3620.6920877030429
 20
1355.0004498771909
 30
0.0
 10
3620.2046774058349
 20
1355.0067988847461
 30
0.0
 10
3619.727037705557
 20
1355.234686928469
 30
0.0
 10
3619.282928645936
 20
1355.4465770722261
 30
0.0
 11
3620.7263042465779
 21
1355.0000041724229
 31
0.0
 11
3620.6575677136325
 21
1355.0008995346454
 31
0.0
 11
3620.5197912018662
 21
1355.0026942117772
 31
0.0
 11
3620.2354719046971
 21
1355.0286664762195
 31
0.0
 11
3620.0127416052524
 21
1355.0983739236085
 31
0.0
 11
3619.6874364155751
 21
1355.253581213193
 31
0.0
 11
3619.282928645936
 21
1355.4465770722261
 31
0.0
  0
SPLINE
  5
34B
100
AcDbEntity
  8
0
  6
CONTINUOUS
 62
           3
100
AcDbSpline
210
0.0
220
0.0
230
1.0
 70
           0
 71
           3
 72
           8
 73
           5
 74
           7
 42
0.00000000001
 43
0.00000000001
 44
0.00000000001
 40
0.0
 40
0.0
 40
0.0
 40
0.5558558490624116
 40
1.5343195422003508
 40
2.9385037456617695
 40
2.9385037456617695
 40
2.9385037456617695
 10
3616.3961772122379
 20
1355.000004172322
 30
0.0
 10
3616.3277441268629
 20
1355.0004498783039
 30
0.0
 10
3615.352922177809
 20
1355.0067989106701
 30
0.0
 10
3614.3976434068309
 20
1355.234686929231
 30
0.0
 10
3613.509425778409
 20
1355.4465770722441
 30
0.0
 11
3616.3961772122379
 21
1355.000004172322
 31
0.0
 11
3616.2565623668165
 21
1355.0009134863237
 31
0.0
 11
3615.9745840013006
 21
1355.0027500163649
 31
0.0
 11
3615.4102633865841
 21
1355.0291829422204
 31
0.0
 11
3614.9606251894202
 21
1355.1003839311766
 31
0.0
 11
3614.3163344453724
 21
1355.2540837154706
 31
0.0
 11
3613.509425778409
 21
1355.4465770722441
 31
0.0
  0
SPLINE
  5
34A
100
AcDbEntity
  8
0
  6
CONTINUOUS
 62
           3
100
AcDbSpline
210
0.0
220
0.0
230
1.0
 70
           0
 71
           3
 72
           8
 73
           5
 74
           7
 42
0.00000000001
 43
0.00000000001
 44
0.00000000001
 40
0.0
 40
0.0
 40
0.0
 40
0.5558562714167563
 40
1.5343210643729241
 40
2.9385072683027342
 40
2.9385072683027342
 40
2.9385072683027342
 10
3616.3961772122389
 20
1359.99999940405
 30
0.0
 10
3616.4646102997149
 20
1359.999553710679
 30
0.0
 10
3617.4394330905839
 20
1359.9932048512151
 30
0.0
 10
3618.394711395315
 20
1359.7653090218651
 30
0.0
 10
3619.282928646076
 20
1359.553411603069
 30
0.0
 11
3616.3961772122389
 21
1359.99999940405
 31
0.0
 11
3616.5357921149744
 21
1359.9990901153001
 31
0.0
 11
3616.8177706482279
 21
1359.9972536357918
 31
0.0
 11
3617.3820916618483
 21
1359.9708199944785
 31
0.0
 11
3617.8317298180009
 21
1359.8996166396928
 31
0.0
 11
3618.4760203136766
 21
1359.7459115716229
 31
0.0
 11
3619.282928646076
 21
1359.553411603069
 31
0.0
  0
CIRCLE
  5
349
100
AcDbEntity
  8
1
  6
CONTINUOUS
 62
           3
100
AcDbCircle
 10
508.472255321878
 20
1295.200848327056
 40
40.0
  0
CIRCLE
  5
348
100
AcDbEntity
  8
1
  6
CONTINUOUS
 62
           7
100
AcDbCircle
 10
0.000000000003
 20
5858.465598018149
 40
317.5
  0
CIRCLE
  5
347
100
AcDbEntity
  8
1
  6
CONTINUOUS
 62
           4
100
AcDbCircle
 10
0.0
 20
5858.465598018149
 40
84.123000000001
  0
CIRCLE
  5
346
100
AcDbEntity
  8
1
  6
CONTINUOUS
 62
           4
100
AcDbCircle
 10
0.0
 20
5858.465598018149
 40
110.700000000002
  0
CIRCLE
  5
345
100
AcDbEntity
  8
1
  6
CONTINUOUS
 62
           7
100
AcDbCircle
 10
4000.496180490568
 20
600.0
 40
15.000000000001
  0
CIRCLE
  5
344
100
AcDbEntity
  8
1
  6
CONTINUOUS
 62
           2
100
AcDbCircle
 10
4000.496180490568
 20
600.0
 40
8.350000000003
  0
CIRCLE
  5
343
100
AcDbEntity
  8
1
  6
CONTINUOUS
 62
           7
100
AcDbCircle
 10
4000.496180490568
 20
600.0
 40
7.500000000001
  0
ARC
  5
342
100
AcDbEntity
  8
1
  6
CONTINUOUS
 62
           3
100
AcDbCircle
 10
511.509758321878
 20
1267.114622327063
 40
0.500000000001
100
AcDbArc
 50
-83.827497998161
 51
-5.006792999991
  0
ARC
  5
341
100
AcDbEntity
  8
1
  6
CONTINUOUS
 62
           3
100
AcDbCircle
 10
505.434752321879
 20
1267.114622327063
 40
0.499999999996
100
AcDbArc
 50
-174.993206999936
 51
-96.172501999352
  0
ARC
  5
340
100
AcDbEntity
  8
1
  6
CONTINUOUS
 62
           3
100
AcDbCircle
 10
511.509758321878
 20
1323.287074327056
 40
0.500000000004
100
AcDbArc
 50
5.006793001367
 51
83.827497998172
  0
ARC
  5
33F
100
AcDbEntity
  8
1
  6
CONTINUOUS
 62
           3
100
AcDbCircle
 10
505.434752321879
 20
1323.287074327056
 40
0.5
100
AcDbArc
 50
96.172501999341
 51
174.993206998561
  0
ARC
  5
33E
100
AcDbEntity
  8
1
  6
CONTINUOUS
 62
           3
100
AcDbCircle
 10
504.433952321885
 20
1295.200848327056
 40
10.0
100
AcDbArc
 50
-5.006792999978
 51
5.006793000022
  0
ARC
  5
33D
100
AcDbEntity
  8
1
  6
CONTINUOUS
 62
           3
100
AcDbCircle
 10
512.51055732188
 20
1295.200848327056
 40
10.0
100
AcDbArc
 50
174.993206999977
 51
-174.993207000021
  0
ARC
  5
33C
100
AcDbEntity
  8
1
  6
CONTINUOUS
 62
           3
100
AcDbCircle
 10
508.472255321878
 20
1295.200848327056
 40
10.749999999989
100
AcDbArc
 50
118.773506999971
 51
-118.773506999945
  0
ARC
  5
33B
100
AcDbEntity
  8
1
  6
CONTINUOUS
 62
           3
100
AcDbCircle
 10
508.472255321878
 20
1295.200848327056
 40
10.750000000001
100
AcDbArc
 50
-61.226493000019
 51
0.0
  0
ARC
  5
33A
100
AcDbEntity
  8
1
  6
CONTINUOUS
 62
           3
100
AcDbCircle
 10
508.472255321878
 20
1295.200848327056
 40
10.75
100
AcDbArc
 50
0.0
 51
61.226492999992
  0
ARC
  5
339
100
AcDbEntity
  8
1
  6
CONTINUOUS
 62
           3
100
AcDbCircle
 10
508.472255321878
 20
1295.200848327056
 40
28.74999999999
100
AcDbArc
 50
-96.172501999991
 51
-83.827497999993
  0
ARC
  5
338
100
AcDbEntity
  8
1
  6
CONTINUOUS
 62
           3
100
AcDbCircle
 10
508.472255321878
 20
1295.200848327056
 40
28.750000000009
100
AcDbArc
 50
83.827497999996
 51
96.172501999988
  0
ARC
  5
337
100
AcDbEntity
  8
1
  6
CONTINUOUS
 62
           3
100
AcDbCircle
 10
4120.659748181607
 20
1925.000000000002
 40
9.499999999999
100
AcDbArc
 50
-124.797812779177
 51
0.0
  0
ARC
  5
336
100
AcDbEntity
  8
1
  6
CONTINUOUS
 62
           3
100
AcDbCircle
 10
4120.659748181607
 20
1925.000000000002
 40
9.5
100
AcDbArc
 50
0.0
 51
125.916957371419
  0
ARC
  5
335
100
AcDbEntity
  8
1
  6
CONTINUOUS
 62
           3
100
AcDbCircle
 10
4120.659748181607
 20
1925.000000000002
 40
5.871834995067
100
AcDbArc
 50
0.0
 51
38.599713917946
  0
ARC
  5
334
100
AcDbEntity
  8
1
  6
CONTINUOUS
 62
           3
100
AcDbCircle
 10
4120.659748181607
 20
1925.000000000002
 40
5.871834995066
100
AcDbArc
 50
38.599713917946
 51
90.0
  0
ARC
  5
333
100
AcDbEntity
  8
1
  6
CONTINUOUS
 62
           3
100
AcDbCircle
 10
4120.659748181607
 20
1925.000000000002
 40
5.871834995066
100
AcDbArc
 50
-90.0
 51
0.0
  0
ARC
  5
332
100
AcDbEntity
  8
0
  6
CONTINUOUS
 62
           3
100
AcDbCircle
 10
3678.896177212087
 20
1368.000000000115
 40
2.499999999996
100
AcDbArc
 50
0.0
 51
180.0
  0
ARC
  5
331
100
AcDbEntity
  8
0
  6
CONTINUOUS
 62
           3
100
AcDbCircle
 10
3678.896177212087
 20
1631.9999999999
 40
2.5
100
AcDbArc
 50
180.0
 51
0.0
  0
ARC
  5
330
100
AcDbEntity
  8
0
  6
CONTINUOUS
 62
           3
100
AcDbCircle
 10
3553.896177212389
 20
1631.9999999999
 40
2.499999999997
100
AcDbArc
 50
180.0
 51
0.0
  0
ARC
  5
32F
100
AcDbEntity
  8
0
  6
CONTINUOUS
 62
           3
100
AcDbCircle
 10
3553.896177212389
 20
1368.000000000115
 40
2.499999999998
100
AcDbArc
 50
0.0
 51
180.0
  0
ARC
  5
32E
100
AcDbEntity
  8
0
  6
CONTINUOUS
 62
           3
100
AcDbCircle
 10
3558.396177212387
 20
1508.999999999998
 40
0.999999999996
100
AcDbArc
 50
-90.0
 51
90.0
  0
ARC
  5
32D
100
AcDbEntity
  8
0
  6
CONTINUOUS
 62
           3
100
AcDbCircle
 10
3558.396177212387
 20
1431.000000000064
 40
1.0
100
AcDbArc
 50
-90.0
 51
90.0
  0
ARC
  5
32C
100
AcDbEntity
  8
0
  6
CONTINUOUS
 62
           3
100
AcDbCircle
 10
3558.396177212387
 20
1409.00000000018
 40
0.999999999996
100
AcDbArc
 50
-90.0
 51
90.0
  0
ARC
  5
32B
100
AcDbEntity
  8
0
  6
CONTINUOUS
 62
           3
100
AcDbCircle
 10
3674.396177212088
 20
1409.00000000018
 40
1.0
100
AcDbArc
 50
90.0
 51
-90.0
  0
ARC
  5
32A
100
AcDbEntity
  8
0
  6
CONTINUOUS
 62
           3
100
AcDbCircle
 10
3674.396177212088
 20
1431.000000000064
 40
0.999999999996
100
AcDbArc
 50
90.0
 51
-90.0
  0
ARC
  5
329
100
AcDbEntity
  8
0
  6
CONTINUOUS
 62
           3
100
AcDbCircle
 10
3674.396177212088
 20
1508.999999999998
 40
1.0
100
AcDbArc
 50
90.0
 51
-90.0
  0
ARC
  5
328
100
AcDbEntity
  8
0
  6
CONTINUOUS
 62
           3
100
AcDbCircle
 10
3674.396177212088
 20
1530.999999999882
 40
1.0
100
AcDbArc
 50
90.0
 51
-90.0
  0
ARC
  5
327
100
AcDbEntity
  8
0
  6
CONTINUOUS
 62
           3
100
AcDbCircle
 10
3558.396177212387
 20
1530.999999999882
 40
0.999999999996
100
AcDbArc
 50
-90.0
 51
90.0
  0
ARC
  5
326
100
AcDbEntity
  8
0
  6
CONTINUOUS
 62
           3
100
AcDbCircle
 10
3622.869679904035
 20
1389.999999999998
 40
0.900000000001
100
AcDbArc
 50
-90.0
 51
-62.733955549592
  0
ARC
  5
325
100
AcDbEntity
  8
0
  6
CONTINUOUS
 62
           3
100
AcDbCircle
 10
3609.922674520441
 20
1389.999999999998
 40
0.900000000002
100
AcDbArc
 50
-117.266044450459
 51
-90.0
  0
ARC
  5
324
100
AcDbEntity
  8
0
  6
CONTINUOUS
 62
           3
100
AcDbCircle
 10
3616.396177212238
 20
1315.00000000006
 40
53.999999999959
100
AcDbArc
 50
180.0
 51
0.0
  0
ARC
  5
323
100
AcDbEntity
  8
0
  6
CONTINUOUS
 62
           3
100
AcDbCircle
 10
3616.396177212238
 20
1315.00000000006
 40
45.99999999996
100
AcDbArc
 50
180.0
 51
0.0
  0
ARC
  5
322
100
AcDbEntity
  8
0
  6
CONTINUOUS
 62
           3
100
AcDbCircle
 10
3616.396177212238
 20
1355.000000000224
 40
3.999999999999
100
AcDbArc
 50
180.0
 51
0.0
  0
ARC
  5
321
100
AcDbEntity
  8
7
  6
CONTINUOUS
 62
           7
100
AcDbCircle
 10
-105.799999999999
 20
3387.111356999998
 40
6.200000000001
100
AcDbArc
 50
122.681914999995
 51
180.0
  0
ARC
  5
320
100
AcDbEntity
  8
7
  6
CONTINUOUS
 62
           7
100
AcDbCircle
 10
-84.599999999999
 20
3408.799999999998
 40
3.200000000002
100
AcDbArc
 50
90.0
 51
180.0
  0
ARC
  5
31F
100
AcDbEntity
  8
7
  6
CONTINUOUS
 62
           7
100
AcDbCircle
 10
-89.799999999999
 20
3409.041133999999
 40
2.0
100
AcDbArc
 50
-55.000000000003
 51
0.0
  0
ARC
  5
31E
100
AcDbEntity
  8
7
  6
CONTINUOUS
 62
           7
100
AcDbCircle
 10
82.100000000001
 20
3408.799999999998
 40
3.2
100
AcDbArc
 50
0.0
 51
90.0
  0
ARC
  5
31D
100
AcDbEntity
  8
7
  6
CONTINUOUS
 62
           7
100
AcDbCircle
 10
87.300000000001
 20
3409.041133999999
 40
2.0
100
AcDbArc
 50
180.0
 51
-124.999999999997
  0
ARC
  5
31C
100
AcDbEntity
  8
7
  6
CONTINUOUS
 62
           7
100
AcDbCircle
 10
107.923187000001
 20
3392.5
 40
2.000000000001
100
AcDbArc
 50
-124.999999999984
 51
-90.0
  0
ARC
  5
31B
100
AcDbEntity
  8
7
  6
CONTINUOUS
 62
           7
100
AcDbCircle
 10
108.800000000001
 20
3387.299999999998
 40
3.2
100
AcDbArc
 50
0.0
 51
90.0
  0
ARC
  5
31A
100
AcDbEntity
  8
7
  6
CONTINUOUS
 62
           7
100
AcDbCircle
 10
4416.296180490568
 20
3387.111356999998
 40
6.200000000001
100
AcDbArc
 50
0.0
 51
57.318084999988
  0
ARC
  5
319
100
AcDbEntity
  8
7
  6
CONTINUOUS
 62
           7
100
AcDbCircle
 10
4395.096180490569
 20
3408.799999999998
 40
3.199999999999
100
AcDbArc
 50
0.0
 51
90.0
  0
ARC
  5
318
100
AcDbEntity
  8
7
  6
CONTINUOUS
 62
           7
100
AcDbCircle
 10
4400.296180490568
 20
3409.041133999996
 40
2.0
100
AcDbArc
 50
180.0
 51
-125.000000000032
  0
ARC
  5
317
100
AcDbEntity
  8
7
  6
CONTINUOUS
 62
           7
100
AcDbCircle
 10
4228.396180490568
 20
3408.799999999998
 40
3.200000000003
100
AcDbArc
 50
90.0
 51
180.0
  0
ARC
  5
316
100
AcDbEntity
  8
7
  6
CONTINUOUS
 62
           7
100
AcDbCircle
 10
4223.196180490569
 20
3409.041133999996
 40
1.999999999997
100
AcDbArc
 50
-54.999999999925
 51
0.0
  0
ARC
  5
315
100
AcDbEntity
  8
7
  6
CONTINUOUS
 62
           7
100
AcDbCircle
 10
4202.572993490569
 20
3392.500000000001
 40
2.0
100
AcDbArc
 50
-90.0
 51
-55.000000000117
  0
ARC
  5
314
100
AcDbEntity
  8
7
  6
CONTINUOUS
 62
           7
100
AcDbCircle
 10
4201.696180490569
 20
3387.299999999998
 40
3.200000000003
100
AcDbArc
 50
90.0
 51
180.0
  0
ARC
  5
313
100
AcDbEntity
  8
1
  6
CONTINUOUS
 62
           7
100
AcDbCircle
 10
0.0
 20
5858.465598018149
 40
125.0
100
AcDbArc
 50
19.47546158221
 51
90.0
  0
ARC
  5
312
100
AcDbEntity
  8
1
  6
CONTINUOUS
 62
           7
100
AcDbCircle
 10
0.0
 20
5858.465598018149
 40
125.0
100
AcDbArc
 50
90.0
 51
-19.47546158221
  0
ARC
  5
311
100
AcDbEntity
  8
1
  6
CONTINUOUS
 62
           7
100
AcDbCircle
 10
55.000000000001
 20
5843.465598018147
 40
360.0
100
AcDbArc
 50
-1.498629881627
 51
0.0
  0
ARC
  5
310
100
AcDbEntity
  8
1
  6
CONTINUOUS
 62
           7
100
AcDbCircle
 10
160.551161566789
 20
6187.644261348549
 40
5.0
100
AcDbArc
 50
163.348397297227
 51
-17.447383814438
  0
ARC
  5
30F
100
AcDbEntity
  8
1
  6
CONTINUOUS
 62
           7
100
AcDbCircle
 10
55.000000000001
 20
5843.465598018147
 40
360.0
100
AcDbArc
 50
18.095065654746
 51
72.15472562971
  0
ARC
  5
30E
100
AcDbEntity
  8
1
  6
CONTINUOUS
 62
           7
100
AcDbCircle
 10
55.000000000001
 20
5843.465598018147
 40
360.000000000001
100
AcDbArc
 50
0.0
 51
16.503503431389
  0
ARC
  5
30D
100
AcDbEntity
  8
1
  6
CONTINUOUS
 62
           7
100
AcDbCircle
 10
398.715224597902
 20
5950.516260695287
 40
5.000000000001
100
AcDbArc
 50
107.697175098902
 51
-73.098606012759
  0
ARC
  5
30C
100
AcDbEntity
  8
1
  6
CONTINUOUS
 62
           7
100
AcDbCircle
 10
413.419036500113
 20
5785.568667544681
 40
5.0
100
AcDbArc
 50
90.0
 51
-95.092511460493
  0
ARC
  5
30B
100
AcDbEntity
  8
1
  6
CONTINUOUS
 62
           7
100
AcDbCircle
 10
413.419036500113
 20
5785.568667544681
 40
5.0
100
AcDbArc
 50
85.537115658273
 51
90.0
  0
ARC
  5
30A
100
AcDbEntity
  8
1
  6
CONTINUOUS
 62
           7
100
AcDbCircle
 10
-39.999999999997
 20
5823.465598018147
 40
455.0
100
AcDbArc
 50
-90.0
 51
-5.407325019864
  0
ARC
  5
309
100
AcDbEntity
  8
1
  6
CONTINUOUS
 62
           7
100
AcDbCircle
 10
-39.999999999997
 20
5908.465598018147
 40
540.0
100
AcDbArc
 50
180.0
 51
-175.217743666855
  0
ARC
  5
308
100
AcDbEntity
  8
1
  6
CONTINUOUS
 62
           7
100
AcDbCircle
 10
-577.680202350801
 20
5858.465598018149
 40
5.000000000001
100
AcDbArc
 50
-84.421966108667
 51
90.0
  0
ARC
  5
307
100
AcDbEntity
  8
1
  6
CONTINUOUS
 62
           7
100
AcDbCircle
 10
-577.680202350801
 20
5858.465598018149
 40
5.0
100
AcDbArc
 50
90.0
 51
95.047515519197
  0
ARC
  5
306
100
AcDbEntity
  8
1
  6
CONTINUOUS
 62
           7
100
AcDbCircle
 10
-39.999999999997
 20
5908.465598018147
 40
540.000000000001
100
AcDbArc
 50
-174.156706922602
 51
-90.0
  0
ARC
  5
305
100
AcDbEntity
  8
1
  6
CONTINUOUS
 62
           7
100
AcDbCircle
 10
55.000000000001
 20
5843.465598018147
 40
360.0
100
AcDbArc
 50
73.746287853067
 51
93.901683355293
  0
ARC
  5
304
100
AcDbEntity
  8
1
  6
CONTINUOUS
 62
           7
100
AcDbCircle
 10
-39.999999999997
 20
5823.465598018147
 40
454.999999999998
100
AcDbArc
 50
-4.148070782362
 51
1.333022116547
  0
ARC
  5
303
100
AcDbEntity
  8
1
  6
CONTINUOUS
 62
           7
100
AcDbCircle
 10
3602.496180490569
 20
1756.750000000002
 40
17.0
100
AcDbArc
 50
180.0
 51
-90.0
  0
ARC
  5
302
100
AcDbEntity
  8
1
  6
CONTINUOUS
 62
           7
100
AcDbCircle
 10
3602.496180490569
 20
1756.750000000002
 40
37.0
100
AcDbArc
 50
180.0
 51
-90.0
  0
LINE
  5
301
100
AcDbEntity
  8
1
  6
CONTINUOUS
 62
           3
100
AcDbLine
 10
514.395796321875
 20
1294.328109327065
 11
512.007850321894
 21
1267.070985327065
  0
LINE
  5
300
100
AcDbEntity
  8
1
  6
CONTINUOUS
 62
           3
100
AcDbLine
 10
512.007850321894
 20
1323.330711327066
 11
514.395796321875
 21
1296.073587327066
  0
LINE
  5
2FF
100
AcDbEntity
  8
1
  6
CONTINUOUS
 62
           3
100
AcDbLine
 10
502.548714321875
 20
1294.328109327065
 11
504.936660321885
 21
1267.070985327065
  0
LINE
  5
2FE
100
AcDbEntity
  8
1
  6
CONTINUOUS
 62
           3
100
AcDbLine
 10
504.936660321885
 20
1323.330711327066
 11
502.548714321875
 21
1296.073587327066
  0
LINE
  5
2FD
100
AcDbEntity
  8
1
  6
DOT_CENTER
 62
           3
100
AcDbLine
 10
553.472255321879
 20
1295.200848327056
 11
463.474800321875
 21
1295.200848327056
  0
LINE
  5
2FC
100
AcDbEntity
  8
1
  6
DOT_CENTER
 62
           3
100
AcDbLine
 10
508.472255321878
 20
1340.200848327056
 11
508.472255321878
 21
1250.202277327056
  0
LINE
  5
2FB
100
AcDbEntity
  8
1
  6
CONTINUOUS
 62
           3
100
AcDbLine
 10
4120.659748181607
 20
1935.969655114605
 11
4114.985708158796
 21
1932.693746580042
  0
LINE
  5
2FA
100
AcDbEntity
  8
1
  6
CONTINUOUS
 62
           3
100
AcDbLine
 10
4130.159748181607
 20
1930.484827557304
 11
4120.659748181607
 21
1935.969655114605
  0
LINE
  5
2F9
100
AcDbEntity
  8
1
  6
CONTINUOUS
 62
           3
100
AcDbLine
 10
4130.159748181607
 20
1919.515172442701
 11
4130.159748181607
 21
1930.484827557304
  0
LINE
  5
2F8
100
AcDbEntity
  8
1
  6
CONTINUOUS
 62
           3
100
AcDbLine
 10
4120.659748181607
 20
1914.030344885399
 11
4130.159748181607
 21
1919.515172442701
  0
LINE
  5
2F7
100
AcDbEntity
  8
1
  6
CONTINUOUS
 62
           3
100
AcDbLine
 10
4114.985708158796
 20
1917.306253419962
 11
4120.659748181607
 21
1914.030344885399
  0
LINE
  5
2F6
100
AcDbEntity
  8
1
  6
DOT_CENTER
 62
           3
100
AcDbLine
 10
4096.714700049191
 20
1925.000000000002
 11
4138.163875753015
 21
1925.000000000002
  0
LINE
  5
2F5
100
AcDbEntity
  8
1
  6
CONTINUOUS
 62
           3
100
AcDbLine
 10
4109.885395362509
 20
1916.750000000002
 11
4109.885395362509
 21
1917.306253419962
  0
LINE
  5
2F4
100
AcDbEntity
  8
1
  6
CONTINUOUS
 62
           3
100
AcDbLine
 10
4109.885395362509
 20
1916.750000000002
 11
4100.210784397213
 21
1916.750000000002
  0
LINE
  5
2F3
100
AcDbEntity
  8
1
  6
CONTINUOUS
 62
           3
100
AcDbLine
 10
4100.210784397213
 20
1916.750000000002
 11
4100.210784397213
 21
1925.000000000002
  0
LINE
  5
2F2
100
AcDbEntity
  8
1
  6
CONTINUOUS
 62
           3
100
AcDbLine
 10
4100.210784397213
 20
1919.000000000002
 11
4099.364978875033
 21
1919.000000000002
  0
LINE
  5
2F1
100
AcDbEntity
  8
1
  6
CONTINUOUS
 62
           3
100
AcDbLine
 10
4099.364978875033
 20
1917.306253419962
 11
4099.364978875033
 21
1925.000000000002
  0
LINE
  5
2F0
100
AcDbEntity
  8
1
  6
CONTINUOUS
 62
           3
100
AcDbLine
 10
4099.364978875033
 20
1917.306253419962
 11
4098.659748181607
 21
1917.306253419962
  0
LINE
  5
2EF
100
AcDbEntity
  8
1
  6
CONTINUOUS
 62
           3
100
AcDbLine
 10
4098.159748181607
 20
1925.000000000002
 11
4098.159748181607
 21
1917.806253419962
  0
LINE
  5
2EE
100
AcDbEntity
  8
1
  6
CONTINUOUS
 62
           3
100
AcDbLine
 10
4098.159748181607
 20
1932.193746580042
 11
4098.159748181607
 21
1925.000000000002
  0
LINE
  5
2ED
100
AcDbEntity
  8
1
  6
CONTINUOUS
 62
           3
100
AcDbLine
 10
4098.659748181607
 20
1932.693746580042
 11
4099.364978875033
 21
1932.693746580042
  0
LINE
  5
2EC
100
AcDbEntity
  8
1
  6
CONTINUOUS
 62
           3
100
AcDbLine
 10
4099.364978875033
 20
1925.000000000002
 11
4099.364978875033
 21
1932.693746580042
  0
LINE
  5
2EB
100
AcDbEntity
  8
1
  6
CONTINUOUS
 62
           3
100
AcDbLine
 10
4099.364978875033
 20
1931.000000000002
 11
4100.210784397213
 21
1931.000000000002
  0
LINE
  5
2EA
100
AcDbEntity
  8
1
  6
CONTINUOUS
 62
           3
100
AcDbLine
 10
4100.210784397213
 20
1933.250000000002
 11
4109.885395362509
 21
1933.250000000002
  0
LINE
  5
2E9
100
AcDbEntity
  8
1
  6
CONTINUOUS
 62
           3
100
AcDbLine
 10
4100.210784397213
 20
1925.000000000002
 11
4100.210784397213
 21
1933.250000000002
  0
LINE
  5
2E8
100
AcDbEntity
  8
1
  6
CONTINUOUS
 62
           3
100
AcDbLine
 10
4109.885395362509
 20
1932.693746580042
 11
4109.885395362509
 21
1933.250000000002
  0
LINE
  5
2E7
100
AcDbEntity
  8
1
  6
CONTINUOUS
 62
           3
100
AcDbLine
 10
4109.885395362509
 20
1917.306253419962
 11
4109.885395362509
 21
1932.693746580042
  0
LINE
  5
2E6
100
AcDbEntity
  8
1
  6
CONTINUOUS
 62
           3
100
AcDbLine
 10
4115.750510909195
 20
1917.306253419962
 11
4115.750510909195
 21
1932.693746580042
  0
LINE
  5
2E5
100
AcDbEntity
  8
1
  6
CONTINUOUS
 62
           3
100
AcDbLine
 10
4115.750510909195
 20
1917.306253419962
 11
4109.885395362509
 21
1917.306253419962
  0
LINE
  5
2E4
100
AcDbEntity
  8
1
  6
CONTINUOUS
 62
           3
100
AcDbLine
 10
4115.750510909195
 20
1932.693746580042
 11
4109.885395362509
 21
1932.693746580042
  0
LINE
  5
2E3
100
AcDbEntity
  8
1
  6
CONTINUOUS
 62
           3
100
AcDbLine
 10
4115.750510909195
 20
1930.871834995071
 11
4120.659748181607
 21
1930.871834995071
  0
LINE
  5
2E2
100
AcDbEntity
  8
1
  6
DOT_CENTER
 62
           3
100
AcDbLine
 10
4120.659748181607
 20
1938.643555804876
 11
4120.659748181607
 21
1907.508008255127
  0
LINE
  5
2E1
100
AcDbEntity
  8
1
  6
CONTINUOUS
 62
           3
100
AcDbLine
 10
4120.659748181607
 20
1919.128165004936
 11
4115.750510909195
 21
1919.128165004936
  0
LINE
  5
2E0
100
AcDbEntity
  8
0
  6
CONTINUOUS
 62
           3
100
AcDbLine
 10
3615.340903984738
 20
1393.116392195194
 11
3616.396177212238
 21
1393.131740391395
  0
LINE
  5
2DF
100
AcDbEntity
  8
0
  6
CONTINUOUS
 62
           3
100
AcDbLine
 10
3614.399985993839
 20
1393.072016537195
 11
3615.340903984738
 21
1393.116392195194
  0
LINE
  5
2DE
100
AcDbEntity
  8
0
  6
CONTINUOUS
 62
           3
100
AcDbLine
 10
3613.675386064141
 20
1393.003411590993
 11
3614.399985993839
 21
1393.072016537195
  0
LINE
  5
2DD
100
AcDbEntity
  8
0
  6
CONTINUOUS
 62
           3
100
AcDbLine
 10
3613.245626330941
 20
1392.918020486794
 11
3613.675386064141
 21
1393.003411590993
  0
LINE
  5
2DC
100
AcDbEntity
  8
0
  6
CONTINUOUS
 62
           3
100
AcDbLine
 10
3613.15727757894
 20
1392.825089394994
 11
3613.245626330941
 21
1392.918020486794
  0
LINE
  5
2DB
100
AcDbEntity
  8
0
  6
CONTINUOUS
 62
           3
100
AcDbLine
 10
3613.39617718614
 20
1392.739541828794
 11
3613.15727757894
 21
1392.825089394994
  0
LINE
  5
2DA
100
AcDbEntity
  8
0
  6
CONTINUOUS
 62
           3
100
AcDbLine
 10
3619.635076845535
 20
1392.825089394994
 11
3619.396177238335
 21
1392.739541828794
  0
LINE
  5
2D9
100
AcDbEntity
  8
0
  6
CONTINUOUS
 62
           3
100
AcDbLine
 10
3619.546728093535
 20
1392.918020486794
 11
3619.635076845535
 21
1392.825089394994
  0
LINE
  5
2D8
100
AcDbEntity
  8
0
  6
CONTINUOUS
 62
           3
100
AcDbLine
 10
3619.116968360338
 20
1393.003411590993
 11
3619.546728093535
 21
1392.918020486794
  0
LINE
  5
2D7
100
AcDbEntity
  8
0
  6
CONTINUOUS
 62
           3
100
AcDbLine
 10
3618.392368430637
 20
1393.072016537195
 11
3619.116968360338
 21
1393.003411590993
  0
LINE
  5
2D6
100
AcDbEntity
  8
0
  6
CONTINUOUS
 62
           3
100
AcDbLine
 10
3617.451450439738
 20
1393.116392195194
 11
3618.392368430637
 21
1393.072016537195
  0
LINE
  5
2D5
100
AcDbEntity
  8
0
  6
CONTINUOUS
 62
           3
100
AcDbLine
 10
3616.396177212238
 20
1393.131740391395
 11
3617.451450439738
 21
1393.116392195194
  0
LINE
  5
2D4
100
AcDbEntity
  8
FORMAT
  6
CONTINUOUS
 62
           3
100
AcDbLine
 10
3612.896177212141
 20
1392.596845102895
 11
3602.396177212147
 21
1392.596845102895
  0
LINE
  5
2D3
100
AcDbEntity
  8
FORMAT
  6
DOT_CENTER
 62
           3
100
AcDbLine
 10
3616.396177212238
 20
1249.759397252256
 11
3616.396177212238
 21
1725.394390768571
  0
LINE
  5
2D2
100
AcDbEntity
  8
FORMAT
  6
CONTINUOUS
 62
           3
100
AcDbLine
 10
3619.896177212334
 20
1392.596845102895
 11
3612.896177212141
 21
1392.596845102895
  0
LINE
  5
2D1
100
AcDbEntity
  8
FORMAT
  6
CONTINUOUS
 62
           3
100
AcDbLine
 10
3630.396177212328
 20
1392.596845102895
 11
3619.896177212334
 21
1392.596845102895
  0
LINE
  5
2D0
100
AcDbEntity
  8
FORMAT
  6
DOT_CENTER
 62
           3
100
AcDbLine
 10
3541.496177212202
 20
1375.000000000009
 11
3527.896177212308
 21
1375.000000000009
  0
LINE
  5
2CF
100
AcDbEntity
  8
FORMAT
  6
DOT_CENTER
 62
           3
100
AcDbLine
 10
3541.496177212202
 20
1625.000000000002
 11
3527.896177212308
 21
1625.000000000002
  0
LINE
  5
2CE
100
AcDbEntity
  8
0
  6
CONTINUOUS
 62
           3
100
AcDbLine
 10
3551.396179596592
 20
1364.999994635817
 11
3535.996179679803
 21
1364.999994635817
  0
LINE
  5
2CD
100
AcDbEntity
  8
0
  6
CONTINUOUS
 62
           3
100
AcDbLine
 10
3554.896175513687
 20
1590.000003576233
 11
3554.896175513687
 21
1509.999999776397
  0
LINE
  5
2CC
100
AcDbEntity
  8
0
  6
CONTINUOUS
 62
           3
100
AcDbLine
 10
3557.896177868085
 20
1590.000003576233
 11
3554.896175513687
 21
1590.000003576233
  0
LINE
  5
2CB
100
AcDbEntity
  8
0
  6
CONTINUOUS
 62
           3
100
AcDbLine
 10
3557.896177868085
 20
1550.000000744964
 11
3557.896177868085
 21
1590.000003576233
  0
LINE
  5
2CA
100
AcDbEntity
  8
0
  6
CONTINUOUS
 62
           3
100
AcDbLine
 10
3557.896177868085
 20
1529.999999329481
 11
3557.896177868085
 21
1532.00000151988
  0
LINE
  5
2C9
100
AcDbEntity
  8
0
  6
CONTINUOUS
 62
           3
100
AcDbLine
 10
3554.896175513687
 20
1509.999999776397
 11
3556.471369812888
 21
1509.999999776397
  0
LINE
  5
2C8
100
AcDbEntity
  8
0
  6
CONTINUOUS
 62
           3
100
AcDbLine
 10
3676.396175871189
 20
1368.000000715316
 11
3676.396175871189
 21
1367.300003767016
  0
LINE
  5
2C7
100
AcDbEntity
  8
0
  6
CONTINUOUS
 62
           3
100
AcDbLine
 10
3681.396174827883
 20
1364.999994635817
 11
3681.396174827883
 21
1368.000000715316
  0
LINE
  5
2C6
100
AcDbEntity
  8
0
  6
CONTINUOUS
 62
           3
100
AcDbLine
 10
3681.396174827883
 20
1635.000005364198
 11
3681.396174827883
 21
1631.999999284699
  0
LINE
  5
2C5
100
AcDbEntity
  8
0
  6
CONTINUOUS
 62
           3
100
AcDbLine
 10
3676.396175871189
 20
1631.999999284699
 11
3676.396175871189
 21
1632.699996232997
  0
LINE
  5
2C4
100
AcDbEntity
  8
0
  6
CONTINUOUS
 62
           3
100
AcDbLine
 10
3556.396178553287
 20
1631.999999284699
 11
3556.396178553287
 21
1632.699996232997
  0
LINE
  5
2C3
100
AcDbEntity
  8
0
  6
CONTINUOUS
 62
           3
100
AcDbLine
 10
3551.396179596592
 20
1635.000005364198
 11
3551.396179596592
 21
1631.999999284699
  0
LINE
  5
2C2
100
AcDbEntity
  8
0
  6
CONTINUOUS
 62
           3
100
AcDbLine
 10
3551.396179596592
 20
1635.000005364198
 11
3535.996179679803
 21
1635.000005364198
  0
LINE
  5
2C1
100
AcDbEntity
  8
0
  6
CONTINUOUS
 62
           3
100
AcDbLine
 10
3551.396179596592
 20
1364.999994635817
 11
3551.396179596592
 21
1368.000000715316
  0
LINE
  5
2C0
100
AcDbEntity
  8
0
  6
CONTINUOUS
 62
           3
100
AcDbLine
 10
3556.396178553287
 20
1368.000000715316
 11
3556.396178553287
 21
1367.300003767016
  0
LINE
  5
2BF
100
AcDbEntity
  8
0
  6
CONTINUOUS
 62
           3
100
AcDbLine
 10
3554.896175513687
 20
1409.99999642378
 11
3554.896175513687
 21
1490.000000223614
  0
LINE
  5
2BE
100
AcDbEntity
  8
0
  6
CONTINUOUS
 62
           3
100
AcDbLine
 10
3554.896175513687
 20
1490.000000223614
 11
3556.396178553287
 21
1490.000000223614
  0
LINE
  5
2BD
100
AcDbEntity
  8
0
  6
CONTINUOUS
 62
           3
100
AcDbLine
 10
3557.896177868085
 20
1431.999996304561
 11
3557.896177868085
 21
1429.999999701964
  0
LINE
  5
2BC
100
AcDbEntity
  8
0
  6
CONTINUOUS
 62
           3
100
AcDbLine
 10
3556.471369812888
 20
1409.99999642378
 11
3554.896175513687
 21
1409.99999642378
  0
LINE
  5
2BB
100
AcDbEntity
  8
0
  6
CONTINUOUS
 62
           3
100
AcDbLine
 10
3677.896178910784
 20
1590.000003576233
 11
3677.896178910784
 21
1509.999999776397
  0
LINE
  5
2BA
100
AcDbEntity
  8
0
  6
CONTINUOUS
 62
           3
100
AcDbLine
 10
3677.896178910784
 20
1509.999999776397
 11
3676.320984611591
 21
1509.999999776397
  0
LINE
  5
2B9
100
AcDbEntity
  8
0
  6
CONTINUOUS
 62
           3
100
AcDbLine
 10
3674.89617655669
 20
1550.000000744964
 11
3674.89617655669
 21
1590.000003576233
  0
LINE
  5
2B8
100
AcDbEntity
  8
0
  6
CONTINUOUS
 62
           3
100
AcDbLine
 10
3674.89617655669
 20
1529.999999329481
 11
3674.89617655669
 21
1532.00000151988
  0
LINE
  5
2B7
100
AcDbEntity
  8
0
  6
CONTINUOUS
 62
           3
100
AcDbLine
 10
3674.89617655669
 20
1590.000003576233
 11
3677.896178910784
 21
1590.000003576233
  0
LINE
  5
2B6
100
AcDbEntity
  8
0
  6
CONTINUOUS
 62
           3
100
AcDbLine
 10
3677.896178910784
 20
1409.99999642378
 11
3677.896178910784
 21
1490.000000223614
  0
LINE
  5
2B5
100
AcDbEntity
  8
0
  6
CONTINUOUS
 62
           3
100
AcDbLine
 10
3676.320984611591
 20
1409.99999642378
 11
3677.896178910784
 21
1409.99999642378
  0
LINE
  5
2B4
100
AcDbEntity
  8
0
  6
CONTINUOUS
 62
           3
100
AcDbLine
 10
3674.89617655669
 20
1431.999996304561
 11
3674.89617655669
 21
1429.999999701964
  0
LINE
  5
2B3
100
AcDbEntity
  8
0
  6
CONTINUOUS
 62
           3
100
AcDbLine
 10
3677.896178910784
 20
1490.000000223614
 11
3676.396175871189
 21
1490.000000223614
  0
LINE
  5
2B2
100
AcDbEntity
  8
0
  6
CONTINUOUS
 62
           3
100
AcDbLine
 10
3535.996179679803
 20
1635.000005364198
 11
3533.896173933907
 21
1635.000005364198
  0
LINE
  5
2B1
100
AcDbEntity
  8
0
  6
CONTINUOUS
 62
           3
100
AcDbLine
 10
3533.896173933907
 20
1635.000005364198
 11
3533.896173933907
 21
1364.999994635817
  0
LINE
  5
2B0
100
AcDbEntity
  8
0
  6
CONTINUOUS
 62
           3
100
AcDbLine
 10
3535.996179679803
 20
1364.999994635817
 11
3533.896173933907
 21
1364.999994635817
  0
LINE
  5
2AF
100
AcDbEntity
  8
0
  6
CONTINUOUS
 62
           3
100
AcDbLine
 10
3556.396178553287
 20
1366.600006818715
 11
3556.396178553287
 21
1367.300003767016
  0
LINE
  5
2AE
100
AcDbEntity
  8
0
  6
CONTINUOUS
 62
           3
100
AcDbLine
 10
3676.396175871189
 20
1366.600006818715
 11
3676.396175871189
 21
1367.300003767016
  0
LINE
  5
2AD
100
AcDbEntity
  8
0
  6
CONTINUOUS
 62
           3
100
AcDbLine
 10
3556.396178553287
 20
1633.399993180998
 11
3556.396178553287
 21
1632.699996232997
  0
LINE
  5
2AC
100
AcDbEntity
  8
0
  6
CONTINUOUS
 62
           3
100
AcDbLine
 10
3676.396175871189
 20
1633.399993180998
 11
3676.396175871189
 21
1632.699996232997
  0
LINE
  5
2AB
100
AcDbEntity
  8
0
  6
CONTINUOUS
 62
           3
100
AcDbLine
 10
3671.396176914192
 20
1633.399993180998
 11
3676.396175871189
 21
1633.399993180998
  0
LINE
  5
2AA
100
AcDbEntity
  8
0
  6
CONTINUOUS
 62
           3
100
AcDbLine
 10
3676.396175871189
 20
1635.000005364198
 11
3671.396176914192
 21
1635.000005364198
  0
LINE
  5
2A9
100
AcDbEntity
  8
0
  6
CONTINUOUS
 62
           3
100
AcDbLine
 10
3676.396175871189
 20
1633.399993180998
 11
3676.396175871189
 21
1635.000005364198
  0
LINE
  5
2A8
100
AcDbEntity
  8
0
  6
CONTINUOUS
 62
           3
100
AcDbLine
 10
3671.396176914192
 20
1366.600006818715
 11
3676.396175871189
 21
1366.600006818715
  0
LINE
  5
2A7
100
AcDbEntity
  8
0
  6
CONTINUOUS
 62
           3
100
AcDbLine
 10
3676.396175871189
 20
1364.999994635817
 11
3671.396176914192
 21
1364.999994635817
  0
LINE
  5
2A6
100
AcDbEntity
  8
0
  6
CONTINUOUS
 62
           3
100
AcDbLine
 10
3676.396175871189
 20
1366.600006818715
 11
3676.396175871189
 21
1364.999994635817
  0
LINE
  5
2A5
100
AcDbEntity
  8
0
  6
CONTINUOUS
 62
           3
100
AcDbLine
 10
3661.3961790002
 20
1366.600006818715
 11
3663.396175602798
 21
1366.600006818715
  0
LINE
  5
2A4
100
AcDbEntity
  8
0
  6
CONTINUOUS
 62
           3
100
AcDbLine
 10
3663.396175602798
 20
1364.999994635817
 11
3661.3961790002
 21
1364.999994635817
  0
LINE
  5
2A3
100
AcDbEntity
  8
0
  6
CONTINUOUS
 62
           3
100
AcDbLine
 10
3663.396175602798
 20
1366.600006818715
 11
3663.396175602798
 21
1364.999994635817
  0
LINE
  5
2A2
100
AcDbEntity
  8
0
  6
CONTINUOUS
 62
           3
100
AcDbLine
 10
3661.3961790002
 20
1633.399993180998
 11
3663.396175602798
 21
1633.399993180998
  0
LINE
  5
2A1
100
AcDbEntity
  8
0
  6
CONTINUOUS
 62
           3
100
AcDbLine
 10
3663.396175602798
 20
1635.000005364198
 11
3661.3961790002
 21
1635.000005364198
  0
LINE
  5
2A0
100
AcDbEntity
  8
0
  6
CONTINUOUS
 62
           3
100
AcDbLine
 10
3663.396175602798
 20
1633.399993180998
 11
3663.396175602798
 21
1635.000005364198
  0
LINE
  5
29F
100
AcDbEntity
  8
0
  6
CONTINUOUS
 62
           3
100
AcDbLine
 10
3669.396176586492
 20
1366.600006818715
 11
3671.396176914192
 21
1366.600006818715
  0
LINE
  5
29E
100
AcDbEntity
  8
0
  6
CONTINUOUS
 62
           3
100
AcDbLine
 10
3671.396176914192
 20
1364.999994635817
 11
3669.396176586492
 21
1364.999994635817
  0
LINE
  5
29D
100
AcDbEntity
  8
0
  6
CONTINUOUS
 62
           3
100
AcDbLine
 10
3669.396176586492
 20
1364.999994635817
 11
3669.396176586492
 21
1366.600006818715
  0
LINE
  5
29C
100
AcDbEntity
  8
0
  6
CONTINUOUS
 62
           3
100
AcDbLine
 10
3669.396176586492
 20
1633.399993180998
 11
3671.396176914192
 21
1633.399993180998
  0
LINE
  5
29B
100
AcDbEntity
  8
0
  6
CONTINUOUS
 62
           3
100
AcDbLine
 10
3671.396176914192
 20
1635.000005364198
 11
3669.396176586492
 21
1635.000005364198
  0
LINE
  5
29A
100
AcDbEntity
  8
0
  6
CONTINUOUS
 62
           3
100
AcDbLine
 10
3669.396176586492
 20
1635.000005364198
 11
3669.396176586492
 21
1633.399993180998
  0
LINE
  5
299
100
AcDbEntity
  8
0
  6
CONTINUOUS
 62
           3
100
AcDbLine
 10
3561.396177510284
 20
1633.399993180998
 11
3556.396178553287
 21
1633.399993180998
  0
LINE
  5
298
100
AcDbEntity
  8
0
  6
CONTINUOUS
 62
           3
100
AcDbLine
 10
3556.396178553287
 20
1635.000005364198
 11
3561.396177510284
 21
1635.000005364198
  0
LINE
  5
297
100
AcDbEntity
  8
0
  6
CONTINUOUS
 62
           3
100
AcDbLine
 10
3556.396178553287
 20
1633.399993180998
 11
3556.396178553287
 21
1635.000005364198
  0
LINE
  5
296
100
AcDbEntity
  8
0
  6
CONTINUOUS
 62
           3
100
AcDbLine
 10
3561.396177510284
 20
1366.600006818715
 11
3556.396178553287
 21
1366.600006818715
  0
LINE
  5
295
100
AcDbEntity
  8
0
  6
CONTINUOUS
 62
           3
100
AcDbLine
 10
3556.396178553287
 20
1364.999994635817
 11
3561.396177510284
 21
1364.999994635817
  0
LINE
  5
294
100
AcDbEntity
  8
0
  6
CONTINUOUS
 62
           3
100
AcDbLine
 10
3556.396178553287
 20
1366.600006818715
 11
3556.396178553287
 21
1364.999994635817
  0
LINE
  5
293
100
AcDbEntity
  8
0
  6
CONTINUOUS
 62
           3
100
AcDbLine
 10
3571.396175424276
 20
1633.399993180998
 11
3661.3961790002
 21
1633.399993180998
  0
LINE
  5
292
100
AcDbEntity
  8
0
  6
CONTINUOUS
 62
           3
100
AcDbLine
 10
3571.396175424276
 20
1635.000005364198
 11
3661.3961790002
 21
1635.000005364198
  0
LINE
  5
291
100
AcDbEntity
  8
0
  6
CONTINUOUS
 62
           3
100
AcDbLine
 10
3571.396175424276
 20
1366.600006818715
 11
3661.3961790002
 21
1366.600006818715
  0
LINE
  5
290
100
AcDbEntity
  8
0
  6
CONTINUOUS
 62
           3
100
AcDbLine
 10
3571.396175424276
 20
1364.999994635817
 11
3661.3961790002
 21
1364.999994635817
  0
LINE
  5
28F
100
AcDbEntity
  8
0
  6
CONTINUOUS
 62
           3
100
AcDbLine
 10
3571.396175424276
 20
1366.600006818715
 11
3569.396178821678
 21
1366.600006818715
  0
LINE
  5
28E
100
AcDbEntity
  8
0
  6
CONTINUOUS
 62
           3
100
AcDbLine
 10
3569.396178821678
 20
1366.600006818715
 11
3569.396178821678
 21
1364.999994635817
  0
LINE
  5
28D
100
AcDbEntity
  8
0
  6
CONTINUOUS
 62
           3
100
AcDbLine
 10
3569.396178821678
 20
1364.999994635817
 11
3571.396175424276
 21
1364.999994635817
  0
LINE
  5
28C
100
AcDbEntity
  8
0
  6
CONTINUOUS
 62
           3
100
AcDbLine
 10
3571.396175424276
 20
1633.399993180998
 11
3569.396178821678
 21
1633.399993180998
  0
LINE
  5
28B
100
AcDbEntity
  8
0
  6
CONTINUOUS
 62
           3
100
AcDbLine
 10
3569.396178821678
 20
1635.000005364198
 11
3571.396175424276
 21
1635.000005364198
  0
LINE
  5
28A
100
AcDbEntity
  8
0
  6
CONTINUOUS
 62
           3
100
AcDbLine
 10
3569.396178821678
 20
1633.399993180998
 11
3569.396178821678
 21
1635.000005364198
  0
LINE
  5
289
100
AcDbEntity
  8
0
  6
CONTINUOUS
 62
           3
100
AcDbLine
 10
3563.396177838281
 20
1633.399993180998
 11
3561.396177510284
 21
1633.399993180998
  0
LINE
  5
288
100
AcDbEntity
  8
0
  6
CONTINUOUS
 62
           3
100
AcDbLine
 10
3563.396177838281
 20
1635.000005364198
 11
3563.396177838281
 21
1633.399993180998
  0
LINE
  5
287
100
AcDbEntity
  8
0
  6
CONTINUOUS
 62
           3
100
AcDbLine
 10
3561.396177510284
 20
1635.000005364198
 11
3563.396177838281
 21
1635.000005364198
  0
LINE
  5
286
100
AcDbEntity
  8
0
  6
CONTINUOUS
 62
           3
100
AcDbLine
 10
3563.396177838281
 20
1366.600006818715
 11
3561.396177510284
 21
1366.600006818715
  0
LINE
  5
285
100
AcDbEntity
  8
0
  6
CONTINUOUS
 62
           3
100
AcDbLine
 10
3561.396177510284
 20
1364.999994635817
 11
3563.396177838281
 21
1364.999994635817
  0
LINE
  5
284
100
AcDbEntity
  8
0
  6
CONTINUOUS
 62
           3
100
AcDbLine
 10
3563.396177838281
 20
1364.999994635817
 11
3563.396177838281
 21
1366.600006818715
  0
LINE
  5
283
100
AcDbEntity
  8
0
  6
CONTINUOUS
 62
           3
100
AcDbLine
 10
3676.320984611591
 20
1409.99999642378
 11
3674.696176896187
 21
1409.99999642378
  0
LINE
  5
282
100
AcDbEntity
  8
0
  6
CONTINUOUS
 62
           3
100
AcDbLine
 10
3674.696176896187
 20
1429.999999701964
 11
3676.396175871189
 21
1429.999999701964
  0
LINE
  5
281
100
AcDbEntity
  8
0
  6
CONTINUOUS
 62
           3
100
AcDbLine
 10
3676.396175871189
 20
1429.999999701964
 11
3676.396175871189
 21
1409.99999642378
  0
LINE
  5
280
100
AcDbEntity
  8
0
  6
CONTINUOUS
 62
           3
100
AcDbLine
 10
3556.396178553287
 20
1529.999999329481
 11
3558.096177528288
 21
1529.999999329481
  0
LINE
  5
27F
100
AcDbEntity
  8
0
  6
CONTINUOUS
 62
           3
100
AcDbLine
 10
3556.396178553287
 20
1509.999999776397
 11
3556.396178553287
 21
1529.999999329481
  0
LINE
  5
27E
100
AcDbEntity
  8
0
  6
CONTINUOUS
 62
           3
100
AcDbLine
 10
3558.096177528288
 20
1509.999999776397
 11
3556.471369812888
 21
1509.999999776397
  0
LINE
  5
27D
100
AcDbEntity
  8
0
  6
CONTINUOUS
 62
           3
100
AcDbLine
 10
3556.471369812888
 20
1409.99999642378
 11
3558.096177528288
 21
1409.99999642378
  0
LINE
  5
27C
100
AcDbEntity
  8
0
  6
CONTINUOUS
 62
           3
100
AcDbLine
 10
3558.096177528288
 20
1429.999999701964
 11
3556.396178553287
 21
1429.999999701964
  0
LINE
  5
27B
100
AcDbEntity
  8
0
  6
CONTINUOUS
 62
           3
100
AcDbLine
 10
3556.396178553287
 20
1429.999999701964
 11
3556.396178553287
 21
1409.99999642378
  0
LINE
  5
27A
100
AcDbEntity
  8
0
  6
CONTINUOUS
 62
           3
100
AcDbLine
 10
3558.096177528288
 20
1529.999999329481
 11
3558.396178881288
 21
1529.999999329481
  0
LINE
  5
279
100
AcDbEntity
  8
0
  6
CONTINUOUS
 62
           3
100
AcDbLine
 10
3558.396178881288
 20
1509.999999776397
 11
3558.096177528288
 21
1509.999999776397
  0
LINE
  5
278
100
AcDbEntity
  8
0
  6
CONTINUOUS
 62
           3
100
AcDbLine
 10
3556.396178553287
 20
1508.000000379902
 11
3558.396178881288
 21
1508.000000379902
  0
LINE
  5
277
100
AcDbEntity
  8
0
  6
CONTINUOUS
 62
           3
100
AcDbLine
 10
3556.396178553287
 20
1508.000000379902
 11
3556.396178553287
 21
1431.999996304561
  0
LINE
  5
276
100
AcDbEntity
  8
0
  6
CONTINUOUS
 62
           3
100
AcDbLine
 10
3556.396178553287
 20
1431.999996304561
 11
3558.396178881288
 21
1431.999996304561
  0
LINE
  5
275
100
AcDbEntity
  8
0
  6
CONTINUOUS
 62
           3
100
AcDbLine
 10
3558.396178881288
 20
1429.999999701964
 11
3558.096177528288
 21
1429.999999701964
  0
LINE
  5
274
100
AcDbEntity
  8
0
  6
CONTINUOUS
 62
           3
100
AcDbLine
 10
3558.096177528288
 20
1409.99999642378
 11
3558.396178881288
 21
1409.99999642378
  0
LINE
  5
273
100
AcDbEntity
  8
0
  6
CONTINUOUS
 62
           3
100
AcDbLine
 10
3558.396178881288
 20
1407.999999821184
 11
3556.396178553287
 21
1407.999999821184
  0
LINE
  5
272
100
AcDbEntity
  8
0
  6
CONTINUOUS
 62
           3
100
AcDbLine
 10
3556.396178553287
 20
1391.699999570794
 11
3556.396178553287
 21
1407.999999821184
  0
LINE
  5
271
100
AcDbEntity
  8
0
  6
CONTINUOUS
 62
           3
100
AcDbLine
 10
3676.396175871189
 20
1391.699999570794
 11
3676.396175871189
 21
1407.999999821184
  0
LINE
  5
270
100
AcDbEntity
  8
0
  6
CONTINUOUS
 62
           3
100
AcDbLine
 10
3674.396175543191
 20
1407.999999821184
 11
3676.396175871189
 21
1407.999999821184
  0
LINE
  5
26F
100
AcDbEntity
  8
0
  6
CONTINUOUS
 62
           3
100
AcDbLine
 10
3674.696176896187
 20
1409.99999642378
 11
3674.396175543191
 21
1409.99999642378
  0
LINE
  5
26E
100
AcDbEntity
  8
0
  6
CONTINUOUS
 62
           3
100
AcDbLine
 10
3674.396175543191
 20
1429.999999701964
 11
3674.696176896187
 21
1429.999999701964
  0
LINE
  5
26D
100
AcDbEntity
  8
0
  6
CONTINUOUS
 62
           3
100
AcDbLine
 10
3676.396175871189
 20
1431.999996304561
 11
3674.396175543191
 21
1431.999996304561
  0
LINE
  5
26C
100
AcDbEntity
  8
0
  6
CONTINUOUS
 62
           3
100
AcDbLine
 10
3676.396175871189
 20
1508.000000379902
 11
3676.396175871189
 21
1431.999996304561
  0
LINE
  5
26B
100
AcDbEntity
  8
0
  6
CONTINUOUS
 62
           3
100
AcDbLine
 10
3676.396175871189
 20
1508.000000379902
 11
3674.396175543191
 21
1508.000000379902
  0
LINE
  5
26A
100
AcDbEntity
  8
0
  6
CONTINUOUS
 62
           3
100
AcDbLine
 10
3674.396175543191
 20
1509.999999776397
 11
3674.696176896187
 21
1509.999999776397
  0
LINE
  5
269
100
AcDbEntity
  8
0
  6
CONTINUOUS
 62
           3
100
AcDbLine
 10
3674.696176896187
 20
1529.999999329481
 11
3674.396175543191
 21
1529.999999329481
  0
LINE
  5
268
100
AcDbEntity
  8
0
  6
CONTINUOUS
 62
           3
100
AcDbLine
 10
3674.396175543191
 20
1532.00000151988
 11
3676.396175871189
 21
1532.00000151988
  0
LINE
  5
267
100
AcDbEntity
  8
0
  6
CONTINUOUS
 62
           3
100
AcDbLine
 10
3676.396175871189
 20
1548.300001770267
 11
3676.396175871189
 21
1532.00000151988
  0
LINE
  5
266
100
AcDbEntity
  8
0
  6
CONTINUOUS
 62
           3
100
AcDbLine
 10
3556.396178553287
 20
1548.300001770267
 11
3556.396178553287
 21
1532.00000151988
  0
LINE
  5
265
100
AcDbEntity
  8
0
  6
CONTINUOUS
 62
           3
100
AcDbLine
 10
3558.396178881288
 20
1532.00000151988
 11
3556.396178553287
 21
1532.00000151988
  0
LINE
  5
264
100
AcDbEntity
  8
0
  6
CONTINUOUS
 62
           3
100
AcDbLine
 10
3674.696176896187
 20
1509.999999776397
 11
3676.320984611591
 21
1509.999999776397
  0
LINE
  5
263
100
AcDbEntity
  8
0
  6
CONTINUOUS
 62
           3
100
AcDbLine
 10
3676.396175871189
 20
1509.999999776397
 11
3676.396175871189
 21
1529.999999329481
  0
LINE
  5
262
100
AcDbEntity
  8
0
  6
CONTINUOUS
 62
           3
100
AcDbLine
 10
3676.396175871189
 20
1529.999999329481
 11
3674.696176896187
 21
1529.999999329481
  0
LINE
  5
261
100
AcDbEntity
  8
0
  6
CONTINUOUS
 62
           3
100
AcDbLine
 10
3676.396175871189
 20
1548.799999058067
 11
3676.396175871189
 21
1548.300001770267
  0
LINE
  5
260
100
AcDbEntity
  8
0
  6
CONTINUOUS
 62
           3
100
AcDbLine
 10
3556.396178553287
 20
1548.799999058067
 11
3556.396178553287
 21
1548.300001770267
  0
LINE
  5
25F
100
AcDbEntity
  8
0
  6
CONTINUOUS
 62
           3
100
AcDbLine
 10
3556.396178553287
 20
1391.199998557595
 11
3556.396178553287
 21
1391.699999570794
  0
LINE
  5
25E
100
AcDbEntity
  8
0
  6
CONTINUOUS
 62
           3
100
AcDbLine
 10
3676.396175871189
 20
1391.199998557595
 11
3676.396175871189
 21
1391.699999570794
  0
LINE
  5
25D
100
AcDbEntity
  8
0
  6
CONTINUOUS
 62
           3
100
AcDbLine
 10
3619.396177238335
 20
1550.000000744964
 11
3619.646177279336
 21
1550.000000744964
  0
LINE
  5
25C
100
AcDbEntity
  8
0
  6
CONTINUOUS
 62
           3
100
AcDbLine
 10
3613.14617714514
 20
1550.000000744964
 11
3613.39617718614
 21
1550.000000744964
  0
LINE
  5
25B
100
AcDbEntity
  8
0
  6
CONTINUOUS
 62
           3
100
AcDbLine
 10
3619.396177238335
 20
1548.799999058067
 11
3619.646177279336
 21
1548.799999058067
  0
LINE
  5
25A
100
AcDbEntity
  8
0
  6
CONTINUOUS
 62
           3
100
AcDbLine
 10
3613.14617714514
 20
1548.799999058067
 11
3613.39617718614
 21
1548.799999058067
  0
LINE
  5
259
100
AcDbEntity
  8
0
  6
CONTINUOUS
 62
           3
100
AcDbLine
 10
3613.39617718614
 20
1391.199998557595
 11
3613.14617714514
 21
1391.199998557595
  0
LINE
  5
258
100
AcDbEntity
  8
0
  6
CONTINUOUS
 62
           3
100
AcDbLine
 10
3619.646177279336
 20
1391.199998557595
 11
3619.396177238335
 21
1391.199998557595
  0
LINE
  5
257
100
AcDbEntity
  8
0
  6
CONTINUOUS
 62
           3
100
AcDbLine
 10
3561.396177510284
 20
1391.199998557595
 11
3556.396178553287
 21
1391.199998557595
  0
LINE
  5
256
100
AcDbEntity
  8
0
  6
CONTINUOUS
 62
           3
100
AcDbLine
 10
3556.396178553287
 20
1390.000000596099
 11
3561.396177510284
 21
1390.000000596099
  0
LINE
  5
255
100
AcDbEntity
  8
0
  6
CONTINUOUS
 62
           3
100
AcDbLine
 10
3556.396178553287
 20
1391.199998557595
 11
3556.396178553287
 21
1390.000000596099
  0
LINE
  5
254
100
AcDbEntity
  8
0
  6
CONTINUOUS
 62
           3
100
AcDbLine
 10
3556.396178553287
 20
1550.000000744964
 11
3561.396177510284
 21
1550.000000744964
  0
LINE
  5
253
100
AcDbEntity
  8
0
  6
CONTINUOUS
 62
           3
100
AcDbLine
 10
3561.396177510284
 20
1548.799999058067
 11
3556.396178553287
 21
1548.799999058067
  0
LINE
  5
252
100
AcDbEntity
  8
0
  6
CONTINUOUS
 62
           3
100
AcDbLine
 10
3556.396178553287
 20
1548.799999058067
 11
3556.396178553287
 21
1550.000000744964
  0
LINE
  5
251
100
AcDbEntity
  8
0
  6
CONTINUOUS
 62
           3
100
AcDbLine
 10
3661.3961790002
 20
1550.000000744964
 11
3646.396176541713
 21
1550.000000744964
  0
LINE
  5
250
100
AcDbEntity
  8
0
  6
CONTINUOUS
 62
           3
100
AcDbLine
 10
3661.3961790002
 20
1548.799999058067
 11
3646.396176541713
 21
1548.799999058067
  0
LINE
  5
24F
100
AcDbEntity
  8
0
  6
CONTINUOUS
 62
           3
100
AcDbLine
 10
3676.396175871189
 20
1550.000000744964
 11
3671.396176914192
 21
1550.000000744964
  0
LINE
  5
24E
100
AcDbEntity
  8
0
  6
CONTINUOUS
 62
           3
100
AcDbLine
 10
3671.396176914192
 20
1548.799999058067
 11
3676.396175871189
 21
1548.799999058067
  0
LINE
  5
24D
100
AcDbEntity
  8
0
  6
CONTINUOUS
 62
           3
100
AcDbLine
 10
3676.396175871189
 20
1548.799999058067
 11
3676.396175871189
 21
1550.000000744964
  0
LINE
  5
24C
100
AcDbEntity
  8
0
  6
CONTINUOUS
 62
           3
100
AcDbLine
 10
3661.3961790002
 20
1391.199998557595
 11
3646.396176541713
 21
1391.199998557595
  0
LINE
  5
24B
100
AcDbEntity
  8
0
  6
CONTINUOUS
 62
           3
100
AcDbLine
 10
3661.3961790002
 20
1390.000000596099
 11
3646.396176541713
 21
1390.000000596099
  0
LINE
  5
24A
100
AcDbEntity
  8
0
  6
CONTINUOUS
 62
           3
100
AcDbLine
 10
3571.396175424276
 20
1550.000000744964
 11
3586.396177882763
 21
1550.000000744964
  0
LINE
  5
249
100
AcDbEntity
  8
0
  6
CONTINUOUS
 62
           3
100
AcDbLine
 10
3571.396175424276
 20
1548.799999058067
 11
3586.396177882763
 21
1548.799999058067
  0
LINE
  5
248
100
AcDbEntity
  8
0
  6
CONTINUOUS
 62
           3
100
AcDbLine
 10
3671.396176914192
 20
1391.199998557595
 11
3676.396175871189
 21
1391.199998557595
  0
LINE
  5
247
100
AcDbEntity
  8
0
  6
CONTINUOUS
 62
           3
100
AcDbLine
 10
3676.396175871189
 20
1390.000000596099
 11
3671.396176914192
 21
1390.000000596099
  0
LINE
  5
246
100
AcDbEntity
  8
0
  6
CONTINUOUS
 62
           3
100
AcDbLine
 10
3676.396175871189
 20
1391.199998557595
 11
3676.396175871189
 21
1390.000000596099
  0
LINE
  5
245
100
AcDbEntity
  8
0
  6
CONTINUOUS
 62
           3
100
AcDbLine
 10
3571.396175424276
 20
1391.199998557595
 11
3586.396177882763
 21
1391.199998557595
  0
LINE
  5
244
100
AcDbEntity
  8
0
  6
CONTINUOUS
 62
           3
100
AcDbLine
 10
3571.396175424276
 20
1390.000000596099
 11
3586.396177882763
 21
1390.000000596099
  0
LINE
  5
243
100
AcDbEntity
  8
0
  6
CONTINUOUS
 62
           3
100
AcDbLine
 10
3569.396178821678
 20
1550.000000744964
 11
3571.396175424276
 21
1550.000000744964
  0
LINE
  5
242
100
AcDbEntity
  8
0
  6
CONTINUOUS
 62
           3
100
AcDbLine
 10
3571.396175424276
 20
1548.799999058067
 11
3569.396178821678
 21
1548.799999058067
  0
LINE
  5
241
100
AcDbEntity
  8
0
  6
CONTINUOUS
 62
           3
100
AcDbLine
 10
3569.396178821678
 20
1548.799999058067
 11
3569.396178821678
 21
1550.000000744964
  0
LINE
  5
240
100
AcDbEntity
  8
0
  6
CONTINUOUS
 62
           3
100
AcDbLine
 10
3561.396177510284
 20
1550.000000744964
 11
3563.396177838281
 21
1550.000000744964
  0
LINE
  5
23F
100
AcDbEntity
  8
0
  6
CONTINUOUS
 62
           3
100
AcDbLine
 10
3563.396177838281
 20
1548.799999058067
 11
3561.396177510284
 21
1548.799999058067
  0
LINE
  5
23E
100
AcDbEntity
  8
0
  6
CONTINUOUS
 62
           3
100
AcDbLine
 10
3563.396177838281
 20
1550.000000744964
 11
3563.396177838281
 21
1548.799999058067
  0
LINE
  5
23D
100
AcDbEntity
  8
0
  6
CONTINUOUS
 62
           3
100
AcDbLine
 10
3661.3961790002
 20
1391.199998557595
 11
3663.396175602798
 21
1391.199998557595
  0
LINE
  5
23C
100
AcDbEntity
  8
0
  6
CONTINUOUS
 62
           3
100
AcDbLine
 10
3663.396175602798
 20
1390.000000596099
 11
3661.3961790002
 21
1390.000000596099
  0
LINE
  5
23B
100
AcDbEntity
  8
0
  6
CONTINUOUS
 62
           3
100
AcDbLine
 10
3663.396175602798
 20
1391.199998557595
 11
3663.396175602798
 21
1390.000000596099
  0
LINE
  5
23A
100
AcDbEntity
  8
0
  6
CONTINUOUS
 62
           3
100
AcDbLine
 10
3669.396176586492
 20
1391.199998557595
 11
3671.396176914192
 21
1391.199998557595
  0
LINE
  5
239
100
AcDbEntity
  8
0
  6
CONTINUOUS
 62
           3
100
AcDbLine
 10
3671.396176914192
 20
1390.000000596099
 11
3669.396176586492
 21
1390.000000596099
  0
LINE
  5
238
100
AcDbEntity
  8
0
  6
CONTINUOUS
 62
           3
100
AcDbLine
 10
3669.396176586492
 20
1390.000000596099
 11
3669.396176586492
 21
1391.199998557595
  0
LINE
  5
237
100
AcDbEntity
  8
0
  6
CONTINUOUS
 62
           3
100
AcDbLine
 10
3663.396175602798
 20
1550.000000744964
 11
3661.3961790002
 21
1550.000000744964
  0
LINE
  5
236
100
AcDbEntity
  8
0
  6
CONTINUOUS
 62
           3
100
AcDbLine
 10
3661.3961790002
 20
1548.799999058067
 11
3663.396175602798
 21
1548.799999058067
  0
LINE
  5
235
100
AcDbEntity
  8
0
  6
CONTINUOUS
 62
           3
100
AcDbLine
 10
3663.396175602798
 20
1548.799999058067
 11
3663.396175602798
 21
1550.000000744964
  0
LINE
  5
234
100
AcDbEntity
  8
0
  6
CONTINUOUS
 62
           3
100
AcDbLine
 10
3671.396176914192
 20
1550.000000744964
 11
3669.396176586492
 21
1550.000000744964
  0
LINE
  5
233
100
AcDbEntity
  8
0
  6
CONTINUOUS
 62
           3
100
AcDbLine
 10
3669.396176586492
 20
1548.799999058067
 11
3671.396176914192
 21
1548.799999058067
  0
LINE
  5
232
100
AcDbEntity
  8
0
  6
CONTINUOUS
 62
           3
100
AcDbLine
 10
3669.396176586492
 20
1550.000000744964
 11
3669.396176586492
 21
1548.799999058067
  0
LINE
  5
231
100
AcDbEntity
  8
0
  6
CONTINUOUS
 62
           3
100
AcDbLine
 10
3571.396175424276
 20
1391.199998557595
 11
3569.396178821678
 21
1391.199998557595
  0
LINE
  5
230
100
AcDbEntity
  8
0
  6
CONTINUOUS
 62
           3
100
AcDbLine
 10
3569.396178821678
 20
1390.000000596099
 11
3571.396175424276
 21
1390.000000596099
  0
LINE
  5
22F
100
AcDbEntity
  8
0
  6
CONTINUOUS
 62
           3
100
AcDbLine
 10
3569.396178821678
 20
1391.199998557595
 11
3569.396178821678
 21
1390.000000596099
  0
LINE
  5
22E
100
AcDbEntity
  8
0
  6
CONTINUOUS
 62
           3
100
AcDbLine
 10
3563.396177838281
 20
1391.199998557595
 11
3561.396177510284
 21
1391.199998557595
  0
LINE
  5
22D
100
AcDbEntity
  8
0
  6
CONTINUOUS
 62
           3
100
AcDbLine
 10
3561.396177510284
 20
1390.000000596099
 11
3563.396177838281
 21
1390.000000596099
  0
LINE
  5
22C
100
AcDbEntity
  8
0
  6
CONTINUOUS
 62
           3
100
AcDbLine
 10
3563.396177838281
 20
1390.000000596099
 11
3563.396177838281
 21
1391.199998557595
  0
LINE
  5
22B
100
AcDbEntity
  8
0
  6
CONTINUOUS
 62
           3
100
AcDbLine
 10
3612.89617710414
 20
1391.199998557595
 11
3613.14617714514
 21
1391.199998557595
  0
LINE
  5
22A
100
AcDbEntity
  8
0
  6
CONTINUOUS
 62
           3
100
AcDbLine
 10
3613.14617714514
 20
1391.199998557595
 11
3613.14617714514
 21
1390.000000596099
  0
LINE
  5
229
100
AcDbEntity
  8
0
  6
CONTINUOUS
 62
           3
100
AcDbLine
 10
3646.396176541713
 20
1391.199998557595
 11
3636.396176765321
 21
1391.199998557595
  0
LINE
  5
228
100
AcDbEntity
  8
0
  6
CONTINUOUS
 62
           3
100
AcDbLine
 10
3646.396176541713
 20
1390.000000596099
 11
3636.396176765321
 21
1390.000000596099
  0
LINE
  5
227
100
AcDbEntity
  8
0
  6
CONTINUOUS
 62
           3
100
AcDbLine
 10
3646.396176541713
 20
1391.199998557595
 11
3646.396176541713
 21
1390.000000596099
  0
LINE
  5
226
100
AcDbEntity
  8
0
  6
CONTINUOUS
 62
           3
100
AcDbLine
 10
3611.146177283044
 20
1550.000000744964
 11
3613.14617714514
 21
1550.000000744964
  0
LINE
  5
225
100
AcDbEntity
  8
0
  6
CONTINUOUS
 62
           3
100
AcDbLine
 10
3613.14617714514
 20
1548.799999058067
 11
3611.146177283044
 21
1548.799999058067
  0
LINE
  5
224
100
AcDbEntity
  8
0
  6
CONTINUOUS
 62
           3
100
AcDbLine
 10
3613.14617714514
 20
1550.000000744964
 11
3613.14617714514
 21
1548.799999058067
  0
LINE
  5
223
100
AcDbEntity
  8
0
  6
CONTINUOUS
 62
           3
100
AcDbLine
 10
3624.396177592132
 20
1391.199998557595
 11
3636.396176765321
 21
1391.199998557595
  0
LINE
  5
222
100
AcDbEntity
  8
0
  6
CONTINUOUS
 62
           3
100
AcDbLine
 10
3624.396177592132
 20
1390.000000596099
 11
3636.396176765321
 21
1390.000000596099
  0
LINE
  5
221
100
AcDbEntity
  8
0
  6
CONTINUOUS
 62
           3
100
AcDbLine
 10
3636.396176765321
 20
1391.199998557595
 11
3636.396176765321
 21
1390.000000596099
  0
LINE
  5
220
100
AcDbEntity
  8
0
  6
CONTINUOUS
 62
           3
100
AcDbLine
 10
3586.396177882763
 20
1391.199998557595
 11
3596.396177659154
 21
1391.199998557595
  0
LINE
  5
21F
100
AcDbEntity
  8
0
  6
CONTINUOUS
 62
           3
100
AcDbLine
 10
3586.396177882763
 20
1390.000000596099
 11
3596.396177659154
 21
1390.000000596099
  0
LINE
  5
21E
100
AcDbEntity
  8
0
  6
CONTINUOUS
 62
           3
100
AcDbLine
 10
3586.396177882763
 20
1391.199998557595
 11
3586.396177882763
 21
1390.000000596099
  0
LINE
  5
21D
100
AcDbEntity
  8
0
  6
CONTINUOUS
 62
           3
100
AcDbLine
 10
3619.646177279336
 20
1550.000000744964
 11
3621.646177141432
 21
1550.000000744964
  0
LINE
  5
21C
100
AcDbEntity
  8
0
  6
CONTINUOUS
 62
           3
100
AcDbLine
 10
3621.646177141432
 20
1548.799999058067
 11
3619.646177279336
 21
1548.799999058067
  0
LINE
  5
21B
100
AcDbEntity
  8
0
  6
CONTINUOUS
 62
           3
100
AcDbLine
 10
3619.646177279336
 20
1548.799999058067
 11
3619.646177279336
 21
1550.000000744964
  0
LINE
  5
21A
100
AcDbEntity
  8
0
  6
CONTINUOUS
 62
           3
100
AcDbLine
 10
3646.396176541713
 20
1550.000000744964
 11
3636.396176765321
 21
1550.000000744964
  0
LINE
  5
219
100
AcDbEntity
  8
0
  6
CONTINUOUS
 62
           3
100
AcDbLine
 10
3646.396176541713
 20
1548.799999058067
 11
3636.396176765321
 21
1548.799999058067
  0
LINE
  5
218
100
AcDbEntity
  8
0
  6
CONTINUOUS
 62
           3
100
AcDbLine
 10
3646.396176541713
 20
1548.799999058067
 11
3646.396176541713
 21
1550.000000744964
  0
LINE
  5
217
100
AcDbEntity
  8
0
  6
CONTINUOUS
 62
           3
100
AcDbLine
 10
3619.646177279336
 20
1391.199998557595
 11
3619.896177320336
 21
1391.199998557595
  0
LINE
  5
216
100
AcDbEntity
  8
0
  6
CONTINUOUS
 62
           3
100
AcDbLine
 10
3619.646177279336
 20
1390.000000596099
 11
3619.646177279336
 21
1391.199998557595
  0
LINE
  5
215
100
AcDbEntity
  8
0
  6
CONTINUOUS
 62
           3
100
AcDbLine
 10
3596.396177659154
 20
1391.199998557595
 11
3608.396176832343
 21
1391.199998557595
  0
LINE
  5
214
100
AcDbEntity
  8
0
  6
CONTINUOUS
 62
           3
100
AcDbLine
 10
3596.396177659154
 20
1390.000000596099
 11
3608.396176832343
 21
1390.000000596099
  0
LINE
  5
213
100
AcDbEntity
  8
0
  6
CONTINUOUS
 62
           3
100
AcDbLine
 10
3596.396177659154
 20
1391.199998557595
 11
3596.396177659154
 21
1390.000000596099
  0
LINE
  5
212
100
AcDbEntity
  8
0
  6
CONTINUOUS
 62
           3
100
AcDbLine
 10
3596.396177659154
 20
1550.000000744964
 11
3611.146177283044
 21
1550.000000744964
  0
LINE
  5
211
100
AcDbEntity
  8
0
  6
CONTINUOUS
 62
           3
100
AcDbLine
 10
3596.396177659154
 20
1548.799999058067
 11
3611.146177283044
 21
1548.799999058067
  0
LINE
  5
210
100
AcDbEntity
  8
0
  6
CONTINUOUS
 62
           3
100
AcDbLine
 10
3621.646177141432
 20
1550.000000744964
 11
3636.396176765321
 21
1550.000000744964
  0
LINE
  5
20F
100
AcDbEntity
  8
0
  6
CONTINUOUS
 62
           3
100
AcDbLine
 10
3621.646177141432
 20
1548.799999058067
 11
3636.396176765321
 21
1548.799999058067
  0
LINE
  5
20E
100
AcDbEntity
  8
0
  6
CONTINUOUS
 62
           3
100
AcDbLine
 10
3636.396176765321
 20
1548.799999058067
 11
3636.396176765321
 21
1550.000000744964
  0
LINE
  5
20D
100
AcDbEntity
  8
0
  6
CONTINUOUS
 62
           3
100
AcDbLine
 10
3586.396177882763
 20
1548.799999058067
 11
3586.396177882763
 21
1550.000000744964
  0
LINE
  5
20C
100
AcDbEntity
  8
0
  6
CONTINUOUS
 62
           3
100
AcDbLine
 10
3586.396177882763
 20
1548.799999058067
 11
3596.396177659154
 21
1548.799999058067
  0
LINE
  5
20B
100
AcDbEntity
  8
0
  6
CONTINUOUS
 62
           3
100
AcDbLine
 10
3596.396177659154
 20
1548.799999058067
 11
3596.396177659154
 21
1550.000000744964
  0
LINE
  5
20A
100
AcDbEntity
  8
0
  6
CONTINUOUS
 62
           3
100
AcDbLine
 10
3586.396177882763
 20
1550.000000744964
 11
3596.396177659154
 21
1550.000000744964
  0
LINE
  5
209
100
AcDbEntity
  8
0
  6
CONTINUOUS
 62
           3
100
AcDbLine
 10
3624.396177592132
 20
1389.200001954998
 11
3624.396177592132
 21
1388.276241719796
  0
LINE
  5
208
100
AcDbEntity
  8
0
  6
CONTINUOUS
 62
           3
100
AcDbLine
 10
3608.396176832343
 20
1389.200001954998
 11
3608.396176832343
 21
1388.276241719796
  0
LINE
  5
207
100
AcDbEntity
  8
0
  6
CONTINUOUS
 62
           3
100
AcDbLine
 10
3611.396177324044
 20
1388.276241719796
 11
3608.396176832343
 21
1388.276241719796
  0
LINE
  5
206
100
AcDbEntity
  8
0
  6
CONTINUOUS
 62
           3
100
AcDbLine
 10
3624.396177592132
 20
1388.276241719796
 11
3621.396177100432
 21
1388.276241719796
  0
LINE
  5
205
100
AcDbEntity
  8
0
  6
CONTINUOUS
 62
           3
100
AcDbLine
 10
3618.896177156335
 20
1384.199999272903
 11
3621.396177100481
 21
1384.199999272903
  0
LINE
  5
204
100
AcDbEntity
  8
0
  6
CONTINUOUS
 62
           3
100
AcDbLine
 10
3611.396177324004
 20
1384.199999272903
 11
3613.896177268124
 21
1384.199999272903
  0
LINE
  5
203
100
AcDbEntity
  8
0
  6
CONTINUOUS
 62
           3
100
AcDbLine
 10
3621.396177100432
 20
1384.646579623304
 11
3621.396177100432
 21
1389.100000262197
  0
LINE
  5
202
100
AcDbEntity
  8
0
  6
CONTINUOUS
 62
           3
100
AcDbLine
 10
3611.396177324044
 20
1384.646579623304
 11
3611.396177324044
 21
1389.100000262197
  0
LINE
  5
201
100
AcDbEntity
  8
0
  6
CONTINUOUS
 62
           3
100
AcDbLine
 10
3611.396177324044
 20
1384.646579623304
 11
3613.896177268124
 21
1384.199999272903
  0
LINE
  5
200
100
AcDbEntity
  8
0
  6
CONTINUOUS
 62
           3
100
AcDbLine
 10
3616.396177212239
 20
1384.646579623297
 11
3616.396177212238
 21
1389.100000262197
  0
LINE
  5
1FF
100
AcDbEntity
  8
0
  6
CONTINUOUS
 62
           3
100
AcDbLine
 10
3613.896177268124
 20
1384.199999272903
 11
3618.896177156335
 21
1384.199999272903
  0
LINE
  5
1FE
100
AcDbEntity
  8
0
  6
CONTINUOUS
 62
           3
100
AcDbLine
 10
3616.396177212239
 20
1384.646579623297
 11
3618.896177156335
 21
1384.199999272903
  0
LINE
  5
1FD
100
AcDbEntity
  8
0
  6
CONTINUOUS
 62
           3
100
AcDbLine
 10
3612.89617710414
 20
1389.200001954998
 11
3619.896177320336
 21
1389.200001954998
  0
LINE
  5
1FC
100
AcDbEntity
  8
0
  6
CONTINUOUS
 62
           3
100
AcDbLine
 10
3612.89617710414
 20
1390.000000596099
 11
3619.896177320336
 21
1390.000000596099
  0
LINE
  5
1FB
100
AcDbEntity
  8
0
  6
CONTINUOUS
 62
           3
100
AcDbLine
 10
3619.896177320336
 20
1393.990144133493
 11
3612.89617710414
 21
1393.990144133493
  0
LINE
  5
1FA
100
AcDbEntity
  8
0
  6
CONTINUOUS
 62
           3
100
AcDbLine
 10
3613.39617718614
 20
1392.246469855296
 11
3612.89617710414
 21
1392.246469855296
  0
LINE
  5
1F9
100
AcDbEntity
  8
0
  6
CONTINUOUS
 62
           3
100
AcDbLine
 10
3619.896177320336
 20
1392.246469855296
 11
3619.396177238335
 21
1392.246469855296
  0
LINE
  5
1F8
100
AcDbEntity
  8
0
  6
CONTINUOUS
 62
           3
100
AcDbLine
 10
3624.396177592132
 20
1394.799999892894
 11
3624.396177592132
 21
1389.200001954998
  0
LINE
  5
1F7
100
AcDbEntity
  8
0
  6
CONTINUOUS
 62
           3
100
AcDbLine
 10
3608.396176832343
 20
1394.799999892894
 11
3608.396176832343
 21
1389.200001954998
  0
LINE
  5
1F6
100
AcDbEntity
  8
0
  6
CONTINUOUS
 62
           3
100
AcDbLine
 10
3612.89617710414
 20
1389.200001954998
 11
3612.89617710414
 21
1394.799999892894
  0
LINE
  5
1F5
100
AcDbEntity
  8
0
  6
CONTINUOUS
 62
           3
100
AcDbLine
 10
3619.896177320336
 20
1394.799999892894
 11
3619.896177320336
 21
1389.200001954998
  0
LINE
  5
1F4
100
AcDbEntity
  8
0
  6
CONTINUOUS
 62
           3
100
AcDbLine
 10
3612.89617710414
 20
1389.200001954998
 11
3608.396176832343
 21
1389.200001954998
  0
LINE
  5
1F3
100
AcDbEntity
  8
0
  6
CONTINUOUS
 62
           3
100
AcDbLine
 10
3612.89617710414
 20
1394.792847335493
 11
3619.896177320336
 21
1394.792847335493
  0
LINE
  5
1F2
100
AcDbEntity
  8
0
  6
CONTINUOUS
 62
           3
100
AcDbLine
 10
3624.396177592132
 20
1389.200001954998
 11
3619.896177320336
 21
1389.200001954998
  0
LINE
  5
1F1
100
AcDbEntity
  8
0
  6
CONTINUOUS
 62
           3
100
AcDbLine
 10
3618.396177307136
 20
1638.422653078995
 11
3614.396177117339
 21
1638.422653078995
  0
LINE
  5
1F0
100
AcDbEntity
  8
0
  6
CONTINUOUS
 62
           3
100
AcDbLine
 10
3613.39617718614
 20
1637.422651052295
 11
3619.396177238335
 21
1637.422651052295
  0
LINE
  5
1EF
100
AcDbEntity
  8
0
  6
CONTINUOUS
 62
           3
100
AcDbLine
 10
3562.396175811583
 20
1665.000006556371
 11
3566.39617646728
 21
1665.000006556371
  0
LINE
  5
1EE
100
AcDbEntity
  8
0
  6
CONTINUOUS
 62
           3
100
AcDbLine
 10
3566.39617646728
 20
1665.000006556371
 11
3570.396177122976
 21
1665.000006556371
  0
LINE
  5
1ED
100
AcDbEntity
  8
0
  6
CONTINUOUS
 62
           3
100
AcDbLine
 10
3612.066050177908
 20
1367.599993944257
 11
3611.396177324044
 21
1367.599993944114
  0
LINE
  5
1EC
100
AcDbEntity
  8
0
  6
CONTINUOUS
 62
           3
100
AcDbLine
 10
3621.396177100432
 20
1367.599993944114
 11
3620.726304246578
 21
1367.599993944257
  0
LINE
  5
1EB
100
AcDbEntity
  8
0
  6
CONTINUOUS
 62
           3
100
AcDbLine
 10
3612.066050177908
 20
1372.600004077043
 11
3611.396177324044
 21
1372.600004077011
  0
LINE
  5
1EA
100
AcDbEntity
  8
0
  6
CONTINUOUS
 62
           3
100
AcDbLine
 10
3620.726304246578
 20
1367.599993944257
 11
3616.396177212239
 21
1367.599993944257
  0
LINE
  5
1E9
100
AcDbEntity
  8
0
  6
CONTINUOUS
 62
           3
100
AcDbLine
 10
3616.396177212239
 20
1367.599993944257
 11
3612.066050177908
 21
1367.599993944257
  0
LINE
  5
1E8
100
AcDbEntity
  8
0
  6
CONTINUOUS
 62
           3
100
AcDbLine
 10
3610.62267434454
 20
1372.153416276111
 11
3610.62267434454
 21
1368.046581745313
  0
LINE
  5
1E7
100
AcDbEntity
  8
0
  6
CONTINUOUS
 62
           3
100
AcDbLine
 10
3610.62267434454
 20
1368.046581745313
 11
3612.066050177908
 21
1367.599993944257
  0
LINE
  5
1E6
100
AcDbEntity
  8
0
  6
CONTINUOUS
 62
           3
100
AcDbLine
 10
3613.509425778409
 20
1372.153416276064
 11
3612.066050177908
 21
1372.600004077043
  0
LINE
  5
1E5
100
AcDbEntity
  8
0
  6
CONTINUOUS
 62
           3
100
AcDbLine
 10
3619.282928645936
 20
1368.046581745313
 11
3620.726304246578
 21
1367.599993944257
  0
LINE
  5
1E4
100
AcDbEntity
  8
0
  6
CONTINUOUS
 62
           3
100
AcDbLine
 10
3622.169680079936
 20
1372.153416276111
 11
3622.169680079936
 21
1368.046581745313
  0
LINE
  5
1E3
100
AcDbEntity
  8
0
  6
CONTINUOUS
 62
           3
100
AcDbLine
 10
3622.169680079936
 20
1372.153416276111
 11
3620.726304246578
 21
1372.600004077043
  0
LINE
  5
1E2
100
AcDbEntity
  8
0
  6
CONTINUOUS
 62
           3
100
AcDbLine
 10
3613.509425778409
 20
1372.153416276064
 11
3613.509425778409
 21
1368.046581745237
  0
LINE
  5
1E1
100
AcDbEntity
  8
0
  6
CONTINUOUS
 62
           3
100
AcDbLine
 10
3619.282928646076
 20
1372.153416276064
 11
3619.282928645936
 21
1368.046581745313
  0
LINE
  5
1E0
100
AcDbEntity
  8
0
  6
CONTINUOUS
 62
           3
100
AcDbLine
 10
3621.396177100432
 20
1372.600004077011
 11
3620.726304246578
 21
1372.600004077043
  0
LINE
  5
1DF
100
AcDbEntity
  8
0
  6
CONTINUOUS
 62
           3
100
AcDbLine
 10
3621.396177100432
 20
1377.599999308606
 11
3620.726304246578
 21
1377.599999308668
  0
LINE
  5
1DE
100
AcDbEntity
  8
0
  6
CONTINUOUS
 62
           3
100
AcDbLine
 10
3612.066050177908
 20
1377.599999308668
 11
3611.396177324044
 21
1377.599999308606
  0
LINE
  5
1DD
100
AcDbEntity
  8
0
  6
CONTINUOUS
 62
           3
100
AcDbLine
 10
3616.396177212239
 20
1372.600004077043
 11
3612.066050177908
 21
1372.600004077043
  0
LINE
  5
1DC
100
AcDbEntity
  8
0
  6
CONTINUOUS
 62
           3
100
AcDbLine
 10
3620.726304246578
 20
1372.600004077043
 11
3616.396177212239
 21
1372.600004077043
  0
LINE
  5
1DB
100
AcDbEntity
  8
0
  6
CONTINUOUS
 62
           3
100
AcDbLine
 10
3616.396177212239
 20
1377.599999308668
 11
3612.066050177908
 21
1377.599999308668
  0
LINE
  5
1DA
100
AcDbEntity
  8
0
  6
CONTINUOUS
 62
           3
100
AcDbLine
 10
3610.62267434454
 20
1377.153418958207
 11
3610.62267434454
 21
1373.046576976914
  0
LINE
  5
1D9
100
AcDbEntity
  8
0
  6
CONTINUOUS
 62
           3
100
AcDbLine
 10
3610.62267434454
 20
1373.046576976914
 11
3612.066050177908
 21
1372.600004077043
  0
LINE
  5
1D8
100
AcDbEntity
  8
0
  6
CONTINUOUS
 62
           3
100
AcDbLine
 10
3613.509425778409
 20
1377.153418958269
 11
3612.066050177908
 21
1377.599999308668
  0
LINE
  5
1D7
100
AcDbEntity
  8
0
  6
CONTINUOUS
 62
           3
100
AcDbLine
 10
3620.726304246578
 20
1377.599999308668
 11
3616.396177212239
 21
1377.599999308668
  0
LINE
  5
1D6
100
AcDbEntity
  8
0
  6
CONTINUOUS
 62
           3
100
AcDbLine
 10
3619.282928645936
 20
1373.046576976914
 11
3620.726304246578
 21
1372.600004077043
  0
LINE
  5
1D5
100
AcDbEntity
  8
0
  6
CONTINUOUS
 62
           3
100
AcDbLine
 10
3622.169680079936
 20
1377.153418958207
 11
3622.169680079936
 21
1373.046576976914
  0
LINE
  5
1D4
100
AcDbEntity
  8
0
  6
CONTINUOUS
 62
           3
100
AcDbLine
 10
3622.169680079936
 20
1377.153418958207
 11
3620.726304246578
 21
1377.599999308668
  0
LINE
  5
1D3
100
AcDbEntity
  8
0
  6
CONTINUOUS
 62
           3
100
AcDbLine
 10
3613.509425778409
 20
1377.153418958269
 11
3613.509425778409
 21
1373.046576976862
  0
LINE
  5
1D2
100
AcDbEntity
  8
0
  6
CONTINUOUS
 62
           3
100
AcDbLine
 10
3619.282928646076
 20
1377.153418958269
 11
3619.282928645936
 21
1373.046576976914
  0
LINE
  5
1D1
100
AcDbEntity
  8
0
  6
CONTINUOUS
 62
           3
100
AcDbLine
 10
3610.62267434454
 20
1364.553421735918
 11
3610.62267434454
 21
1360.446587205124
  0
LINE
  5
1D0
100
AcDbEntity
  8
0
  6
CONTINUOUS
 62
           3
100
AcDbLine
 10
3610.62267434454
 20
1360.446587205124
 11
3612.066050177908
 21
1359.99999940405
  0
LINE
  5
1CF
100
AcDbEntity
  8
0
  6
CONTINUOUS
 62
           3
100
AcDbLine
 10
3613.509425778409
 20
1364.55342173586
 11
3612.066050177908
 21
1364.999994635675
  0
LINE
  5
1CE
100
AcDbEntity
  8
0
  6
CONTINUOUS
 62
           3
100
AcDbLine
 10
3619.282928645936
 20
1360.446587205124
 11
3620.726304246536
 21
1359.999999403923
  0
LINE
  5
1CD
100
AcDbEntity
  8
0
  6
CONTINUOUS
 62
           3
100
AcDbLine
 10
3622.169680079936
 20
1364.553421735918
 11
3622.169680079936
 21
1360.446587205124
  0
LINE
  5
1CC
100
AcDbEntity
  8
0
  6
CONTINUOUS
 62
           3
100
AcDbLine
 10
3622.169680079936
 20
1364.553421735918
 11
3620.726304246578
 21
1364.999994635675
  0
LINE
  5
1CB
100
AcDbEntity
  8
0
  6
CONTINUOUS
 62
           3
100
AcDbLine
 10
3613.509425778409
 20
1364.55342173586
 11
3613.509425778409
 21
1360.446587205026
  0
LINE
  5
1CA
100
AcDbEntity
  8
0
  6
CONTINUOUS
 62
           3
100
AcDbLine
 10
3619.282928646076
 20
1364.55342173586
 11
3619.282928645936
 21
1360.446587205124
  0
LINE
  5
1C9
100
AcDbEntity
  8
0
  6
CONTINUOUS
 62
           3
100
AcDbLine
 10
3611.396177324044
 20
1359.999999403923
 11
3612.066050177908
 21
1359.99999940405
  0
LINE
  5
1C8
100
AcDbEntity
  8
0
  6
CONTINUOUS
 62
           3
100
AcDbLine
 10
3621.396177100432
 20
1355.000004172322
 11
3620.726304246578
 21
1355.000004172423
  0
LINE
  5
1C7
100
AcDbEntity
  8
0
  6
CONTINUOUS
 62
           3
100
AcDbLine
 10
3611.396177324044
 20
1355.000004172322
 11
3612.066050177908
 21
1355.000004172423
  0
LINE
  5
1C6
100
AcDbEntity
  8
0
  6
CONTINUOUS
 62
           3
100
AcDbLine
 10
3622.169680079936
 20
1355.446577072226
 11
3620.726304246578
 21
1355.000004172423
  0
LINE
  5
1C5
100
AcDbEntity
  8
0
  6
CONTINUOUS
 62
           3
100
AcDbLine
 10
3622.169680079936
 20
1355.446577072226
 11
3622.169680079936
 21
1359.553411603023
  0
LINE
  5
1C4
100
AcDbEntity
  8
0
  6
CONTINUOUS
 62
           3
100
AcDbLine
 10
3610.62267434454
 20
1355.446577072226
 11
3610.62267434454
 21
1359.553411603023
  0
LINE
  5
1C3
100
AcDbEntity
  8
0
  6
CONTINUOUS
 62
           3
100
AcDbLine
 10
3616.396177212239
 20
1359.99999940405
 11
3620.726304246536
 21
1359.999999403923
  0
LINE
  5
1C2
100
AcDbEntity
  8
0
  6
CONTINUOUS
 62
           3
100
AcDbLine
 10
3619.282928646076
 20
1359.553411603069
 11
3620.726304246536
 21
1359.999999403923
  0
LINE
  5
1C1
100
AcDbEntity
  8
0
  6
CONTINUOUS
 62
           3
100
AcDbLine
 10
3612.066050177908
 20
1359.99999940405
 11
3616.396177212239
 21
1359.99999940405
  0
LINE
  5
1C0
100
AcDbEntity
  8
0
  6
CONTINUOUS
 62
           3
100
AcDbLine
 10
3612.066050177908
 20
1355.000004172423
 11
3616.396177212238
 21
1355.000004172322
  0
LINE
  5
1BF
100
AcDbEntity
  8
0
  6
CONTINUOUS
 62
           3
100
AcDbLine
 10
3616.396177212238
 20
1355.000004172322
 11
3620.726304246578
 21
1355.000004172423
  0
LINE
  5
1BE
100
AcDbEntity
  8
0
  6
CONTINUOUS
 62
           3
100
AcDbLine
 10
3613.50942577854
 20
1359.553411603023
 11
3616.396177212239
 21
1359.99999940405
  0
LINE
  5
1BD
100
AcDbEntity
  8
0
  6
CONTINUOUS
 62
           3
100
AcDbLine
 10
3613.509425778409
 20
1355.446577072244
 11
3613.50942577854
 21
1359.553411603023
  0
LINE
  5
1BC
100
AcDbEntity
  8
0
  6
CONTINUOUS
 62
           3
100
AcDbLine
 10
3619.282928645936
 20
1355.446577072226
 11
3616.396177212238
 21
1355.000004172322
  0
LINE
  5
1BB
100
AcDbEntity
  8
0
  6
CONTINUOUS
 62
           3
100
AcDbLine
 10
3619.282928645936
 20
1355.446577072226
 11
3619.282928646076
 21
1359.553411603069
  0
LINE
  5
1BA
100
AcDbEntity
  8
0
  6
CONTINUOUS
 62
           3
100
AcDbLine
 10
3673.396177241893
 20
1393.799997866197
 11
3673.396177241893
 21
1543.80000010137
  0
LINE
  5
1B9
100
AcDbEntity
  8
0
  6
CONTINUOUS
 62
           3
100
AcDbLine
 10
3562.396175811583
 20
1543.80000010137
 11
3559.396177182583
 21
1543.80000010137
  0
LINE
  5
1B8
100
AcDbEntity
  8
0
  6
CONTINUOUS
 62
           3
100
AcDbLine
 10
3613.39617718614
 20
1543.80000010137
 11
3570.396177122976
 21
1543.80000010137
  0
LINE
  5
1B7
100
AcDbEntity
  8
0
  6
CONTINUOUS
 62
           3
100
AcDbLine
 10
3662.396177301499
 20
1543.80000010137
 11
3619.396177238335
 21
1543.80000010137
  0
LINE
  5
1B6
100
AcDbEntity
  8
0
  6
CONTINUOUS
 62
           3
100
AcDbLine
 10
3673.396177241893
 20
1543.80000010137
 11
3670.396178612894
 21
1543.80000010137
  0
LINE
  5
1B5
100
AcDbEntity
  8
0
  6
CONTINUOUS
 62
           3
100
AcDbLine
 10
3559.396177182583
 20
1543.80000010137
 11
3559.396177182583
 21
1393.799997866197
  0
LINE
  5
1B4
100
AcDbEntity
  8
0
  6
CONTINUOUS
 62
           3
100
AcDbLine
 10
3670.396178612894
 20
1393.799997866197
 11
3673.396177241893
 21
1393.799997866197
  0
LINE
  5
1B3
100
AcDbEntity
  8
0
  6
CONTINUOUS
 62
           3
100
AcDbLine
 10
3624.396177592132
 20
1393.799997866197
 11
3662.396177301499
 21
1393.799997866197
  0
LINE
  5
1B2
100
AcDbEntity
  8
0
  6
CONTINUOUS
 62
           3
100
AcDbLine
 10
3570.396177122976
 20
1393.799997866197
 11
3608.396176832343
 21
1393.799997866197
  0
LINE
  5
1B1
100
AcDbEntity
  8
0
  6
CONTINUOUS
 62
           3
100
AcDbLine
 10
3559.396177182583
 20
1393.799997866197
 11
3562.396175811583
 21
1393.799997866197
  0
LINE
  5
1B0
100
AcDbEntity
  8
0
  6
CONTINUOUS
 62
           3
100
AcDbLine
 10
3609.922674520441
 20
1389.099999999997
 11
3622.869679904035
 21
1389.099999999997
  0
LINE
  5
1AF
100
AcDbEntity
  8
0
  6
CONTINUOUS
 62
           3
100
AcDbLine
 10
3624.396177592132
 20
1394.799999892894
 11
3619.896177320336
 21
1394.799999892894
  0
LINE
  5
1AE
100
AcDbEntity
  8
0
  6
CONTINUOUS
 62
           3
100
AcDbLine
 10
3612.89617710414
 20
1394.799999892894
 11
3608.396176832343
 21
1394.799999892894
  0
LINE
  5
1AD
100
AcDbEntity
  8
0
  6
CONTINUOUS
 62
           3
100
AcDbLine
 10
3614.396177117339
 20
1638.422653078995
 11
3613.39617718614
 21
1637.422651052295
  0
LINE
  5
1AC
100
AcDbEntity
  8
0
  6
CONTINUOUS
 62
           3
100
AcDbLine
 10
3619.396177238335
 20
1637.422651052295
 11
3618.396177307136
 21
1638.422653078995
  0
LINE
  5
1AB
100
AcDbEntity
  8
0
  6
CONTINUOUS
 62
           3
100
AcDbLine
 10
3613.39617718614
 20
1367.599993944114
 11
3613.39617718614
 21
1366.600006818715
  0
LINE
  5
1AA
100
AcDbEntity
  8
0
  6
CONTINUOUS
 62
           3
100
AcDbLine
 10
3613.39617718614
 20
1384.199999272903
 11
3613.39617718614
 21
1377.599999308606
  0
LINE
  5
1A9
100
AcDbEntity
  8
0
  6
CONTINUOUS
 62
           3
100
AcDbLine
 10
3613.39617718614
 20
1392.957426607596
 11
3613.39617718614
 21
1390.000000596099
  0
LINE
  5
1A8
100
AcDbEntity
  8
0
  6
CONTINUOUS
 62
           3
100
AcDbLine
 10
3613.39617718614
 20
1633.399993180998
 11
3613.39617718614
 21
1394.792847335493
  0
LINE
  5
1A7
100
AcDbEntity
  8
0
  6
CONTINUOUS
 62
           3
100
AcDbLine
 10
3613.39617718614
 20
1637.422651052295
 11
3613.39617718614
 21
1635.000005364198
  0
LINE
  5
1A6
100
AcDbEntity
  8
0
  6
CONTINUOUS
 62
           3
100
AcDbLine
 10
3619.396177238335
 20
1635.000005364198
 11
3619.396177238335
 21
1637.422651052295
  0
LINE
  5
1A5
100
AcDbEntity
  8
0
  6
CONTINUOUS
 62
           3
100
AcDbLine
 10
3619.396177238335
 20
1394.792847335493
 11
3619.396177238335
 21
1633.399993180998
  0
LINE
  5
1A4
100
AcDbEntity
  8
0
  6
CONTINUOUS
 62
           3
100
AcDbLine
 10
3619.396177238335
 20
1390.000000596099
 11
3619.396177238335
 21
1392.957426607596
  0
LINE
  5
1A3
100
AcDbEntity
  8
0
  6
CONTINUOUS
 62
           3
100
AcDbLine
 10
3619.396177238335
 20
1377.599999308606
 11
3619.396177238335
 21
1384.199999272903
  0
LINE
  5
1A2
100
AcDbEntity
  8
0
  6
CONTINUOUS
 62
           3
100
AcDbLine
 10
3619.396177238335
 20
1366.600006818715
 11
3619.396177238335
 21
1367.599993944114
  0
LINE
  5
1A1
100
AcDbEntity
  8
0
  6
CONTINUOUS
 62
           3
100
AcDbLine
 10
3570.396177122976
 20
1635.000005364198
 11
3570.396177122976
 21
1665.000006556371
  0
LINE
  5
1A0
100
AcDbEntity
  8
0
  6
CONTINUOUS
 62
           3
100
AcDbLine
 10
3570.396177122976
 20
1550.000000744964
 11
3570.396177122976
 21
1633.399993180998
  0
LINE
  5
19F
100
AcDbEntity
  8
0
  6
CONTINUOUS
 62
           3
100
AcDbLine
 10
3570.396177122976
 20
1391.199998557595
 11
3570.396177122976
 21
1548.799999058067
  0
LINE
  5
19E
100
AcDbEntity
  8
0
  6
CONTINUOUS
 62
           3
100
AcDbLine
 10
3570.396177122976
 20
1366.600006818715
 11
3570.396177122976
 21
1390.000000596099
  0
LINE
  5
19D
100
AcDbEntity
  8
0
  6
CONTINUOUS
 62
           3
100
AcDbLine
 10
3562.396175811583
 20
1364.999994635817
 11
3562.396175811583
 21
1314.999997615958
  0
LINE
  5
19C
100
AcDbEntity
  8
0
  6
CONTINUOUS
 62
           3
100
AcDbLine
 10
3562.396175811583
 20
1390.000000596099
 11
3562.396175811583
 21
1366.600006818715
  0
LINE
  5
19B
100
AcDbEntity
  8
0
  6
CONTINUOUS
 62
           3
100
AcDbLine
 10
3562.396175811583
 20
1548.799999058067
 11
3562.396175811583
 21
1391.199998557595
  0
LINE
  5
19A
100
AcDbEntity
  8
0
  6
CONTINUOUS
 62
           3
100
AcDbLine
 10
3562.396175811583
 20
1633.399993180998
 11
3562.396175811583
 21
1550.000000744964
  0
LINE
  5
199
100
AcDbEntity
  8
0
  6
CONTINUOUS
 62
           3
100
AcDbLine
 10
3562.396175811583
 20
1665.000006556371
 11
3562.396175811583
 21
1635.000005364198
  0
LINE
  5
198
100
AcDbEntity
  8
0
  6
CONTINUOUS
 62
           3
100
AcDbLine
 10
3670.396178612894
 20
1635.000005364198
 11
3670.396178612894
 21
1641.000000000003
  0
LINE
  5
197
100
AcDbEntity
  8
0
  6
CONTINUOUS
 62
           3
100
AcDbLine
 10
3670.396178612894
 20
1550.000000744964
 11
3670.396178612894
 21
1633.399993180998
  0
LINE
  5
196
100
AcDbEntity
  8
0
  6
CONTINUOUS
 62
           3
100
AcDbLine
 10
3670.396178612894
 20
1391.199998557595
 11
3670.396178612894
 21
1548.799999058067
  0
LINE
  5
195
100
AcDbEntity
  8
0
  6
CONTINUOUS
 62
           3
100
AcDbLine
 10
3670.396178612894
 20
1366.600006818715
 11
3670.396178612894
 21
1390.000000596099
  0
LINE
  5
194
100
AcDbEntity
  8
0
  6
CONTINUOUS
 62
           3
100
AcDbLine
 10
3670.396178612894
 20
1314.999997615958
 11
3670.396178612894
 21
1364.999994635817
  0
LINE
  5
193
100
AcDbEntity
  8
0
  6
CONTINUOUS
 62
           3
100
AcDbLine
 10
3662.396177301499
 20
1364.999994635817
 11
3662.396177301499
 21
1314.999997615958
  0
LINE
  5
192
100
AcDbEntity
  8
0
  6
CONTINUOUS
 62
           3
100
AcDbLine
 10
3662.396177301499
 20
1390.000000596099
 11
3662.396177301499
 21
1366.600006818715
  0
LINE
  5
191
100
AcDbEntity
  8
0
  6
CONTINUOUS
 62
           3
100
AcDbLine
 10
3662.396177301499
 20
1548.799999058067
 11
3662.396177301499
 21
1391.199998557595
  0
LINE
  5
190
100
AcDbEntity
  8
0
  6
CONTINUOUS
 62
           3
100
AcDbLine
 10
3662.396177301499
 20
1633.399993180998
 11
3662.396177301499
 21
1550.000000744964
  0
LINE
  5
18F
100
AcDbEntity
  8
0
  6
CONTINUOUS
 62
           3
100
AcDbLine
 10
3662.396177301499
 20
1641.000000000002
 11
3662.396177301499
 21
1635.000005364198
  0
LINE
  5
18E
100
AcDbEntity
  8
0
  6
CONTINUOUS
 62
           3
100
AcDbLine
 10
3610.62267434454
 20
1368.046581745313
 11
3611.396177324044
 21
1367.599993944114
  0
LINE
  5
18D
100
AcDbEntity
  8
0
  6
CONTINUOUS
 62
           3
100
AcDbLine
 10
3621.396177100432
 20
1367.599993944114
 11
3622.169680079936
 21
1368.046581745313
  0
LINE
  5
18C
100
AcDbEntity
  8
0
  6
CONTINUOUS
 62
           3
100
AcDbLine
 10
3622.169680079936
 20
1372.153416276111
 11
3621.396177100432
 21
1372.600004077011
  0
LINE
  5
18B
100
AcDbEntity
  8
0
  6
CONTINUOUS
 62
           3
100
AcDbLine
 10
3611.396177324044
 20
1372.600004077011
 11
3610.62267434454
 21
1372.153416276111
  0
LINE
  5
18A
100
AcDbEntity
  8
0
  6
CONTINUOUS
 62
           3
100
AcDbLine
 10
3610.62267434454
 20
1373.046576976914
 11
3611.396177324044
 21
1372.600004077011
  0
LINE
  5
189
100
AcDbEntity
  8
0
  6
CONTINUOUS
 62
           3
100
AcDbLine
 10
3621.396177100432
 20
1372.600004077011
 11
3622.169680079936
 21
1373.046576976914
  0
LINE
  5
188
100
AcDbEntity
  8
0
  6
CONTINUOUS
 62
           3
100
AcDbLine
 10
3622.169680079936
 20
1377.153418958207
 11
3621.396177100432
 21
1377.599999308606
  0
LINE
  5
187
100
AcDbEntity
  8
0
  6
CONTINUOUS
 62
           3
100
AcDbLine
 10
3611.396177324044
 20
1377.599999308606
 11
3610.62267434454
 21
1377.153418958207
  0
LINE
  5
186
100
AcDbEntity
  8
0
  6
CONTINUOUS
 62
           3
100
AcDbLine
 10
3610.62267434454
 20
1360.446587205124
 11
3611.396177324044
 21
1359.999999403923
  0
LINE
  5
185
100
AcDbEntity
  8
0
  6
CONTINUOUS
 62
           3
100
AcDbLine
 10
3621.396177100432
 20
1359.999999403923
 11
3622.169680079936
 21
1360.446587205124
  0
LINE
  5
184
100
AcDbEntity
  8
0
  6
CONTINUOUS
 62
           3
100
AcDbLine
 10
3622.169680079936
 20
1364.553421735918
 11
3621.396177100432
 21
1364.999994635817
  0
LINE
  5
183
100
AcDbEntity
  8
0
  6
CONTINUOUS
 62
           3
100
AcDbLine
 10
3611.396177324044
 20
1364.999994635817
 11
3610.62267434454
 21
1364.553421735918
  0
LINE
  5
182
100
AcDbEntity
  8
0
  6
CONTINUOUS
 62
           3
100
AcDbLine
 10
3622.169680079936
 20
1359.553411603023
 11
3621.396177100432
 21
1359.999999403923
  0
LINE
  5
181
100
AcDbEntity
  8
0
  6
CONTINUOUS
 62
           3
100
AcDbLine
 10
3611.396177324044
 20
1359.999999403923
 11
3610.62267434454
 21
1359.553411603023
  0
LINE
  5
180
100
AcDbEntity
  8
0
  6
CONTINUOUS
 62
           3
100
AcDbLine
 10
3621.396177100432
 20
1355.000004172322
 11
3622.169680079936
 21
1355.446577072226
  0
LINE
  5
17F
100
AcDbEntity
  8
0
  6
CONTINUOUS
 62
           3
100
AcDbLine
 10
3610.62267434454
 20
1355.446577072226
 11
3611.396177324044
 21
1355.000004172322
  0
LINE
  5
17E
100
AcDbEntity
  8
0
  6
CONTINUOUS
 62
           3
100
AcDbLine
 10
3570.396177122976
 20
1314.999997615958
 11
3570.396177122976
 21
1364.999994635817
  0
LINE
  5
17D
100
AcDbEntity
  8
1
  6
CONTINUOUS
 62
           3
100
AcDbLine
 10
4097.996180490572
 20
1929.000000000002
 11
3950.396177301499
 21
1929.000000000002
  0
LINE
  5
17C
100
AcDbEntity
  8
1
  6
CONTINUOUS
 62
           3
100
AcDbLine
 10
4097.996180490572
 20
1921.000000000003
 11
3950.396178612894
 21
1921.000000000003
  0
LINE
  5
17B
100
AcDbEntity
  8
1
  6
CONTINUOUS
 62
           2
100
AcDbLine
 10
362.336090221744
 20
3037.000000000001
 11
362.336090221744
 21
2677.000000000001
  0
LINE
  5
17A
100
AcDbEntity
  8
1
  6
CONTINUOUS
 62
           2
100
AcDbLine
 10
404.999999999999
 20
3037.000000000001
 11
362.336090221744
 21
3037.000000000001
  0
LINE
  5
179
100
AcDbEntity
  8
1
  6
CONTINUOUS
 62
           2
100
AcDbLine
 10
362.336090221744
 20
2677.000000000001
 11
404.999999999999
 21
2677.000000000001
  0
LINE
  5
178
100
AcDbEntity
  8
1
  6
CONTINUOUS
 62
           2
100
AcDbLine
 10
-528.316278697896
 20
3037.000000000001
 11
-528.316278697896
 21
2677.000000000001
  0
LINE
  5
177
100
AcDbEntity
  8
1
  6
CONTINUOUS
 62
           2
100
AcDbLine
 10
-232.33363766124
 20
3037.000000000001
 11
-528.316278697896
 21
3037.000000000001
  0
LINE
  5
176
100
AcDbEntity
  8
1
  6
CONTINUOUS
 62
           2
100
AcDbLine
 10
-232.33363766124
 20
2677.000000000001
 11
-232.33363766124
 21
3037.000000000001
  0
LINE
  5
175
100
AcDbEntity
  8
1
  6
CONTINUOUS
 62
           2
100
AcDbLine
 10
-528.316278697896
 20
2677.000000000001
 11
-232.33363766124
 21
2677.000000000001
  0
LINE
  5
174
100
AcDbEntity
  8
1
  6
CONTINUOUS
 62
           4
100
AcDbLine
 10
-210.0
 20
3089.500000000002
 11
-210.0
 21
3088.500000000001
  0
LINE
  5
173
100
AcDbEntity
  8
1
  6
CONTINUOUS
 62
           4
100
AcDbLine
 10
-204.993063735606
 20
3094.500000000003
 11
-210.0
 21
3089.500000000002
  0
LINE
  5
172
100
AcDbEntity
  8
1
  6
CONTINUOUS
 62
           4
100
AcDbLine
 10
210.0
 20
3089.500000000002
 11
205.0
 21
3094.500000000003
  0
LINE
  5
171
100
AcDbEntity
  8
1
  6
CONTINUOUS
 62
           4
100
AcDbLine
 10
205.0
 20
3094.500000000003
 11
-204.993063735606
 21
3094.500000000003
  0
LINE
  5
170
100
AcDbEntity
  8
1
  6
CONTINUOUS
 62
           7
100
AcDbLine
 10
-570.000000000005
 20
3083.500000000001
 11
-570.000000000005
 21
3050.500000000001
  0
LINE
  5
16F
100
AcDbEntity
  8
1
  6
CONTINUOUS
 62
           7
100
AcDbLine
 10
-570.000000000005
 20
3083.500000000001
 11
-566.455357142863
 21
3088.500000000001
  0
LINE
  5
16E
100
AcDbEntity
  8
1
  6
CONTINUOUS
 62
           7
100
AcDbLine
 10
-570.000000000004
 20
2665.500000000002
 11
-570.0
 21
2650.000000000001
  0
LINE
  5
16D
100
AcDbEntity
  8
1
  6
CONTINUOUS
 62
           7
100
AcDbLine
 10
410.99206566863
 20
3088.500000000001
 11
-566.455357142863
 21
3088.500000000001
  0
LINE
  5
16C
100
AcDbEntity
  8
1
  6
CONTINUOUS
 62
           7
100
AcDbLine
 10
410.992065668631
 20
3050.500000000001
 11
410.99206566863
 21
3088.500000000001
  0
LINE
  5
16B
100
AcDbEntity
  8
1
  6
CONTINUOUS
 62
           7
100
AcDbLine
 10
415.0
 20
3050.500000000001
 11
-579.99999999999
 21
3050.500000000002
  0
LINE
  5
16A
100
AcDbEntity
  8
1
  6
CONTINUOUS
 62
           4
100
AcDbLine
 10
210.000000000001
 20
3088.500000000001
 11
210.0
 21
3089.500000000002
  0
LINE
  5
169
100
AcDbEntity
  8
1
  6
DOT_CENTER
 62
           2
100
AcDbLine
 10
473.997537221202
 20
2858.000000000001
 11
-664.640400689392
 21
2858.000000000001
  0
LINE
  5
168
100
AcDbEntity
  8
7
  6
CONTINUOUS
 62
           7
100
AcDbLine
 10
0.000000000001
 20
3325.0
 11
-115.0
 21
3325.0
  0
LINE
  5
167
100
AcDbEntity
  8
7
  6
CONTINUOUS
 62
           7
100
AcDbLine
 10
-88.652847999999
 20
3407.402829999999
 11
-109.147842999999
 21
3392.329780999999
  0
LINE
  5
166
100
AcDbEntity
  8
7
  6
CONTINUOUS
 62
           7
100
AcDbLine
 10
0.000000000001
 20
3412.0
 11
-84.599999999999
 21
3412.0
  0
LINE
  5
165
100
AcDbEntity
  8
7
  6
CONTINUOUS
 62
           7
100
AcDbLine
 10
-115.0
 20
3325.0
 11
-115.0
 21
3352.537538373368
  0
LINE
  5
164
100
AcDbEntity
  8
7
  6
CONTINUOUS
 62
           7
100
AcDbLine
 10
115.000000000001
 20
3325.0
 11
0.000000000001
 21
3325.0
  0
LINE
  5
163
100
AcDbEntity
  8
7
  6
CONTINUOUS
 62
           7
100
AcDbLine
 10
112.0
 20
3387.299999999998
 11
115.000000000001
 21
3352.537538373368
  0
LINE
  5
162
100
AcDbEntity
  8
7
  6
CONTINUOUS
 62
           4
100
AcDbLine
 10
-110.992022999999
 20
3390.5
 11
108.800000000001
 21
3390.5
  0
LINE
  5
161
100
AcDbEntity
  8
7
  6
CONTINUOUS
 62
           7
100
AcDbLine
 10
86.152847000001
 20
3407.402829999999
 11
106.776034
 21
3390.861695999999
  0
LINE
  5
160
100
AcDbEntity
  8
7
  6
CONTINUOUS
 62
           7
100
AcDbLine
 10
0.000000000001
 20
3412.0
 11
82.100000000001
 21
3412.0
  0
LINE
  5
15F
100
AcDbEntity
  8
2
  6
CONTINUOUS
 62
           7
100
AcDbLine
 10
108.613664000001
 20
3123.000000000002
 11
97.568642000001
 21
3096.500000000002
  0
LINE
  5
15E
100
AcDbEntity
  8
2
  6
CONTINUOUS
 62
           7
100
AcDbLine
 10
108.613664000001
 20
3123.000000000002
 11
108.613664000001
 21
3313.500000000001
  0
LINE
  5
15D
100
AcDbEntity
  8
2
  6
CONTINUOUS
 62
           7
100
AcDbLine
 10
108.613664000001
 20
3313.500000000001
 11
103.820541000001
 21
3325.0
  0
LINE
  5
15C
100
AcDbEntity
  8
2
  6
CONTINUOUS
 62
           4
100
AcDbLine
 10
-93.25
 20
3096.500000000002
 11
-93.25
 21
3094.500000000003
  0
LINE
  5
15B
100
AcDbEntity
  8
2
  6
CONTINUOUS
 62
           7
100
AcDbLine
 10
-108.613664
 20
3123.000000000002
 11
-108.613664
 21
3313.500000000001
  0
LINE
  5
15A
100
AcDbEntity
  8
2
  6
CONTINUOUS
 62
           7
100
AcDbLine
 10
-103.820540999999
 20
3325.0
 11
-108.613664
 21
3313.500000000001
  0
LINE
  5
159
100
AcDbEntity
  8
2
  6
CONTINUOUS
 62
           4
100
AcDbLine
 10
97.568642000001
 20
3096.500000000002
 11
-97.568641999999
 21
3096.500000000002
  0
LINE
  5
158
100
AcDbEntity
  8
2
  6
CONTINUOUS
 62
           7
100
AcDbLine
 10
-97.568641999999
 20
3096.500000000002
 11
-108.613664
 21
3123.000000000002
  0
LINE
  5
157
100
AcDbEntity
  8
1
  6
CONTINUOUS
 62
           4
100
AcDbLine
 10
115.000000000001
 20
3352.537538373368
 11
-115.0
 21
3352.537538373368
  0
LINE
  5
156
100
AcDbEntity
  8
7
  6
CONTINUOUS
 62
           7
100
AcDbLine
 10
-115.0
 20
3352.537538373368
 11
-112.0
 21
3387.111356999998
  0
LINE
  5
155
100
AcDbEntity
  8
7
  6
CONTINUOUS
 62
           7
100
AcDbLine
 10
115.000000000001
 20
3352.537538373368
 11
115.000000000001
 21
3325.0
  0
LINE
  5
154
100
AcDbEntity
  8
2
  6
CONTINUOUS
 62
           4
100
AcDbLine
 10
93.250000000001
 20
3094.500000000003
 11
93.250000000001
 21
3096.500000000002
  0
LINE
  5
153
100
AcDbEntity
  8
1
  6
CONTINUOUS
 62
           7
100
AcDbLine
 10
404.999999999999
 20
2665.500000000001
 11
404.999999999999
 21
3050.500000000001
  0
LINE
  5
152
100
AcDbEntity
  8
1
  6
CONTINUOUS
 62
           7
100
AcDbLine
 10
415.0
 20
2665.500000000001
 11
-579.999999999988
 21
2665.500000000002
  0
LINE
  5
151
100
AcDbEntity
  8
1
  6
CONTINUOUS
 62
           7
100
AcDbLine
 10
166.499999999999
 20
3241.300000000003
 11
166.499999999999
 21
3181.300000000004
  0
LINE
  5
150
100
AcDbEntity
  8
1
  6
CONTINUOUS
 62
           7
100
AcDbLine
 10
108.613664000001
 20
3181.300000000004
 11
108.613664000001
 21
3241.300000000003
  0
LINE
  5
14F
100
AcDbEntity
  8
1
  6
CONTINUOUS
 62
           7
100
AcDbLine
 10
118.613664000001
 20
3251.300000000003
 11
156.499999999999
 21
3251.300000000003
  0
LINE
  5
14E
100
AcDbEntity
  8
1
  6
CONTINUOUS
 62
           7
100
AcDbLine
 10
156.499999999999
 20
3171.300000000004
 11
118.613664000001
 21
3171.300000000004
  0
LINE
  5
14D
100
AcDbEntity
  8
1
  6
CONTINUOUS
 62
           7
100
AcDbLine
 10
-40.387316823278
 20
3088.500000000001
 11
-40.387316823278
 21
3050.500000000001
  0
LINE
  5
14C
100
AcDbEntity
  8
1
  6
CONTINUOUS
 62
           7
100
AcDbLine
 10
-570.000000000005
 20
3051.300000000002
 11
-570.000000000005
 21
2664.700000000004
  0
LINE
  5
14B
100
AcDbEntity
  8
1
  6
CONTINUOUS
 62
           7
100
AcDbLine
 10
-611.000000000005
 20
3090.500000000001
 11
-611.000000000005
 21
2650.000000000001
  0
LINE
  5
14A
100
AcDbEntity
  8
1
  6
CONTINUOUS
 62
           7
100
AcDbLine
 10
-611.000000000005
 20
3090.500000000001
 11
-577.413444419395
 21
3090.500000000001
  0
LINE
  5
149
100
AcDbEntity
  8
1
  6
CONTINUOUS
 62
           4
100
AcDbLine
 10
-587.618730888042
 20
3050.500000000001
 11
-611.000000000005
 21
3050.500000000001
  0
LINE
  5
148
100
AcDbEntity
  8
1
  6
CONTINUOUS
 62
           4
100
AcDbLine
 10
-587.618730888042
 20
3055.000000000001
 11
-611.000000000005
 21
3055.000000000001
  0
LINE
  5
147
100
AcDbEntity
  8
1
  6
CONTINUOUS
 62
           4
100
AcDbLine
 10
-587.618730888042
 20
2661.000000000001
 11
-611.000000000005
 21
2661.000000000001
  0
LINE
  5
146
100
AcDbEntity
  8
1
  6
CONTINUOUS
 62
           4
100
AcDbLine
 10
-587.618730888042
 20
2665.500000000001
 11
-611.000000000005
 21
2665.500000000001
  0
LINE
  5
145
100
AcDbEntity
  8
1
  6
CONTINUOUS
 62
           7
100
AcDbLine
 10
-40.387316823278
 20
2665.500000000006
 11
-40.387316823278
 21
2650.000000000001
  0
LINE
  5
144
100
AcDbEntity
  8
1
  6
CONTINUOUS
 62
           7
100
AcDbLine
 10
410.992065668631
 20
2650.000000000001
 11
410.992065668631
 21
2665.500000000001
  0
LINE
  5
143
100
AcDbEntity
  8
1
  6
CONTINUOUS
 62
           7
100
AcDbLine
 10
4648.496180490569
 20
3050.004518154819
 11
4648.496180490569
 21
2665.5
  0
LINE
  5
142
100
AcDbEntity
  8
1
  6
CONTINUOUS
 62
           2
100
AcDbLine
 10
4486.586770024565
 20
3037.0
 11
4081.650129781217
 21
3037.0
  0
LINE
  5
141
100
AcDbEntity
  8
1
  6
CONTINUOUS
 62
           2
100
AcDbLine
 10
4486.586770024565
 20
2676.999999999996
 11
4486.586770024565
 21
3037.0
  0
LINE
  5
140
100
AcDbEntity
  8
1
  6
CONTINUOUS
 62
           2
100
AcDbLine
 10
4081.650129781217
 20
2676.999999999996
 11
4486.586770024565
 21
2676.999999999996
  0
LINE
  5
13F
100
AcDbEntity
  8
1
  6
CONTINUOUS
 62
           2
100
AcDbLine
 10
4081.650129781217
 20
3037.0
 11
4081.650129781217
 21
2676.999999999996
  0
LINE
  5
13E
100
AcDbEntity
  8
1
  6
CONTINUOUS
 62
           4
100
AcDbLine
 10
4520.496180490569
 20
3088.004518154819
 11
4520.496180490569
 21
3089.004518154819
  0
LINE
  5
13D
100
AcDbEntity
  8
1
  6
CONTINUOUS
 62
           4
100
AcDbLine
 10
4520.496180490569
 20
3089.004518154819
 11
4515.489244226175
 21
3094.004518154819
  0
LINE
  5
13C
100
AcDbEntity
  8
1
  6
CONTINUOUS
 62
           4
100
AcDbLine
 10
4105.496180490569
 20
3094.004518154819
 11
4100.496180490569
 21
3089.004518154819
  0
LINE
  5
13B
100
AcDbEntity
  8
1
  6
CONTINUOUS
 62
           4
100
AcDbLine
 10
4515.489244226175
 20
3094.004518154819
 11
4105.496180490569
 21
3094.004518154819
  0
LINE
  5
13A
100
AcDbEntity
  8
1
  6
DOT_CENTER
 62
           2
100
AcDbLine
 10
4310.496180490569
 20
2549.379684115578
 11
4310.496180490569
 21
3445.483879124646
  0
LINE
  5
139
100
AcDbEntity
  8
1
  6
CONTINUOUS
 62
           7
100
AcDbLine
 10
4710.496180490569
 20
2632.500000000004
 11
4706.951537633428
 21
2627.500000000004
  0
LINE
  5
138
100
AcDbEntity
  8
1
  6
CONTINUOUS
 62
           7
100
AcDbLine
 10
4710.496180490569
 20
3049.700000000001
 11
4710.496180490569
 21
3083.004518154819
  0
LINE
  5
137
100
AcDbEntity
  8
1
  6
CONTINUOUS
 62
           7
100
AcDbLine
 10
4706.951537633426
 20
3088.004518154819
 11
4710.496180490569
 21
3083.004518154819
  0
LINE
  5
136
100
AcDbEntity
  8
1
  6
CONTINUOUS
 62
           7
100
AcDbLine
 10
4710.496180490569
 20
2632.500000000004
 11
4710.496180490569
 21
2666.299999999999
  0
LINE
  5
135
100
AcDbEntity
  8
1
  6
CONTINUOUS
 62
           7
100
AcDbLine
 10
3783.651807488296
 20
2665.5
 11
3783.651807488297
 21
2627.500000000004
  0
LINE
  5
134
100
AcDbEntity
  8
1
  6
CONTINUOUS
 62
           7
100
AcDbLine
 10
4706.951537633426
 20
3088.004518154819
 11
4402.496180490567
 21
3088.004518154819
  0
LINE
  5
133
100
AcDbEntity
  8
1
  6
CONTINUOUS
 62
           7
100
AcDbLine
 10
3783.651807488297
 20
3088.004518154819
 11
3783.651807488293
 21
3050.5
  0
LINE
  5
132
100
AcDbEntity
  8
1
  6
CONTINUOUS
 62
           7
100
AcDbLine
 10
4710.496180490565
 20
3050.504518154824
 11
3783.651807488293
 21
3050.5
  0
LINE
  5
131
100
AcDbEntity
  8
1
  6
CONTINUOUS
 62
           4
100
AcDbLine
 10
4100.496180490569
 20
3089.004518154819
 11
4100.496180490569
 21
3088.004518154819
  0
LINE
  5
130
100
AcDbEntity
  8
1
  6
DOT_CENTER
 62
           2
100
AcDbLine
 10
4845.953007985627
 20
2858.0
 11
3753.276679254057
 21
2858.0
  0
LINE
  5
12F
100
AcDbEntity
  8
7
  6
CONTINUOUS
 62
           7
100
AcDbLine
 10
4425.496180490569
 20
3325.000000000001
 11
4310.496180490569
 21
3325.000000000001
  0
LINE
  5
12E
100
AcDbEntity
  8
7
  6
CONTINUOUS
 62
           7
100
AcDbLine
 10
4419.64402349057
 20
3392.329780999999
 11
4399.14902849057
 21
3407.40283
  0
LINE
  5
12D
100
AcDbEntity
  8
7
  6
CONTINUOUS
 62
           7
100
AcDbLine
 10
4395.096180490569
 20
3412.000000000001
 11
4310.496180490569
 21
3412.000000000001
  0
LINE
  5
12C
100
AcDbEntity
  8
7
  6
CONTINUOUS
 62
           7
100
AcDbLine
 10
4425.496180490569
 20
3352.537538373365
 11
4425.496180490569
 21
3325.000000000001
  0
LINE
  5
12B
100
AcDbEntity
  8
7
  6
CONTINUOUS
 62
           7
100
AcDbLine
 10
4310.496180490569
 20
3325.000000000001
 11
4195.496180490569
 21
3325.000000000001
  0
LINE
  5
12A
100
AcDbEntity
  8
7
  6
CONTINUOUS
 62
           7
100
AcDbLine
 10
4195.496180490569
 20
3352.537538373365
 11
4198.496180490569
 21
3387.299999999998
  0
LINE
  5
129
100
AcDbEntity
  8
7
  6
CONTINUOUS
 62
           7
100
AcDbLine
 10
4203.720146490568
 20
3390.861696
 11
4224.343333490569
 21
3407.40283
  0
LINE
  5
128
100
AcDbEntity
  8
7
  6
CONTINUOUS
 62
           7
100
AcDbLine
 10
4228.396180490568
 20
3412.000000000001
 11
4310.496180490569
 21
3412.000000000001
  0
LINE
  5
127
100
AcDbEntity
  8
2
  6
CONTINUOUS
 62
           7
100
AcDbLine
 10
4212.92753849057
 20
3096.004518154819
 11
4201.882516490568
 21
3122.504518154819
  0
LINE
  5
126
100
AcDbEntity
  8
2
  6
CONTINUOUS
 62
           7
100
AcDbLine
 10
4201.882516490568
 20
3313.500000000001
 11
4201.882516490568
 21
3122.504518154819
  0
LINE
  5
125
100
AcDbEntity
  8
2
  6
CONTINUOUS
 62
           7
100
AcDbLine
 10
4206.675639490568
 20
3325.000000000001
 11
4201.882516490568
 21
3313.500000000001
  0
LINE
  5
124
100
AcDbEntity
  8
2
  6
CONTINUOUS
 62
           4
100
AcDbLine
 10
4403.746180490569
 20
3094.004518154819
 11
4403.746180490569
 21
3096.004518154819
  0
LINE
  5
123
100
AcDbEntity
  8
2
  6
CONTINUOUS
 62
           7
100
AcDbLine
 10
4419.109844490569
 20
3313.500000000001
 11
4419.109844490569
 21
3122.504518154819
  0
LINE
  5
122
100
AcDbEntity
  8
2
  6
CONTINUOUS
 62
           7
100
AcDbLine
 10
4419.109844490569
 20
3313.500000000001
 11
4414.316721490568
 21
3325.000000000001
  0
LINE
  5
121
100
AcDbEntity
  8
2
  6
CONTINUOUS
 62
           4
100
AcDbLine
 10
4408.064822490569
 20
3096.004518154819
 11
4212.92753849057
 21
3096.004518154819
  0
LINE
  5
120
100
AcDbEntity
  8
2
  6
CONTINUOUS
 62
           7
100
AcDbLine
 10
4419.109844490569
 20
3122.504518154819
 11
4408.064822490569
 21
3096.004518154819
  0
LINE
  5
11F
100
AcDbEntity
  8
7
  6
CONTINUOUS
 62
           7
100
AcDbLine
 10
4422.496180490569
 20
3387.111356999998
 11
4425.496180490569
 21
3352.537538373365
  0
LINE
  5
11E
100
AcDbEntity
  8
7
  6
CONTINUOUS
 62
           7
100
AcDbLine
 10
4195.496180490569
 20
3325.000000000001
 11
4195.496180490569
 21
3352.537538373365
  0
LINE
  5
11D
100
AcDbEntity
  8
2
  6
CONTINUOUS
 62
           4
100
AcDbLine
 10
4217.246180490569
 20
3096.004518154819
 11
4217.246180490569
 21
3094.004518154819
  0
LINE
  5
11C
100
AcDbEntity
  8
1
  6
CONTINUOUS
 62
           7
100
AcDbLine
 10
4052.29618049057
 20
2627.500000000004
 11
4052.29618049057
 21
2581.0
  0
LINE
  5
11B
100
AcDbEntity
  8
1
  6
CONTINUOUS
 62
           7
100
AcDbLine
 10
3783.651807488297
 20
2627.500000000004
 11
4237.366093202581
 21
2627.500000000007
  0
LINE
  5
11A
100
AcDbEntity
  8
1
  6
CONTINUOUS
 62
           7
100
AcDbLine
 10
3830.496180490562
 20
3050.500000000001
 11
3830.496180490562
 21
2665.5
  0
LINE
  5
119
100
AcDbEntity
  8
1
  6
CONTINUOUS
 62
           7
100
AcDbLine
 10
4568.69618049057
 20
2581.0
 11
4568.69618049057
 21
2627.500000000004
  0
LINE
  5
118
100
AcDbEntity
  8
1
  6
CONTINUOUS
 62
           7
100
AcDbLine
 10
4710.496180490569
 20
2665.5
 11
4710.496180490569
 21
3050.5
  0
LINE
  5
117
100
AcDbEntity
  8
1
  6
CONTINUOUS
 62
           7
100
AcDbLine
 10
4790.496180490571
 20
3055.0
 11
4790.496180490571
 21
2661.0
  0
LINE
  5
116
100
AcDbEntity
  8
1
  6
CONTINUOUS
 62
           4
100
AcDbLine
 10
4790.496180490571
 20
3055.0
 11
4755.996180490569
 21
3055.0
  0
LINE
  5
115
100
AcDbEntity
  8
1
  6
CONTINUOUS
 62
           4
100
AcDbLine
 10
4754.996180490569
 20
3090.5
 11
4754.996180490569
 21
3056.000000000001
  0
LINE
  5
114
100
AcDbEntity
  8
1
  6
CONTINUOUS
 62
           4
100
AcDbLine
 10
4754.996180490569
 20
3090.5
 11
4745.996180490569
 21
3090.5
  0
LINE
  5
113
100
AcDbEntity
  8
1
  6
CONTINUOUS
 62
           4
100
AcDbLine
 10
4745.996180490569
 20
3056.0
 11
4745.996180490569
 21
3090.5
  0
LINE
  5
112
100
AcDbEntity
  8
1
  6
CONTINUOUS
 62
           4
100
AcDbLine
 10
4744.996180490569
 20
3055.0
 11
4710.496180490565
 21
3055.0
  0
LINE
  5
111
100
AcDbEntity
  8
1
  6
CONTINUOUS
 62
           4
100
AcDbLine
 10
4755.996180490569
 20
2661.0
 11
4790.496180490571
 21
2661.0
  0
LINE
  5
110
100
AcDbEntity
  8
1
  6
CONTINUOUS
 62
           4
100
AcDbLine
 10
4754.996180490569
 20
2660.0
 11
4754.996180490569
 21
2625.5
  0
LINE
  5
10F
100
AcDbEntity
  8
1
  6
CONTINUOUS
 62
           4
100
AcDbLine
 10
4710.496180490565
 20
2661.0
 11
4744.996180490569
 21
2661.0
  0
LINE
  5
10E
100
AcDbEntity
  8
1
  6
CONTINUOUS
 62
           4
100
AcDbLine
 10
4745.996180490569
 20
2625.5
 11
4745.996180490569
 21
2660.0
  0
LINE
  5
10D
100
AcDbEntity
  8
1
  6
CONTINUOUS
 62
           4
100
AcDbLine
 10
4745.996180490569
 20
3050.5
 11
4745.996180490569
 21
2665.5
  0
LINE
  5
10C
100
AcDbEntity
  8
1
  6
CONTINUOUS
 62
           4
100
AcDbLine
 10
4754.996180490569
 20
2665.5
 11
4754.996180490569
 21
3050.5
  0
LINE
  5
10B
100
AcDbEntity
  8
1
  6
CONTINUOUS
 62
           4
100
AcDbLine
 10
4745.996180490569
 20
2625.5
 11
4754.996180490569
 21
2625.5
  0
LINE
  5
10A
100
AcDbEntity
  8
1
  6
CONTINUOUS
 62
           4
100
AcDbLine
 10
4012.996180490569
 20
2581.0
 11
4012.996180490569
 21
2575.0
  0
LINE
  5
109
100
AcDbEntity
  8
1
  6
CONTINUOUS
 62
           4
100
AcDbLine
 10
4607.996180490569
 20
2581.0
 11
4607.996180490569
 21
2575.0
  0
LINE
  5
108
100
AcDbEntity
  8
1
  6
CONTINUOUS
 62
           4
100
AcDbLine
 10
4607.996180490569
 20
2581.0
 11
4012.996180490569
 21
2581.0
  0
LINE
  5
107
100
AcDbEntity
  8
1
  6
CONTINUOUS
 62
           7
100
AcDbLine
 10
4310.496180490569
 20
2575.0
 11
4012.996180490569
 21
2575.0
  0
LINE
  5
106
100
AcDbEntity
  8
1
  6
CONTINUOUS
 62
           7
100
AcDbLine
 10
4607.996180490569
 20
2575.0
 11
4310.496180490569
 21
2575.0
  0
LINE
  5
105
100
AcDbEntity
  8
1
  6
CONTINUOUS
 62
           7
100
AcDbLine
 10
4710.496180490569
 20
2665.5
 11
3783.651807488296
 21
2665.5
  0
LINE
  5
104
100
AcDbEntity
  8
1
  6
CONTINUOUS
 62
           4
100
AcDbLine
 10
4425.496180490569
 20
3352.537538373365
 11
4195.496180490569
 21
3352.537538373365
  0
LINE
  5
103
100
AcDbEntity
  8
7
  6
CONTINUOUS
 62
           4
100
AcDbLine
 10
4201.696180490569
 20
3390.500000000001
 11
4421.48820349057
 21
3390.500000000001
  0
LINE
  5
102
100
AcDbEntity
  8
1
  6
CONTINUOUS
 62
           7
100
AcDbLine
 10
4750.496180490569
 20
3090.5
 11
4750.496180490569
 21
2625.5
  0
LINE
  5
101
100
AcDbEntity
  8
1
  6
CONTINUOUS
 62
           7
100
AcDbLine
 10
4710.496180490565
 20
3050.5
 11
4790.496180490571
 21
3050.5
  0
LINE
  5
100
100
AcDbEntity
  8
1
  6
CONTINUOUS
 62
           7
100
AcDbLine
 10
4790.496180490571
 20
2665.5
 11
4710.496180490565
 21
2665.5
  0
LINE
  5
FF
100
AcDbEntity
  8
1
  6
CONTINUOUS
 62
           7
100
AcDbLine
 10
4344.246180490569
 20
3170.804518154823
 11
4276.746180490569
 21
3170.804518154823
  0
LINE
  5
FE
100
AcDbEntity
  8
1
  6
CONTINUOUS
 62
           7
100
AcDbLine
 10
4276.746180490569
 20
3250.804518154823
 11
4344.246180490569
 21
3250.804518154823
  0
LINE
  5
FD
100
AcDbEntity
  8
1
  6
CONTINUOUS
 62
           7
100
AcDbLine
 10
4354.246180490569
 20
3240.804518154823
 11
4354.246180490569
 21
3180.804518154823
  0
LINE
  5
FC
100
AcDbEntity
  8
1
  6
CONTINUOUS
 62
           7
100
AcDbLine
 10
4266.746180490569
 20
3180.804518154823
 11
4266.746180490569
 21
3240.804518154823
  0
LINE
  5
FB
100
AcDbEntity
  8
1
  6
CONTINUOUS
 62
           7
100
AcDbLine
 10
4402.496180490567
 20
3088.004518154819
 11
4402.496180490567
 21
3050.004518154819
  0
LINE
  5
FA
100
AcDbEntity
  8
1
  6
CONTINUOUS
 62
           7
100
AcDbLine
 10
4237.366093202581
 20
3088.004518154819
 11
4237.366093202581
 21
3050.004518154819
  0
LINE
  5
F9
100
AcDbEntity
  8
1
  6
CONTINUOUS
 62
           7
100
AcDbLine
 10
4237.366093202581
 20
3088.004518154819
 11
3783.651807488297
 21
3088.004518154819
  0
LINE
  5
F8
100
AcDbEntity
  8
1
  6
CONTINUOUS
 62
           7
100
AcDbLine
 10
4237.366093202581
 20
2665.500000000007
 11
4237.366093202581
 21
2627.500000000007
  0
LINE
  5
F7
100
AcDbEntity
  8
1
  6
CONTINUOUS
 62
           7
100
AcDbLine
 10
4402.496180490567
 20
2665.500000000007
 11
4402.496180490567
 21
2627.500000000007
  0
LINE
  5
F6
100
AcDbEntity
  8
1
  6
CONTINUOUS
 62
           7
100
AcDbLine
 10
4402.496180490567
 20
2627.500000000007
 11
4706.951537633428
 21
2627.500000000004
  0
LINE
  5
F5
100
AcDbEntity
  8
1
  6
CONTINUOUS
 62
           7
100
AcDbLine
 10
4635.496180490569
 20
2627.500000000004
 11
4635.496180490569
 21
2665.5
  0
LINE
  5
F4
100
AcDbEntity
  8
1
  6
CONTINUOUS
 62
           7
100
AcDbLine
 10
4635.496180490569
 20
3050.004518154819
 11
4635.496180490569
 21
3088.004518154819
  0
LINE
  5
F3
100
AcDbEntity
  8
1
  6
DOT_CENTER
 62
           2
100
AcDbLine
 10
-285.000000000003
 20
6403.732682022966
 11
-285.000000000003
 21
6060.926047033987
  0
LINE
  5
F2
100
AcDbEntity
  8
1
  6
CONTINUOUS
 62
           4
100
AcDbLine
 10
39.999999999997
 20
6302.965598018149
 11
-610.000000000003
 21
6302.965598018149
  0
LINE
  5
F1
100
AcDbEntity
  8
1
  6
CONTINUOUS
 62
           7
100
AcDbLine
 10
-610.000000000003
 20
6298.465598018149
 11
39.999999999997
 21
6298.465598018149
  0
LINE
  5
F0
100
AcDbEntity
  8
1
  6
CONTINUOUS
 62
           4
100
AcDbLine
 10
-610.000000000003
 20
6293.965598018149
 11
39.999999999997
 21
6293.965598018149
  0
LINE
  5
EF
100
AcDbEntity
  8
1
  6
CONTINUOUS
 62
           7
100
AcDbLine
 10
-610.000000000003
 20
6298.465598018149
 11
-610.000000000003
 21
6333.465598018149
  0
LINE
  5
EE
100
AcDbEntity
  8
1
  6
CONTINUOUS
 62
           7
100
AcDbLine
 10
-610.000000000003
 20
6333.465598018149
 11
-605.000000000003
 21
6338.465598018149
  0
LINE
  5
ED
100
AcDbEntity
  8
1
  6
CONTINUOUS
 62
           7
100
AcDbLine
 10
-605.000000000003
 20
6338.465598018149
 11
34.999999999997
 21
6338.465598018149
  0
LINE
  5
EC
100
AcDbEntity
  8
1
  6
CONTINUOUS
 62
           7
100
AcDbLine
 10
39.999999999997
 20
6333.465598018149
 11
34.999999999997
 21
6338.465598018149
  0
LINE
  5
EB
100
AcDbEntity
  8
1
  6
CONTINUOUS
 62
           7
100
AcDbLine
 10
39.999999999997
 20
6333.465598018149
 11
39.999999999997
 21
6298.465598018149
  0
LINE
  5
EA
100
AcDbEntity
  8
1
  6
CONTINUOUS
 62
           7
100
AcDbLine
 10
34.999999999997
 20
6258.465598018149
 11
-605.000000000003
 21
6258.465598018149
  0
LINE
  5
E9
100
AcDbEntity
  8
1
  6
CONTINUOUS
 62
           7
100
AcDbLine
 10
39.999999999997
 20
6298.465598018149
 11
39.999999999997
 21
6263.465598018149
  0
LINE
  5
E8
100
AcDbEntity
  8
1
  6
CONTINUOUS
 62
           7
100
AcDbLine
 10
-610.000000000003
 20
6263.465598018149
 11
-610.000000000003
 21
6298.465598018149
  0
LINE
  5
E7
100
AcDbEntity
  8
1
  6
CONTINUOUS
 62
           7
100
AcDbLine
 10
-605.000000000003
 20
6258.465598018149
 11
-610.000000000003
 21
6263.465598018149
  0
LINE
  5
E6
100
AcDbEntity
  8
1
  6
CONTINUOUS
 62
           7
100
AcDbLine
 10
34.999999999997
 20
6258.465598018149
 11
39.999999999997
 21
6263.465598018149
  0
LINE
  5
E5
100
AcDbEntity
  8
1
  6
CONTINUOUS
 62
           7
100
AcDbLine
 10
390.000000000001
 20
5950.465598018147
 11
160.000000000003
 21
6180.465598018147
  0
LINE
  5
E4
100
AcDbEntity
  8
1
  6
CONTINUOUS
 62
           4
100
AcDbLine
 10
115.286004408818
 20
5819.715598018149
 11
109.265668111722
 21
5819.715598018149
  0
LINE
  5
E3
100
AcDbEntity
  8
1
  6
CONTINUOUS
 62
           4
100
AcDbLine
 10
115.286004408818
 20
5897.215598018149
 11
109.265668111722
 21
5897.215598018149
  0
LINE
  5
E2
100
AcDbEntity
  8
1
  6
CONTINUOUS
 62
           7
100
AcDbLine
 10
156.500000000001
 20
5814.715598018149
 11
123.946258446661
 21
5814.715598018149
  0
LINE
  5
E1
100
AcDbEntity
  8
1
  6
CONTINUOUS
 62
           7
100
AcDbLine
 10
123.946258446661
 20
5902.215598018149
 11
156.500000000001
 21
5902.215598018149
  0
LINE
  5
E0
100
AcDbEntity
  8
1
  6
CONTINUOUS
 62
           7
100
AcDbLine
 10
113.946258446661
 20
5824.715598018149
 11
113.946258446661
 21
5892.215598018149
  0
LINE
  5
DF
100
AcDbEntity
  8
1
  6
CONTINUOUS
 62
           7
100
AcDbLine
 10
166.500000000001
 20
5892.215598018149
 11
166.500000000001
 21
5824.715598018149
  0
LINE
  5
DE
100
AcDbEntity
  8
1
  6
CONTINUOUS
 62
           7
100
AcDbLine
 10
410.992065668632
 20
5785.33551073016
 11
-40.387316823276
 21
5331.621225015875
  0
LINE
  5
DD
100
AcDbEntity
  8
1
  6
CONTINUOUS
 62
           7
100
AcDbLine
 10
-569.956959680417
 20
5858.465598018151
 11
-174.999999999997
 21
6258.465598018149
  0
LINE
  5
DC
100
AcDbEntity
  8
1
  6
CONTINUOUS
 62
           7
100
AcDbLine
 10
-40.387316823276
 20
5331.621225015875
 11
-569.956959680417
 21
5858.465598018151
  0
LINE
  5
DB
100
AcDbEntity
  8
1
  6
CONTINUOUS
 62
           7
100
AcDbLine
 10
-569.999999999999
 20
6258.465598018149
 11
-569.999999999999
 21
6245.465598018149
  0
LINE
  5
DA
100
AcDbEntity
  8
1
  6
CONTINUOUS
 62
           7
100
AcDbLine
 10
-580.0
 20
6235.465598018149
 11
-569.999999999999
 21
6245.465598018149
  0
LINE
  5
D9
100
AcDbEntity
  8
1
  6
CONTINUOUS
 62
           7
100
AcDbLine
 10
-580.0
 20
6235.465598018149
 11
-579.999999999998
 21
5908.465598018147
  0
LINE
  5
D8
100
AcDbEntity
  8
1
  6
CONTINUOUS
 62
           7
100
AcDbLine
 10
30.503943030832
 20
6202.631218857563
 11
0.000000000002
 21
6258.465598018149
  0
LINE
  5
D7
100
AcDbEntity
  8
1
  6
CONTINUOUS
 62
           7
100
AcDbLine
 10
-185.999999999997
 20
5672.465598018149
 11
210.000000000003
 21
5672.465598018149
  0
LINE
  5
D6
100
AcDbEntity
  8
1
  6
CONTINUOUS
 62
           7
100
AcDbLine
 10
185.999999999994
 20
5672.465598018149
 11
185.999999999994
 21
6068.465598018149
  0
LINE
  5
D5
100
AcDbEntity
  8
1
  6
CONTINUOUS
 62
           7
100
AcDbLine
 10
185.999999999994
 20
6044.465598018142
 11
-209.999999999997
 21
6044.465598018142
  0
LINE
  5
D4
100
AcDbEntity
  8
1
  6
CONTINUOUS
 62
           7
100
AcDbLine
 10
-185.999999999997
 20
6044.465598018142
 11
-185.999999999997
 21
5648.465598018149
  0
LINE
  5
D3
100
AcDbEntity
  8
1
  6
DOT_CENTER
 62
           2
100
AcDbLine
 10
0.000000000001
 20
6404.57096890969
 11
0.0
 21
4123.146274265819
  0
LINE
  5
D2
100
AcDbEntity
  8
1
  6
CONTINUOUS
 62
           7
100
AcDbLine
 10
2700.496180490571
 20
2650.0
 11
2720.496180490571
 21
2650.0
  0
LINE
  5
D1
100
AcDbEntity
  8
1
  6
CONTINUOUS
 62
           7
100
AcDbLine
 10
2700.49618049057
 20
2550.0
 11
2700.496180490571
 21
2650.0
  0
LINE
  5
D0
100
AcDbEntity
  8
1
  6
CONTINUOUS
 62
           7
100
AcDbLine
 10
-999.999999999999
 20
4268.465598018149
 11
-999.999999999999
 21
6248.465598018149
  0
LINE
  5
CF
100
AcDbEntity
  8
1
  6
CONTINUOUS
 62
           7
100
AcDbLine
 10
1000.000000000001
 20
4268.465598018149
 11
1000.000000000001
 21
6248.465598018149
  0
LINE
  5
CE
100
AcDbEntity
  8
1
  6
CONTINUOUS
 62
           7
100
AcDbLine
 10
1050.000000000001
 20
2650.0
 11
-1049.999999999999
 21
2650.0
  0
LINE
  5
CD
100
AcDbEntity
  8
1
  6
CONTINUOUS
 62
           4
100
AcDbLine
 10
-1049.999999999999
 20
4268.465598018149
 11
1050.000000000001
 21
4268.465598018149
  0
LINE
  5
CC
100
AcDbEntity
  8
1
  6
CONTINUOUS
 62
           7
100
AcDbLine
 10
3700.496180490571
 20
2575.0
 11
4700.496180490569
 21
2575.0
  0
LINE
  5
CB
100
AcDbEntity
  8
1
  6
CONTINUOUS
 62
           7
100
AcDbLine
 10
-1049.999999999999
 20
2650.0
 11
-1049.999999999999
 21
500.0
  0
LINE
  5
CA
100
AcDbEntity
  8
1
  6
CONTINUOUS
 62
           7
100
AcDbLine
 10
2930.496180490567
 20
2089.999999999999
 11
2930.496180490567
 21
1850.0
  0
LINE
  5
C9
100
AcDbEntity
  8
1
  6
CONTINUOUS
 62
           7
100
AcDbLine
 10
2750.496180490567
 20
2089.999999999999
 11
2930.496180490567
 21
2089.999999999999
  0
LINE
  5
C8
100
AcDbEntity
  8
1
  6
CONTINUOUS
 62
           7
100
AcDbLine
 10
2930.496180490567
 20
1850.0
 11
2750.496180490567
 21
1850.0
  0
LINE
  5
C7
100
AcDbEntity
  8
1
  6
CONTINUOUS
 62
           7
100
AcDbLine
 10
2940.496180490569
 20
2450.0
 11
2750.496180490569
 21
2450.0
  0
LINE
  5
C6
100
AcDbEntity
  8
1
  6
CONTINUOUS
 62
           7
100
AcDbLine
 10
2750.496180490569
 20
2450.0
 11
2750.496180490569
 21
2362.0
  0
LINE
  5
C5
100
AcDbEntity
  8
1
  6
CONTINUOUS
 62
           7
100
AcDbLine
 10
2750.496180490569
 20
2362.0
 11
2940.496180490569
 21
2362.0
  0
LINE
  5
C4
100
AcDbEntity
  8
1
  6
CONTINUOUS
 62
           7
100
AcDbLine
 10
2940.496180490569
 20
2362.0
 11
2940.496180490569
 21
2450.0
  0
LINE
  5
C3
100
AcDbEntity
  8
1
  6
CONTINUOUS
 62
           4
100
AcDbLine
 10
-1039.999999999999
 20
6248.465598018149
 11
-1039.999999999999
 21
4268.465598018149
  0
LINE
  5
C2
100
AcDbEntity
  8
1
  6
CONTINUOUS
 62
           4
100
AcDbLine
 10
2700.49618049057
 20
2540.0
 11
4700.496180490569
 21
2540.0
  0
LINE
  5
C1
100
AcDbEntity
  8
1
  6
CONTINUOUS
 62
           4
100
AcDbLine
 10
-1002.999999999999
 20
6248.465598018149
 11
-1002.999999999999
 21
4268.465598018149
  0
LINE
  5
C0
100
AcDbEntity
  8
1
  6
CONTINUOUS
 62
           4
100
AcDbLine
 10
980.000000000001
 20
5268.465598018149
 11
520.0
 21
5268.465598018149
  0
LINE
  5
BF
100
AcDbEntity
  8
1
  6
CONTINUOUS
 62
           4
100
AcDbLine
 10
980.000000000001
 20
6228.465598018149
 11
520.0
 21
6228.465598018149
  0
LINE
  5
BE
100
AcDbEntity
  8
1
  6
CONTINUOUS
 62
           4
100
AcDbLine
 10
1003.000000000001
 20
6248.465598018149
 11
1003.000000000001
 21
4268.465598018149
  0
LINE
  5
BD
100
AcDbEntity
  8
1
  6
CONTINUOUS
 62
           4
100
AcDbLine
 10
980.000000000001
 20
5228.465598018149
 11
980.000000000001
 21
4268.465598018149
  0
LINE
  5
BC
100
AcDbEntity
  8
1
  6
CONTINUOUS
 62
           4
100
AcDbLine
 10
980.000000000001
 20
6228.465598018149
 11
980.000000000001
 21
5268.465598018149
  0
LINE
  5
BB
100
AcDbEntity
  8
1
  6
CONTINUOUS
 62
           7
100
AcDbLine
 10
1050.000000000001
 20
4248.465598018149
 11
1050.000000000001
 21
6248.465598018149
  0
LINE
  5
BA
100
AcDbEntity
  8
1
  6
DOT_CENTER
 62
           2
100
AcDbLine
 10
4000.496180490568
 20
675.0
 11
4000.496180490568
 21
525.0
  0
LINE
  5
B9
100
AcDbEntity
  8
1
  6
DOT_CENTER
 62
           2
100
AcDbLine
 10
3925.496180490569
 20
600.0
 11
4075.496180490569
 21
600.0
  0
LINE
  5
B8
100
AcDbEntity
  8
1
  6
DOT_CENTER
 62
           2
100
AcDbLine
 10
0.0
 20
3444.183879124644
 11
0.0
 21
-58.866848589818
  0
LINE
  5
B7
100
AcDbEntity
  8
1
  6
CONTINUOUS
 62
           7
100
AcDbLine
 10
-999.999999999999
 20
800.0
 11
1000.000000000001
 21
800.0
  0
LINE
  5
B6
100
AcDbEntity
  8
1
  6
CONTINUOUS
 62
           7
100
AcDbLine
 10
-999.999999999999
 20
513.85332266763
 11
-999.999999999999
 21
572.607085651512
  0
LINE
  5
B5
100
AcDbEntity
  8
1
  6
CONTINUOUS
 62
           7
100
AcDbLine
 10
985.000000000001
 20
540.0
 11
985.000000000001
 21
500.0
  0
LINE
  5
B4
100
AcDbEntity
  8
1
  6
LONG_DASHED
 62
           2
100
AcDbLine
 10
1000.000000000001
 20
50.0
 11
-999.999999999999
 21
50.0
  0
LINE
  5
B3
100
AcDbEntity
  8
1
  6
CONTINUOUS
 62
           7
100
AcDbLine
 10
1000.000000000001
 20
1900.0
 11
-999.999999999999
 21
1900.0
  0
LINE
  5
B2
100
AcDbEntity
  8
1
  6
LONG_DASHED
 62
           2
100
AcDbLine
 10
1000.000000000001
 20
50.0
 11
1000.000000000001
 21
500.0
  0
LINE
  5
B1
100
AcDbEntity
  8
1
  6
LONG_DASHED
 62
           2
100
AcDbLine
 10
-999.999999999999
 20
50.0
 11
-999.999999999999
 21
513.85332266763
  0
LINE
  5
B0
100
AcDbEntity
  8
1
  6
CONTINUOUS
 62
           7
100
AcDbLine
 10
3700.496180490569
 20
2000.0
 11
3700.496180490571
 21
2575.0
  0
LINE
  5
AF
100
AcDbEntity
  8
1
  6
CONTINUOUS
 62
           7
100
AcDbLine
 10
2700.49618049057
 20
2550.0
 11
4700.496180490569
 21
2550.0
  0
LINE
  5
AE
100
AcDbEntity
  8
1
  6
CONTINUOUS
 62
           4
100
AcDbLine
 10
2700.49618049057
 20
2503.0
 11
4700.496180490569
 21
2503.0
  0
LINE
  5
AD
100
AcDbEntity
  8
1
  6
CONTINUOUS
 62
           7
100
AcDbLine
 10
4700.496180490569
 20
2500.0
 11
2700.49618049057
 21
2500.0
  0
LINE
  5
AC
100
AcDbEntity
  8
1
  6
CONTINUOUS
 62
           7
100
AcDbLine
 10
4700.496180490569
 20
500.0
 11
4700.496180490569
 21
2575.0
  0
LINE
  5
AB
100
AcDbEntity
  8
1
  6
CONTINUOUS
 62
           7
100
AcDbLine
 10
2700.49618049057
 20
500.0
 11
2700.49618049057
 21
2550.0
  0
LINE
  5
AA
100
AcDbEntity
  8
1
  6
CONTINUOUS
 62
           7
100
AcDbLine
 10
1050.000000000001
 20
2500.0
 11
-1049.999999999999
 21
2500.0
  0
LINE
  5
A9
100
AcDbEntity
  8
1
  6
CONTINUOUS
 62
           7
100
AcDbLine
 10
1050.000000000001
 20
500.0
 11
1050.000000000001
 21
2650.0
  0
LINE
  5
A8
100
AcDbEntity
  8
1
  6
CONTINUOUS
 62
           7
100
AcDbLine
 10
1050.000000000001
 20
6248.465598018149
 11
0.0
 21
6248.465598018149
  0
LINE
  5
A7
100
AcDbEntity
  8
1
  6
CONTINUOUS
 62
           4
100
AcDbLine
 10
-979.999999999999
 20
5268.465598018149
 11
-979.999999999999
 21
6228.465598018149
  0
LINE
  5
A6
100
AcDbEntity
  8
1
  6
CONTINUOUS
 62
           4
100
AcDbLine
 10
-979.999999999999
 20
5268.465598018149
 11
-520.0
 21
5268.465598018149
  0
LINE
  5
A5
100
AcDbEntity
  8
1
  6
CONTINUOUS
 62
           4
100
AcDbLine
 10
-979.999999999999
 20
5228.465598018149
 11
-979.999999999999
 21
4268.465598018149
  0
LINE
  5
A4
100
AcDbEntity
  8
1
  6
CONTINUOUS
 62
           7
100
AcDbLine
 10
-1049.999999999999
 20
6248.465598018149
 11
-1049.999999999999
 21
4248.465598018149
  0
LINE
  5
A3
100
AcDbEntity
  8
1
  6
CONTINUOUS
 62
           7
100
AcDbLine
 10
-1049.999999999999
 20
4248.465598018149
 11
1050.000000000001
 21
4248.465598018149
  0
LINE
  5
A2
100
AcDbEntity
  8
1
  6
CONTINUOUS
 62
           7
100
AcDbLine
 10
2554.736075381326
 20
500.0
 11
4852.316281614856
 21
500.0
  0
LINE
  5
A1
100
AcDbEntity
  8
1
  6
CONTINUOUS
 62
           4
100
AcDbLine
 10
3680.496180490569
 20
2480.0
 11
2720.496180490569
 21
2480.0
  0
LINE
  5
A0
100
AcDbEntity
  8
1
  6
CONTINUOUS
 62
           4
100
AcDbLine
 10
2720.496180490569
 20
2480.0
 11
2720.496180490569
 21
520.0
  0
LINE
  5
9F
100
AcDbEntity
  8
1
  6
CONTINUOUS
 62
           4
100
AcDbLine
 10
2720.496180490569
 20
520.0
 11
3680.496180490569
 21
520.0
  0
LINE
  5
9E
100
AcDbEntity
  8
1
  6
CONTINUOUS
 62
           4
100
AcDbLine
 10
3720.496180490569
 20
520.0
 11
4680.496180490569
 21
520.0
  0
LINE
  5
9D
100
AcDbEntity
  8
1
  6
CONTINUOUS
 62
           4
100
AcDbLine
 10
4680.496180490569
 20
520.0
 11
4680.496180490569
 21
1980.0
  0
LINE
  5
9C
100
AcDbEntity
  8
1
  6
CONTINUOUS
 62
           4
100
AcDbLine
 10
4680.496180490569
 20
1980.0
 11
3720.496180490569
 21
1980.0
  0
LINE
  5
9B
100
AcDbEntity
  8
1
  6
LONG_DASHED
 62
           2
100
AcDbLine
 10
3250.496180490568
 20
500.0
 11
3250.496180490568
 21
50.0
  0
LINE
  5
9A
100
AcDbEntity
  8
1
  6
LONG_DASHED
 62
           2
100
AcDbLine
 10
3250.496180490568
 20
50.0
 11
4650.496180490569
 21
50.0
  0
LINE
  5
99
100
AcDbEntity
  8
1
  6
LONG_DASHED
 62
           2
100
AcDbLine
 10
4650.496180490569
 20
50.0
 11
4650.496180490569
 21
500.0
  0
LINE
  5
98
100
AcDbEntity
  8
1
  6
CONTINUOUS
 62
           7
100
AcDbLine
 10
-984.999999999999
 20
500.0
 11
-984.999999999999
 21
540.0
  0
LINE
  5
97
100
AcDbEntity
  8
1
  6
CONTINUOUS
 62
           7
100
AcDbLine
 10
985.000000000001
 20
540.0
 11
-984.999999999999
 21
540.0
  0
LINE
  5
96
100
AcDbEntity
  8
1
  6
CONTINUOUS
 62
           4
100
AcDbLine
 10
520.0
 20
6228.465598018149
 11
520.0
 21
5268.465598018149
  0
LINE
  5
95
100
AcDbEntity
  8
1
  6
CONTINUOUS
 62
           7
100
AcDbLine
 10
500.000000000001
 20
5248.465598018149
 11
500.000000000001
 21
6248.465598018149
  0
LINE
  5
94
100
AcDbEntity
  8
1
  6
CONTINUOUS
 62
           4
100
AcDbLine
 10
-520.0
 20
5268.465598018149
 11
-520.0
 21
5654.561112885912
  0
LINE
  5
93
100
AcDbEntity
  8
1
  6
CONTINUOUS
 62
           7
100
AcDbLine
 10
-499.999999999999
 20
5248.465598018149
 11
-499.999999999999
 21
5622.86598078261
  0
LINE
  5
92
100
AcDbEntity
  8
1
  6
CONTINUOUS
 62
           7
100
AcDbLine
 10
1166.893991579731
 20
500.0
 11
-1258.038310471419
 21
500.0
  0
LINE
  5
91
100
AcDbEntity
  8
1
  6
DOT_CENTER
 62
           2
100
AcDbLine
 10
651.051030665498
 20
5858.465598018149
 11
-678.157631846373
 21
5858.465598018149
  0
LINE
  5
90
100
AcDbEntity
  8
1
  6
CONTINUOUS
 62
           7
100
AcDbLine
 10
-1049.999999999999
 20
5248.465598018149
 11
1050.000000000001
 21
5248.465598018149
  0
LINE
  5
8F
100
AcDbEntity
  8
1
  6
CONTINUOUS
 62
           7
100
AcDbLine
 10
-574.414115149107
 20
6248.465598018149
 11
-1049.999999999999
 21
6248.465598018149
  0
LINE
  5
8E
100
AcDbEntity
  8
1
  6
CONTINUOUS
 62
           4
100
AcDbLine
 10
-579.999999999999
 20
6228.465598018149
 11
-979.999999999999
 21
6228.465598018149
  0
LINE
  5
8D
100
AcDbEntity
  8
1
  6
CONTINUOUS
 62
           7
100
AcDbLine
 10
3602.496180490569
 20
1719.750000000002
 11
3673.371922948203
 21
1719.750000000002
  0
LINE
  5
8C
100
AcDbEntity
  8
1
  6
CONTINUOUS
 62
           7
100
AcDbLine
 10
3602.496180490569
 20
1739.750000000002
 11
3679.855168395271
 21
1739.750000000002
  0
LINE
  5
8B
100
AcDbEntity
  8
1
  6
CONTINUOUS
 62
           7
100
AcDbLine
 10
3565.496180490569
 20
1770.000000000002
 11
3565.496180490569
 21
1756.750000000002
  0
LINE
  5
8A
100
AcDbEntity
  8
1
  6
CONTINUOUS
 62
           7
100
AcDbLine
 10
3562.996180490568
 20
1770.000000000001
 11
3587.99618049057
 21
1770.000000000001
  0
LINE
  5
89
100
AcDbEntity
  8
1
  6
CONTINUOUS
 62
           7
100
AcDbLine
 10
3587.996180490569
 20
1800.000000000002
 11
3587.99618049057
 21
1770.000000000001
  0
LINE
  5
88
100
AcDbEntity
  8
1
  6
CONTINUOUS
 62
           7
100
AcDbLine
 10
3562.996180490569
 20
1800.000000000002
 11
3562.996180490568
 21
1770.000000000001
  0
LINE
  5
87
100
AcDbEntity
  8
1
  6
CONTINUOUS
 62
           7
100
AcDbLine
 10
3585.496180490569
 20
1756.750000000002
 11
3585.496180490569
 21
1770.000000000002
  0
LINE
  5
86
100
AcDbEntity
  8
1
  6
CONTINUOUS
 62
           7
100
AcDbLine
 10
2750.496180490569
 20
1849.999999999999
 11
2750.496180490569
 21
2089.999999999999
  0
LINE
  5
85
100
AcDbEntity
  8
1
  6
CONTINUOUS
 62
           4
100
AcDbLine
 10
1040.0
 20
5248.465598018149
 11
1040.000000000001
 21
4268.465598018149
  0
LINE
  5
84
100
AcDbEntity
  8
1
  6
CONTINUOUS
 62
           4
100
AcDbLine
 10
-979.999999999999
 20
5228.465598018149
 11
980.000000000001
 21
5228.465598018149
  0
LINE
  5
83
100
AcDbEntity
  8
1
  6
CONTINUOUS
 62
           7
100
AcDbLine
 10
4700.496180490569
 20
2000.0
 11
3700.496180490569
 21
2000.0
  0
LINE
  5
82
100
AcDbEntity
  8
1
  6
CONTINUOUS
 62
           4
100
AcDbLine
 10
3720.496180490569
 20
2480.0
 11
3720.496180490569
 21
2020.0
  0
LINE
  5
81
100
AcDbEntity
  8
1
  6
CONTINUOUS
 62
           4
100
AcDbLine
 10
4680.496180490569
 20
2480.0
 11
3720.496180490569
 21
2480.0
  0
LINE
  5
80
100
AcDbEntity
  8
1
  6
CONTINUOUS
 62
           4
100
AcDbLine
 10
4680.496180490569
 20
2020.0
 11
4680.496180490569
 21
2480.0
  0
LINE
  5
7F
100
AcDbEntity
  8
1
  6
CONTINUOUS
 62
           4
100
AcDbLine
 10
3720.496180490569
 20
2020.0
 11
4680.496180490569
 21
2020.0
  0
LINE
  5
7E
100
AcDbEntity
  8
1
  6
CONTINUOUS
 62
           7
100
AcDbLine
 10
1000.000000000001
 20
2000.0
 11
-999.999999999999
 21
2000.0
  0
LINE
  5
7D
100
AcDbEntity
  8
1
  6
CONTINUOUS
 62
           7
100
AcDbLine
 10
0.0
 20
2500.0
 11
0.0
 21
2000.0
  0
LINE
  5
7C
100
AcDbEntity
  8
1
  6
CONTINUOUS
 62
           7
100
AcDbLine
 10
1000.000000000001
 20
500.0
 11
1000.000000000001
 21
2500.0
  0
LINE
  5
7B
100
AcDbEntity
  8
1
  6
CONTINUOUS
 62
           7
100
AcDbLine
 10
-999.999999999999
 20
513.85332266763
 11
-999.999999999999
 21
2500.0
  0
LINE
  5
7A
100
AcDbEntity
  8
1
  6
CONTINUOUS
 62
           7
100
AcDbLine
 10
985.000000000001
 20
500.0
 11
1000.000000000001
 21
500.0
  0
LINE
  5
79
100
AcDbEntity
  8
1
  6
CONTINUOUS
 62
           7
100
AcDbLine
 10
3450.496180490571
 20
2200.000000000002
 11
3650.496180490569
 21
2200.000000000002
  0
LINE
  5
78
100
AcDbEntity
  8
1
  6
CONTINUOUS
 62
           7
100
AcDbLine
 10
3650.496180490569
 20
2200.000000000002
 11
3650.496180490569
 21
1800.000000000002
  0
LINE
  5
77
100
AcDbEntity
  8
1
  6
CONTINUOUS
 62
           7
100
AcDbLine
 10
3650.496180490569
 20
1800.000000000002
 11
3450.496180490571
 21
1800.000000000002
  0
LINE
  5
76
100
AcDbEntity
  8
1
  6
CONTINUOUS
 62
           7
100
AcDbLine
 10
3450.496180490571
 20
1800.000000000002
 11
3450.496180490571
 21
2200.000000000002
  0
LINE
  5
75
100
AcDbEntity
  8
1
  6
CONTINUOUS
 62
           4
100
AcDbLine
 10
3650.496180490569
 20
1800.000000000002
 11
3680.496180490569
 21
1800.000000000002
  0
LINE
  5
74
100
AcDbEntity
  8
1
  6
CONTINUOUS
 62
           4
100
AcDbLine
 10
3650.496180490569
 20
2200.000000000002
 11
3680.496180490569
 21
2200.000000000002
  0
LINE
  5
73
100
AcDbEntity
  8
1
  6
CONTINUOUS
 62
           7
100
AcDbLine
 10
1050.000000000001
 20
2200.000000000002
 11
1210.000000000001
 21
2200.000000000002
  0
LINE
  5
72
100
AcDbEntity
  8
1
  6
CONTINUOUS
 62
           7
100
AcDbLine
 10
1210.000000000001
 20
2200.000000000002
 11
1210.000000000001
 21
1800.000000000002
  0
LINE
  5
71
100
AcDbEntity
  8
1
  6
CONTINUOUS
 62
           7
100
AcDbLine
 10
1210.000000000001
 20
1800.000000000002
 11
1050.000000000001
 21
1800.000000000002
  0
LINE
  5
70
100
AcDbEntity
  8
1
  6
CONTINUOUS
 62
           7
100
AcDbLine
 10
1050.000000000001
 20
5198.465598018149
 11
1210.000000000001
 21
5198.465598018149
  0
LINE
  5
6F
100
AcDbEntity
  8
1
  6
CONTINUOUS
 62
           7
100
AcDbLine
 10
1210.000000000001
 20
5198.465598018149
 11
1210.000000000001
 21
4998.465598018149
  0
LINE
  5
6E
100
AcDbEntity
  8
1
  6
CONTINUOUS
 62
           7
100
AcDbLine
 10
1210.000000000001
 20
4998.465598018149
 11
1050.000000000001
 21
4998.465598018149
  0
LINE
  5
6D
100
AcDbEntity
  8
1
  6
CONTINUOUS
 62
           7
100
AcDbLine
 10
2750.496180490569
 20
2252.999999999999
 11
2750.496180490569
 21
2139.999999999999
  0
LINE
  5
6C
100
AcDbEntity
  8
1
  6
CONTINUOUS
 62
           7
100
AcDbLine
 10
2930.49618049057
 20
2253.0
 11
2750.496180490569
 21
2252.999999999999
  0
LINE
  5
6B
100
AcDbEntity
  8
1
  6
CONTINUOUS
 62
           7
100
AcDbLine
 10
2930.49618049057
 20
2139.999999999999
 11
2930.49618049057
 21
2253.0
  0
LINE
  5
6A
100
AcDbEntity
  8
1
  6
CONTINUOUS
 62
           7
100
AcDbLine
 10
2750.496180490569
 20
2139.999999999999
 11
2930.49618049057
 21
2139.999999999999
  0
LINE
  5
69
100
AcDbEntity
  8
1
  6
CONTINUOUS
 62
           7
100
AcDbLine
 10
1000.000000000002
 20
1763.744569986043
 11
-999.999999999999
 21
1763.744569986043
  0
LINE
  5
68
100
AcDbEntity
  8
1
  6
CONTINUOUS
 62
           7
100
AcDbLine
 10
-569.497691536608
 20
986.513526798371
 11
575.000000000001
 21
986.513526798371
  0
LINE
  5
67
100
AcDbEntity
  8
1
  6
CONTINUOUS
 62
           4
100
AcDbLine
 10
3720.496180490572
 20
1800.831132334587
 11
3720.496180490572
 21
520.000000000001
  0
LINE
  5
66
100
AcDbEntity
  8
1
  6
CONTINUOUS
 62
           7
100
AcDbLine
 10
3700.496180490572
 20
1784.157226830846
 11
3700.496180490572
 21
2000.000000000001
  0
LINE
  5
65
100
AcDbEntity
  8
1
  6
CONTINUOUS
 62
           4
100
AcDbLine
 10
3680.496180490572
 20
1741.488764155308
 11
3680.496180490569
 21
2480.0
  0
LINE
  5
64
100
AcDbEntity
  8
1
  6
CONTINUOUS
 62
           4
100
AcDbLine
 10
3720.496180490572
 20
1980.000000000001
 11
3720.496180490572
 21
1814.464669216343
  0
LINE
  5
63
100
AcDbEntity
  8
1
  6
CONTINUOUS
 62
           4
100
AcDbLine
 10
3680.496180490572
 20
520.000000000001
 11
3680.496180490572
 21
1715.525103244276
  0
LINE
  5
62
100
AcDbEntity
  8
1
  6
CONTINUOUS
 62
           7
100
AcDbLine
 10
3700.496180490572
 20
500.000000000001
 11
3700.496180490572
 21
1767.293273528178
  0
LINE
  5
61
100
AcDbEntity
  8
___S__
  6
DOT_CENTER
 62
           3
100
AcDbLine
 10
-574.999999999998
 20
1067.063266596463
 11
-575.0
 21
982.067556365338
  0
LINE
  5
60
100
AcDbEntity
  8
____
  6
CONTINUOUS
 62
           3
100
AcDbLine
 10
-569.595947044879
 20
1060.459504816181
 11
-569.595947044879
 21
1058.581574068058
  0
LINE
  5
5F
100
AcDbEntity
  8
____
  6
CONTINUOUS
 62
           3
100
AcDbLine
 10
-579.912775413743
 20
1060.928987503212
 11
-570.087224586254
 21
1060.928987503212
  0
LINE
  5
5E
100
AcDbEntity
  8
____
  6
CONTINUOUS
 62
           3
100
AcDbLine
 10
-580.404052955117
 20
1058.581574068058
 11
-580.404052955117
 21
1060.459504816181
  0
LINE
  5
5D
100
AcDbEntity
  8
____
  6
CONTINUOUS
 62
           3
100
AcDbLine
 10
-569.497691536607
 20
1022.900889853725
 11
-580.502308463383
 21
1022.900889853726
  0
LINE
  5
5C
100
AcDbEntity
  8
____
  6
CONTINUOUS
 62
           3
100
AcDbLine
 10
-569.497691536606
 20
1058.581574068058
 11
-569.497691536607
 21
1022.900889853725
  0
LINE
  5
5B
100
AcDbEntity
  8
____
  6
CONTINUOUS
 62
           3
100
AcDbLine
 10
-580.502308463382
 20
1058.581574068058
 11
-569.497691536606
 21
1058.581574068058
  0
LINE
  5
5A
100
AcDbEntity
  8
____
  6
CONTINUOUS
 62
           3
100
AcDbLine
 10
-580.502308463383
 20
1022.900889853726
 11
-580.502308463382
 21
1058.581574068058
  0
LINE
  5
59
100
AcDbEntity
  8
____
  6
CONTINUOUS
 62
           3
100
AcDbLine
 10
-580.404052955118
 20
984.403309517209
 11
-580.404052955118
 21
986.281240265332
  0
LINE
  5
58
100
AcDbEntity
  8
____
  6
CONTINUOUS
 62
           3
100
AcDbLine
 10
-570.087224586256
 20
983.933826830178
 11
-579.912775413744
 21
983.933826830178
  0
LINE
  5
57
100
AcDbEntity
  8
____
  6
CONTINUOUS
 62
           3
100
AcDbLine
 10
-569.595947044881
 20
986.281240265332
 11
-569.595947044881
 21
984.403309517209
  0
LINE
  5
56
100
AcDbEntity
  8
____
  6
CONTINUOUS
 62
           3
100
AcDbLine
 10
-580.158414184431
 20
1022.900889853726
 11
-580.158414184431
 21
1021.961924479664
  0
LINE
  5
55
100
AcDbEntity
  8
____
  6
CONTINUOUS
 62
           3
100
AcDbLine
 10
-569.841585815568
 20
1022.900889853725
 11
-580.158414184431
 21
1022.900889853726
  0
LINE
  5
54
100
AcDbEntity
  8
____
  6
CONTINUOUS
 62
           3
100
AcDbLine
 10
-569.841585815568
 20
1021.961924479664
 11
-569.841585815568
 21
1022.900889853725
  0
LINE
  5
53
100
AcDbEntity
  8
____
  6
CONTINUOUS
 62
           3
100
AcDbLine
 10
-580.404052955117
 20
1060.459504816181
 11
-569.595947044879
 21
1060.459504816181
  0
LINE
  5
52
100
AcDbEntity
  8
____
  6
CONTINUOUS
 62
           3
100
AcDbLine
 10
-580.502308463383
 20
1021.961924479664
 11
-569.497691536607
 21
1021.961924479664
  0
LINE
  5
51
100
AcDbEntity
  8
____
  6
CONTINUOUS
 62
           3
100
AcDbLine
 10
-580.502308463384
 20
986.281240265332
 11
-580.502308463383
 21
1021.961924479664
  0
LINE
  5
50
100
AcDbEntity
  8
____
  6
CONTINUOUS
 62
           3
100
AcDbLine
 10
-569.497691536608
 20
986.281240265332
 11
-580.502308463384
 21
986.281240265332
  0
LINE
  5
4F
100
AcDbEntity
  8
____
  6
CONTINUOUS
 62
           3
100
AcDbLine
 10
-569.497691536607
 20
1021.961924479664
 11
-569.497691536608
 21
986.281240265332
  0
LINE
  5
4E
100
AcDbEntity
  8
____
  6
CONTINUOUS
 62
           3
100
AcDbLine
 10
-580.404052955117
 20
1060.459504816181
 11
-579.912775413743
 21
1060.928987503212
  0
LINE
  5
4D
100
AcDbEntity
  8
____
  6
CONTINUOUS
 62
           3
100
AcDbLine
 10
-570.087224586254
 20
1060.928987503212
 11
-569.595947044879
 21
1060.459504816181
  0
LINE
  5
4C
100
AcDbEntity
  8
____
  6
CONTINUOUS
 62
           3
100
AcDbLine
 10
-579.912775413744
 20
983.933826830178
 11
-580.404052955118
 21
984.403309517209
  0
LINE
  5
4B
100
AcDbEntity
  8
____
  6
CONTINUOUS
 62
           3
100
AcDbLine
 10
-569.595947044881
 20
984.403309517209
 11
-570.087224586256
 21
983.933826830178
  0
LINE
  5
4A
100
AcDbEntity
  8
____
  6
CONTINUOUS
 62
           3
100
AcDbLine
 10
-580.404052955118
 20
984.403309517209
 11
-569.595947044881
 21
984.403309517209
  0
LINE
  5
49
100
AcDbEntity
  8
____
  6
CONTINUOUS
 62
           3
100
AcDbLine
 10
-580.404052955095
 20
1538.392880207261
 11
-569.595947044857
 21
1538.392880207261
  0
LINE
  5
48
100
AcDbEntity
  8
____
  6
CONTINUOUS
 62
           3
100
AcDbLine
 10
-569.595947044857
 20
1538.392880207261
 11
-570.087224586231
 21
1537.923397520231
  0
LINE
  5
47
100
AcDbEntity
  8
____
  6
CONTINUOUS
 62
           3
100
AcDbLine
 10
-579.91277541372
 20
1537.923397520231
 11
-580.404052955095
 21
1538.392880207261
  0
LINE
  5
46
100
AcDbEntity
  8
____
  6
CONTINUOUS
 62
           3
100
AcDbLine
 10
-570.08722458623
 20
1614.918558193265
 11
-569.595947044856
 21
1614.449075506233
  0
LINE
  5
45
100
AcDbEntity
  8
____
  6
CONTINUOUS
 62
           3
100
AcDbLine
 10
-580.404052955094
 20
1614.449075506233
 11
-579.912775413719
 21
1614.918558193265
  0
LINE
  5
44
100
AcDbEntity
  8
____
  6
CONTINUOUS
 62
           3
100
AcDbLine
 10
-569.497691536591
 20
1575.951495169717
 11
-569.497691536591
 21
1540.270810955385
  0
LINE
  5
43
100
AcDbEntity
  8
____
  6
CONTINUOUS
 62
           3
100
AcDbLine
 10
-569.497691536591
 20
1540.270810955385
 11
-580.502308463368
 21
1540.270810955385
  0
LINE
  5
42
100
AcDbEntity
  8
____
  6
CONTINUOUS
 62
           3
100
AcDbLine
 10
-580.502308463368
 20
1540.270810955385
 11
-580.502308463368
 21
1575.951495169717
  0
LINE
  5
41
100
AcDbEntity
  8
____
  6
CONTINUOUS
 62
           3
100
AcDbLine
 10
-580.502308463368
 20
1575.951495169717
 11
-569.497691536591
 21
1575.951495169717
  0
LINE
  5
40
100
AcDbEntity
  8
____
  6
CONTINUOUS
 62
           3
100
AcDbLine
 10
-580.404052955094
 20
1614.449075506233
 11
-569.595947044856
 21
1614.449075506233
  0
LINE
  5
3F
100
AcDbEntity
  8
____
  6
CONTINUOUS
 62
           3
100
AcDbLine
 10
-569.841585815544
 20
1575.951495169717
 11
-569.841585815544
 21
1576.890460543779
  0
LINE
  5
3E
100
AcDbEntity
  8
____
  6
CONTINUOUS
 62
           3
100
AcDbLine
 10
-569.841585815544
 20
1576.890460543779
 11
-580.158414184407
 21
1576.890460543779
  0
LINE
  5
3D
100
AcDbEntity
  8
____
  6
CONTINUOUS
 62
           3
100
AcDbLine
 10
-580.158414184407
 20
1576.890460543779
 11
-580.158414184407
 21
1575.951495169717
  0
LINE
  5
3C
100
AcDbEntity
  8
____
  6
CONTINUOUS
 62
           3
100
AcDbLine
 10
-569.595947044857
 20
1540.270810955385
 11
-569.595947044857
 21
1538.392880207261
  0
LINE
  5
3B
100
AcDbEntity
  8
____
  6
CONTINUOUS
 62
           3
100
AcDbLine
 10
-570.087224586231
 20
1537.923397520231
 11
-579.91277541372
 21
1537.923397520231
  0
LINE
  5
3A
100
AcDbEntity
  8
____
  6
CONTINUOUS
 62
           3
100
AcDbLine
 10
-580.404052955095
 20
1538.392880207261
 11
-580.404052955095
 21
1540.270810955385
  0
LINE
  5
39
100
AcDbEntity
  8
____
  6
CONTINUOUS
 62
           3
100
AcDbLine
 10
-580.502308463368
 20
1576.890460543779
 11
-580.502308463367
 21
1612.571144758113
  0
LINE
  5
38
100
AcDbEntity
  8
____
  6
CONTINUOUS
 62
           3
100
AcDbLine
 10
-580.502308463367
 20
1612.571144758113
 11
-569.49769153659
 21
1612.571144758111
  0
LINE
  5
37
100
AcDbEntity
  8
____
  6
CONTINUOUS
 62
           3
100
AcDbLine
 10
-569.49769153659
 20
1612.571144758111
 11
-569.497691536591
 21
1576.890460543779
  0
LINE
  5
36
100
AcDbEntity
  8
____
  6
CONTINUOUS
 62
           3
100
AcDbLine
 10
-569.497691536591
 20
1576.890460543779
 11
-580.502308463368
 21
1576.890460543779
  0
LINE
  5
35
100
AcDbEntity
  8
____
  6
CONTINUOUS
 62
           3
100
AcDbLine
 10
-580.404052955094
 20
1612.571144758113
 11
-580.404052955094
 21
1614.449075506233
  0
LINE
  5
34
100
AcDbEntity
  8
____
  6
CONTINUOUS
 62
           3
100
AcDbLine
 10
-579.912775413719
 20
1614.918558193265
 11
-570.08722458623
 21
1614.918558193265
  0
LINE
  5
33
100
AcDbEntity
  8
____
  6
CONTINUOUS
 62
           3
100
AcDbLine
 10
-569.595947044856
 20
1614.449075506233
 11
-569.595947044856
 21
1612.571144758111
  0
LINE
  5
32
100
AcDbEntity
  8
___S__
  6
DOT_CENTER
 62
           3
100
AcDbLine
 10
-574.999999999975
 20
1621.0528372865
 11
-574.999999999975
 21
1536.057127055392
  0
LINE
  5
31
100
AcDbEntity
  8
1
  6
CONTINUOUS
 62
           7
100
AcDbLine
 10
-574.999999999999
 20
941.51352679837
 11
575.000000000001
 21
941.51352679837
  0
LINE
  5
30
100
AcDbEntity
  8
1
  6
CONTINUOUS
 62
           7
100
AcDbLine
 10
575.000000000001
 20
941.51352679837
 11
575.000000000001
 21
1646.282992387804
  0
LINE
  5
2F
100
AcDbEntity
  8
1
  6
CONTINUOUS
 62
           7
100
AcDbLine
 10
-574.999999999999
 20
941.51352679837
 11
-574.999999999999
 21
1646.282992387804
  0
LINE
  5
2E
100
AcDbEntity
  8
1
  6
CONTINUOUS
 62
           7
100
AcDbLine
 10
575.000000000001
 20
1646.282992387804
 11
-574.999999999999
 21
1646.282992387804
  0
POINT
  5
2D
100
AcDbEntity
  8
0
 62
           3
100
AcDbPoint
 10
3533.896177212307
 20
1365.000000000118
  0
ENDSEC
  0
SECTION
  2
OBJECTS
  0
DICTIONARY
  5
19
100
AcDbDictionary
  3
ACAD_GROUP
350
1A
  3
ACAD_MLINESTYLE
350
1B
  0
DICTIONARY
  5
1A
102
{ACAD_REACTORS
330
19
102
}
100
AcDbDictionary
  0
DICTIONARY
  5
1B
102
{ACAD_REACTORS
330
19
102
}
100
AcDbDictionary
  3
STANDARD
350
1C
  0
MLINESTYLE
  5
1C
102
{ACAD_REACTORS
330
1B
102
}
100
AcDbMlineStyle
  2
STANDARD
 70
           0
  3

 62
           0
 51
90.0
 52
90.0
 71
           2
 49
0.5
 62
         256
  6
BYLAYER
 49
-0.5
 62
         256
  6
BYLAYER
  0
ENDSEC
  0
EOF
