  0
SECTION
  2
HEADER
  9
$ACADVER
  1
AC1014
  9
$ACADMAINTVER
 70
           0
  9
$DWGCODEPAGE
  3
DOS932
  9
$INSBASE
 10
0.0
 20
0.0
 30
0.0
  9
$EXTMIN
 10
1.000000000000E+20
 20
1.000000000000E+20
 30
1.000000000000E+20
  9
$EXTMAX
 10
-1.000000000000E+20
 20
-1.000000000000E+20
 30
-1.000000000000E+20
  9
$LIMMIN
 10
0.0
 20
0.0
  9
$LIMMAX
 10
0.0
 20
0.0
  9
$ORTHOMODE
 70
           0
  9
$REGENMODE
 70
           1
  9
$FILLMODE
 70
           1
  9
$QTEXTMODE
 70
           0
  9
$MIRRTEXT
 70
           1
  9
$DRAGMODE
 70
           2
  9
$LTSCALE
 40
1.0
  9
$OSMODE
 70
           0
  9
$ATTMODE
 70
           1
  9
$TEXTSIZE
 40
0.2
  9
$TRACEWID
 40
0.05
  9
$TEXTSTYLE
  7
STANDARD
  9
$CLAYER
  8
0
  9
$CELTYPE
  6
CONTINUOUS
  9
$CECOLOR
 62
         256
  9
$CELTSCALE
 40
1.0
  9
$DELOBJ
 70
           1
  9
$DISPSILH
 70
           0
  9
$DIMSCALE
 40
1.0
  9
$DIMASZ
 40
0.18
  9
$DIMEXO
 40
0.0625
  9
$DIMDLI
 40
0.38
  9
$DIMRND
 40
0.0
  9
$DIMDLE
 40
0.0
  9
$DIMEXE
 40
0.18
  9
$DIMTP
 40
0.0
  9
$DIMTM
 40
0.0
  9
$DIMTXT
 40
0.18
  9
$DIMCEN
 40
0.09
  9
$DIMTSZ
 40
0.0
  9
$DIMTOL
 70
           0
  9
$DIMLIM
 70
           0
  9
$DIMTIH
 70
           1
  9
$DIMTOH
 70
           1
  9
$DIMSE1
 70
           0
  9
$DIMSE2
 70
           0
  9
$DIMTAD
 70
           0
  9
$DIMZIN
 70
           0
  9
$DIMBLK
  1

  9
$DIMASO
 70
           1
  9
$DIMSHO
 70
           1
  9
$DIMPOST
  1

  9
$DIMAPOST
  1

  9
$DIMALT
 70
           0
  9
$DIMALTD
 70
           2
  9
$DIMALTF
 40
25.4
  9
$DIMLFAC
 40
1.0
  9
$DIMTOFL
 70
           0
  9
$DIMTVP
 40
0.0
  9
$DIMTIX
 70
           0
  9
$DIMSOXD
 70
           0
  9
$DIMSAH
 70
           0
  9
$DIMBLK1
  1

  9
$DIMBLK2
  1

  9
$DIMSTYLE
  2
STANDARD
  9
$DIMCLRD
 70
           0
  9
$DIMCLRE
 70
           0
  9
$DIMCLRT
 70
           0
  9
$DIMTFAC
 40
1.0
  9
$DIMGAP
 40
0.09
  9
$DIMJUST
 70
           0
  9
$DIMSD1
 70
           0
  9
$DIMSD2
 70
           0
  9
$DIMTOLJ
 70
           1
  9
$DIMTZIN
 70
           0
  9
$DIMALTZ
 70
           0
  9
$DIMALTTZ
 70
           0
  9
$DIMFIT
 70
           3
  9
$DIMUPT
 70
           0
  9
$DIMUNIT
 70
           2
  9
$DIMDEC
 70
           4
  9
$DIMTDEC
 70
           4
  9
$DIMALTU
 70
           2
  9
$DIMALTTD
 70
           2
  9
$DIMTXSTY
  7
STANDARD
  9
$DIMAUNIT
 70
           0
  9
$LUNITS
 70
           2
  9
$LUPREC
 70
           4
  9
$SKETCHINC
 40
0.1
  9
$FILLETRAD
 40
0.0
  9
$AUNITS
 70
           0
  9
$AUPREC
 70
           0
  9
$MENU
  1
acad
  9
$ELEVATION
 40
0.0
  9
$PELEVATION
 40
0.0
  9
$THICKNESS
 40
0.0
  9
$LIMCHECK
 70
           0
  9
$BLIPMODE
 70
           1
  9
$CHAMFERA
 40
0.0
  9
$CHAMFERB
 40
0.0
  9
$CHAMFERC
 40
0.0
  9
$CHAMFERD
 40
0.0
  9
$SKPOLY
 70
           0
  9
$TDCREATE
 40
0.000000000
  9
$TDUPDATE
 40
0.000000000
  9
$TDINDWG
 40
0.0000000000
  9
$TDUSRTIMER
 40
0.0000000000
  9
$USRTIMER
 70
           1
  9
$ANGBASE
 50
0.0
  9
$ANGDIR
 70
           0
  9
$PDMODE
 70
           0
  9
$PDSIZE
 40
0.0
  9
$PLINEWID
 40
0.0
  9
$COORDS
 70
           0
  9
$SPLFRAME
 70
           0
  9
$SPLINETYPE
 70
           6
  9
$SPLINESEGS
 70
           8
  9
$ATTDIA
 70
           0
  9
$ATTREQ
 70
           1
  9
$HANDLING
 70
           1
  9
$HANDSEED
  5
3A7
  9
$SURFTAB1
 70
           6
  9
$SURFTAB2
 70
           6
  9
$SURFTYPE
 70
           6
  9
$SURFU
 70
           6
  9
$SURFV
 70
           6
  9
$UCSNAME
  2

  9
$UCSORG
 10
0.0
 20
0.0
 30
0.0
  9
$UCSXDIR
 10
1.0
 20
0.0
 30
0.0
  9
$UCSYDIR
 10
0.0
 20
1.0
 30
0.0
  9
$PUCSNAME
  2

  9
$PUCSORG
 10
0.0
 20
0.0
 30
0.0
  9
$PUCSXDIR
 10
1.0
 20
0.0
 30
0.0
  9
$PUCSYDIR
 10
0.0
 20
1.0
 30
0.0
  9
$USERI1
 70
           0
  9
$USERI2
 70
           0
  9
$USERI3
 70
           0
  9
$USERI4
 70
           0
  9
$USERI5
 70
           0
  9
$USERR1
 40
0.0
  9
$USERR2
 40
0.0
  9
$USERR3
 40
0.0
  9
$USERR4
 40
0.0
  9
$USERR5
 40
0.0
  9
$WORLDVIEW
 70
           1
  9
$SHADEDGE
 70
           3
  9
$SHADEDIF
 70
          70
  9
$TILEMODE
 70
           1
  9
$MAXACTVP
 70
          16
  9
$PINSBASE
 10
0.0
 20
0.0
 30
0.0
  9
$PLIMCHECK
 70
           0
  9
$PEXTMIN
 10
1.000000000000E+20
 20
1.000000000000E+20
 30
1.000000000000E+20
  9
$PEXTMAX
 10
-1.000000000000E+20
 20
-1.000000000000E+20
 30
-1.000000000000E+20
  9
$PLIMMIN
 10
0.0
 20
0.0
  9
$PLIMMAX
 10
12.0
 20
9.0
  9
$UNITMODE
 70
           0
  9
$VISRETAIN
 70
           0
  9
$PLINEGEN
 70
           1
  9
$PSLTSCALE
 70
           0
  9
$TREEDEPTH
 70
        3020
  9
$PICKSTYLE
 70
           1
  9
$CMLSTYLE
  2
STANDARD
  9
$CMLJUST
 70
           0
  9
$CMLSCALE
 40
1.0
  9
$PROXYGRAPHICS
 70
           0
  9
$MEASUREMENT
 70
           0
  0
ENDSEC
  0
SECTION
  2
CLASSES
  0
CLASS
  1
LWPOLYLINE
  2
AcDbPolyline
  3
"AutoCAD"
 90
        0
280
           0
281
           1
  0
CLASS
  1
IMAGE
  2
AcDbRasterImage
  3
ISM
 90
      127
280
           0
281
           1
  0
CLASS
  1
OLE2FRAME
  2
AcDbOle2Frame
  3
""
 90
        0
280
           0
281
           1
  0
CLASS
  1
HATCH
  2
AcDbHatch
  3
"ACAD_SEDONA"
 90
        0
280
           0
281
           1
  0
CLASS
  1
DICTIONARYVAR
  2
AcDbDictionaryVar
  3
"AutoCAD"
 90
        0
280
           0
281
           0
  0
CLASS
  1
RASTERVARIABLES
  2
AcDbRasterVariables
  3
ISM
 90
        0
280
           0
281
           0
  0
CLASS
  1
IMAGEDEF
  2
AcDbRasterImageDef
  3
ISM
 90
        0
280
           0
281
           0
  0
CLASS
  1
IMAGEDEF_REACTOR
  2
AcDbRasterImageDefReactor
  3
ISM
 90
        1
280
           0
281
           0
  0
CLASS
  1
IDBUFFER
  2
AcDbIdBuffer
  3
"Acad"
 90
        0
280
           0
281
           0
  0
CLASS
  1
SPATIAL_FILTER
  2
AcDbSpatialFilter
  3
"Acad"
 90
        0
280
           0
281
           0
  0
CLASS
  1
XRECORD
  2
AcDbXrecord
  3
"<Built In>"
 90
        0
280
           0
281
           0
  0
CLASS
  1
SORTENTSTABLE
  2
AcDbSortentsTable
  3
"AutoCAD"
 90
        0
280
           0
281
           0
  0
CLASS
  1
LAYER_INDEX
  2
AcDbLayerIndex
  3
"Acad"
 90
        0
280
           0
281
           0
  0
CLASS
  1
SPATIAL_INDEX
  2
AcDbSpatialIndex
  3
"Acad"
 90
        0
280
           0
281
           0
  0
CLASS
  1
OBJECT_PTR
  2
CAseDLPNTableRecord
  3
"ASE-LPNTableRecord"
 90
        1
280
           0
281
           0
  0
CLASS
  1
LAYOUT
  2
AcDbLayout
  3
"AutoCAD 2000"
 90
        1
280
           0
281
           0
  0
CLASS
  1
PLOTSETTINGS
  2
AcDbPlotSettings
  3
"AutoCAD 2000"
 90
        1
280
           0
281
           0
  0
CLASS
  1
ACDBDICTIONARYWDFLT
  2
AcDbDictionaryWithDefault
  3
"AutoCAD 2000"
 90
        1
280
           0
281
           0
  0
CLASS
  1
ACDBPLACEHOLDER
  2
AcDbPlaceHolder
  3
"AutoCAD 2000"
 90
        1
280
           0
281
           0
  0
CLASS
  1
VBA_PROJECT
  2
AcDbVbaProject
  3
"acadvba"
 90
        1
280
           0
281
           0
  0
CLASS
  1
WIPEOUT
  2
AcDbWipeout
  3
WipeOut|AutoCAD Express Tool|expresstools@autodesk.com
 90
      127
280
           0
281
           1
  0
CLASS
  1
WIPEOUTVARIABLES
  2
AcDbWipeoutVariables
  3
WipeOut|AutoCAD Express Tool|expresstools@autodesk.com
 90
        0
280
           0
281
           0
  0
CLASS
  1
RTEXT
  2
RText
  3
RText|AutoCAD Express Tool|expresstools@autodesk.com
 90
        0
280
           0
281
           1
  0
CLASS
  1
ARCALIGNEDTEXT
  2
AcDbArcAlignedText
  3
ATEXT|AutoCAD Express Tool|expresstools@autodesk.com
 90
        0
280
           0
281
           1
  0
ENDSEC
  0
SECTION
  2
TABLES
  0
TABLE
  2
VPORT
  5
7
100
AcDbSymbolTable
 70
           1
  0
VPORT
  5
15
100
AcDbSymbolTableRecord
100
AcDbViewportTableRecord
  2
*ACTIVE
 70
           0
 10
0.0
 20
0.0
 11
1.0
 21
1.0
 12
6.591288
 22
4.579184
 13
0.0
 23
0.0
 14
1.0
 24
1.0
 15
0.0
 25
0.0
 16
0.0
 26
0.0
 36
1.0
 17
0.0
 27
0.0
 37
0.0
 40
9.158369
 41
0.688564
 42
50.0
 43
0.0
 44
0.0
 50
0.0
 51
0.0
 71
           0
 72
         100
 73
           1
 74
           1
 75
           0
 76
           0
 77
           0
 78
           0
  0
ENDTAB
  0
TABLE
  2
LTYPE
  5
4
100
AcDbSymbolTable
 70
          10
  0
LTYPE
  5
11
100
AcDbSymbolTableRecord
100
AcDbLinetypeTableRecord
  2
BYBLOCK
 70
          64
  3

 72
          65
 73
           0
 40
0.0
  0
LTYPE
  5
12
100
AcDbSymbolTableRecord
100
AcDbLinetypeTableRecord
  2
BYLAYER
 70
          64
  3

 72
          65
 73
           0
 40
0.0
  0
LTYPE
  5
13
100
AcDbSymbolTableRecord
100
AcDbLinetypeTableRecord
  2
CONTINUOUS
 70
          64
  3
Solid line
 72
          65
 73
           0
 40
0.0
  0
LTYPE
  5
1D
100
AcDbSymbolTableRecord
100
AcDbLinetypeTableRecord
  2
DASHED
 70
          64
  3
Dashed
 72
          65
 73
           2
 40
15.0
 49
12.0
 74
           0
 49
-3.0
 74
           0
  0
LTYPE
  5
1E
100
AcDbSymbolTableRecord
100
AcDbLinetypeTableRecord
  2
DOTTED
 70
          64
  3
Dotted
 72
          65
 73
           2
 40
3.5
 49
0.5
 74
           0
 49
-3.0
 74
           0
  0
LTYPE
  5
1F
100
AcDbSymbolTableRecord
100
AcDbLinetypeTableRecord
  2
DOT_CENTER
 70
          64
  3
Dot_Center
 72
          65
 73
           4
 40
2.0
 49
1.25
 74
           0
 49
-0.25
 74
           0
 49
0.25
 74
           0
 49
-0.25
 74
           0
  0
LTYPE
  5
20
100
AcDbSymbolTableRecord
100
AcDbLinetypeTableRecord
  2
LONG_DASHED
 70
          64
  3
Long_Dashed
 72
          65
 73
           2
 40
2.0
 49
1.5
 74
           0
 49
-0.5
 74
           0
  0
LTYPE
  5
21
100
AcDbSymbolTableRecord
100
AcDbLinetypeTableRecord
  2
DASH_CENTER
 70
          64
  3
Dash_Center
 72
          65
 73
           4
 40
36.0
 49
24.0
 74
           0
 49
-3.0
 74
           0
 49
6.0
 74
           0
 49
-3.0
 74
           0
  0
LTYPE
  5
22
100
AcDbSymbolTableRecord
100
AcDbLinetypeTableRecord
  2
PHANTOM
 70
          64
  3
Phantom
 72
          65
 73
           6
 40
2.5
 49
1.25
 74
           0
 49
-0.25
 74
           0
 49
0.25
 74
           0
 49
-0.25
 74
           0
 49
0.25
 74
           0
 49
-0.25
 74
           0
  0
LTYPE
  5
23
100
AcDbSymbolTableRecord
100
AcDbLinetypeTableRecord
  2
CENTER_DASH_DASH
 70
          64
  3
Center_Dash_Dash
 72
          65
 73
           6
 40
22.0
 49
12.0
 74
           0
 49
-3.0
 74
           0
 49
0.5
 74
           0
 49
-3.0
 74
           0
 49
0.5
 74
           0
 49
-3.0
 74
           0
  0
ENDTAB
  0
TABLE
  2
LAYER
  5
2
100
AcDbSymbolTable
 70
           7
  0
LAYER
  5
14
100
AcDbSymbolTableRecord
100
AcDbLayerTableRecord
  2
0
 70
           0
 62
           7
  6
CONTINUOUS
  0
LAYER
  5
24
100
AcDbSymbolTableRecord
100
AcDbLayerTableRecord
  2
___S__
 70
           0
 62
           7
  6
CONTINUOUS
  0
LAYER
  5
25
100
AcDbSymbolTableRecord
100
AcDbLayerTableRecord
  2
FORMAT
 70
           0
 62
           7
  6
CONTINUOUS
  0
LAYER
  5
26
100
AcDbSymbolTableRecord
100
AcDbLayerTableRecord
  2
1
 70
           0
 62
           7
  6
CONTINUOUS
  0
LAYER
  5
27
100
AcDbSymbolTableRecord
100
AcDbLayerTableRecord
  2
2
 70
           0
 62
           7
  6
CONTINUOUS
  0
LAYER
  5
28
100
AcDbSymbolTableRecord
100
AcDbLayerTableRecord
  2
7
 70
           0
 62
           7
  6
CONTINUOUS
  0
LAYER
  5
29
100
AcDbSymbolTableRecord
100
AcDbLayerTableRecord
  2
____
 70
           0
 62
           7
  6
CONTINUOUS
  0
ENDTAB
  0
TABLE
  2
STYLE
  5
3
100
AcDbSymbolTable
 70
           1
  0
STYLE
  5
17
100
AcDbSymbolTableRecord
100
AcDbTextStyleTableRecord
  2
STANDARD
 70
           0
 40
0.0
 41
1.0
 50
0.0
 71
           0
 42
0.0
  3
txt
  4

  0
ENDTAB
  0
TABLE
  2
VIEW
  5
5
100
AcDbSymbolTable
 70
           0
  0
ENDTAB
  0
TABLE
  2
UCS
  5
6
100
AcDbSymbolTable
 70
           0
  0
ENDTAB
  0
TABLE
  2
APPID
  5
8
100
AcDbSymbolTable
 70
           1
  0
APPID
  5
16
100
AcDbSymbolTableRecord
100
AcDbRegAppTableRecord
  2
ACAD
 70
           0
  0
ENDTAB
  0
TABLE
  2
DIMSTYLE
  5
9
100
AcDbSymbolTable
 70
           1
  0
DIMSTYLE
105
18
100
AcDbSymbolTableRecord
100
AcDbDimStyleTableRecord
  2
STANDARD
 70
           0
  3

  4

  5

  6

  7

 40
1.0
 41
0.18
 42
0.0625
 43
0.38
 44
0.18
 45
0.0
 46
0.0
 47
0.0
 48
0.0
 71
           0
 72
           0
 73
           1
 74
           1
 75
           0
 76
           0
 77
           0
 78
           0
140
0.18
141
0.09
142
0.0
143
25.4
144
1.0
145
0.0
146
1.0
147
0.09
170
           0
171
           2
172
           0
173
           0
174
           0
175
           0
176
           0
177
           0
178
           0
270
           2
271
           4
272
           4
273
           2
274
           2
275
           0
280
           0
281
           0
282
           0
283
           1
284
           0
285
           0
286
           0
287
           0
288
           0
340
17
  0
ENDTAB
  0
TABLE
  2
BLOCK_RECORD
  5
1
100
AcDbSymbolTable
 70
           0
  0
BLOCK_RECORD
  5
A
100
AcDbSymbolTableRecord
100
AcDbBlockTableRecord
  2
*MODEL_SPACE
  0
BLOCK_RECORD
  5
B
100
AcDbSymbolTableRecord
100
AcDbBlockTableRecord
  2
*PAPER_SPACE
  0
ENDTAB
  0
ENDSEC
  0
SECTION
  2
BLOCKS
  0
BLOCK
  5
D
100
AcDbEntity
  8
0
100
AcDbBlockBegin
  2
*MODEL_SPACE
 70
           0
 10
0.0
 20
0.0
 30
0.0
  3
*MODEL_SPACE
  1

  0
ENDBLK
  5
E
100
AcDbEntity
  8
0
100
AcDbBlockEnd
  0
BLOCK
  5
F
100
AcDbEntity
 67
           1
  8
0
100
AcDbBlockBegin
  2
*PAPER_SPACE
 70
           0
 10
0.0
 20
0.0
 30
0.0
  3
*PAPER_SPACE
  1

  0
ENDBLK
  5
10
100
AcDbEntity
 67
           1
  8
0
100
AcDbBlockEnd
  0
ENDSEC
  0
SECTION
  2
ENTITIES
  0
HATCH
  5
3A5
100
AcDbEntity
  8
0
  6
CONTINUOUS
 62
           2
100
AcDbHatch
 10
0.0
 20
0.0
 30
0.0
210
0.0
220
0.0
230
1.0
  2
USER
 70
           0
 71
           1
 91
        1
 92
        1
 93
        8
 72
           1
 10
3652.0000000000041
 20
1474.3795171186321
 11
3729.358987904709
 21
1474.3795171186321
 72
           2
 10
3652.0000000000041
 20
1491.3795171186321
 40
17.0
 50
180.0
 51
-90.0
 73
           1
 72
           1
 10
3635.0000000000041
 20
1491.3795171186321
 11
3635.0000000000041
 21
1504.6295171186321
 72
           1
 10
3635.0000000000041
 20
1504.6295171186321
 11
3615.0000000000041
 21
1504.6295171186321
 72
           1
 10
3615.0000000000041
 20
1504.6295171186321
 11
3615.0000000000041
 21
1491.3795171186321
 72
           2
 10
3652.0000000000041
 20
1491.3795171186321
 40
37.0
 50
180.0
 51
-90.0
 73
           1
 72
           1
 10
3652.0000000000041
 20
1454.3795171186321
 11
3722.8757424576402
 21
1454.3795171186321
 72
           1
 10
3722.8757424576402
 20
1454.3795171186321
 11
3729.358987904709
 21
1474.3795171186321
 97
        7
330
3A
330
323
330
38E
330
3B
330
324
330
39
330
38D
 75
           1
 76
           0
 52
45.0
 41
10.0
 77
           0
 78
           1
 53
45.0
 43
0.0
 44
0.0
 45
-7.0710678118654746
 46
7.0710678118654755
 79
           0
 98
        1
 10
0.0
 20
0.0
  0
ARC
  5
3A4
100
AcDbEntity
  8
1
  6
CONTINUOUS
 62
           4
100
AcDbCircle
 10
117.908702762048
 20
5523.919076098279
 40
12.0
100
AcDbArc
 50
90.0
 51
120.430594205707
  0
ARC
  5
3A3
100
AcDbEntity
  8
1
  6
CONTINUOUS
 62
           4
100
AcDbCircle
 10
117.908702762048
 20
5432.919076098279
 40
12.000000000002
100
AcDbArc
 50
-120.4305942057
 51
-90.0
  0
ARC
  5
3A2
100
AcDbEntity
  8
1
  6
CONTINUOUS
 62
           7
100
AcDbCircle
 10
144.824966598198
 20
5426.919076098279
 40
12.0
100
AcDbArc
 50
180.0
 51
-90.0
  0
ARC
  5
3A1
100
AcDbEntity
  8
1
  6
CONTINUOUS
 62
           7
100
AcDbCircle
 10
144.824966598198
 20
5529.919076098279
 40
12.0
100
AcDbArc
 50
90.0
 51
180.0
  0
ARC
  5
3A0
100
AcDbEntity
  8
1
  6
CONTINUOUS
 62
           7
100
AcDbCircle
 10
185.000000000002
 20
5426.919076098279
 40
12.0
100
AcDbArc
 50
-90.0
 51
0.0
  0
ARC
  5
39F
100
AcDbEntity
  8
1
  6
CONTINUOUS
 62
           7
100
AcDbCircle
 10
185.000000000002
 20
5529.919076098279
 40
12.0
100
AcDbArc
 50
0.0
 51
90.0
  0
ARC
  5
39E
100
AcDbEntity
  8
1
  6
CONTINUOUS
 62
           7
100
AcDbCircle
 10
185.000000000001
 20
3022.92951711863
 40
12.0
100
AcDbArc
 50
0.0
 51
90.0
  0
ARC
  5
39D
100
AcDbEntity
  8
1
  6
CONTINUOUS
 62
           7
100
AcDbCircle
 10
185.000000000001
 20
2946.929517118629
 40
12.0
100
AcDbArc
 50
-90.0
 51
0.0
  0
ARC
  5
39C
100
AcDbEntity
  8
1
  6
CONTINUOUS
 62
           7
100
AcDbCircle
 10
134.4963968
 20
3022.92951711863
 40
11.999999999999
100
AcDbArc
 50
90.000000000001
 51
180.0
  0
ARC
  5
39B
100
AcDbEntity
  8
1
  6
CONTINUOUS
 62
           7
100
AcDbCircle
 10
134.4963968
 20
2946.929517118629
 40
12.0
100
AcDbArc
 50
180.0
 51
-90.000000000001
  0
ARC
  5
39A
100
AcDbEntity
  8
1
  6
CONTINUOUS
 62
           7
100
AcDbCircle
 10
4238.500000000002
 20
2946.92951711863
 40
12.0
100
AcDbArc
 50
180.0
 51
-90.0
  0
ARC
  5
399
100
AcDbEntity
  8
1
  6
CONTINUOUS
 62
           7
100
AcDbCircle
 10
4238.500000000002
 20
3022.92951711863
 40
12.0
100
AcDbArc
 50
90.0
 51
180.0
  0
ARC
  5
398
100
AcDbEntity
  8
1
  6
CONTINUOUS
 62
           7
100
AcDbCircle
 10
4341.500000000002
 20
2946.92951711863
 40
12.0
100
AcDbArc
 50
-90.0
 51
0.0
  0
ARC
  5
397
100
AcDbEntity
  8
1
  6
CONTINUOUS
 62
           7
100
AcDbCircle
 10
4341.500000000002
 20
3022.92951711863
 40
12.0
100
AcDbArc
 50
0.0
 51
90.0
  0
ARC
  5
396
100
AcDbEntity
  8
1
  6
CONTINUOUS
 62
           4
100
AcDbCircle
 10
4805.500000000002
 20
2845.129517118633
 40
1.0
100
AcDbArc
 50
180.0
 51
-90.0
  0
ARC
  5
395
100
AcDbEntity
  8
1
  6
CONTINUOUS
 62
           4
100
AcDbCircle
 10
4794.500000000002
 20
2845.129517118633
 40
1.0
100
AcDbArc
 50
-90.0
 51
0.0
  0
ARC
  5
394
100
AcDbEntity
  8
1
  6
CONTINUOUS
 62
           4
100
AcDbCircle
 10
4805.500000000002
 20
2394.129517118631
 40
1.0
100
AcDbArc
 50
90.0
 51
180.0
  0
ARC
  5
393
100
AcDbEntity
  8
1
  6
CONTINUOUS
 62
           4
100
AcDbCircle
 10
4794.500000000002
 20
2394.129517118631
 40
1.0
100
AcDbArc
 50
0.0
 51
90.0
  0
ARC
  5
392
100
AcDbEntity
  8
1
  6
CONTINUOUS
 62
           3
100
AcDbCircle
 10
4148.163567691046
 20
1652.435770538591
 40
0.5
100
AcDbArc
 50
180.0
 51
-90.0
  0
ARC
  5
391
100
AcDbEntity
  8
1
  6
CONTINUOUS
 62
           3
100
AcDbCircle
 10
4148.163567691046
 20
1666.823263698671
 40
0.5
100
AcDbArc
 50
90.0
 51
180.0
  0
ARC
  5
390
100
AcDbEntity
  8
1
  6
CONTINUOUS
 62
           3
100
AcDbCircle
 10
3999.89999812233
 20
1375.629517118631
 40
280.000000000001
100
AcDbArc
 50
90.0
 51
180.0
  0
ARC
  5
38F
100
AcDbEntity
  8
1
  6
CONTINUOUS
 62
           3
100
AcDbCircle
 10
3999.899996810937
 20
1375.629517118631
 40
288.0
100
AcDbArc
 50
90.0
 51
180.0
  0
LWPOLYLINE
  5
38E
100
AcDbEntity
  8
1
  6
CONTINUOUS
 62
           7
 60
           1
100
AcDbPolyline
 90
        3
 70
           0
 10
3635.000000000004
 20
1491.379517118632
 10
3635.000000000004
 20
1504.629517118632
 10
3615.000000000004
 20
1504.629517118632
  0
LWPOLYLINE
  5
38D
100
AcDbEntity
  8
1
  6
CONTINUOUS
 62
           7
 60
           1
100
AcDbPolyline
 90
        2
 70
           0
 10
3722.87574245764
 20
1454.379517118632
 10
3729.358987904709
 20
1474.379517118632
  0
SPLINE
  5
38C
100
AcDbEntity
  8
0
  6
CONTINUOUS
 62
           3
100
AcDbSpline
210
0.0
220
0.0
230
1.0
 70
           0
 71
           3
 72
           8
 73
           5
 74
           7
 42
0.00000000001
 43
0.00000000001
 44
0.00000000001
 40
0.0
 40
0.0
 40
0.0
 40
0.298965195031542
 40
0.4296296276535259
 40
0.4465803504031101
 40
0.4465803504031101
 40
0.4465803504031101
 10
3670.8999966098681
 20
1119.276096741934
 30
0.0
 10
3670.899996609915
 20
1119.0964536820579
 30
0.0
 10
3670.899996609915
 20
1118.857809411747
 30
0.0
 10
3670.899996609915
 20
1118.835124816814
 30
0.0
 10
3670.899996609915
 20
1118.8295163915309
 30
0.0
 11
3670.8999966098681
 21
1119.276096741934
 31
0.0
 11
3670.8999966099036
 21
1119.0998482629557
 31
0.0
 11
3670.8999966099154
 21
1118.9303889457726
 31
0.0
 11
3670.8999966099154
 21
1118.8709343673897
 31
0.0
 11
3670.8999966099154
 21
1118.8377297002924
 31
0.0
 11
3670.899996609915
 21
1118.8343739313627
 31
0.0
 11
3670.899996609915
 21
1118.8295163915309
 31
0.0
  0
SPLINE
  5
38B
100
AcDbEntity
  8
0
  6
CONTINUOUS
 62
           3
100
AcDbSpline
210
0.0
220
0.0
230
1.0
 70
           0
 71
           3
 72
           8
 73
           5
 74
           7
 42
0.00000000001
 43
0.00000000001
 44
0.00000000001
 40
0.0
 40
0.0
 40
0.0
 40
0.0169507227495842
 40
0.1476151553715681
 40
0.4465803504031101
 40
0.4465803504031101
 40
0.4465803504031101
 10
3660.8999968334369
 20
1118.8295163915309
 30
0.0
 10
3660.8999968334369
 20
1118.835124816814
 30
0.0
 10
3660.8999968334369
 20
1118.857809411747
 30
0.0
 10
3660.8999968334369
 20
1119.0964536820579
 30
0.0
 10
3660.899996833477
 20
1119.276096741934
 30
0.0
 11
3660.8999968334369
 21
1118.8295163915309
 31
0.0
 11
3660.8999968334374
 21
1118.8343739313627
 31
0.0
 11
3660.8999968334369
 21
1118.8377297002924
 31
0.0
 11
3660.8999968334369
 21
1118.87093436739
 31
0.0
 11
3660.8999968334369
 21
1118.9303889457726
 31
0.0
 11
3660.8999968334469
 21
1119.0998482629557
 31
0.0
 11
3660.899996833477
 21
1119.276096741934
 31
0.0
  0
SPLINE
  5
38A
100
AcDbEntity
  8
0
  6
CONTINUOUS
 62
           3
100
AcDbSpline
210
0.0
220
0.0
230
1.0
 70
           0
 71
           3
 72
           8
 73
           5
 74
           7
 42
0.00000000001
 43
0.00000000001
 44
0.00000000001
 40
0.0
 40
0.0
 40
0.0
 40
0.4813883392828654
 40
1.332565392641254
 40
2.5594910488290692
 40
2.5594910488290692
 40
2.5594910488290692
 10
3668.399996665767
 20
1118.8295163915309
 30
0.0
 10
3668.45926147195
 20
1118.8299620899411
 30
0.0
 10
3669.3034813132949
 20
1118.8363110086971
 30
0.0
 10
3670.130777332784
 20
1119.064202960187
 30
0.0
 10
3670.8999966098681
 20
1119.276096741934
 30
0.0
 11
3668.399996665767
 21
1118.8295163915309
 31
0.0
 11
3668.5206887308859
 21
1118.8304240509813
 31
0.0
 11
3668.7642353138781
 21
1118.8322556325115
 31
0.0
 11
3669.253383550747
 21
1118.8586329216928
 31
0.0
 11
3669.6423362625183
 21
1118.929654036865
 31
0.0
 11
3670.2009718844884
 21
1119.0835391747933
 31
0.0
 11
3670.8999966098681
 21
1119.276096741934
 31
0.0
  0
SPLINE
  5
389
100
AcDbEntity
  8
0
  6
CONTINUOUS
 62
           3
100
AcDbSpline
210
0.0
220
0.0
230
1.0
 70
           0
 71
           3
 72
           8
 73
           5
 74
           7
 42
0.00000000001
 43
0.00000000001
 44
0.00000000001
 40
0.0
 40
0.0
 40
0.0
 40
0.4813884775065316
 40
1.3325655942404255
 40
2.5594910572554301
 40
2.5594910572554301
 40
2.5594910572554301
 10
3663.3999967775571
 20
1118.8295163915309
 30
0.0
 10
3663.459261584399
 20
1118.8299620901839
 30
0.0
 10
3664.3034817008361
 20
1118.8363110144589
 30
0.0
 10
3665.1307775679638
 20
1119.064202960358
 30
0.0
 10
3665.8999967216801
 20
1119.276096741926
 30
0.0
 11
3663.3999967775571
 21
1118.8295163915309
 31
0.0
 11
3663.5206888783723
 21
1118.8304240517396
 31
0.0
 11
3663.7642355671346
 21
1118.8322556350599
 31
0.0
 11
3664.2533839007133
 21
1118.8586329292737
 31
0.0
 11
3664.6423366340478
 21
1118.9296540531172
 31
0.0
 11
3665.2009721229142
 21
1119.0835391789399
 31
0.0
 11
3665.8999967216801
 21
1119.276096741926
 31
0.0
  0
SPLINE
  5
388
100
AcDbEntity
  8
0
  6
CONTINUOUS
 62
           3
100
AcDbSpline
210
0.0
220
0.0
230
1.0
 70
           0
 71
           3
 72
           8
 73
           5
 74
           7
 42
0.00000000001
 43
0.00000000001
 44
0.00000000001
 40
0.0
 40
0.0
 40
0.0
 40
0.2779454797450512
 40
0.7862825386885514
 40
1.5429638907209637
 40
1.5429638907209637
 40
1.5429638907209637
 10
3661.569869687351
 20
1102.2295110628879
 30
0.0
 10
3661.6040862319269
 20
1102.2299567551449
 30
0.0
 10
3662.091496950035
 20
1102.2363055898049
 30
0.0
 10
3662.5691364171998
 20
1102.4642014443079
 30
0.0
 10
3663.0132452878479
 20
1102.6760988638659
 30
0.0
 11
3661.569869687351
 21
1102.2295110628879
 31
0.0
 11
3661.6386061815001
 21
1102.2304063994479
 31
0.0
 11
3661.7763825747952
 21
1102.2322010246137
 31
0.0
 11
3662.0607022116119
 21
1102.2581739588593
 31
0.0
 11
3662.2834323715806
 21
1102.3278836312138
 31
0.0
 11
3662.6087376234573
 21
1102.483096345924
 31
0.0
 11
3663.0132452878479
 21
1102.6760988638659
 31
0.0
  0
SPLINE
  5
387
100
AcDbEntity
  8
0
  6
CONTINUOUS
 62
           3
100
AcDbSpline
210
0.0
220
0.0
230
1.0
 70
           0
 71
           3
 72
           8
 73
           5
 74
           7
 42
0.00000000001
 43
0.00000000001
 44
0.00000000001
 40
0.0
 40
0.0
 40
0.0
 40
0.2779464854383685
 40
0.7862840843779984
 40
1.5429642658590266
 40
1.5429642658590266
 40
1.5429642658590266
 10
3661.569869687351
 20
1107.229521195673
 30
0.0
 10
3661.5356531379871
 20
1107.229075500301
 30
0.0
 10
3661.0482404188851
 20
1107.222726596071
 30
0.0
 10
3660.570601939346
 20
1106.994830812105
 30
0.0
 10
3660.1264938539762
 20
1106.78293339474
 30
0.0
 11
3661.569869687351
 21
1107.229521195673
 31
0.0
 11
3661.5011329415966
 21
1107.2286258497015
 31
0.0
 11
3661.3633558030615
 21
1107.226831202531
 31
0.0
 11
3661.0790354338696
 21
1107.2008582086876
 31
0.0
 11
3660.8563050946486
 21
1107.1311484400776
 31
0.0
 11
3660.5310007068292
 21
1106.975935864757
 31
0.0
 11
3660.1264938539762
 21
1106.78293339474
 31
0.0
  0
SPLINE
  5
386
100
AcDbEntity
  8
0
  6
CONTINUOUS
 62
           3
100
AcDbSpline
210
0.0
220
0.0
230
1.0
 70
           0
 71
           3
 72
           8
 73
           5
 74
           7
 42
0.00000000001
 43
0.00000000001
 44
0.00000000001
 40
0.0
 40
0.0
 40
0.0
 40
0.2779464854263913
 40
0.7862840843624619
 40
1.5429642658945932
 40
1.5429642658945932
 40
1.5429642658945932
 10
3670.2301237560091
 20
1102.2295110628879
 30
0.0
 10
3670.2643403053671
 20
1102.2299567582661
 30
0.0
 10
3670.7517530244568
 20
1102.2363056624949
 30
0.0
 10
3671.229391504005
 20
1102.4642014464539
 30
0.0
 10
3671.6734995893689
 20
1102.6760988639439
 30
0.0
 11
3670.2301237560091
 21
1102.2295110628879
 31
0.0
 11
3670.2988605017567
 21
1102.2304064088639
 31
0.0
 11
3670.4366376402841
 21
1102.2322010560356
 31
0.0
 11
3670.7209580094714
 21
1102.2581740498767
 31
0.0
 11
3670.9436883486887
 21
1102.3278838184815
 31
0.0
 11
3671.2689927365172
 21
1102.4830963938334
 31
0.0
 11
3671.6734995893689
 21
1102.6760988639439
 31
0.0
  0
SPLINE
  5
385
100
AcDbEntity
  8
0
  6
CONTINUOUS
 62
           3
100
AcDbSpline
210
0.0
220
0.0
230
1.0
 70
           0
 71
           3
 72
           8
 73
           5
 74
           7
 42
0.00000000001
 43
0.00000000001
 44
0.00000000001
 40
0.0
 40
0.0
 40
0.0
 40
0.2779454797516371
 40
0.7862825386956178
 40
1.5429638907293313
 40
1.5429638907293313
 40
1.5429638907293313
 10
3670.2301237560091
 20
1107.229521195673
 30
0.0
 10
3670.1959072114291
 20
1107.2290755034151
 30
0.0
 10
3669.708496493316
 20
1107.222726668758
 30
0.0
 10
3669.230857026158
 20
1106.99483081425
 30
0.0
 10
3668.7867481555058
 20
1106.7829333946929
 30
0.0
 11
3670.2301237560091
 21
1107.229521195673
 31
0.0
 11
3670.1613872618559
 21
1107.2286258591125
 31
0.0
 11
3670.0236108685567
 21
1107.2268312339475
 31
0.0
 11
3669.7392912317396
 21
1107.2008582997025
 31
0.0
 11
3669.5165610717727
 21
1107.1311486273469
 31
0.0
 11
3669.1912558198992
 21
1106.9759359126351
 31
0.0
 11
3668.7867481555058
 21
1106.7829333946929
 31
0.0
  0
SPLINE
  5
384
100
AcDbEntity
  8
0
  6
CONTINUOUS
 62
           3
100
AcDbSpline
210
0.0
220
0.0
230
1.0
 70
           0
 71
           3
 72
           8
 73
           5
 74
           7
 42
0.00000000001
 43
0.00000000001
 44
0.00000000001
 40
0.0
 40
0.0
 40
0.0
 40
0.7097107189134834
 40
1.6878556121189634
 40
2.9354150974130353
 40
2.9354150974130353
 40
2.9354150974130353
 10
3663.0132452878479
 20
1102.6760988638659
 30
0.0
 10
3663.2266018694982
 20
1102.6164577213269
 30
0.0
 10
3664.1669045504668
 20
1102.3536079615831
 30
0.0
 10
3665.1443418916879
 20
1102.283619218498
 30
0.0
 10
3665.8999967216801
 20
1102.2295110628879
 30
0.0
 11
3663.0132452878479
 21
1102.6760988638659
 31
0.0
 11
3663.2721075078034
 21
1102.6037371938437
 31
0.0
 11
3663.6219810043685
 21
1102.5059344688552
 31
0.0
 11
3664.1380638628589
 21
1102.3839999854722
 31
0.0
 11
3664.5964653461324
 21
1102.3228495498677
 31
0.0
 11
3665.1962864627967
 21
1102.2798997624379
 31
0.0
 11
3665.8999967216801
 21
1102.2295110628879
 31
0.0
  0
SPLINE
  5
383
100
AcDbEntity
  8
0
  6
CONTINUOUS
 62
           3
100
AcDbSpline
210
0.0
220
0.0
230
1.0
 70
           0
 71
           3
 72
           8
 73
           5
 74
           7
 42
0.00000000001
 43
0.00000000001
 44
0.00000000001
 40
0.0
 40
0.0
 40
0.0
 40
0.7273681394897389
 40
1.7065914567867888
 40
2.9387223240297247
 40
2.9387223240297247
 40
2.9387223240297247
 10
3665.8999967216801
 20
1102.2295110628879
 30
0.0
 10
3666.1387195010379
 20
1102.234990601957
 30
0.0
 10
3667.1156271469849
 20
1102.2574141160819
 30
0.0
 10
3668.0674888562471
 20
1102.4958947393529
 30
0.0
 10
3668.7867481553681
 20
1102.6760988639439
 30
0.0
 11
3665.8999967216801
 21
1102.2295110628879
 31
0.0
 11
3666.1831310149782
 21
1102.2360100045739
 31
0.0
 11
3666.5550883361566
 21
1102.2445477514932
 31
0.0
 11
3667.0808673755146
 21
1102.2805982920147
 31
0.0
 11
3667.5371268719355
 21
1102.3630171844025
 31
0.0
 11
3668.1147131849493
 21
1102.507726381763
 31
0.0
 11
3668.7867481553681
 21
1102.6760988639439
 31
0.0
  0
SPLINE
  5
382
100
AcDbEntity
  8
0
  6
CONTINUOUS
 62
           3
100
AcDbSpline
210
0.0
220
0.0
230
1.0
 70
           0
 71
           3
 72
           8
 73
           5
 74
           7
 42
0.00000000001
 43
0.00000000001
 44
0.00000000001
 40
0.0
 40
0.0
 40
0.0
 40
1.2321308673584963
 40
2.2113541846553533
 40
2.9387223241451261
 40
2.9387223241451261
 40
2.9387223241451261
 10
3668.7867481555058
 20
1106.7829333946929
 30
0.0
 10
3668.0674888562471
 20
1106.96313751921
 30
0.0
 10
3667.1156271469849
 20
1107.2016181424799
 30
0.0
 10
3666.1387195010379
 20
1107.2240416566001
 30
0.0
 10
3665.8999967216801
 20
1107.229521195673
 30
0.0
 11
3668.7867481555058
 21
1106.7829333946929
 31
0.0
 11
3668.1147131849789
 21
1106.9513058768198
 31
0.0
 11
3667.5371268719127
 21
1107.0960150741655
 31
0.0
 11
3667.08086737551
 21
1107.1784339665478
 31
0.0
 11
3666.5550883361566
 21
1107.2144845070657
 31
0.0
 11
3666.1831310149782
 21
1107.2230222539847
 31
0.0
 11
3665.8999967216801
 21
1107.229521195673
 31
0.0
  0
SPLINE
  5
381
100
AcDbEntity
  8
0
  6
CONTINUOUS
 62
           3
100
AcDbSpline
210
0.0
220
0.0
230
1.0
 70
           0
 71
           3
 72
           8
 73
           5
 74
           7
 42
0.00000000001
 43
0.00000000001
 44
0.00000000001
 40
0.0
 40
0.0
 40
0.0
 40
1.2475616964950127
 40
2.225708462243996
 40
2.9354211178811176
 40
2.9354211178811176
 40
2.9354211178811176
 10
3665.8999967216801
 20
1107.229521195673
 30
0.0
 10
3665.144340064257
 20
1107.1754259281031
 30
0.0
 10
3664.1668989125869
 20
1107.1054537520999
 30
0.0
 10
3663.2266017037659
 20
1106.8425802297929
 30
0.0
 10
3663.0132452878479
 20
1106.7829333946929
 30
0.0
 11
3665.8999967216801
 21
1107.229521195673
 31
0.0
 11
3665.1962845668072
 21
1107.1791444843243
 31
0.0
 11
3664.5964614170362
 21
1107.136204885418
 31
0.0
 11
3664.1380594916354
 21
1107.0750564789391
 31
0.0
 11
3663.6219787243308
 21
1106.9531135261382
 31
0.0
 11
3663.2721068549276
 21
1106.8553018451043
 31
0.0
 11
3663.0132452878479
 21
1106.7829333946929
 31
0.0
  0
SPLINE
  5
380
100
AcDbEntity
  8
0
  6
CONTINUOUS
 62
           3
100
AcDbSpline
210
0.0
220
0.0
230
1.0
 70
           0
 71
           3
 72
           8
 73
           5
 74
           7
 42
0.00000000001
 43
0.00000000001
 44
0.00000000001
 40
0.0
 40
0.0
 40
0.0
 40
0.2779452695530107
 40
0.7862805426561466
 40
1.5429573554963294
 40
1.5429573554963294
 40
1.5429573554963294
 10
3661.569869687351
 20
1107.229521195673
 30
0.0
 10
3661.6040862308769
 20
1107.2299669004419
 30
0.0
 10
3662.0914965280872
 20
1107.2363159079971
 30
0.0
 10
3662.5691362283678
 20
1107.4642039517159
 30
0.0
 10
3663.0132452878479
 20
1107.676094095491
 30
0.0
 11
3661.569869687351
 21
1107.229521195673
 31
0.0
 11
3661.6386062202882
 21
1107.2304165578962
 31
0.0
 11
3661.7763827320514
 21
1107.232211235028
 31
0.0
 11
3662.0607020292287
 21
1107.2581834994721
 31
0.0
 11
3662.2834323286897
 21
1107.3278909468668
 31
0.0
 11
3662.6087375183183
 21
1107.4830982364474
 31
0.0
 11
3663.0132452878479
 21
1107.676094095491
 31
0.0
  0
SPLINE
  5
37F
100
AcDbEntity
  8
0
  6
CONTINUOUS
 62
           3
100
AcDbSpline
210
0.0
220
0.0
230
1.0
 70
           0
 71
           3
 72
           8
 73
           5
 74
           7
 42
0.00000000001
 43
0.00000000001
 44
0.00000000001
 40
0.0
 40
0.0
 40
0.0
 40
0.2779463803335117
 40
0.7862830863403956
 40
1.5429609982618528
 40
1.5429609982618528
 40
1.5429609982618528
 10
3661.569869687351
 20
1112.2295164272971
 30
0.0
 10
3661.53565313851
 20
1112.229070725668
 30
0.0
 10
3661.0482406298788
 20
1112.222721734988
 30
0.0
 10
3660.570602033767
 20
1111.9948298564191
 30
0.0
 10
3660.1264938539762
 20
1111.782936076836
 30
0.0
 11
3661.569869687351
 21
1112.2295164272971
 31
0.0
 11
3661.5011329222029
 21
1112.2286210684927
 31
0.0
 11
3661.3633557244402
 21
1112.2268263953385
 31
0.0
 11
3661.0790355250783
 21
1112.2008537363965
 31
0.0
 11
3660.8563051161163
 21
1112.1311450802714
 31
0.0
 11
3660.5310007594062
 21
1111.9759352174865
 31
0.0
 11
3660.1264938539762
 21
1111.782936076836
 31
0.0
  0
SPLINE
  5
37E
100
AcDbEntity
  8
0
  6
CONTINUOUS
 62
           3
100
AcDbSpline
210
0.0
220
0.0
230
1.0
 70
           0
 71
           3
 72
           8
 73
           5
 74
           7
 42
0.00000000001
 43
0.00000000001
 44
0.00000000001
 40
0.0
 40
0.0
 40
0.0
 40
0.2779462752397691
 40
0.7862820883273095
 40
1.5429577306503228
 40
1.5429577306503228
 40
1.5429577306503228
 10
3670.2301237560091
 20
1107.229521195673
 30
0.0
 10
3670.264340304328
 20
1107.229966903559
 30
0.0
 10
3670.751752602509
 20
1107.2363159806839
 30
0.0
 10
3671.2293913151689
 20
1107.464203953866
 30
0.0
 10
3671.6734995893689
 20
1107.6760940955421
 30
0.0
 11
3670.2301237560091
 21
1107.229521195673
 31
0.0
 11
3670.298860540554
 21
1107.2304165673092
 31
0.0
 11
3670.4366377975521
 21
1107.2322112664465
 31
0.0
 11
3670.7209578270922
 21
1107.2581835904862
 31
0.0
 11
3670.9436883057974
 21
1107.3278911341301
 31
0.0
 11
3671.268992631376
 21
1107.4830982843509
 31
0.0
 11
3671.6734995893689
 21
1107.6760940955421
 31
0.0
  0
SPLINE
  5
37D
100
AcDbEntity
  8
0
  6
CONTINUOUS
 62
           3
100
AcDbSpline
210
0.0
220
0.0
230
1.0
 70
           0
 71
           3
 72
           8
 73
           5
 74
           7
 42
0.00000000001
 43
0.00000000001
 44
0.00000000001
 40
0.0
 40
0.0
 40
0.0
 40
0.2779453746526884
 40
0.7862815406658688
 40
1.5429606230915738
 40
1.5429606230915738
 40
1.5429606230915738
 10
3670.2301237560091
 20
1112.2295164272971
 30
0.0
 10
3670.1959072119539
 20
1112.2290707287809
 30
0.0
 10
3669.7084967042961
 20
1112.222721807676
 30
0.0
 10
3669.230857120579
 20
1111.9948298585689
 30
0.0
 10
3668.7867481555058
 20
1111.7829360768981
 30
0.0
 11
3670.2301237560091
 21
1112.2295164272971
 31
0.0
 11
3670.1613872424618
 21
1112.2286210779034
 31
0.0
 11
3670.0236107899291
 21
1112.2268264267543
 31
0.0
 11
3669.7392913229364
 21
1112.200853827411
 31
0.0
 11
3669.5165610932254
 21
1112.1311452675375
 31
0.0
 11
3669.1912558724721
 21
1111.9759352653934
 31
0.0
 11
3668.7867481555058
 21
1111.7829360768981
 31
0.0
  0
SPLINE
  5
37C
100
AcDbEntity
  8
0
  6
CONTINUOUS
 62
           3
100
AcDbSpline
210
0.0
220
0.0
230
1.0
 70
           0
 71
           3
 72
           8
 73
           5
 74
           7
 42
0.00000000001
 43
0.00000000001
 44
0.00000000001
 40
0.0
 40
0.0
 40
0.0
 40
0.7097104926823684
 40
1.6878550560197265
 40
2.9354142011761439
 40
2.9354142011761439
 40
2.9354142011761439
 10
3663.0132452878479
 20
1107.676094095491
 30
0.0
 10
3663.2266018489581
 20
1107.6164527879789
 30
0.0
 10
3664.1669038516579
 20
1107.3536024654891
 30
0.0
 10
3665.1443416651759
 20
1107.283622531251
 30
0.0
 10
3665.8999967216801
 20
1107.229521195673
 30
0.0
 11
3663.0132452878479
 21
1107.676094095491
 31
0.0
 11
3663.2721074221563
 21
1107.6037322422872
 31
0.0
 11
3663.6219807028629
 21
1107.5059292977
 31
0.0
 11
3664.1380633113777
 21
1107.3839955387118
 31
0.0
 11
3664.5964648393333
 21
1107.3228479261691
 31
0.0
 11
3665.1962862228415
 21
1107.279903546086
 31
0.0
 11
3665.8999967216801
 21
1107.229521195673
 31
0.0
  0
SPLINE
  5
37B
100
AcDbEntity
  8
0
  6
CONTINUOUS
 62
           3
100
AcDbSpline
210
0.0
220
0.0
230
1.0
 70
           0
 71
           3
 72
           8
 73
           5
 74
           7
 42
0.00000000001
 43
0.00000000001
 44
0.00000000001
 40
0.0
 40
0.0
 40
0.0
 40
0.7273675739547878
 40
1.7065896374619443
 40
2.938718466600843
 40
2.938718466600843
 40
2.938718466600843
 10
3665.8999967216801
 20
1107.229521195673
 30
0.0
 10
3666.1387194651611
 20
1107.2350009198949
 30
0.0
 10
3667.1156260260968
 20
1107.257425170151
 30
0.0
 10
3668.0674885010581
 20
1107.495896812917
 30
0.0
 10
3668.7867481553681
 20
1107.6760940955421
 30
0.0
 11
3665.8999967216801
 21
1107.229521195673
 31
0.0
 11
3666.1831309024951
 21
1107.2360203553496
 31
0.0
 11
3666.5550879579787
 21
1107.2445583859362
 31
0.0
 11
3667.0808665470145
 21
1107.2806082524967
 31
0.0
 11
3667.5371261778846
 21
1107.3630242837489
 31
0.0
 11
3668.1147128338425
 21
1107.5077280012813
 31
0.0
 11
3668.7867481553681
 21
1107.6760940955421
 31
0.0
  0
SPLINE
  5
37A
100
AcDbEntity
  8
0
  6
CONTINUOUS
 62
           3
100
AcDbSpline
210
0.0
220
0.0
230
1.0
 70
           0
 71
           3
 72
           8
 73
           5
 74
           7
 42
0.00000000001
 43
0.00000000001
 44
0.00000000001
 40
0.0
 40
0.0
 40
0.0
 40
1.2321298483010881
 40
2.2113525386976232
 40
2.9387203954164631
 40
2.9387203954164631
 40
2.9387203954164631
 10
3668.7867481555058
 20
1111.7829360768981
 30
0.0
 10
3668.0674886786478
 20
1111.9631367804459
 30
0.0
 10
3667.1156265865379
 20
1112.2016129134649
 30
0.0
 10
3666.1387194830959
 20
1112.224036795654
 30
0.0
 10
3665.8999967216801
 20
1112.2295164272971
 30
0.0
 11
3668.7867481555058
 21
1111.7829360768981
 31
0.0
 11
3668.1147130094214
 21
1111.9513053650753
 31
0.0
 11
3667.5371265248841
 21
1112.0960118225112
 31
0.0
 11
3667.0808669612561
 21
1112.1784292843267
 31
0.0
 11
3666.5550881470645
 21
1112.2144794878659
 31
0.0
 11
3666.1831309587346
 21
1112.2230173766179
 31
0.0
 11
3665.8999967216801
 21
1112.2295164272971
 31
0.0
  0
SPLINE
  5
379
100
AcDbEntity
  8
0
  6
CONTINUOUS
 62
           3
100
AcDbSpline
210
0.0
220
0.0
230
1.0
 70
           0
 71
           3
 72
           8
 73
           5
 74
           7
 42
0.00000000001
 43
0.00000000001
 44
0.00000000001
 40
0.0
 40
0.0
 40
0.0
 40
1.2475604207865993
 40
2.2257060852961743
 40
2.9354176594320185
 40
2.9354176594320185
 40
2.9354176594320185
 10
3665.8999967216801
 20
1112.2295164272971
 30
0.0
 10
3665.1443408647269
 20
1112.1754181257379
 30
0.0
 10
3664.1669013821661
 20
1112.105442070638
 30
0.0
 10
3663.2266017763668
 20
1111.842580148204
 30
0.0
 10
3663.0132452878479
 20
1111.7829360768981
 30
0.0
 11
3665.8999967216801
 21
1112.2295164272971
 31
0.0
 11
3665.1962853948371
 21
1112.1791368964302
 31
0.0
 11
3664.5964631282127
 21
1112.136194906948
 31
0.0
 11
3664.1380614015407
 21
1112.0750468974384
 31
0.0
 11
3663.6219797136187
 21
1111.9531085415299
 31
0.0
 11
3663.2721071385499
 21
1111.8553012287091
 31
0.0
 11
3663.0132452878479
 21
1111.7829360768981
 31
0.0
  0
SPLINE
  5
378
100
AcDbEntity
  8
0
  6
CONTINUOUS
 62
           3
100
AcDbSpline
210
0.0
220
0.0
230
1.0
 70
           0
 71
           3
 72
           8
 73
           5
 74
           7
 42
0.00000000001
 43
0.00000000001
 44
0.00000000001
 40
0.0
 40
0.0
 40
0.0
 40
0.2779454797450364
 40
0.786282538689587
 40
1.542963890721412
 40
1.542963890721412
 40
1.542963890721412
 10
3661.569869687351
 20
1094.6295165226791
 30
0.0
 10
3661.6040862319269
 20
1094.629962214937
 30
0.0
 10
3662.091496950035
 20
1094.6363110495929
 30
0.0
 10
3662.5691364171998
 20
1094.8642069041009
 30
0.0
 10
3663.0132452878479
 20
1095.076104323655
 30
0.0
 11
3661.569869687351
 21
1094.6295165226791
 31
0.0
 11
3661.6386061815001
 21
1094.6304118592393
 31
0.0
 11
3661.7763825747952
 21
1094.6322064844044
 31
0.0
 11
3662.060702211611
 21
1094.6581794186484
 31
0.0
 11
3662.2834323715811
 21
1094.727889091004
 31
0.0
 11
3662.6087376234568
 21
1094.8831018057151
 31
0.0
 11
3663.0132452878479
 21
1095.076104323655
 31
0.0
  0
SPLINE
  5
377
100
AcDbEntity
  8
0
  6
CONTINUOUS
 62
           3
100
AcDbSpline
210
0.0
220
0.0
230
1.0
 70
           0
 71
           3
 72
           8
 73
           5
 74
           7
 42
0.00000000001
 43
0.00000000001
 44
0.00000000001
 40
0.0
 40
0.0
 40
0.0
 40
0.2779462752388344
 40
0.7862820883301265
 40
1.542957730615317
 40
1.542957730615317
 40
1.542957730615317
 10
3661.569869687351
 20
1099.6295117543029
 30
0.0
 10
3661.5356531390362
 20
1099.6290660464199
 30
0.0
 10
3661.0482408408488
 20
1099.6227169692929
 30
0.0
 10
3660.5706021281858
 20
1099.3948289961149
 30
0.0
 10
3660.1264938539762
 20
1099.182938854548
 30
0.0
 11
3661.569869687351
 21
1099.6295117543029
 31
0.0
 11
3661.5011329028089
 21
1099.6286163826687
 31
0.0
 11
3661.3633556458117
 21
1099.6268216835317
 31
0.0
 11
3661.0790356162656
 21
1099.6008493594907
 31
0.0
 11
3660.8563051375522
 21
1099.5311418158453
 31
0.0
 11
3660.531000811975
 21
1099.3759346656557
 31
0.0
 11
3660.1264938539762
 21
1099.182938854548
 31
0.0
  0
SPLINE
  5
376
100
AcDbEntity
  8
0
  6
CONTINUOUS
 62
           3
100
AcDbSpline
210
0.0
220
0.0
230
1.0
 70
           0
 71
           3
 72
           8
 73
           5
 74
           7
 42
0.00000000001
 43
0.00000000001
 44
0.00000000001
 40
0.0
 40
0.0
 40
0.0
 40
0.277946485468039
 40
0.7862840844045576
 40
1.5429642659448646
 40
1.5429642659448646
 40
1.5429642659448646
 10
3670.2301237559691
 20
1094.629516522552
 30
0.0
 10
3670.2643403053671
 20
1094.629962218055
 30
0.0
 10
3670.7517530244568
 20
1094.636311122285
 30
0.0
 10
3671.229391504005
 20
1094.864206906246
 30
0.0
 10
3671.6734995893689
 20
1095.076104323754
 30
0.0
 11
3670.2301237559691
 21
1094.629516522552
 31
0.0
 11
3670.2988605017508
 21
1094.6304118686216
 31
0.0
 11
3670.4366376403004
 21
1094.6322065158251
 31
0.0
 11
3670.7209580094755
 21
1094.6581795096668
 31
0.0
 11
3670.9436883486874
 21
1094.7278892782717
 31
0.0
 11
3671.2689927365168
 21
1094.8831018536293
 31
0.0
 11
3671.6734995893689
 21
1095.076104323754
 31
0.0
  0
SPLINE
  5
375
100
AcDbEntity
  8
0
  6
CONTINUOUS
 62
           3
100
AcDbSpline
210
0.0
220
0.0
230
1.0
 70
           0
 71
           3
 72
           8
 73
           5
 74
           7
 42
0.00000000001
 43
0.00000000001
 44
0.00000000001
 40
0.0
 40
0.0
 40
0.0
 40
0.2779452695536661
 40
0.7862805426561146
 40
1.5429573555016236
 40
1.5429573555016236
 40
1.5429573555016236
 10
3670.2301237560091
 20
1099.6295117543029
 30
0.0
 10
3670.1959072124778
 20
1099.629066049534
 30
0.0
 10
3669.708496915277
 20
1099.6227170419829
 30
0.0
 10
3669.2308572149868
 20
1099.394828998265
 30
0.0
 10
3668.7867481555058
 20
1099.1829388544891
 30
0.0
 11
3670.2301237560091
 21
1099.6295117543029
 31
0.0
 11
3670.1613872230682
 21
1099.6286163920799
 31
0.0
 11
3670.0236107113064
 21
1099.6268217149493
 31
0.0
 11
3669.7392914141328
 21
1099.6008494505072
 31
0.0
 11
3669.5165611146722
 21
1099.5311420031142
 31
0.0
 11
3669.1912559250381
 21
1099.3759347135333
 31
0.0
 11
3668.7867481555058
 21
1099.1829388544891
 31
0.0
  0
SPLINE
  5
374
100
AcDbEntity
  8
0
  6
CONTINUOUS
 62
           3
100
AcDbSpline
210
0.0
220
0.0
230
1.0
 70
           0
 71
           3
 72
           8
 73
           5
 74
           7
 42
0.00000000001
 43
0.00000000001
 44
0.00000000001
 40
0.0
 40
0.0
 40
0.0
 40
0.709712655636203
 40
1.6878594213852685
 40
2.9354211178802405
 40
2.9354211178802405
 40
2.9354211178802405
 10
3663.0132452878479
 20
1095.076104323655
 30
0.0
 10
3663.2266017037659
 20
1095.0164574885589
 30
0.0
 10
3664.1668989125869
 20
1094.753583966251
 30
0.0
 10
3665.144340064257
 20
1094.683611790249
 30
0.0
 10
3665.8999967216801
 20
1094.6295165226791
 30
0.0
 11
3663.0132452878479
 21
1095.076104323655
 31
0.0
 11
3663.2721068549272
 21
1095.0037358732466
 31
0.0
 11
3663.6219787243308
 21
1094.9059241922132
 31
0.0
 11
3664.138059491635
 21
1094.783981239412
 31
0.0
 11
3664.5964614170362
 21
1094.7228328329334
 31
0.0
 11
3665.1962845668072
 21
1094.6798932340275
 31
0.0
 11
3665.8999967216801
 21
1094.6295165226791
 31
0.0
  0
SPLINE
  5
373
100
AcDbEntity
  8
0
  6
CONTINUOUS
 62
           3
100
AcDbSpline
210
0.0
220
0.0
230
1.0
 70
           0
 71
           3
 72
           8
 73
           5
 74
           7
 42
0.00000000001
 43
0.00000000001
 44
0.00000000001
 40
0.0
 40
0.0
 40
0.0
 40
0.7273681394897127
 40
1.7065914567867626
 40
2.9387223240345612
 40
2.9387223240345612
 40
2.9387223240345612
 10
3665.8999967216801
 20
1094.6295165226791
 30
0.0
 10
3666.1387195010379
 20
1094.634996061747
 30
0.0
 10
3667.1156271469849
 20
1094.6574195758719
 30
0.0
 10
3668.0674888562471
 20
1094.8959001991429
 30
0.0
 10
3668.7867481553681
 20
1095.076104323754
 30
0.0
 11
3665.8999967216801
 21
1094.6295165226791
 31
0.0
 11
3666.1831310149782
 21
1094.6360154643642
 31
0.0
 11
3666.5550883361566
 21
1094.6445532112832
 31
0.0
 11
3667.0808673755155
 21
1094.6806037518047
 31
0.0
 11
3667.5371268719346
 21
1094.763022644192
 31
0.0
 11
3668.1147131849489
 21
1094.907731841558
 31
0.0
 11
3668.7867481553681
 21
1095.076104323754
 31
0.0
  0
SPLINE
  5
372
100
AcDbEntity
  8
0
  6
CONTINUOUS
 62
           3
100
AcDbSpline
210
0.0
220
0.0
230
1.0
 70
           0
 71
           3
 72
           8
 73
           5
 74
           7
 42
0.00000000001
 43
0.00000000001
 44
0.00000000001
 40
0.0
 40
0.0
 40
0.0
 40
1.2321288292598751
 40
2.2113508927674879
 40
2.938718466722174
 40
2.938718466722174
 40
2.938718466722174
 10
3668.7867481555058
 20
1099.1829388544891
 30
0.0
 10
3668.0674885010581
 20
1099.3631361370601
 30
0.0
 10
3667.1156260260968
 20
1099.6016077798299
 30
0.0
 10
3666.1387194651611
 20
1099.6240320300849
 30
0.0
 10
3665.8999967216801
 20
1099.6295117543029
 30
0.0
 11
3668.7867481555058
 21
1099.1829388544891
 31
0.0
 11
3668.1147128338707
 21
1099.3513049487112
 31
0.0
 11
3667.5371261778619
 21
1099.4960086662361
 31
0.0
 11
3667.0808665470086
 21
1099.5784246974849
 31
0.0
 11
3666.5550879579782
 21
1099.614474564044
 31
0.0
 11
3666.1831309024956
 21
1099.6230125946292
 31
0.0
 11
3665.8999967216801
 21
1099.6295117543029
 31
0.0
  0
SPLINE
  5
371
100
AcDbEntity
  8
0
  6
CONTINUOUS
 62
           3
100
AcDbSpline
210
0.0
220
0.0
230
1.0
 70
           0
 71
           3
 72
           8
 73
           5
 74
           7
 42
0.00000000001
 43
0.00000000001
 44
0.00000000001
 40
0.0
 40
0.0
 40
0.0
 40
1.2475591451563768
 40
2.2257037084937252
 40
2.9354142011752673
 40
2.9354142011752673
 40
2.9354142011752673
 10
3665.8999967216801
 20
1099.6295117543029
 30
0.0
 10
3665.1443416651759
 20
1099.5754104187249
 30
0.0
 10
3664.1669038516579
 20
1099.505430484488
 30
0.0
 10
3663.2266018489581
 20
1099.2425801619979
 30
0.0
 10
3663.0132452878479
 20
1099.1829388544891
 30
0.0
 11
3665.8999967216801
 21
1099.6295117543029
 31
0.0
 11
3665.1962862228411
 21
1099.57912940389
 31
0.0
 11
3664.5964648393328
 21
1099.5361850238075
 31
0.0
 11
3664.1380633113781
 21
1099.475037411265
 31
0.0
 11
3663.6219807028624
 21
1099.3531036522768
 31
0.0
 11
3663.2721074221568
 21
1099.2553007076904
 31
0.0
 11
3663.0132452878479
 21
1099.1829388544891
 31
0.0
  0
SPLINE
  5
370
100
AcDbEntity
  8
0
  6
CONTINUOUS
 62
           3
100
AcDbSpline
210
0.0
220
0.0
230
1.0
 70
           0
 71
           3
 72
           8
 73
           5
 74
           7
 42
0.00000000001
 43
0.00000000001
 44
0.00000000001
 40
0.0
 40
0.0
 40
0.0
 40
0.2779464854647043
 40
0.7862840844012495
 40
1.5429642659208969
 40
1.5429642659208969
 40
1.5429642659208969
 10
3670.2301237559691
 20
1094.629516522552
 30
0.0
 10
3670.2643403053671
 20
1094.629070827307
 30
0.0
 10
3670.7517530244568
 20
1094.622721923073
 30
0.0
 10
3671.229391504005
 20
1094.394826139112
 30
0.0
 10
3671.6734995893689
 20
1094.1829287216519
 30
0.0
 11
3670.2301237559691
 21
1094.629516522552
 31
0.0
 11
3670.2988605017508
 21
1094.6286211766753
 31
0.0
 11
3670.4366376402991
 21
1094.6268265295355
 31
0.0
 11
3670.7209580094755
 21
1094.6008535356916
 31
0.0
 11
3670.9436883486906
 21
1094.5311437670848
 31
0.0
 11
3671.2689927365172
 21
1094.3759311917402
 31
0.0
 11
3671.6734995893689
 21
1094.1829287216519
 31
0.0
  0
SPLINE
  5
36F
100
AcDbEntity
  8
0
  6
CONTINUOUS
 62
           3
100
AcDbSpline
210
0.0
220
0.0
230
1.0
 70
           0
 71
           3
 72
           8
 73
           5
 74
           7
 42
0.00000000001
 43
0.00000000001
 44
0.00000000001
 40
0.0
 40
0.0
 40
0.0
 40
0.3778155284981008
 40
0.8942062233973144
 40
1.535751417469003
 40
1.535751417469003
 40
1.535751417469003
 10
3660.1264938539762
 20
1094.1829287216519
 30
0.0
 10
3660.2210118970379
 20
1094.2359888095359
 30
0.0
 10
3660.6908817949052
 20
1094.4997621300049
 30
0.0
 10
3661.1795227343068
 20
1094.5718943048309
 30
0.0
 10
3661.569869687351
 20
1094.6295165226791
 30
0.0
 11
3660.1264938539762
 21
1094.1829287216519
 31
0.0
 11
3660.24701415441
 21
1094.2505858326583
 31
0.0
 11
3660.4195389695888
 21
1094.34743698991
 31
0.0
 11
3660.6775244143319
 21
1094.4697228238674
 31
0.0
 11
3660.9087950979274
 21
1094.5319300455499
 31
0.0
 11
3661.2094275634727
 21
1094.5763087944727
 31
0.0
 11
3661.569869687351
 21
1094.6295165226791
 31
0.0
  0
SPLINE
  5
36E
100
AcDbEntity
  8
0
  6
CONTINUOUS
 62
           3
100
AcDbSpline
210
0.0
220
0.0
230
1.0
 70
           0
 71
           3
 72
           8
 73
           5
 74
           7
 42
0.00000000001
 43
0.00000000001
 44
0.00000000001
 40
0.0
 40
0.0
 40
0.0
 40
0.6415450374778705
 40
1.157930368610296
 40
1.5357381749074523
 40
1.5357381749074523
 40
1.5357381749074523
 10
3661.569869687351
 20
1089.6295212910511
 30
0.0
 10
3661.1795237086162
 20
1089.6871508125071
 30
0.0
 10
3660.690884629365
 20
1089.759292035516
 30
0.0
 10
3660.2210119621191
 20
1090.0230395668871
 30
0.0
 10
3660.1264938539762
 20
1090.076094190855
 30
0.0
 11
3661.569869687351
 21
1089.6295212910511
 31
0.0
 11
3661.2094282457078
 21
1089.6827357954307
 31
0.0
 11
3660.9087958782479
 21
1089.7271202656568
 31
0.0
 11
3660.6775260473246
 21
1089.7893268165938
 31
0.0
 11
3660.4195390523191
 21
1089.9116029296856
 31
0.0
 11
3660.2470142076336
 21
1090.0084440635787
 31
0.0
 11
3660.1264938539762
 21
1090.076094190855
 31
0.0
  0
SPLINE
  5
36D
100
AcDbEntity
  8
0
  6
CONTINUOUS
 62
           3
100
AcDbSpline
210
0.0
220
0.0
230
1.0
 70
           0
 71
           3
 72
           8
 73
           5
 74
           7
 42
0.00000000001
 43
0.00000000001
 44
0.00000000001
 40
0.0
 40
0.0
 40
0.0
 40
0.3539460334933289
 40
0.8643414136585035
 40
1.5431068113979161
 40
1.5431068113979161
 40
1.5431068113979161
 10
3661.569869687351
 20
1094.6295165226791
 30
0.0
 10
3661.6793238424261
 20
1094.6249106264611
 30
0.0
 10
3662.1676816710478
 20
1094.60436023737
 30
0.0
 10
3662.6438213484498
 20
1094.3670507529839
 30
0.0
 10
3663.0132452879739
 20
1094.1829287216519
 30
0.0
 11
3661.569869687351
 21
1094.6295165226791
 31
0.0
 11
3661.7019556855848
 21
1094.6239582649853
 31
0.0
 11
3661.8793053701356
 21
1094.6164952843396
 31
0.0
 11
3662.146678141391
 21
1094.5819303135556
 31
0.0
 11
3662.3720438533319
 21
1094.5025054951429
 31
0.0
 11
3662.668232959551
 21
1094.3548839306907
 31
0.0
 11
3663.0132452879739
 21
1094.1829287216519
 31
0.0
  0
SPLINE
  5
36C
100
AcDbEntity
  8
0
  6
CONTINUOUS
 62
           3
100
AcDbSpline
210
0.0
220
0.0
230
1.0
 70
           0
 71
           3
 72
           8
 73
           5
 74
           7
 42
0.00000000001
 43
0.00000000001
 44
0.00000000001
 40
0.0
 40
0.0
 40
0.0
 40
0.6787700534929413
 40
1.1891668948829501
 40
1.5431123743445772
 40
1.5431123743445772
 40
1.5431123743445772
 10
3663.0132452878479
 20
1090.0760941908729
 30
0.0
 10
3662.643821474408
 20
1089.8919654902379
 30
0.0
 10
3662.1676820506259
 20
1089.654647455415
 30
0.0
 10
3661.6793238525888
 20
1089.6341216698911
 30
0.0
 10
3661.569869687351
 20
1089.6295212910511
 30
0.0
 11
3663.0132452878479
 21
1090.0760941908729
 31
0.0
 11
3662.6682329736414
 21
1089.9041327016382
 31
0.0
 11
3662.3720436579033
 21
1089.7565056352043
 31
0.0
 11
3662.1466781919498
 21
1089.6770818652394
 31
0.0
 11
3661.879305008646
 21
1089.6425269149236
 31
0.0
 11
3661.7019556002933
 21
1089.635072886439
 31
0.0
 11
3661.569869687351
 21
1089.6295212910511
 31
0.0
  0
SPLINE
  5
36B
100
AcDbEntity
  8
0
  6
CONTINUOUS
 62
           3
100
AcDbSpline
210
0.0
220
0.0
230
1.0
 70
           0
 71
           3
 72
           8
 73
           5
 74
           7
 42
0.00000000001
 43
0.00000000001
 44
0.00000000001
 40
0.0
 40
0.0
 40
0.0
 40
0.2779452695536913
 40
0.7862805426572419
 40
1.5429573556200606
 40
1.5429573556200606
 40
1.5429573556200606
 10
3670.2301237560091
 20
1089.6295212910511
 30
0.0
 10
3670.1959072124778
 20
1089.62996699582
 30
0.0
 10
3669.708496915277
 20
1089.636316003375
 30
0.0
 10
3669.2308572149868
 20
1089.8642040470979
 30
0.0
 10
3668.7867481553681
 20
1090.076094190855
 30
0.0
 11
3670.2301237560091
 21
1089.6295212910511
 31
0.0
 11
3670.1613872230678
 21
1089.6304166532743
 31
0.0
 11
3670.0236107113069
 21
1089.6322113304061
 31
0.0
 11
3669.7392914141374
 21
1089.6581835948484
 31
0.0
 11
3669.5165611146895
 21
1089.7278910422374
 31
0.0
 11
3669.1912559250077
 21
1089.8830983318221
 31
0.0
 11
3668.7867481553681
 21
1090.076094190855
 31
0.0
  0
SPLINE
  5
36A
100
AcDbEntity
  8
0
  6
CONTINUOUS
 62
           3
100
AcDbSpline
210
0.0
220
0.0
230
1.0
 70
           0
 71
           3
 72
           8
 73
           5
 74
           7
 42
0.00000000001
 43
0.00000000001
 44
0.00000000001
 40
0.0
 40
0.0
 40
0.0
 40
0.5558558490694452
 40
1.5343195422054758
 40
2.9385037456647822
 40
2.9385037456647822
 40
2.9385037456647822
 10
3665.8999967216801
 20
1089.6295212909531
 30
0.0
 10
3665.8315636362959
 20
1089.6299669969319
 30
0.0
 10
3664.8567416872461
 20
1089.6363160292999
 30
0.0
 10
3663.901462916268
 20
1089.8642040478619
 30
0.0
 10
3663.0132452878479
 20
1090.0760941908729
 30
0.0
 11
3665.8999967216801
 21
1089.6295212909531
 31
0.0
 11
3665.7603818762509
 21
1089.6304306049526
 31
0.0
 11
3665.4784035107323
 21
1089.6322671349935
 31
0.0
 11
3664.9140828960208
 21
1089.6587000608502
 31
0.0
 11
3664.4644446988568
 21
1089.7299010498068
 31
0.0
 11
3663.8201539548095
 21
1089.8836008341009
 31
0.0
 11
3663.0132452878479
 21
1090.0760941908729
 31
0.0
  0
SPLINE
  5
369
100
AcDbEntity
  8
0
  6
CONTINUOUS
 62
           3
100
AcDbSpline
210
0.0
220
0.0
230
1.0
 70
           0
 71
           3
 72
           8
 73
           5
 74
           7
 42
0.00000000001
 43
0.00000000001
 44
0.00000000001
 40
0.0
 40
0.0
 40
0.0
 40
0.5558562714140323
 40
1.5343210643703458
 40
2.9385072682912772
 40
2.9385072682912772
 40
2.9385072682912772
 10
3665.8999967216801
 20
1094.6295165226791
 30
0.0
 10
3665.9684298091479
 20
1094.629070829307
 30
0.0
 10
3666.9432526000278
 20
1094.622721969844
 30
0.0
 10
3667.898530904748
 20
1094.3948261404939
 30
0.0
 10
3668.7867481555058
 20
1094.1829287216999
 30
0.0
 11
3665.8999967216801
 21
1094.6295165226791
 31
0.0
 11
3666.0396116244096
 21
1094.6286072339283
 31
0.0
 11
3666.3215901576632
 21
1094.62677075442
 31
0.0
 11
3666.88591117129
 21
1094.6003371131073
 31
0.0
 11
3667.3355493274416
 21
1094.5291337583212
 31
0.0
 11
3667.979839823111
 21
1094.3754286902522
 31
0.0
 11
3668.7867481555058
 21
1094.1829287216999
 31
0.0
  0
CIRCLE
  5
368
100
AcDbEntity
  8
1
  6
CONTINUOUS
 62
           4
100
AcDbCircle
 10
0.000000000001
 20
5478.419076098279
 40
100.9476
  0
CIRCLE
  5
367
100
AcDbEntity
  8
1
  6
CONTINUOUS
 62
           4
100
AcDbCircle
 10
0.000000000001
 20
5478.419076098279
 40
125.0
  0
CIRCLE
  5
366
100
AcDbEntity
  8
1
  6
CONTINUOUS
 62
           7
100
AcDbCircle
 10
0.000000000001
 20
5478.419076098279
 40
360.000000000002
  0
CIRCLE
  5
365
100
AcDbEntity
  8
1
  6
CONTINUOUS
 62
           3
100
AcDbCircle
 10
8.47225532188
 20
1029.83036544568
 40
40.0
  0
CIRCLE
  5
364
100
AcDbEntity
  8
1
  6
CONTINUOUS
 62
           7
100
AcDbCircle
 10
4050.000000000003
 20
334.62951711863
 40
15.0
  0
CIRCLE
  5
363
100
AcDbEntity
  8
1
  6
CONTINUOUS
 62
           2
100
AcDbCircle
 10
4050.000000000003
 20
334.62951711863
 40
8.350000000001
  0
CIRCLE
  5
362
100
AcDbEntity
  8
1
  6
CONTINUOUS
 62
           7
100
AcDbCircle
 10
4050.000000000003
 20
334.62951711863
 40
7.5
  0
ARC
  5
361
100
AcDbEntity
  8
1
  6
CONTINUOUS
 62
           7
100
AcDbCircle
 10
0.000000000001
 20
5478.419076098279
 40
150.0
100
AcDbArc
 50
23.882765003116
 51
-89.999999999999
  0
ARC
  5
360
100
AcDbEntity
  8
1
  6
CONTINUOUS
 62
           7
100
AcDbCircle
 10
0.000000000001
 20
5478.419076098279
 40
150.000000000002
100
AcDbArc
 50
-89.999999999999
 51
-23.882765003117
  0
ARC
  5
35F
100
AcDbEntity
  8
1
  6
CONTINUOUS
 62
           7
100
AcDbCircle
 10
18.000000000005
 20
5423.418861519208
 40
459.999999999998
100
AcDbArc
 50
71.463109290188
 51
88.271493544498
  0
ARC
  5
35E
100
AcDbEntity
  8
1
  6
CONTINUOUS
 62
           7
100
AcDbCircle
 10
-46.999999999995
 20
5433.419076098279
 40
525.0
100
AcDbArc
 50
-2.792103456718
 51
-0.563719865862
  0
ARC
  5
35D
100
AcDbEntity
  8
1
  6
CONTINUOUS
 62
           7
100
AcDbCircle
 10
-39.999999999995
 20
5528.419076098279
 40
620.000000000001
100
AcDbArc
 50
-174.912285430339
 51
-90.336887134984
  0
ARC
  5
35C
100
AcDbEntity
  8
1
  6
CONTINUOUS
 62
           7
100
AcDbCircle
 10
452.450424338098
 20
5574.590382621726
 40
5.0
100
AcDbArc
 50
109.497261771684
 51
-90.0
  0
ARC
  5
35B
100
AcDbEntity
  8
1
  6
CONTINUOUS
 62
           7
100
AcDbCircle
 10
18.000000000005
 20
5423.418861519208
 40
460.0
100
AcDbArc
 50
0.602232686388
 51
18.563086854737
  0
ARC
  5
35A
100
AcDbEntity
  8
1
  6
CONTINUOUS
 62
           7
100
AcDbCircle
 10
452.450424338098
 20
5574.590382621726
 40
5.0
100
AcDbArc
 50
-90.0
 51
-71.125521506268
  0
ARC
  5
359
100
AcDbEntity
  8
1
  6
CONTINUOUS
 62
           7
100
AcDbCircle
 10
477.109412628021
 20
5402.85236880562
 40
5.000000000002
100
AcDbArc
 50
86.93505846684
 51
-93.610617686047
  0
ARC
  5
358
100
AcDbEntity
  8
1
  6
CONTINUOUS
 62
           7
100
AcDbCircle
 10
-46.999999999995
 20
5433.419076098279
 40
525.000000000001
100
AcDbArc
 50
-89.633899153763
 51
-3.883455762483
  0
ARC
  5
357
100
AcDbEntity
  8
1
  6
CONTINUOUS
 62
           7
100
AcDbCircle
 10
18.000000000005
 20
5423.418861519208
 40
459.999999999999
100
AcDbArc
 50
19.808653410673
 51
70.217542734251
  0
ARC
  5
356
100
AcDbEntity
  8
1
  6
CONTINUOUS
 62
           7
100
AcDbCircle
 10
168.97287067351
 20
5857.938357423133
 40
5.000000000001
100
AcDbArc
 50
161.151717651225
 51
-19.471065626776
  0
ARC
  5
355
100
AcDbEntity
  8
1
  6
CONTINUOUS
 62
           7
100
AcDbCircle
 10
-39.999999999995
 20
5528.419076098279
 40
620.0
100
AcDbArc
 50
-179.999999999999
 51
-175.836413410616
  0
ARC
  5
354
100
AcDbEntity
  8
1
  6
CONTINUOUS
 62
           7
100
AcDbCircle
 10
-657.980582219211
 20
5478.419076098279
 40
4.999999999997
100
AcDbArc
 50
-85.143317425417
 51
94.394618584451
  0
ARC
  5
353
100
AcDbEntity
  8
7
  6
CONTINUOUS
 62
           7
100
AcDbCircle
 10
117.56
 20
3212.989517118632
 40
3.84
100
AcDbArc
 50
0.0
 51
90.0
  0
ARC
  5
352
100
AcDbEntity
  8
7
  6
CONTINUOUS
 62
           7
100
AcDbCircle
 10
116.5078244
 20
3219.229517118632
 40
2.400000000001
100
AcDbArc
 50
-124.999999999969
 51
-90.0
  0
ARC
  5
351
100
AcDbEntity
  8
7
  6
CONTINUOUS
 62
           7
100
AcDbCircle
 10
91.76
 20
3239.078877918631
 40
2.4
100
AcDbArc
 50
180.0
 51
-124.999999999985
  0
ARC
  5
350
100
AcDbEntity
  8
7
  6
CONTINUOUS
 62
           7
100
AcDbCircle
 10
85.52
 20
3238.789517118631
 40
3.84
100
AcDbArc
 50
0.0
 51
90.0
  0
ARC
  5
34F
100
AcDbEntity
  8
7
  6
CONTINUOUS
 62
           7
100
AcDbCircle
 10
-94.76
 20
3239.078877918631
 40
2.400000000001
100
AcDbArc
 50
-54.999999999997
 51
0.0
  0
ARC
  5
34E
100
AcDbEntity
  8
7
  6
CONTINUOUS
 62
           7
100
AcDbCircle
 10
-88.52
 20
3238.789517118631
 40
3.839999999999
100
AcDbArc
 50
90.0
 51
180.0
  0
ARC
  5
34D
100
AcDbEntity
  8
7
  6
CONTINUOUS
 62
           7
100
AcDbCircle
 10
-113.959999999999
 20
3212.763145518632
 40
7.44
100
AcDbArc
 50
122.681915000006
 51
180.0
  0
ARC
  5
34C
100
AcDbEntity
  8
7
  6
CONTINUOUS
 62
           7
100
AcDbCircle
 10
4176.040000000001
 20
3212.763145518632
 40
7.440000000002
100
AcDbArc
 50
122.681914999998
 51
180.0
  0
ARC
  5
34B
100
AcDbEntity
  8
7
  6
CONTINUOUS
 62
           7
100
AcDbCircle
 10
4201.48
 20
3238.789517118631
 40
3.839999999999
100
AcDbArc
 50
90.0
 51
180.0
  0
ARC
  5
34A
100
AcDbEntity
  8
7
  6
CONTINUOUS
 62
           7
100
AcDbCircle
 10
4195.24
 20
3239.078877918632
 40
2.400000000002
100
AcDbArc
 50
-55.000000000005
 51
0.0
  0
ARC
  5
349
100
AcDbEntity
  8
7
  6
CONTINUOUS
 62
           7
100
AcDbCircle
 10
4375.52
 20
3238.789517118631
 40
3.84
100
AcDbArc
 50
0.0
 51
90.0
  0
ARC
  5
348
100
AcDbEntity
  8
7
  6
CONTINUOUS
 62
           7
100
AcDbCircle
 10
4381.76
 20
3239.078877918632
 40
2.4
100
AcDbArc
 50
180.0
 51
-124.999999999959
  0
ARC
  5
347
100
AcDbEntity
  8
7
  6
CONTINUOUS
 62
           7
100
AcDbCircle
 10
4406.507824400002
 20
3219.229517118633
 40
2.400000000003
100
AcDbArc
 50
-125.0
 51
-90.0
  0
ARC
  5
346
100
AcDbEntity
  8
7
  6
CONTINUOUS
 62
           7
100
AcDbCircle
 10
4407.560000000001
 20
3212.989517118633
 40
3.839999999998
100
AcDbArc
 50
0.0
 51
90.0
  0
ARC
  5
345
100
AcDbEntity
  8
1
  6
CONTINUOUS
 62
           3
100
AcDbCircle
 10
4170.163567691046
 20
1659.629517118631
 40
9.499999999997
100
AcDbArc
 50
-124.797812779176
 51
0.0
  0
ARC
  5
344
100
AcDbEntity
  8
1
  6
CONTINUOUS
 62
           3
100
AcDbCircle
 10
4170.163567691046
 20
1659.629517118631
 40
9.5
100
AcDbArc
 50
0.0
 51
125.91695737144
  0
ARC
  5
343
100
AcDbEntity
  8
1
  6
CONTINUOUS
 62
           3
100
AcDbCircle
 10
4170.163567691046
 20
1659.629517118631
 40
5.87183499506
100
AcDbArc
 50
0.0
 51
38.59971391793
  0
ARC
  5
342
100
AcDbEntity
  8
1
  6
CONTINUOUS
 62
           3
100
AcDbCircle
 10
4170.163567691046
 20
1659.629517118631
 40
5.871834995068
100
AcDbArc
 50
38.59971391793
 51
90.0
  0
ARC
  5
341
100
AcDbEntity
  8
1
  6
CONTINUOUS
 62
           3
100
AcDbCircle
 10
4170.163567691046
 20
1659.629517118631
 40
5.871834995066
100
AcDbArc
 50
-90.0
 51
0.0
  0
ARC
  5
340
100
AcDbEntity
  8
0
  6
CONTINUOUS
 62
           3
100
AcDbCircle
 10
3728.399996721519
 20
1102.629517118744
 40
2.5
100
AcDbArc
 50
0.0
 51
180.0
  0
ARC
  5
33F
100
AcDbEntity
  8
0
  6
CONTINUOUS
 62
           3
100
AcDbCircle
 10
3728.399996721519
 20
1366.629517118529
 40
2.499999999993
100
AcDbArc
 50
180.0
 51
0.0
  0
ARC
  5
33E
100
AcDbEntity
  8
0
  6
CONTINUOUS
 62
           3
100
AcDbCircle
 10
3603.399996721828
 20
1366.629517118529
 40
2.5
100
AcDbArc
 50
180.0
 51
0.0
  0
ARC
  5
33D
100
AcDbEntity
  8
0
  6
CONTINUOUS
 62
           3
100
AcDbCircle
 10
3603.399996721828
 20
1102.629517118744
 40
2.49999999999
100
AcDbArc
 50
0.0
 51
180.0
  0
ARC
  5
33C
100
AcDbEntity
  8
0
  6
CONTINUOUS
 62
           3
100
AcDbCircle
 10
3607.899996721818
 20
1243.629517118628
 40
0.999999999997
100
AcDbArc
 50
-90.0
 51
90.0
  0
ARC
  5
33B
100
AcDbEntity
  8
0
  6
CONTINUOUS
 62
           3
100
AcDbCircle
 10
3607.899996721818
 20
1165.629517118692
 40
1.0
100
AcDbArc
 50
-90.0
 51
90.0
  0
ARC
  5
33A
100
AcDbEntity
  8
0
  6
CONTINUOUS
 62
           3
100
AcDbCircle
 10
3607.899996721818
 20
1143.629517118809
 40
0.999999999997
100
AcDbArc
 50
-90.0
 51
90.0
  0
ARC
  5
339
100
AcDbEntity
  8
0
  6
CONTINUOUS
 62
           3
100
AcDbCircle
 10
3723.899996721526
 20
1143.629517118809
 40
1.0
100
AcDbArc
 50
90.0
 51
-90.0
  0
ARC
  5
338
100
AcDbEntity
  8
0
  6
CONTINUOUS
 62
           3
100
AcDbCircle
 10
3723.899996721526
 20
1165.629517118692
 40
0.999999999997
100
AcDbArc
 50
90.0
 51
-90.0
  0
ARC
  5
337
100
AcDbEntity
  8
0
  6
CONTINUOUS
 62
           3
100
AcDbCircle
 10
3723.899996721526
 20
1243.629517118628
 40
1.0
100
AcDbArc
 50
90.0
 51
-90.0
  0
ARC
  5
336
100
AcDbEntity
  8
0
  6
CONTINUOUS
 62
           3
100
AcDbCircle
 10
3723.899996721526
 20
1265.62951711851
 40
1.0
100
AcDbArc
 50
90.0
 51
-90.0
  0
ARC
  5
335
100
AcDbEntity
  8
0
  6
CONTINUOUS
 62
           3
100
AcDbCircle
 10
3607.899996721818
 20
1265.62951711851
 40
0.999999999995
100
AcDbArc
 50
-90.0
 51
90.0
  0
ARC
  5
334
100
AcDbEntity
  8
0
  6
CONTINUOUS
 62
           3
100
AcDbCircle
 10
3672.373499413467
 20
1124.629517118628
 40
0.900000000003
100
AcDbArc
 50
-90.0
 51
-62.733955549611
  0
ARC
  5
333
100
AcDbEntity
  8
0
  6
CONTINUOUS
 62
           3
100
AcDbCircle
 10
3659.426494029875
 20
1124.629517118628
 40
0.9
100
AcDbArc
 50
-117.266044450312
 51
-90.0
  0
ARC
  5
332
100
AcDbEntity
  8
0
  6
CONTINUOUS
 62
           3
100
AcDbCircle
 10
3665.89999672168
 20
1049.629517118689
 40
53.999999999965
100
AcDbArc
 50
180.0
 51
0.0
  0
ARC
  5
331
100
AcDbEntity
  8
0
  6
CONTINUOUS
 62
           3
100
AcDbCircle
 10
3665.89999672168
 20
1049.629517118689
 40
45.999999999972
100
AcDbArc
 50
180.0
 51
0.0
  0
ARC
  5
330
100
AcDbEntity
  8
0
  6
CONTINUOUS
 62
           3
100
AcDbCircle
 10
3665.89999672168
 20
1089.629517118852
 40
4.0
100
AcDbArc
 50
180.0
 51
0.0
  0
ARC
  5
32F
100
AcDbEntity
  8
1
  6
CONTINUOUS
 62
           3
100
AcDbCircle
 10
8.47225532188
 20
1029.83036544568
 40
28.75000000001
100
AcDbArc
 50
83.827497999999
 51
96.17250199999
  0
ARC
  5
32E
100
AcDbEntity
  8
1
  6
CONTINUOUS
 62
           3
100
AcDbCircle
 10
8.47225532188
 20
1029.83036544568
 40
28.749999999988
100
AcDbArc
 50
-96.172501999994
 51
-83.827497999994
  0
ARC
  5
32D
100
AcDbEntity
  8
1
  6
CONTINUOUS
 62
           3
100
AcDbCircle
 10
8.47225532188
 20
1029.83036544568
 40
10.75
100
AcDbArc
 50
0.0
 51
61.226493000001
  0
ARC
  5
32C
100
AcDbEntity
  8
1
  6
CONTINUOUS
 62
           3
100
AcDbCircle
 10
8.47225532188
 20
1029.83036544568
 40
10.75
100
AcDbArc
 50
-61.226493000021
 51
0.0
  0
ARC
  5
32B
100
AcDbEntity
  8
1
  6
CONTINUOUS
 62
           3
100
AcDbCircle
 10
8.47225532188
 20
1029.83036544568
 40
10.74999999999
100
AcDbArc
 50
118.773506999971
 51
-118.773506999951
  0
ARC
  5
32A
100
AcDbEntity
  8
1
  6
CONTINUOUS
 62
           3
100
AcDbCircle
 10
12.510557321879
 20
1029.83036544568
 40
10.0
100
AcDbArc
 50
174.993206999971
 51
-174.993207000028
  0
ARC
  5
329
100
AcDbEntity
  8
1
  6
CONTINUOUS
 62
           3
100
AcDbCircle
 10
4.433952321886
 20
1029.83036544568
 40
9.999999999999
100
AcDbArc
 50
-5.006792999972
 51
5.006793000029
  0
ARC
  5
328
100
AcDbEntity
  8
1
  6
CONTINUOUS
 62
           3
100
AcDbCircle
 10
5.43475232188
 20
1057.916591445681
 40
0.499999999999
100
AcDbArc
 50
96.172501999333
 51
174.993206998663
  0
ARC
  5
327
100
AcDbEntity
  8
1
  6
CONTINUOUS
 62
           3
100
AcDbCircle
 10
11.509758321879
 20
1057.916591445681
 40
0.500000000005
100
AcDbArc
 50
5.006793001258
 51
83.827497998166
  0
ARC
  5
326
100
AcDbEntity
  8
1
  6
CONTINUOUS
 62
           3
100
AcDbCircle
 10
5.43475232188
 20
1001.744139445688
 40
0.499999999996
100
AcDbArc
 50
-174.993206999935
 51
-96.172501999334
  0
ARC
  5
325
100
AcDbEntity
  8
1
  6
CONTINUOUS
 62
           3
100
AcDbCircle
 10
11.509758321879
 20
1001.744139445688
 40
0.500000000001
100
AcDbArc
 50
-83.827497998165
 51
-5.006792999986
  0
ARC
  5
324
100
AcDbEntity
  8
1
  6
CONTINUOUS
 62
           7
100
AcDbCircle
 10
3652.000000000004
 20
1491.379517118632
 40
37.0
100
AcDbArc
 50
180.0
 51
-90.0
  0
ARC
  5
323
100
AcDbEntity
  8
1
  6
CONTINUOUS
 62
           7
100
AcDbCircle
 10
3652.000000000004
 20
1491.379517118632
 40
17.0
100
AcDbArc
 50
180.0
 51
-90.0
  0
LINE
  5
322
100
AcDbEntity
  8
1
  6
CONTINUOUS
 62
           4
100
AcDbLine
 10
134.432661752785
 20
5420.919076098279
 11
117.908702762048
 21
5420.919076098279
  0
LINE
  5
321
100
AcDbEntity
  8
1
  6
CONTINUOUS
 62
           4
100
AcDbLine
 10
134.432661752785
 20
5535.919076098279
 11
117.908702762048
 21
5535.919076098279
  0
LINE
  5
320
100
AcDbEntity
  8
1
  6
CONTINUOUS
 62
           7
100
AcDbLine
 10
185.000000000002
 20
5414.919076098279
 11
144.824966598198
 21
5414.919076098279
  0
LINE
  5
31F
100
AcDbEntity
  8
1
  6
CONTINUOUS
 62
           7
100
AcDbLine
 10
144.824966598198
 20
5541.919076098279
 11
185.000000000002
 21
5541.919076098279
  0
LINE
  5
31E
100
AcDbEntity
  8
1
  6
CONTINUOUS
 62
           7
100
AcDbLine
 10
132.824966598198
 20
5426.919076098279
 11
132.824966598198
 21
5529.919076098279
  0
LINE
  5
31D
100
AcDbEntity
  8
1
  6
CONTINUOUS
 62
           7
100
AcDbLine
 10
197.000000000002
 20
5529.919076098279
 11
197.000000000002
 21
5426.919076098279
  0
LINE
  5
31C
100
AcDbEntity
  8
1
  6
CONTINUOUS
 62
           4
100
AcDbLine
 10
-689.999999999995
 20
5983.919076098279
 11
40.000000000005
 21
5983.919076098279
  0
LINE
  5
31B
100
AcDbEntity
  8
1
  6
CONTINUOUS
 62
           7
100
AcDbLine
 10
40.000000000005
 20
5988.419076098279
 11
-689.999999999995
 21
5988.419076098279
  0
LINE
  5
31A
100
AcDbEntity
  8
1
  6
CONTINUOUS
 62
           4
100
AcDbLine
 10
40.000000000005
 20
5992.919076098279
 11
-689.999999999995
 21
5992.919076098279
  0
LINE
  5
319
100
AcDbEntity
  8
1
  6
DOT_CENTER
 62
           2
100
AcDbLine
 10
-324.999999999996
 20
6097.308045021228
 11
-324.999999999996
 21
5665.070948554338
  0
LINE
  5
318
100
AcDbEntity
  8
1
  6
CONTINUOUS
 62
           7
100
AcDbLine
 10
0.000000000002
 20
5938.419076098279
 11
0.000000000005
 21
5948.419076098279
  0
LINE
  5
317
100
AcDbEntity
  8
1
  6
CONTINUOUS
 62
           7
100
AcDbLine
 10
-649.999999999995
 20
5948.419076098279
 11
-649.999999999995
 21
5938.419076098279
  0
LINE
  5
316
100
AcDbEntity
  8
1
  6
CONTINUOUS
 62
           7
100
AcDbLine
 10
-659.999999999995
 20
5928.419076098279
 11
-649.999999999995
 21
5938.419076098279
  0
LINE
  5
315
100
AcDbEntity
  8
1
  6
CONTINUOUS
 62
           7
100
AcDbLine
 10
31.87523434135
 20
5883.209550715904
 11
0.000000000002
 21
5938.419076098279
  0
LINE
  5
314
100
AcDbEntity
  8
1
  6
CONTINUOUS
 62
           7
100
AcDbLine
 10
-659.999999999995
 20
5928.419076098279
 11
-659.999999999995
 21
5528.419076098276
  0
LINE
  5
313
100
AcDbEntity
  8
1
  6
CONTINUOUS
 62
           7
100
AcDbLine
 10
-689.999999999995
 20
6023.419076098279
 11
-689.999999999995
 21
5988.419076098279
  0
LINE
  5
312
100
AcDbEntity
  8
1
  6
CONTINUOUS
 62
           7
100
AcDbLine
 10
-689.999999999995
 20
6023.419076098279
 11
-684.999999999995
 21
6028.419076098279
  0
LINE
  5
311
100
AcDbEntity
  8
1
  6
CONTINUOUS
 62
           7
100
AcDbLine
 10
35.000000000005
 20
6028.419076098279
 11
-684.999999999995
 21
6028.419076098279
  0
LINE
  5
310
100
AcDbEntity
  8
1
  6
CONTINUOUS
 62
           7
100
AcDbLine
 10
35.000000000005
 20
6028.419076098279
 11
40.000000000005
 21
6023.419076098279
  0
LINE
  5
30F
100
AcDbEntity
  8
1
  6
CONTINUOUS
 62
           7
100
AcDbLine
 10
40.000000000005
 20
5988.419076098279
 11
40.000000000005
 21
6023.419076098279
  0
LINE
  5
30E
100
AcDbEntity
  8
1
  6
CONTINUOUS
 62
           7
100
AcDbLine
 10
40.000000000005
 20
5953.419076098279
 11
40.000000000005
 21
5988.419076098279
  0
LINE
  5
30D
100
AcDbEntity
  8
1
  6
CONTINUOUS
 62
           7
100
AcDbLine
 10
40.000000000005
 20
5953.419076098279
 11
35.000000000005
 21
5948.419076098279
  0
LINE
  5
30C
100
AcDbEntity
  8
1
  6
CONTINUOUS
 62
           7
100
AcDbLine
 10
-684.999999999995
 20
5948.419076098279
 11
35.000000000005
 21
5948.419076098279
  0
LINE
  5
30B
100
AcDbEntity
  8
1
  6
CONTINUOUS
 62
           7
100
AcDbLine
 10
-684.999999999995
 20
5948.419076098279
 11
-689.999999999995
 21
5953.419076098279
  0
LINE
  5
30A
100
AcDbEntity
  8
1
  6
CONTINUOUS
 62
           7
100
AcDbLine
 10
-689.999999999995
 20
5988.419076098279
 11
-689.999999999995
 21
5953.419076098279
  0
LINE
  5
309
100
AcDbEntity
  8
1
  6
CONTINUOUS
 62
           7
100
AcDbLine
 10
445.000000000005
 20
5578.419076098279
 11
170.000000200064
 21
5853.419076098279
  0
LINE
  5
308
100
AcDbEntity
  8
1
  6
CONTINUOUS
 62
           7
100
AcDbLine
 10
-645.983368801931
 20
5473.950425922108
 11
-56.963420073537
 21
4884.930477193712
  0
LINE
  5
307
100
AcDbEntity
  8
1
  6
CONTINUOUS
 62
           7
100
AcDbLine
 10
-179.999999999996
 20
5948.419076098279
 11
-649.999999999997
 21
5478.419076098279
  0
LINE
  5
306
100
AcDbEntity
  8
1
  6
CONTINUOUS
 62
           7
100
AcDbLine
 10
-650.226009489051
 20
5478.193066609228
 11
-645.983368801931
 21
5473.950425922108
  0
LINE
  5
305
100
AcDbEntity
  8
1
  6
CONTINUOUS
 62
           7
100
AcDbLine
 10
-52.720779386417
 20
4880.687836506592
 11
470.538238691627
 21
5403.946854584637
  0
LINE
  5
304
100
AcDbEntity
  8
1
  6
CONTINUOUS
 62
           7
100
AcDbLine
 10
-56.963420073537
 20
4884.930477193712
 11
-52.720779386417
 21
4880.687836506592
  0
LINE
  5
303
100
AcDbEntity
  8
1
  6
CONTINUOUS
 62
           7
100
AcDbLine
 10
-649.999999999997
 20
5478.419076098279
 11
-650.226009489051
 21
5478.193066609228
  0
LINE
  5
302
100
AcDbEntity
  8
1
  6
CONTINUOUS
 62
           7
100
AcDbLine
 10
216.000000000002
 20
5262.419076098281
 11
216.000000000005
 21
5748.419076098279
  0
LINE
  5
301
100
AcDbEntity
  8
1
  6
CONTINUOUS
 62
           7
100
AcDbLine
 10
-215.999999999996
 20
5262.419076098281
 11
270.000000000005
 21
5262.419076098281
  0
LINE
  5
300
100
AcDbEntity
  8
1
  6
CONTINUOUS
 62
           7
100
AcDbLine
 10
-215.999999999997
 20
5694.419076098281
 11
-215.999999999996
 21
5208.419076098279
  0
LINE
  5
2FF
100
AcDbEntity
  8
1
  6
CONTINUOUS
 62
           7
100
AcDbLine
 10
216.000000000006
 20
5694.419076098281
 11
-269.999999999996
 21
5694.419076098281
  0
LINE
  5
2FE
100
AcDbEntity
  8
1
  6
CONTINUOUS
 62
           7
100
AcDbLine
 10
-52.720779386419
 20
2384.629517118629
 11
-52.720779386419
 21
2399.629517118629
  0
LINE
  5
2FD
100
AcDbEntity
  8
1
  6
CONTINUOUS
 62
           7
100
AcDbLine
 10
197.000000000001
 20
3022.92951711863
 11
197.000000000001
 21
2946.929517118629
  0
LINE
  5
2FC
100
AcDbEntity
  8
1
  6
CONTINUOUS
 62
           7
100
AcDbLine
 10
122.4963968
 20
2946.929517118629
 11
122.4963968
 21
3022.92951711863
  0
LINE
  5
2FB
100
AcDbEntity
  8
1
  6
CONTINUOUS
 62
           7
100
AcDbLine
 10
134.4963968
 20
3034.929517118629
 11
185.000000000001
 21
3034.929517118629
  0
LINE
  5
2FA
100
AcDbEntity
  8
1
  6
CONTINUOUS
 62
           7
100
AcDbLine
 10
185.000000000001
 20
2934.929517118629
 11
134.4963968
 21
2934.929517118629
  0
LINE
  5
2F9
100
AcDbEntity
  8
2
  6
CONTINUOUS
 62
           4
100
AcDbLine
 10
109.2423704
 20
2893.729517118629
 11
-112.242370399999
 21
2893.729517118629
  0
LINE
  5
2F8
100
AcDbEntity
  8
7
  6
CONTINUOUS
 62
           7
100
AcDbLine
 10
125.000000000001
 20
3179.861382366674
 11
125.000000000001
 21
3146.81633631863
  0
LINE
  5
2F7
100
AcDbEntity
  8
7
  6
CONTINUOUS
 62
           7
100
AcDbLine
 10
-124.999999999999
 20
3179.861382366674
 11
-121.4
 21
3212.763145518632
  0
LINE
  5
2F6
100
AcDbEntity
  8
1
  6
CONTINUOUS
 62
           4
100
AcDbLine
 10
125.000000000001
 20
3179.861382366674
 11
-124.999999999999
 21
3179.861382366674
  0
LINE
  5
2F5
100
AcDbEntity
  8
2
  6
CONTINUOUS
 62
           7
100
AcDbLine
 10
-112.242370399999
 20
2893.729517118629
 11
-125.4963968
 21
2925.529517118631
  0
LINE
  5
2F4
100
AcDbEntity
  8
2
  6
CONTINUOUS
 62
           7
100
AcDbLine
 10
-125.4963968
 20
3000.779517118631
 11
-125.4963968
 21
2925.529517118631
  0
LINE
  5
2F3
100
AcDbEntity
  8
2
  6
CONTINUOUS
 62
           7
100
AcDbLine
 10
-119.7446492
 20
3146.81633631863
 11
-125.4963968
 21
3133.01633631863
  0
LINE
  5
2F2
100
AcDbEntity
  8
2
  6
CONTINUOUS
 62
           7
100
AcDbLine
 10
-125.4963968
 20
3000.779517118631
 11
-125.4963968
 21
3133.01633631863
  0
LINE
  5
2F1
100
AcDbEntity
  8
2
  6
CONTINUOUS
 62
           4
100
AcDbLine
 10
-107.06
 20
2893.729517118629
 11
-107.06
 21
2883.629517118629
  0
LINE
  5
2F0
100
AcDbEntity
  8
2
  6
CONTINUOUS
 62
           4
100
AcDbLine
 10
104.06
 20
2883.629517118629
 11
104.06
 21
2893.729517118629
  0
LINE
  5
2EF
100
AcDbEntity
  8
2
  6
CONTINUOUS
 62
           7
100
AcDbLine
 10
122.4963968
 20
3133.01633631863
 11
122.4963968
 21
3000.779517118631
  0
LINE
  5
2EE
100
AcDbEntity
  8
2
  6
CONTINUOUS
 62
           7
100
AcDbLine
 10
122.4963968
 20
3133.01633631863
 11
116.7446492
 21
3146.81633631863
  0
LINE
  5
2ED
100
AcDbEntity
  8
2
  6
CONTINUOUS
 62
           7
100
AcDbLine
 10
122.4963968
 20
2925.529517118631
 11
122.4963968
 21
3000.779517118631
  0
LINE
  5
2EC
100
AcDbEntity
  8
2
  6
CONTINUOUS
 62
           7
100
AcDbLine
 10
122.4963968
 20
2925.529517118631
 11
109.2423704
 21
2893.729517118629
  0
LINE
  5
2EB
100
AcDbEntity
  8
7
  6
CONTINUOUS
 62
           7
100
AcDbLine
 10
0.0
 20
3242.62951711863
 11
85.52
 21
3242.62951711863
  0
LINE
  5
2EA
100
AcDbEntity
  8
7
  6
CONTINUOUS
 62
           7
100
AcDbLine
 10
90.3834164
 20
3237.112913118631
 11
115.1312408
 21
3217.263552318632
  0
LINE
  5
2E9
100
AcDbEntity
  8
7
  6
CONTINUOUS
 62
           4
100
AcDbLine
 10
-120.190427599999
 20
3216.829517118632
 11
117.56
 21
3216.829517118632
  0
LINE
  5
2E8
100
AcDbEntity
  8
7
  6
CONTINUOUS
 62
           7
100
AcDbLine
 10
121.4
 20
3212.989517118632
 11
125.000000000001
 21
3179.861382366674
  0
LINE
  5
2E7
100
AcDbEntity
  8
7
  6
CONTINUOUS
 62
           7
100
AcDbLine
 10
125.000000000001
 20
3146.81633631863
 11
-124.999999999999
 21
3146.81633631863
  0
LINE
  5
2E6
100
AcDbEntity
  8
7
  6
CONTINUOUS
 62
           7
100
AcDbLine
 10
-124.999999999999
 20
3146.81633631863
 11
-124.999999999999
 21
3179.861382366674
  0
LINE
  5
2E5
100
AcDbEntity
  8
7
  6
CONTINUOUS
 62
           7
100
AcDbLine
 10
0.0
 20
3242.62951711863
 11
-88.52
 21
3242.62951711863
  0
LINE
  5
2E4
100
AcDbEntity
  8
7
  6
CONTINUOUS
 62
           7
100
AcDbLine
 10
-93.383417599999
 20
3237.112913118631
 11
-117.9774116
 21
3219.025254318631
  0
LINE
  5
2E3
100
AcDbEntity
  8
1
  6
DOT_CENTER
 62
           2
100
AcDbLine
 10
533.829689541416
 20
2619.629517118633
 11
-732.147676803783
 21
2619.62951711863
  0
LINE
  5
2E2
100
AcDbEntity
  8
1
  6
CONTINUOUS
 62
           2
100
AcDbLine
 10
467.97406200061
 20
2799.629517118633
 11
425.133110726257
 21
2799.629517118633
  0
LINE
  5
2E1
100
AcDbEntity
  8
1
  6
CONTINUOUS
 62
           2
100
AcDbLine
 10
425.133110726257
 20
2439.629517118631
 11
467.97406200061
 21
2439.629517118633
  0
LINE
  5
2E0
100
AcDbEntity
  8
1
  6
CONTINUOUS
 62
           2
100
AcDbLine
 10
425.133110726257
 20
2799.629517118633
 11
425.133110726257
 21
2439.629517118631
  0
LINE
  5
2DF
100
AcDbEntity
  8
1
  6
CONTINUOUS
 62
           7
100
AcDbLine
 10
-649.226009489053
 20
2399.629517118626
 11
-649.226009489053
 21
2384.629517118629
  0
LINE
  5
2DE
100
AcDbEntity
  8
1
  6
CONTINUOUS
 62
           7
100
AcDbLine
 10
-648.999999999994
 20
2839.629517118629
 11
-648.999999999994
 21
2399.629517118626
  0
LINE
  5
2DD
100
AcDbEntity
  8
1
  6
CONTINUOUS
 62
           7
100
AcDbLine
 10
-649.226009489053
 20
2839.629517118629
 11
-649.226009489053
 21
2877.629517118628
  0
LINE
  5
2DC
100
AcDbEntity
  8
1
  6
CONTINUOUS
 62
           7
100
AcDbLine
 10
-667.432750797187
 20
2839.629517118629
 11
-689.999999999997
 21
2839.629517118629
  0
LINE
  5
2DB
100
AcDbEntity
  8
1
  6
CONTINUOUS
 62
           7
100
AcDbLine
 10
-658.999999999997
 20
2879.629517118629
 11
-689.999999999997
 21
2879.629517118629
  0
LINE
  5
2DA
100
AcDbEntity
  8
1
  6
CONTINUOUS
 62
           7
100
AcDbLine
 10
467.97406200061
 20
2839.629517118629
 11
467.97406200061
 21
2399.629517118629
  0
LINE
  5
2D9
100
AcDbEntity
  8
1
  6
CONTINUOUS
 62
           4
100
AcDbLine
 10
270.000000000001
 20
2877.629517118629
 11
270.000000000001
 21
2878.629517118628
  0
LINE
  5
2D8
100
AcDbEntity
  8
1
  6
CONTINUOUS
 62
           4
100
AcDbLine
 10
265.000000000001
 20
2883.629517118629
 11
-264.993063735609
 21
2883.629517118629
  0
LINE
  5
2D7
100
AcDbEntity
  8
1
  6
CONTINUOUS
 62
           4
100
AcDbLine
 10
270.000000000001
 20
2878.629517118628
 11
265.000000000001
 21
2883.629517118629
  0
LINE
  5
2D6
100
AcDbEntity
  8
1
  6
CONTINUOUS
 62
           7
100
AcDbLine
 10
470.538238691625
 20
2399.629517118629
 11
470.538238691625
 21
2384.629517118629
  0
LINE
  5
2D5
100
AcDbEntity
  8
1
  6
CONTINUOUS
 62
           7
100
AcDbLine
 10
470.538238691625
 20
2877.629517118629
 11
470.538238691625
 21
2839.629517118629
  0
LINE
  5
2D4
100
AcDbEntity
  8
1
  6
CONTINUOUS
 62
           7
100
AcDbLine
 10
-649.226009489053
 20
2877.629517118628
 11
470.538238691625
 21
2877.629517118629
  0
LINE
  5
2D3
100
AcDbEntity
  8
1
  6
CONTINUOUS
 62
           2
100
AcDbLine
 10
-576.93489557894
 20
2799.629517118633
 11
-576.93489557894
 21
2439.629517118631
  0
LINE
  5
2D2
100
AcDbEntity
  8
1
  6
CONTINUOUS
 62
           2
100
AcDbLine
 10
-268.5423591195
 20
2799.629517118633
 11
-576.93489557894
 21
2799.629517118633
  0
LINE
  5
2D1
100
AcDbEntity
  8
1
  6
CONTINUOUS
 62
           2
100
AcDbLine
 10
-268.5423591195
 20
2439.629517118631
 11
-268.5423591195
 21
2799.629517118633
  0
LINE
  5
2D0
100
AcDbEntity
  8
1
  6
CONTINUOUS
 62
           2
100
AcDbLine
 10
-576.93489557894
 20
2439.629517118631
 11
-268.5423591195
 21
2439.629517118631
  0
LINE
  5
2CF
100
AcDbEntity
  8
1
  6
CONTINUOUS
 62
           7
100
AcDbLine
 10
477.974589850551
 20
2399.629517118629
 11
-658.999999999997
 21
2399.629517118626
  0
LINE
  5
2CE
100
AcDbEntity
  8
1
  6
CONTINUOUS
 62
           7
100
AcDbLine
 10
477.974589850551
 20
2839.629517118629
 11
-658.999999999997
 21
2839.629517118629
  0
LINE
  5
2CD
100
AcDbEntity
  8
1
  6
CONTINUOUS
 62
           7
100
AcDbLine
 10
-689.999999999997
 20
2399.629517118629
 11
-667.188191940733
 21
2399.629517118629
  0
LINE
  5
2CC
100
AcDbEntity
  8
1
  6
CONTINUOUS
 62
           7
100
AcDbLine
 10
-689.999999999997
 20
2879.629517118629
 11
-689.999999999997
 21
2384.629517118629
  0
LINE
  5
2CB
100
AcDbEntity
  8
1
  6
CONTINUOUS
 62
           4
100
AcDbLine
 10
-264.993063735609
 20
2883.629517118629
 11
-268.19750294482
 21
2880.42951711863
  0
LINE
  5
2CA
100
AcDbEntity
  8
1
  6
CONTINUOUS
 62
           7
100
AcDbLine
 10
-52.720779386419
 20
2839.629517118629
 11
-52.720779386419
 21
2877.629517118628
  0
LINE
  5
2C9
100
AcDbEntity
  8
1
  6
DOT_CENTER
 62
           2
100
AcDbLine
 10
4900.588082276607
 20
2619.62951711863
 11
3665.991794870068
 21
2619.62951711863
  0
LINE
  5
2C8
100
AcDbEntity
  8
2
  6
CONTINUOUS
 62
           4
100
AcDbLine
 10
4394.060000000001
 20
2883.62951711863
 11
4394.060000000001
 21
2893.72951711863
  0
LINE
  5
2C7
100
AcDbEntity
  8
7
  6
CONTINUOUS
 62
           7
100
AcDbLine
 10
4196.6165824
 20
3237.112913118631
 11
4172.022588399999
 21
3219.025254318633
  0
LINE
  5
2C6
100
AcDbEntity
  8
7
  6
CONTINUOUS
 62
           7
100
AcDbLine
 10
4290.000000000002
 20
3242.62951711863
 11
4201.48
 21
3242.62951711863
  0
LINE
  5
2C5
100
AcDbEntity
  8
7
  6
CONTINUOUS
 62
           7
100
AcDbLine
 10
4165.000000000002
 20
3146.816336318631
 11
4165.000000000002
 21
3179.861382366675
  0
LINE
  5
2C4
100
AcDbEntity
  8
7
  6
CONTINUOUS
 62
           7
100
AcDbLine
 10
4415.000000000002
 20
3146.816336318631
 11
4165.000000000002
 21
3146.816336318631
  0
LINE
  5
2C3
100
AcDbEntity
  8
7
  6
CONTINUOUS
 62
           7
100
AcDbLine
 10
4411.4
 20
3212.989517118633
 11
4415.000000000002
 21
3179.861382366675
  0
LINE
  5
2C2
100
AcDbEntity
  8
7
  6
CONTINUOUS
 62
           4
100
AcDbLine
 10
4169.809572400001
 20
3216.829517118632
 11
4407.560000000001
 21
3216.829517118632
  0
LINE
  5
2C1
100
AcDbEntity
  8
7
  6
CONTINUOUS
 62
           7
100
AcDbLine
 10
4380.383416400002
 20
3237.112913118631
 11
4405.131240800001
 21
3217.263552318632
  0
LINE
  5
2C0
100
AcDbEntity
  8
7
  6
CONTINUOUS
 62
           7
100
AcDbLine
 10
4290.000000000002
 20
3242.62951711863
 11
4375.52
 21
3242.62951711863
  0
LINE
  5
2BF
100
AcDbEntity
  8
2
  6
CONTINUOUS
 62
           7
100
AcDbLine
 10
4412.496396800001
 20
2925.529517118633
 11
4399.242370399999
 21
2893.72951711863
  0
LINE
  5
2BE
100
AcDbEntity
  8
2
  6
CONTINUOUS
 62
           7
100
AcDbLine
 10
4412.496396800001
 20
2925.529517118633
 11
4412.496396800001
 21
3000.779517118633
  0
LINE
  5
2BD
100
AcDbEntity
  8
2
  6
CONTINUOUS
 62
           7
100
AcDbLine
 10
4412.496396800001
 20
3133.016336318631
 11
4406.7446492
 21
3146.816336318631
  0
LINE
  5
2BC
100
AcDbEntity
  8
2
  6
CONTINUOUS
 62
           7
100
AcDbLine
 10
4412.496396800001
 20
3133.016336318631
 11
4412.496396800001
 21
3000.779517118633
  0
LINE
  5
2BB
100
AcDbEntity
  8
2
  6
CONTINUOUS
 62
           4
100
AcDbLine
 10
4182.940000000001
 20
2893.72951711863
 11
4182.940000000001
 21
2883.62951711863
  0
LINE
  5
2BA
100
AcDbEntity
  8
2
  6
CONTINUOUS
 62
           7
100
AcDbLine
 10
4164.503603200001
 20
3000.779517118633
 11
4164.503603200001
 21
3133.016336318632
  0
LINE
  5
2B9
100
AcDbEntity
  8
2
  6
CONTINUOUS
 62
           7
100
AcDbLine
 10
4170.2553508
 20
3146.816336318631
 11
4164.503603200001
 21
3133.016336318632
  0
LINE
  5
2B8
100
AcDbEntity
  8
2
  6
CONTINUOUS
 62
           7
100
AcDbLine
 10
4164.503603200001
 20
3000.779517118633
 11
4164.503603200001
 21
2925.529517118633
  0
LINE
  5
2B7
100
AcDbEntity
  8
2
  6
CONTINUOUS
 62
           7
100
AcDbLine
 10
4177.757629600001
 20
2893.72951711863
 11
4164.503603200001
 21
2925.529517118633
  0
LINE
  5
2B6
100
AcDbEntity
  8
1
  6
CONTINUOUS
 62
           4
100
AcDbLine
 10
4415.000000000002
 20
3179.861382366675
 11
4165.000000000002
 21
3179.861382366675
  0
LINE
  5
2B5
100
AcDbEntity
  8
7
  6
CONTINUOUS
 62
           7
100
AcDbLine
 10
4165.000000000002
 20
3179.861382366675
 11
4168.600000000002
 21
3212.763145518632
  0
LINE
  5
2B4
100
AcDbEntity
  8
7
  6
CONTINUOUS
 62
           7
100
AcDbLine
 10
4415.000000000002
 20
3179.861382366675
 11
4415.000000000002
 21
3146.816336318631
  0
LINE
  5
2B3
100
AcDbEntity
  8
2
  6
CONTINUOUS
 62
           4
100
AcDbLine
 10
4399.242370399999
 20
2893.72951711863
 11
4177.757629600001
 21
2893.72951711863
  0
LINE
  5
2B2
100
AcDbEntity
  8
1
  6
CONTINUOUS
 62
           7
100
AcDbLine
 10
4341.500000000002
 20
2934.92951711863
 11
4238.500000000002
 21
2934.92951711863
  0
LINE
  5
2B1
100
AcDbEntity
  8
1
  6
CONTINUOUS
 62
           7
100
AcDbLine
 10
4238.500000000002
 20
3034.92951711863
 11
4341.500000000002
 21
3034.92951711863
  0
LINE
  5
2B0
100
AcDbEntity
  8
1
  6
CONTINUOUS
 62
           7
100
AcDbLine
 10
4226.500000000002
 20
2946.92951711863
 11
4226.500000000002
 21
3022.92951711863
  0
LINE
  5
2AF
100
AcDbEntity
  8
1
  6
CONTINUOUS
 62
           7
100
AcDbLine
 10
4353.500000000002
 20
3022.92951711863
 11
4353.500000000002
 21
2946.92951711863
  0
LINE
  5
2AE
100
AcDbEntity
  8
1
  6
CONTINUOUS
 62
           7
100
AcDbLine
 10
4215.527778486359
 20
2361.62951711863
 11
3692.268760408317
 21
2361.62951711863
  0
LINE
  5
2AD
100
AcDbEntity
  8
1
  6
CONTINUOUS
 62
           7
100
AcDbLine
 10
4215.527778486359
 20
2399.62951711863
 11
4215.527778486359
 21
2361.62951711863
  0
LINE
  5
2AC
100
AcDbEntity
  8
1
  6
CONTINUOUS
 62
           7
100
AcDbLine
 10
4390.000000000002
 20
2399.62951711863
 11
4390.000000000002
 21
2361.62951711863
  0
LINE
  5
2AB
100
AcDbEntity
  8
1
  6
CONTINUOUS
 62
           7
100
AcDbLine
 10
4665.000000000002
 20
2399.62951711863
 11
4665.000000000002
 21
2361.62951711863
  0
LINE
  5
2AA
100
AcDbEntity
  8
1
  6
CONTINUOUS
 62
           7
100
AcDbLine
 10
4665.000000000002
 20
2877.329517118632
 11
4665.000000000002
 21
2839.62951711863
  0
LINE
  5
2A9
100
AcDbEntity
  8
1
  6
CONTINUOUS
 62
           7
100
AcDbLine
 10
4390.000000000002
 20
2877.62951711863
 11
4756.46446609407
 21
2877.629517118631
  0
LINE
  5
2A8
100
AcDbEntity
  8
1
  6
CONTINUOUS
 62
           7
100
AcDbLine
 10
4215.527778486359
 20
2877.62951711863
 11
4215.527778486359
 21
2839.62951711863
  0
LINE
  5
2A7
100
AcDbEntity
  8
1
  6
CONTINUOUS
 62
           7
100
AcDbLine
 10
4390.000000000002
 20
2877.62951711863
 11
4390.000000000002
 21
2839.62951711863
  0
LINE
  5
2A6
100
AcDbEntity
  8
1
  6
DOT_CENTER
 62
           2
100
AcDbLine
 10
4290.000000000002
 20
2275.917819301952
 11
4290.000000000002
 21
3342.625521905412
  0
LINE
  5
2A5
100
AcDbEntity
  8
1
  6
CONTINUOUS
 62
           7
100
AcDbLine
 10
3730.010908476359
 20
2399.62951711863
 11
3730.010908476359
 21
2839.62951711863
  0
LINE
  5
2A4
100
AcDbEntity
  8
1
  6
CONTINUOUS
 62
           4
100
AcDbLine
 10
4630.000000000002
 20
2309.62951711863
 11
4630.000000000002
 21
2315.62951711863
  0
LINE
  5
2A3
100
AcDbEntity
  8
1
  6
CONTINUOUS
 62
           4
100
AcDbLine
 10
3950.000000000002
 20
2315.62951711863
 11
3950.000000000002
 21
2309.62951711863
  0
LINE
  5
2A2
100
AcDbEntity
  8
1
  6
CONTINUOUS
 62
           7
100
AcDbLine
 10
3950.000000000002
 20
2309.62951711863
 11
4630.000000000002
 21
2309.62951711863
  0
LINE
  5
2A1
100
AcDbEntity
  8
1
  6
CONTINUOUS
 62
           4
100
AcDbLine
 10
4630.000000000002
 20
2315.62951711863
 11
3950.000000000002
 21
2315.62951711863
  0
LINE
  5
2A0
100
AcDbEntity
  8
0
  6
CONTINUOUS
 62
           7
100
AcDbLine
 10
4610.000000000002
 20
2399.629517118628
 11
4544.211716344318
 21
2399.629517118628
  0
LINE
  5
29F
100
AcDbEntity
  8
0
  6
CONTINUOUS
 62
           7
100
AcDbLine
 10
3991.800000000002
 20
2361.62951711863
 11
3991.800000000002
 21
2315.62951711863
  0
LINE
  5
29E
100
AcDbEntity
  8
0
  6
CONTINUOUS
 62
           7
100
AcDbLine
 10
4588.200000000003
 20
2315.62951711863
 11
4588.200000000003
 21
2361.62951711863
  0
LINE
  5
29D
100
AcDbEntity
  8
1
  6
CONTINUOUS
 62
           4
100
AcDbLine
 10
4020.000000000002
 20
2878.629517118628
 11
4020.000000000002
 21
2877.62951711863
  0
LINE
  5
29C
100
AcDbEntity
  8
1
  6
CONTINUOUS
 62
           4
100
AcDbLine
 10
4554.99306373561
 20
2883.62951711863
 11
4025.000000000002
 21
2883.62951711863
  0
LINE
  5
29B
100
AcDbEntity
  8
1
  6
CONTINUOUS
 62
           4
100
AcDbLine
 10
4025.000000000002
 20
2883.62951711863
 11
4020.000000000002
 21
2878.629517118628
  0
LINE
  5
29A
100
AcDbEntity
  8
1
  6
CONTINUOUS
 62
           4
100
AcDbLine
 10
4560.000000000004
 20
2878.629517118628
 11
4554.99306373561
 21
2883.62951711863
  0
LINE
  5
299
100
AcDbEntity
  8
1
  6
CONTINUOUS
 62
           4
100
AcDbLine
 10
4560.000000000004
 20
2877.62951711863
 11
4560.000000000004
 21
2878.629517118628
  0
LINE
  5
298
100
AcDbEntity
  8
1
  6
CONTINUOUS
 62
           7
100
AcDbLine
 10
4760.000000000002
 20
2399.629517118631
 11
3692.268760408318
 21
2399.62951711863
  0
LINE
  5
297
100
AcDbEntity
  8
1
  6
CONTINUOUS
 62
           7
100
AcDbLine
 10
4760.000000000002
 20
2839.62951711863
 11
3692.268760408317
 21
2839.62951711863
  0
LINE
  5
296
100
AcDbEntity
  8
1
  6
CONTINUOUS
 62
           7
100
AcDbLine
 10
3692.268760408317
 20
2361.62951711863
 11
3692.268760408318
 21
2399.62951711863
  0
LINE
  5
295
100
AcDbEntity
  8
1
  6
CONTINUOUS
 62
           7
100
AcDbLine
 10
4760.000000000002
 20
2366.62951711863
 11
4756.46446609407
 21
2361.62951711863
  0
LINE
  5
294
100
AcDbEntity
  8
1
  6
CONTINUOUS
 62
           7
100
AcDbLine
 10
4756.46446609407
 20
2877.629517118631
 11
4760.000000000002
 21
2872.62951711863
  0
LINE
  5
293
100
AcDbEntity
  8
1
  6
CONTINUOUS
 62
           7
100
AcDbLine
 10
3692.268760408317
 20
2839.62951711863
 11
3692.268760408317
 21
2877.62951711863
  0
LINE
  5
292
100
AcDbEntity
  8
1
  6
CONTINUOUS
 62
           7
100
AcDbLine
 10
3692.268760408317
 20
2877.62951711863
 11
4215.527778486359
 21
2877.62951711863
  0
LINE
  5
291
100
AcDbEntity
  8
1
  6
CONTINUOUS
 62
           7
100
AcDbLine
 10
4760.000000000002
 20
2872.62951711863
 11
4760.000000000002
 21
2839.62951711863
  0
LINE
  5
290
100
AcDbEntity
  8
1
  6
CONTINUOUS
 62
           7
100
AcDbLine
 10
4760.000000000002
 20
2399.629517118631
 11
4760.000000000002
 21
2366.62951711863
  0
LINE
  5
28F
100
AcDbEntity
  8
1
  6
CONTINUOUS
 62
           7
100
AcDbLine
 10
4756.46446609407
 20
2361.62951711863
 11
4390.000000000002
 21
2361.62951711863
  0
LINE
  5
28E
100
AcDbEntity
  8
1
  6
CONTINUOUS
 62
           7
100
AcDbLine
 10
4760.000000000002
 20
2399.629517118631
 11
4794.5
 21
2399.62951711863
  0
LINE
  5
28D
100
AcDbEntity
  8
1
  6
CONTINUOUS
 62
           7
100
AcDbLine
 10
4760.000000000002
 20
2839.62951711863
 11
4760.000000000002
 21
2399.629517118631
  0
LINE
  5
28C
100
AcDbEntity
  8
1
  6
CONTINUOUS
 62
           4
100
AcDbLine
 10
4795.500000000002
 20
2839.629517118633
 11
4795.500000000002
 21
2399.62951711863
  0
LINE
  5
28B
100
AcDbEntity
  8
1
  6
CONTINUOUS
 62
           4
100
AcDbLine
 10
4795.500000000002
 20
2359.62951711863
 11
4795.500000000002
 21
2394.129517118631
  0
LINE
  5
28A
100
AcDbEntity
  8
1
  6
CONTINUOUS
 62
           4
100
AcDbLine
 10
4795.500000000002
 20
2845.129517118633
 11
4795.500000000002
 21
2879.629517118633
  0
LINE
  5
289
100
AcDbEntity
  8
1
  6
CONTINUOUS
 62
           7
100
AcDbLine
 10
4794.50000000002
 20
2839.629517118633
 11
4760.000000000002
 21
2839.62951711863
  0
LINE
  5
288
100
AcDbEntity
  8
1
  6
CONTINUOUS
 62
           7
100
AcDbLine
 10
4840.000000000002
 20
2839.62951711863
 11
4805.500000000002
 21
2839.629517118633
  0
LINE
  5
287
100
AcDbEntity
  8
1
  6
CONTINUOUS
 62
           4
100
AcDbLine
 10
4804.500000000004
 20
2879.629517118633
 11
4804.500000000002
 21
2845.129517118633
  0
LINE
  5
286
100
AcDbEntity
  8
1
  6
CONTINUOUS
 62
           4
100
AcDbLine
 10
4804.500000000002
 20
2394.129517118631
 11
4804.500000000004
 21
2359.62951711863
  0
LINE
  5
285
100
AcDbEntity
  8
1
  6
CONTINUOUS
 62
           4
100
AcDbLine
 10
4804.500000000002
 20
2399.62951711863
 11
4804.500000000002
 21
2839.629517118633
  0
LINE
  5
284
100
AcDbEntity
  8
1
  6
CONTINUOUS
 62
           7
100
AcDbLine
 10
4840.000000000002
 20
2399.629517118631
 11
4840.000000000002
 21
2839.62951711863
  0
LINE
  5
283
100
AcDbEntity
  8
1
  6
CONTINUOUS
 62
           7
100
AcDbLine
 10
4805.5
 20
2399.62951711863
 11
4840.000000000002
 21
2399.629517118631
  0
LINE
  5
282
100
AcDbEntity
  8
1
  6
CONTINUOUS
 62
           7
100
AcDbLine
 10
4800.000000000002
 20
2359.629517118631
 11
4800.000000000002
 21
2879.629517118633
  0
LINE
  5
281
100
AcDbEntity
  8
1
  6
CONTINUOUS
 62
           4
100
AcDbLine
 10
4760.000000000002
 20
2844.12951711863
 11
4794.500000000002
 21
2844.129517118633
  0
LINE
  5
280
100
AcDbEntity
  8
1
  6
CONTINUOUS
 62
           7
100
AcDbLine
 10
4760.000000000002
 20
2839.62951711863
 11
4760.000000000002
 21
2844.12951711863
  0
LINE
  5
27F
100
AcDbEntity
  8
1
  6
CONTINUOUS
 62
           4
100
AcDbLine
 10
4840.000000000002
 20
2844.129517118636
 11
4805.500000000002
 21
2844.129517118633
  0
LINE
  5
27E
100
AcDbEntity
  8
1
  6
CONTINUOUS
 62
           7
100
AcDbLine
 10
4840.000000000002
 20
2839.62951711863
 11
4840.000000000002
 21
2844.129517118636
  0
LINE
  5
27D
100
AcDbEntity
  8
1
  6
CONTINUOUS
 62
           4
100
AcDbLine
 10
4795.500000000002
 20
2879.629517118633
 11
4804.500000000004
 21
2879.629517118633
  0
LINE
  5
27C
100
AcDbEntity
  8
1
  6
CONTINUOUS
 62
           7
100
AcDbLine
 10
4805.500000000002
 20
2839.629517118633
 11
4794.50000000002
 21
2839.629517118633
  0
LINE
  5
27B
100
AcDbEntity
  8
1
  6
CONTINUOUS
 62
           4
100
AcDbLine
 10
4795.500000000002
 20
2359.62951711863
 11
4804.500000000004
 21
2359.62951711863
  0
LINE
  5
27A
100
AcDbEntity
  8
1
  6
CONTINUOUS
 62
           7
100
AcDbLine
 10
4760.0
 20
2395.12951711863
 11
4760.000000000002
 21
2399.629517118631
  0
LINE
  5
279
100
AcDbEntity
  8
1
  6
CONTINUOUS
 62
           4
100
AcDbLine
 10
4840.000000000002
 20
2395.129517118631
 11
4805.500000000002
 21
2395.129517118631
  0
LINE
  5
278
100
AcDbEntity
  8
1
  6
CONTINUOUS
 62
           7
100
AcDbLine
 10
4840.000000000002
 20
2399.629517118631
 11
4840.000000000002
 21
2395.129517118631
  0
LINE
  5
277
100
AcDbEntity
  8
1
  6
CONTINUOUS
 62
           4
100
AcDbLine
 10
4794.500000000002
 20
2395.129517118631
 11
4760.0
 21
2395.12951711863
  0
LINE
  5
276
100
AcDbEntity
  8
1
  6
CONTINUOUS
 62
           7
100
AcDbLine
 10
4805.5
 20
2399.62951711863
 11
4794.5
 21
2399.62951711863
  0
LINE
  5
275
100
AcDbEntity
  8
1
  6
CONTINUOUS
 62
           2
100
AcDbLine
 10
4442.532262743705
 20
2439.62951711863
 11
4442.532262743705
 21
2799.62951711863
  0
LINE
  5
274
100
AcDbEntity
  8
1
  6
CONTINUOUS
 62
           2
100
AcDbLine
 10
4442.532262743705
 20
2799.62951711863
 11
4035.31956277242
 21
2799.62951711863
  0
LINE
  5
273
100
AcDbEntity
  8
1
  6
CONTINUOUS
 62
           2
100
AcDbLine
 10
4035.31956277242
 20
2799.62951711863
 11
4035.31956277242
 21
2439.62951711863
  0
LINE
  5
272
100
AcDbEntity
  8
1
  6
CONTINUOUS
 62
           2
100
AcDbLine
 10
4035.31956277242
 20
2439.62951711863
 11
4442.532262743705
 21
2439.62951711863
  0
LINE
  5
271
100
AcDbEntity
  8
1
  6
CONTINUOUS
 62
           3
100
AcDbLine
 10
4170.163567691046
 20
1670.599172233234
 11
4164.489527668226
 21
1667.323263698671
  0
LINE
  5
270
100
AcDbEntity
  8
1
  6
CONTINUOUS
 62
           3
100
AcDbLine
 10
4179.663567691046
 20
1665.114344675933
 11
4170.163567691046
 21
1670.599172233234
  0
LINE
  5
26F
100
AcDbEntity
  8
1
  6
CONTINUOUS
 62
           3
100
AcDbLine
 10
4179.663567691046
 20
1654.144689561331
 11
4179.663567691046
 21
1665.114344675933
  0
LINE
  5
26E
100
AcDbEntity
  8
1
  6
CONTINUOUS
 62
           3
100
AcDbLine
 10
4170.163567691046
 20
1648.65986200403
 11
4179.663567691046
 21
1654.144689561331
  0
LINE
  5
26D
100
AcDbEntity
  8
1
  6
CONTINUOUS
 62
           3
100
AcDbLine
 10
4164.489527668234
 20
1651.935770538591
 11
4170.163567691046
 21
1648.65986200403
  0
LINE
  5
26C
100
AcDbEntity
  8
1
  6
DOT_CENTER
 62
           3
100
AcDbLine
 10
4146.218519558625
 20
1659.629517118631
 11
4187.667695262445
 21
1659.629517118631
  0
LINE
  5
26B
100
AcDbEntity
  8
1
  6
CONTINUOUS
 62
           3
100
AcDbLine
 10
4159.389214871947
 20
1651.379517118631
 11
4159.389214871947
 21
1651.935770538591
  0
LINE
  5
26A
100
AcDbEntity
  8
1
  6
CONTINUOUS
 62
           3
100
AcDbLine
 10
4159.389214871947
 20
1651.379517118631
 11
4149.714603906647
 21
1651.379517118631
  0
LINE
  5
269
100
AcDbEntity
  8
1
  6
CONTINUOUS
 62
           3
100
AcDbLine
 10
4149.714603906647
 20
1651.379517118631
 11
4149.714603906647
 21
1659.629517118631
  0
LINE
  5
268
100
AcDbEntity
  8
1
  6
CONTINUOUS
 62
           3
100
AcDbLine
 10
4149.714603906647
 20
1653.629517118631
 11
4148.868798384466
 21
1653.629517118631
  0
LINE
  5
267
100
AcDbEntity
  8
1
  6
CONTINUOUS
 62
           3
100
AcDbLine
 10
4148.868798384466
 20
1651.935770538591
 11
4148.868798384466
 21
1659.629517118631
  0
LINE
  5
266
100
AcDbEntity
  8
1
  6
CONTINUOUS
 62
           3
100
AcDbLine
 10
4148.868798384466
 20
1651.935770538591
 11
4148.163567691046
 21
1651.935770538591
  0
LINE
  5
265
100
AcDbEntity
  8
1
  6
CONTINUOUS
 62
           3
100
AcDbLine
 10
4147.663567691046
 20
1659.629517118631
 11
4147.663567691046
 21
1652.435770538591
  0
LINE
  5
264
100
AcDbEntity
  8
1
  6
CONTINUOUS
 62
           3
100
AcDbLine
 10
4147.663567691046
 20
1666.823263698671
 11
4147.663567691046
 21
1659.629517118631
  0
LINE
  5
263
100
AcDbEntity
  8
1
  6
CONTINUOUS
 62
           3
100
AcDbLine
 10
4148.163567691046
 20
1667.323263698671
 11
4148.868798384466
 21
1667.323263698671
  0
LINE
  5
262
100
AcDbEntity
  8
1
  6
CONTINUOUS
 62
           3
100
AcDbLine
 10
4148.868798384466
 20
1659.629517118631
 11
4148.868798384466
 21
1667.323263698671
  0
LINE
  5
261
100
AcDbEntity
  8
1
  6
CONTINUOUS
 62
           3
100
AcDbLine
 10
4148.868798384466
 20
1665.629517118631
 11
4149.714603906647
 21
1665.629517118631
  0
LINE
  5
260
100
AcDbEntity
  8
1
  6
CONTINUOUS
 62
           3
100
AcDbLine
 10
4149.714603906647
 20
1667.879517118631
 11
4159.389214871947
 21
1667.879517118631
  0
LINE
  5
25F
100
AcDbEntity
  8
1
  6
CONTINUOUS
 62
           3
100
AcDbLine
 10
4149.714603906647
 20
1659.629517118631
 11
4149.714603906647
 21
1667.879517118631
  0
LINE
  5
25E
100
AcDbEntity
  8
1
  6
CONTINUOUS
 62
           3
100
AcDbLine
 10
4159.389214871947
 20
1667.323263698671
 11
4159.389214871947
 21
1667.879517118631
  0
LINE
  5
25D
100
AcDbEntity
  8
1
  6
CONTINUOUS
 62
           3
100
AcDbLine
 10
4159.389214871947
 20
1651.935770538591
 11
4159.389214871947
 21
1667.323263698671
  0
LINE
  5
25C
100
AcDbEntity
  8
1
  6
CONTINUOUS
 62
           3
100
AcDbLine
 10
4165.254330418637
 20
1651.935770538591
 11
4165.254330418637
 21
1667.323263698671
  0
LINE
  5
25B
100
AcDbEntity
  8
1
  6
CONTINUOUS
 62
           3
100
AcDbLine
 10
4165.254330418637
 20
1651.935770538591
 11
4159.389214871947
 21
1651.935770538591
  0
LINE
  5
25A
100
AcDbEntity
  8
1
  6
CONTINUOUS
 62
           3
100
AcDbLine
 10
4165.254330418637
 20
1667.323263698671
 11
4159.389214871947
 21
1667.323263698671
  0
LINE
  5
259
100
AcDbEntity
  8
1
  6
CONTINUOUS
 62
           3
100
AcDbLine
 10
4165.254330418637
 20
1665.5013521137
 11
4170.163567691046
 21
1665.5013521137
  0
LINE
  5
258
100
AcDbEntity
  8
1
  6
DOT_CENTER
 62
           3
100
AcDbLine
 10
4170.163567691046
 20
1673.273072923505
 11
4170.163567691046
 21
1642.137525373756
  0
LINE
  5
257
100
AcDbEntity
  8
1
  6
CONTINUOUS
 62
           3
100
AcDbLine
 10
4170.163567691046
 20
1653.757682123565
 11
4165.254330418637
 21
1653.757682123565
  0
LINE
  5
256
100
AcDbEntity
  8
0
  6
CONTINUOUS
 62
           3
100
AcDbLine
 10
3664.844723494177
 20
1127.745909313823
 11
3665.89999672168
 21
1127.761257510024
  0
LINE
  5
255
100
AcDbEntity
  8
0
  6
CONTINUOUS
 62
           3
100
AcDbLine
 10
3663.903805503279
 20
1127.701533655824
 11
3664.844723494177
 21
1127.745909313823
  0
LINE
  5
254
100
AcDbEntity
  8
0
  6
CONTINUOUS
 62
           3
100
AcDbLine
 10
3663.179205573577
 20
1127.632928709622
 11
3663.903805503279
 21
1127.701533655824
  0
LINE
  5
253
100
AcDbEntity
  8
0
  6
CONTINUOUS
 62
           3
100
AcDbLine
 10
3662.74944584038
 20
1127.547537605423
 11
3663.179205573577
 21
1127.632928709622
  0
LINE
  5
252
100
AcDbEntity
  8
0
  6
CONTINUOUS
 62
           3
100
AcDbLine
 10
3662.661097088377
 20
1127.454606513623
 11
3662.74944584038
 21
1127.547537605423
  0
LINE
  5
251
100
AcDbEntity
  8
0
  6
CONTINUOUS
 62
           3
100
AcDbLine
 10
3662.89999669558
 20
1127.369058947425
 11
3662.661097088377
 21
1127.454606513623
  0
LINE
  5
250
100
AcDbEntity
  8
0
  6
CONTINUOUS
 62
           3
100
AcDbLine
 10
3669.138896354966
 20
1127.454606513623
 11
3668.899996747768
 21
1127.369058947425
  0
LINE
  5
24F
100
AcDbEntity
  8
0
  6
CONTINUOUS
 62
           3
100
AcDbLine
 10
3669.050547602967
 20
1127.547537605423
 11
3669.138896354966
 21
1127.454606513623
  0
LINE
  5
24E
100
AcDbEntity
  8
0
  6
CONTINUOUS
 62
           3
100
AcDbLine
 10
3668.620787869767
 20
1127.632928709622
 11
3669.050547602967
 21
1127.547537605423
  0
LINE
  5
24D
100
AcDbEntity
  8
0
  6
CONTINUOUS
 62
           3
100
AcDbLine
 10
3667.896187940066
 20
1127.701533655824
 11
3668.620787869767
 21
1127.632928709622
  0
LINE
  5
24C
100
AcDbEntity
  8
0
  6
CONTINUOUS
 62
           3
100
AcDbLine
 10
3666.955269949178
 20
1127.745909313823
 11
3667.896187940066
 21
1127.701533655824
  0
LINE
  5
24B
100
AcDbEntity
  8
0
  6
CONTINUOUS
 62
           3
100
AcDbLine
 10
3665.89999672168
 20
1127.761257510024
 11
3666.955269949178
 21
1127.745909313823
  0
LINE
  5
24A
100
AcDbEntity
  8
FORMAT
  6
CONTINUOUS
 62
           3
100
AcDbLine
 10
3662.399996721577
 20
1127.226362221523
 11
3651.899996721589
 21
1127.226362221523
  0
LINE
  5
249
100
AcDbEntity
  8
FORMAT
  6
DOT_CENTER
 62
           3
100
AcDbLine
 10
3665.89999672168
 20
984.388914370887
 11
3665.89999672168
 21
1460.023907887199
  0
LINE
  5
248
100
AcDbEntity
  8
FORMAT
  6
CONTINUOUS
 62
           3
100
AcDbLine
 10
3669.399996721768
 20
1127.226362221523
 11
3662.399996721577
 21
1127.226362221523
  0
LINE
  5
247
100
AcDbEntity
  8
FORMAT
  6
CONTINUOUS
 62
           3
100
AcDbLine
 10
3679.89999672176
 20
1127.226362221523
 11
3669.399996721768
 21
1127.226362221523
  0
LINE
  5
246
100
AcDbEntity
  8
FORMAT
  6
DOT_CENTER
 62
           3
100
AcDbLine
 10
3590.999996721636
 20
1109.629517118638
 11
3577.399996721748
 21
1109.629517118638
  0
LINE
  5
245
100
AcDbEntity
  8
FORMAT
  6
DOT_CENTER
 62
           3
100
AcDbLine
 10
3590.999996721636
 20
1359.629517118631
 11
3577.399996721748
 21
1359.629517118631
  0
LINE
  5
244
100
AcDbEntity
  8
0
  6
CONTINUOUS
 62
           3
100
AcDbLine
 10
3600.899999106025
 20
1099.629511754446
 11
3585.499999189237
 21
1099.629511754446
  0
LINE
  5
243
100
AcDbEntity
  8
0
  6
CONTINUOUS
 62
           3
100
AcDbLine
 10
3604.399995023127
 20
1324.629520694863
 11
3604.399995023127
 21
1244.629516895026
  0
LINE
  5
242
100
AcDbEntity
  8
0
  6
CONTINUOUS
 62
           3
100
AcDbLine
 10
3607.39999737752
 20
1324.629520694863
 11
3604.399995023127
 21
1324.629520694863
  0
LINE
  5
241
100
AcDbEntity
  8
0
  6
CONTINUOUS
 62
           3
100
AcDbLine
 10
3607.39999737752
 20
1284.629517863595
 11
3607.39999737752
 21
1324.629520694863
  0
LINE
  5
240
100
AcDbEntity
  8
0
  6
CONTINUOUS
 62
           3
100
AcDbLine
 10
3607.39999737752
 20
1264.629516448112
 11
3607.39999737752
 21
1266.629518638511
  0
LINE
  5
23F
100
AcDbEntity
  8
0
  6
CONTINUOUS
 62
           3
100
AcDbLine
 10
3604.399995023127
 20
1244.629516895026
 11
3605.975189322327
 21
1244.629516895026
  0
LINE
  5
23E
100
AcDbEntity
  8
0
  6
CONTINUOUS
 62
           3
100
AcDbLine
 10
3725.899995380624
 20
1102.629517833944
 11
3725.899995380624
 21
1101.929520885645
  0
LINE
  5
23D
100
AcDbEntity
  8
0
  6
CONTINUOUS
 62
           3
100
AcDbLine
 10
3730.899994337317
 20
1099.629511754446
 11
3730.899994337317
 21
1102.629517833944
  0
LINE
  5
23C
100
AcDbEntity
  8
0
  6
CONTINUOUS
 62
           3
100
AcDbLine
 10
3730.899994337317
 20
1369.629522482827
 11
3730.899994337317
 21
1366.629516403327
  0
LINE
  5
23B
100
AcDbEntity
  8
0
  6
CONTINUOUS
 62
           3
100
AcDbLine
 10
3725.899995380624
 20
1366.629516403327
 11
3725.899995380624
 21
1367.329513351625
  0
LINE
  5
23A
100
AcDbEntity
  8
0
  6
CONTINUOUS
 62
           3
100
AcDbLine
 10
3605.899998062719
 20
1366.629516403327
 11
3605.899998062719
 21
1367.329513351625
  0
LINE
  5
239
100
AcDbEntity
  8
0
  6
CONTINUOUS
 62
           3
100
AcDbLine
 10
3600.899999106025
 20
1369.629522482827
 11
3600.899999106025
 21
1366.629516403327
  0
LINE
  5
238
100
AcDbEntity
  8
0
  6
CONTINUOUS
 62
           3
100
AcDbLine
 10
3600.899999106025
 20
1369.629522482827
 11
3585.499999189237
 21
1369.629522482827
  0
LINE
  5
237
100
AcDbEntity
  8
0
  6
CONTINUOUS
 62
           3
100
AcDbLine
 10
3600.899999106025
 20
1099.629511754446
 11
3600.899999106025
 21
1102.629517833944
  0
LINE
  5
236
100
AcDbEntity
  8
0
  6
CONTINUOUS
 62
           3
100
AcDbLine
 10
3605.899998062719
 20
1102.629517833944
 11
3605.899998062719
 21
1101.929520885645
  0
LINE
  5
235
100
AcDbEntity
  8
0
  6
CONTINUOUS
 62
           3
100
AcDbLine
 10
3604.399995023127
 20
1144.629513542411
 11
3604.399995023127
 21
1224.629517342243
  0
LINE
  5
234
100
AcDbEntity
  8
0
  6
CONTINUOUS
 62
           3
100
AcDbLine
 10
3604.399995023127
 20
1224.629517342243
 11
3605.899998062719
 21
1224.629517342243
  0
LINE
  5
233
100
AcDbEntity
  8
0
  6
CONTINUOUS
 62
           3
100
AcDbLine
 10
3607.39999737752
 20
1166.629513423191
 11
3607.39999737752
 21
1164.629516820593
  0
LINE
  5
232
100
AcDbEntity
  8
0
  6
CONTINUOUS
 62
           3
100
AcDbLine
 10
3605.975189322327
 20
1144.629513542411
 11
3604.399995023127
 21
1144.629513542411
  0
LINE
  5
231
100
AcDbEntity
  8
0
  6
CONTINUOUS
 62
           3
100
AcDbLine
 10
3727.399998420228
 20
1324.629520694863
 11
3727.399998420228
 21
1244.629516895026
  0
LINE
  5
230
100
AcDbEntity
  8
0
  6
CONTINUOUS
 62
           3
100
AcDbLine
 10
3727.399998420228
 20
1244.629516895026
 11
3725.824804121025
 21
1244.629516895026
  0
LINE
  5
22F
100
AcDbEntity
  8
0
  6
CONTINUOUS
 62
           3
100
AcDbLine
 10
3724.39999606613
 20
1284.629517863595
 11
3724.39999606613
 21
1324.629520694863
  0
LINE
  5
22E
100
AcDbEntity
  8
0
  6
CONTINUOUS
 62
           3
100
AcDbLine
 10
3724.39999606613
 20
1264.629516448112
 11
3724.39999606613
 21
1266.629518638511
  0
LINE
  5
22D
100
AcDbEntity
  8
0
  6
CONTINUOUS
 62
           3
100
AcDbLine
 10
3724.39999606613
 20
1324.629520694863
 11
3727.399998420228
 21
1324.629520694863
  0
LINE
  5
22C
100
AcDbEntity
  8
0
  6
CONTINUOUS
 62
           3
100
AcDbLine
 10
3727.399998420228
 20
1144.629513542411
 11
3727.399998420228
 21
1224.629517342243
  0
LINE
  5
22B
100
AcDbEntity
  8
0
  6
CONTINUOUS
 62
           3
100
AcDbLine
 10
3725.824804121025
 20
1144.629513542411
 11
3727.399998420228
 21
1144.629513542411
  0
LINE
  5
22A
100
AcDbEntity
  8
0
  6
CONTINUOUS
 62
           3
100
AcDbLine
 10
3724.39999606613
 20
1166.629513423191
 11
3724.39999606613
 21
1164.629516820593
  0
LINE
  5
229
100
AcDbEntity
  8
0
  6
CONTINUOUS
 62
           3
100
AcDbLine
 10
3727.399998420228
 20
1224.629517342243
 11
3725.899995380624
 21
1224.629517342243
  0
LINE
  5
228
100
AcDbEntity
  8
0
  6
CONTINUOUS
 62
           3
100
AcDbLine
 10
3585.499999189237
 20
1369.629522482827
 11
3583.399993443337
 21
1369.629522482827
  0
LINE
  5
227
100
AcDbEntity
  8
0
  6
CONTINUOUS
 62
           3
100
AcDbLine
 10
3583.399993443337
 20
1369.629522482827
 11
3583.399993443337
 21
1099.629511754446
  0
LINE
  5
226
100
AcDbEntity
  8
0
  6
CONTINUOUS
 62
           3
100
AcDbLine
 10
3585.499999189237
 20
1099.629511754446
 11
3583.399993443337
 21
1099.629511754446
  0
LINE
  5
225
100
AcDbEntity
  8
0
  6
CONTINUOUS
 62
           3
100
AcDbLine
 10
3605.899998062719
 20
1101.229523937344
 11
3605.899998062719
 21
1101.929520885645
  0
LINE
  5
224
100
AcDbEntity
  8
0
  6
CONTINUOUS
 62
           3
100
AcDbLine
 10
3725.899995380624
 20
1101.229523937344
 11
3725.899995380624
 21
1101.929520885645
  0
LINE
  5
223
100
AcDbEntity
  8
0
  6
CONTINUOUS
 62
           3
100
AcDbLine
 10
3605.899998062719
 20
1368.029510299627
 11
3605.899998062719
 21
1367.329513351625
  0
LINE
  5
222
100
AcDbEntity
  8
0
  6
CONTINUOUS
 62
           3
100
AcDbLine
 10
3725.899995380624
 20
1368.029510299627
 11
3725.899995380624
 21
1367.329513351625
  0
LINE
  5
221
100
AcDbEntity
  8
0
  6
CONTINUOUS
 62
           3
100
AcDbLine
 10
3720.899996423626
 20
1368.029510299627
 11
3725.899995380624
 21
1368.029510299627
  0
LINE
  5
220
100
AcDbEntity
  8
0
  6
CONTINUOUS
 62
           3
100
AcDbLine
 10
3725.899995380624
 20
1369.629522482827
 11
3720.899996423626
 21
1369.629522482827
  0
LINE
  5
21F
100
AcDbEntity
  8
0
  6
CONTINUOUS
 62
           3
100
AcDbLine
 10
3725.899995380624
 20
1368.029510299627
 11
3725.899995380624
 21
1369.629522482827
  0
LINE
  5
21E
100
AcDbEntity
  8
0
  6
CONTINUOUS
 62
           3
100
AcDbLine
 10
3720.899996423626
 20
1101.229523937344
 11
3725.899995380624
 21
1101.229523937344
  0
LINE
  5
21D
100
AcDbEntity
  8
0
  6
CONTINUOUS
 62
           3
100
AcDbLine
 10
3725.899995380624
 20
1099.629511754446
 11
3720.899996423626
 21
1099.629511754446
  0
LINE
  5
21C
100
AcDbEntity
  8
0
  6
CONTINUOUS
 62
           3
100
AcDbLine
 10
3725.899995380624
 20
1101.229523937344
 11
3725.899995380624
 21
1099.629511754446
  0
LINE
  5
21B
100
AcDbEntity
  8
0
  6
CONTINUOUS
 62
           3
100
AcDbLine
 10
3710.899998509635
 20
1101.229523937344
 11
3712.899995112237
 21
1101.229523937344
  0
LINE
  5
21A
100
AcDbEntity
  8
0
  6
CONTINUOUS
 62
           3
100
AcDbLine
 10
3712.899995112237
 20
1099.629511754446
 11
3710.899998509635
 21
1099.629511754446
  0
LINE
  5
219
100
AcDbEntity
  8
0
  6
CONTINUOUS
 62
           3
100
AcDbLine
 10
3712.899995112237
 20
1101.229523937344
 11
3712.899995112237
 21
1099.629511754446
  0
LINE
  5
218
100
AcDbEntity
  8
0
  6
CONTINUOUS
 62
           3
100
AcDbLine
 10
3710.899998509635
 20
1368.029510299627
 11
3712.899995112237
 21
1368.029510299627
  0
LINE
  5
217
100
AcDbEntity
  8
0
  6
CONTINUOUS
 62
           3
100
AcDbLine
 10
3712.899995112237
 20
1369.629522482827
 11
3710.899998509635
 21
1369.629522482827
  0
LINE
  5
216
100
AcDbEntity
  8
0
  6
CONTINUOUS
 62
           3
100
AcDbLine
 10
3712.899995112237
 20
1368.029510299627
 11
3712.899995112237
 21
1369.629522482827
  0
LINE
  5
215
100
AcDbEntity
  8
0
  6
CONTINUOUS
 62
           3
100
AcDbLine
 10
3718.899996095925
 20
1101.229523937344
 11
3720.899996423626
 21
1101.229523937344
  0
LINE
  5
214
100
AcDbEntity
  8
0
  6
CONTINUOUS
 62
           3
100
AcDbLine
 10
3720.899996423626
 20
1099.629511754446
 11
3718.899996095925
 21
1099.629511754446
  0
LINE
  5
213
100
AcDbEntity
  8
0
  6
CONTINUOUS
 62
           3
100
AcDbLine
 10
3718.899996095925
 20
1099.629511754446
 11
3718.899996095925
 21
1101.229523937344
  0
LINE
  5
212
100
AcDbEntity
  8
0
  6
CONTINUOUS
 62
           3
100
AcDbLine
 10
3718.899996095925
 20
1368.029510299627
 11
3720.899996423626
 21
1368.029510299627
  0
LINE
  5
211
100
AcDbEntity
  8
0
  6
CONTINUOUS
 62
           3
100
AcDbLine
 10
3720.899996423626
 20
1369.629522482827
 11
3718.899996095925
 21
1369.629522482827
  0
LINE
  5
210
100
AcDbEntity
  8
0
  6
CONTINUOUS
 62
           3
100
AcDbLine
 10
3718.899996095925
 20
1369.629522482827
 11
3718.899996095925
 21
1368.029510299627
  0
LINE
  5
20F
100
AcDbEntity
  8
0
  6
CONTINUOUS
 62
           3
100
AcDbLine
 10
3610.899997019717
 20
1368.029510299627
 11
3605.899998062719
 21
1368.029510299627
  0
LINE
  5
20E
100
AcDbEntity
  8
0
  6
CONTINUOUS
 62
           3
100
AcDbLine
 10
3605.899998062719
 20
1369.629522482827
 11
3610.899997019717
 21
1369.629522482827
  0
LINE
  5
20D
100
AcDbEntity
  8
0
  6
CONTINUOUS
 62
           3
100
AcDbLine
 10
3605.899998062719
 20
1368.029510299627
 11
3605.899998062719
 21
1369.629522482827
  0
LINE
  5
20C
100
AcDbEntity
  8
0
  6
CONTINUOUS
 62
           3
100
AcDbLine
 10
3610.899997019717
 20
1101.229523937344
 11
3605.899998062719
 21
1101.229523937344
  0
LINE
  5
20B
100
AcDbEntity
  8
0
  6
CONTINUOUS
 62
           3
100
AcDbLine
 10
3605.899998062719
 20
1099.629511754446
 11
3610.899997019717
 21
1099.629511754446
  0
LINE
  5
20A
100
AcDbEntity
  8
0
  6
CONTINUOUS
 62
           3
100
AcDbLine
 10
3605.899998062719
 20
1101.229523937344
 11
3605.899998062719
 21
1099.629511754446
  0
LINE
  5
209
100
AcDbEntity
  8
0
  6
CONTINUOUS
 62
           3
100
AcDbLine
 10
3620.899994933708
 20
1368.029510299627
 11
3710.899998509635
 21
1368.029510299627
  0
LINE
  5
208
100
AcDbEntity
  8
0
  6
CONTINUOUS
 62
           3
100
AcDbLine
 10
3620.899994933708
 20
1369.629522482827
 11
3710.899998509635
 21
1369.629522482827
  0
LINE
  5
207
100
AcDbEntity
  8
0
  6
CONTINUOUS
 62
           3
100
AcDbLine
 10
3620.899994933708
 20
1101.229523937344
 11
3710.899998509635
 21
1101.229523937344
  0
LINE
  5
206
100
AcDbEntity
  8
0
  6
CONTINUOUS
 62
           3
100
AcDbLine
 10
3620.899994933708
 20
1099.629511754446
 11
3710.899998509635
 21
1099.629511754446
  0
LINE
  5
205
100
AcDbEntity
  8
0
  6
CONTINUOUS
 62
           3
100
AcDbLine
 10
3620.899994933708
 20
1101.229523937344
 11
3618.899998331107
 21
1101.229523937344
  0
LINE
  5
204
100
AcDbEntity
  8
0
  6
CONTINUOUS
 62
           3
100
AcDbLine
 10
3618.899998331107
 20
1101.229523937344
 11
3618.899998331107
 21
1099.629511754446
  0
LINE
  5
203
100
AcDbEntity
  8
0
  6
CONTINUOUS
 62
           3
100
AcDbLine
 10
3618.899998331107
 20
1099.629511754446
 11
3620.899994933708
 21
1099.629511754446
  0
LINE
  5
202
100
AcDbEntity
  8
0
  6
CONTINUOUS
 62
           3
100
AcDbLine
 10
3620.899994933708
 20
1368.029510299627
 11
3618.899998331107
 21
1368.029510299627
  0
LINE
  5
201
100
AcDbEntity
  8
0
  6
CONTINUOUS
 62
           3
100
AcDbLine
 10
3618.899998331107
 20
1369.629522482827
 11
3620.899994933708
 21
1369.629522482827
  0
LINE
  5
200
100
AcDbEntity
  8
0
  6
CONTINUOUS
 62
           3
100
AcDbLine
 10
3618.899998331107
 20
1368.029510299627
 11
3618.899998331107
 21
1369.629522482827
  0
LINE
  5
1FF
100
AcDbEntity
  8
0
  6
CONTINUOUS
 62
           3
100
AcDbLine
 10
3612.899997347718
 20
1368.029510299627
 11
3610.899997019717
 21
1368.029510299627
  0
LINE
  5
1FE
100
AcDbEntity
  8
0
  6
CONTINUOUS
 62
           3
100
AcDbLine
 10
3612.899997347718
 20
1369.629522482827
 11
3612.899997347718
 21
1368.029510299627
  0
LINE
  5
1FD
100
AcDbEntity
  8
0
  6
CONTINUOUS
 62
           3
100
AcDbLine
 10
3610.899997019717
 20
1369.629522482827
 11
3612.899997347718
 21
1369.629522482827
  0
LINE
  5
1FC
100
AcDbEntity
  8
0
  6
CONTINUOUS
 62
           3
100
AcDbLine
 10
3612.899997347718
 20
1101.229523937344
 11
3610.899997019717
 21
1101.229523937344
  0
LINE
  5
1FB
100
AcDbEntity
  8
0
  6
CONTINUOUS
 62
           3
100
AcDbLine
 10
3610.899997019717
 20
1099.629511754446
 11
3612.899997347718
 21
1099.629511754446
  0
LINE
  5
1FA
100
AcDbEntity
  8
0
  6
CONTINUOUS
 62
           3
100
AcDbLine
 10
3612.899997347718
 20
1099.629511754446
 11
3612.899997347718
 21
1101.229523937344
  0
LINE
  5
1F9
100
AcDbEntity
  8
0
  6
CONTINUOUS
 62
           3
100
AcDbLine
 10
3725.824804121025
 20
1144.629513542411
 11
3724.199996405629
 21
1144.629513542411
  0
LINE
  5
1F8
100
AcDbEntity
  8
0
  6
CONTINUOUS
 62
           3
100
AcDbLine
 10
3724.199996405629
 20
1164.629516820593
 11
3725.899995380624
 21
1164.629516820593
  0
LINE
  5
1F7
100
AcDbEntity
  8
0
  6
CONTINUOUS
 62
           3
100
AcDbLine
 10
3725.899995380624
 20
1164.629516820593
 11
3725.899995380624
 21
1144.629513542411
  0
LINE
  5
1F6
100
AcDbEntity
  8
0
  6
CONTINUOUS
 62
           3
100
AcDbLine
 10
3605.899998062719
 20
1264.629516448112
 11
3607.599997037719
 21
1264.629516448112
  0
LINE
  5
1F5
100
AcDbEntity
  8
0
  6
CONTINUOUS
 62
           3
100
AcDbLine
 10
3605.899998062719
 20
1244.629516895026
 11
3605.899998062719
 21
1264.629516448112
  0
LINE
  5
1F4
100
AcDbEntity
  8
0
  6
CONTINUOUS
 62
           3
100
AcDbLine
 10
3607.599997037719
 20
1244.629516895026
 11
3605.975189322327
 21
1244.629516895026
  0
LINE
  5
1F3
100
AcDbEntity
  8
0
  6
CONTINUOUS
 62
           3
100
AcDbLine
 10
3605.975189322327
 20
1144.629513542411
 11
3607.599997037719
 21
1144.629513542411
  0
LINE
  5
1F2
100
AcDbEntity
  8
0
  6
CONTINUOUS
 62
           3
100
AcDbLine
 10
3607.599997037719
 20
1164.629516820593
 11
3605.899998062719
 21
1164.629516820593
  0
LINE
  5
1F1
100
AcDbEntity
  8
0
  6
CONTINUOUS
 62
           3
100
AcDbLine
 10
3605.899998062719
 20
1164.629516820593
 11
3605.899998062719
 21
1144.629513542411
  0
LINE
  5
1F0
100
AcDbEntity
  8
0
  6
CONTINUOUS
 62
           3
100
AcDbLine
 10
3607.599997037719
 20
1264.629516448112
 11
3607.899998390718
 21
1264.629516448112
  0
LINE
  5
1EF
100
AcDbEntity
  8
0
  6
CONTINUOUS
 62
           3
100
AcDbLine
 10
3607.899998390718
 20
1244.629516895026
 11
3607.599997037719
 21
1244.629516895026
  0
LINE
  5
1EE
100
AcDbEntity
  8
0
  6
CONTINUOUS
 62
           3
100
AcDbLine
 10
3605.899998062719
 20
1242.629517498531
 11
3607.899998390718
 21
1242.629517498531
  0
LINE
  5
1ED
100
AcDbEntity
  8
0
  6
CONTINUOUS
 62
           3
100
AcDbLine
 10
3605.899998062719
 20
1242.629517498531
 11
3605.899998062719
 21
1166.629513423191
  0
LINE
  5
1EC
100
AcDbEntity
  8
0
  6
CONTINUOUS
 62
           3
100
AcDbLine
 10
3605.899998062719
 20
1166.629513423191
 11
3607.899998390718
 21
1166.629513423191
  0
LINE
  5
1EB
100
AcDbEntity
  8
0
  6
CONTINUOUS
 62
           3
100
AcDbLine
 10
3607.899998390718
 20
1164.629516820593
 11
3607.599997037719
 21
1164.629516820593
  0
LINE
  5
1EA
100
AcDbEntity
  8
0
  6
CONTINUOUS
 62
           3
100
AcDbLine
 10
3607.599997037719
 20
1144.629513542411
 11
3607.899998390718
 21
1144.629513542411
  0
LINE
  5
1E9
100
AcDbEntity
  8
0
  6
CONTINUOUS
 62
           3
100
AcDbLine
 10
3607.899998390718
 20
1142.629516939815
 11
3605.899998062719
 21
1142.629516939815
  0
LINE
  5
1E8
100
AcDbEntity
  8
0
  6
CONTINUOUS
 62
           3
100
AcDbLine
 10
3605.899998062719
 20
1126.329516689422
 11
3605.899998062719
 21
1142.629516939815
  0
LINE
  5
1E7
100
AcDbEntity
  8
0
  6
CONTINUOUS
 62
           3
100
AcDbLine
 10
3725.899995380624
 20
1126.329516689422
 11
3725.899995380624
 21
1142.629516939815
  0
LINE
  5
1E6
100
AcDbEntity
  8
0
  6
CONTINUOUS
 62
           3
100
AcDbLine
 10
3723.899995052626
 20
1142.629516939815
 11
3725.899995380624
 21
1142.629516939815
  0
LINE
  5
1E5
100
AcDbEntity
  8
0
  6
CONTINUOUS
 62
           3
100
AcDbLine
 10
3724.199996405629
 20
1144.629513542411
 11
3723.899995052626
 21
1144.629513542411
  0
LINE
  5
1E4
100
AcDbEntity
  8
0
  6
CONTINUOUS
 62
           3
100
AcDbLine
 10
3723.899995052626
 20
1164.629516820593
 11
3724.199996405629
 21
1164.629516820593
  0
LINE
  5
1E3
100
AcDbEntity
  8
0
  6
CONTINUOUS
 62
           3
100
AcDbLine
 10
3725.899995380624
 20
1166.629513423191
 11
3723.899995052626
 21
1166.629513423191
  0
LINE
  5
1E2
100
AcDbEntity
  8
0
  6
CONTINUOUS
 62
           3
100
AcDbLine
 10
3725.899995380624
 20
1242.629517498531
 11
3725.899995380624
 21
1166.629513423191
  0
LINE
  5
1E1
100
AcDbEntity
  8
0
  6
CONTINUOUS
 62
           3
100
AcDbLine
 10
3725.899995380624
 20
1242.629517498531
 11
3723.899995052626
 21
1242.629517498531
  0
LINE
  5
1E0
100
AcDbEntity
  8
0
  6
CONTINUOUS
 62
           3
100
AcDbLine
 10
3723.899995052626
 20
1244.629516895026
 11
3724.199996405629
 21
1244.629516895026
  0
LINE
  5
1DF
100
AcDbEntity
  8
0
  6
CONTINUOUS
 62
           3
100
AcDbLine
 10
3724.199996405629
 20
1264.629516448112
 11
3723.899995052626
 21
1264.629516448112
  0
LINE
  5
1DE
100
AcDbEntity
  8
0
  6
CONTINUOUS
 62
           3
100
AcDbLine
 10
3723.899995052626
 20
1266.629518638511
 11
3725.899995380624
 21
1266.629518638511
  0
LINE
  5
1DD
100
AcDbEntity
  8
0
  6
CONTINUOUS
 62
           3
100
AcDbLine
 10
3725.899995380624
 20
1282.929518888896
 11
3725.899995380624
 21
1266.629518638511
  0
LINE
  5
1DC
100
AcDbEntity
  8
0
  6
CONTINUOUS
 62
           3
100
AcDbLine
 10
3605.899998062719
 20
1282.929518888896
 11
3605.899998062719
 21
1266.629518638511
  0
LINE
  5
1DB
100
AcDbEntity
  8
0
  6
CONTINUOUS
 62
           3
100
AcDbLine
 10
3607.899998390718
 20
1266.629518638511
 11
3605.899998062719
 21
1266.629518638511
  0
LINE
  5
1DA
100
AcDbEntity
  8
0
  6
CONTINUOUS
 62
           3
100
AcDbLine
 10
3724.199996405629
 20
1244.629516895026
 11
3725.824804121025
 21
1244.629516895026
  0
LINE
  5
1D9
100
AcDbEntity
  8
0
  6
CONTINUOUS
 62
           3
100
AcDbLine
 10
3725.899995380624
 20
1244.629516895026
 11
3725.899995380624
 21
1264.629516448112
  0
LINE
  5
1D8
100
AcDbEntity
  8
0
  6
CONTINUOUS
 62
           3
100
AcDbLine
 10
3725.899995380624
 20
1264.629516448112
 11
3724.199996405629
 21
1264.629516448112
  0
LINE
  5
1D7
100
AcDbEntity
  8
0
  6
CONTINUOUS
 62
           3
100
AcDbLine
 10
3725.899995380624
 20
1283.429516176696
 11
3725.899995380624
 21
1282.929518888896
  0
LINE
  5
1D6
100
AcDbEntity
  8
0
  6
CONTINUOUS
 62
           3
100
AcDbLine
 10
3605.899998062719
 20
1283.429516176696
 11
3605.899998062719
 21
1282.929518888896
  0
LINE
  5
1D5
100
AcDbEntity
  8
0
  6
CONTINUOUS
 62
           3
100
AcDbLine
 10
3605.899998062719
 20
1125.829515676224
 11
3605.899998062719
 21
1126.329516689422
  0
LINE
  5
1D4
100
AcDbEntity
  8
0
  6
CONTINUOUS
 62
           3
100
AcDbLine
 10
3725.899995380624
 20
1125.829515676224
 11
3725.899995380624
 21
1126.329516689422
  0
LINE
  5
1D3
100
AcDbEntity
  8
0
  6
CONTINUOUS
 62
           3
100
AcDbLine
 10
3668.899996747768
 20
1284.629517863595
 11
3669.149996788768
 21
1284.629517863595
  0
LINE
  5
1D2
100
AcDbEntity
  8
0
  6
CONTINUOUS
 62
           3
100
AcDbLine
 10
3662.64999665458
 20
1284.629517863595
 11
3662.89999669558
 21
1284.629517863595
  0
LINE
  5
1D1
100
AcDbEntity
  8
0
  6
CONTINUOUS
 62
           3
100
AcDbLine
 10
3668.899996747768
 20
1283.429516176696
 11
3669.149996788768
 21
1283.429516176696
  0
LINE
  5
1D0
100
AcDbEntity
  8
0
  6
CONTINUOUS
 62
           3
100
AcDbLine
 10
3662.64999665458
 20
1283.429516176696
 11
3662.89999669558
 21
1283.429516176696
  0
LINE
  5
1CF
100
AcDbEntity
  8
0
  6
CONTINUOUS
 62
           3
100
AcDbLine
 10
3662.89999669558
 20
1125.829515676224
 11
3662.64999665458
 21
1125.829515676224
  0
LINE
  5
1CE
100
AcDbEntity
  8
0
  6
CONTINUOUS
 62
           3
100
AcDbLine
 10
3669.149996788768
 20
1125.829515676224
 11
3668.899996747768
 21
1125.829515676224
  0
LINE
  5
1CD
100
AcDbEntity
  8
0
  6
CONTINUOUS
 62
           3
100
AcDbLine
 10
3610.899997019717
 20
1125.829515676224
 11
3605.899998062719
 21
1125.829515676224
  0
LINE
  5
1CC
100
AcDbEntity
  8
0
  6
CONTINUOUS
 62
           3
100
AcDbLine
 10
3605.899998062719
 20
1124.629517714729
 11
3610.899997019717
 21
1124.629517714729
  0
LINE
  5
1CB
100
AcDbEntity
  8
0
  6
CONTINUOUS
 62
           3
100
AcDbLine
 10
3605.899998062719
 20
1125.829515676224
 11
3605.899998062719
 21
1124.629517714729
  0
LINE
  5
1CA
100
AcDbEntity
  8
0
  6
CONTINUOUS
 62
           3
100
AcDbLine
 10
3605.899998062719
 20
1284.629517863595
 11
3610.899997019717
 21
1284.629517863595
  0
LINE
  5
1C9
100
AcDbEntity
  8
0
  6
CONTINUOUS
 62
           3
100
AcDbLine
 10
3610.899997019717
 20
1283.429516176696
 11
3605.899998062719
 21
1283.429516176696
  0
LINE
  5
1C8
100
AcDbEntity
  8
0
  6
CONTINUOUS
 62
           3
100
AcDbLine
 10
3605.899998062719
 20
1283.429516176696
 11
3605.899998062719
 21
1284.629517863595
  0
LINE
  5
1C7
100
AcDbEntity
  8
0
  6
CONTINUOUS
 62
           3
100
AcDbLine
 10
3710.899998509635
 20
1284.629517863595
 11
3695.899996051147
 21
1284.629517863595
  0
LINE
  5
1C6
100
AcDbEntity
  8
0
  6
CONTINUOUS
 62
           3
100
AcDbLine
 10
3710.899998509635
 20
1283.429516176696
 11
3695.899996051147
 21
1283.429516176696
  0
LINE
  5
1C5
100
AcDbEntity
  8
0
  6
CONTINUOUS
 62
           3
100
AcDbLine
 10
3725.899995380624
 20
1284.629517863595
 11
3720.899996423626
 21
1284.629517863595
  0
LINE
  5
1C4
100
AcDbEntity
  8
0
  6
CONTINUOUS
 62
           3
100
AcDbLine
 10
3720.899996423626
 20
1283.429516176696
 11
3725.899995380624
 21
1283.429516176696
  0
LINE
  5
1C3
100
AcDbEntity
  8
0
  6
CONTINUOUS
 62
           3
100
AcDbLine
 10
3725.899995380624
 20
1283.429516176696
 11
3725.899995380624
 21
1284.629517863595
  0
LINE
  5
1C2
100
AcDbEntity
  8
0
  6
CONTINUOUS
 62
           3
100
AcDbLine
 10
3710.899998509635
 20
1125.829515676224
 11
3695.899996051147
 21
1125.829515676224
  0
LINE
  5
1C1
100
AcDbEntity
  8
0
  6
CONTINUOUS
 62
           3
100
AcDbLine
 10
3710.899998509635
 20
1124.629517714729
 11
3695.899996051147
 21
1124.629517714729
  0
LINE
  5
1C0
100
AcDbEntity
  8
0
  6
CONTINUOUS
 62
           3
100
AcDbLine
 10
3620.899994933708
 20
1284.629517863595
 11
3635.899997392195
 21
1284.629517863595
  0
LINE
  5
1BF
100
AcDbEntity
  8
0
  6
CONTINUOUS
 62
           3
100
AcDbLine
 10
3620.899994933708
 20
1283.429516176696
 11
3635.899997392195
 21
1283.429516176696
  0
LINE
  5
1BE
100
AcDbEntity
  8
0
  6
CONTINUOUS
 62
           3
100
AcDbLine
 10
3720.899996423626
 20
1125.829515676224
 11
3725.899995380624
 21
1125.829515676224
  0
LINE
  5
1BD
100
AcDbEntity
  8
0
  6
CONTINUOUS
 62
           3
100
AcDbLine
 10
3725.899995380624
 20
1124.629517714729
 11
3720.899996423626
 21
1124.629517714729
  0
LINE
  5
1BC
100
AcDbEntity
  8
0
  6
CONTINUOUS
 62
           3
100
AcDbLine
 10
3725.899995380624
 20
1125.829515676224
 11
3725.899995380624
 21
1124.629517714729
  0
LINE
  5
1BB
100
AcDbEntity
  8
0
  6
CONTINUOUS
 62
           3
100
AcDbLine
 10
3620.899994933708
 20
1125.829515676224
 11
3635.899997392195
 21
1125.829515676224
  0
LINE
  5
1BA
100
AcDbEntity
  8
0
  6
CONTINUOUS
 62
           3
100
AcDbLine
 10
3620.899994933708
 20
1124.629517714729
 11
3635.899997392195
 21
1124.629517714729
  0
LINE
  5
1B9
100
AcDbEntity
  8
0
  6
CONTINUOUS
 62
           3
100
AcDbLine
 10
3618.899998331107
 20
1284.629517863595
 11
3620.899994933708
 21
1284.629517863595
  0
LINE
  5
1B8
100
AcDbEntity
  8
0
  6
CONTINUOUS
 62
           3
100
AcDbLine
 10
3620.899994933708
 20
1283.429516176696
 11
3618.899998331107
 21
1283.429516176696
  0
LINE
  5
1B7
100
AcDbEntity
  8
0
  6
CONTINUOUS
 62
           3
100
AcDbLine
 10
3618.899998331107
 20
1283.429516176696
 11
3618.899998331107
 21
1284.629517863595
  0
LINE
  5
1B6
100
AcDbEntity
  8
0
  6
CONTINUOUS
 62
           3
100
AcDbLine
 10
3610.899997019717
 20
1284.629517863595
 11
3612.899997347718
 21
1284.629517863595
  0
LINE
  5
1B5
100
AcDbEntity
  8
0
  6
CONTINUOUS
 62
           3
100
AcDbLine
 10
3612.899997347718
 20
1283.429516176696
 11
3610.899997019717
 21
1283.429516176696
  0
LINE
  5
1B4
100
AcDbEntity
  8
0
  6
CONTINUOUS
 62
           3
100
AcDbLine
 10
3612.899997347718
 20
1284.629517863595
 11
3612.899997347718
 21
1283.429516176696
  0
LINE
  5
1B3
100
AcDbEntity
  8
0
  6
CONTINUOUS
 62
           3
100
AcDbLine
 10
3710.899998509635
 20
1125.829515676224
 11
3712.899995112237
 21
1125.829515676224
  0
LINE
  5
1B2
100
AcDbEntity
  8
0
  6
CONTINUOUS
 62
           3
100
AcDbLine
 10
3712.899995112237
 20
1124.629517714729
 11
3710.899998509635
 21
1124.629517714729
  0
LINE
  5
1B1
100
AcDbEntity
  8
0
  6
CONTINUOUS
 62
           3
100
AcDbLine
 10
3712.899995112237
 20
1125.829515676224
 11
3712.899995112237
 21
1124.629517714729
  0
LINE
  5
1B0
100
AcDbEntity
  8
0
  6
CONTINUOUS
 62
           3
100
AcDbLine
 10
3718.899996095925
 20
1125.829515676224
 11
3720.899996423626
 21
1125.829515676224
  0
LINE
  5
1AF
100
AcDbEntity
  8
0
  6
CONTINUOUS
 62
           3
100
AcDbLine
 10
3720.899996423626
 20
1124.629517714729
 11
3718.899996095925
 21
1124.629517714729
  0
LINE
  5
1AE
100
AcDbEntity
  8
0
  6
CONTINUOUS
 62
           3
100
AcDbLine
 10
3718.899996095925
 20
1124.629517714729
 11
3718.899996095925
 21
1125.829515676224
  0
LINE
  5
1AD
100
AcDbEntity
  8
0
  6
CONTINUOUS
 62
           3
100
AcDbLine
 10
3712.899995112237
 20
1284.629517863595
 11
3710.899998509635
 21
1284.629517863595
  0
LINE
  5
1AC
100
AcDbEntity
  8
0
  6
CONTINUOUS
 62
           3
100
AcDbLine
 10
3710.899998509635
 20
1283.429516176696
 11
3712.899995112237
 21
1283.429516176696
  0
LINE
  5
1AB
100
AcDbEntity
  8
0
  6
CONTINUOUS
 62
           3
100
AcDbLine
 10
3712.899995112237
 20
1283.429516176696
 11
3712.899995112237
 21
1284.629517863595
  0
LINE
  5
1AA
100
AcDbEntity
  8
0
  6
CONTINUOUS
 62
           3
100
AcDbLine
 10
3720.899996423626
 20
1284.629517863595
 11
3718.899996095925
 21
1284.629517863595
  0
LINE
  5
1A9
100
AcDbEntity
  8
0
  6
CONTINUOUS
 62
           3
100
AcDbLine
 10
3718.899996095925
 20
1283.429516176696
 11
3720.899996423626
 21
1283.429516176696
  0
LINE
  5
1A8
100
AcDbEntity
  8
0
  6
CONTINUOUS
 62
           3
100
AcDbLine
 10
3718.899996095925
 20
1284.629517863595
 11
3718.899996095925
 21
1283.429516176696
  0
LINE
  5
1A7
100
AcDbEntity
  8
0
  6
CONTINUOUS
 62
           3
100
AcDbLine
 10
3620.899994933708
 20
1125.829515676224
 11
3618.899998331107
 21
1125.829515676224
  0
LINE
  5
1A6
100
AcDbEntity
  8
0
  6
CONTINUOUS
 62
           3
100
AcDbLine
 10
3618.899998331107
 20
1124.629517714729
 11
3620.899994933708
 21
1124.629517714729
  0
LINE
  5
1A5
100
AcDbEntity
  8
0
  6
CONTINUOUS
 62
           3
100
AcDbLine
 10
3618.899998331107
 20
1125.829515676224
 11
3618.899998331107
 21
1124.629517714729
  0
LINE
  5
1A4
100
AcDbEntity
  8
0
  6
CONTINUOUS
 62
           3
100
AcDbLine
 10
3612.899997347718
 20
1125.829515676224
 11
3610.899997019717
 21
1125.829515676224
  0
LINE
  5
1A3
100
AcDbEntity
  8
0
  6
CONTINUOUS
 62
           3
100
AcDbLine
 10
3610.899997019717
 20
1124.629517714729
 11
3612.899997347718
 21
1124.629517714729
  0
LINE
  5
1A2
100
AcDbEntity
  8
0
  6
CONTINUOUS
 62
           3
100
AcDbLine
 10
3612.899997347718
 20
1124.629517714729
 11
3612.899997347718
 21
1125.829515676224
  0
LINE
  5
1A1
100
AcDbEntity
  8
0
  6
CONTINUOUS
 62
           3
100
AcDbLine
 10
3662.39999661358
 20
1125.829515676224
 11
3662.64999665458
 21
1125.829515676224
  0
LINE
  5
1A0
100
AcDbEntity
  8
0
  6
CONTINUOUS
 62
           3
100
AcDbLine
 10
3662.64999665458
 20
1125.829515676224
 11
3662.64999665458
 21
1124.629517714729
  0
LINE
  5
19F
100
AcDbEntity
  8
0
  6
CONTINUOUS
 62
           3
100
AcDbLine
 10
3695.899996051147
 20
1125.829515676224
 11
3685.899996274757
 21
1125.829515676224
  0
LINE
  5
19E
100
AcDbEntity
  8
0
  6
CONTINUOUS
 62
           3
100
AcDbLine
 10
3695.899996051147
 20
1124.629517714729
 11
3685.899996274757
 21
1124.629517714729
  0
LINE
  5
19D
100
AcDbEntity
  8
0
  6
CONTINUOUS
 62
           3
100
AcDbLine
 10
3695.899996051147
 20
1125.829515676224
 11
3695.899996051147
 21
1124.629517714729
  0
LINE
  5
19C
100
AcDbEntity
  8
0
  6
CONTINUOUS
 62
           3
100
AcDbLine
 10
3660.649996792477
 20
1284.629517863595
 11
3662.64999665458
 21
1284.629517863595
  0
LINE
  5
19B
100
AcDbEntity
  8
0
  6
CONTINUOUS
 62
           3
100
AcDbLine
 10
3662.64999665458
 20
1283.429516176696
 11
3660.649996792477
 21
1283.429516176696
  0
LINE
  5
19A
100
AcDbEntity
  8
0
  6
CONTINUOUS
 62
           3
100
AcDbLine
 10
3662.64999665458
 20
1284.629517863595
 11
3662.64999665458
 21
1283.429516176696
  0
LINE
  5
199
100
AcDbEntity
  8
0
  6
CONTINUOUS
 62
           3
100
AcDbLine
 10
3673.899997101566
 20
1125.829515676224
 11
3685.899996274757
 21
1125.829515676224
  0
LINE
  5
198
100
AcDbEntity
  8
0
  6
CONTINUOUS
 62
           3
100
AcDbLine
 10
3673.899997101566
 20
1124.629517714729
 11
3685.899996274757
 21
1124.629517714729
  0
LINE
  5
197
100
AcDbEntity
  8
0
  6
CONTINUOUS
 62
           3
100
AcDbLine
 10
3685.899996274757
 20
1125.829515676224
 11
3685.899996274757
 21
1124.629517714729
  0
LINE
  5
196
100
AcDbEntity
  8
0
  6
CONTINUOUS
 62
           3
100
AcDbLine
 10
3635.899997392195
 20
1125.829515676224
 11
3645.89999716859
 21
1125.829515676224
  0
LINE
  5
195
100
AcDbEntity
  8
0
  6
CONTINUOUS
 62
           3
100
AcDbLine
 10
3635.899997392195
 20
1124.629517714729
 11
3645.89999716859
 21
1124.629517714729
  0
LINE
  5
194
100
AcDbEntity
  8
0
  6
CONTINUOUS
 62
           3
100
AcDbLine
 10
3635.899997392195
 20
1125.829515676224
 11
3635.899997392195
 21
1124.629517714729
  0
LINE
  5
193
100
AcDbEntity
  8
0
  6
CONTINUOUS
 62
           3
100
AcDbLine
 10
3669.149996788768
 20
1284.629517863595
 11
3671.149996650868
 21
1284.629517863595
  0
LINE
  5
192
100
AcDbEntity
  8
0
  6
CONTINUOUS
 62
           3
100
AcDbLine
 10
3671.149996650868
 20
1283.429516176696
 11
3669.149996788768
 21
1283.429516176696
  0
LINE
  5
191
100
AcDbEntity
  8
0
  6
CONTINUOUS
 62
           3
100
AcDbLine
 10
3669.149996788768
 20
1283.429516176696
 11
3669.149996788768
 21
1284.629517863595
  0
LINE
  5
190
100
AcDbEntity
  8
0
  6
CONTINUOUS
 62
           3
100
AcDbLine
 10
3695.899996051147
 20
1284.629517863595
 11
3685.899996274757
 21
1284.629517863595
  0
LINE
  5
18F
100
AcDbEntity
  8
0
  6
CONTINUOUS
 62
           3
100
AcDbLine
 10
3695.899996051147
 20
1283.429516176696
 11
3685.899996274757
 21
1283.429516176696
  0
LINE
  5
18E
100
AcDbEntity
  8
0
  6
CONTINUOUS
 62
           3
100
AcDbLine
 10
3695.899996051147
 20
1283.429516176696
 11
3695.899996051147
 21
1284.629517863595
  0
LINE
  5
18D
100
AcDbEntity
  8
0
  6
CONTINUOUS
 62
           3
100
AcDbLine
 10
3669.149996788768
 20
1125.829515676224
 11
3669.399996829768
 21
1125.829515676224
  0
LINE
  5
18C
100
AcDbEntity
  8
0
  6
CONTINUOUS
 62
           3
100
AcDbLine
 10
3669.149996788768
 20
1124.629517714729
 11
3669.149996788768
 21
1125.829515676224
  0
LINE
  5
18B
100
AcDbEntity
  8
0
  6
CONTINUOUS
 62
           3
100
AcDbLine
 10
3645.89999716859
 20
1125.829515676224
 11
3657.899996341778
 21
1125.829515676224
  0
LINE
  5
18A
100
AcDbEntity
  8
0
  6
CONTINUOUS
 62
           3
100
AcDbLine
 10
3645.89999716859
 20
1124.629517714729
 11
3657.899996341778
 21
1124.629517714729
  0
LINE
  5
189
100
AcDbEntity
  8
0
  6
CONTINUOUS
 62
           3
100
AcDbLine
 10
3645.89999716859
 20
1125.829515676224
 11
3645.89999716859
 21
1124.629517714729
  0
LINE
  5
188
100
AcDbEntity
  8
0
  6
CONTINUOUS
 62
           3
100
AcDbLine
 10
3645.89999716859
 20
1284.629517863595
 11
3660.649996792477
 21
1284.629517863595
  0
LINE
  5
187
100
AcDbEntity
  8
0
  6
CONTINUOUS
 62
           3
100
AcDbLine
 10
3645.89999716859
 20
1283.429516176696
 11
3660.649996792477
 21
1283.429516176696
  0
LINE
  5
186
100
AcDbEntity
  8
0
  6
CONTINUOUS
 62
           3
100
AcDbLine
 10
3671.149996650868
 20
1284.629517863595
 11
3685.899996274757
 21
1284.629517863595
  0
LINE
  5
185
100
AcDbEntity
  8
0
  6
CONTINUOUS
 62
           3
100
AcDbLine
 10
3671.149996650868
 20
1283.429516176696
 11
3685.899996274757
 21
1283.429516176696
  0
LINE
  5
184
100
AcDbEntity
  8
0
  6
CONTINUOUS
 62
           3
100
AcDbLine
 10
3685.899996274757
 20
1283.429516176696
 11
3685.899996274757
 21
1284.629517863595
  0
LINE
  5
183
100
AcDbEntity
  8
0
  6
CONTINUOUS
 62
           3
100
AcDbLine
 10
3635.899997392195
 20
1283.429516176696
 11
3635.899997392195
 21
1284.629517863595
  0
LINE
  5
182
100
AcDbEntity
  8
0
  6
CONTINUOUS
 62
           3
100
AcDbLine
 10
3635.899997392195
 20
1283.429516176696
 11
3645.89999716859
 21
1283.429516176696
  0
LINE
  5
181
100
AcDbEntity
  8
0
  6
CONTINUOUS
 62
           3
100
AcDbLine
 10
3645.89999716859
 20
1283.429516176696
 11
3645.89999716859
 21
1284.629517863595
  0
LINE
  5
180
100
AcDbEntity
  8
0
  6
CONTINUOUS
 62
           3
100
AcDbLine
 10
3635.899997392195
 20
1284.629517863595
 11
3645.89999716859
 21
1284.629517863595
  0
LINE
  5
17F
100
AcDbEntity
  8
0
  6
CONTINUOUS
 62
           3
100
AcDbLine
 10
3673.899997101566
 20
1123.829519073626
 11
3673.899997101566
 21
1122.905758838427
  0
LINE
  5
17E
100
AcDbEntity
  8
0
  6
CONTINUOUS
 62
           3
100
AcDbLine
 10
3657.899996341778
 20
1123.829519073626
 11
3657.899996341778
 21
1122.905758838427
  0
LINE
  5
17D
100
AcDbEntity
  8
0
  6
CONTINUOUS
 62
           3
100
AcDbLine
 10
3660.899996833477
 20
1122.905758838427
 11
3657.899996341778
 21
1122.905758838427
  0
LINE
  5
17C
100
AcDbEntity
  8
0
  6
CONTINUOUS
 62
           3
100
AcDbLine
 10
3673.899997101566
 20
1122.905758838427
 11
3670.899996609868
 21
1122.905758838427
  0
LINE
  5
17B
100
AcDbEntity
  8
0
  6
CONTINUOUS
 62
           3
100
AcDbLine
 10
3668.399996665767
 20
1118.829516391531
 11
3670.899996609915
 21
1118.829516391531
  0
LINE
  5
17A
100
AcDbEntity
  8
0
  6
CONTINUOUS
 62
           3
100
AcDbLine
 10
3660.899996833437
 20
1118.829516391531
 11
3663.399996777557
 21
1118.829516391531
  0
LINE
  5
179
100
AcDbEntity
  8
0
  6
CONTINUOUS
 62
           3
100
AcDbLine
 10
3670.899996609868
 20
1119.276096741934
 11
3670.899996609868
 21
1123.729517380825
  0
LINE
  5
178
100
AcDbEntity
  8
0
  6
CONTINUOUS
 62
           3
100
AcDbLine
 10
3660.899996833477
 20
1119.276096741934
 11
3660.899996833477
 21
1123.729517380825
  0
LINE
  5
177
100
AcDbEntity
  8
0
  6
CONTINUOUS
 62
           3
100
AcDbLine
 10
3660.899996833477
 20
1119.276096741934
 11
3663.399996777557
 21
1118.829516391531
  0
LINE
  5
176
100
AcDbEntity
  8
0
  6
CONTINUOUS
 62
           3
100
AcDbLine
 10
3665.89999672168
 20
1119.276096741926
 11
3665.89999672168
 21
1123.729517380825
  0
LINE
  5
175
100
AcDbEntity
  8
0
  6
CONTINUOUS
 62
           3
100
AcDbLine
 10
3663.399996777557
 20
1118.829516391531
 11
3668.399996665767
 21
1118.829516391531
  0
LINE
  5
174
100
AcDbEntity
  8
0
  6
CONTINUOUS
 62
           3
100
AcDbLine
 10
3665.89999672168
 20
1119.276096741926
 11
3668.399996665767
 21
1118.829516391531
  0
LINE
  5
173
100
AcDbEntity
  8
0
  6
CONTINUOUS
 62
           3
100
AcDbLine
 10
3662.39999661358
 20
1123.829519073626
 11
3669.399996829768
 21
1123.829519073626
  0
LINE
  5
172
100
AcDbEntity
  8
0
  6
CONTINUOUS
 62
           3
100
AcDbLine
 10
3662.39999661358
 20
1124.629517714729
 11
3669.399996829768
 21
1124.629517714729
  0
LINE
  5
171
100
AcDbEntity
  8
0
  6
CONTINUOUS
 62
           3
100
AcDbLine
 10
3669.399996829768
 20
1128.619661252124
 11
3662.39999661358
 21
1128.619661252124
  0
LINE
  5
170
100
AcDbEntity
  8
0
  6
CONTINUOUS
 62
           3
100
AcDbLine
 10
3662.89999669558
 20
1126.875986973924
 11
3662.39999661358
 21
1126.875986973924
  0
LINE
  5
16F
100
AcDbEntity
  8
0
  6
CONTINUOUS
 62
           3
100
AcDbLine
 10
3669.399996829768
 20
1126.875986973924
 11
3668.899996747768
 21
1126.875986973924
  0
LINE
  5
16E
100
AcDbEntity
  8
0
  6
CONTINUOUS
 62
           3
100
AcDbLine
 10
3673.899997101566
 20
1129.429517011525
 11
3673.899997101566
 21
1123.829519073626
  0
LINE
  5
16D
100
AcDbEntity
  8
0
  6
CONTINUOUS
 62
           3
100
AcDbLine
 10
3657.899996341778
 20
1129.429517011525
 11
3657.899996341778
 21
1123.829519073626
  0
LINE
  5
16C
100
AcDbEntity
  8
0
  6
CONTINUOUS
 62
           3
100
AcDbLine
 10
3662.39999661358
 20
1123.829519073626
 11
3662.39999661358
 21
1129.429517011525
  0
LINE
  5
16B
100
AcDbEntity
  8
0
  6
CONTINUOUS
 62
           3
100
AcDbLine
 10
3669.399996829768
 20
1129.429517011525
 11
3669.399996829768
 21
1123.829519073626
  0
LINE
  5
16A
100
AcDbEntity
  8
0
  6
CONTINUOUS
 62
           3
100
AcDbLine
 10
3662.39999661358
 20
1123.829519073626
 11
3657.899996341778
 21
1123.829519073626
  0
LINE
  5
169
100
AcDbEntity
  8
0
  6
CONTINUOUS
 62
           3
100
AcDbLine
 10
3662.39999661358
 20
1129.422364454123
 11
3669.399996829768
 21
1129.422364454123
  0
LINE
  5
168
100
AcDbEntity
  8
0
  6
CONTINUOUS
 62
           3
100
AcDbLine
 10
3673.899997101566
 20
1123.829519073626
 11
3669.399996829768
 21
1123.829519073626
  0
LINE
  5
167
100
AcDbEntity
  8
0
  6
CONTINUOUS
 62
           3
100
AcDbLine
 10
3667.899996816565
 20
1373.052170197623
 11
3663.899996626778
 21
1373.052170197623
  0
LINE
  5
166
100
AcDbEntity
  8
0
  6
CONTINUOUS
 62
           3
100
AcDbLine
 10
3662.89999669558
 20
1372.052168170924
 11
3668.899996747768
 21
1372.052168170924
  0
LINE
  5
165
100
AcDbEntity
  8
0
  6
CONTINUOUS
 62
           3
100
AcDbLine
 10
3611.899995321017
 20
1399.629523675
 11
3615.899995976714
 21
1399.629523675
  0
LINE
  5
164
100
AcDbEntity
  8
0
  6
CONTINUOUS
 62
           3
100
AcDbLine
 10
3615.899995976714
 20
1399.629523675
 11
3619.899996632416
 21
1399.629523675
  0
LINE
  5
163
100
AcDbEntity
  8
0
  6
CONTINUOUS
 62
           3
100
AcDbLine
 10
3661.569869687351
 20
1102.229511062888
 11
3660.899996833477
 21
1102.229511062745
  0
LINE
  5
162
100
AcDbEntity
  8
0
  6
CONTINUOUS
 62
           3
100
AcDbLine
 10
3670.899996609868
 20
1102.229511062745
 11
3670.230123756009
 21
1102.229511062888
  0
LINE
  5
161
100
AcDbEntity
  8
0
  6
CONTINUOUS
 62
           3
100
AcDbLine
 10
3661.569869687351
 20
1107.229521195673
 11
3660.899996833477
 21
1107.22952119564
  0
LINE
  5
160
100
AcDbEntity
  8
0
  6
CONTINUOUS
 62
           3
100
AcDbLine
 10
3670.230123756009
 20
1102.229511062888
 11
3665.89999672168
 21
1102.229511062888
  0
LINE
  5
15F
100
AcDbEntity
  8
0
  6
CONTINUOUS
 62
           3
100
AcDbLine
 10
3665.89999672168
 20
1102.229511062888
 11
3661.569869687351
 21
1102.229511062888
  0
LINE
  5
15E
100
AcDbEntity
  8
0
  6
CONTINUOUS
 62
           3
100
AcDbLine
 10
3660.126493853976
 20
1106.78293339474
 11
3660.126493853976
 21
1102.676098863944
  0
LINE
  5
15D
100
AcDbEntity
  8
0
  6
CONTINUOUS
 62
           3
100
AcDbLine
 10
3660.126493853976
 20
1102.676098863944
 11
3661.569869687351
 21
1102.229511062888
  0
LINE
  5
15C
100
AcDbEntity
  8
0
  6
CONTINUOUS
 62
           3
100
AcDbLine
 10
3663.013245287848
 20
1106.782933394693
 11
3661.569869687351
 21
1107.229521195673
  0
LINE
  5
15B
100
AcDbEntity
  8
0
  6
CONTINUOUS
 62
           3
100
AcDbLine
 10
3668.786748155368
 20
1102.676098863944
 11
3670.230123756009
 21
1102.229511062888
  0
LINE
  5
15A
100
AcDbEntity
  8
0
  6
CONTINUOUS
 62
           3
100
AcDbLine
 10
3671.673499589369
 20
1106.78293339474
 11
3671.673499589369
 21
1102.676098863944
  0
LINE
  5
159
100
AcDbEntity
  8
0
  6
CONTINUOUS
 62
           3
100
AcDbLine
 10
3671.673499589369
 20
1106.78293339474
 11
3670.230123756009
 21
1107.229521195673
  0
LINE
  5
158
100
AcDbEntity
  8
0
  6
CONTINUOUS
 62
           3
100
AcDbLine
 10
3663.013245287848
 20
1106.782933394693
 11
3663.013245287848
 21
1102.676098863866
  0
LINE
  5
157
100
AcDbEntity
  8
0
  6
CONTINUOUS
 62
           3
100
AcDbLine
 10
3668.786748155506
 20
1106.782933394693
 11
3668.786748155368
 21
1102.676098863944
  0
LINE
  5
156
100
AcDbEntity
  8
0
  6
CONTINUOUS
 62
           3
100
AcDbLine
 10
3670.899996609868
 20
1107.22952119564
 11
3670.230123756009
 21
1107.229521195673
  0
LINE
  5
155
100
AcDbEntity
  8
0
  6
CONTINUOUS
 62
           3
100
AcDbLine
 10
3670.899996609868
 20
1112.229516427236
 11
3670.230123756009
 21
1112.229516427297
  0
LINE
  5
154
100
AcDbEntity
  8
0
  6
CONTINUOUS
 62
           3
100
AcDbLine
 10
3661.569869687351
 20
1112.229516427297
 11
3660.899996833477
 21
1112.229516427236
  0
LINE
  5
153
100
AcDbEntity
  8
0
  6
CONTINUOUS
 62
           3
100
AcDbLine
 10
3665.89999672168
 20
1107.229521195673
 11
3661.569869687351
 21
1107.229521195673
  0
LINE
  5
152
100
AcDbEntity
  8
0
  6
CONTINUOUS
 62
           3
100
AcDbLine
 10
3670.230123756009
 20
1107.229521195673
 11
3665.89999672168
 21
1107.229521195673
  0
LINE
  5
151
100
AcDbEntity
  8
0
  6
CONTINUOUS
 62
           3
100
AcDbLine
 10
3665.89999672168
 20
1112.229516427297
 11
3661.569869687351
 21
1112.229516427297
  0
LINE
  5
150
100
AcDbEntity
  8
0
  6
CONTINUOUS
 62
           3
100
AcDbLine
 10
3660.126493853976
 20
1111.782936076836
 11
3660.126493853976
 21
1107.676094095542
  0
LINE
  5
14F
100
AcDbEntity
  8
0
  6
CONTINUOUS
 62
           3
100
AcDbLine
 10
3660.126493853976
 20
1107.676094095542
 11
3661.569869687351
 21
1107.229521195673
  0
LINE
  5
14E
100
AcDbEntity
  8
0
  6
CONTINUOUS
 62
           3
100
AcDbLine
 10
3663.013245287848
 20
1111.782936076898
 11
3661.569869687351
 21
1112.229516427297
  0
LINE
  5
14D
100
AcDbEntity
  8
0
  6
CONTINUOUS
 62
           3
100
AcDbLine
 10
3670.230123756009
 20
1112.229516427297
 11
3665.89999672168
 21
1112.229516427297
  0
LINE
  5
14C
100
AcDbEntity
  8
0
  6
CONTINUOUS
 62
           3
100
AcDbLine
 10
3668.786748155368
 20
1107.676094095542
 11
3670.230123756009
 21
1107.229521195673
  0
LINE
  5
14B
100
AcDbEntity
  8
0
  6
CONTINUOUS
 62
           3
100
AcDbLine
 10
3671.673499589369
 20
1111.782936076836
 11
3671.673499589369
 21
1107.676094095542
  0
LINE
  5
14A
100
AcDbEntity
  8
0
  6
CONTINUOUS
 62
           3
100
AcDbLine
 10
3671.673499589369
 20
1111.782936076836
 11
3670.230123756009
 21
1112.229516427297
  0
LINE
  5
149
100
AcDbEntity
  8
0
  6
CONTINUOUS
 62
           3
100
AcDbLine
 10
3663.013245287848
 20
1111.782936076898
 11
3663.013245287848
 21
1107.676094095491
  0
LINE
  5
148
100
AcDbEntity
  8
0
  6
CONTINUOUS
 62
           3
100
AcDbLine
 10
3668.786748155506
 20
1111.782936076898
 11
3668.786748155368
 21
1107.676094095542
  0
LINE
  5
147
100
AcDbEntity
  8
0
  6
CONTINUOUS
 62
           3
100
AcDbLine
 10
3660.126493853976
 20
1099.182938854548
 11
3660.126493853976
 21
1095.076104323754
  0
LINE
  5
146
100
AcDbEntity
  8
0
  6
CONTINUOUS
 62
           3
100
AcDbLine
 10
3660.126493853976
 20
1095.076104323754
 11
3661.569869687351
 21
1094.629516522679
  0
LINE
  5
145
100
AcDbEntity
  8
0
  6
CONTINUOUS
 62
           3
100
AcDbLine
 10
3663.013245287848
 20
1099.182938854489
 11
3661.569869687351
 21
1099.629511754303
  0
LINE
  5
144
100
AcDbEntity
  8
0
  6
CONTINUOUS
 62
           3
100
AcDbLine
 10
3668.786748155368
 20
1095.076104323754
 11
3670.230123755969
 21
1094.629516522552
  0
LINE
  5
143
100
AcDbEntity
  8
0
  6
CONTINUOUS
 62
           3
100
AcDbLine
 10
3671.673499589369
 20
1099.182938854548
 11
3671.673499589369
 21
1095.076104323754
  0
LINE
  5
142
100
AcDbEntity
  8
0
  6
CONTINUOUS
 62
           3
100
AcDbLine
 10
3671.673499589369
 20
1099.182938854548
 11
3670.230123756009
 21
1099.629511754303
  0
LINE
  5
141
100
AcDbEntity
  8
0
  6
CONTINUOUS
 62
           3
100
AcDbLine
 10
3663.013245287848
 20
1099.182938854489
 11
3663.013245287848
 21
1095.076104323655
  0
LINE
  5
140
100
AcDbEntity
  8
0
  6
CONTINUOUS
 62
           3
100
AcDbLine
 10
3668.786748155506
 20
1099.182938854489
 11
3668.786748155368
 21
1095.076104323754
  0
LINE
  5
13F
100
AcDbEntity
  8
0
  6
CONTINUOUS
 62
           3
100
AcDbLine
 10
3660.899996833477
 20
1094.629516522552
 11
3661.569869687351
 21
1094.629516522679
  0
LINE
  5
13E
100
AcDbEntity
  8
0
  6
CONTINUOUS
 62
           3
100
AcDbLine
 10
3670.899996609868
 20
1089.629521290953
 11
3670.230123756009
 21
1089.629521291051
  0
LINE
  5
13D
100
AcDbEntity
  8
0
  6
CONTINUOUS
 62
           3
100
AcDbLine
 10
3660.899996833477
 20
1089.629521290953
 11
3661.569869687351
 21
1089.629521291051
  0
LINE
  5
13C
100
AcDbEntity
  8
0
  6
CONTINUOUS
 62
           3
100
AcDbLine
 10
3671.673499589369
 20
1090.076094190855
 11
3670.230123756009
 21
1089.629521291051
  0
LINE
  5
13B
100
AcDbEntity
  8
0
  6
CONTINUOUS
 62
           3
100
AcDbLine
 10
3671.673499589369
 20
1090.076094190855
 11
3671.673499589369
 21
1094.182928721652
  0
LINE
  5
13A
100
AcDbEntity
  8
0
  6
CONTINUOUS
 62
           3
100
AcDbLine
 10
3660.126493853976
 20
1090.076094190855
 11
3660.126493853976
 21
1094.182928721652
  0
LINE
  5
139
100
AcDbEntity
  8
0
  6
CONTINUOUS
 62
           3
100
AcDbLine
 10
3665.89999672168
 20
1094.629516522679
 11
3670.230123755969
 21
1094.629516522552
  0
LINE
  5
138
100
AcDbEntity
  8
0
  6
CONTINUOUS
 62
           3
100
AcDbLine
 10
3668.786748155506
 20
1094.1829287217
 11
3670.230123755969
 21
1094.629516522552
  0
LINE
  5
137
100
AcDbEntity
  8
0
  6
CONTINUOUS
 62
           3
100
AcDbLine
 10
3661.569869687351
 20
1094.629516522679
 11
3665.89999672168
 21
1094.629516522679
  0
LINE
  5
136
100
AcDbEntity
  8
0
  6
CONTINUOUS
 62
           3
100
AcDbLine
 10
3661.569869687351
 20
1089.629521291051
 11
3665.89999672168
 21
1089.629521290953
  0
LINE
  5
135
100
AcDbEntity
  8
0
  6
CONTINUOUS
 62
           3
100
AcDbLine
 10
3665.89999672168
 20
1089.629521290953
 11
3670.230123756009
 21
1089.629521291051
  0
LINE
  5
134
100
AcDbEntity
  8
0
  6
CONTINUOUS
 62
           3
100
AcDbLine
 10
3663.013245287974
 20
1094.182928721652
 11
3665.89999672168
 21
1094.629516522679
  0
LINE
  5
133
100
AcDbEntity
  8
0
  6
CONTINUOUS
 62
           3
100
AcDbLine
 10
3663.013245287848
 20
1090.076094190873
 11
3663.013245287974
 21
1094.182928721652
  0
LINE
  5
132
100
AcDbEntity
  8
0
  6
CONTINUOUS
 62
           3
100
AcDbLine
 10
3668.786748155368
 20
1090.076094190855
 11
3665.89999672168
 21
1089.629521290953
  0
LINE
  5
131
100
AcDbEntity
  8
0
  6
CONTINUOUS
 62
           3
100
AcDbLine
 10
3668.786748155368
 20
1090.076094190855
 11
3668.786748155506
 21
1094.1829287217
  0
LINE
  5
130
100
AcDbEntity
  8
0
  6
CONTINUOUS
 62
           3
100
AcDbLine
 10
3722.899996751327
 20
1128.429514984825
 11
3722.899996751327
 21
1278.429517219998
  0
LINE
  5
12F
100
AcDbEntity
  8
0
  6
CONTINUOUS
 62
           3
100
AcDbLine
 10
3611.899995321017
 20
1278.429517219998
 11
3608.899996692015
 21
1278.429517219998
  0
LINE
  5
12E
100
AcDbEntity
  8
0
  6
CONTINUOUS
 62
           3
100
AcDbLine
 10
3662.89999669558
 20
1278.429517219998
 11
3619.899996632416
 21
1278.429517219998
  0
LINE
  5
12D
100
AcDbEntity
  8
0
  6
CONTINUOUS
 62
           3
100
AcDbLine
 10
3711.899996810937
 20
1278.429517219998
 11
3668.899996747768
 21
1278.429517219998
  0
LINE
  5
12C
100
AcDbEntity
  8
0
  6
CONTINUOUS
 62
           3
100
AcDbLine
 10
3722.899996751327
 20
1278.429517219998
 11
3719.899998122331
 21
1278.429517219998
  0
LINE
  5
12B
100
AcDbEntity
  8
0
  6
CONTINUOUS
 62
           3
100
AcDbLine
 10
3608.899996692015
 20
1278.429517219998
 11
3608.899996692015
 21
1128.429514984825
  0
LINE
  5
12A
100
AcDbEntity
  8
0
  6
CONTINUOUS
 62
           3
100
AcDbLine
 10
3719.899998122331
 20
1128.429514984825
 11
3722.899996751327
 21
1128.429514984825
  0
LINE
  5
129
100
AcDbEntity
  8
0
  6
CONTINUOUS
 62
           3
100
AcDbLine
 10
3673.899997101566
 20
1128.429514984825
 11
3711.899996810937
 21
1128.429514984825
  0
LINE
  5
128
100
AcDbEntity
  8
0
  6
CONTINUOUS
 62
           3
100
AcDbLine
 10
3619.899996632416
 20
1128.429514984825
 11
3657.899996341778
 21
1128.429514984825
  0
LINE
  5
127
100
AcDbEntity
  8
0
  6
CONTINUOUS
 62
           3
100
AcDbLine
 10
3608.899996692015
 20
1128.429514984825
 11
3611.899995321017
 21
1128.429514984825
  0
LINE
  5
126
100
AcDbEntity
  8
0
  6
CONTINUOUS
 62
           3
100
AcDbLine
 10
3659.426494029875
 20
1123.729517118625
 11
3672.373499413467
 21
1123.729517118625
  0
LINE
  5
125
100
AcDbEntity
  8
0
  6
CONTINUOUS
 62
           3
100
AcDbLine
 10
3673.899997101566
 20
1129.429517011525
 11
3669.399996829768
 21
1129.429517011525
  0
LINE
  5
124
100
AcDbEntity
  8
0
  6
CONTINUOUS
 62
           3
100
AcDbLine
 10
3662.39999661358
 20
1129.429517011525
 11
3657.899996341778
 21
1129.429517011525
  0
LINE
  5
123
100
AcDbEntity
  8
0
  6
CONTINUOUS
 62
           3
100
AcDbLine
 10
3663.899996626778
 20
1373.052170197623
 11
3662.89999669558
 21
1372.052168170924
  0
LINE
  5
122
100
AcDbEntity
  8
0
  6
CONTINUOUS
 62
           3
100
AcDbLine
 10
3668.899996747768
 20
1372.052168170924
 11
3667.899996816565
 21
1373.052170197623
  0
LINE
  5
121
100
AcDbEntity
  8
0
  6
CONTINUOUS
 62
           3
100
AcDbLine
 10
3662.89999669558
 20
1102.229511062745
 11
3662.89999669558
 21
1101.229523937344
  0
LINE
  5
120
100
AcDbEntity
  8
0
  6
CONTINUOUS
 62
           3
100
AcDbLine
 10
3662.89999669558
 20
1118.829516391531
 11
3662.89999669558
 21
1112.229516427236
  0
LINE
  5
11F
100
AcDbEntity
  8
0
  6
CONTINUOUS
 62
           3
100
AcDbLine
 10
3662.89999669558
 20
1127.586943726225
 11
3662.89999669558
 21
1124.629517714729
  0
LINE
  5
11E
100
AcDbEntity
  8
0
  6
CONTINUOUS
 62
           3
100
AcDbLine
 10
3662.89999669558
 20
1368.029510299627
 11
3662.89999669558
 21
1129.422364454123
  0
LINE
  5
11D
100
AcDbEntity
  8
0
  6
CONTINUOUS
 62
           3
100
AcDbLine
 10
3662.89999669558
 20
1372.052168170924
 11
3662.89999669558
 21
1369.629522482827
  0
LINE
  5
11C
100
AcDbEntity
  8
0
  6
CONTINUOUS
 62
           3
100
AcDbLine
 10
3668.899996747768
 20
1369.629522482827
 11
3668.899996747768
 21
1372.052168170924
  0
LINE
  5
11B
100
AcDbEntity
  8
0
  6
CONTINUOUS
 62
           3
100
AcDbLine
 10
3668.899996747768
 20
1129.422364454123
 11
3668.899996747768
 21
1368.029510299627
  0
LINE
  5
11A
100
AcDbEntity
  8
0
  6
CONTINUOUS
 62
           3
100
AcDbLine
 10
3668.899996747768
 20
1124.629517714729
 11
3668.899996747768
 21
1127.586943726225
  0
LINE
  5
119
100
AcDbEntity
  8
0
  6
CONTINUOUS
 62
           3
100
AcDbLine
 10
3668.899996747768
 20
1112.229516427236
 11
3668.899996747768
 21
1118.829516391531
  0
LINE
  5
118
100
AcDbEntity
  8
0
  6
CONTINUOUS
 62
           3
100
AcDbLine
 10
3668.899996747768
 20
1101.229523937344
 11
3668.899996747768
 21
1102.229511062745
  0
LINE
  5
117
100
AcDbEntity
  8
0
  6
CONTINUOUS
 62
           3
100
AcDbLine
 10
3619.899996632416
 20
1369.629522482827
 11
3619.899996632416
 21
1399.629523675
  0
LINE
  5
116
100
AcDbEntity
  8
0
  6
CONTINUOUS
 62
           3
100
AcDbLine
 10
3619.899996632416
 20
1284.629517863595
 11
3619.899996632416
 21
1368.029510299627
  0
LINE
  5
115
100
AcDbEntity
  8
0
  6
CONTINUOUS
 62
           3
100
AcDbLine
 10
3619.899996632416
 20
1125.829515676224
 11
3619.899996632416
 21
1283.429516176696
  0
LINE
  5
114
100
AcDbEntity
  8
0
  6
CONTINUOUS
 62
           3
100
AcDbLine
 10
3619.899996632416
 20
1101.229523937344
 11
3619.899996632416
 21
1124.629517714729
  0
LINE
  5
113
100
AcDbEntity
  8
0
  6
CONTINUOUS
 62
           3
100
AcDbLine
 10
3611.899995321017
 20
1099.629511754446
 11
3611.899995321017
 21
1049.629514734587
  0
LINE
  5
112
100
AcDbEntity
  8
0
  6
CONTINUOUS
 62
           3
100
AcDbLine
 10
3611.899995321017
 20
1124.629517714729
 11
3611.899995321017
 21
1101.229523937344
  0
LINE
  5
111
100
AcDbEntity
  8
0
  6
CONTINUOUS
 62
           3
100
AcDbLine
 10
3611.899995321017
 20
1283.429516176696
 11
3611.899995321017
 21
1125.829515676224
  0
LINE
  5
110
100
AcDbEntity
  8
0
  6
CONTINUOUS
 62
           3
100
AcDbLine
 10
3611.899995321017
 20
1368.029510299627
 11
3611.899995321017
 21
1284.629517863595
  0
LINE
  5
10F
100
AcDbEntity
  8
0
  6
CONTINUOUS
 62
           3
100
AcDbLine
 10
3611.899995321017
 20
1399.629523675
 11
3611.899995321017
 21
1369.629522482827
  0
LINE
  5
10E
100
AcDbEntity
  8
0
  6
CONTINUOUS
 62
           3
100
AcDbLine
 10
3719.899998122331
 20
1369.629522482827
 11
3719.899998122331
 21
1375.629517118631
  0
LINE
  5
10D
100
AcDbEntity
  8
0
  6
CONTINUOUS
 62
           3
100
AcDbLine
 10
3719.899998122331
 20
1284.629517863595
 11
3719.899998122331
 21
1368.029510299627
  0
LINE
  5
10C
100
AcDbEntity
  8
0
  6
CONTINUOUS
 62
           3
100
AcDbLine
 10
3719.899998122331
 20
1125.829515676224
 11
3719.899998122331
 21
1283.429516176696
  0
LINE
  5
10B
100
AcDbEntity
  8
0
  6
CONTINUOUS
 62
           3
100
AcDbLine
 10
3719.899998122331
 20
1101.229523937344
 11
3719.899998122331
 21
1124.629517714729
  0
LINE
  5
10A
100
AcDbEntity
  8
0
  6
CONTINUOUS
 62
           3
100
AcDbLine
 10
3719.899998122331
 20
1049.629514734587
 11
3719.899998122331
 21
1099.629511754446
  0
LINE
  5
109
100
AcDbEntity
  8
0
  6
CONTINUOUS
 62
           3
100
AcDbLine
 10
3711.899996810937
 20
1099.629511754446
 11
3711.899996810937
 21
1049.629514734587
  0
LINE
  5
108
100
AcDbEntity
  8
0
  6
CONTINUOUS
 62
           3
100
AcDbLine
 10
3711.899996810937
 20
1124.629517714729
 11
3711.899996810937
 21
1101.229523937344
  0
LINE
  5
107
100
AcDbEntity
  8
0
  6
CONTINUOUS
 62
           3
100
AcDbLine
 10
3711.899996810937
 20
1283.429516176696
 11
3711.899996810937
 21
1125.829515676224
  0
LINE
  5
106
100
AcDbEntity
  8
0
  6
CONTINUOUS
 62
           3
100
AcDbLine
 10
3711.899996810937
 20
1368.029510299627
 11
3711.899996810937
 21
1284.629517863595
  0
LINE
  5
105
100
AcDbEntity
  8
0
  6
CONTINUOUS
 62
           3
100
AcDbLine
 10
3711.899996810937
 20
1375.629517118631
 11
3711.899996810937
 21
1369.629522482827
  0
LINE
  5
104
100
AcDbEntity
  8
0
  6
CONTINUOUS
 62
           3
100
AcDbLine
 10
3660.126493853976
 20
1102.676098863944
 11
3660.899996833477
 21
1102.229511062745
  0
LINE
  5
103
100
AcDbEntity
  8
0
  6
CONTINUOUS
 62
           3
100
AcDbLine
 10
3670.899996609868
 20
1102.229511062745
 11
3671.673499589369
 21
1102.676098863944
  0
LINE
  5
102
100
AcDbEntity
  8
0
  6
CONTINUOUS
 62
           3
100
AcDbLine
 10
3671.673499589369
 20
1106.78293339474
 11
3670.899996609868
 21
1107.22952119564
  0
LINE
  5
101
100
AcDbEntity
  8
0
  6
CONTINUOUS
 62
           3
100
AcDbLine
 10
3660.899996833477
 20
1107.22952119564
 11
3660.126493853976
 21
1106.78293339474
  0
LINE
  5
100
100
AcDbEntity
  8
0
  6
CONTINUOUS
 62
           3
100
AcDbLine
 10
3660.126493853976
 20
1107.676094095542
 11
3660.899996833477
 21
1107.22952119564
  0
LINE
  5
FF
100
AcDbEntity
  8
0
  6
CONTINUOUS
 62
           3
100
AcDbLine
 10
3670.899996609868
 20
1107.22952119564
 11
3671.673499589369
 21
1107.676094095542
  0
LINE
  5
FE
100
AcDbEntity
  8
0
  6
CONTINUOUS
 62
           3
100
AcDbLine
 10
3671.673499589369
 20
1111.782936076836
 11
3670.899996609868
 21
1112.229516427236
  0
LINE
  5
FD
100
AcDbEntity
  8
0
  6
CONTINUOUS
 62
           3
100
AcDbLine
 10
3660.899996833477
 20
1112.229516427236
 11
3660.126493853976
 21
1111.782936076836
  0
LINE
  5
FC
100
AcDbEntity
  8
0
  6
CONTINUOUS
 62
           3
100
AcDbLine
 10
3660.126493853976
 20
1095.076104323754
 11
3660.899996833477
 21
1094.629516522552
  0
LINE
  5
FB
100
AcDbEntity
  8
0
  6
CONTINUOUS
 62
           3
100
AcDbLine
 10
3670.899996609868
 20
1094.629516522552
 11
3671.673499589369
 21
1095.076104323754
  0
LINE
  5
FA
100
AcDbEntity
  8
0
  6
CONTINUOUS
 62
           3
100
AcDbLine
 10
3671.673499589369
 20
1099.182938854548
 11
3670.899996609868
 21
1099.629511754446
  0
LINE
  5
F9
100
AcDbEntity
  8
0
  6
CONTINUOUS
 62
           3
100
AcDbLine
 10
3660.899996833477
 20
1099.629511754446
 11
3660.126493853976
 21
1099.182938854548
  0
LINE
  5
F8
100
AcDbEntity
  8
0
  6
CONTINUOUS
 62
           3
100
AcDbLine
 10
3671.673499589369
 20
1094.182928721652
 11
3670.899996609868
 21
1094.629516522552
  0
LINE
  5
F7
100
AcDbEntity
  8
0
  6
CONTINUOUS
 62
           3
100
AcDbLine
 10
3660.899996833477
 20
1094.629516522552
 11
3660.126493853976
 21
1094.182928721652
  0
LINE
  5
F6
100
AcDbEntity
  8
0
  6
CONTINUOUS
 62
           3
100
AcDbLine
 10
3670.899996609868
 20
1089.629521290953
 11
3671.673499589369
 21
1090.076094190855
  0
LINE
  5
F5
100
AcDbEntity
  8
0
  6
CONTINUOUS
 62
           3
100
AcDbLine
 10
3660.126493853976
 20
1090.076094190855
 11
3660.899996833477
 21
1089.629521290953
  0
LINE
  5
F4
100
AcDbEntity
  8
0
  6
CONTINUOUS
 62
           3
100
AcDbLine
 10
3619.899996632416
 20
1049.629514734587
 11
3619.899996632416
 21
1099.629511754446
  0
LINE
  5
F3
100
AcDbEntity
  8
1
  6
CONTINUOUS
 62
           3
100
AcDbLine
 10
4147.500000000005
 20
1663.629517118631
 11
3999.899996810937
 21
1663.629517118631
  0
LINE
  5
F2
100
AcDbEntity
  8
1
  6
CONTINUOUS
 62
           3
100
AcDbLine
 10
4147.500000000005
 20
1655.629517118632
 11
3999.89999812233
 21
1655.629517118632
  0
LINE
  5
F1
100
AcDbEntity
  8
1
  6
CONTINUOUS
 62
           7
100
AcDbLine
 10
2980.000000000005
 20
1874.629517118631
 11
2800.000000000004
 21
1874.629517118631
  0
LINE
  5
F0
100
AcDbEntity
  8
1
  6
CONTINUOUS
 62
           7
100
AcDbLine
 10
2800.000000000005
 20
1987.629517118631
 11
2980.000000000005
 21
1987.629517118631
  0
LINE
  5
EF
100
AcDbEntity
  8
1
  6
CONTINUOUS
 62
           7
100
AcDbLine
 10
2980.000000000005
 20
1987.629517118631
 11
2980.000000000005
 21
1874.629517118631
  0
LINE
  5
EE
100
AcDbEntity
  8
1
  6
CONTINUOUS
 62
           7
100
AcDbLine
 10
2800.000000000004
 20
1874.629517118631
 11
2800.000000000005
 21
1987.629517118631
  0
LINE
  5
ED
100
AcDbEntity
  8
1
  6
CONTINUOUS
 62
           4
100
AcDbLine
 10
3730.000000000005
 20
1476.118281273927
 11
3730.000000000004
 21
2214.629517118632
  0
LINE
  5
EC
100
AcDbEntity
  8
1
  6
CONTINUOUS
 62
           7
100
AcDbLine
 10
3750.000000000005
 20
1518.786743949468
 11
3750.0
 21
2234.629517118631
  0
LINE
  5
EB
100
AcDbEntity
  8
1
  6
CONTINUOUS
 62
           4
100
AcDbLine
 10
3770.000000000004
 20
1535.460649453211
 11
3770.000000000004
 21
254.629517118631
  0
LINE
  5
EA
100
AcDbEntity
  8
1
  6
CONTINUOUS
 62
           7
100
AcDbLine
 10
-249.999999999999
 20
1734.62951711863
 11
-249.999999999999
 21
1498.374087104674
  0
LINE
  5
E9
100
AcDbEntity
  8
1
  6
CONTINUOUS
 62
           7
100
AcDbLine
 10
250.000000000001
 20
1498.374087104674
 11
250.000000000001
 21
534.629517118629
  0
LINE
  5
E8
100
AcDbEntity
  8
1
  6
DOT_CENTER
 62
           3
100
AcDbLine
 10
8.47225532188
 20
1074.83036544568
 11
8.47225532188
 21
984.83179444568
  0
LINE
  5
E7
100
AcDbEntity
  8
1
  6
DOT_CENTER
 62
           3
100
AcDbLine
 10
53.47225532188
 20
1029.83036544568
 11
-36.525199678125
 21
1029.83036544568
  0
LINE
  5
E6
100
AcDbEntity
  8
1
  6
CONTINUOUS
 62
           3
100
AcDbLine
 10
4.936660321885
 20
1057.960228445691
 11
2.548714321876
 21
1030.703104445691
  0
LINE
  5
E5
100
AcDbEntity
  8
1
  6
CONTINUOUS
 62
           3
100
AcDbLine
 10
2.548714321876
 20
1028.95762644569
 11
4.936660321885
 21
1001.700502445689
  0
LINE
  5
E4
100
AcDbEntity
  8
1
  6
CONTINUOUS
 62
           3
100
AcDbLine
 10
12.007850321895
 20
1057.960228445691
 11
14.395796321876
 21
1030.703104445691
  0
LINE
  5
E3
100
AcDbEntity
  8
1
  6
CONTINUOUS
 62
           3
100
AcDbLine
 10
14.395796321876
 20
1028.95762644569
 11
12.007850321895
 21
1001.700502445689
  0
LINE
  5
E2
100
AcDbEntity
  8
1
  6
CONTINUOUS
 62
           7
100
AcDbLine
 10
75.000000000001
 20
1380.912509506432
 11
-1074.999999999999
 21
1380.912509506432
  0
LINE
  5
E1
100
AcDbEntity
  8
1
  6
CONTINUOUS
 62
           7
100
AcDbLine
 10
-1074.999999999999
 20
676.143043916996
 11
-1074.999999999999
 21
1380.912509506432
  0
LINE
  5
E0
100
AcDbEntity
  8
1
  6
CONTINUOUS
 62
           7
100
AcDbLine
 10
75.000000000001
 20
676.143043916996
 11
75.000000000001
 21
1380.912509506432
  0
LINE
  5
DF
100
AcDbEntity
  8
1
  6
CONTINUOUS
 62
           7
100
AcDbLine
 10
-1074.999999999999
 20
676.143043916996
 11
75.000000000001
 21
676.143043916996
  0
LINE
  5
DE
100
AcDbEntity
  8
___S__
  6
DOT_CENTER
 62
           3
100
AcDbLine
 10
-1074.999999999975
 20
1355.682354405128
 11
-1074.999999999975
 21
1270.686644174019
  0
LINE
  5
DD
100
AcDbEntity
  8
____
  6
CONTINUOUS
 62
           3
100
AcDbLine
 10
-1069.595947044856
 20
1349.078592624861
 11
-1069.595947044856
 21
1347.200661876737
  0
LINE
  5
DC
100
AcDbEntity
  8
____
  6
CONTINUOUS
 62
           3
100
AcDbLine
 10
-1079.912775413719
 20
1349.548075311894
 11
-1070.087224586231
 21
1349.548075311894
  0
LINE
  5
DB
100
AcDbEntity
  8
____
  6
CONTINUOUS
 62
           3
100
AcDbLine
 10
-1080.404052955093
 20
1347.200661876738
 11
-1080.404052955093
 21
1349.078592624861
  0
LINE
  5
DA
100
AcDbEntity
  8
____
  6
CONTINUOUS
 62
           3
100
AcDbLine
 10
-1069.497691536591
 20
1311.519977662407
 11
-1080.502308463368
 21
1311.519977662407
  0
LINE
  5
D9
100
AcDbEntity
  8
____
  6
CONTINUOUS
 62
           3
100
AcDbLine
 10
-1069.49769153659
 20
1347.200661876737
 11
-1069.497691536591
 21
1311.519977662407
  0
LINE
  5
D8
100
AcDbEntity
  8
____
  6
CONTINUOUS
 62
           3
100
AcDbLine
 10
-1080.502308463366
 20
1347.200661876738
 11
-1069.49769153659
 21
1347.200661876737
  0
LINE
  5
D7
100
AcDbEntity
  8
____
  6
CONTINUOUS
 62
           3
100
AcDbLine
 10
-1080.502308463368
 20
1311.519977662407
 11
-1080.502308463366
 21
1347.200661876738
  0
LINE
  5
D6
100
AcDbEntity
  8
____
  6
CONTINUOUS
 62
           3
100
AcDbLine
 10
-1080.404052955094
 20
1273.022397325889
 11
-1080.404052955094
 21
1274.900328074013
  0
LINE
  5
D5
100
AcDbEntity
  8
____
  6
CONTINUOUS
 62
           3
100
AcDbLine
 10
-1070.087224586231
 20
1272.55291463886
 11
-1079.912775413719
 21
1272.55291463886
  0
LINE
  5
D4
100
AcDbEntity
  8
____
  6
CONTINUOUS
 62
           3
100
AcDbLine
 10
-1069.595947044857
 20
1274.900328074013
 11
-1069.595947044857
 21
1273.022397325889
  0
LINE
  5
D3
100
AcDbEntity
  8
____
  6
CONTINUOUS
 62
           3
100
AcDbLine
 10
-1080.158414184406
 20
1311.519977662407
 11
-1080.158414184406
 21
1310.581012288345
  0
LINE
  5
D2
100
AcDbEntity
  8
____
  6
CONTINUOUS
 62
           3
100
AcDbLine
 10
-1069.841585815544
 20
1311.519977662407
 11
-1080.158414184406
 21
1311.519977662407
  0
LINE
  5
D1
100
AcDbEntity
  8
____
  6
CONTINUOUS
 62
           3
100
AcDbLine
 10
-1069.841585815544
 20
1310.581012288345
 11
-1069.841585815544
 21
1311.519977662407
  0
LINE
  5
D0
100
AcDbEntity
  8
____
  6
CONTINUOUS
 62
           3
100
AcDbLine
 10
-1080.404052955093
 20
1349.078592624861
 11
-1069.595947044856
 21
1349.078592624861
  0
LINE
  5
CF
100
AcDbEntity
  8
____
  6
CONTINUOUS
 62
           3
100
AcDbLine
 10
-1080.502308463368
 20
1310.581012288345
 11
-1069.497691536591
 21
1310.581012288345
  0
LINE
  5
CE
100
AcDbEntity
  8
____
  6
CONTINUOUS
 62
           3
100
AcDbLine
 10
-1080.502308463368
 20
1274.900328074013
 11
-1080.502308463368
 21
1310.581012288345
  0
LINE
  5
CD
100
AcDbEntity
  8
____
  6
CONTINUOUS
 62
           3
100
AcDbLine
 10
-1069.497691536591
 20
1274.900328074013
 11
-1080.502308463368
 21
1274.900328074013
  0
LINE
  5
CC
100
AcDbEntity
  8
____
  6
CONTINUOUS
 62
           3
100
AcDbLine
 10
-1069.497691536591
 20
1310.581012288345
 11
-1069.497691536591
 21
1274.900328074013
  0
LINE
  5
CB
100
AcDbEntity
  8
____
  6
CONTINUOUS
 62
           3
100
AcDbLine
 10
-1080.404052955093
 20
1349.078592624861
 11
-1079.912775413719
 21
1349.548075311894
  0
LINE
  5
CA
100
AcDbEntity
  8
____
  6
CONTINUOUS
 62
           3
100
AcDbLine
 10
-1070.087224586231
 20
1349.548075311894
 11
-1069.595947044856
 21
1349.078592624861
  0
LINE
  5
C9
100
AcDbEntity
  8
____
  6
CONTINUOUS
 62
           3
100
AcDbLine
 10
-1079.912775413719
 20
1272.55291463886
 11
-1080.404052955094
 21
1273.022397325889
  0
LINE
  5
C8
100
AcDbEntity
  8
____
  6
CONTINUOUS
 62
           3
100
AcDbLine
 10
-1069.595947044857
 20
1273.022397325889
 11
-1070.087224586231
 21
1272.55291463886
  0
LINE
  5
C7
100
AcDbEntity
  8
____
  6
CONTINUOUS
 62
           3
100
AcDbLine
 10
-1080.404052955094
 20
1273.022397325889
 11
-1069.595947044857
 21
1273.022397325889
  0
LINE
  5
C6
100
AcDbEntity
  8
____
  6
CONTINUOUS
 62
           3
100
AcDbLine
 10
-1080.404052955119
 20
719.032826635836
 11
-1069.595947044881
 21
719.032826635836
  0
LINE
  5
C5
100
AcDbEntity
  8
____
  6
CONTINUOUS
 62
           3
100
AcDbLine
 10
-1069.595947044881
 20
719.032826635836
 11
-1070.087224586256
 21
718.563343948805
  0
LINE
  5
C4
100
AcDbEntity
  8
____
  6
CONTINUOUS
 62
           3
100
AcDbLine
 10
-1079.912775413744
 20
718.563343948805
 11
-1080.404052955119
 21
719.032826635836
  0
LINE
  5
C3
100
AcDbEntity
  8
____
  6
CONTINUOUS
 62
           3
100
AcDbLine
 10
-1070.087224586253
 20
795.558504621839
 11
-1069.595947044878
 21
795.089021934808
  0
LINE
  5
C2
100
AcDbEntity
  8
____
  6
CONTINUOUS
 62
           3
100
AcDbLine
 10
-1080.404052955117
 20
795.089021934808
 11
-1079.912775413743
 21
795.558504621839
  0
LINE
  5
C1
100
AcDbEntity
  8
____
  6
CONTINUOUS
 62
           3
100
AcDbLine
 10
-1069.497691536607
 20
756.591441598292
 11
-1069.497691536607
 21
720.910757383959
  0
LINE
  5
C0
100
AcDbEntity
  8
____
  6
CONTINUOUS
 62
           3
100
AcDbLine
 10
-1069.497691536607
 20
720.910757383959
 11
-1080.502308463384
 21
720.910757383959
  0
LINE
  5
BF
100
AcDbEntity
  8
____
  6
CONTINUOUS
 62
           3
100
AcDbLine
 10
-1080.502308463384
 20
720.910757383959
 11
-1080.502308463384
 21
756.591441598292
  0
LINE
  5
BE
100
AcDbEntity
  8
____
  6
CONTINUOUS
 62
           3
100
AcDbLine
 10
-1080.502308463384
 20
756.591441598292
 11
-1069.497691536607
 21
756.591441598292
  0
LINE
  5
BD
100
AcDbEntity
  8
____
  6
CONTINUOUS
 62
           3
100
AcDbLine
 10
-1080.404052955117
 20
795.089021934808
 11
-1069.595947044878
 21
795.089021934808
  0
LINE
  5
BC
100
AcDbEntity
  8
____
  6
CONTINUOUS
 62
           3
100
AcDbLine
 10
-1069.841585815567
 20
756.591441598292
 11
-1069.841585815567
 21
757.530406972352
  0
LINE
  5
BB
100
AcDbEntity
  8
____
  6
CONTINUOUS
 62
           3
100
AcDbLine
 10
-1069.841585815567
 20
757.530406972352
 11
-1080.158414184431
 21
757.530406972353
  0
LINE
  5
BA
100
AcDbEntity
  8
____
  6
CONTINUOUS
 62
           3
100
AcDbLine
 10
-1080.158414184431
 20
757.530406972353
 11
-1080.158414184431
 21
756.591441598292
  0
LINE
  5
B9
100
AcDbEntity
  8
____
  6
CONTINUOUS
 62
           3
100
AcDbLine
 10
-1069.595947044881
 20
720.910757383959
 11
-1069.595947044881
 21
719.032826635836
  0
LINE
  5
B8
100
AcDbEntity
  8
____
  6
CONTINUOUS
 62
           3
100
AcDbLine
 10
-1070.087224586256
 20
718.563343948805
 11
-1079.912775413744
 21
718.563343948805
  0
LINE
  5
B7
100
AcDbEntity
  8
____
  6
CONTINUOUS
 62
           3
100
AcDbLine
 10
-1080.404052955119
 20
719.032826635836
 11
-1080.404052955119
 21
720.910757383959
  0
LINE
  5
B6
100
AcDbEntity
  8
____
  6
CONTINUOUS
 62
           3
100
AcDbLine
 10
-1080.502308463384
 20
757.530406972353
 11
-1080.502308463383
 21
793.211091186686
  0
LINE
  5
B5
100
AcDbEntity
  8
____
  6
CONTINUOUS
 62
           3
100
AcDbLine
 10
-1080.502308463383
 20
793.211091186686
 11
-1069.497691536606
 21
793.211091186686
  0
LINE
  5
B4
100
AcDbEntity
  8
____
  6
CONTINUOUS
 62
           3
100
AcDbLine
 10
-1069.497691536606
 20
793.211091186686
 11
-1069.497691536607
 21
757.530406972352
  0
LINE
  5
B3
100
AcDbEntity
  8
____
  6
CONTINUOUS
 62
           3
100
AcDbLine
 10
-1069.497691536607
 20
757.530406972352
 11
-1080.502308463384
 21
757.530406972353
  0
LINE
  5
B2
100
AcDbEntity
  8
____
  6
CONTINUOUS
 62
           3
100
AcDbLine
 10
-1080.404052955117
 20
793.211091186686
 11
-1080.404052955117
 21
795.089021934808
  0
LINE
  5
B1
100
AcDbEntity
  8
____
  6
CONTINUOUS
 62
           3
100
AcDbLine
 10
-1079.912775413743
 20
795.558504621839
 11
-1070.087224586253
 21
795.558504621839
  0
LINE
  5
B0
100
AcDbEntity
  8
____
  6
CONTINUOUS
 62
           3
100
AcDbLine
 10
-1069.595947044878
 20
795.089021934808
 11
-1069.595947044878
 21
793.211091186686
  0
LINE
  5
AF
100
AcDbEntity
  8
___S__
  6
DOT_CENTER
 62
           3
100
AcDbLine
 10
-1074.999999999999
 20
801.692783715091
 11
-1075.0
 21
716.697073483965
  0
LINE
  5
AE
100
AcDbEntity
  8
1
  6
CONTINUOUS
 62
           7
100
AcDbLine
 10
-1069.497691536607
 20
721.143043916998
 11
75.000000000001
 21
721.143043916998
  0
LINE
  5
AD
100
AcDbEntity
  8
1
  6
CONTINUOUS
 62
           7
100
AcDbLine
 10
1250.000000000001
 20
1498.374087104671
 11
-1249.999999999999
 21
1498.374087104671
  0
LINE
  5
AC
100
AcDbEntity
  8
1
  6
CONTINUOUS
 62
           7
100
AcDbLine
 10
3750.000000000004
 20
234.62951711863
 11
3750.000000000005
 21
1501.922790646801
  0
LINE
  5
AB
100
AcDbEntity
  8
1
  6
CONTINUOUS
 62
           4
100
AcDbLine
 10
3730.000000000004
 20
254.629517118631
 11
3730.000000000005
 21
1450.154620362897
  0
LINE
  5
AA
100
AcDbEntity
  8
1
  6
CONTINUOUS
 62
           4
100
AcDbLine
 10
3770.000000000004
 20
1714.629517118632
 11
3770.000000000004
 21
1549.094186334965
  0
LINE
  5
A9
100
AcDbEntity
  8
1
  6
CONTINUOUS
 62
           7
100
AcDbLine
 10
1460.000000000001
 20
4688.419076098279
 11
1300.000000000003
 21
4688.419076098279
  0
LINE
  5
A8
100
AcDbEntity
  8
1
  6
CONTINUOUS
 62
           7
100
AcDbLine
 10
1460.000000000001
 20
4888.419076098279
 11
1460.000000000001
 21
4688.419076098279
  0
LINE
  5
A7
100
AcDbEntity
  8
1
  6
CONTINUOUS
 62
           7
100
AcDbLine
 10
1300.000000000003
 20
4888.419076098279
 11
1460.000000000001
 21
4888.419076098279
  0
LINE
  5
A6
100
AcDbEntity
  8
1
  6
CONTINUOUS
 62
           7
100
AcDbLine
 10
1460.000000000001
 20
1534.629517118632
 11
1300.000000000001
 21
1534.629517118632
  0
LINE
  5
A5
100
AcDbEntity
  8
1
  6
CONTINUOUS
 62
           7
100
AcDbLine
 10
1460.000000000001
 20
1934.629517118632
 11
1460.000000000001
 21
1534.629517118632
  0
LINE
  5
A4
100
AcDbEntity
  8
1
  6
CONTINUOUS
 62
           7
100
AcDbLine
 10
1300.000000000001
 20
1934.629517118632
 11
1460.000000000001
 21
1934.629517118632
  0
LINE
  5
A3
100
AcDbEntity
  8
1
  6
CONTINUOUS
 62
           4
100
AcDbLine
 10
3700.000000000004
 20
1934.629517118632
 11
3730.000000000005
 21
1934.629517118632
  0
LINE
  5
A2
100
AcDbEntity
  8
1
  6
CONTINUOUS
 62
           4
100
AcDbLine
 10
3700.000000000004
 20
1534.629517118632
 11
3730.000000000005
 21
1534.629517118632
  0
LINE
  5
A1
100
AcDbEntity
  8
1
  6
CONTINUOUS
 62
           7
100
AcDbLine
 10
3500.000000000004
 20
1534.629517118632
 11
3500.000000000004
 21
1934.629517118632
  0
LINE
  5
A0
100
AcDbEntity
  8
1
  6
CONTINUOUS
 62
           7
100
AcDbLine
 10
3700.000000000004
 20
1534.629517118632
 11
3500.000000000004
 21
1534.629517118632
  0
LINE
  5
9F
100
AcDbEntity
  8
1
  6
CONTINUOUS
 62
           7
100
AcDbLine
 10
3700.000000000004
 20
1934.629517118632
 11
3700.000000000004
 21
1534.629517118632
  0
LINE
  5
9E
100
AcDbEntity
  8
1
  6
CONTINUOUS
 62
           7
100
AcDbLine
 10
3500.000000000004
 20
1934.629517118632
 11
3700.000000000004
 21
1934.629517118632
  0
LINE
  5
9D
100
AcDbEntity
  8
1
  6
CONTINUOUS
 62
           7
100
AcDbLine
 10
-1249.999999999996
 20
3958.419076098282
 11
-1249.999999999996
 21
4938.419076098279
  0
LINE
  5
9C
100
AcDbEntity
  8
1
  6
CONTINUOUS
 62
           7
100
AcDbLine
 10
1250.000000000003
 20
3958.419076098282
 11
1250.000000000003
 21
4938.419076098279
  0
LINE
  5
9B
100
AcDbEntity
  8
1
  6
CONTINUOUS
 62
           7
100
AcDbLine
 10
2750.000000000004
 20
2384.629517118631
 11
2770.000000000004
 21
2384.629517118631
  0
LINE
  5
9A
100
AcDbEntity
  8
1
  6
CONTINUOUS
 62
           7
100
AcDbLine
 10
2750.000000000003
 20
2284.629517118631
 11
2750.000000000004
 21
2384.629517118631
  0
LINE
  5
99
100
AcDbEntity
  8
1
  6
CONTINUOUS
 62
           7
100
AcDbLine
 10
1300.000000000001
 20
2384.629517118629
 11
-1299.999999999999
 21
2384.629517118629
  0
LINE
  5
98
100
AcDbEntity
  8
1
  6
CONTINUOUS
 62
           4
100
AcDbLine
 10
-150.905365064098
 20
4918.419076098279
 11
-1229.999999999996
 21
4918.419076098279
  0
LINE
  5
97
100
AcDbEntity
  8
1
  6
CONTINUOUS
 62
           7
100
AcDbLine
 10
1456.01085787477
 20
234.629517118629
 11
-1448.319110952331
 21
234.62951711863
  0
LINE
  5
96
100
AcDbEntity
  8
1
  6
CONTINUOUS
 62
           7
100
AcDbLine
 10
1250.000000000001
 20
1634.62951711863
 11
-1249.999999999999
 21
1634.62951711863
  0
LINE
  5
95
100
AcDbEntity
  8
1
  6
DOT_CENTER
 62
           2
100
AcDbLine
 10
0.0
 20
234.62951711863
 11
0.0
 21
-342.65483091421
  0
LINE
  5
94
100
AcDbEntity
  8
1
  6
DOT_CENTER
 62
           2
100
AcDbLine
 10
0.0
 20
3276.303591313949
 11
0.0
 21
234.62951711863
  0
LINE
  5
93
100
AcDbEntity
  8
1
  6
CONTINUOUS
 62
           7
100
AcDbLine
 10
1235.000000000001
 20
274.62951711863
 11
15.0
 21
274.62951711863
  0
LINE
  5
92
100
AcDbEntity
  8
1
  6
CONTINUOUS
 62
           7
100
AcDbLine
 10
-1249.999999999999
 20
534.62951711863
 11
1250.000000000001
 21
534.62951711863
  0
LINE
  5
91
100
AcDbEntity
  8
1
  6
CONTINUOUS
 62
           7
100
AcDbLine
 10
-1249.999999999999
 20
248.48283978626
 11
-1249.999999999999
 21
307.236602770142
  0
LINE
  5
90
100
AcDbEntity
  8
1
  6
CONTINUOUS
 62
           7
100
AcDbLine
 10
15.0
 20
274.62951711863
 11
15.0
 21
234.62951711863
  0
LINE
  5
8F
100
AcDbEntity
  8
1
  6
CONTINUOUS
 62
           7
100
AcDbLine
 10
1235.000000000001
 20
274.62951711863
 11
1235.000000000001
 21
234.629517118629
  0
LINE
  5
8E
100
AcDbEntity
  8
1
  6
LONG_DASHED
 62
           2
100
AcDbLine
 10
1250.000000000001
 20
-215.37048288137
 11
-1249.999999999999
 21
-215.37048288137
  0
LINE
  5
8D
100
AcDbEntity
  8
1
  6
LONG_DASHED
 62
           2
100
AcDbLine
 10
1250.000000000001
 20
-215.37048288137
 11
1250.000000000001
 21
234.62951711863
  0
LINE
  5
8C
100
AcDbEntity
  8
1
  6
LONG_DASHED
 62
           2
100
AcDbLine
 10
-1249.999999999999
 20
-215.37048288137
 11
-1249.999999999999
 21
234.62951711863
  0
LINE
  5
8B
100
AcDbEntity
  8
1
  6
CONTINUOUS
 62
           7
100
AcDbLine
 10
1300.000000000001
 20
2234.629517118629
 11
-1299.999999999999
 21
2234.629517118629
  0
LINE
  5
8A
100
AcDbEntity
  8
1
  6
CONTINUOUS
 62
           7
100
AcDbLine
 10
-1299.999999999999
 20
2384.629517118629
 11
-1299.999999999999
 21
234.62951711863
  0
LINE
  5
89
100
AcDbEntity
  8
1
  6
CONTINUOUS
 62
           7
100
AcDbLine
 10
1300.000000000001
 20
234.629517118629
 11
1300.000000000001
 21
2384.629517118629
  0
LINE
  5
88
100
AcDbEntity
  8
1
  6
CONTINUOUS
 62
           7
100
AcDbLine
 10
-1234.999999999999
 20
234.62951711863
 11
-1234.999999999999
 21
274.62951711863
  0
LINE
  5
87
100
AcDbEntity
  8
1
  6
CONTINUOUS
 62
           7
100
AcDbLine
 10
-15.0
 20
234.62951711863
 11
-15.0
 21
274.62951711863
  0
LINE
  5
86
100
AcDbEntity
  8
1
  6
CONTINUOUS
 62
           7
100
AcDbLine
 10
-15.0
 20
274.62951711863
 11
-1234.999999999999
 21
274.62951711863
  0
LINE
  5
85
100
AcDbEntity
  8
1
  6
CONTINUOUS
 62
           7
100
AcDbLine
 10
0.0
 20
234.62951711863
 11
0.0
 21
534.62951711863
  0
LINE
  5
84
100
AcDbEntity
  8
1
  6
CONTINUOUS
 62
           4
100
AcDbLine
 10
-659.999999999995
 20
5918.419076098279
 11
-979.999999999996
 21
5918.419076098279
  0
LINE
  5
83
100
AcDbEntity
  8
1
  6
CONTINUOUS
 62
           7
100
AcDbLine
 10
-649.999999999998
 20
5938.419076098279
 11
-1299.999999999996
 21
5938.419076098279
  0
LINE
  5
82
100
AcDbEntity
  8
1
  6
CONTINUOUS
 62
           7
100
AcDbLine
 10
127.928556845362
 20
4938.419076098279
 11
1300.000000000003
 21
4938.419076098279
  0
LINE
  5
81
100
AcDbEntity
  8
1
  6
DOT_CENTER
 62
           2
100
AcDbLine
 10
-684.88800322481
 20
5478.419076098279
 11
514.155542433881
 21
5478.419076098279
  0
LINE
  5
80
100
AcDbEntity
  8
1
  6
CONTINUOUS
 62
           4
100
AcDbLine
 10
1230.000000000003
 20
4918.419076098279
 11
54.980390271857
 21
4918.419076098279
  0
LINE
  5
7F
100
AcDbEntity
  8
1
  6
CONTINUOUS
 62
           7
100
AcDbLine
 10
2980.000000000004
 20
1824.629517118631
 11
2980.000000000004
 21
1584.62951711863
  0
LINE
  5
7E
100
AcDbEntity
  8
1
  6
CONTINUOUS
 62
           7
100
AcDbLine
 10
2800.000000000004
 20
1584.62951711863
 11
2800.000000000004
 21
1824.629517118631
  0
LINE
  5
7D
100
AcDbEntity
  8
1
  6
CONTINUOUS
 62
           7
100
AcDbLine
 10
2800.000000000004
 20
1824.629517118631
 11
2980.000000000004
 21
1824.629517118631
  0
LINE
  5
7C
100
AcDbEntity
  8
1
  6
CONTINUOUS
 62
           7
100
AcDbLine
 10
2980.000000000004
 20
1584.62951711863
 11
2800.000000000004
 21
1584.62951711863
  0
LINE
  5
7B
100
AcDbEntity
  8
1
  6
CONTINUOUS
 62
           7
100
AcDbLine
 10
2990.000000000003
 20
2184.629517118632
 11
2800.000000000003
 21
2184.629517118631
  0
LINE
  5
7A
100
AcDbEntity
  8
1
  6
CONTINUOUS
 62
           7
100
AcDbLine
 10
2800.000000000003
 20
2184.629517118631
 11
2800.000000000003
 21
2096.629517118631
  0
LINE
  5
79
100
AcDbEntity
  8
1
  6
CONTINUOUS
 62
           7
100
AcDbLine
 10
2800.000000000003
 20
2096.629517118631
 11
2990.000000000003
 21
2096.629517118631
  0
LINE
  5
78
100
AcDbEntity
  8
1
  6
CONTINUOUS
 62
           7
100
AcDbLine
 10
2990.000000000003
 20
2096.629517118631
 11
2990.000000000003
 21
2184.629517118632
  0
LINE
  5
77
100
AcDbEntity
  8
1
  6
CONTINUOUS
 62
           4
100
AcDbLine
 10
-1289.999999999996
 20
4938.419076098279
 11
-1289.999999999996
 21
3958.419076098282
  0
LINE
  5
76
100
AcDbEntity
  8
1
  6
CONTINUOUS
 62
           4
100
AcDbLine
 10
1290.000000000003
 20
4938.419076098279
 11
1290.000000000003
 21
3958.419076098282
  0
LINE
  5
75
100
AcDbEntity
  8
1
  6
CONTINUOUS
 62
           4
100
AcDbLine
 10
2750.000000000003
 20
2274.629517118631
 11
3750.000000000003
 21
2274.629517118631
  0
LINE
  5
74
100
AcDbEntity
  8
1
  6
CONTINUOUS
 62
           4
100
AcDbLine
 10
1230.000000000003
 20
4418.419076098279
 11
-1230.0
 21
4418.419076098279
  0
LINE
  5
73
100
AcDbEntity
  8
1
  6
CONTINUOUS
 62
           4
100
AcDbLine
 10
-1230.0
 20
4418.419076098279
 11
-1229.999999999997
 21
3958.419076098282
  0
LINE
  5
72
100
AcDbEntity
  8
1
  6
CONTINUOUS
 62
           4
100
AcDbLine
 10
-1252.999999999996
 20
4938.419076098279
 11
-1252.999999999996
 21
3958.419076098282
  0
LINE
  5
71
100
AcDbEntity
  8
1
  6
CONTINUOUS
 62
           4
100
AcDbLine
 10
980.000000000003
 20
4958.419076098279
 11
520.000000000002
 21
4958.419076098279
  0
LINE
  5
70
100
AcDbEntity
  8
1
  6
CONTINUOUS
 62
           4
100
AcDbLine
 10
980.000000000003
 20
5918.419076098279
 11
520.000000000002
 21
5918.419076098279
  0
LINE
  5
6F
100
AcDbEntity
  8
1
  6
CONTINUOUS
 62
           4
100
AcDbLine
 10
1253.000000000003
 20
4938.419076098279
 11
1253.000000000003
 21
3958.419076098282
  0
LINE
  5
6E
100
AcDbEntity
  8
1
  6
CONTINUOUS
 62
           4
100
AcDbLine
 10
1230.000000000003
 20
4418.419076098279
 11
1230.000000000003
 21
3958.419076098282
  0
LINE
  5
6D
100
AcDbEntity
  8
1
  6
CONTINUOUS
 62
           4
100
AcDbLine
 10
980.000000000003
 20
5918.419076098279
 11
980.000000000003
 21
4958.419076098279
  0
LINE
  5
6C
100
AcDbEntity
  8
1
  6
CONTINUOUS
 62
           7
100
AcDbLine
 10
1300.000000000003
 20
3938.419076098281
 11
1300.000000000003
 21
5938.419076098279
  0
LINE
  5
6B
100
AcDbEntity
  8
1
  6
DOT_CENTER
 62
           2
100
AcDbLine
 10
4050.000000000003
 20
409.62951711863
 11
4050.000000000003
 21
259.62951711863
  0
LINE
  5
6A
100
AcDbEntity
  8
1
  6
DOT_CENTER
 62
           2
100
AcDbLine
 10
3975.000000000003
 20
334.62951711863
 11
4125.000000000003
 21
334.62951711863
  0
LINE
  5
69
100
AcDbEntity
  8
1
  6
CONTINUOUS
 62
           7
100
AcDbLine
 10
3750.000000000003
 20
2309.62951711863
 11
4750.000000000004
 21
2309.629517118631
  0
LINE
  5
68
100
AcDbEntity
  8
1
  6
CONTINUOUS
 62
           7
100
AcDbLine
 10
3750.000000000003
 20
2234.629517118631
 11
3750.000000000003
 21
2309.62951711863
  0
LINE
  5
67
100
AcDbEntity
  8
1
  6
CONTINUOUS
 62
           7
100
AcDbLine
 10
2750.000000000003
 20
2284.629517118631
 11
4750.000000000004
 21
2284.629517118631
  0
LINE
  5
66
100
AcDbEntity
  8
1
  6
CONTINUOUS
 62
           4
100
AcDbLine
 10
2750.000000000003
 20
2237.629517118631
 11
3750.000000000003
 21
2237.629517118631
  0
LINE
  5
65
100
AcDbEntity
  8
1
  6
CONTINUOUS
 62
           7
100
AcDbLine
 10
4750.000000000004
 20
2234.629517118631
 11
2750.000000000003
 21
2234.629517118631
  0
LINE
  5
64
100
AcDbEntity
  8
1
  6
CONTINUOUS
 62
           7
100
AcDbLine
 10
4750.000000000004
 20
234.629517118631
 11
4750.000000000004
 21
2309.629517118631
  0
LINE
  5
63
100
AcDbEntity
  8
1
  6
CONTINUOUS
 62
           7
100
AcDbLine
 10
2750.000000000003
 20
234.629517118631
 11
2750.000000000003
 21
2284.629517118631
  0
LINE
  5
62
100
AcDbEntity
  8
1
  6
CONTINUOUS
 62
           7
100
AcDbLine
 10
1300.000000000003
 20
5938.419076098279
 11
0.000000000002
 21
5938.419076098279
  0
LINE
  5
61
100
AcDbEntity
  8
1
  6
CONTINUOUS
 62
           4
100
AcDbLine
 10
-979.999999999996
 20
4958.419076098278
 11
-979.999999999996
 21
5918.419076098279
  0
LINE
  5
60
100
AcDbEntity
  8
1
  6
CONTINUOUS
 62
           4
100
AcDbLine
 10
-979.999999999996
 20
4958.419076098278
 11
-519.999999999998
 21
4958.419076098279
  0
LINE
  5
5F
100
AcDbEntity
  8
1
  6
CONTINUOUS
 62
           4
100
AcDbLine
 10
-1229.999999999996
 20
4918.419076098279
 11
-1229.999999999996
 21
4458.419076098281
  0
LINE
  5
5E
100
AcDbEntity
  8
1
  6
CONTINUOUS
 62
           4
100
AcDbLine
 10
1230.000000000002
 20
4458.419076098281
 11
1230.000000000003
 21
4918.419076098279
  0
LINE
  5
5D
100
AcDbEntity
  8
1
  6
CONTINUOUS
 62
           7
100
AcDbLine
 10
-1299.999999999996
 20
4938.419076098279
 11
-230.525588832577
 21
4938.419076098279
  0
LINE
  5
5C
100
AcDbEntity
  8
1
  6
CONTINUOUS
 62
           7
100
AcDbLine
 10
-1299.999999999996
 20
5938.419076098279
 11
-1299.999999999996
 21
3938.419076098281
  0
LINE
  5
5B
100
AcDbEntity
  8
1
  6
CONTINUOUS
 62
           7
100
AcDbLine
 10
-1299.999999999996
 20
3938.419076098281
 11
1300.000000000003
 21
3938.419076098281
  0
LINE
  5
5A
100
AcDbEntity
  8
1
  6
CONTINUOUS
 62
           7
100
AcDbLine
 10
2600.000000000003
 20
234.629517118631
 11
4898.26877072086
 21
234.629517118631
  0
LINE
  5
59
100
AcDbEntity
  8
1
  6
CONTINUOUS
 62
           4
100
AcDbLine
 10
3730.000000000004
 20
2214.629517118632
 11
2770.000000000004
 21
2214.629517118632
  0
LINE
  5
58
100
AcDbEntity
  8
1
  6
CONTINUOUS
 62
           4
100
AcDbLine
 10
2770.000000000004
 20
2214.629517118632
 11
2770.000000000004
 21
254.62951711863
  0
LINE
  5
57
100
AcDbEntity
  8
1
  6
CONTINUOUS
 62
           4
100
AcDbLine
 10
2770.000000000004
 20
254.62951711863
 11
3730.000000000004
 21
254.629517118631
  0
LINE
  5
56
100
AcDbEntity
  8
1
  6
CONTINUOUS
 62
           4
100
AcDbLine
 10
3770.000000000004
 20
254.629517118631
 11
4730.000000000003
 21
254.629517118631
  0
LINE
  5
55
100
AcDbEntity
  8
1
  6
CONTINUOUS
 62
           4
100
AcDbLine
 10
4730.000000000003
 20
254.629517118631
 11
4730.000000000003
 21
1714.629517118632
  0
LINE
  5
54
100
AcDbEntity
  8
1
  6
CONTINUOUS
 62
           4
100
AcDbLine
 10
4730.000000000003
 20
1714.629517118632
 11
3770.000000000004
 21
1714.629517118632
  0
LINE
  5
53
100
AcDbEntity
  8
1
  6
LONG_DASHED
 62
           2
100
AcDbLine
 10
3300.000000000003
 20
-215.37048288137
 11
4700.000000000003
 21
-215.37048288137
  0
LINE
  5
52
100
AcDbEntity
  8
1
  6
LONG_DASHED
 62
           2
100
AcDbLine
 10
4700.000000000003
 20
-215.37048288137
 11
4700.000000000003
 21
2234.629517118631
  0
LINE
  5
51
100
AcDbEntity
  8
1
  6
CONTINUOUS
 62
           4
100
AcDbLine
 10
520.000000000002
 20
5918.419076098279
 11
520.000000000002
 21
4958.419076098279
  0
LINE
  5
50
100
AcDbEntity
  8
1
  6
CONTINUOUS
 62
           7
100
AcDbLine
 10
500.000000000002
 20
4938.419076098279
 11
500.000000000002
 21
5938.419076098279
  0
LINE
  5
4F
100
AcDbEntity
  8
1
  6
CONTINUOUS
 62
           4
100
AcDbLine
 10
-519.999999999998
 20
4958.419076098279
 11
-519.999999999998
 21
5135.990738691308
  0
LINE
  5
4E
100
AcDbEntity
  8
1
  6
CONTINUOUS
 62
           7
100
AcDbLine
 10
-499.999999999998
 20
4938.419076098279
 11
-499.999999999998
 21
5112.72688228175
  0
LINE
  5
4D
100
AcDbEntity
  8
1
  6
CONTINUOUS
 62
           4
100
AcDbLine
 10
-1299.999999999997
 20
3958.419076098282
 11
1300.000000000003
 21
3958.419076098282
  0
LINE
  5
4C
100
AcDbEntity
  8
1
  6
CONTINUOUS
 62
           4
100
AcDbLine
 10
-1229.999999999996
 20
4458.419076098281
 11
1230.000000000002
 21
4458.419076098281
  0
LINE
  5
4B
100
AcDbEntity
  8
1
  6
CONTINUOUS
 62
           7
100
AcDbLine
 10
-1249.999999999996
 20
4438.41907609828
 11
1250.000000000003
 21
4438.41907609828
  0
LINE
  5
4A
100
AcDbEntity
  8
1
  6
CONTINUOUS
 62
           7
100
AcDbLine
 10
1000.0
 20
4938.419076098279
 11
1000.0
 21
5938.419076098279
  0
LINE
  5
49
100
AcDbEntity
  8
1
  6
CONTINUOUS
 62
           7
100
AcDbLine
 10
-1000.0
 20
4938.419076098279
 11
-1000.0
 21
5938.419076098279
  0
LINE
  5
48
100
AcDbEntity
  8
1
  6
CONTINUOUS
 62
           4
100
AcDbLine
 10
1020.0
 20
5918.419076098279
 11
1280.000000000003
 21
5918.419076098279
  0
LINE
  5
47
100
AcDbEntity
  8
1
  6
CONTINUOUS
 62
           4
100
AcDbLine
 10
1280.000000000003
 20
5918.419076098279
 11
1280.000000000003
 21
4958.419076098279
  0
LINE
  5
46
100
AcDbEntity
  8
1
  6
CONTINUOUS
 62
           4
100
AcDbLine
 10
1280.000000000003
 20
4958.419076098279
 11
1020.0
 21
4958.419076098279
  0
LINE
  5
45
100
AcDbEntity
  8
1
  6
CONTINUOUS
 62
           4
100
AcDbLine
 10
1020.0
 20
4958.419076098279
 11
1020.0
 21
5918.419076098279
  0
LINE
  5
44
100
AcDbEntity
  8
1
  6
CONTINUOUS
 62
           4
100
AcDbLine
 10
-1019.999999999996
 20
4958.419076098279
 11
-1280.0
 21
4958.419076098279
  0
LINE
  5
43
100
AcDbEntity
  8
1
  6
CONTINUOUS
 62
           4
100
AcDbLine
 10
-1280.0
 20
4958.419076098279
 11
-1280.0
 21
5918.419076098279
  0
LINE
  5
42
100
AcDbEntity
  8
1
  6
CONTINUOUS
 62
           4
100
AcDbLine
 10
-1280.0
 20
5918.419076098279
 11
-1019.999999999996
 21
5918.419076098279
  0
LINE
  5
41
100
AcDbEntity
  8
1
  6
CONTINUOUS
 62
           4
100
AcDbLine
 10
-1019.999999999996
 20
5918.419076098279
 11
-1019.999999999996
 21
4958.419076098279
  0
LINE
  5
40
100
AcDbEntity
  8
1
  6
CONTINUOUS
 62
           7
100
AcDbLine
 10
3250.000000000004
 20
2284.629517118631
 11
3250.000000000004
 21
2274.629517118631
  0
LINE
  5
3F
100
AcDbEntity
  8
1
  6
CONTINUOUS
 62
           7
100
AcDbLine
 10
3635.000000000004
 20
1491.379517118632
 11
3635.000000000004
 21
1504.629517118632
  0
LINE
  5
3E
100
AcDbEntity
  8
1
  6
CONTINUOUS
 62
           7
100
AcDbLine
 10
3612.500000000004
 20
1534.629517118632
 11
3612.500000000004
 21
1504.629517118632
  0
LINE
  5
3D
100
AcDbEntity
  8
1
  6
CONTINUOUS
 62
           7
100
AcDbLine
 10
3637.500000000004
 20
1534.629517118632
 11
3637.500000000004
 21
1504.629517118632
  0
LINE
  5
3C
100
AcDbEntity
  8
1
  6
CONTINUOUS
 62
           7
100
AcDbLine
 10
3612.500000000004
 20
1504.629517118632
 11
3637.500000000004
 21
1504.629517118632
  0
LINE
  5
3B
100
AcDbEntity
  8
1
  6
CONTINUOUS
 62
           7
100
AcDbLine
 10
3615.000000000004
 20
1504.629517118632
 11
3615.000000000004
 21
1491.379517118632
  0
LINE
  5
3A
100
AcDbEntity
  8
1
  6
CONTINUOUS
 62
           7
100
AcDbLine
 10
3652.000000000004
 20
1474.379517118632
 11
3729.358987904709
 21
1474.379517118632
  0
LINE
  5
39
100
AcDbEntity
  8
1
  6
CONTINUOUS
 62
           7
100
AcDbLine
 10
3652.000000000004
 20
1454.379517118632
 11
3722.87574245764
 21
1454.379517118632
  0
LINE
  5
38
100
AcDbEntity
  8
1
  6
CONTINUOUS
 62
           7
100
AcDbLine
 10
1250.000000000001
 20
234.62951711863
 11
1250.000000000001
 21
2234.629517118629
  0
LINE
  5
37
100
AcDbEntity
  8
1
  6
CONTINUOUS
 62
           7
100
AcDbLine
 10
-1249.999999999999
 20
234.62951711863
 11
-1249.999999999999
 21
2234.629517118629
  0
LINE
  5
36
100
AcDbEntity
  8
1
  6
CONTINUOUS
 62
           7
100
AcDbLine
 10
1250.000000000001
 20
1734.62951711863
 11
-1249.999999999999
 21
1734.62951711863
  0
LINE
  5
35
100
AcDbEntity
  8
1
  6
CONTINUOUS
 62
           7
100
AcDbLine
 10
-249.999999999999
 20
2234.629517118629
 11
-249.999999999999
 21
1734.62951711863
  0
LINE
  5
34
100
AcDbEntity
  8
1
  6
CONTINUOUS
 62
           7
100
AcDbLine
 10
4750.000000000004
 20
1734.629517118631
 11
3750.000000000003
 21
1734.629517118631
  0
LINE
  5
33
100
AcDbEntity
  8
1
  6
CONTINUOUS
 62
           4
100
AcDbLine
 10
3770.000000000004
 20
2214.629517118632
 11
3770.000000000004
 21
1754.629517118632
  0
LINE
  5
32
100
AcDbEntity
  8
1
  6
CONTINUOUS
 62
           4
100
AcDbLine
 10
4730.000000000003
 20
2214.629517118632
 11
3770.000000000004
 21
2214.629517118632
  0
LINE
  5
31
100
AcDbEntity
  8
1
  6
CONTINUOUS
 62
           4
100
AcDbLine
 10
4730.000000000003
 20
1754.629517118632
 11
4730.000000000003
 21
2214.629517118632
  0
LINE
  5
30
100
AcDbEntity
  8
1
  6
CONTINUOUS
 62
           4
100
AcDbLine
 10
3770.000000000004
 20
1754.629517118632
 11
4730.000000000003
 21
1754.629517118632
  0
LINE
  5
2F
100
AcDbEntity
  8
1
  6
LONG_DASHED
 62
           2
100
AcDbLine
 10
3300.000000000003
 20
234.629517118631
 11
3300.000000000003
 21
-215.37048288137
  0
LINE
  5
2E
100
AcDbEntity
  8
1
  6
DOT_CENTER
 62
           2
100
AcDbLine
 10
0.000000000002
 20
6086.089541139464
 11
0.000000000002
 21
3813.09975234595
  0
POINT
  5
2D
100
AcDbEntity
  8
0
 62
           3
100
AcDbPoint
 10
3583.399996721737
 20
1099.629517118749
  0
ENDSEC
  0
SECTION
  2
OBJECTS
  0
DICTIONARY
  5
19
100
AcDbDictionary
  3
ACAD_GROUP
350
1A
  3
ACAD_MLINESTYLE
350
1B
  0
DICTIONARY
  5
1A
102
{ACAD_REACTORS
330
19
102
}
100
AcDbDictionary
  0
DICTIONARY
  5
1B
102
{ACAD_REACTORS
330
19
102
}
100
AcDbDictionary
  3
STANDARD
350
1C
  0
MLINESTYLE
  5
1C
102
{ACAD_REACTORS
330
1B
102
}
100
AcDbMlineStyle
  2
STANDARD
 70
           0
  3

 62
           0
 51
90.0
 52
90.0
 71
           2
 49
0.5
 62
         256
  6
BYLAYER
 49
-0.5
 62
         256
  6
BYLAYER
  0
ENDSEC
  0
EOF
