  0
SECTION
  2
HEADER
  9
$ACADVER
  1
AC1014
  9
$ACADMAINTVER
 70
           0
  9
$DWGCODEPAGE
  3
DOS932
  9
$INSBASE
 10
0.0
 20
0.0
 30
0.0
  9
$EXTMIN
 10
1.000000000000E+20
 20
1.000000000000E+20
 30
1.000000000000E+20
  9
$EXTMAX
 10
-1.000000000000E+20
 20
-1.000000000000E+20
 30
-1.000000000000E+20
  9
$LIMMIN
 10
0.0
 20
0.0
  9
$LIMMAX
 10
0.0
 20
0.0
  9
$ORTHOMODE
 70
           0
  9
$REGENMODE
 70
           1
  9
$FILLMODE
 70
           1
  9
$QTEXTMODE
 70
           0
  9
$MIRRTEXT
 70
           1
  9
$DRAGMODE
 70
           2
  9
$LTSCALE
 40
1.0
  9
$OSMODE
 70
           0
  9
$ATTMODE
 70
           1
  9
$TEXTSIZE
 40
0.2
  9
$TRACEWID
 40
0.05
  9
$TEXTSTYLE
  7
STANDARD
  9
$CLAYER
  8
0
  9
$CELTYPE
  6
CONTINUOUS
  9
$CECOLOR
 62
         256
  9
$CELTSCALE
 40
1.0
  9
$DELOBJ
 70
           1
  9
$DISPSILH
 70
           0
  9
$DIMSCALE
 40
1.0
  9
$DIMASZ
 40
0.18
  9
$DIMEXO
 40
0.0625
  9
$DIMDLI
 40
0.38
  9
$DIMRND
 40
0.0
  9
$DIMDLE
 40
0.0
  9
$DIMEXE
 40
0.18
  9
$DIMTP
 40
0.0
  9
$DIMTM
 40
0.0
  9
$DIMTXT
 40
0.18
  9
$DIMCEN
 40
0.09
  9
$DIMTSZ
 40
0.0
  9
$DIMTOL
 70
           0
  9
$DIMLIM
 70
           0
  9
$DIMTIH
 70
           1
  9
$DIMTOH
 70
           1
  9
$DIMSE1
 70
           0
  9
$DIMSE2
 70
           0
  9
$DIMTAD
 70
           0
  9
$DIMZIN
 70
           0
  9
$DIMBLK
  1

  9
$DIMASO
 70
           1
  9
$DIMSHO
 70
           1
  9
$DIMPOST
  1

  9
$DIMAPOST
  1

  9
$DIMALT
 70
           0
  9
$DIMALTD
 70
           2
  9
$DIMALTF
 40
25.4
  9
$DIMLFAC
 40
1.0
  9
$DIMTOFL
 70
           0
  9
$DIMTVP
 40
0.0
  9
$DIMTIX
 70
           0
  9
$DIMSOXD
 70
           0
  9
$DIMSAH
 70
           0
  9
$DIMBLK1
  1

  9
$DIMBLK2
  1

  9
$DIMSTYLE
  2
STANDARD
  9
$DIMCLRD
 70
           0
  9
$DIMCLRE
 70
           0
  9
$DIMCLRT
 70
           0
  9
$DIMTFAC
 40
1.0
  9
$DIMGAP
 40
0.09
  9
$DIMJUST
 70
           0
  9
$DIMSD1
 70
           0
  9
$DIMSD2
 70
           0
  9
$DIMTOLJ
 70
           1
  9
$DIMTZIN
 70
           0
  9
$DIMALTZ
 70
           0
  9
$DIMALTTZ
 70
           0
  9
$DIMFIT
 70
           3
  9
$DIMUPT
 70
           0
  9
$DIMUNIT
 70
           2
  9
$DIMDEC
 70
           4
  9
$DIMTDEC
 70
           4
  9
$DIMALTU
 70
           2
  9
$DIMALTTD
 70
           2
  9
$DIMTXSTY
  7
STANDARD
  9
$DIMAUNIT
 70
           0
  9
$LUNITS
 70
           2
  9
$LUPREC
 70
           4
  9
$SKETCHINC
 40
0.1
  9
$FILLETRAD
 40
0.0
  9
$AUNITS
 70
           0
  9
$AUPREC
 70
           0
  9
$MENU
  1
acad
  9
$ELEVATION
 40
0.0
  9
$PELEVATION
 40
0.0
  9
$THICKNESS
 40
0.0
  9
$LIMCHECK
 70
           0
  9
$BLIPMODE
 70
           1
  9
$CHAMFERA
 40
0.0
  9
$CHAMFERB
 40
0.0
  9
$CHAMFERC
 40
0.0
  9
$CHAMFERD
 40
0.0
  9
$SKPOLY
 70
           0
  9
$TDCREATE
 40
0.000000000
  9
$TDUPDATE
 40
0.000000000
  9
$TDINDWG
 40
0.0000000000
  9
$TDUSRTIMER
 40
0.0000000000
  9
$USRTIMER
 70
           1
  9
$ANGBASE
 50
0.0
  9
$ANGDIR
 70
           0
  9
$PDMODE
 70
           0
  9
$PDSIZE
 40
0.0
  9
$PLINEWID
 40
0.0
  9
$COORDS
 70
           0
  9
$SPLFRAME
 70
           0
  9
$SPLINETYPE
 70
           6
  9
$SPLINESEGS
 70
           8
  9
$ATTDIA
 70
           0
  9
$ATTREQ
 70
           1
  9
$HANDLING
 70
           1
  9
$HANDSEED
  5
39D
  9
$SURFTAB1
 70
           6
  9
$SURFTAB2
 70
           6
  9
$SURFTYPE
 70
           6
  9
$SURFU
 70
           6
  9
$SURFV
 70
           6
  9
$UCSNAME
  2

  9
$UCSORG
 10
0.0
 20
0.0
 30
0.0
  9
$UCSXDIR
 10
1.0
 20
0.0
 30
0.0
  9
$UCSYDIR
 10
0.0
 20
1.0
 30
0.0
  9
$PUCSNAME
  2

  9
$PUCSORG
 10
0.0
 20
0.0
 30
0.0
  9
$PUCSXDIR
 10
1.0
 20
0.0
 30
0.0
  9
$PUCSYDIR
 10
0.0
 20
1.0
 30
0.0
  9
$USERI1
 70
           0
  9
$USERI2
 70
           0
  9
$USERI3
 70
           0
  9
$USERI4
 70
           0
  9
$USERI5
 70
           0
  9
$USERR1
 40
0.0
  9
$USERR2
 40
0.0
  9
$USERR3
 40
0.0
  9
$USERR4
 40
0.0
  9
$USERR5
 40
0.0
  9
$WORLDVIEW
 70
           1
  9
$SHADEDGE
 70
           3
  9
$SHADEDIF
 70
          70
  9
$TILEMODE
 70
           1
  9
$MAXACTVP
 70
          16
  9
$PINSBASE
 10
0.0
 20
0.0
 30
0.0
  9
$PLIMCHECK
 70
           0
  9
$PEXTMIN
 10
1.000000000000E+20
 20
1.000000000000E+20
 30
1.000000000000E+20
  9
$PEXTMAX
 10
-1.000000000000E+20
 20
-1.000000000000E+20
 30
-1.000000000000E+20
  9
$PLIMMIN
 10
0.0
 20
0.0
  9
$PLIMMAX
 10
12.0
 20
9.0
  9
$UNITMODE
 70
           0
  9
$VISRETAIN
 70
           0
  9
$PLINEGEN
 70
           1
  9
$PSLTSCALE
 70
           0
  9
$TREEDEPTH
 70
        3020
  9
$PICKSTYLE
 70
           1
  9
$CMLSTYLE
  2
STANDARD
  9
$CMLJUST
 70
           0
  9
$CMLSCALE
 40
1.0
  9
$PROXYGRAPHICS
 70
           0
  9
$MEASUREMENT
 70
           0
  0
ENDSEC
  0
SECTION
  2
CLASSES
  0
CLASS
  1
LWPOLYLINE
  2
AcDbPolyline
  3
"AutoCAD"
 90
        0
280
           0
281
           1
  0
CLASS
  1
IMAGE
  2
AcDbRasterImage
  3
ISM
 90
      127
280
           0
281
           1
  0
CLASS
  1
OLE2FRAME
  2
AcDbOle2Frame
  3
""
 90
        0
280
           0
281
           1
  0
CLASS
  1
HATCH
  2
AcDbHatch
  3
"ACAD_SEDONA"
 90
        0
280
           0
281
           1
  0
CLASS
  1
DICTIONARYVAR
  2
AcDbDictionaryVar
  3
"AutoCAD"
 90
        0
280
           0
281
           0
  0
CLASS
  1
RASTERVARIABLES
  2
AcDbRasterVariables
  3
ISM
 90
        0
280
           0
281
           0
  0
CLASS
  1
IMAGEDEF
  2
AcDbRasterImageDef
  3
ISM
 90
        0
280
           0
281
           0
  0
CLASS
  1
IMAGEDEF_REACTOR
  2
AcDbRasterImageDefReactor
  3
ISM
 90
        1
280
           0
281
           0
  0
CLASS
  1
IDBUFFER
  2
AcDbIdBuffer
  3
"Acad"
 90
        0
280
           0
281
           0
  0
CLASS
  1
SPATIAL_FILTER
  2
AcDbSpatialFilter
  3
"Acad"
 90
        0
280
           0
281
           0
  0
CLASS
  1
XRECORD
  2
AcDbXrecord
  3
"<Built In>"
 90
        0
280
           0
281
           0
  0
CLASS
  1
SORTENTSTABLE
  2
AcDbSortentsTable
  3
"AutoCAD"
 90
        0
280
           0
281
           0
  0
CLASS
  1
LAYER_INDEX
  2
AcDbLayerIndex
  3
"Acad"
 90
        0
280
           0
281
           0
  0
CLASS
  1
SPATIAL_INDEX
  2
AcDbSpatialIndex
  3
"Acad"
 90
        0
280
           0
281
           0
  0
CLASS
  1
OBJECT_PTR
  2
CAseDLPNTableRecord
  3
"ASE-LPNTableRecord"
 90
        1
280
           0
281
           0
  0
CLASS
  1
LAYOUT
  2
AcDbLayout
  3
"AutoCAD 2000"
 90
        1
280
           0
281
           0
  0
CLASS
  1
PLOTSETTINGS
  2
AcDbPlotSettings
  3
"AutoCAD 2000"
 90
        1
280
           0
281
           0
  0
CLASS
  1
ACDBDICTIONARYWDFLT
  2
AcDbDictionaryWithDefault
  3
"AutoCAD 2000"
 90
        1
280
           0
281
           0
  0
CLASS
  1
ACDBPLACEHOLDER
  2
AcDbPlaceHolder
  3
"AutoCAD 2000"
 90
        1
280
           0
281
           0
  0
CLASS
  1
VBA_PROJECT
  2
AcDbVbaProject
  3
"acadvba"
 90
        1
280
           0
281
           0
  0
CLASS
  1
WIPEOUT
  2
AcDbWipeout
  3
WipeOut|AutoCAD Express Tool|expresstools@autodesk.com
 90
      127
280
           0
281
           1
  0
CLASS
  1
WIPEOUTVARIABLES
  2
AcDbWipeoutVariables
  3
WipeOut|AutoCAD Express Tool|expresstools@autodesk.com
 90
        0
280
           0
281
           0
  0
CLASS
  1
RTEXT
  2
RText
  3
RText|AutoCAD Express Tool|expresstools@autodesk.com
 90
        0
280
           0
281
           1
  0
CLASS
  1
ARCALIGNEDTEXT
  2
AcDbArcAlignedText
  3
ATEXT|AutoCAD Express Tool|expresstools@autodesk.com
 90
        0
280
           0
281
           1
  0
ENDSEC
  0
SECTION
  2
TABLES
  0
TABLE
  2
VPORT
  5
7
100
AcDbSymbolTable
 70
           1
  0
VPORT
  5
15
100
AcDbSymbolTableRecord
100
AcDbViewportTableRecord
  2
*ACTIVE
 70
           0
 10
0.0
 20
0.0
 11
1.0
 21
1.0
 12
6.591288
 22
4.579184
 13
0.0
 23
0.0
 14
1.0
 24
1.0
 15
0.0
 25
0.0
 16
0.0
 26
0.0
 36
1.0
 17
0.0
 27
0.0
 37
0.0
 40
9.158369
 41
0.688564
 42
50.0
 43
0.0
 44
0.0
 50
0.0
 51
0.0
 71
           0
 72
         100
 73
           1
 74
           1
 75
           0
 76
           0
 77
           0
 78
           0
  0
ENDTAB
  0
TABLE
  2
LTYPE
  5
4
100
AcDbSymbolTable
 70
          10
  0
LTYPE
  5
11
100
AcDbSymbolTableRecord
100
AcDbLinetypeTableRecord
  2
BYBLOCK
 70
          64
  3

 72
          65
 73
           0
 40
0.0
  0
LTYPE
  5
12
100
AcDbSymbolTableRecord
100
AcDbLinetypeTableRecord
  2
BYLAYER
 70
          64
  3

 72
          65
 73
           0
 40
0.0
  0
LTYPE
  5
13
100
AcDbSymbolTableRecord
100
AcDbLinetypeTableRecord
  2
CONTINUOUS
 70
          64
  3
Solid line
 72
          65
 73
           0
 40
0.0
  0
LTYPE
  5
1D
100
AcDbSymbolTableRecord
100
AcDbLinetypeTableRecord
  2
DASHED
 70
          64
  3
Dashed
 72
          65
 73
           2
 40
15.0
 49
12.0
 74
           0
 49
-3.0
 74
           0
  0
LTYPE
  5
1E
100
AcDbSymbolTableRecord
100
AcDbLinetypeTableRecord
  2
DOTTED
 70
          64
  3
Dotted
 72
          65
 73
           2
 40
3.5
 49
0.5
 74
           0
 49
-3.0
 74
           0
  0
LTYPE
  5
1F
100
AcDbSymbolTableRecord
100
AcDbLinetypeTableRecord
  2
DOT_CENTER
 70
          64
  3
Dot_Center
 72
          65
 73
           4
 40
2.0
 49
1.25
 74
           0
 49
-0.25
 74
           0
 49
0.25
 74
           0
 49
-0.25
 74
           0
  0
LTYPE
  5
20
100
AcDbSymbolTableRecord
100
AcDbLinetypeTableRecord
  2
LONG_DASHED
 70
          64
  3
Long_Dashed
 72
          65
 73
           2
 40
2.0
 49
1.5
 74
           0
 49
-0.5
 74
           0
  0
LTYPE
  5
21
100
AcDbSymbolTableRecord
100
AcDbLinetypeTableRecord
  2
DASH_CENTER
 70
          64
  3
Dash_Center
 72
          65
 73
           4
 40
36.0
 49
24.0
 74
           0
 49
-3.0
 74
           0
 49
6.0
 74
           0
 49
-3.0
 74
           0
  0
LTYPE
  5
22
100
AcDbSymbolTableRecord
100
AcDbLinetypeTableRecord
  2
PHANTOM
 70
          64
  3
Phantom
 72
          65
 73
           6
 40
2.5
 49
1.25
 74
           0
 49
-0.25
 74
           0
 49
0.25
 74
           0
 49
-0.25
 74
           0
 49
0.25
 74
           0
 49
-0.25
 74
           0
  0
LTYPE
  5
23
100
AcDbSymbolTableRecord
100
AcDbLinetypeTableRecord
  2
CENTER_DASH_DASH
 70
          64
  3
Center_Dash_Dash
 72
          65
 73
           6
 40
22.0
 49
12.0
 74
           0
 49
-3.0
 74
           0
 49
0.5
 74
           0
 49
-3.0
 74
           0
 49
0.5
 74
           0
 49
-3.0
 74
           0
  0
ENDTAB
  0
TABLE
  2
LAYER
  5
2
100
AcDbSymbolTable
 70
           7
  0
LAYER
  5
14
100
AcDbSymbolTableRecord
100
AcDbLayerTableRecord
  2
0
 70
           0
 62
           7
  6
CONTINUOUS
  0
LAYER
  5
24
100
AcDbSymbolTableRecord
100
AcDbLayerTableRecord
  2
___S__
 70
           0
 62
           7
  6
CONTINUOUS
  0
LAYER
  5
25
100
AcDbSymbolTableRecord
100
AcDbLayerTableRecord
  2
FORMAT
 70
           0
 62
           7
  6
CONTINUOUS
  0
LAYER
  5
26
100
AcDbSymbolTableRecord
100
AcDbLayerTableRecord
  2
1
 70
           0
 62
           7
  6
CONTINUOUS
  0
LAYER
  5
27
100
AcDbSymbolTableRecord
100
AcDbLayerTableRecord
  2
2
 70
           0
 62
           7
  6
CONTINUOUS
  0
LAYER
  5
28
100
AcDbSymbolTableRecord
100
AcDbLayerTableRecord
  2
7
 70
           0
 62
           7
  6
CONTINUOUS
  0
LAYER
  5
29
100
AcDbSymbolTableRecord
100
AcDbLayerTableRecord
  2
____
 70
           0
 62
           7
  6
CONTINUOUS
  0
ENDTAB
  0
TABLE
  2
STYLE
  5
3
100
AcDbSymbolTable
 70
           1
  0
STYLE
  5
17
100
AcDbSymbolTableRecord
100
AcDbTextStyleTableRecord
  2
STANDARD
 70
           0
 40
0.0
 41
1.0
 50
0.0
 71
           0
 42
0.0
  3
txt
  4

  0
ENDTAB
  0
TABLE
  2
VIEW
  5
5
100
AcDbSymbolTable
 70
           0
  0
ENDTAB
  0
TABLE
  2
UCS
  5
6
100
AcDbSymbolTable
 70
           0
  0
ENDTAB
  0
TABLE
  2
APPID
  5
8
100
AcDbSymbolTable
 70
           1
  0
APPID
  5
16
100
AcDbSymbolTableRecord
100
AcDbRegAppTableRecord
  2
ACAD
 70
           0
  0
ENDTAB
  0
TABLE
  2
DIMSTYLE
  5
9
100
AcDbSymbolTable
 70
           1
  0
DIMSTYLE
105
18
100
AcDbSymbolTableRecord
100
AcDbDimStyleTableRecord
  2
STANDARD
 70
           0
  3

  4

  5

  6

  7

 40
1.0
 41
0.18
 42
0.0625
 43
0.38
 44
0.18
 45
0.0
 46
0.0
 47
0.0
 48
0.0
 71
           0
 72
           0
 73
           1
 74
           1
 75
           0
 76
           0
 77
           0
 78
           0
140
0.18
141
0.09
142
0.0
143
25.4
144
1.0
145
0.0
146
1.0
147
0.09
170
           0
171
           2
172
           0
173
           0
174
           0
175
           0
176
           0
177
           0
178
           0
270
           2
271
           4
272
           4
273
           2
274
           2
275
           0
280
           0
281
           0
282
           0
283
           1
284
           0
285
           0
286
           0
287
           0
288
           0
340
17
  0
ENDTAB
  0
TABLE
  2
BLOCK_RECORD
  5
1
100
AcDbSymbolTable
 70
           0
  0
BLOCK_RECORD
  5
A
100
AcDbSymbolTableRecord
100
AcDbBlockTableRecord
  2
*MODEL_SPACE
  0
BLOCK_RECORD
  5
B
100
AcDbSymbolTableRecord
100
AcDbBlockTableRecord
  2
*PAPER_SPACE
  0
ENDTAB
  0
ENDSEC
  0
SECTION
  2
BLOCKS
  0
BLOCK
  5
D
100
AcDbEntity
  8
0
100
AcDbBlockBegin
  2
*MODEL_SPACE
 70
           0
 10
0.0
 20
0.0
 30
0.0
  3
*MODEL_SPACE
  1

  0
ENDBLK
  5
E
100
AcDbEntity
  8
0
100
AcDbBlockEnd
  0
BLOCK
  5
F
100
AcDbEntity
 67
           1
  8
0
100
AcDbBlockBegin
  2
*PAPER_SPACE
 70
           0
 10
0.0
 20
0.0
 30
0.0
  3
*PAPER_SPACE
  1

  0
ENDBLK
  5
10
100
AcDbEntity
 67
           1
  8
0
100
AcDbBlockEnd
  0
ENDSEC
  0
SECTION
  2
ENTITIES
  0
HATCH
  5
39B
100
AcDbEntity
  8
0
  6
CONTINUOUS
 62
           2
100
AcDbHatch
 10
0.0
 20
0.0
 30
0.0
210
0.0
220
0.0
230
1.0
  2
USER
 70
           0
 71
           1
 91
        1
 92
        1
 93
        8
 72
           1
 10
3652.0000000000041
 20
1474.3795171186321
 11
3729.358987904709
 21
1474.3795171186321
 72
           2
 10
3652.0000000000041
 20
1491.3795171186321
 40
17.0
 50
180.0
 51
-90.0
 73
           1
 72
           1
 10
3635.0000000000041
 20
1491.3795171186321
 11
3635.0000000000041
 21
1504.6295171186321
 72
           1
 10
3635.0000000000041
 20
1504.6295171186321
 11
3615.0000000000041
 21
1504.6295171186321
 72
           1
 10
3615.0000000000041
 20
1504.6295171186321
 11
3615.0000000000041
 21
1491.3795171186321
 72
           2
 10
3652.0000000000041
 20
1491.3795171186321
 40
37.0
 50
180.0
 51
-90.0
 73
           1
 72
           1
 10
3652.0000000000041
 20
1454.3795171186321
 11
3722.8757424576402
 21
1454.3795171186321
 72
           1
 10
3722.8757424576402
 20
1454.3795171186321
 11
3729.358987904709
 21
1474.3795171186321
 97
        7
330
83
330
322
330
384
330
84
330
323
330
82
330
383
 75
           1
 76
           0
 52
45.0
 41
10.0
 77
           0
 78
           1
 53
45.0
 43
0.0
 44
0.0
 45
-7.0710678118654746
 46
7.0710678118654755
 79
           0
 98
        1
 10
0.0
 20
0.0
  0
ARC
  5
39A
100
AcDbEntity
  8
1
  6
CONTINUOUS
 62
           3
100
AcDbCircle
 10
3999.899996810937
 20
1375.629517118631
 40
288.0
100
AcDbArc
 50
90.0
 51
180.0
  0
ARC
  5
399
100
AcDbEntity
  8
1
  6
CONTINUOUS
 62
           3
100
AcDbCircle
 10
3999.89999812233
 20
1375.629517118631
 40
280.000000000001
100
AcDbArc
 50
90.0
 51
180.0
  0
ARC
  5
398
100
AcDbEntity
  8
1
  6
CONTINUOUS
 62
           3
100
AcDbCircle
 10
4148.163567691046
 20
1666.823263698671
 40
0.5
100
AcDbArc
 50
90.0
 51
180.0
  0
ARC
  5
397
100
AcDbEntity
  8
1
  6
CONTINUOUS
 62
           3
100
AcDbCircle
 10
4148.163567691046
 20
1652.435770538591
 40
0.5
100
AcDbArc
 50
180.0
 51
-90.0
  0
ARC
  5
396
100
AcDbEntity
  8
1
  6
CONTINUOUS
 62
           7
100
AcDbCircle
 10
156.499999999998
 20
5643.750000000001
 40
10.0
100
AcDbArc
 50
0.0
 51
90.0
  0
ARC
  5
395
100
AcDbEntity
  8
1
  6
CONTINUOUS
 62
           7
100
AcDbCircle
 10
156.499999999998
 20
5576.250000000001
 40
10.0
100
AcDbArc
 50
-90.0
 51
0.0
  0
ARC
  5
394
100
AcDbEntity
  8
1
  6
CONTINUOUS
 62
           7
100
AcDbCircle
 10
123.946258446659
 20
5643.750000000001
 40
10.0
100
AcDbArc
 50
90.0
 51
180.0
  0
ARC
  5
393
100
AcDbEntity
  8
1
  6
CONTINUOUS
 62
           7
100
AcDbCircle
 10
123.946258446659
 20
5576.250000000001
 40
10.0
100
AcDbArc
 50
180.0
 51
-90.0
  0
ARC
  5
392
100
AcDbEntity
  8
1
  6
CONTINUOUS
 62
           4
100
AcDbCircle
 10
109.26566811172
 20
5581.250000000001
 40
10.000000000001
100
AcDbArc
 50
-120.43059420571
 51
-90.0
  0
ARC
  5
391
100
AcDbEntity
  8
1
  6
CONTINUOUS
 62
           4
100
AcDbCircle
 10
109.26566811172
 20
5638.750000000001
 40
10.0
100
AcDbArc
 50
90.0
 51
120.430594205715
  0
ARC
  5
390
100
AcDbEntity
  8
1
  6
CONTINUOUS
 62
           7
100
AcDbCircle
 10
4326.250000000004
 20
2974.629517118632
 40
10.0
100
AcDbArc
 50
90.0
 51
180.0
  0
ARC
  5
38F
100
AcDbEntity
  8
1
  6
CONTINUOUS
 62
           7
100
AcDbCircle
 10
4393.750000000004
 20
2974.629517118632
 40
10.0
100
AcDbArc
 50
0.0
 51
90.0
  0
ARC
  5
38E
100
AcDbEntity
  8
1
  6
CONTINUOUS
 62
           7
100
AcDbCircle
 10
4326.250000000004
 20
2914.629517118632
 40
10.0
100
AcDbArc
 50
180.0
 51
-90.0
  0
ARC
  5
38D
100
AcDbEntity
  8
1
  6
CONTINUOUS
 62
           7
100
AcDbCircle
 10
4393.750000000004
 20
2914.629517118632
 40
10.0
100
AcDbArc
 50
-90.0
 51
0.0
  0
ARC
  5
38C
100
AcDbEntity
  8
1
  6
CONTINUOUS
 62
           4
100
AcDbCircle
 10
4794.500000000004
 20
2394.629517118634
 40
1.0
100
AcDbArc
 50
0.0
 51
90.0
  0
ARC
  5
38B
100
AcDbEntity
  8
1
  6
CONTINUOUS
 62
           4
100
AcDbCircle
 10
4805.500000000004
 20
2394.629517118634
 40
1.0
100
AcDbArc
 50
90.0
 51
180.0
  0
ARC
  5
38A
100
AcDbEntity
  8
1
  6
CONTINUOUS
 62
           4
100
AcDbCircle
 10
4794.500000000004
 20
2790.629517118634
 40
1.0
100
AcDbArc
 50
-90.0
 51
0.0
  0
ARC
  5
389
100
AcDbEntity
  8
1
  6
CONTINUOUS
 62
           4
100
AcDbCircle
 10
4805.500000000004
 20
2790.629517118634
 40
1.0
100
AcDbArc
 50
180.0
 51
-90.0
  0
ARC
  5
388
100
AcDbEntity
  8
1
  6
CONTINUOUS
 62
           7
100
AcDbCircle
 10
118.613664000002
 20
2915.929517118632
 40
10.0
100
AcDbArc
 50
180.0
 51
-90.0
  0
ARC
  5
387
100
AcDbEntity
  8
1
  6
CONTINUOUS
 62
           7
100
AcDbCircle
 10
118.613664000002
 20
2975.929517118631
 40
10.0
100
AcDbArc
 50
90.0
 51
180.0
  0
ARC
  5
386
100
AcDbEntity
  8
1
  6
CONTINUOUS
 62
           7
100
AcDbCircle
 10
156.499999999999
 20
2915.929517118632
 40
10.0
100
AcDbArc
 50
-90.0
 51
0.0
  0
ARC
  5
385
100
AcDbEntity
  8
1
  6
CONTINUOUS
 62
           7
100
AcDbCircle
 10
156.499999999999
 20
2975.929517118631
 40
10.0
100
AcDbArc
 50
0.0
 51
90.0
  0
LWPOLYLINE
  5
384
100
AcDbEntity
  8
1
  6
CONTINUOUS
 62
           7
 60
           1
100
AcDbPolyline
 90
        3
 70
           0
 10
3635.000000000004
 20
1491.379517118632
 10
3635.000000000004
 20
1504.629517118632
 10
3615.000000000004
 20
1504.629517118632
  0
LWPOLYLINE
  5
383
100
AcDbEntity
  8
1
  6
CONTINUOUS
 62
           7
 60
           1
100
AcDbPolyline
 90
        2
 70
           0
 10
3722.87574245764
 20
1454.379517118632
 10
3729.358987904709
 20
1474.379517118632
  0
SPLINE
  5
382
100
AcDbEntity
  8
0
  6
CONTINUOUS
 62
           3
100
AcDbSpline
210
0.0
220
0.0
230
1.0
 70
           0
 71
           3
 72
           8
 73
           5
 74
           7
 42
0.00000000001
 43
0.00000000001
 44
0.00000000001
 40
0.0
 40
0.0
 40
0.0
 40
0.5558562714151691
 40
1.5343210643710465
 40
2.9385072682928524
 40
2.9385072682928524
 40
2.9385072682928524
 10
3665.8999967216801
 20
1094.6295165226791
 30
0.0
 10
3665.9684298091488
 20
1094.629070829307
 30
0.0
 10
3666.9432526000292
 20
1094.622721969844
 30
0.0
 10
3667.898530904748
 20
1094.3948261404939
 30
0.0
 10
3668.7867481555072
 20
1094.182928721699
 30
0.0
 11
3665.8999967216801
 21
1094.6295165226791
 31
0.0
 11
3666.0396116244106
 21
1094.6286072339281
 31
0.0
 11
3666.321590157665
 21
1094.6267707544198
 31
0.0
 11
3666.8859111712909
 21
1094.6003371131073
 31
0.0
 11
3667.3355493274416
 21
1094.5291337583212
 31
0.0
 11
3667.9798398231114
 21
1094.375428690252
 31
0.0
 11
3668.7867481555072
 21
1094.182928721699
 31
0.0
  0
SPLINE
  5
381
100
AcDbEntity
  8
0
  6
CONTINUOUS
 62
           3
100
AcDbSpline
210
0.0
220
0.0
230
1.0
 70
           0
 71
           3
 72
           8
 73
           5
 74
           7
 42
0.00000000001
 43
0.00000000001
 44
0.00000000001
 40
0.0
 40
0.0
 40
0.0
 40
0.5558558490689979
 40
1.5343195422049356
 40
2.9385037456639052
 40
2.9385037456639052
 40
2.9385037456639052
 10
3665.8999967216801
 20
1089.629521290952
 30
0.0
 10
3665.8315636362968
 20
1089.6299669969319
 30
0.0
 10
3664.8567416872461
 20
1089.6363160292999
 30
0.0
 10
3663.9014629162689
 20
1089.864204047861
 30
0.0
 10
3663.0132452878488
 20
1090.0760941908729
 30
0.0
 11
3665.8999967216801
 21
1089.629521290952
 31
0.0
 11
3665.7603818762518
 21
1089.6304306049524
 31
0.0
 11
3665.4784035107327
 21
1089.6322671349935
 31
0.0
 11
3664.9140828960199
 21
1089.6587000608499
 31
0.0
 11
3664.4644446988573
 21
1089.7299010498064
 31
0.0
 11
3663.8201539548108
 21
1089.8836008341004
 31
0.0
 11
3663.0132452878488
 21
1090.0760941908729
 31
0.0
  0
SPLINE
  5
380
100
AcDbEntity
  8
0
  6
CONTINUOUS
 62
           3
100
AcDbSpline
210
0.0
220
0.0
230
1.0
 70
           0
 71
           3
 72
           8
 73
           5
 74
           7
 42
0.00000000001
 43
0.00000000001
 44
0.00000000001
 40
0.0
 40
0.0
 40
0.0
 40
0.2779452695530033
 40
0.7862805426568592
 40
1.5429573556205383
 40
1.5429573556205383
 40
1.5429573556205383
 10
3670.2301237560091
 20
1089.629521291052
 30
0.0
 10
3670.1959072124791
 20
1089.629966995821
 30
0.0
 10
3669.708496915277
 20
1089.636316003375
 30
0.0
 10
3669.2308572149882
 20
1089.8642040470991
 30
0.0
 10
3668.7867481553681
 20
1090.0760941908561
 30
0.0
 11
3670.2301237560091
 21
1089.629521291052
 31
0.0
 11
3670.1613872230691
 21
1089.630416653275
 31
0.0
 11
3670.0236107113078
 21
1089.6322113304068
 31
0.0
 11
3669.7392914141378
 21
1089.6581835948487
 31
0.0
 11
3669.5165611146899
 21
1089.7278910422378
 31
0.0
 11
3669.1912559250086
 21
1089.883098331823
 31
0.0
 11
3668.7867481553681
 21
1090.0760941908561
 31
0.0
  0
SPLINE
  5
37F
100
AcDbEntity
  8
0
  6
CONTINUOUS
 62
           3
100
AcDbSpline
210
0.0
220
0.0
230
1.0
 70
           0
 71
           3
 72
           8
 73
           5
 74
           7
 42
0.00000000001
 43
0.00000000001
 44
0.00000000001
 40
0.0
 40
0.0
 40
0.0
 40
0.6787700534933483
 40
1.189166894882723
 40
1.5431123743454478
 40
1.5431123743454478
 40
1.5431123743454478
 10
3663.0132452878488
 20
1090.0760941908729
 30
0.0
 10
3662.643821474408
 20
1089.8919654902379
 30
0.0
 10
3662.1676820506268
 20
1089.654647455415
 30
0.0
 10
3661.6793238525902
 20
1089.6341216698911
 30
0.0
 10
3661.569869687351
 20
1089.629521291052
 30
0.0
 11
3663.0132452878488
 21
1090.0760941908729
 31
0.0
 11
3662.6682329736418
 21
1089.9041327016382
 31
0.0
 11
3662.3720436579033
 21
1089.7565056352041
 31
0.0
 11
3662.1466781919517
 21
1089.6770818652394
 31
0.0
 11
3661.8793050086479
 21
1089.6425269149236
 31
0.0
 11
3661.7019556002947
 21
1089.6350728864393
 31
0.0
 11
3661.569869687351
 21
1089.629521291052
 31
0.0
  0
SPLINE
  5
37E
100
AcDbEntity
  8
0
  6
CONTINUOUS
 62
           3
100
AcDbSpline
210
0.0
220
0.0
230
1.0
 70
           0
 71
           3
 72
           8
 73
           5
 74
           7
 42
0.00000000001
 43
0.00000000001
 44
0.00000000001
 40
0.0
 40
0.0
 40
0.0
 40
0.3539460334944648
 40
0.8643414136598666
 40
1.5431068113992792
 40
1.5431068113992792
 40
1.5431068113992792
 10
3661.569869687351
 20
1094.6295165226791
 30
0.0
 10
3661.679323842427
 20
1094.6249106264611
 30
0.0
 10
3662.1676816710492
 20
1094.60436023737
 30
0.0
 10
3662.6438213484512
 20
1094.3670507529839
 30
0.0
 10
3663.0132452879752
 20
1094.1829287216519
 30
0.0
 11
3661.569869687351
 21
1094.6295165226791
 31
0.0
 11
3661.7019556855857
 21
1094.6239582649853
 31
0.0
 11
3661.879305370137
 21
1094.6164952843396
 31
0.0
 11
3662.1466781413919
 21
1094.5819303135556
 31
0.0
 11
3662.3720438533333
 21
1094.5025054951429
 31
0.0
 11
3662.6682329595528
 21
1094.3548839306907
 31
0.0
 11
3663.0132452879752
 21
1094.1829287216519
 31
0.0
  0
SPLINE
  5
37D
100
AcDbEntity
  8
0
  6
CONTINUOUS
 62
           3
100
AcDbSpline
210
0.0
220
0.0
230
1.0
 70
           0
 71
           3
 72
           8
 73
           5
 74
           7
 42
0.00000000001
 43
0.00000000001
 44
0.00000000001
 40
0.0
 40
0.0
 40
0.0
 40
0.6415450374773541
 40
1.1579303686103857
 40
1.5357381749070826
 40
1.5357381749070826
 40
1.5357381749070826
 10
3661.569869687351
 20
1089.629521291052
 30
0.0
 10
3661.1795237086171
 20
1089.687150812508
 30
0.0
 10
3660.690884629365
 20
1089.759292035516
 30
0.0
 10
3660.2210119621191
 20
1090.023039566888
 30
0.0
 10
3660.1264938539771
 20
1090.0760941908561
 30
0.0
 11
3661.569869687351
 21
1089.629521291052
 31
0.0
 11
3661.2094282457088
 21
1089.6827357954314
 31
0.0
 11
3660.9087958782484
 21
1089.7271202656573
 31
0.0
 11
3660.6775260473246
 21
1089.789326816594
 31
0.0
 11
3660.4195390523191
 21
1089.9116029296865
 31
0.0
 11
3660.2470142076336
 21
1090.0084440635796
 31
0.0
 11
3660.1264938539771
 21
1090.0760941908561
 31
0.0
  0
SPLINE
  5
37C
100
AcDbEntity
  8
0
  6
CONTINUOUS
 62
           3
100
AcDbSpline
210
0.0
220
0.0
230
1.0
 70
           0
 71
           3
 72
           8
 73
           5
 74
           7
 42
0.00000000001
 43
0.00000000001
 44
0.00000000001
 40
0.0
 40
0.0
 40
0.0
 40
0.3778155284981008
 40
0.8942062233975393
 40
1.5357514174681033
 40
1.5357514174681033
 40
1.5357514174681033
 10
3660.1264938539771
 20
1094.1829287216519
 30
0.0
 10
3660.2210118970388
 20
1094.2359888095359
 30
0.0
 10
3660.6908817949061
 20
1094.4997621300049
 30
0.0
 10
3661.1795227343082
 20
1094.5718943048309
 30
0.0
 10
3661.569869687351
 20
1094.6295165226791
 30
0.0
 11
3660.1264938539771
 21
1094.1829287216519
 31
0.0
 11
3660.2470141544113
 21
1094.2505858326583
 31
0.0
 11
3660.4195389695897
 21
1094.3474369899097
 31
0.0
 11
3660.6775244143328
 21
1094.4697228238674
 31
0.0
 11
3660.9087950979292
 21
1094.5319300455501
 31
0.0
 11
3661.2094275634745
 21
1094.5763087944727
 31
0.0
 11
3661.569869687351
 21
1094.6295165226791
 31
0.0
  0
SPLINE
  5
37B
100
AcDbEntity
  8
0
  6
CONTINUOUS
 62
           3
100
AcDbSpline
210
0.0
220
0.0
230
1.0
 70
           0
 71
           3
 72
           8
 73
           5
 74
           7
 42
0.00000000001
 43
0.00000000001
 44
0.00000000001
 40
0.0
 40
0.0
 40
0.0
 40
0.2779464854658412
 40
0.786284084401998
 40
1.5429642659218508
 40
1.5429642659218508
 40
1.5429642659218508
 10
3670.2301237559691
 20
1094.629516522552
 30
0.0
 10
3670.264340305368
 20
1094.629070827307
 30
0.0
 10
3670.7517530244581
 20
1094.622721923073
 30
0.0
 10
3671.229391504005
 20
1094.394826139112
 30
0.0
 10
3671.6734995893698
 20
1094.1829287216519
 30
0.0
 11
3670.2301237559691
 21
1094.629516522552
 31
0.0
 11
3670.2988605017513
 21
1094.6286211766753
 31
0.0
 11
3670.4366376403004
 21
1094.6268265295355
 31
0.0
 11
3670.7209580094764
 21
1094.6008535356914
 31
0.0
 11
3670.943688348691
 21
1094.5311437670848
 31
0.0
 11
3671.2689927365177
 21
1094.3759311917402
 31
0.0
 11
3671.6734995893698
 21
1094.1829287216519
 31
0.0
  0
SPLINE
  5
37A
100
AcDbEntity
  8
0
  6
CONTINUOUS
 62
           3
100
AcDbSpline
210
0.0
220
0.0
230
1.0
 70
           0
 71
           3
 72
           8
 73
           5
 74
           7
 42
0.00000000001
 43
0.00000000001
 44
0.00000000001
 40
0.0
 40
0.0
 40
0.0
 40
1.2475591451559231
 40
2.2257037084932869
 40
2.9354142011743911
 40
2.9354142011743911
 40
2.9354142011743911
 10
3665.8999967216801
 20
1099.6295117543029
 30
0.0
 10
3665.1443416651769
 20
1099.5754104187249
 30
0.0
 10
3664.1669038516579
 20
1099.505430484488
 30
0.0
 10
3663.226601848959
 20
1099.2425801619979
 30
0.0
 10
3663.0132452878488
 20
1099.1829388544891
 30
0.0
 11
3665.8999967216801
 21
1099.6295117543029
 31
0.0
 11
3665.1962862228415
 21
1099.57912940389
 31
0.0
 11
3664.5964648393337
 21
1099.5361850238073
 31
0.0
 11
3664.1380633113777
 21
1099.475037411265
 31
0.0
 11
3663.6219807028629
 21
1099.3531036522768
 31
0.0
 11
3663.2721074221581
 21
1099.2553007076906
 31
0.0
 11
3663.0132452878488
 21
1099.1829388544891
 31
0.0
  0
SPLINE
  5
379
100
AcDbEntity
  8
0
  6
CONTINUOUS
 62
           3
100
AcDbSpline
210
0.0
220
0.0
230
1.0
 70
           0
 71
           3
 72
           8
 73
           5
 74
           7
 42
0.00000000001
 43
0.00000000001
 44
0.00000000001
 40
0.0
 40
0.0
 40
0.0
 40
1.2321288292606472
 40
2.2113508927681833
 40
2.9387184667235378
 40
2.9387184667235378
 40
2.9387184667235378
 10
3668.7867481555072
 20
1099.1829388544891
 30
0.0
 10
3668.0674885010581
 20
1099.363136137061
 30
0.0
 10
3667.1156260260982
 20
1099.6016077798299
 30
0.0
 10
3666.1387194651611
 20
1099.624032030086
 30
0.0
 10
3665.8999967216801
 20
1099.6295117543029
 30
0.0
 11
3668.7867481555072
 21
1099.1829388544891
 31
0.0
 11
3668.1147128338712
 21
1099.3513049487119
 31
0.0
 11
3667.5371261778619
 21
1099.4960086662365
 31
0.0
 11
3667.0808665470095
 21
1099.5784246974852
 31
0.0
 11
3666.5550879579796
 21
1099.6144745640447
 31
0.0
 11
3666.183130902496
 21
1099.6230125946299
 31
0.0
 11
3665.8999967216801
 21
1099.6295117543029
 31
0.0
  0
SPLINE
  5
378
100
AcDbEntity
  8
0
  6
CONTINUOUS
 62
           3
100
AcDbSpline
210
0.0
220
0.0
230
1.0
 70
           0
 71
           3
 72
           8
 73
           5
 74
           7
 42
0.00000000001
 43
0.00000000001
 44
0.00000000001
 40
0.0
 40
0.0
 40
0.0
 40
0.7273681394901673
 40
1.7065914567876721
 40
2.9387223240345888
 40
2.9387223240345888
 40
2.9387223240345888
 10
3665.8999967216801
 20
1094.6295165226791
 30
0.0
 10
3666.1387195010379
 20
1094.634996061747
 30
0.0
 10
3667.1156271469858
 20
1094.6574195758719
 30
0.0
 10
3668.067488856248
 20
1094.8959001991429
 30
0.0
 10
3668.7867481553681
 20
1095.076104323754
 30
0.0
 11
3665.8999967216801
 21
1094.6295165226791
 31
0.0
 11
3666.1831310149782
 21
1094.6360154643642
 31
0.0
 11
3666.5550883361566
 21
1094.6445532112832
 31
0.0
 11
3667.0808673755164
 21
1094.6806037518047
 31
0.0
 11
3667.5371268719355
 21
1094.7630226441922
 31
0.0
 11
3668.1147131849498
 21
1094.907731841558
 31
0.0
 11
3668.7867481553681
 21
1095.076104323754
 31
0.0
  0
SPLINE
  5
377
100
AcDbEntity
  8
0
  6
CONTINUOUS
 62
           3
100
AcDbSpline
210
0.0
220
0.0
230
1.0
 70
           0
 71
           3
 72
           8
 73
           5
 74
           7
 42
0.00000000001
 43
0.00000000001
 44
0.00000000001
 40
0.0
 40
0.0
 40
0.0
 40
0.709712655636203
 40
1.6878594213852685
 40
2.9354211178793332
 40
2.9354211178793332
 40
2.9354211178793332
 10
3663.0132452878488
 20
1095.076104323655
 30
0.0
 10
3663.2266017037668
 20
1095.0164574885589
 30
0.0
 10
3664.1668989125878
 20
1094.753583966251
 30
0.0
 10
3665.1443400642579
 20
1094.683611790249
 30
0.0
 10
3665.8999967216801
 20
1094.6295165226791
 30
0.0
 11
3663.0132452878488
 21
1095.076104323655
 31
0.0
 11
3663.2721068549281
 21
1095.0037358732466
 31
0.0
 11
3663.6219787243317
 21
1094.9059241922132
 31
0.0
 11
3664.1380594916363
 21
1094.783981239412
 31
0.0
 11
3664.5964614170371
 21
1094.7228328329334
 31
0.0
 11
3665.1962845668086
 21
1094.6798932340275
 31
0.0
 11
3665.8999967216801
 21
1094.6295165226791
 31
0.0
  0
SPLINE
  5
376
100
AcDbEntity
  8
0
  6
CONTINUOUS
 62
           3
100
AcDbSpline
210
0.0
220
0.0
230
1.0
 70
           0
 71
           3
 72
           8
 73
           5
 74
           7
 42
0.00000000001
 43
0.00000000001
 44
0.00000000001
 40
0.0
 40
0.0
 40
0.0
 40
0.277945269552984
 40
0.7862805426554989
 40
1.5429573555003921
 40
1.5429573555003921
 40
1.5429573555003921
 10
3670.2301237560091
 20
1099.6295117543029
 30
0.0
 10
3670.1959072124791
 20
1099.629066049534
 30
0.0
 10
3669.708496915277
 20
1099.6227170419829
 30
0.0
 10
3669.2308572149882
 20
1099.394828998265
 30
0.0
 10
3668.7867481555072
 20
1099.1829388544891
 30
0.0
 11
3670.2301237560091
 21
1099.6295117543029
 31
0.0
 11
3670.1613872230691
 21
1099.6286163920802
 31
0.0
 11
3670.0236107113078
 21
1099.6268217149493
 31
0.0
 11
3669.7392914141333
 21
1099.6008494505074
 31
0.0
 11
3669.5165611146722
 21
1099.5311420031139
 31
0.0
 11
3669.1912559250391
 21
1099.3759347135333
 31
0.0
 11
3668.7867481555072
 21
1099.1829388544891
 31
0.0
  0
SPLINE
  5
375
100
AcDbEntity
  8
0
  6
CONTINUOUS
 62
           3
100
AcDbSpline
210
0.0
220
0.0
230
1.0
 70
           0
 71
           3
 72
           8
 73
           5
 74
           7
 42
0.00000000001
 43
0.00000000001
 44
0.00000000001
 40
0.0
 40
0.0
 40
0.0
 40
0.2779464854691757
 40
0.786284084405306
 40
1.5429642659458183
 40
1.5429642659458183
 40
1.5429642659458183
 10
3670.2301237559691
 20
1094.629516522552
 30
0.0
 10
3670.264340305368
 20
1094.629962218055
 30
0.0
 10
3670.7517530244581
 20
1094.636311122285
 30
0.0
 10
3671.229391504005
 20
1094.864206906246
 30
0.0
 10
3671.6734995893698
 20
1095.076104323754
 30
0.0
 11
3670.2301237559691
 21
1094.629516522552
 31
0.0
 11
3670.2988605017517
 21
1094.6304118686216
 31
0.0
 11
3670.4366376403023
 21
1094.6322065158251
 31
0.0
 11
3670.7209580094768
 21
1094.6581795096668
 31
0.0
 11
3670.9436883486878
 21
1094.7278892782717
 31
0.0
 11
3671.2689927365168
 21
1094.8831018536293
 31
0.0
 11
3671.6734995893698
 21
1095.076104323754
 31
0.0
  0
SPLINE
  5
374
100
AcDbEntity
  8
0
  6
CONTINUOUS
 62
           3
100
AcDbSpline
210
0.0
220
0.0
230
1.0
 70
           0
 71
           3
 72
           8
 73
           5
 74
           7
 42
0.00000000001
 43
0.00000000001
 44
0.00000000001
 40
0.0
 40
0.0
 40
0.0
 40
0.2779462752376977
 40
0.7862820883287625
 40
1.5429577306143634
 40
1.5429577306143634
 40
1.5429577306143634
 10
3661.569869687351
 20
1099.6295117543029
 30
0.0
 10
3661.5356531390371
 20
1099.6290660464199
 30
0.0
 10
3661.0482408408502
 20
1099.6227169692929
 30
0.0
 10
3660.5706021281871
 20
1099.3948289961149
 30
0.0
 10
3660.1264938539771
 20
1099.182938854548
 30
0.0
 11
3661.569869687351
 21
1099.6295117543029
 31
0.0
 11
3661.5011329028098
 21
1099.6286163826687
 31
0.0
 11
3661.363355645813
 21
1099.6268216835317
 31
0.0
 11
3661.079035616267
 21
1099.6008493594909
 31
0.0
 11
3660.856305137554
 21
1099.5311418158453
 31
0.0
 11
3660.5310008119764
 21
1099.3759346656557
 31
0.0
 11
3660.1264938539771
 21
1099.182938854548
 31
0.0
  0
SPLINE
  5
373
100
AcDbEntity
  8
0
  6
CONTINUOUS
 62
           3
100
AcDbSpline
210
0.0
220
0.0
230
1.0
 70
           0
 71
           3
 72
           8
 73
           5
 74
           7
 42
0.00000000001
 43
0.00000000001
 44
0.00000000001
 40
0.0
 40
0.0
 40
0.0
 40
0.2779454797459458
 40
0.7862825386905058
 40
1.5429638907223213
 40
1.5429638907223213
 40
1.5429638907223213
 10
3661.569869687351
 20
1094.6295165226791
 30
0.0
 10
3661.6040862319278
 20
1094.629962214937
 30
0.0
 10
3662.0914969500359
 20
1094.6363110495929
 30
0.0
 10
3662.5691364172012
 20
1094.8642069041
 30
0.0
 10
3663.0132452878488
 20
1095.076104323655
 30
0.0
 11
3661.569869687351
 21
1094.6295165226791
 31
0.0
 11
3661.638606181501
 21
1094.6304118592393
 31
0.0
 11
3661.7763825747961
 21
1094.6322064844044
 31
0.0
 11
3662.0607022116128
 21
1094.6581794186486
 31
0.0
 11
3662.283432371582
 21
1094.7278890910038
 31
0.0
 11
3662.6087376234582
 21
1094.8831018057147
 31
0.0
 11
3663.0132452878488
 21
1095.076104323655
 31
0.0
  0
SPLINE
  5
372
100
AcDbEntity
  8
0
  6
CONTINUOUS
 62
           3
100
AcDbSpline
210
0.0
220
0.0
230
1.0
 70
           0
 71
           3
 72
           8
 73
           5
 74
           7
 42
0.00000000001
 43
0.00000000001
 44
0.00000000001
 40
0.0
 40
0.0
 40
0.0
 40
1.2475604207865669
 40
2.2257060852955748
 40
2.9354176594313226
 40
2.9354176594313226
 40
2.9354176594313226
 10
3665.8999967216801
 20
1112.2295164272971
 30
0.0
 10
3665.1443408647269
 20
1112.1754181257379
 30
0.0
 10
3664.1669013821661
 20
1112.1054420706389
 30
0.0
 10
3663.2266017763682
 20
1111.842580148204
 30
0.0
 10
3663.0132452878488
 20
1111.7829360768981
 30
0.0
 11
3665.8999967216801
 21
1112.2295164272971
 31
0.0
 11
3665.1962853948367
 21
1112.1791368964305
 31
0.0
 11
3664.5964631282131
 21
1112.1361949069487
 31
0.0
 11
3664.1380614015411
 21
1112.0750468974393
 31
0.0
 11
3663.6219797136191
 21
1111.9531085415304
 31
0.0
 11
3663.2721071385517
 21
1111.8553012287091
 31
0.0
 11
3663.0132452878488
 21
1111.7829360768981
 31
0.0
  0
SPLINE
  5
371
100
AcDbEntity
  8
0
  6
CONTINUOUS
 62
           3
100
AcDbSpline
210
0.0
220
0.0
230
1.0
 70
           0
 71
           3
 72
           8
 73
           5
 74
           7
 42
0.00000000001
 43
0.00000000001
 44
0.00000000001
 40
0.0
 40
0.0
 40
0.0
 40
1.2321298483018879
 40
2.2113525386985025
 40
2.938720395417787
 40
2.938720395417787
 40
2.938720395417787
 10
3668.7867481555072
 20
1111.7829360768981
 30
0.0
 10
3668.0674886786492
 20
1111.963136780447
 30
0.0
 10
3667.1156265865379
 20
1112.2016129134649
 30
0.0
 10
3666.1387194830968
 20
1112.2240367956549
 30
0.0
 10
3665.8999967216801
 20
1112.2295164272971
 30
0.0
 11
3668.7867481555072
 21
1111.7829360768981
 31
0.0
 11
3668.1147130094228
 21
1111.9513053650758
 31
0.0
 11
3667.5371265248846
 21
1112.0960118225116
 31
0.0
 11
3667.0808669612561
 21
1112.178429284327
 31
0.0
 11
3666.5550881470654
 21
1112.2144794878664
 31
0.0
 11
3666.1831309587351
 21
1112.2230173766184
 31
0.0
 11
3665.8999967216801
 21
1112.2295164272971
 31
0.0
  0
SPLINE
  5
370
100
AcDbEntity
  8
0
  6
CONTINUOUS
 62
           3
100
AcDbSpline
210
0.0
220
0.0
230
1.0
 70
           0
 71
           3
 72
           8
 73
           5
 74
           7
 42
0.00000000001
 43
0.00000000001
 44
0.00000000001
 40
0.0
 40
0.0
 40
0.0
 40
0.7273675739554801
 40
1.7065896374626948
 40
2.9387184666009043
 40
2.9387184666009043
 40
2.9387184666009043
 10
3665.8999967216801
 20
1107.229521195673
 30
0.0
 10
3666.1387194651611
 20
1107.2350009198949
 30
0.0
 10
3667.1156260260982
 20
1107.2574251701519
 30
0.0
 10
3668.0674885010581
 20
1107.4958968129181
 30
0.0
 10
3668.7867481553681
 20
1107.676094095543
 30
0.0
 11
3665.8999967216801
 21
1107.229521195673
 31
0.0
 11
3666.1831309024951
 21
1107.2360203553496
 31
0.0
 11
3666.5550879579796
 21
1107.2445583859367
 31
0.0
 11
3667.0808665470149
 21
1107.2806082524976
 31
0.0
 11
3667.5371261778855
 21
1107.3630242837498
 31
0.0
 11
3668.1147128338425
 21
1107.5077280012824
 31
0.0
 11
3668.7867481553681
 21
1107.676094095543
 31
0.0
  0
SPLINE
  5
36F
100
AcDbEntity
  8
0
  6
CONTINUOUS
 62
           3
100
AcDbSpline
210
0.0
220
0.0
230
1.0
 70
           0
 71
           3
 72
           8
 73
           5
 74
           7
 42
0.00000000001
 43
0.00000000001
 44
0.00000000001
 40
0.0
 40
0.0
 40
0.0
 40
0.7097104926820835
 40
1.6878550560195698
 40
2.9354142011754929
 40
2.9354142011754929
 40
2.9354142011754929
 10
3663.0132452878488
 20
1107.676094095491
 30
0.0
 10
3663.226601848959
 20
1107.6164527879789
 30
0.0
 10
3664.1669038516579
 20
1107.3536024654879
 30
0.0
 10
3665.1443416651769
 20
1107.283622531251
 30
0.0
 10
3665.8999967216801
 20
1107.229521195673
 30
0.0
 11
3663.0132452878488
 21
1107.676094095491
 31
0.0
 11
3663.2721074221572
 21
1107.6037322422872
 31
0.0
 11
3663.6219807028633
 21
1107.5059292976998
 31
0.0
 11
3664.1380633113781
 21
1107.3839955387111
 31
0.0
 11
3664.5964648393337
 21
1107.3228479261684
 31
0.0
 11
3665.1962862228415
 21
1107.2799035460857
 31
0.0
 11
3665.8999967216801
 21
1107.229521195673
 31
0.0
  0
SPLINE
  5
36E
100
AcDbEntity
  8
0
  6
CONTINUOUS
 62
           3
100
AcDbSpline
210
0.0
220
0.0
230
1.0
 70
           0
 71
           3
 72
           8
 73
           5
 74
           7
 42
0.00000000001
 43
0.00000000001
 44
0.00000000001
 40
0.0
 40
0.0
 40
0.0
 40
0.2779453746522337
 40
0.7862815406660644
 40
1.5429606230903423
 40
1.5429606230903423
 40
1.5429606230903423
 10
3670.2301237560091
 20
1112.2295164272971
 30
0.0
 10
3670.1959072119548
 20
1112.2290707287809
 30
0.0
 10
3669.7084967042961
 20
1112.222721807676
 30
0.0
 10
3669.230857120579
 20
1111.994829858568
 30
0.0
 10
3668.7867481555072
 20
1111.7829360768981
 30
0.0
 11
3670.2301237560091
 21
1112.2295164272971
 31
0.0
 11
3670.1613872424623
 21
1112.2286210779034
 31
0.0
 11
3670.0236107899304
 21
1112.2268264267545
 31
0.0
 11
3669.7392913229364
 21
1112.2008538274108
 31
0.0
 11
3669.5165610932249
 21
1112.131145267537
 31
0.0
 11
3669.1912558724725
 21
1111.9759352653925
 31
0.0
 11
3668.7867481555072
 21
1111.7829360768981
 31
0.0
  0
SPLINE
  5
36D
100
AcDbEntity
  8
0
  6
CONTINUOUS
 62
           3
100
AcDbSpline
210
0.0
220
0.0
230
1.0
 70
           0
 71
           3
 72
           8
 73
           5
 74
           7
 42
0.00000000001
 43
0.00000000001
 44
0.00000000001
 40
0.0
 40
0.0
 40
0.0
 40
0.2779462752402179
 40
0.7862820883285988
 40
1.5429577306520037
 40
1.5429577306520037
 40
1.5429577306520037
 10
3670.2301237560091
 20
1107.229521195673
 30
0.0
 10
3670.264340304328
 20
1107.229966903559
 30
0.0
 10
3670.7517526025099
 20
1107.236315980683
 30
0.0
 10
3671.2293913151698
 20
1107.4642039538669
 30
0.0
 10
3671.6734995893698
 20
1107.676094095543
 30
0.0
 11
3670.2301237560091
 21
1107.229521195673
 31
0.0
 11
3670.2988605405544
 21
1107.2304165673092
 31
0.0
 11
3670.4366377975521
 21
1107.232211266446
 31
0.0
 11
3670.7209578270922
 21
1107.2581835904855
 31
0.0
 11
3670.9436883057979
 21
1107.3278911341299
 31
0.0
 11
3671.2689926313774
 21
1107.4830982843519
 31
0.0
 11
3671.6734995893698
 21
1107.676094095543
 31
0.0
  0
SPLINE
  5
36C
100
AcDbEntity
  8
0
  6
CONTINUOUS
 62
           3
100
AcDbSpline
210
0.0
220
0.0
230
1.0
 70
           0
 71
           3
 72
           8
 73
           5
 74
           7
 42
0.00000000001
 43
0.00000000001
 44
0.00000000001
 40
0.0
 40
0.0
 40
0.0
 40
0.2779463803328297
 40
0.7862830863398919
 40
1.5429609982608989
 40
1.5429609982608989
 40
1.5429609982608989
 10
3661.569869687351
 20
1112.2295164272971
 30
0.0
 10
3661.53565313851
 20
1112.229070725668
 30
0.0
 10
3661.0482406298802
 20
1112.222721734988
 30
0.0
 10
3660.570602033767
 20
1111.9948298564179
 30
0.0
 10
3660.1264938539771
 20
1111.782936076836
 30
0.0
 11
3661.569869687351
 21
1112.2295164272971
 31
0.0
 11
3661.5011329222029
 21
1112.2286210684929
 31
0.0
 11
3661.3633557244411
 21
1112.2268263953383
 31
0.0
 11
3661.0790355250792
 21
1112.2008537363963
 31
0.0
 11
3660.8563051161173
 21
1112.1311450802709
 31
0.0
 11
3660.5310007594067
 21
1111.9759352174856
 31
0.0
 11
3660.1264938539771
 21
1111.782936076836
 31
0.0
  0
SPLINE
  5
36B
100
AcDbEntity
  8
0
  6
CONTINUOUS
 62
           3
100
AcDbSpline
210
0.0
220
0.0
230
1.0
 70
           0
 71
           3
 72
           8
 73
           5
 74
           7
 42
0.00000000001
 43
0.00000000001
 44
0.00000000001
 40
0.0
 40
0.0
 40
0.0
 40
0.277945269553926
 40
0.786280542657322
 40
1.542957355496859
 40
1.542957355496859
 40
1.542957355496859
 10
3661.569869687351
 20
1107.229521195673
 30
0.0
 10
3661.6040862308778
 20
1107.2299669004419
 30
0.0
 10
3662.0914965280881
 20
1107.236315907998
 30
0.0
 10
3662.5691362283692
 20
1107.4642039517171
 30
0.0
 10
3663.0132452878488
 20
1107.676094095491
 30
0.0
 11
3661.569869687351
 21
1107.229521195673
 31
0.0
 11
3661.6386062202891
 21
1107.2304165578962
 31
0.0
 11
3661.7763827320523
 21
1107.2322112350284
 31
0.0
 11
3662.0607020292296
 21
1107.258183499473
 31
0.0
 11
3662.2834323286907
 21
1107.3278909468677
 31
0.0
 11
3662.6087375183197
 21
1107.4830982364483
 31
0.0
 11
3663.0132452878488
 21
1107.676094095491
 31
0.0
  0
SPLINE
  5
36A
100
AcDbEntity
  8
0
  6
CONTINUOUS
 62
           3
100
AcDbSpline
210
0.0
220
0.0
230
1.0
 70
           0
 71
           3
 72
           8
 73
           5
 74
           7
 42
0.00000000001
 43
0.00000000001
 44
0.00000000001
 40
0.0
 40
0.0
 40
0.0
 40
1.2475616964941054
 40
2.2257084622430887
 40
2.9354211178802099
 40
2.9354211178802099
 40
2.9354211178802099
 10
3665.8999967216801
 20
1107.229521195673
 30
0.0
 10
3665.1443400642579
 20
1107.1754259281031
 30
0.0
 10
3664.1668989125878
 20
1107.1054537520999
 30
0.0
 10
3663.2266017037668
 20
1106.8425802297929
 30
0.0
 10
3663.0132452878488
 20
1106.7829333946929
 30
0.0
 11
3665.8999967216801
 21
1107.229521195673
 31
0.0
 11
3665.1962845668086
 21
1107.1791444843245
 31
0.0
 11
3664.5964614170371
 21
1107.136204885418
 31
0.0
 11
3664.1380594916368
 21
1107.0750564789391
 31
0.0
 11
3663.6219787243322
 21
1106.9531135261382
 31
0.0
 11
3663.272106854929
 21
1106.8553018451043
 31
0.0
 11
3663.0132452878488
 21
1106.7829333946929
 31
0.0
  0
SPLINE
  5
369
100
AcDbEntity
  8
0
  6
CONTINUOUS
 62
           3
100
AcDbSpline
210
0.0
220
0.0
230
1.0
 70
           0
 71
           3
 72
           8
 73
           5
 74
           7
 42
0.00000000001
 43
0.00000000001
 44
0.00000000001
 40
0.0
 40
0.0
 40
0.0
 40
1.2321308673588267
 40
2.2113541846560385
 40
2.9387223241462763
 40
2.9387223241462763
 40
2.9387223241462763
 10
3668.7867481555072
 20
1106.7829333946929
 30
0.0
 10
3668.067488856248
 20
1106.96313751921
 30
0.0
 10
3667.1156271469858
 20
1107.201618142479
 30
0.0
 10
3666.1387195010379
 20
1107.2240416566001
 30
0.0
 10
3665.8999967216801
 20
1107.229521195673
 30
0.0
 11
3668.7867481555072
 21
1106.7829333946929
 31
0.0
 11
3668.1147131849793
 21
1106.9513058768196
 31
0.0
 11
3667.5371268719136
 21
1107.0960150741651
 31
0.0
 11
3667.0808673755105
 21
1107.1784339665469
 31
0.0
 11
3666.5550883361575
 21
1107.2144845070654
 31
0.0
 11
3666.1831310149778
 21
1107.2230222539847
 31
0.0
 11
3665.8999967216801
 21
1107.229521195673
 31
0.0
  0
SPLINE
  5
368
100
AcDbEntity
  8
0
  6
CONTINUOUS
 62
           3
100
AcDbSpline
210
0.0
220
0.0
230
1.0
 70
           0
 71
           3
 72
           8
 73
           5
 74
           7
 42
0.00000000001
 43
0.00000000001
 44
0.00000000001
 40
0.0
 40
0.0
 40
0.0
 40
0.7273681394901935
 40
1.7065914567876983
 40
2.9387223240297522
 40
2.9387223240297522
 40
2.9387223240297522
 10
3665.8999967216801
 20
1102.2295110628879
 30
0.0
 10
3666.1387195010379
 20
1102.234990601957
 30
0.0
 10
3667.1156271469858
 20
1102.2574141160819
 30
0.0
 10
3668.067488856248
 20
1102.4958947393529
 30
0.0
 10
3668.7867481553681
 20
1102.6760988639439
 30
0.0
 11
3665.8999967216801
 21
1102.2295110628879
 31
0.0
 11
3666.1831310149782
 21
1102.2360100045737
 31
0.0
 11
3666.555088336157
 21
1102.2445477514932
 31
0.0
 11
3667.0808673755164
 21
1102.2805982920149
 31
0.0
 11
3667.5371268719364
 21
1102.3630171844022
 31
0.0
 11
3668.1147131849498
 21
1102.507726381763
 31
0.0
 11
3668.7867481553681
 21
1102.6760988639439
 31
0.0
  0
SPLINE
  5
367
100
AcDbEntity
  8
0
  6
CONTINUOUS
 62
           3
100
AcDbSpline
210
0.0
220
0.0
230
1.0
 70
           0
 71
           3
 72
           8
 73
           5
 74
           7
 42
0.00000000001
 43
0.00000000001
 44
0.00000000001
 40
0.0
 40
0.0
 40
0.0
 40
0.7097107189138248
 40
1.6878556121191339
 40
2.9354150974121125
 40
2.9354150974121125
 40
2.9354150974121125
 10
3663.0132452878488
 20
1102.6760988638659
 30
0.0
 10
3663.2266018694991
 20
1102.616457721326
 30
0.0
 10
3664.1669045504682
 20
1102.3536079615831
 30
0.0
 10
3665.1443418916888
 20
1102.2836192184991
 30
0.0
 10
3665.8999967216801
 20
1102.2295110628879
 30
0.0
 11
3663.0132452878488
 21
1102.6760988638659
 31
0.0
 11
3663.2721075078043
 21
1102.603737193843
 31
0.0
 11
3663.6219810043704
 21
1102.5059344688545
 31
0.0
 11
3664.1380638628602
 21
1102.3839999854722
 31
0.0
 11
3664.5964653461333
 21
1102.3228495498684
 31
0.0
 11
3665.1962864627976
 21
1102.2798997624386
 31
0.0
 11
3665.8999967216801
 21
1102.2295110628879
 31
0.0
  0
SPLINE
  5
366
100
AcDbEntity
  8
0
  6
CONTINUOUS
 62
           3
100
AcDbSpline
210
0.0
220
0.0
230
1.0
 70
           0
 71
           3
 72
           8
 73
           5
 74
           7
 42
0.00000000001
 43
0.00000000001
 44
0.00000000001
 40
0.0
 40
0.0
 40
0.0
 40
0.2779454797516385
 40
0.7862825386958017
 40
1.5429638907284797
 40
1.5429638907284797
 40
1.5429638907284797
 10
3670.2301237560091
 20
1107.229521195673
 30
0.0
 10
3670.1959072114291
 20
1107.2290755034139
 30
0.0
 10
3669.708496493316
 20
1107.2227266687589
 30
0.0
 10
3669.230857026158
 20
1106.99483081425
 30
0.0
 10
3668.7867481555072
 20
1106.7829333946929
 30
0.0
 11
3670.2301237560091
 21
1107.229521195673
 31
0.0
 11
3670.1613872618559
 21
1107.2286258591118
 31
0.0
 11
3670.0236108685563
 21
1107.226831233947
 31
0.0
 11
3669.7392912317409
 21
1107.2008582997032
 31
0.0
 11
3669.5165610717731
 21
1107.1311486273476
 31
0.0
 11
3669.1912558198992
 21
1106.9759359126351
 31
0.0
 11
3668.7867481555072
 21
1106.7829333946929
 31
0.0
  0
SPLINE
  5
365
100
AcDbEntity
  8
0
  6
CONTINUOUS
 62
           3
100
AcDbSpline
210
0.0
220
0.0
230
1.0
 70
           0
 71
           3
 72
           8
 73
           5
 74
           7
 42
0.00000000001
 43
0.00000000001
 44
0.00000000001
 40
0.0
 40
0.0
 40
0.0
 40
0.277946485427534
 40
0.7862840843632104
 40
1.5429642658955469
 40
1.5429642658955469
 40
1.5429642658955469
 10
3670.2301237560091
 20
1102.2295110628879
 30
0.0
 10
3670.264340305368
 20
1102.229956758267
 30
0.0
 10
3670.7517530244581
 20
1102.2363056624949
 30
0.0
 10
3671.229391504005
 20
1102.4642014464539
 30
0.0
 10
3671.6734995893698
 20
1102.6760988639439
 30
0.0
 11
3670.2301237560091
 21
1102.2295110628879
 31
0.0
 11
3670.2988605017576
 21
1102.2304064088644
 31
0.0
 11
3670.436637640285
 21
1102.2322010560363
 31
0.0
 11
3670.7209580094723
 21
1102.2581740498767
 31
0.0
 11
3670.9436883486892
 21
1102.3278838184813
 31
0.0
 11
3671.2689927365172
 21
1102.4830963938332
 31
0.0
 11
3671.6734995893698
 21
1102.6760988639439
 31
0.0
  0
SPLINE
  5
364
100
AcDbEntity
  8
0
  6
CONTINUOUS
 62
           3
100
AcDbSpline
210
0.0
220
0.0
230
1.0
 70
           0
 71
           3
 72
           8
 73
           5
 74
           7
 42
0.00000000001
 43
0.00000000001
 44
0.00000000001
 40
0.0
 40
0.0
 40
0.0
 40
0.2779464854379138
 40
0.7862840843772547
 40
1.5429642658581173
 40
1.5429642658581173
 40
1.5429642658581173
 10
3661.569869687351
 20
1107.229521195673
 30
0.0
 10
3661.5356531379871
 20
1107.229075500301
 30
0.0
 10
3661.0482404188861
 20
1107.222726596071
 30
0.0
 10
3660.570601939346
 20
1106.9948308121061
 30
0.0
 10
3660.1264938539771
 20
1106.78293339474
 30
0.0
 11
3661.569869687351
 21
1107.229521195673
 31
0.0
 11
3661.501132941597
 21
1107.2286258497015
 31
0.0
 11
3661.3633558030624
 21
1107.226831202531
 31
0.0
 11
3661.079035433871
 21
1107.2008582086878
 31
0.0
 11
3660.8563050946486
 21
1107.1311484400781
 31
0.0
 11
3660.5310007068288
 21
1106.9759358647573
 31
0.0
 11
3660.1264938539771
 21
1106.78293339474
 31
0.0
  0
SPLINE
  5
363
100
AcDbEntity
  8
0
  6
CONTINUOUS
 62
           3
100
AcDbSpline
210
0.0
220
0.0
230
1.0
 70
           0
 71
           3
 72
           8
 73
           5
 74
           7
 42
0.00000000001
 43
0.00000000001
 44
0.00000000001
 40
0.0
 40
0.0
 40
0.0
 40
0.2779454797459606
 40
0.7862825386896659
 40
1.5429638907218732
 40
1.5429638907218732
 40
1.5429638907218732
 10
3661.569869687351
 20
1102.2295110628879
 30
0.0
 10
3661.6040862319278
 20
1102.2299567551449
 30
0.0
 10
3662.0914969500359
 20
1102.2363055898049
 30
0.0
 10
3662.5691364172012
 20
1102.4642014443079
 30
0.0
 10
3663.0132452878488
 20
1102.6760988638659
 30
0.0
 11
3661.569869687351
 21
1102.2295110628879
 31
0.0
 11
3661.638606181501
 21
1102.2304063994479
 31
0.0
 11
3661.776382574797
 21
1102.2322010246137
 31
0.0
 11
3662.0607022116133
 21
1102.2581739588595
 31
0.0
 11
3662.283432371582
 21
1102.3278836312138
 31
0.0
 11
3662.6087376234582
 21
1102.483096345924
 31
0.0
 11
3663.0132452878488
 21
1102.6760988638659
 31
0.0
  0
SPLINE
  5
362
100
AcDbEntity
  8
0
  6
CONTINUOUS
 62
           3
100
AcDbSpline
210
0.0
220
0.0
230
1.0
 70
           0
 71
           3
 72
           8
 73
           5
 74
           7
 42
0.00000000001
 43
0.00000000001
 44
0.00000000001
 40
0.0
 40
0.0
 40
0.0
 40
0.4813884775060684
 40
1.3325655942402861
 40
2.5594910572545122
 40
2.5594910572545122
 40
2.5594910572545122
 10
3663.399996777558
 20
1118.829516391532
 30
0.0
 10
3663.4592615843999
 20
1118.8299620901839
 30
0.0
 10
3664.3034817008361
 20
1118.8363110144589
 30
0.0
 10
3665.1307775679652
 20
1119.0642029603589
 30
0.0
 10
3665.8999967216801
 20
1119.276096741926
 30
0.0
 11
3663.399996777558
 21
1118.829516391532
 31
0.0
 11
3663.5206888783728
 21
1118.8304240517398
 31
0.0
 11
3663.7642355671351
 21
1118.8322556350599
 31
0.0
 11
3664.2533839007137
 21
1118.8586329292737
 31
0.0
 11
3664.6423366340487
 21
1118.9296540531175
 31
0.0
 11
3665.2009721229151
 21
1119.0835391789403
 31
0.0
 11
3665.8999967216801
 21
1119.276096741926
 31
0.0
  0
SPLINE
  5
361
100
AcDbEntity
  8
0
  6
CONTINUOUS
 62
           3
100
AcDbSpline
210
0.0
220
0.0
230
1.0
 70
           0
 71
           3
 72
           8
 73
           5
 74
           7
 42
0.00000000001
 43
0.00000000001
 44
0.00000000001
 40
0.0
 40
0.0
 40
0.0
 40
0.4813883392833031
 40
1.3325653926424179
 40
2.5594910488302638
 40
2.5594910488302638
 40
2.5594910488302638
 10
3668.399996665767
 20
1118.829516391532
 30
0.0
 10
3668.45926147195
 20
1118.82996208994
 30
0.0
 10
3669.3034813132958
 20
1118.8363110086959
 30
0.0
 10
3670.1307773327849
 20
1119.0642029601879
 30
0.0
 10
3670.899996609869
 20
1119.276096741934
 30
0.0
 11
3668.399996665767
 21
1118.829516391532
 31
0.0
 11
3668.5206887308859
 21
1118.8304240509806
 31
0.0
 11
3668.764235313879
 21
1118.8322556325106
 31
0.0
 11
3669.2533835507475
 21
1118.8586329216919
 31
0.0
 11
3669.6423362625192
 21
1118.929654036865
 31
0.0
 11
3670.2009718844897
 21
1119.0835391747937
 31
0.0
 11
3670.899996609869
 21
1119.276096741934
 31
0.0
  0
SPLINE
  5
360
100
AcDbEntity
  8
0
  6
CONTINUOUS
 62
           3
100
AcDbSpline
210
0.0
220
0.0
230
1.0
 70
           0
 71
           3
 72
           8
 73
           5
 74
           7
 42
0.00000000001
 43
0.00000000001
 44
0.00000000001
 40
0.0
 40
0.0
 40
0.0
 40
0.0169507227490158
 40
0.1476151553704312
 40
0.4465803504019732
 40
0.4465803504019732
 40
0.4465803504019732
 10
3660.8999968334379
 20
1118.829516391532
 30
0.0
 10
3660.8999968334379
 20
1118.8351248168151
 30
0.0
 10
3660.8999968334379
 20
1118.857809411747
 30
0.0
 10
3660.8999968334379
 20
1119.0964536820579
 30
0.0
 10
3660.8999968334779
 20
1119.276096741934
 30
0.0
 11
3660.8999968334379
 21
1118.829516391532
 31
0.0
 11
3660.8999968334383
 21
1118.8343739313639
 31
0.0
 11
3660.8999968334379
 21
1118.8377297002935
 31
0.0
 11
3660.8999968334379
 21
1118.87093436739
 31
0.0
 11
3660.8999968334374
 21
1118.9303889457724
 31
0.0
 11
3660.8999968334474
 21
1119.0998482629557
 31
0.0
 11
3660.8999968334779
 21
1119.276096741934
 31
0.0
  0
SPLINE
  5
35F
100
AcDbEntity
  8
0
  6
CONTINUOUS
 62
           3
100
AcDbSpline
210
0.0
220
0.0
230
1.0
 70
           0
 71
           3
 72
           8
 73
           5
 74
           7
 42
0.00000000001
 43
0.00000000001
 44
0.00000000001
 40
0.0
 40
0.0
 40
0.0
 40
0.298965195031542
 40
0.4296296276529574
 40
0.4465803504019732
 40
0.4465803504019732
 40
0.4465803504019732
 10
3670.899996609869
 20
1119.276096741934
 30
0.0
 10
3670.8999966099159
 20
1119.0964536820579
 30
0.0
 10
3670.8999966099159
 20
1118.857809411747
 30
0.0
 10
3670.8999966099159
 20
1118.8351248168151
 30
0.0
 10
3670.8999966099159
 20
1118.829516391532
 30
0.0
 11
3670.899996609869
 21
1119.276096741934
 31
0.0
 11
3670.8999966099045
 21
1119.0998482629554
 31
0.0
 11
3670.8999966099154
 21
1118.9303889457724
 31
0.0
 11
3670.8999966099159
 21
1118.87093436739
 31
0.0
 11
3670.8999966099159
 21
1118.8377297002935
 31
0.0
 11
3670.8999966099159
 21
1118.8343739313639
 31
0.0
 11
3670.8999966099159
 21
1118.829516391532
 31
0.0
  0
CIRCLE
  5
35E
100
AcDbEntity
  8
1
  6
CONTINUOUS
 62
           4
100
AcDbCircle
 10
-0.000000000002
 20
5610.000000000001
 40
110.700000000001
  0
CIRCLE
  5
35D
100
AcDbEntity
  8
1
  6
CONTINUOUS
 62
           4
100
AcDbCircle
 10
-0.000000000002
 20
5610.000000000001
 40
84.123
  0
CIRCLE
  5
35C
100
AcDbEntity
  8
1
  6
CONTINUOUS
 62
           7
100
AcDbCircle
 10
0.000000000001
 20
5610.000000000001
 40
317.5
  0
CIRCLE
  5
35B
100
AcDbEntity
  8
1
  6
CONTINUOUS
 62
           7
100
AcDbCircle
 10
4050.000000000003
 20
334.62951711863
 40
15.0
  0
CIRCLE
  5
35A
100
AcDbEntity
  8
1
  6
CONTINUOUS
 62
           2
100
AcDbCircle
 10
4050.000000000003
 20
334.62951711863
 40
8.350000000001
  0
CIRCLE
  5
359
100
AcDbEntity
  8
1
  6
CONTINUOUS
 62
           7
100
AcDbCircle
 10
4050.000000000003
 20
334.62951711863
 40
7.5
  0
CIRCLE
  5
358
100
AcDbEntity
  8
1
  6
CONTINUOUS
 62
           3
100
AcDbCircle
 10
8.472255321879
 20
1029.83036544568
 40
40.0
  0
ARC
  5
357
100
AcDbEntity
  8
0
  6
CONTINUOUS
 62
           3
100
AcDbCircle
 10
3665.89999672168
 20
1089.629517118852
 40
4.0
100
AcDbArc
 50
180.0
 51
0.0
  0
ARC
  5
356
100
AcDbEntity
  8
0
  6
CONTINUOUS
 62
           3
100
AcDbCircle
 10
3665.89999672168
 20
1049.629517118689
 40
45.999999999971
100
AcDbArc
 50
180.0
 51
0.0
  0
ARC
  5
355
100
AcDbEntity
  8
0
  6
CONTINUOUS
 62
           3
100
AcDbCircle
 10
3665.89999672168
 20
1049.629517118689
 40
53.999999999965
100
AcDbArc
 50
180.0
 51
0.0
  0
ARC
  5
354
100
AcDbEntity
  8
0
  6
CONTINUOUS
 62
           3
100
AcDbCircle
 10
3659.426494029876
 20
1124.629517118628
 40
0.900000000001
100
AcDbArc
 50
-117.26604445033
 51
-90.0
  0
ARC
  5
353
100
AcDbEntity
  8
0
  6
CONTINUOUS
 62
           3
100
AcDbCircle
 10
3672.373499413467
 20
1124.629517118628
 40
0.900000000003
100
AcDbArc
 50
-90.0
 51
-62.733955549592
  0
ARC
  5
352
100
AcDbEntity
  8
0
  6
CONTINUOUS
 62
           3
100
AcDbCircle
 10
3607.899996721819
 20
1265.62951711851
 40
0.999999999994
100
AcDbArc
 50
-90.0
 51
90.0
  0
ARC
  5
351
100
AcDbEntity
  8
0
  6
CONTINUOUS
 62
           3
100
AcDbCircle
 10
3723.899996721527
 20
1265.62951711851
 40
1.0
100
AcDbArc
 50
90.0
 51
-90.0
  0
ARC
  5
350
100
AcDbEntity
  8
0
  6
CONTINUOUS
 62
           3
100
AcDbCircle
 10
3723.899996721527
 20
1243.629517118628
 40
1.0
100
AcDbArc
 50
90.0
 51
-90.0
  0
ARC
  5
34F
100
AcDbEntity
  8
0
  6
CONTINUOUS
 62
           3
100
AcDbCircle
 10
3723.899996721527
 20
1165.629517118692
 40
0.999999999997
100
AcDbArc
 50
90.0
 51
-90.0
  0
ARC
  5
34E
100
AcDbEntity
  8
0
  6
CONTINUOUS
 62
           3
100
AcDbCircle
 10
3723.899996721527
 20
1143.629517118809
 40
1.0
100
AcDbArc
 50
90.0
 51
-90.0
  0
ARC
  5
34D
100
AcDbEntity
  8
0
  6
CONTINUOUS
 62
           3
100
AcDbCircle
 10
3607.899996721819
 20
1143.629517118809
 40
0.999999999997
100
AcDbArc
 50
-90.0
 51
90.0
  0
ARC
  5
34C
100
AcDbEntity
  8
0
  6
CONTINUOUS
 62
           3
100
AcDbCircle
 10
3607.899996721819
 20
1165.629517118692
 40
1.0
100
AcDbArc
 50
-90.0
 51
90.0
  0
ARC
  5
34B
100
AcDbEntity
  8
0
  6
CONTINUOUS
 62
           3
100
AcDbCircle
 10
3607.899996721819
 20
1243.629517118628
 40
0.999999999997
100
AcDbArc
 50
-90.0
 51
90.0
  0
ARC
  5
34A
100
AcDbEntity
  8
0
  6
CONTINUOUS
 62
           3
100
AcDbCircle
 10
3603.399996721829
 20
1102.629517118744
 40
2.49999999999
100
AcDbArc
 50
0.0
 51
180.0
  0
ARC
  5
349
100
AcDbEntity
  8
0
  6
CONTINUOUS
 62
           3
100
AcDbCircle
 10
3603.399996721829
 20
1366.629517118529
 40
2.5
100
AcDbArc
 50
180.0
 51
0.0
  0
ARC
  5
348
100
AcDbEntity
  8
0
  6
CONTINUOUS
 62
           3
100
AcDbCircle
 10
3728.399996721519
 20
1366.629517118529
 40
2.499999999992
100
AcDbArc
 50
180.0
 51
0.0
  0
ARC
  5
347
100
AcDbEntity
  8
0
  6
CONTINUOUS
 62
           3
100
AcDbCircle
 10
3728.399996721519
 20
1102.629517118744
 40
2.5
100
AcDbArc
 50
0.0
 51
180.0
  0
ARC
  5
346
100
AcDbEntity
  8
1
  6
CONTINUOUS
 62
           3
100
AcDbCircle
 10
4170.163567691046
 20
1659.629517118631
 40
5.871834995066
100
AcDbArc
 50
-90.0
 51
0.0
  0
ARC
  5
345
100
AcDbEntity
  8
1
  6
CONTINUOUS
 62
           3
100
AcDbCircle
 10
4170.163567691046
 20
1659.629517118631
 40
5.871834995068
100
AcDbArc
 50
38.59971391793
 51
90.0
  0
ARC
  5
344
100
AcDbEntity
  8
1
  6
CONTINUOUS
 62
           3
100
AcDbCircle
 10
4170.163567691046
 20
1659.629517118631
 40
5.87183499506
100
AcDbArc
 50
0.0
 51
38.59971391793
  0
ARC
  5
343
100
AcDbEntity
  8
1
  6
CONTINUOUS
 62
           3
100
AcDbCircle
 10
4170.163567691046
 20
1659.629517118631
 40
9.5
100
AcDbArc
 50
0.0
 51
125.91695737144
  0
ARC
  5
342
100
AcDbEntity
  8
1
  6
CONTINUOUS
 62
           3
100
AcDbCircle
 10
4170.163567691046
 20
1659.629517118631
 40
9.499999999997
100
AcDbArc
 50
-124.797812779176
 51
0.0
  0
ARC
  5
341
100
AcDbEntity
  8
1
  6
CONTINUOUS
 62
           7
100
AcDbCircle
 10
-39.999999999999
 20
5574.999999999999
 40
454.999999999998
100
AcDbArc
 50
-4.148070782362
 51
1.333022116547
  0
ARC
  5
340
100
AcDbEntity
  8
1
  6
CONTINUOUS
 62
           7
100
AcDbCircle
 10
54.999999999999
 20
5594.999999999999
 40
360.000000000001
100
AcDbArc
 50
73.746287853067
 51
93.901683355293
  0
ARC
  5
33F
100
AcDbEntity
  8
1
  6
CONTINUOUS
 62
           7
100
AcDbCircle
 10
-37.231092924514
 20
5657.499999999999
 40
542.507066171854
100
AcDbArc
 50
-174.449140676885
 51
-90.292433754283
  0
ARC
  5
33E
100
AcDbEntity
  8
1
  6
CONTINUOUS
 62
           7
100
AcDbCircle
 10
-577.680202350803
 20
5610.000000000001
 40
5.0
100
AcDbArc
 50
90.0
 51
95.047515519199
  0
ARC
  5
33D
100
AcDbEntity
  8
1
  6
CONTINUOUS
 62
           7
100
AcDbCircle
 10
-577.680202350803
 20
5610.000000000001
 40
5.000000000001
100
AcDbArc
 50
-84.421966108667
 51
90.0
  0
ARC
  5
33C
100
AcDbEntity
  8
1
  6
CONTINUOUS
 62
           7
100
AcDbCircle
 10
-39.999999999999
 20
5659.999999999999
 40
540.0
100
AcDbArc
 50
180.0
 51
-175.217743666854
  0
ARC
  5
33B
100
AcDbEntity
  8
1
  6
CONTINUOUS
 62
           7
100
AcDbCircle
 10
-42.747816968457
 20
5572.5
 40
457.508251836064
100
AcDbArc
 50
-89.655876673074
 51
-5.063201692938
  0
ARC
  5
33A
100
AcDbEntity
  8
1
  6
CONTINUOUS
 62
           7
100
AcDbCircle
 10
413.419036500111
 20
5537.103069526534
 40
5.000000000001
100
AcDbArc
 50
85.537115658268
 51
90.0
  0
ARC
  5
339
100
AcDbEntity
  8
1
  6
CONTINUOUS
 62
           7
100
AcDbCircle
 10
413.419036500111
 20
5537.103069526534
 40
5.0
100
AcDbArc
 50
90.0
 51
-95.092511460494
  0
ARC
  5
338
100
AcDbEntity
  8
1
  6
CONTINUOUS
 62
           7
100
AcDbCircle
 10
398.7152245979
 20
5702.05066267714
 40
5.0
100
AcDbArc
 50
107.69717509891
 51
-73.098606012767
  0
ARC
  5
337
100
AcDbEntity
  8
1
  6
CONTINUOUS
 62
           7
100
AcDbCircle
 10
54.999999999999
 20
5594.999999999999
 40
360.000000000001
100
AcDbArc
 50
0.0
 51
16.503503431389
  0
ARC
  5
336
100
AcDbEntity
  8
1
  6
CONTINUOUS
 62
           7
100
AcDbCircle
 10
54.999999999999
 20
5594.999999999999
 40
360.000000000001
100
AcDbArc
 50
18.095065654746
 51
72.15472562971
  0
ARC
  5
335
100
AcDbEntity
  8
1
  6
CONTINUOUS
 62
           7
100
AcDbCircle
 10
160.551161566788
 20
5939.178663330401
 40
5.000000000001
100
AcDbArc
 50
163.348397297217
 51
-17.447383814428
  0
ARC
  5
334
100
AcDbEntity
  8
1
  6
CONTINUOUS
 62
           7
100
AcDbCircle
 10
54.999999999999
 20
5594.999999999999
 40
360.0
100
AcDbArc
 50
-1.498629881627
 51
0.0
  0
ARC
  5
333
100
AcDbEntity
  8
1
  6
CONTINUOUS
 62
           7
100
AcDbCircle
 10
-0.000000000002
 20
5610.000000000001
 40
125.0
100
AcDbArc
 50
90.0
 51
-19.47546158221
  0
ARC
  5
332
100
AcDbEntity
  8
1
  6
CONTINUOUS
 62
           7
100
AcDbCircle
 10
-0.000000000002
 20
5610.000000000001
 40
125.0
100
AcDbArc
 50
19.47546158221
 51
90.0
  0
ARC
  5
331
100
AcDbEntity
  8
7
  6
CONTINUOUS
 62
           7
100
AcDbCircle
 10
4251.200000000003
 20
3161.929517118626
 40
3.200000000006
100
AcDbArc
 50
90.0
 51
180.0
  0
ARC
  5
330
100
AcDbEntity
  8
7
  6
CONTINUOUS
 62
           7
100
AcDbCircle
 10
4252.076813000004
 20
3167.129517118632
 40
2.0
100
AcDbArc
 50
-90.0
 51
-55.000000000102
  0
ARC
  5
32F
100
AcDbEntity
  8
7
  6
CONTINUOUS
 62
           7
100
AcDbCircle
 10
4272.700000000003
 20
3183.670651118627
 40
1.999999999999
100
AcDbArc
 50
-54.999999999941
 51
0.0
  0
ARC
  5
32E
100
AcDbEntity
  8
7
  6
CONTINUOUS
 62
           7
100
AcDbCircle
 10
4277.900000000004
 20
3183.429517118626
 40
3.200000000003
100
AcDbArc
 50
90.0
 51
180.0
  0
ARC
  5
32D
100
AcDbEntity
  8
7
  6
CONTINUOUS
 62
           7
100
AcDbCircle
 10
4449.800000000003
 20
3183.670651118627
 40
2.0
100
AcDbArc
 50
180.0
 51
-125.000000000016
  0
ARC
  5
32C
100
AcDbEntity
  8
7
  6
CONTINUOUS
 62
           7
100
AcDbCircle
 10
4444.600000000005
 20
3183.429517118626
 40
3.199999999998
100
AcDbArc
 50
0.0
 51
90.0
  0
ARC
  5
32B
100
AcDbEntity
  8
7
  6
CONTINUOUS
 62
           7
100
AcDbCircle
 10
4465.800000000003
 20
3161.74087411863
 40
6.200000000001
100
AcDbArc
 50
0.0
 51
57.318084999993
  0
ARC
  5
32A
100
AcDbEntity
  8
7
  6
CONTINUOUS
 62
           7
100
AcDbCircle
 10
108.800000000001
 20
3162.229517118631
 40
3.2
100
AcDbArc
 50
0.0
 51
90.0
  0
ARC
  5
329
100
AcDbEntity
  8
7
  6
CONTINUOUS
 62
           7
100
AcDbCircle
 10
107.923187000002
 20
3167.429517118631
 40
1.999999999999
100
AcDbArc
 50
-125.00000000002
 51
-90.0
  0
ARC
  5
328
100
AcDbEntity
  8
7
  6
CONTINUOUS
 62
           7
100
AcDbCircle
 10
87.300000000001
 20
3183.970651118631
 40
2.0
100
AcDbArc
 50
180.0
 51
-124.999999999982
  0
ARC
  5
327
100
AcDbEntity
  8
7
  6
CONTINUOUS
 62
           7
100
AcDbCircle
 10
82.250000000003
 20
3183.579517118629
 40
3.053686296919
100
AcDbArc
 50
2.815556684249
 51
92.815556684239
  0
ARC
  5
326
100
AcDbEntity
  8
7
  6
CONTINUOUS
 62
           7
100
AcDbCircle
 10
-89.799999999999
 20
3183.970651118631
 40
2.000000000001
100
AcDbArc
 50
-55.000000000017
 51
0.0
  0
ARC
  5
325
100
AcDbEntity
  8
7
  6
CONTINUOUS
 62
           7
100
AcDbCircle
 10
-84.75
 20
3183.579517118629
 40
3.05368629692
100
AcDbArc
 50
87.184443315761
 51
177.184443315751
  0
ARC
  5
324
100
AcDbEntity
  8
7
  6
CONTINUOUS
 62
           7
100
AcDbCircle
 10
-105.799999999999
 20
3162.04087411863
 40
6.2
100
AcDbArc
 50
122.681914999998
 51
180.0
  0
ARC
  5
323
100
AcDbEntity
  8
1
  6
CONTINUOUS
 62
           7
100
AcDbCircle
 10
3652.000000000004
 20
1491.379517118632
 40
37.0
100
AcDbArc
 50
180.0
 51
-90.0
  0
ARC
  5
322
100
AcDbEntity
  8
1
  6
CONTINUOUS
 62
           7
100
AcDbCircle
 10
3652.000000000004
 20
1491.379517118632
 40
17.0
100
AcDbArc
 50
180.0
 51
-90.0
  0
ARC
  5
321
100
AcDbEntity
  8
1
  6
CONTINUOUS
 62
           3
100
AcDbCircle
 10
8.472255321879
 20
1029.83036544568
 40
28.750000000008
100
AcDbArc
 50
83.827497999998
 51
96.17250199999
  0
ARC
  5
320
100
AcDbEntity
  8
1
  6
CONTINUOUS
 62
           3
100
AcDbCircle
 10
8.472255321879
 20
1029.83036544568
 40
28.749999999989
100
AcDbArc
 50
-96.172501999994
 51
-83.827497999994
  0
ARC
  5
31F
100
AcDbEntity
  8
1
  6
CONTINUOUS
 62
           3
100
AcDbCircle
 10
8.472255321879
 20
1029.83036544568
 40
10.75
100
AcDbArc
 50
0.0
 51
61.226493000001
  0
ARC
  5
31E
100
AcDbEntity
  8
1
  6
CONTINUOUS
 62
           3
100
AcDbCircle
 10
8.472255321879
 20
1029.83036544568
 40
10.750000000001
100
AcDbArc
 50
-61.226493000026
 51
0.0
  0
ARC
  5
31D
100
AcDbEntity
  8
1
  6
CONTINUOUS
 62
           3
100
AcDbCircle
 10
8.472255321879
 20
1029.83036544568
 40
10.74999999999
100
AcDbArc
 50
118.773506999972
 51
-118.773506999946
  0
ARC
  5
31C
100
AcDbEntity
  8
1
  6
CONTINUOUS
 62
           3
100
AcDbCircle
 10
12.510557321879
 20
1029.83036544568
 40
10.0
100
AcDbArc
 50
174.993206999976
 51
-174.993207000022
  0
ARC
  5
31B
100
AcDbEntity
  8
1
  6
CONTINUOUS
 62
           3
100
AcDbCircle
 10
4.433952321885
 20
1029.83036544568
 40
9.999999999999
100
AcDbArc
 50
-5.006792999977
 51
5.006793000024
  0
ARC
  5
31A
100
AcDbEntity
  8
1
  6
CONTINUOUS
 62
           3
100
AcDbCircle
 10
5.434752321879
 20
1057.916591445679
 40
0.5
100
AcDbArc
 50
96.172501999322
 51
174.993206998559
  0
ARC
  5
319
100
AcDbEntity
  8
1
  6
CONTINUOUS
 62
           3
100
AcDbCircle
 10
11.509758321878
 20
1057.916591445679
 40
0.500000000005
100
AcDbArc
 50
5.006793001362
 51
83.827497998171
  0
ARC
  5
318
100
AcDbEntity
  8
1
  6
CONTINUOUS
 62
           3
100
AcDbCircle
 10
5.434752321879
 20
1001.744139445687
 40
0.499999999996
100
AcDbArc
 50
-174.993206999935
 51
-96.172501999322
  0
ARC
  5
317
100
AcDbEntity
  8
1
  6
CONTINUOUS
 62
           3
100
AcDbCircle
 10
11.509758321878
 20
1001.744139445687
 40
0.500000000002
100
AcDbArc
 50
-83.827497998171
 51
-5.006792999986
  0
LINE
  5
316
100
AcDbEntity
  8
1
  6
CONTINUOUS
 62
           3
100
AcDbLine
 10
4147.500000000005
 20
1655.629517118632
 11
3999.89999812233
 21
1655.629517118632
  0
LINE
  5
315
100
AcDbEntity
  8
1
  6
CONTINUOUS
 62
           3
100
AcDbLine
 10
4147.500000000005
 20
1663.629517118631
 11
3999.899996810937
 21
1663.629517118631
  0
LINE
  5
314
100
AcDbEntity
  8
0
  6
CONTINUOUS
 62
           3
100
AcDbLine
 10
3619.899996632417
 20
1049.629514734587
 11
3619.899996632417
 21
1099.629511754446
  0
LINE
  5
313
100
AcDbEntity
  8
0
  6
CONTINUOUS
 62
           3
100
AcDbLine
 10
3660.126493853977
 20
1090.076094190856
 11
3660.899996833478
 21
1089.629521290952
  0
LINE
  5
312
100
AcDbEntity
  8
0
  6
CONTINUOUS
 62
           3
100
AcDbLine
 10
3670.899996609869
 20
1089.629521290952
 11
3671.67349958937
 21
1090.076094190856
  0
LINE
  5
311
100
AcDbEntity
  8
0
  6
CONTINUOUS
 62
           3
100
AcDbLine
 10
3660.899996833478
 20
1094.629516522552
 11
3660.126493853977
 21
1094.182928721652
  0
LINE
  5
310
100
AcDbEntity
  8
0
  6
CONTINUOUS
 62
           3
100
AcDbLine
 10
3671.67349958937
 20
1094.182928721652
 11
3670.899996609869
 21
1094.629516522552
  0
LINE
  5
30F
100
AcDbEntity
  8
0
  6
CONTINUOUS
 62
           3
100
AcDbLine
 10
3660.899996833478
 20
1099.629511754446
 11
3660.126493853977
 21
1099.182938854548
  0
LINE
  5
30E
100
AcDbEntity
  8
0
  6
CONTINUOUS
 62
           3
100
AcDbLine
 10
3671.67349958937
 20
1099.182938854548
 11
3670.899996609869
 21
1099.629511754446
  0
LINE
  5
30D
100
AcDbEntity
  8
0
  6
CONTINUOUS
 62
           3
100
AcDbLine
 10
3670.899996609869
 20
1094.629516522552
 11
3671.67349958937
 21
1095.076104323754
  0
LINE
  5
30C
100
AcDbEntity
  8
0
  6
CONTINUOUS
 62
           3
100
AcDbLine
 10
3660.126493853977
 20
1095.076104323754
 11
3660.899996833478
 21
1094.629516522552
  0
LINE
  5
30B
100
AcDbEntity
  8
0
  6
CONTINUOUS
 62
           3
100
AcDbLine
 10
3660.899996833478
 20
1112.229516427236
 11
3660.126493853977
 21
1111.782936076836
  0
LINE
  5
30A
100
AcDbEntity
  8
0
  6
CONTINUOUS
 62
           3
100
AcDbLine
 10
3671.67349958937
 20
1111.782936076836
 11
3670.899996609869
 21
1112.229516427236
  0
LINE
  5
309
100
AcDbEntity
  8
0
  6
CONTINUOUS
 62
           3
100
AcDbLine
 10
3670.899996609869
 20
1107.229521195641
 11
3671.67349958937
 21
1107.676094095543
  0
LINE
  5
308
100
AcDbEntity
  8
0
  6
CONTINUOUS
 62
           3
100
AcDbLine
 10
3660.126493853977
 20
1107.676094095543
 11
3660.899996833478
 21
1107.229521195641
  0
LINE
  5
307
100
AcDbEntity
  8
0
  6
CONTINUOUS
 62
           3
100
AcDbLine
 10
3660.899996833478
 20
1107.229521195641
 11
3660.126493853977
 21
1106.78293339474
  0
LINE
  5
306
100
AcDbEntity
  8
0
  6
CONTINUOUS
 62
           3
100
AcDbLine
 10
3671.67349958937
 20
1106.78293339474
 11
3670.899996609869
 21
1107.229521195641
  0
LINE
  5
305
100
AcDbEntity
  8
0
  6
CONTINUOUS
 62
           3
100
AcDbLine
 10
3670.899996609869
 20
1102.229511062744
 11
3671.67349958937
 21
1102.676098863944
  0
LINE
  5
304
100
AcDbEntity
  8
0
  6
CONTINUOUS
 62
           3
100
AcDbLine
 10
3660.126493853977
 20
1102.676098863944
 11
3660.899996833478
 21
1102.229511062744
  0
LINE
  5
303
100
AcDbEntity
  8
0
  6
CONTINUOUS
 62
           3
100
AcDbLine
 10
3711.899996810937
 20
1375.629517118631
 11
3711.899996810937
 21
1369.629522482827
  0
LINE
  5
302
100
AcDbEntity
  8
0
  6
CONTINUOUS
 62
           3
100
AcDbLine
 10
3711.899996810937
 20
1368.029510299627
 11
3711.899996810937
 21
1284.629517863594
  0
LINE
  5
301
100
AcDbEntity
  8
0
  6
CONTINUOUS
 62
           3
100
AcDbLine
 10
3711.899996810937
 20
1283.429516176697
 11
3711.899996810937
 21
1125.829515676224
  0
LINE
  5
300
100
AcDbEntity
  8
0
  6
CONTINUOUS
 62
           3
100
AcDbLine
 10
3711.899996810937
 20
1124.629517714729
 11
3711.899996810937
 21
1101.229523937344
  0
LINE
  5
2FF
100
AcDbEntity
  8
0
  6
CONTINUOUS
 62
           3
100
AcDbLine
 10
3711.899996810937
 20
1099.629511754446
 11
3711.899996810937
 21
1049.629514734587
  0
LINE
  5
2FE
100
AcDbEntity
  8
0
  6
CONTINUOUS
 62
           3
100
AcDbLine
 10
3719.899998122331
 20
1049.629514734587
 11
3719.899998122331
 21
1099.629511754446
  0
LINE
  5
2FD
100
AcDbEntity
  8
0
  6
CONTINUOUS
 62
           3
100
AcDbLine
 10
3719.899998122331
 20
1101.229523937344
 11
3719.899998122331
 21
1124.629517714729
  0
LINE
  5
2FC
100
AcDbEntity
  8
0
  6
CONTINUOUS
 62
           3
100
AcDbLine
 10
3719.899998122331
 20
1125.829515676224
 11
3719.899998122331
 21
1283.429516176697
  0
LINE
  5
2FB
100
AcDbEntity
  8
0
  6
CONTINUOUS
 62
           3
100
AcDbLine
 10
3719.899998122331
 20
1284.629517863594
 11
3719.899998122331
 21
1368.029510299627
  0
LINE
  5
2FA
100
AcDbEntity
  8
0
  6
CONTINUOUS
 62
           3
100
AcDbLine
 10
3719.899998122331
 20
1369.629522482827
 11
3719.899998122331
 21
1375.629517118631
  0
LINE
  5
2F9
100
AcDbEntity
  8
0
  6
CONTINUOUS
 62
           3
100
AcDbLine
 10
3611.899995321018
 20
1399.629523675
 11
3611.899995321018
 21
1369.629522482827
  0
LINE
  5
2F8
100
AcDbEntity
  8
0
  6
CONTINUOUS
 62
           3
100
AcDbLine
 10
3611.899995321018
 20
1368.029510299627
 11
3611.899995321018
 21
1284.629517863594
  0
LINE
  5
2F7
100
AcDbEntity
  8
0
  6
CONTINUOUS
 62
           3
100
AcDbLine
 10
3611.899995321018
 20
1283.429516176697
 11
3611.899995321018
 21
1125.829515676224
  0
LINE
  5
2F6
100
AcDbEntity
  8
0
  6
CONTINUOUS
 62
           3
100
AcDbLine
 10
3611.899995321018
 20
1124.629517714729
 11
3611.899995321018
 21
1101.229523937344
  0
LINE
  5
2F5
100
AcDbEntity
  8
0
  6
CONTINUOUS
 62
           3
100
AcDbLine
 10
3611.899995321018
 20
1099.629511754446
 11
3611.899995321018
 21
1049.629514734587
  0
LINE
  5
2F4
100
AcDbEntity
  8
0
  6
CONTINUOUS
 62
           3
100
AcDbLine
 10
3619.899996632417
 20
1101.229523937344
 11
3619.899996632417
 21
1124.629517714729
  0
LINE
  5
2F3
100
AcDbEntity
  8
0
  6
CONTINUOUS
 62
           3
100
AcDbLine
 10
3619.899996632417
 20
1125.829515676224
 11
3619.899996632417
 21
1283.429516176697
  0
LINE
  5
2F2
100
AcDbEntity
  8
0
  6
CONTINUOUS
 62
           3
100
AcDbLine
 10
3619.899996632417
 20
1284.629517863594
 11
3619.899996632417
 21
1368.029510299627
  0
LINE
  5
2F1
100
AcDbEntity
  8
0
  6
CONTINUOUS
 62
           3
100
AcDbLine
 10
3619.899996632417
 20
1369.629522482827
 11
3619.899996632417
 21
1399.629523675
  0
LINE
  5
2F0
100
AcDbEntity
  8
0
  6
CONTINUOUS
 62
           3
100
AcDbLine
 10
3668.899996747768
 20
1101.229523937344
 11
3668.899996747768
 21
1102.229511062744
  0
LINE
  5
2EF
100
AcDbEntity
  8
0
  6
CONTINUOUS
 62
           3
100
AcDbLine
 10
3668.899996747768
 20
1112.229516427236
 11
3668.899996747768
 21
1118.829516391532
  0
LINE
  5
2EE
100
AcDbEntity
  8
0
  6
CONTINUOUS
 62
           3
100
AcDbLine
 10
3668.899996747768
 20
1124.629517714729
 11
3668.899996747768
 21
1127.586943726225
  0
LINE
  5
2ED
100
AcDbEntity
  8
0
  6
CONTINUOUS
 62
           3
100
AcDbLine
 10
3668.899996747768
 20
1129.422364454123
 11
3668.899996747768
 21
1368.029510299627
  0
LINE
  5
2EC
100
AcDbEntity
  8
0
  6
CONTINUOUS
 62
           3
100
AcDbLine
 10
3668.899996747768
 20
1369.629522482827
 11
3668.899996747768
 21
1372.052168170924
  0
LINE
  5
2EB
100
AcDbEntity
  8
0
  6
CONTINUOUS
 62
           3
100
AcDbLine
 10
3662.899996695581
 20
1372.052168170924
 11
3662.899996695581
 21
1369.629522482827
  0
LINE
  5
2EA
100
AcDbEntity
  8
0
  6
CONTINUOUS
 62
           3
100
AcDbLine
 10
3662.899996695581
 20
1368.029510299627
 11
3662.899996695581
 21
1129.422364454123
  0
LINE
  5
2E9
100
AcDbEntity
  8
0
  6
CONTINUOUS
 62
           3
100
AcDbLine
 10
3662.899996695581
 20
1127.586943726225
 11
3662.899996695581
 21
1124.629517714729
  0
LINE
  5
2E8
100
AcDbEntity
  8
0
  6
CONTINUOUS
 62
           3
100
AcDbLine
 10
3662.899996695581
 20
1118.829516391532
 11
3662.899996695581
 21
1112.229516427236
  0
LINE
  5
2E7
100
AcDbEntity
  8
0
  6
CONTINUOUS
 62
           3
100
AcDbLine
 10
3662.899996695581
 20
1102.229511062744
 11
3662.899996695581
 21
1101.229523937344
  0
LINE
  5
2E6
100
AcDbEntity
  8
0
  6
CONTINUOUS
 62
           3
100
AcDbLine
 10
3668.899996747768
 20
1372.052168170924
 11
3667.899996816565
 21
1373.052170197623
  0
LINE
  5
2E5
100
AcDbEntity
  8
0
  6
CONTINUOUS
 62
           3
100
AcDbLine
 10
3663.899996626779
 20
1373.052170197623
 11
3662.899996695581
 21
1372.052168170924
  0
LINE
  5
2E4
100
AcDbEntity
  8
0
  6
CONTINUOUS
 62
           3
100
AcDbLine
 10
3662.399996613581
 20
1129.429517011524
 11
3657.899996341779
 21
1129.429517011524
  0
LINE
  5
2E3
100
AcDbEntity
  8
0
  6
CONTINUOUS
 62
           3
100
AcDbLine
 10
3673.899997101567
 20
1129.429517011524
 11
3669.399996829768
 21
1129.429517011524
  0
LINE
  5
2E2
100
AcDbEntity
  8
0
  6
CONTINUOUS
 62
           3
100
AcDbLine
 10
3659.426494029876
 20
1123.729517118625
 11
3672.373499413467
 21
1123.729517118625
  0
LINE
  5
2E1
100
AcDbEntity
  8
0
  6
CONTINUOUS
 62
           3
100
AcDbLine
 10
3608.899996692015
 20
1128.429514984826
 11
3611.899995321018
 21
1128.429514984826
  0
LINE
  5
2E0
100
AcDbEntity
  8
0
  6
CONTINUOUS
 62
           3
100
AcDbLine
 10
3619.899996632417
 20
1128.429514984826
 11
3657.899996341779
 21
1128.429514984826
  0
LINE
  5
2DF
100
AcDbEntity
  8
0
  6
CONTINUOUS
 62
           3
100
AcDbLine
 10
3673.899997101567
 20
1128.429514984826
 11
3711.899996810937
 21
1128.429514984826
  0
LINE
  5
2DE
100
AcDbEntity
  8
0
  6
CONTINUOUS
 62
           3
100
AcDbLine
 10
3719.899998122331
 20
1128.429514984826
 11
3722.899996751328
 21
1128.429514984826
  0
LINE
  5
2DD
100
AcDbEntity
  8
0
  6
CONTINUOUS
 62
           3
100
AcDbLine
 10
3608.899996692015
 20
1278.429517219998
 11
3608.899996692015
 21
1128.429514984826
  0
LINE
  5
2DC
100
AcDbEntity
  8
0
  6
CONTINUOUS
 62
           3
100
AcDbLine
 10
3722.899996751328
 20
1278.429517219998
 11
3719.899998122331
 21
1278.429517219998
  0
LINE
  5
2DB
100
AcDbEntity
  8
0
  6
CONTINUOUS
 62
           3
100
AcDbLine
 10
3711.899996810937
 20
1278.429517219998
 11
3668.899996747768
 21
1278.429517219998
  0
LINE
  5
2DA
100
AcDbEntity
  8
0
  6
CONTINUOUS
 62
           3
100
AcDbLine
 10
3662.899996695581
 20
1278.429517219998
 11
3619.899996632417
 21
1278.429517219998
  0
LINE
  5
2D9
100
AcDbEntity
  8
0
  6
CONTINUOUS
 62
           3
100
AcDbLine
 10
3611.899995321018
 20
1278.429517219998
 11
3608.899996692015
 21
1278.429517219998
  0
LINE
  5
2D8
100
AcDbEntity
  8
0
  6
CONTINUOUS
 62
           3
100
AcDbLine
 10
3722.899996751328
 20
1128.429514984826
 11
3722.899996751328
 21
1278.429517219998
  0
LINE
  5
2D7
100
AcDbEntity
  8
0
  6
CONTINUOUS
 62
           3
100
AcDbLine
 10
3668.786748155368
 20
1090.076094190856
 11
3668.786748155507
 21
1094.182928721699
  0
LINE
  5
2D6
100
AcDbEntity
  8
0
  6
CONTINUOUS
 62
           3
100
AcDbLine
 10
3668.786748155368
 20
1090.076094190856
 11
3665.89999672168
 21
1089.629521290952
  0
LINE
  5
2D5
100
AcDbEntity
  8
0
  6
CONTINUOUS
 62
           3
100
AcDbLine
 10
3663.013245287849
 20
1090.076094190873
 11
3663.013245287975
 21
1094.182928721652
  0
LINE
  5
2D4
100
AcDbEntity
  8
0
  6
CONTINUOUS
 62
           3
100
AcDbLine
 10
3663.013245287975
 20
1094.182928721652
 11
3665.89999672168
 21
1094.629516522679
  0
LINE
  5
2D3
100
AcDbEntity
  8
0
  6
CONTINUOUS
 62
           3
100
AcDbLine
 10
3665.89999672168
 20
1089.629521290952
 11
3670.230123756009
 21
1089.629521291052
  0
LINE
  5
2D2
100
AcDbEntity
  8
0
  6
CONTINUOUS
 62
           3
100
AcDbLine
 10
3661.569869687351
 20
1089.629521291052
 11
3665.89999672168
 21
1089.629521290952
  0
LINE
  5
2D1
100
AcDbEntity
  8
0
  6
CONTINUOUS
 62
           3
100
AcDbLine
 10
3661.569869687351
 20
1094.629516522679
 11
3665.89999672168
 21
1094.629516522679
  0
LINE
  5
2D0
100
AcDbEntity
  8
0
  6
CONTINUOUS
 62
           3
100
AcDbLine
 10
3668.786748155507
 20
1094.182928721699
 11
3670.230123755969
 21
1094.629516522552
  0
LINE
  5
2CF
100
AcDbEntity
  8
0
  6
CONTINUOUS
 62
           3
100
AcDbLine
 10
3665.89999672168
 20
1094.629516522679
 11
3670.230123755969
 21
1094.629516522552
  0
LINE
  5
2CE
100
AcDbEntity
  8
0
  6
CONTINUOUS
 62
           3
100
AcDbLine
 10
3660.126493853977
 20
1090.076094190856
 11
3660.126493853977
 21
1094.182928721652
  0
LINE
  5
2CD
100
AcDbEntity
  8
0
  6
CONTINUOUS
 62
           3
100
AcDbLine
 10
3671.67349958937
 20
1090.076094190856
 11
3671.67349958937
 21
1094.182928721652
  0
LINE
  5
2CC
100
AcDbEntity
  8
0
  6
CONTINUOUS
 62
           3
100
AcDbLine
 10
3671.67349958937
 20
1090.076094190856
 11
3670.230123756009
 21
1089.629521291052
  0
LINE
  5
2CB
100
AcDbEntity
  8
0
  6
CONTINUOUS
 62
           3
100
AcDbLine
 10
3660.899996833478
 20
1089.629521290952
 11
3661.569869687351
 21
1089.629521291052
  0
LINE
  5
2CA
100
AcDbEntity
  8
0
  6
CONTINUOUS
 62
           3
100
AcDbLine
 10
3670.899996609869
 20
1089.629521290952
 11
3670.230123756009
 21
1089.629521291052
  0
LINE
  5
2C9
100
AcDbEntity
  8
0
  6
CONTINUOUS
 62
           3
100
AcDbLine
 10
3660.899996833478
 20
1094.629516522552
 11
3661.569869687351
 21
1094.629516522679
  0
LINE
  5
2C8
100
AcDbEntity
  8
0
  6
CONTINUOUS
 62
           3
100
AcDbLine
 10
3668.786748155507
 20
1099.182938854489
 11
3668.786748155368
 21
1095.076104323754
  0
LINE
  5
2C7
100
AcDbEntity
  8
0
  6
CONTINUOUS
 62
           3
100
AcDbLine
 10
3663.013245287849
 20
1099.182938854489
 11
3663.013245287849
 21
1095.076104323655
  0
LINE
  5
2C6
100
AcDbEntity
  8
0
  6
CONTINUOUS
 62
           3
100
AcDbLine
 10
3671.67349958937
 20
1099.182938854548
 11
3670.230123756009
 21
1099.629511754303
  0
LINE
  5
2C5
100
AcDbEntity
  8
0
  6
CONTINUOUS
 62
           3
100
AcDbLine
 10
3671.67349958937
 20
1099.182938854548
 11
3671.67349958937
 21
1095.076104323754
  0
LINE
  5
2C4
100
AcDbEntity
  8
0
  6
CONTINUOUS
 62
           3
100
AcDbLine
 10
3668.786748155368
 20
1095.076104323754
 11
3670.230123755969
 21
1094.629516522552
  0
LINE
  5
2C3
100
AcDbEntity
  8
0
  6
CONTINUOUS
 62
           3
100
AcDbLine
 10
3663.013245287849
 20
1099.182938854489
 11
3661.569869687351
 21
1099.629511754303
  0
LINE
  5
2C2
100
AcDbEntity
  8
0
  6
CONTINUOUS
 62
           3
100
AcDbLine
 10
3660.126493853977
 20
1095.076104323754
 11
3661.569869687351
 21
1094.629516522679
  0
LINE
  5
2C1
100
AcDbEntity
  8
0
  6
CONTINUOUS
 62
           3
100
AcDbLine
 10
3660.126493853977
 20
1099.182938854548
 11
3660.126493853977
 21
1095.076104323754
  0
LINE
  5
2C0
100
AcDbEntity
  8
0
  6
CONTINUOUS
 62
           3
100
AcDbLine
 10
3668.786748155507
 20
1111.782936076898
 11
3668.786748155368
 21
1107.676094095543
  0
LINE
  5
2BF
100
AcDbEntity
  8
0
  6
CONTINUOUS
 62
           3
100
AcDbLine
 10
3663.013245287849
 20
1111.782936076898
 11
3663.013245287849
 21
1107.676094095491
  0
LINE
  5
2BE
100
AcDbEntity
  8
0
  6
CONTINUOUS
 62
           3
100
AcDbLine
 10
3671.67349958937
 20
1111.782936076836
 11
3670.230123756009
 21
1112.229516427297
  0
LINE
  5
2BD
100
AcDbEntity
  8
0
  6
CONTINUOUS
 62
           3
100
AcDbLine
 10
3671.67349958937
 20
1111.782936076836
 11
3671.67349958937
 21
1107.676094095543
  0
LINE
  5
2BC
100
AcDbEntity
  8
0
  6
CONTINUOUS
 62
           3
100
AcDbLine
 10
3668.786748155368
 20
1107.676094095543
 11
3670.230123756009
 21
1107.229521195673
  0
LINE
  5
2BB
100
AcDbEntity
  8
0
  6
CONTINUOUS
 62
           3
100
AcDbLine
 10
3670.230123756009
 20
1112.229516427297
 11
3665.89999672168
 21
1112.229516427297
  0
LINE
  5
2BA
100
AcDbEntity
  8
0
  6
CONTINUOUS
 62
           3
100
AcDbLine
 10
3663.013245287849
 20
1111.782936076898
 11
3661.569869687351
 21
1112.229516427297
  0
LINE
  5
2B9
100
AcDbEntity
  8
0
  6
CONTINUOUS
 62
           3
100
AcDbLine
 10
3660.126493853977
 20
1107.676094095543
 11
3661.569869687351
 21
1107.229521195673
  0
LINE
  5
2B8
100
AcDbEntity
  8
0
  6
CONTINUOUS
 62
           3
100
AcDbLine
 10
3660.126493853977
 20
1111.782936076836
 11
3660.126493853977
 21
1107.676094095543
  0
LINE
  5
2B7
100
AcDbEntity
  8
0
  6
CONTINUOUS
 62
           3
100
AcDbLine
 10
3665.89999672168
 20
1112.229516427297
 11
3661.569869687351
 21
1112.229516427297
  0
LINE
  5
2B6
100
AcDbEntity
  8
0
  6
CONTINUOUS
 62
           3
100
AcDbLine
 10
3670.230123756009
 20
1107.229521195673
 11
3665.89999672168
 21
1107.229521195673
  0
LINE
  5
2B5
100
AcDbEntity
  8
0
  6
CONTINUOUS
 62
           3
100
AcDbLine
 10
3665.89999672168
 20
1107.229521195673
 11
3661.569869687351
 21
1107.229521195673
  0
LINE
  5
2B4
100
AcDbEntity
  8
0
  6
CONTINUOUS
 62
           3
100
AcDbLine
 10
3661.569869687351
 20
1112.229516427297
 11
3660.899996833478
 21
1112.229516427236
  0
LINE
  5
2B3
100
AcDbEntity
  8
0
  6
CONTINUOUS
 62
           3
100
AcDbLine
 10
3670.899996609869
 20
1112.229516427236
 11
3670.230123756009
 21
1112.229516427297
  0
LINE
  5
2B2
100
AcDbEntity
  8
0
  6
CONTINUOUS
 62
           3
100
AcDbLine
 10
3670.899996609869
 20
1107.229521195641
 11
3670.230123756009
 21
1107.229521195673
  0
LINE
  5
2B1
100
AcDbEntity
  8
0
  6
CONTINUOUS
 62
           3
100
AcDbLine
 10
3668.786748155507
 20
1106.782933394693
 11
3668.786748155368
 21
1102.676098863944
  0
LINE
  5
2B0
100
AcDbEntity
  8
0
  6
CONTINUOUS
 62
           3
100
AcDbLine
 10
3663.013245287849
 20
1106.782933394693
 11
3663.013245287849
 21
1102.676098863866
  0
LINE
  5
2AF
100
AcDbEntity
  8
0
  6
CONTINUOUS
 62
           3
100
AcDbLine
 10
3671.67349958937
 20
1106.78293339474
 11
3670.230123756009
 21
1107.229521195673
  0
LINE
  5
2AE
100
AcDbEntity
  8
0
  6
CONTINUOUS
 62
           3
100
AcDbLine
 10
3671.67349958937
 20
1106.78293339474
 11
3671.67349958937
 21
1102.676098863944
  0
LINE
  5
2AD
100
AcDbEntity
  8
0
  6
CONTINUOUS
 62
           3
100
AcDbLine
 10
3668.786748155368
 20
1102.676098863944
 11
3670.230123756009
 21
1102.229511062888
  0
LINE
  5
2AC
100
AcDbEntity
  8
0
  6
CONTINUOUS
 62
           3
100
AcDbLine
 10
3663.013245287849
 20
1106.782933394693
 11
3661.569869687351
 21
1107.229521195673
  0
LINE
  5
2AB
100
AcDbEntity
  8
0
  6
CONTINUOUS
 62
           3
100
AcDbLine
 10
3660.126493853977
 20
1102.676098863944
 11
3661.569869687351
 21
1102.229511062888
  0
LINE
  5
2AA
100
AcDbEntity
  8
0
  6
CONTINUOUS
 62
           3
100
AcDbLine
 10
3660.126493853977
 20
1106.78293339474
 11
3660.126493853977
 21
1102.676098863944
  0
LINE
  5
2A9
100
AcDbEntity
  8
0
  6
CONTINUOUS
 62
           3
100
AcDbLine
 10
3665.89999672168
 20
1102.229511062888
 11
3661.569869687351
 21
1102.229511062888
  0
LINE
  5
2A8
100
AcDbEntity
  8
0
  6
CONTINUOUS
 62
           3
100
AcDbLine
 10
3670.230123756009
 20
1102.229511062888
 11
3665.89999672168
 21
1102.229511062888
  0
LINE
  5
2A7
100
AcDbEntity
  8
0
  6
CONTINUOUS
 62
           3
100
AcDbLine
 10
3661.569869687351
 20
1107.229521195673
 11
3660.899996833478
 21
1107.229521195641
  0
LINE
  5
2A6
100
AcDbEntity
  8
0
  6
CONTINUOUS
 62
           3
100
AcDbLine
 10
3670.899996609869
 20
1102.229511062744
 11
3670.230123756009
 21
1102.229511062888
  0
LINE
  5
2A5
100
AcDbEntity
  8
0
  6
CONTINUOUS
 62
           3
100
AcDbLine
 10
3661.569869687351
 20
1102.229511062888
 11
3660.899996833478
 21
1102.229511062744
  0
LINE
  5
2A4
100
AcDbEntity
  8
0
  6
CONTINUOUS
 62
           3
100
AcDbLine
 10
3615.899995976715
 20
1399.629523675
 11
3619.899996632417
 21
1399.629523675
  0
LINE
  5
2A3
100
AcDbEntity
  8
0
  6
CONTINUOUS
 62
           3
100
AcDbLine
 10
3611.899995321018
 20
1399.629523675
 11
3615.899995976715
 21
1399.629523675
  0
LINE
  5
2A2
100
AcDbEntity
  8
0
  6
CONTINUOUS
 62
           3
100
AcDbLine
 10
3662.899996695581
 20
1372.052168170924
 11
3668.899996747768
 21
1372.052168170924
  0
LINE
  5
2A1
100
AcDbEntity
  8
0
  6
CONTINUOUS
 62
           3
100
AcDbLine
 10
3667.899996816565
 20
1373.052170197623
 11
3663.899996626779
 21
1373.052170197623
  0
LINE
  5
2A0
100
AcDbEntity
  8
0
  6
CONTINUOUS
 62
           3
100
AcDbLine
 10
3673.899997101567
 20
1123.829519073626
 11
3669.399996829768
 21
1123.829519073626
  0
LINE
  5
29F
100
AcDbEntity
  8
0
  6
CONTINUOUS
 62
           3
100
AcDbLine
 10
3662.399996613581
 20
1129.422364454123
 11
3669.399996829768
 21
1129.422364454123
  0
LINE
  5
29E
100
AcDbEntity
  8
0
  6
CONTINUOUS
 62
           3
100
AcDbLine
 10
3662.399996613581
 20
1123.829519073626
 11
3657.899996341779
 21
1123.829519073626
  0
LINE
  5
29D
100
AcDbEntity
  8
0
  6
CONTINUOUS
 62
           3
100
AcDbLine
 10
3669.399996829768
 20
1129.429517011524
 11
3669.399996829768
 21
1123.829519073626
  0
LINE
  5
29C
100
AcDbEntity
  8
0
  6
CONTINUOUS
 62
           3
100
AcDbLine
 10
3662.399996613581
 20
1123.829519073626
 11
3662.399996613581
 21
1129.429517011524
  0
LINE
  5
29B
100
AcDbEntity
  8
0
  6
CONTINUOUS
 62
           3
100
AcDbLine
 10
3657.899996341779
 20
1129.429517011524
 11
3657.899996341779
 21
1123.829519073626
  0
LINE
  5
29A
100
AcDbEntity
  8
0
  6
CONTINUOUS
 62
           3
100
AcDbLine
 10
3673.899997101567
 20
1129.429517011524
 11
3673.899997101567
 21
1123.829519073626
  0
LINE
  5
299
100
AcDbEntity
  8
0
  6
CONTINUOUS
 62
           3
100
AcDbLine
 10
3669.399996829768
 20
1126.875986973924
 11
3668.899996747768
 21
1126.875986973924
  0
LINE
  5
298
100
AcDbEntity
  8
0
  6
CONTINUOUS
 62
           3
100
AcDbLine
 10
3662.899996695581
 20
1126.875986973924
 11
3662.399996613581
 21
1126.875986973924
  0
LINE
  5
297
100
AcDbEntity
  8
0
  6
CONTINUOUS
 62
           3
100
AcDbLine
 10
3669.399996829768
 20
1128.619661252124
 11
3662.399996613581
 21
1128.619661252124
  0
LINE
  5
296
100
AcDbEntity
  8
0
  6
CONTINUOUS
 62
           3
100
AcDbLine
 10
3662.399996613581
 20
1124.629517714729
 11
3669.399996829768
 21
1124.629517714729
  0
LINE
  5
295
100
AcDbEntity
  8
0
  6
CONTINUOUS
 62
           3
100
AcDbLine
 10
3662.399996613581
 20
1123.829519073626
 11
3669.399996829768
 21
1123.829519073626
  0
LINE
  5
294
100
AcDbEntity
  8
0
  6
CONTINUOUS
 62
           3
100
AcDbLine
 10
3665.89999672168
 20
1119.276096741926
 11
3668.399996665767
 21
1118.829516391532
  0
LINE
  5
293
100
AcDbEntity
  8
0
  6
CONTINUOUS
 62
           3
100
AcDbLine
 10
3663.399996777558
 20
1118.829516391532
 11
3668.399996665767
 21
1118.829516391532
  0
LINE
  5
292
100
AcDbEntity
  8
0
  6
CONTINUOUS
 62
           3
100
AcDbLine
 10
3665.89999672168
 20
1119.276096741926
 11
3665.89999672168
 21
1123.729517380825
  0
LINE
  5
291
100
AcDbEntity
  8
0
  6
CONTINUOUS
 62
           3
100
AcDbLine
 10
3660.899996833478
 20
1119.276096741934
 11
3663.399996777558
 21
1118.829516391532
  0
LINE
  5
290
100
AcDbEntity
  8
0
  6
CONTINUOUS
 62
           3
100
AcDbLine
 10
3660.899996833478
 20
1119.276096741934
 11
3660.899996833478
 21
1123.729517380825
  0
LINE
  5
28F
100
AcDbEntity
  8
0
  6
CONTINUOUS
 62
           3
100
AcDbLine
 10
3670.899996609869
 20
1119.276096741934
 11
3670.899996609869
 21
1123.729517380825
  0
LINE
  5
28E
100
AcDbEntity
  8
0
  6
CONTINUOUS
 62
           3
100
AcDbLine
 10
3660.899996833438
 20
1118.829516391532
 11
3663.399996777558
 21
1118.829516391532
  0
LINE
  5
28D
100
AcDbEntity
  8
0
  6
CONTINUOUS
 62
           3
100
AcDbLine
 10
3668.399996665767
 20
1118.829516391532
 11
3670.899996609916
 21
1118.829516391532
  0
LINE
  5
28C
100
AcDbEntity
  8
0
  6
CONTINUOUS
 62
           3
100
AcDbLine
 10
3673.899997101567
 20
1122.905758838426
 11
3670.899996609869
 21
1122.905758838426
  0
LINE
  5
28B
100
AcDbEntity
  8
0
  6
CONTINUOUS
 62
           3
100
AcDbLine
 10
3660.899996833478
 20
1122.905758838426
 11
3657.899996341779
 21
1122.905758838426
  0
LINE
  5
28A
100
AcDbEntity
  8
0
  6
CONTINUOUS
 62
           3
100
AcDbLine
 10
3657.899996341779
 20
1123.829519073626
 11
3657.899996341779
 21
1122.905758838426
  0
LINE
  5
289
100
AcDbEntity
  8
0
  6
CONTINUOUS
 62
           3
100
AcDbLine
 10
3673.899997101567
 20
1123.829519073626
 11
3673.899997101567
 21
1122.905758838426
  0
LINE
  5
288
100
AcDbEntity
  8
0
  6
CONTINUOUS
 62
           3
100
AcDbLine
 10
3635.899997392195
 20
1284.629517863594
 11
3645.899997168591
 21
1284.629517863594
  0
LINE
  5
287
100
AcDbEntity
  8
0
  6
CONTINUOUS
 62
           3
100
AcDbLine
 10
3645.899997168591
 20
1283.429516176697
 11
3645.899997168591
 21
1284.629517863594
  0
LINE
  5
286
100
AcDbEntity
  8
0
  6
CONTINUOUS
 62
           3
100
AcDbLine
 10
3635.899997392195
 20
1283.429516176697
 11
3645.899997168591
 21
1283.429516176697
  0
LINE
  5
285
100
AcDbEntity
  8
0
  6
CONTINUOUS
 62
           3
100
AcDbLine
 10
3635.899997392195
 20
1283.429516176697
 11
3635.899997392195
 21
1284.629517863594
  0
LINE
  5
284
100
AcDbEntity
  8
0
  6
CONTINUOUS
 62
           3
100
AcDbLine
 10
3685.899996274757
 20
1283.429516176697
 11
3685.899996274757
 21
1284.629517863594
  0
LINE
  5
283
100
AcDbEntity
  8
0
  6
CONTINUOUS
 62
           3
100
AcDbLine
 10
3671.149996650869
 20
1283.429516176697
 11
3685.899996274757
 21
1283.429516176697
  0
LINE
  5
282
100
AcDbEntity
  8
0
  6
CONTINUOUS
 62
           3
100
AcDbLine
 10
3671.149996650869
 20
1284.629517863594
 11
3685.899996274757
 21
1284.629517863594
  0
LINE
  5
281
100
AcDbEntity
  8
0
  6
CONTINUOUS
 62
           3
100
AcDbLine
 10
3645.899997168591
 20
1283.429516176697
 11
3660.649996792478
 21
1283.429516176697
  0
LINE
  5
280
100
AcDbEntity
  8
0
  6
CONTINUOUS
 62
           3
100
AcDbLine
 10
3645.899997168591
 20
1284.629517863594
 11
3660.649996792478
 21
1284.629517863594
  0
LINE
  5
27F
100
AcDbEntity
  8
0
  6
CONTINUOUS
 62
           3
100
AcDbLine
 10
3645.899997168591
 20
1125.829515676224
 11
3645.899997168591
 21
1124.629517714729
  0
LINE
  5
27E
100
AcDbEntity
  8
0
  6
CONTINUOUS
 62
           3
100
AcDbLine
 10
3645.899997168591
 20
1124.629517714729
 11
3657.899996341779
 21
1124.629517714729
  0
LINE
  5
27D
100
AcDbEntity
  8
0
  6
CONTINUOUS
 62
           3
100
AcDbLine
 10
3645.899997168591
 20
1125.829515676224
 11
3657.899996341779
 21
1125.829515676224
  0
LINE
  5
27C
100
AcDbEntity
  8
0
  6
CONTINUOUS
 62
           3
100
AcDbLine
 10
3669.149996788768
 20
1124.629517714729
 11
3669.149996788768
 21
1125.829515676224
  0
LINE
  5
27B
100
AcDbEntity
  8
0
  6
CONTINUOUS
 62
           3
100
AcDbLine
 10
3669.149996788768
 20
1125.829515676224
 11
3669.399996829768
 21
1125.829515676224
  0
LINE
  5
27A
100
AcDbEntity
  8
0
  6
CONTINUOUS
 62
           3
100
AcDbLine
 10
3695.899996051148
 20
1283.429516176697
 11
3695.899996051148
 21
1284.629517863594
  0
LINE
  5
279
100
AcDbEntity
  8
0
  6
CONTINUOUS
 62
           3
100
AcDbLine
 10
3695.899996051148
 20
1283.429516176697
 11
3685.899996274757
 21
1283.429516176697
  0
LINE
  5
278
100
AcDbEntity
  8
0
  6
CONTINUOUS
 62
           3
100
AcDbLine
 10
3695.899996051148
 20
1284.629517863594
 11
3685.899996274757
 21
1284.629517863594
  0
LINE
  5
277
100
AcDbEntity
  8
0
  6
CONTINUOUS
 62
           3
100
AcDbLine
 10
3669.149996788768
 20
1283.429516176697
 11
3669.149996788768
 21
1284.629517863594
  0
LINE
  5
276
100
AcDbEntity
  8
0
  6
CONTINUOUS
 62
           3
100
AcDbLine
 10
3671.149996650869
 20
1283.429516176697
 11
3669.149996788768
 21
1283.429516176697
  0
LINE
  5
275
100
AcDbEntity
  8
0
  6
CONTINUOUS
 62
           3
100
AcDbLine
 10
3669.149996788768
 20
1284.629517863594
 11
3671.149996650869
 21
1284.629517863594
  0
LINE
  5
274
100
AcDbEntity
  8
0
  6
CONTINUOUS
 62
           3
100
AcDbLine
 10
3635.899997392195
 20
1125.829515676224
 11
3635.899997392195
 21
1124.629517714729
  0
LINE
  5
273
100
AcDbEntity
  8
0
  6
CONTINUOUS
 62
           3
100
AcDbLine
 10
3635.899997392195
 20
1124.629517714729
 11
3645.899997168591
 21
1124.629517714729
  0
LINE
  5
272
100
AcDbEntity
  8
0
  6
CONTINUOUS
 62
           3
100
AcDbLine
 10
3635.899997392195
 20
1125.829515676224
 11
3645.899997168591
 21
1125.829515676224
  0
LINE
  5
271
100
AcDbEntity
  8
0
  6
CONTINUOUS
 62
           3
100
AcDbLine
 10
3685.899996274757
 20
1125.829515676224
 11
3685.899996274757
 21
1124.629517714729
  0
LINE
  5
270
100
AcDbEntity
  8
0
  6
CONTINUOUS
 62
           3
100
AcDbLine
 10
3673.899997101567
 20
1124.629517714729
 11
3685.899996274757
 21
1124.629517714729
  0
LINE
  5
26F
100
AcDbEntity
  8
0
  6
CONTINUOUS
 62
           3
100
AcDbLine
 10
3673.899997101567
 20
1125.829515676224
 11
3685.899996274757
 21
1125.829515676224
  0
LINE
  5
26E
100
AcDbEntity
  8
0
  6
CONTINUOUS
 62
           3
100
AcDbLine
 10
3662.649996654581
 20
1284.629517863594
 11
3662.649996654581
 21
1283.429516176697
  0
LINE
  5
26D
100
AcDbEntity
  8
0
  6
CONTINUOUS
 62
           3
100
AcDbLine
 10
3662.649996654581
 20
1283.429516176697
 11
3660.649996792478
 21
1283.429516176697
  0
LINE
  5
26C
100
AcDbEntity
  8
0
  6
CONTINUOUS
 62
           3
100
AcDbLine
 10
3660.649996792478
 20
1284.629517863594
 11
3662.649996654581
 21
1284.629517863594
  0
LINE
  5
26B
100
AcDbEntity
  8
0
  6
CONTINUOUS
 62
           3
100
AcDbLine
 10
3695.899996051148
 20
1125.829515676224
 11
3695.899996051148
 21
1124.629517714729
  0
LINE
  5
26A
100
AcDbEntity
  8
0
  6
CONTINUOUS
 62
           3
100
AcDbLine
 10
3695.899996051148
 20
1124.629517714729
 11
3685.899996274757
 21
1124.629517714729
  0
LINE
  5
269
100
AcDbEntity
  8
0
  6
CONTINUOUS
 62
           3
100
AcDbLine
 10
3695.899996051148
 20
1125.829515676224
 11
3685.899996274757
 21
1125.829515676224
  0
LINE
  5
268
100
AcDbEntity
  8
0
  6
CONTINUOUS
 62
           3
100
AcDbLine
 10
3662.649996654581
 20
1125.829515676224
 11
3662.649996654581
 21
1124.629517714729
  0
LINE
  5
267
100
AcDbEntity
  8
0
  6
CONTINUOUS
 62
           3
100
AcDbLine
 10
3662.399996613581
 20
1125.829515676224
 11
3662.649996654581
 21
1125.829515676224
  0
LINE
  5
266
100
AcDbEntity
  8
0
  6
CONTINUOUS
 62
           3
100
AcDbLine
 10
3612.899997347718
 20
1124.629517714729
 11
3612.899997347718
 21
1125.829515676224
  0
LINE
  5
265
100
AcDbEntity
  8
0
  6
CONTINUOUS
 62
           3
100
AcDbLine
 10
3610.899997019717
 20
1124.629517714729
 11
3612.899997347718
 21
1124.629517714729
  0
LINE
  5
264
100
AcDbEntity
  8
0
  6
CONTINUOUS
 62
           3
100
AcDbLine
 10
3612.899997347718
 20
1125.829515676224
 11
3610.899997019717
 21
1125.829515676224
  0
LINE
  5
263
100
AcDbEntity
  8
0
  6
CONTINUOUS
 62
           3
100
AcDbLine
 10
3618.899998331108
 20
1125.829515676224
 11
3618.899998331108
 21
1124.629517714729
  0
LINE
  5
262
100
AcDbEntity
  8
0
  6
CONTINUOUS
 62
           3
100
AcDbLine
 10
3618.899998331108
 20
1124.629517714729
 11
3620.899994933708
 21
1124.629517714729
  0
LINE
  5
261
100
AcDbEntity
  8
0
  6
CONTINUOUS
 62
           3
100
AcDbLine
 10
3620.899994933708
 20
1125.829515676224
 11
3618.899998331108
 21
1125.829515676224
  0
LINE
  5
260
100
AcDbEntity
  8
0
  6
CONTINUOUS
 62
           3
100
AcDbLine
 10
3718.899996095925
 20
1284.629517863594
 11
3718.899996095925
 21
1283.429516176697
  0
LINE
  5
25F
100
AcDbEntity
  8
0
  6
CONTINUOUS
 62
           3
100
AcDbLine
 10
3718.899996095925
 20
1283.429516176697
 11
3720.899996423627
 21
1283.429516176697
  0
LINE
  5
25E
100
AcDbEntity
  8
0
  6
CONTINUOUS
 62
           3
100
AcDbLine
 10
3720.899996423627
 20
1284.629517863594
 11
3718.899996095925
 21
1284.629517863594
  0
LINE
  5
25D
100
AcDbEntity
  8
0
  6
CONTINUOUS
 62
           3
100
AcDbLine
 10
3712.899995112238
 20
1283.429516176697
 11
3712.899995112238
 21
1284.629517863594
  0
LINE
  5
25C
100
AcDbEntity
  8
0
  6
CONTINUOUS
 62
           3
100
AcDbLine
 10
3710.899998509636
 20
1283.429516176697
 11
3712.899995112238
 21
1283.429516176697
  0
LINE
  5
25B
100
AcDbEntity
  8
0
  6
CONTINUOUS
 62
           3
100
AcDbLine
 10
3712.899995112238
 20
1284.629517863594
 11
3710.899998509636
 21
1284.629517863594
  0
LINE
  5
25A
100
AcDbEntity
  8
0
  6
CONTINUOUS
 62
           3
100
AcDbLine
 10
3718.899996095925
 20
1124.629517714729
 11
3718.899996095925
 21
1125.829515676224
  0
LINE
  5
259
100
AcDbEntity
  8
0
  6
CONTINUOUS
 62
           3
100
AcDbLine
 10
3720.899996423627
 20
1124.629517714729
 11
3718.899996095925
 21
1124.629517714729
  0
LINE
  5
258
100
AcDbEntity
  8
0
  6
CONTINUOUS
 62
           3
100
AcDbLine
 10
3718.899996095925
 20
1125.829515676224
 11
3720.899996423627
 21
1125.829515676224
  0
LINE
  5
257
100
AcDbEntity
  8
0
  6
CONTINUOUS
 62
           3
100
AcDbLine
 10
3712.899995112238
 20
1125.829515676224
 11
3712.899995112238
 21
1124.629517714729
  0
LINE
  5
256
100
AcDbEntity
  8
0
  6
CONTINUOUS
 62
           3
100
AcDbLine
 10
3712.899995112238
 20
1124.629517714729
 11
3710.899998509636
 21
1124.629517714729
  0
LINE
  5
255
100
AcDbEntity
  8
0
  6
CONTINUOUS
 62
           3
100
AcDbLine
 10
3710.899998509636
 20
1125.829515676224
 11
3712.899995112238
 21
1125.829515676224
  0
LINE
  5
254
100
AcDbEntity
  8
0
  6
CONTINUOUS
 62
           3
100
AcDbLine
 10
3612.899997347718
 20
1284.629517863594
 11
3612.899997347718
 21
1283.429516176697
  0
LINE
  5
253
100
AcDbEntity
  8
0
  6
CONTINUOUS
 62
           3
100
AcDbLine
 10
3612.899997347718
 20
1283.429516176697
 11
3610.899997019717
 21
1283.429516176697
  0
LINE
  5
252
100
AcDbEntity
  8
0
  6
CONTINUOUS
 62
           3
100
AcDbLine
 10
3610.899997019717
 20
1284.629517863594
 11
3612.899997347718
 21
1284.629517863594
  0
LINE
  5
251
100
AcDbEntity
  8
0
  6
CONTINUOUS
 62
           3
100
AcDbLine
 10
3618.899998331108
 20
1283.429516176697
 11
3618.899998331108
 21
1284.629517863594
  0
LINE
  5
250
100
AcDbEntity
  8
0
  6
CONTINUOUS
 62
           3
100
AcDbLine
 10
3620.899994933708
 20
1283.429516176697
 11
3618.899998331108
 21
1283.429516176697
  0
LINE
  5
24F
100
AcDbEntity
  8
0
  6
CONTINUOUS
 62
           3
100
AcDbLine
 10
3618.899998331108
 20
1284.629517863594
 11
3620.899994933708
 21
1284.629517863594
  0
LINE
  5
24E
100
AcDbEntity
  8
0
  6
CONTINUOUS
 62
           3
100
AcDbLine
 10
3620.899994933708
 20
1124.629517714729
 11
3635.899997392195
 21
1124.629517714729
  0
LINE
  5
24D
100
AcDbEntity
  8
0
  6
CONTINUOUS
 62
           3
100
AcDbLine
 10
3620.899994933708
 20
1125.829515676224
 11
3635.899997392195
 21
1125.829515676224
  0
LINE
  5
24C
100
AcDbEntity
  8
0
  6
CONTINUOUS
 62
           3
100
AcDbLine
 10
3725.899995380625
 20
1125.829515676224
 11
3725.899995380625
 21
1124.629517714729
  0
LINE
  5
24B
100
AcDbEntity
  8
0
  6
CONTINUOUS
 62
           3
100
AcDbLine
 10
3725.899995380625
 20
1124.629517714729
 11
3720.899996423627
 21
1124.629517714729
  0
LINE
  5
24A
100
AcDbEntity
  8
0
  6
CONTINUOUS
 62
           3
100
AcDbLine
 10
3720.899996423627
 20
1125.829515676224
 11
3725.899995380625
 21
1125.829515676224
  0
LINE
  5
249
100
AcDbEntity
  8
0
  6
CONTINUOUS
 62
           3
100
AcDbLine
 10
3620.899994933708
 20
1283.429516176697
 11
3635.899997392195
 21
1283.429516176697
  0
LINE
  5
248
100
AcDbEntity
  8
0
  6
CONTINUOUS
 62
           3
100
AcDbLine
 10
3620.899994933708
 20
1284.629517863594
 11
3635.899997392195
 21
1284.629517863594
  0
LINE
  5
247
100
AcDbEntity
  8
0
  6
CONTINUOUS
 62
           3
100
AcDbLine
 10
3710.899998509636
 20
1124.629517714729
 11
3695.899996051148
 21
1124.629517714729
  0
LINE
  5
246
100
AcDbEntity
  8
0
  6
CONTINUOUS
 62
           3
100
AcDbLine
 10
3710.899998509636
 20
1125.829515676224
 11
3695.899996051148
 21
1125.829515676224
  0
LINE
  5
245
100
AcDbEntity
  8
0
  6
CONTINUOUS
 62
           3
100
AcDbLine
 10
3725.899995380625
 20
1283.429516176697
 11
3725.899995380625
 21
1284.629517863594
  0
LINE
  5
244
100
AcDbEntity
  8
0
  6
CONTINUOUS
 62
           3
100
AcDbLine
 10
3720.899996423627
 20
1283.429516176697
 11
3725.899995380625
 21
1283.429516176697
  0
LINE
  5
243
100
AcDbEntity
  8
0
  6
CONTINUOUS
 62
           3
100
AcDbLine
 10
3725.899995380625
 20
1284.629517863594
 11
3720.899996423627
 21
1284.629517863594
  0
LINE
  5
242
100
AcDbEntity
  8
0
  6
CONTINUOUS
 62
           3
100
AcDbLine
 10
3710.899998509636
 20
1283.429516176697
 11
3695.899996051148
 21
1283.429516176697
  0
LINE
  5
241
100
AcDbEntity
  8
0
  6
CONTINUOUS
 62
           3
100
AcDbLine
 10
3710.899998509636
 20
1284.629517863594
 11
3695.899996051148
 21
1284.629517863594
  0
LINE
  5
240
100
AcDbEntity
  8
0
  6
CONTINUOUS
 62
           3
100
AcDbLine
 10
3605.899998062719
 20
1283.429516176697
 11
3605.899998062719
 21
1284.629517863594
  0
LINE
  5
23F
100
AcDbEntity
  8
0
  6
CONTINUOUS
 62
           3
100
AcDbLine
 10
3610.899997019717
 20
1283.429516176697
 11
3605.899998062719
 21
1283.429516176697
  0
LINE
  5
23E
100
AcDbEntity
  8
0
  6
CONTINUOUS
 62
           3
100
AcDbLine
 10
3605.899998062719
 20
1284.629517863594
 11
3610.899997019717
 21
1284.629517863594
  0
LINE
  5
23D
100
AcDbEntity
  8
0
  6
CONTINUOUS
 62
           3
100
AcDbLine
 10
3605.899998062719
 20
1125.829515676224
 11
3605.899998062719
 21
1124.629517714729
  0
LINE
  5
23C
100
AcDbEntity
  8
0
  6
CONTINUOUS
 62
           3
100
AcDbLine
 10
3605.899998062719
 20
1124.629517714729
 11
3610.899997019717
 21
1124.629517714729
  0
LINE
  5
23B
100
AcDbEntity
  8
0
  6
CONTINUOUS
 62
           3
100
AcDbLine
 10
3610.899997019717
 20
1125.829515676224
 11
3605.899998062719
 21
1125.829515676224
  0
LINE
  5
23A
100
AcDbEntity
  8
0
  6
CONTINUOUS
 62
           3
100
AcDbLine
 10
3669.149996788768
 20
1125.829515676224
 11
3668.899996747768
 21
1125.829515676224
  0
LINE
  5
239
100
AcDbEntity
  8
0
  6
CONTINUOUS
 62
           3
100
AcDbLine
 10
3662.899996695581
 20
1125.829515676224
 11
3662.649996654581
 21
1125.829515676224
  0
LINE
  5
238
100
AcDbEntity
  8
0
  6
CONTINUOUS
 62
           3
100
AcDbLine
 10
3662.649996654581
 20
1283.429516176697
 11
3662.899996695581
 21
1283.429516176697
  0
LINE
  5
237
100
AcDbEntity
  8
0
  6
CONTINUOUS
 62
           3
100
AcDbLine
 10
3668.899996747768
 20
1283.429516176697
 11
3669.149996788768
 21
1283.429516176697
  0
LINE
  5
236
100
AcDbEntity
  8
0
  6
CONTINUOUS
 62
           3
100
AcDbLine
 10
3662.649996654581
 20
1284.629517863594
 11
3662.899996695581
 21
1284.629517863594
  0
LINE
  5
235
100
AcDbEntity
  8
0
  6
CONTINUOUS
 62
           3
100
AcDbLine
 10
3668.899996747768
 20
1284.629517863594
 11
3669.149996788768
 21
1284.629517863594
  0
LINE
  5
234
100
AcDbEntity
  8
0
  6
CONTINUOUS
 62
           3
100
AcDbLine
 10
3725.899995380625
 20
1125.829515676224
 11
3725.899995380625
 21
1126.329516689422
  0
LINE
  5
233
100
AcDbEntity
  8
0
  6
CONTINUOUS
 62
           3
100
AcDbLine
 10
3605.899998062719
 20
1125.829515676224
 11
3605.899998062719
 21
1126.329516689422
  0
LINE
  5
232
100
AcDbEntity
  8
0
  6
CONTINUOUS
 62
           3
100
AcDbLine
 10
3605.899998062719
 20
1283.429516176697
 11
3605.899998062719
 21
1282.929518888896
  0
LINE
  5
231
100
AcDbEntity
  8
0
  6
CONTINUOUS
 62
           3
100
AcDbLine
 10
3725.899995380625
 20
1283.429516176697
 11
3725.899995380625
 21
1282.929518888896
  0
LINE
  5
230
100
AcDbEntity
  8
0
  6
CONTINUOUS
 62
           3
100
AcDbLine
 10
3725.899995380625
 20
1264.629516448111
 11
3724.199996405629
 21
1264.629516448111
  0
LINE
  5
22F
100
AcDbEntity
  8
0
  6
CONTINUOUS
 62
           3
100
AcDbLine
 10
3725.899995380625
 20
1244.629516895026
 11
3725.899995380625
 21
1264.629516448111
  0
LINE
  5
22E
100
AcDbEntity
  8
0
  6
CONTINUOUS
 62
           3
100
AcDbLine
 10
3724.199996405629
 20
1244.629516895026
 11
3725.824804121026
 21
1244.629516895026
  0
LINE
  5
22D
100
AcDbEntity
  8
0
  6
CONTINUOUS
 62
           3
100
AcDbLine
 10
3607.899998390719
 20
1266.629518638511
 11
3605.899998062719
 21
1266.629518638511
  0
LINE
  5
22C
100
AcDbEntity
  8
0
  6
CONTINUOUS
 62
           3
100
AcDbLine
 10
3605.899998062719
 20
1282.929518888896
 11
3605.899998062719
 21
1266.629518638511
  0
LINE
  5
22B
100
AcDbEntity
  8
0
  6
CONTINUOUS
 62
           3
100
AcDbLine
 10
3725.899995380625
 20
1282.929518888896
 11
3725.899995380625
 21
1266.629518638511
  0
LINE
  5
22A
100
AcDbEntity
  8
0
  6
CONTINUOUS
 62
           3
100
AcDbLine
 10
3723.899995052627
 20
1266.629518638511
 11
3725.899995380625
 21
1266.629518638511
  0
LINE
  5
229
100
AcDbEntity
  8
0
  6
CONTINUOUS
 62
           3
100
AcDbLine
 10
3724.199996405629
 20
1264.629516448111
 11
3723.899995052627
 21
1264.629516448111
  0
LINE
  5
228
100
AcDbEntity
  8
0
  6
CONTINUOUS
 62
           3
100
AcDbLine
 10
3723.899995052627
 20
1244.629516895026
 11
3724.199996405629
 21
1244.629516895026
  0
LINE
  5
227
100
AcDbEntity
  8
0
  6
CONTINUOUS
 62
           3
100
AcDbLine
 10
3725.899995380625
 20
1242.629517498532
 11
3723.899995052627
 21
1242.629517498532
  0
LINE
  5
226
100
AcDbEntity
  8
0
  6
CONTINUOUS
 62
           3
100
AcDbLine
 10
3725.899995380625
 20
1242.629517498532
 11
3725.899995380625
 21
1166.629513423191
  0
LINE
  5
225
100
AcDbEntity
  8
0
  6
CONTINUOUS
 62
           3
100
AcDbLine
 10
3725.899995380625
 20
1166.629513423191
 11
3723.899995052627
 21
1166.629513423191
  0
LINE
  5
224
100
AcDbEntity
  8
0
  6
CONTINUOUS
 62
           3
100
AcDbLine
 10
3723.899995052627
 20
1164.629516820593
 11
3724.199996405629
 21
1164.629516820593
  0
LINE
  5
223
100
AcDbEntity
  8
0
  6
CONTINUOUS
 62
           3
100
AcDbLine
 10
3724.199996405629
 20
1144.62951354241
 11
3723.899995052627
 21
1144.62951354241
  0
LINE
  5
222
100
AcDbEntity
  8
0
  6
CONTINUOUS
 62
           3
100
AcDbLine
 10
3723.899995052627
 20
1142.629516939815
 11
3725.899995380625
 21
1142.629516939815
  0
LINE
  5
221
100
AcDbEntity
  8
0
  6
CONTINUOUS
 62
           3
100
AcDbLine
 10
3725.899995380625
 20
1126.329516689422
 11
3725.899995380625
 21
1142.629516939815
  0
LINE
  5
220
100
AcDbEntity
  8
0
  6
CONTINUOUS
 62
           3
100
AcDbLine
 10
3605.899998062719
 20
1126.329516689422
 11
3605.899998062719
 21
1142.629516939815
  0
LINE
  5
21F
100
AcDbEntity
  8
0
  6
CONTINUOUS
 62
           3
100
AcDbLine
 10
3607.899998390719
 20
1142.629516939815
 11
3605.899998062719
 21
1142.629516939815
  0
LINE
  5
21E
100
AcDbEntity
  8
0
  6
CONTINUOUS
 62
           3
100
AcDbLine
 10
3607.59999703772
 20
1144.62951354241
 11
3607.899998390719
 21
1144.62951354241
  0
LINE
  5
21D
100
AcDbEntity
  8
0
  6
CONTINUOUS
 62
           3
100
AcDbLine
 10
3607.899998390719
 20
1164.629516820593
 11
3607.59999703772
 21
1164.629516820593
  0
LINE
  5
21C
100
AcDbEntity
  8
0
  6
CONTINUOUS
 62
           3
100
AcDbLine
 10
3605.899998062719
 20
1166.629513423191
 11
3607.899998390719
 21
1166.629513423191
  0
LINE
  5
21B
100
AcDbEntity
  8
0
  6
CONTINUOUS
 62
           3
100
AcDbLine
 10
3605.899998062719
 20
1242.629517498532
 11
3605.899998062719
 21
1166.629513423191
  0
LINE
  5
21A
100
AcDbEntity
  8
0
  6
CONTINUOUS
 62
           3
100
AcDbLine
 10
3605.899998062719
 20
1242.629517498532
 11
3607.899998390719
 21
1242.629517498532
  0
LINE
  5
219
100
AcDbEntity
  8
0
  6
CONTINUOUS
 62
           3
100
AcDbLine
 10
3607.899998390719
 20
1244.629516895026
 11
3607.59999703772
 21
1244.629516895026
  0
LINE
  5
218
100
AcDbEntity
  8
0
  6
CONTINUOUS
 62
           3
100
AcDbLine
 10
3607.59999703772
 20
1264.629516448111
 11
3607.899998390719
 21
1264.629516448111
  0
LINE
  5
217
100
AcDbEntity
  8
0
  6
CONTINUOUS
 62
           3
100
AcDbLine
 10
3605.899998062719
 20
1164.629516820593
 11
3605.899998062719
 21
1144.62951354241
  0
LINE
  5
216
100
AcDbEntity
  8
0
  6
CONTINUOUS
 62
           3
100
AcDbLine
 10
3607.59999703772
 20
1164.629516820593
 11
3605.899998062719
 21
1164.629516820593
  0
LINE
  5
215
100
AcDbEntity
  8
0
  6
CONTINUOUS
 62
           3
100
AcDbLine
 10
3605.975189322328
 20
1144.62951354241
 11
3607.59999703772
 21
1144.62951354241
  0
LINE
  5
214
100
AcDbEntity
  8
0
  6
CONTINUOUS
 62
           3
100
AcDbLine
 10
3607.59999703772
 20
1244.629516895026
 11
3605.975189322328
 21
1244.629516895026
  0
LINE
  5
213
100
AcDbEntity
  8
0
  6
CONTINUOUS
 62
           3
100
AcDbLine
 10
3605.899998062719
 20
1244.629516895026
 11
3605.899998062719
 21
1264.629516448111
  0
LINE
  5
212
100
AcDbEntity
  8
0
  6
CONTINUOUS
 62
           3
100
AcDbLine
 10
3605.899998062719
 20
1264.629516448111
 11
3607.59999703772
 21
1264.629516448111
  0
LINE
  5
211
100
AcDbEntity
  8
0
  6
CONTINUOUS
 62
           3
100
AcDbLine
 10
3725.899995380625
 20
1164.629516820593
 11
3725.899995380625
 21
1144.62951354241
  0
LINE
  5
210
100
AcDbEntity
  8
0
  6
CONTINUOUS
 62
           3
100
AcDbLine
 10
3724.199996405629
 20
1164.629516820593
 11
3725.899995380625
 21
1164.629516820593
  0
LINE
  5
20F
100
AcDbEntity
  8
0
  6
CONTINUOUS
 62
           3
100
AcDbLine
 10
3725.824804121026
 20
1144.62951354241
 11
3724.199996405629
 21
1144.62951354241
  0
LINE
  5
20E
100
AcDbEntity
  8
0
  6
CONTINUOUS
 62
           3
100
AcDbLine
 10
3612.899997347718
 20
1099.629511754446
 11
3612.899997347718
 21
1101.229523937344
  0
LINE
  5
20D
100
AcDbEntity
  8
0
  6
CONTINUOUS
 62
           3
100
AcDbLine
 10
3610.899997019717
 20
1099.629511754446
 11
3612.899997347718
 21
1099.629511754446
  0
LINE
  5
20C
100
AcDbEntity
  8
0
  6
CONTINUOUS
 62
           3
100
AcDbLine
 10
3612.899997347718
 20
1101.229523937344
 11
3610.899997019717
 21
1101.229523937344
  0
LINE
  5
20B
100
AcDbEntity
  8
0
  6
CONTINUOUS
 62
           3
100
AcDbLine
 10
3610.899997019717
 20
1369.629522482827
 11
3612.899997347718
 21
1369.629522482827
  0
LINE
  5
20A
100
AcDbEntity
  8
0
  6
CONTINUOUS
 62
           3
100
AcDbLine
 10
3612.899997347718
 20
1369.629522482827
 11
3612.899997347718
 21
1368.029510299627
  0
LINE
  5
209
100
AcDbEntity
  8
0
  6
CONTINUOUS
 62
           3
100
AcDbLine
 10
3612.899997347718
 20
1368.029510299627
 11
3610.899997019717
 21
1368.029510299627
  0
LINE
  5
208
100
AcDbEntity
  8
0
  6
CONTINUOUS
 62
           3
100
AcDbLine
 10
3618.899998331108
 20
1368.029510299627
 11
3618.899998331108
 21
1369.629522482827
  0
LINE
  5
207
100
AcDbEntity
  8
0
  6
CONTINUOUS
 62
           3
100
AcDbLine
 10
3618.899998331108
 20
1369.629522482827
 11
3620.899994933708
 21
1369.629522482827
  0
LINE
  5
206
100
AcDbEntity
  8
0
  6
CONTINUOUS
 62
           3
100
AcDbLine
 10
3620.899994933708
 20
1368.029510299627
 11
3618.899998331108
 21
1368.029510299627
  0
LINE
  5
205
100
AcDbEntity
  8
0
  6
CONTINUOUS
 62
           3
100
AcDbLine
 10
3618.899998331108
 20
1099.629511754446
 11
3620.899994933708
 21
1099.629511754446
  0
LINE
  5
204
100
AcDbEntity
  8
0
  6
CONTINUOUS
 62
           3
100
AcDbLine
 10
3618.899998331108
 20
1101.229523937344
 11
3618.899998331108
 21
1099.629511754446
  0
LINE
  5
203
100
AcDbEntity
  8
0
  6
CONTINUOUS
 62
           3
100
AcDbLine
 10
3620.899994933708
 20
1101.229523937344
 11
3618.899998331108
 21
1101.229523937344
  0
LINE
  5
202
100
AcDbEntity
  8
0
  6
CONTINUOUS
 62
           3
100
AcDbLine
 10
3620.899994933708
 20
1099.629511754446
 11
3710.899998509636
 21
1099.629511754446
  0
LINE
  5
201
100
AcDbEntity
  8
0
  6
CONTINUOUS
 62
           3
100
AcDbLine
 10
3620.899994933708
 20
1101.229523937344
 11
3710.899998509636
 21
1101.229523937344
  0
LINE
  5
200
100
AcDbEntity
  8
0
  6
CONTINUOUS
 62
           3
100
AcDbLine
 10
3620.899994933708
 20
1369.629522482827
 11
3710.899998509636
 21
1369.629522482827
  0
LINE
  5
1FF
100
AcDbEntity
  8
0
  6
CONTINUOUS
 62
           3
100
AcDbLine
 10
3620.899994933708
 20
1368.029510299627
 11
3710.899998509636
 21
1368.029510299627
  0
LINE
  5
1FE
100
AcDbEntity
  8
0
  6
CONTINUOUS
 62
           3
100
AcDbLine
 10
3605.899998062719
 20
1101.229523937344
 11
3605.899998062719
 21
1099.629511754446
  0
LINE
  5
1FD
100
AcDbEntity
  8
0
  6
CONTINUOUS
 62
           3
100
AcDbLine
 10
3605.899998062719
 20
1099.629511754446
 11
3610.899997019717
 21
1099.629511754446
  0
LINE
  5
1FC
100
AcDbEntity
  8
0
  6
CONTINUOUS
 62
           3
100
AcDbLine
 10
3610.899997019717
 20
1101.229523937344
 11
3605.899998062719
 21
1101.229523937344
  0
LINE
  5
1FB
100
AcDbEntity
  8
0
  6
CONTINUOUS
 62
           3
100
AcDbLine
 10
3605.899998062719
 20
1368.029510299627
 11
3605.899998062719
 21
1369.629522482827
  0
LINE
  5
1FA
100
AcDbEntity
  8
0
  6
CONTINUOUS
 62
           3
100
AcDbLine
 10
3605.899998062719
 20
1369.629522482827
 11
3610.899997019717
 21
1369.629522482827
  0
LINE
  5
1F9
100
AcDbEntity
  8
0
  6
CONTINUOUS
 62
           3
100
AcDbLine
 10
3610.899997019717
 20
1368.029510299627
 11
3605.899998062719
 21
1368.029510299627
  0
LINE
  5
1F8
100
AcDbEntity
  8
0
  6
CONTINUOUS
 62
           3
100
AcDbLine
 10
3718.899996095925
 20
1369.629522482827
 11
3718.899996095925
 21
1368.029510299627
  0
LINE
  5
1F7
100
AcDbEntity
  8
0
  6
CONTINUOUS
 62
           3
100
AcDbLine
 10
3720.899996423627
 20
1369.629522482827
 11
3718.899996095925
 21
1369.629522482827
  0
LINE
  5
1F6
100
AcDbEntity
  8
0
  6
CONTINUOUS
 62
           3
100
AcDbLine
 10
3718.899996095925
 20
1368.029510299627
 11
3720.899996423627
 21
1368.029510299627
  0
LINE
  5
1F5
100
AcDbEntity
  8
0
  6
CONTINUOUS
 62
           3
100
AcDbLine
 10
3718.899996095925
 20
1099.629511754446
 11
3718.899996095925
 21
1101.229523937344
  0
LINE
  5
1F4
100
AcDbEntity
  8
0
  6
CONTINUOUS
 62
           3
100
AcDbLine
 10
3720.899996423627
 20
1099.629511754446
 11
3718.899996095925
 21
1099.629511754446
  0
LINE
  5
1F3
100
AcDbEntity
  8
0
  6
CONTINUOUS
 62
           3
100
AcDbLine
 10
3718.899996095925
 20
1101.229523937344
 11
3720.899996423627
 21
1101.229523937344
  0
LINE
  5
1F2
100
AcDbEntity
  8
0
  6
CONTINUOUS
 62
           3
100
AcDbLine
 10
3712.899995112238
 20
1368.029510299627
 11
3712.899995112238
 21
1369.629522482827
  0
LINE
  5
1F1
100
AcDbEntity
  8
0
  6
CONTINUOUS
 62
           3
100
AcDbLine
 10
3712.899995112238
 20
1369.629522482827
 11
3710.899998509636
 21
1369.629522482827
  0
LINE
  5
1F0
100
AcDbEntity
  8
0
  6
CONTINUOUS
 62
           3
100
AcDbLine
 10
3710.899998509636
 20
1368.029510299627
 11
3712.899995112238
 21
1368.029510299627
  0
LINE
  5
1EF
100
AcDbEntity
  8
0
  6
CONTINUOUS
 62
           3
100
AcDbLine
 10
3712.899995112238
 20
1101.229523937344
 11
3712.899995112238
 21
1099.629511754446
  0
LINE
  5
1EE
100
AcDbEntity
  8
0
  6
CONTINUOUS
 62
           3
100
AcDbLine
 10
3712.899995112238
 20
1099.629511754446
 11
3710.899998509636
 21
1099.629511754446
  0
LINE
  5
1ED
100
AcDbEntity
  8
0
  6
CONTINUOUS
 62
           3
100
AcDbLine
 10
3710.899998509636
 20
1101.229523937344
 11
3712.899995112238
 21
1101.229523937344
  0
LINE
  5
1EC
100
AcDbEntity
  8
0
  6
CONTINUOUS
 62
           3
100
AcDbLine
 10
3725.899995380625
 20
1101.229523937344
 11
3725.899995380625
 21
1099.629511754446
  0
LINE
  5
1EB
100
AcDbEntity
  8
0
  6
CONTINUOUS
 62
           3
100
AcDbLine
 10
3725.899995380625
 20
1099.629511754446
 11
3720.899996423627
 21
1099.629511754446
  0
LINE
  5
1EA
100
AcDbEntity
  8
0
  6
CONTINUOUS
 62
           3
100
AcDbLine
 10
3720.899996423627
 20
1101.229523937344
 11
3725.899995380625
 21
1101.229523937344
  0
LINE
  5
1E9
100
AcDbEntity
  8
0
  6
CONTINUOUS
 62
           3
100
AcDbLine
 10
3725.899995380625
 20
1368.029510299627
 11
3725.899995380625
 21
1369.629522482827
  0
LINE
  5
1E8
100
AcDbEntity
  8
0
  6
CONTINUOUS
 62
           3
100
AcDbLine
 10
3725.899995380625
 20
1369.629522482827
 11
3720.899996423627
 21
1369.629522482827
  0
LINE
  5
1E7
100
AcDbEntity
  8
0
  6
CONTINUOUS
 62
           3
100
AcDbLine
 10
3720.899996423627
 20
1368.029510299627
 11
3725.899995380625
 21
1368.029510299627
  0
LINE
  5
1E6
100
AcDbEntity
  8
0
  6
CONTINUOUS
 62
           3
100
AcDbLine
 10
3725.899995380625
 20
1368.029510299627
 11
3725.899995380625
 21
1367.329513351626
  0
LINE
  5
1E5
100
AcDbEntity
  8
0
  6
CONTINUOUS
 62
           3
100
AcDbLine
 10
3605.899998062719
 20
1368.029510299627
 11
3605.899998062719
 21
1367.329513351626
  0
LINE
  5
1E4
100
AcDbEntity
  8
0
  6
CONTINUOUS
 62
           3
100
AcDbLine
 10
3725.899995380625
 20
1101.229523937344
 11
3725.899995380625
 21
1101.929520885646
  0
LINE
  5
1E3
100
AcDbEntity
  8
0
  6
CONTINUOUS
 62
           3
100
AcDbLine
 10
3605.899998062719
 20
1101.229523937344
 11
3605.899998062719
 21
1101.929520885646
  0
LINE
  5
1E2
100
AcDbEntity
  8
0
  6
CONTINUOUS
 62
           3
100
AcDbLine
 10
3585.499999189238
 20
1099.629511754446
 11
3583.399993443338
 21
1099.629511754446
  0
LINE
  5
1E1
100
AcDbEntity
  8
0
  6
CONTINUOUS
 62
           3
100
AcDbLine
 10
3583.399993443338
 20
1369.629522482827
 11
3583.399993443338
 21
1099.629511754446
  0
LINE
  5
1E0
100
AcDbEntity
  8
0
  6
CONTINUOUS
 62
           3
100
AcDbLine
 10
3585.499999189238
 20
1369.629522482827
 11
3583.399993443338
 21
1369.629522482827
  0
LINE
  5
1DF
100
AcDbEntity
  8
0
  6
CONTINUOUS
 62
           3
100
AcDbLine
 10
3727.399998420229
 20
1224.629517342243
 11
3725.899995380625
 21
1224.629517342243
  0
LINE
  5
1DE
100
AcDbEntity
  8
0
  6
CONTINUOUS
 62
           3
100
AcDbLine
 10
3724.39999606613
 20
1166.629513423191
 11
3724.39999606613
 21
1164.629516820593
  0
LINE
  5
1DD
100
AcDbEntity
  8
0
  6
CONTINUOUS
 62
           3
100
AcDbLine
 10
3725.824804121026
 20
1144.62951354241
 11
3727.399998420229
 21
1144.62951354241
  0
LINE
  5
1DC
100
AcDbEntity
  8
0
  6
CONTINUOUS
 62
           3
100
AcDbLine
 10
3727.399998420229
 20
1144.62951354241
 11
3727.399998420229
 21
1224.629517342243
  0
LINE
  5
1DB
100
AcDbEntity
  8
0
  6
CONTINUOUS
 62
           3
100
AcDbLine
 10
3724.39999606613
 20
1324.629520694863
 11
3727.399998420229
 21
1324.629520694863
  0
LINE
  5
1DA
100
AcDbEntity
  8
0
  6
CONTINUOUS
 62
           3
100
AcDbLine
 10
3724.39999606613
 20
1264.629516448111
 11
3724.39999606613
 21
1266.629518638511
  0
LINE
  5
1D9
100
AcDbEntity
  8
0
  6
CONTINUOUS
 62
           3
100
AcDbLine
 10
3724.39999606613
 20
1284.629517863594
 11
3724.39999606613
 21
1324.629520694863
  0
LINE
  5
1D8
100
AcDbEntity
  8
0
  6
CONTINUOUS
 62
           3
100
AcDbLine
 10
3727.399998420229
 20
1244.629516895026
 11
3725.824804121026
 21
1244.629516895026
  0
LINE
  5
1D7
100
AcDbEntity
  8
0
  6
CONTINUOUS
 62
           3
100
AcDbLine
 10
3727.399998420229
 20
1324.629520694863
 11
3727.399998420229
 21
1244.629516895026
  0
LINE
  5
1D6
100
AcDbEntity
  8
0
  6
CONTINUOUS
 62
           3
100
AcDbLine
 10
3605.975189322328
 20
1144.62951354241
 11
3604.399995023128
 21
1144.62951354241
  0
LINE
  5
1D5
100
AcDbEntity
  8
0
  6
CONTINUOUS
 62
           3
100
AcDbLine
 10
3607.399997377521
 20
1166.629513423191
 11
3607.399997377521
 21
1164.629516820593
  0
LINE
  5
1D4
100
AcDbEntity
  8
0
  6
CONTINUOUS
 62
           3
100
AcDbLine
 10
3604.399995023128
 20
1224.629517342243
 11
3605.899998062719
 21
1224.629517342243
  0
LINE
  5
1D3
100
AcDbEntity
  8
0
  6
CONTINUOUS
 62
           3
100
AcDbLine
 10
3604.399995023128
 20
1144.62951354241
 11
3604.399995023128
 21
1224.629517342243
  0
LINE
  5
1D2
100
AcDbEntity
  8
0
  6
CONTINUOUS
 62
           3
100
AcDbLine
 10
3605.899998062719
 20
1102.629517833944
 11
3605.899998062719
 21
1101.929520885646
  0
LINE
  5
1D1
100
AcDbEntity
  8
0
  6
CONTINUOUS
 62
           3
100
AcDbLine
 10
3600.899999106025
 20
1099.629511754446
 11
3600.899999106025
 21
1102.629517833944
  0
LINE
  5
1D0
100
AcDbEntity
  8
0
  6
CONTINUOUS
 62
           3
100
AcDbLine
 10
3600.899999106025
 20
1369.629522482827
 11
3585.499999189238
 21
1369.629522482827
  0
LINE
  5
1CF
100
AcDbEntity
  8
0
  6
CONTINUOUS
 62
           3
100
AcDbLine
 10
3600.899999106025
 20
1369.629522482827
 11
3600.899999106025
 21
1366.629516403327
  0
LINE
  5
1CE
100
AcDbEntity
  8
0
  6
CONTINUOUS
 62
           3
100
AcDbLine
 10
3605.899998062719
 20
1366.629516403327
 11
3605.899998062719
 21
1367.329513351626
  0
LINE
  5
1CD
100
AcDbEntity
  8
0
  6
CONTINUOUS
 62
           3
100
AcDbLine
 10
3725.899995380625
 20
1366.629516403327
 11
3725.899995380625
 21
1367.329513351626
  0
LINE
  5
1CC
100
AcDbEntity
  8
0
  6
CONTINUOUS
 62
           3
100
AcDbLine
 10
3730.899994337318
 20
1369.629522482827
 11
3730.899994337318
 21
1366.629516403327
  0
LINE
  5
1CB
100
AcDbEntity
  8
0
  6
CONTINUOUS
 62
           3
100
AcDbLine
 10
3730.899994337318
 20
1099.629511754446
 11
3730.899994337318
 21
1102.629517833944
  0
LINE
  5
1CA
100
AcDbEntity
  8
0
  6
CONTINUOUS
 62
           3
100
AcDbLine
 10
3725.899995380625
 20
1102.629517833944
 11
3725.899995380625
 21
1101.929520885646
  0
LINE
  5
1C9
100
AcDbEntity
  8
0
  6
CONTINUOUS
 62
           3
100
AcDbLine
 10
3604.399995023128
 20
1244.629516895026
 11
3605.975189322328
 21
1244.629516895026
  0
LINE
  5
1C8
100
AcDbEntity
  8
0
  6
CONTINUOUS
 62
           3
100
AcDbLine
 10
3607.399997377521
 20
1264.629516448111
 11
3607.399997377521
 21
1266.629518638511
  0
LINE
  5
1C7
100
AcDbEntity
  8
0
  6
CONTINUOUS
 62
           3
100
AcDbLine
 10
3607.399997377521
 20
1284.629517863594
 11
3607.399997377521
 21
1324.629520694863
  0
LINE
  5
1C6
100
AcDbEntity
  8
0
  6
CONTINUOUS
 62
           3
100
AcDbLine
 10
3607.399997377521
 20
1324.629520694863
 11
3604.399995023128
 21
1324.629520694863
  0
LINE
  5
1C5
100
AcDbEntity
  8
0
  6
CONTINUOUS
 62
           3
100
AcDbLine
 10
3604.399995023128
 20
1324.629520694863
 11
3604.399995023128
 21
1244.629516895026
  0
LINE
  5
1C4
100
AcDbEntity
  8
0
  6
CONTINUOUS
 62
           3
100
AcDbLine
 10
3600.899999106025
 20
1099.629511754446
 11
3585.499999189238
 21
1099.629511754446
  0
LINE
  5
1C3
100
AcDbEntity
  8
FORMAT
  6
DOT_CENTER
 62
           3
100
AcDbLine
 10
3590.999996721637
 20
1359.629517118631
 11
3577.399996721749
 21
1359.629517118631
  0
LINE
  5
1C2
100
AcDbEntity
  8
FORMAT
  6
DOT_CENTER
 62
           3
100
AcDbLine
 10
3590.999996721637
 20
1109.629517118638
 11
3577.399996721749
 21
1109.629517118638
  0
LINE
  5
1C1
100
AcDbEntity
  8
FORMAT
  6
CONTINUOUS
 62
           3
100
AcDbLine
 10
3679.89999672176
 20
1127.226362221523
 11
3669.399996721769
 21
1127.226362221523
  0
LINE
  5
1C0
100
AcDbEntity
  8
FORMAT
  6
CONTINUOUS
 62
           3
100
AcDbLine
 10
3669.399996721769
 20
1127.226362221523
 11
3662.399996721578
 21
1127.226362221523
  0
LINE
  5
1BF
100
AcDbEntity
  8
FORMAT
  6
DOT_CENTER
 62
           3
100
AcDbLine
 10
3665.89999672168
 20
984.388914370886
 11
3665.89999672168
 21
1460.023907887199
  0
LINE
  5
1BE
100
AcDbEntity
  8
FORMAT
  6
CONTINUOUS
 62
           3
100
AcDbLine
 10
3662.399996721578
 20
1127.226362221523
 11
3651.899996721589
 21
1127.226362221523
  0
LINE
  5
1BD
100
AcDbEntity
  8
0
  6
CONTINUOUS
 62
           3
100
AcDbLine
 10
3665.89999672168
 20
1127.761257510025
 11
3666.955269949179
 21
1127.745909313823
  0
LINE
  5
1BC
100
AcDbEntity
  8
0
  6
CONTINUOUS
 62
           3
100
AcDbLine
 10
3666.955269949179
 20
1127.745909313823
 11
3667.896187940067
 21
1127.701533655824
  0
LINE
  5
1BB
100
AcDbEntity
  8
0
  6
CONTINUOUS
 62
           3
100
AcDbLine
 10
3667.896187940067
 20
1127.701533655824
 11
3668.620787869768
 21
1127.632928709622
  0
LINE
  5
1BA
100
AcDbEntity
  8
0
  6
CONTINUOUS
 62
           3
100
AcDbLine
 10
3668.620787869768
 20
1127.632928709622
 11
3669.050547602967
 21
1127.547537605424
  0
LINE
  5
1B9
100
AcDbEntity
  8
0
  6
CONTINUOUS
 62
           3
100
AcDbLine
 10
3669.050547602967
 20
1127.547537605424
 11
3669.138896354967
 21
1127.454606513624
  0
LINE
  5
1B8
100
AcDbEntity
  8
0
  6
CONTINUOUS
 62
           3
100
AcDbLine
 10
3669.138896354967
 20
1127.454606513624
 11
3668.899996747768
 21
1127.369058947425
  0
LINE
  5
1B7
100
AcDbEntity
  8
0
  6
CONTINUOUS
 62
           3
100
AcDbLine
 10
3662.899996695581
 20
1127.369058947425
 11
3662.661097088377
 21
1127.454606513624
  0
LINE
  5
1B6
100
AcDbEntity
  8
0
  6
CONTINUOUS
 62
           3
100
AcDbLine
 10
3662.661097088377
 20
1127.454606513624
 11
3662.749445840381
 21
1127.547537605424
  0
LINE
  5
1B5
100
AcDbEntity
  8
0
  6
CONTINUOUS
 62
           3
100
AcDbLine
 10
3662.749445840381
 20
1127.547537605424
 11
3663.179205573578
 21
1127.632928709622
  0
LINE
  5
1B4
100
AcDbEntity
  8
0
  6
CONTINUOUS
 62
           3
100
AcDbLine
 10
3663.179205573578
 20
1127.632928709622
 11
3663.90380550328
 21
1127.701533655824
  0
LINE
  5
1B3
100
AcDbEntity
  8
0
  6
CONTINUOUS
 62
           3
100
AcDbLine
 10
3663.90380550328
 20
1127.701533655824
 11
3664.844723494178
 21
1127.745909313823
  0
LINE
  5
1B2
100
AcDbEntity
  8
0
  6
CONTINUOUS
 62
           3
100
AcDbLine
 10
3664.844723494178
 20
1127.745909313823
 11
3665.89999672168
 21
1127.761257510025
  0
LINE
  5
1B1
100
AcDbEntity
  8
1
  6
CONTINUOUS
 62
           3
100
AcDbLine
 10
4170.163567691046
 20
1653.757682123565
 11
4165.254330418637
 21
1653.757682123565
  0
LINE
  5
1B0
100
AcDbEntity
  8
1
  6
DOT_CENTER
 62
           3
100
AcDbLine
 10
4170.163567691046
 20
1673.273072923505
 11
4170.163567691046
 21
1642.137525373756
  0
LINE
  5
1AF
100
AcDbEntity
  8
1
  6
CONTINUOUS
 62
           3
100
AcDbLine
 10
4165.254330418637
 20
1665.501352113701
 11
4170.163567691046
 21
1665.501352113701
  0
LINE
  5
1AE
100
AcDbEntity
  8
1
  6
CONTINUOUS
 62
           3
100
AcDbLine
 10
4165.254330418637
 20
1667.323263698671
 11
4159.389214871947
 21
1667.323263698671
  0
LINE
  5
1AD
100
AcDbEntity
  8
1
  6
CONTINUOUS
 62
           3
100
AcDbLine
 10
4165.254330418637
 20
1651.935770538591
 11
4159.389214871947
 21
1651.935770538591
  0
LINE
  5
1AC
100
AcDbEntity
  8
1
  6
CONTINUOUS
 62
           3
100
AcDbLine
 10
4165.254330418637
 20
1651.935770538591
 11
4165.254330418637
 21
1667.323263698671
  0
LINE
  5
1AB
100
AcDbEntity
  8
1
  6
CONTINUOUS
 62
           3
100
AcDbLine
 10
4159.389214871947
 20
1651.935770538591
 11
4159.389214871947
 21
1667.323263698671
  0
LINE
  5
1AA
100
AcDbEntity
  8
1
  6
CONTINUOUS
 62
           3
100
AcDbLine
 10
4159.389214871947
 20
1667.323263698671
 11
4159.389214871947
 21
1667.879517118631
  0
LINE
  5
1A9
100
AcDbEntity
  8
1
  6
CONTINUOUS
 62
           3
100
AcDbLine
 10
4149.714603906647
 20
1659.629517118631
 11
4149.714603906647
 21
1667.879517118631
  0
LINE
  5
1A8
100
AcDbEntity
  8
1
  6
CONTINUOUS
 62
           3
100
AcDbLine
 10
4149.714603906647
 20
1667.879517118631
 11
4159.389214871947
 21
1667.879517118631
  0
LINE
  5
1A7
100
AcDbEntity
  8
1
  6
CONTINUOUS
 62
           3
100
AcDbLine
 10
4148.868798384466
 20
1665.629517118631
 11
4149.714603906647
 21
1665.629517118631
  0
LINE
  5
1A6
100
AcDbEntity
  8
1
  6
CONTINUOUS
 62
           3
100
AcDbLine
 10
4148.868798384466
 20
1659.629517118631
 11
4148.868798384466
 21
1667.323263698671
  0
LINE
  5
1A5
100
AcDbEntity
  8
1
  6
CONTINUOUS
 62
           3
100
AcDbLine
 10
4148.163567691046
 20
1667.323263698671
 11
4148.868798384466
 21
1667.323263698671
  0
LINE
  5
1A4
100
AcDbEntity
  8
1
  6
CONTINUOUS
 62
           3
100
AcDbLine
 10
4147.663567691046
 20
1666.823263698671
 11
4147.663567691046
 21
1659.629517118631
  0
LINE
  5
1A3
100
AcDbEntity
  8
1
  6
CONTINUOUS
 62
           3
100
AcDbLine
 10
4147.663567691046
 20
1659.629517118631
 11
4147.663567691046
 21
1652.435770538591
  0
LINE
  5
1A2
100
AcDbEntity
  8
1
  6
CONTINUOUS
 62
           3
100
AcDbLine
 10
4148.868798384466
 20
1651.935770538591
 11
4148.163567691046
 21
1651.935770538591
  0
LINE
  5
1A1
100
AcDbEntity
  8
1
  6
CONTINUOUS
 62
           3
100
AcDbLine
 10
4148.868798384466
 20
1651.935770538591
 11
4148.868798384466
 21
1659.629517118631
  0
LINE
  5
1A0
100
AcDbEntity
  8
1
  6
CONTINUOUS
 62
           3
100
AcDbLine
 10
4149.714603906647
 20
1653.629517118631
 11
4148.868798384466
 21
1653.629517118631
  0
LINE
  5
19F
100
AcDbEntity
  8
1
  6
CONTINUOUS
 62
           3
100
AcDbLine
 10
4149.714603906647
 20
1651.379517118631
 11
4149.714603906647
 21
1659.629517118631
  0
LINE
  5
19E
100
AcDbEntity
  8
1
  6
CONTINUOUS
 62
           3
100
AcDbLine
 10
4159.389214871947
 20
1651.379517118631
 11
4149.714603906647
 21
1651.379517118631
  0
LINE
  5
19D
100
AcDbEntity
  8
1
  6
CONTINUOUS
 62
           3
100
AcDbLine
 10
4159.389214871947
 20
1651.379517118631
 11
4159.389214871947
 21
1651.935770538591
  0
LINE
  5
19C
100
AcDbEntity
  8
1
  6
DOT_CENTER
 62
           3
100
AcDbLine
 10
4146.218519558625
 20
1659.629517118631
 11
4187.667695262445
 21
1659.629517118631
  0
LINE
  5
19B
100
AcDbEntity
  8
1
  6
CONTINUOUS
 62
           3
100
AcDbLine
 10
4164.489527668234
 20
1651.935770538591
 11
4170.163567691046
 21
1648.65986200403
  0
LINE
  5
19A
100
AcDbEntity
  8
1
  6
CONTINUOUS
 62
           3
100
AcDbLine
 10
4170.163567691046
 20
1648.65986200403
 11
4179.663567691046
 21
1654.144689561332
  0
LINE
  5
199
100
AcDbEntity
  8
1
  6
CONTINUOUS
 62
           3
100
AcDbLine
 10
4179.663567691046
 20
1654.144689561332
 11
4179.663567691046
 21
1665.114344675933
  0
LINE
  5
198
100
AcDbEntity
  8
1
  6
CONTINUOUS
 62
           3
100
AcDbLine
 10
4179.663567691046
 20
1665.114344675933
 11
4170.163567691046
 21
1670.599172233235
  0
LINE
  5
197
100
AcDbEntity
  8
1
  6
CONTINUOUS
 62
           3
100
AcDbLine
 10
4170.163567691046
 20
1670.599172233235
 11
4164.489527668226
 21
1667.323263698671
  0
LINE
  5
196
100
AcDbEntity
  8
1
  6
CONTINUOUS
 62
           7
100
AcDbLine
 10
-185.999999999999
 20
5795.999999999994
 11
-185.999999999999
 21
5400.000000000001
  0
LINE
  5
195
100
AcDbEntity
  8
1
  6
CONTINUOUS
 62
           7
100
AcDbLine
 10
185.999999999993
 20
5795.999999999994
 11
-209.999999999999
 21
5795.999999999994
  0
LINE
  5
194
100
AcDbEntity
  8
1
  6
CONTINUOUS
 62
           7
100
AcDbLine
 10
185.999999999993
 20
5424.000000000001
 11
185.999999999993
 21
5820.000000000001
  0
LINE
  5
193
100
AcDbEntity
  8
1
  6
CONTINUOUS
 62
           7
100
AcDbLine
 10
-185.999999999999
 20
5424.000000000001
 11
210.000000000001
 21
5424.000000000001
  0
LINE
  5
192
100
AcDbEntity
  8
1
  6
CONTINUOUS
 62
           7
100
AcDbLine
 10
30.50394303083
 20
5954.165620839415
 11
0.000000000001
 21
6010.000000000001
  0
LINE
  5
191
100
AcDbEntity
  8
1
  6
CONTINUOUS
 62
           7
100
AcDbLine
 10
-580.000000000002
 20
5987.000000000001
 11
-580.0
 21
5659.999999999999
  0
LINE
  5
190
100
AcDbEntity
  8
1
  6
CONTINUOUS
 62
           7
100
AcDbLine
 10
-580.000000000002
 20
5987.000000000001
 11
-570.000000000001
 21
6000.0
  0
LINE
  5
18F
100
AcDbEntity
  8
1
  6
CONTINUOUS
 62
           7
100
AcDbLine
 10
-570.000000000001
 20
6010.000000000001
 11
-570.000000000001
 21
6000.0
  0
LINE
  5
18E
100
AcDbEntity
  8
1
  6
CONTINUOUS
 62
           7
100
AcDbLine
 10
-40.387316823278
 20
5083.155626997727
 11
-569.956959680419
 21
5610.000000000003
  0
LINE
  5
18D
100
AcDbEntity
  8
1
  6
CONTINUOUS
 62
           7
100
AcDbLine
 10
-569.956959680419
 20
5610.000000000003
 11
-174.999999999999
 21
6010.000000000002
  0
LINE
  5
18C
100
AcDbEntity
  8
1
  6
CONTINUOUS
 62
           7
100
AcDbLine
 10
410.992065668631
 20
5536.869912712012
 11
-40.387316823278
 21
5083.155626997727
  0
LINE
  5
18B
100
AcDbEntity
  8
1
  6
CONTINUOUS
 62
           7
100
AcDbLine
 10
166.499999999998
 20
5643.750000000001
 11
166.499999999998
 21
5576.250000000001
  0
LINE
  5
18A
100
AcDbEntity
  8
1
  6
CONTINUOUS
 62
           7
100
AcDbLine
 10
113.946258446659
 20
5576.250000000001
 11
113.946258446659
 21
5643.750000000001
  0
LINE
  5
189
100
AcDbEntity
  8
1
  6
CONTINUOUS
 62
           7
100
AcDbLine
 10
123.946258446659
 20
5653.750000000001
 11
156.499999999998
 21
5653.750000000001
  0
LINE
  5
188
100
AcDbEntity
  8
1
  6
CONTINUOUS
 62
           7
100
AcDbLine
 10
156.499999999998
 20
5566.250000000001
 11
123.946258446659
 21
5566.250000000001
  0
LINE
  5
187
100
AcDbEntity
  8
1
  6
CONTINUOUS
 62
           4
100
AcDbLine
 10
115.286004408815
 20
5648.750000000001
 11
109.26566811172
 21
5648.750000000001
  0
LINE
  5
186
100
AcDbEntity
  8
1
  6
CONTINUOUS
 62
           4
100
AcDbLine
 10
115.286004408815
 20
5571.250000000001
 11
109.26566811172
 21
5571.250000000001
  0
LINE
  5
185
100
AcDbEntity
  8
1
  6
CONTINUOUS
 62
           7
100
AcDbLine
 10
389.999999999999
 20
5701.999999999999
 11
160.000000000001
 21
5931.999999999999
  0
LINE
  5
184
100
AcDbEntity
  8
1
  6
CONTINUOUS
 62
           7
100
AcDbLine
 10
34.999999999996
 20
6010.000000000001
 11
39.999999999996
 21
6015.000000000001
  0
LINE
  5
183
100
AcDbEntity
  8
1
  6
CONTINUOUS
 62
           7
100
AcDbLine
 10
-605.000000000005
 20
6010.000000000001
 11
-610.000000000005
 21
6015.000000000001
  0
LINE
  5
182
100
AcDbEntity
  8
1
  6
CONTINUOUS
 62
           7
100
AcDbLine
 10
-610.000000000005
 20
6015.000000000001
 11
-610.000000000005
 21
6050.000000000001
  0
LINE
  5
181
100
AcDbEntity
  8
1
  6
CONTINUOUS
 62
           7
100
AcDbLine
 10
39.999999999996
 20
6050.000000000001
 11
39.999999999996
 21
6015.000000000001
  0
LINE
  5
180
100
AcDbEntity
  8
1
  6
CONTINUOUS
 62
           7
100
AcDbLine
 10
34.999999999996
 20
6010.000000000001
 11
-605.000000000005
 21
6010.000000000001
  0
LINE
  5
17F
100
AcDbEntity
  8
1
  6
CONTINUOUS
 62
           7
100
AcDbLine
 10
39.999999999996
 20
6085.000000000001
 11
39.999999999996
 21
6050.000000000001
  0
LINE
  5
17E
100
AcDbEntity
  8
1
  6
CONTINUOUS
 62
           7
100
AcDbLine
 10
39.999999999996
 20
6085.000000000001
 11
34.999999999996
 21
6090.000000000001
  0
LINE
  5
17D
100
AcDbEntity
  8
1
  6
CONTINUOUS
 62
           7
100
AcDbLine
 10
-605.000000000005
 20
6090.000000000001
 11
34.999999999996
 21
6090.000000000001
  0
LINE
  5
17C
100
AcDbEntity
  8
1
  6
CONTINUOUS
 62
           7
100
AcDbLine
 10
-610.000000000005
 20
6085.000000000001
 11
-605.000000000005
 21
6090.000000000001
  0
LINE
  5
17B
100
AcDbEntity
  8
1
  6
CONTINUOUS
 62
           7
100
AcDbLine
 10
-610.000000000005
 20
6050.000000000001
 11
-610.000000000005
 21
6085.000000000001
  0
LINE
  5
17A
100
AcDbEntity
  8
1
  6
CONTINUOUS
 62
           4
100
AcDbLine
 10
-610.000000000005
 20
6045.500000000001
 11
39.999999999996
 21
6045.500000000001
  0
LINE
  5
179
100
AcDbEntity
  8
1
  6
CONTINUOUS
 62
           7
100
AcDbLine
 10
-610.000000000005
 20
6050.000000000001
 11
39.999999999996
 21
6050.000000000001
  0
LINE
  5
178
100
AcDbEntity
  8
1
  6
CONTINUOUS
 62
           4
100
AcDbLine
 10
39.999999999996
 20
6054.500000000001
 11
-610.000000000005
 21
6054.500000000001
  0
LINE
  5
177
100
AcDbEntity
  8
1
  6
DOT_CENTER
 62
           2
100
AcDbLine
 10
-285.000000000004
 20
6155.267084004819
 11
-285.000000000004
 21
5812.460449015837
  0
LINE
  5
176
100
AcDbEntity
  8
1
  6
CONTINUOUS
 62
           7
100
AcDbLine
 10
4682.000000000004
 20
2785.129517118632
 11
4682.000000000004
 21
2821.829517118629
  0
LINE
  5
175
100
AcDbEntity
  8
1
  6
CONTINUOUS
 62
           7
100
AcDbLine
 10
4682.000000000004
 20
2362.129517118634
 11
4682.000000000004
 21
2400.129517118632
  0
LINE
  5
174
100
AcDbEntity
  8
1
  6
CONTINUOUS
 62
           7
100
AcDbLine
 10
4452.000000000002
 20
2362.129517118638
 11
4756.455357142861
 21
2362.129517118634
  0
LINE
  5
173
100
AcDbEntity
  8
1
  6
CONTINUOUS
 62
           7
100
AcDbLine
 10
4452.000000000002
 20
2400.129517118638
 11
4452.000000000002
 21
2362.129517118638
  0
LINE
  5
172
100
AcDbEntity
  8
1
  6
CONTINUOUS
 62
           7
100
AcDbLine
 10
4286.869912712014
 20
2400.129517118638
 11
4286.869912712014
 21
2362.129517118638
  0
LINE
  5
171
100
AcDbEntity
  8
1
  6
CONTINUOUS
 62
           7
100
AcDbLine
 10
4286.869912712014
 20
2821.829517118629
 11
3833.155626997732
 21
2821.829517118629
  0
LINE
  5
170
100
AcDbEntity
  8
1
  6
CONTINUOUS
 62
           7
100
AcDbLine
 10
4286.869912712014
 20
2821.829517118629
 11
4286.869912712014
 21
2785.129517118632
  0
LINE
  5
16F
100
AcDbEntity
  8
1
  6
CONTINUOUS
 62
           7
100
AcDbLine
 10
4452.000000000002
 20
2821.829517118629
 11
4452.000000000002
 21
2785.129517118632
  0
LINE
  5
16E
100
AcDbEntity
  8
1
  6
CONTINUOUS
 62
           7
100
AcDbLine
 10
4316.250000000004
 20
2914.629517118632
 11
4316.250000000004
 21
2974.629517118632
  0
LINE
  5
16D
100
AcDbEntity
  8
1
  6
CONTINUOUS
 62
           7
100
AcDbLine
 10
4403.750000000004
 20
2974.629517118632
 11
4403.750000000004
 21
2914.629517118632
  0
LINE
  5
16C
100
AcDbEntity
  8
1
  6
CONTINUOUS
 62
           7
100
AcDbLine
 10
4326.250000000004
 20
2984.629517118632
 11
4393.750000000004
 21
2984.629517118632
  0
LINE
  5
16B
100
AcDbEntity
  8
1
  6
CONTINUOUS
 62
           7
100
AcDbLine
 10
4393.750000000004
 20
2904.629517118632
 11
4326.250000000004
 21
2904.629517118632
  0
LINE
  5
16A
100
AcDbEntity
  8
1
  6
CONTINUOUS
 62
           7
100
AcDbLine
 10
4840.000000000006
 20
2400.129517118634
 11
4759.999999999999
 21
2400.129517118634
  0
LINE
  5
169
100
AcDbEntity
  8
1
  6
CONTINUOUS
 62
           7
100
AcDbLine
 10
4760.0
 20
2785.129517118632
 11
4840.000000000007
 21
2785.129517118634
  0
LINE
  5
168
100
AcDbEntity
  8
1
  6
CONTINUOUS
 62
           7
100
AcDbLine
 10
4800.000000000004
 20
2825.129517118634
 11
4800.000000000004
 21
2360.129517118634
  0
LINE
  5
167
100
AcDbEntity
  8
7
  6
CONTINUOUS
 62
           4
100
AcDbLine
 10
4251.200000000003
 20
3165.129517118632
 11
4470.992023000004
 21
3165.129517118632
  0
LINE
  5
166
100
AcDbEntity
  8
1
  6
CONTINUOUS
 62
           4
100
AcDbLine
 10
4475.000000000004
 20
3127.167055491999
 11
4245.000000000004
 21
3127.167055491999
  0
LINE
  5
165
100
AcDbEntity
  8
1
  6
CONTINUOUS
 62
           7
100
AcDbLine
 10
4760.000000000004
 20
2400.129517118632
 11
3833.155626997731
 21
2400.129517118632
  0
LINE
  5
164
100
AcDbEntity
  8
1
  6
CONTINUOUS
 62
           7
100
AcDbLine
 10
4657.500000000004
 20
2309.629517118632
 11
4360.000000000004
 21
2309.629517118632
  0
LINE
  5
163
100
AcDbEntity
  8
1
  6
CONTINUOUS
 62
           7
100
AcDbLine
 10
4360.000000000004
 20
2309.629517118632
 11
4062.500000000004
 21
2309.629517118632
  0
LINE
  5
162
100
AcDbEntity
  8
1
  6
CONTINUOUS
 62
           4
100
AcDbLine
 10
4657.500000000004
 20
2315.629517118632
 11
4062.500000000004
 21
2315.629517118632
  0
LINE
  5
161
100
AcDbEntity
  8
1
  6
CONTINUOUS
 62
           4
100
AcDbLine
 10
4657.500000000004
 20
2315.629517118632
 11
4657.500000000004
 21
2309.629517118632
  0
LINE
  5
160
100
AcDbEntity
  8
1
  6
CONTINUOUS
 62
           4
100
AcDbLine
 10
4062.500000000004
 20
2315.629517118632
 11
4062.500000000004
 21
2309.629517118632
  0
LINE
  5
15F
100
AcDbEntity
  8
1
  6
CONTINUOUS
 62
           4
100
AcDbLine
 10
4795.500000000004
 20
2360.129517118634
 11
4804.500000000004
 21
2360.129517118634
  0
LINE
  5
15E
100
AcDbEntity
  8
1
  6
CONTINUOUS
 62
           4
100
AcDbLine
 10
4804.500000000006
 20
2400.129517118632
 11
4804.500000000004
 21
2785.129517118638
  0
LINE
  5
15D
100
AcDbEntity
  8
1
  6
CONTINUOUS
 62
           4
100
AcDbLine
 10
4795.500000000004
 20
2785.129517118638
 11
4795.500000000006
 21
2400.129517118634
  0
LINE
  5
15C
100
AcDbEntity
  8
1
  6
CONTINUOUS
 62
           4
100
AcDbLine
 10
4795.500000000004
 20
2360.129517118634
 11
4795.500000000004
 21
2394.629517118634
  0
LINE
  5
15B
100
AcDbEntity
  8
1
  6
CONTINUOUS
 62
           4
100
AcDbLine
 10
4760.0
 20
2395.629517118634
 11
4794.500000000004
 21
2395.629517118634
  0
LINE
  5
15A
100
AcDbEntity
  8
1
  6
CONTINUOUS
 62
           4
100
AcDbLine
 10
4804.500000000004
 20
2394.629517118634
 11
4804.500000000004
 21
2360.129517118634
  0
LINE
  5
159
100
AcDbEntity
  8
1
  6
CONTINUOUS
 62
           4
100
AcDbLine
 10
4805.500000000004
 20
2395.629517118634
 11
4840.000000000006
 21
2395.629517118634
  0
LINE
  5
158
100
AcDbEntity
  8
1
  6
CONTINUOUS
 62
           4
100
AcDbLine
 10
4794.500000000004
 20
2789.629517118634
 11
4760.0
 21
2789.629517118634
  0
LINE
  5
157
100
AcDbEntity
  8
1
  6
CONTINUOUS
 62
           4
100
AcDbLine
 10
4795.500000000004
 20
2790.629517118634
 11
4795.500000000004
 21
2825.129517118634
  0
LINE
  5
156
100
AcDbEntity
  8
1
  6
CONTINUOUS
 62
           4
100
AcDbLine
 10
4804.500000000004
 20
2825.129517118634
 11
4795.500000000004
 21
2825.129517118634
  0
LINE
  5
155
100
AcDbEntity
  8
1
  6
CONTINUOUS
 62
           4
100
AcDbLine
 10
4804.500000000004
 20
2825.129517118634
 11
4804.500000000004
 21
2790.629517118634
  0
LINE
  5
154
100
AcDbEntity
  8
1
  6
CONTINUOUS
 62
           4
100
AcDbLine
 10
4840.000000000006
 20
2789.629517118634
 11
4805.500000000004
 21
2789.629517118634
  0
LINE
  5
153
100
AcDbEntity
  8
1
  6
CONTINUOUS
 62
           7
100
AcDbLine
 10
4840.000000000006
 20
2789.629517118634
 11
4840.000000000006
 21
2395.629517118634
  0
LINE
  5
152
100
AcDbEntity
  8
1
  6
CONTINUOUS
 62
           7
100
AcDbLine
 10
4760.000000000004
 20
2400.129517118632
 11
4760.000000000004
 21
2816.829517118629
  0
LINE
  5
151
100
AcDbEntity
  8
1
  6
CONTINUOUS
 62
           7
100
AcDbLine
 10
4618.200000000004
 20
2315.629517118632
 11
4618.200000000004
 21
2362.129517118634
  0
LINE
  5
150
100
AcDbEntity
  8
1
  6
CONTINUOUS
 62
           7
100
AcDbLine
 10
3879.999999999996
 20
2785.129517118632
 11
3879.999999999996
 21
2400.129517118632
  0
LINE
  5
14F
100
AcDbEntity
  8
1
  6
CONTINUOUS
 62
           7
100
AcDbLine
 10
3833.155626997732
 20
2362.129517118634
 11
4286.869912712014
 21
2362.129517118638
  0
LINE
  5
14E
100
AcDbEntity
  8
1
  6
CONTINUOUS
 62
           7
100
AcDbLine
 10
4101.800000000005
 20
2362.129517118634
 11
4101.800000000005
 21
2315.629517118632
  0
LINE
  5
14D
100
AcDbEntity
  8
2
  6
CONTINUOUS
 62
           4
100
AcDbLine
 10
4266.750000000004
 20
2831.129517118634
 11
4266.750000000004
 21
2829.129517118634
  0
LINE
  5
14C
100
AcDbEntity
  8
7
  6
CONTINUOUS
 62
           7
100
AcDbLine
 10
4245.000000000004
 20
3099.629517118632
 11
4245.000000000004
 21
3127.167055491999
  0
LINE
  5
14B
100
AcDbEntity
  8
7
  6
CONTINUOUS
 62
           7
100
AcDbLine
 10
4472.000000000004
 20
3161.74087411863
 11
4475.000000000004
 21
3127.167055491999
  0
LINE
  5
14A
100
AcDbEntity
  8
2
  6
CONTINUOUS
 62
           7
100
AcDbLine
 10
4468.613664000005
 20
2856.329517118631
 11
4457.568642000004
 21
2831.129517118634
  0
LINE
  5
149
100
AcDbEntity
  8
2
  6
CONTINUOUS
 62
           4
100
AcDbLine
 10
4457.568642000004
 20
2831.129517118634
 11
4262.431358000004
 21
2831.129517118634
  0
LINE
  5
148
100
AcDbEntity
  8
2
  6
CONTINUOUS
 62
           7
100
AcDbLine
 10
4468.613664000005
 20
3088.129517118632
 11
4463.820541000003
 21
3099.629517118632
  0
LINE
  5
147
100
AcDbEntity
  8
2
  6
CONTINUOUS
 62
           7
100
AcDbLine
 10
4468.613664000005
 20
3088.129517118632
 11
4468.613664000005
 21
2856.329517118631
  0
LINE
  5
146
100
AcDbEntity
  8
2
  6
CONTINUOUS
 62
           4
100
AcDbLine
 10
4453.250000000004
 20
2829.129517118634
 11
4453.250000000004
 21
2831.129517118634
  0
LINE
  5
145
100
AcDbEntity
  8
2
  6
CONTINUOUS
 62
           7
100
AcDbLine
 10
4256.179459000003
 20
3099.629517118632
 11
4251.386336000004
 21
3088.129517118632
  0
LINE
  5
144
100
AcDbEntity
  8
2
  6
CONTINUOUS
 62
           7
100
AcDbLine
 10
4251.386336000004
 20
3088.129517118632
 11
4251.386336000004
 21
2856.329517118631
  0
LINE
  5
143
100
AcDbEntity
  8
2
  6
CONTINUOUS
 62
           7
100
AcDbLine
 10
4262.431358000004
 20
2831.129517118634
 11
4251.386336000004
 21
2856.329517118631
  0
LINE
  5
142
100
AcDbEntity
  8
7
  6
CONTINUOUS
 62
           7
100
AcDbLine
 10
4277.900000000004
 20
3186.629517118629
 11
4360.000000000004
 21
3186.629517118629
  0
LINE
  5
141
100
AcDbEntity
  8
7
  6
CONTINUOUS
 62
           7
100
AcDbLine
 10
4253.223966000004
 20
3165.491213118629
 11
4273.847153000005
 21
3182.03234711863
  0
LINE
  5
140
100
AcDbEntity
  8
7
  6
CONTINUOUS
 62
           7
100
AcDbLine
 10
4245.000000000004
 20
3127.167055491999
 11
4248.000000000004
 21
3161.929517118626
  0
LINE
  5
13F
100
AcDbEntity
  8
7
  6
CONTINUOUS
 62
           7
100
AcDbLine
 10
4360.000000000004
 20
3099.629517118632
 11
4245.000000000004
 21
3099.629517118632
  0
LINE
  5
13E
100
AcDbEntity
  8
7
  6
CONTINUOUS
 62
           7
100
AcDbLine
 10
4475.000000000004
 20
3127.167055491999
 11
4475.000000000004
 21
3099.629517118632
  0
LINE
  5
13D
100
AcDbEntity
  8
7
  6
CONTINUOUS
 62
           7
100
AcDbLine
 10
4444.600000000005
 20
3186.629517118629
 11
4360.000000000004
 21
3186.629517118629
  0
LINE
  5
13C
100
AcDbEntity
  8
7
  6
CONTINUOUS
 62
           7
100
AcDbLine
 10
4469.147843000005
 20
3166.959298118627
 11
4448.652848000003
 21
3182.03234711863
  0
LINE
  5
13B
100
AcDbEntity
  8
7
  6
CONTINUOUS
 62
           7
100
AcDbLine
 10
4475.000000000004
 20
3099.629517118632
 11
4360.000000000004
 21
3099.629517118632
  0
LINE
  5
13A
100
AcDbEntity
  8
1
  6
DOT_CENTER
 62
           2
100
AcDbLine
 10
4895.456827495062
 20
2592.629517118632
 11
3802.780498763492
 21
2592.629517118632
  0
LINE
  5
139
100
AcDbEntity
  8
1
  6
CONTINUOUS
 62
           4
100
AcDbLine
 10
4150.000000000004
 20
2824.129517118634
 11
4150.000000000004
 21
2821.829517118629
  0
LINE
  5
138
100
AcDbEntity
  8
1
  6
CONTINUOUS
 62
           7
100
AcDbLine
 10
4760.0
 20
2785.129517118632
 11
3833.155626997732
 21
2785.129517118632
  0
LINE
  5
137
100
AcDbEntity
  8
1
  6
CONTINUOUS
 62
           7
100
AcDbLine
 10
3833.155626997732
 20
2821.829517118629
 11
3833.155626997732
 21
2785.129517118632
  0
LINE
  5
136
100
AcDbEntity
  8
1
  6
CONTINUOUS
 62
           7
100
AcDbLine
 10
4756.455357142861
 20
2821.829517118629
 11
4452.000000000002
 21
2821.829517118629
  0
LINE
  5
135
100
AcDbEntity
  8
1
  6
CONTINUOUS
 62
           7
100
AcDbLine
 10
3833.155626997731
 20
2400.129517118632
 11
3833.155626997732
 21
2362.129517118634
  0
LINE
  5
134
100
AcDbEntity
  8
1
  6
CONTINUOUS
 62
           7
100
AcDbLine
 10
4760.000000000004
 20
2367.129517118634
 11
4760.000000000004
 21
2400.129517118632
  0
LINE
  5
133
100
AcDbEntity
  8
1
  6
CONTINUOUS
 62
           7
100
AcDbLine
 10
4756.455357142861
 20
2821.829517118629
 11
4760.000000000004
 21
2816.829517118629
  0
LINE
  5
132
100
AcDbEntity
  8
1
  6
CONTINUOUS
 62
           7
100
AcDbLine
 10
4760.000000000004
 20
2367.129517118634
 11
4756.455357142861
 21
2362.129517118634
  0
LINE
  5
131
100
AcDbEntity
  8
1
  6
DOT_CENTER
 62
           2
100
AcDbLine
 10
4360.000000000004
 20
2284.00920123421
 11
4360.000000000004
 21
3238.113396243276
  0
LINE
  5
130
100
AcDbEntity
  8
1
  6
CONTINUOUS
 62
           4
100
AcDbLine
 10
4564.993063735611
 20
2829.129517118634
 11
4155.000000000004
 21
2829.129517118634
  0
LINE
  5
12F
100
AcDbEntity
  8
1
  6
CONTINUOUS
 62
           4
100
AcDbLine
 10
4155.000000000004
 20
2829.129517118634
 11
4150.000000000004
 21
2824.129517118634
  0
LINE
  5
12E
100
AcDbEntity
  8
1
  6
CONTINUOUS
 62
           4
100
AcDbLine
 10
4570.000000000004
 20
2824.129517118634
 11
4564.993063735611
 21
2829.129517118634
  0
LINE
  5
12D
100
AcDbEntity
  8
1
  6
CONTINUOUS
 62
           4
100
AcDbLine
 10
4570.000000000004
 20
2821.829517118629
 11
4570.000000000004
 21
2824.129517118634
  0
LINE
  5
12C
100
AcDbEntity
  8
1
  6
CONTINUOUS
 62
           2
100
AcDbLine
 10
4131.15394929065
 20
2771.629517118632
 11
4131.15394929065
 21
2411.629517118632
  0
LINE
  5
12B
100
AcDbEntity
  8
1
  6
CONTINUOUS
 62
           2
100
AcDbLine
 10
4131.15394929065
 20
2411.629517118632
 11
4536.090589534001
 21
2411.629517118632
  0
LINE
  5
12A
100
AcDbEntity
  8
1
  6
CONTINUOUS
 62
           2
100
AcDbLine
 10
4536.090589534001
 20
2411.629517118632
 11
4536.090589534001
 21
2771.629517118632
  0
LINE
  5
129
100
AcDbEntity
  8
1
  6
CONTINUOUS
 62
           2
100
AcDbLine
 10
4536.090589534001
 20
2771.629517118632
 11
4131.15394929065
 21
2771.629517118632
  0
LINE
  5
128
100
AcDbEntity
  8
1
  6
CONTINUOUS
 62
           7
100
AcDbLine
 10
4695.000000000004
 20
2785.129517118632
 11
4695.000000000004
 21
2400.129517118632
  0
LINE
  5
127
100
AcDbEntity
  8
1
  6
CONTINUOUS
 62
           7
100
AcDbLine
 10
-40.387316823277
 20
2400.129517118629
 11
-40.387316823277
 21
2384.629517118629
  0
LINE
  5
126
100
AcDbEntity
  8
1
  6
CONTINUOUS
 62
           4
100
AcDbLine
 10
-587.618730888041
 20
2400.129517118629
 11
-611.000000000004
 21
2400.129517118629
  0
LINE
  5
125
100
AcDbEntity
  8
1
  6
CONTINUOUS
 62
           4
100
AcDbLine
 10
-587.618730888041
 20
2395.629517118629
 11
-611.000000000004
 21
2395.629517118629
  0
LINE
  5
124
100
AcDbEntity
  8
1
  6
CONTINUOUS
 62
           4
100
AcDbLine
 10
-587.618730888041
 20
2789.62951711863
 11
-611.000000000004
 21
2789.62951711863
  0
LINE
  5
123
100
AcDbEntity
  8
1
  6
CONTINUOUS
 62
           4
100
AcDbLine
 10
-587.618730888041
 20
2785.12951711863
 11
-611.000000000004
 21
2785.12951711863
  0
LINE
  5
122
100
AcDbEntity
  8
1
  6
CONTINUOUS
 62
           7
100
AcDbLine
 10
-611.000000000004
 20
2825.12951711863
 11
-577.413444419394
 21
2825.12951711863
  0
LINE
  5
121
100
AcDbEntity
  8
1
  6
CONTINUOUS
 62
           7
100
AcDbLine
 10
-611.000000000004
 20
2825.12951711863
 11
-611.000000000004
 21
2386.129517118625
  0
LINE
  5
120
100
AcDbEntity
  8
1
  6
CONTINUOUS
 62
           7
100
AcDbLine
 10
-570.000000000004
 20
2784.92951711863
 11
-570.000000000004
 21
2399.329517118631
  0
LINE
  5
11F
100
AcDbEntity
  8
1
  6
CONTINUOUS
 62
           7
100
AcDbLine
 10
-40.387316823277
 20
2823.129517118629
 11
-40.387316823277
 21
2784.829517118626
  0
LINE
  5
11E
100
AcDbEntity
  8
1
  6
CONTINUOUS
 62
           7
100
AcDbLine
 10
156.499999999999
 20
2905.929517118632
 11
118.613664000002
 21
2905.929517118632
  0
LINE
  5
11D
100
AcDbEntity
  8
1
  6
CONTINUOUS
 62
           7
100
AcDbLine
 10
118.613664000002
 20
2985.929517118631
 11
156.499999999999
 21
2985.929517118631
  0
LINE
  5
11C
100
AcDbEntity
  8
1
  6
CONTINUOUS
 62
           7
100
AcDbLine
 10
108.613664000002
 20
2915.929517118632
 11
108.613664000002
 21
2975.929517118631
  0
LINE
  5
11B
100
AcDbEntity
  8
1
  6
CONTINUOUS
 62
           7
100
AcDbLine
 10
166.499999999999
 20
2975.929517118631
 11
166.499999999999
 21
2915.929517118632
  0
LINE
  5
11A
100
AcDbEntity
  8
1
  6
CONTINUOUS
 62
           7
100
AcDbLine
 10
415.0
 20
2400.129517118629
 11
-579.999999999987
 21
2400.129517118629
  0
LINE
  5
119
100
AcDbEntity
  8
1
  6
CONTINUOUS
 62
           7
100
AcDbLine
 10
405.0
 20
2400.129517118629
 11
404.999999999999
 21
2784.129517118629
  0
LINE
  5
118
100
AcDbEntity
  8
2
  6
CONTINUOUS
 62
           4
100
AcDbLine
 10
93.250000000002
 20
2829.129517118631
 11
93.250000000002
 21
2831.12951711863
  0
LINE
  5
117
100
AcDbEntity
  8
7
  6
CONTINUOUS
 62
           7
100
AcDbLine
 10
115.000000000001
 20
3127.467055491999
 11
115.000000000001
 21
3099.929517118631
  0
LINE
  5
116
100
AcDbEntity
  8
7
  6
CONTINUOUS
 62
           7
100
AcDbLine
 10
-114.999999999999
 20
3127.467055491999
 11
-111.999999999999
 21
3162.04087411863
  0
LINE
  5
115
100
AcDbEntity
  8
1
  6
CONTINUOUS
 62
           4
100
AcDbLine
 10
115.000000000001
 20
3127.467055491999
 11
-114.999999999999
 21
3127.467055491999
  0
LINE
  5
114
100
AcDbEntity
  8
2
  6
CONTINUOUS
 62
           7
100
AcDbLine
 10
-97.568641999999
 20
2831.12951711863
 11
-108.613663999999
 21
2857.62951711863
  0
LINE
  5
113
100
AcDbEntity
  8
2
  6
CONTINUOUS
 62
           4
100
AcDbLine
 10
97.568642000001
 20
2831.12951711863
 11
-97.568641999999
 21
2831.12951711863
  0
LINE
  5
112
100
AcDbEntity
  8
2
  6
CONTINUOUS
 62
           7
100
AcDbLine
 10
-103.820540999999
 20
3099.929517118631
 11
-108.613663999999
 21
3088.429517118631
  0
LINE
  5
111
100
AcDbEntity
  8
2
  6
CONTINUOUS
 62
           7
100
AcDbLine
 10
-108.613663999999
 20
2857.62951711863
 11
-108.613663999999
 21
3088.429517118631
  0
LINE
  5
110
100
AcDbEntity
  8
2
  6
CONTINUOUS
 62
           4
100
AcDbLine
 10
-93.249999999999
 20
2831.12951711863
 11
-93.249999999999
 21
2829.129517118631
  0
LINE
  5
10F
100
AcDbEntity
  8
2
  6
CONTINUOUS
 62
           7
100
AcDbLine
 10
108.613664000002
 20
3088.429517118631
 11
103.820541000001
 21
3099.929517118631
  0
LINE
  5
10E
100
AcDbEntity
  8
2
  6
CONTINUOUS
 62
           7
100
AcDbLine
 10
108.613664000002
 20
2857.62951711863
 11
108.613664000002
 21
3088.429517118631
  0
LINE
  5
10D
100
AcDbEntity
  8
2
  6
CONTINUOUS
 62
           7
100
AcDbLine
 10
108.613664000002
 20
2857.62951711863
 11
97.568642000001
 21
2831.12951711863
  0
LINE
  5
10C
100
AcDbEntity
  8
7
  6
CONTINUOUS
 62
           7
100
AcDbLine
 10
0.000000000002
 20
3186.629517118629
 11
82.100000000002
 21
3186.629517118629
  0
LINE
  5
10B
100
AcDbEntity
  8
7
  6
CONTINUOUS
 62
           7
100
AcDbLine
 10
86.152847000001
 20
3182.332347118631
 11
106.776034000001
 21
3165.791213118632
  0
LINE
  5
10A
100
AcDbEntity
  8
7
  6
CONTINUOUS
 62
           4
100
AcDbLine
 10
-110.992022999999
 20
3165.429517118631
 11
108.800000000001
 21
3165.429517118631
  0
LINE
  5
109
100
AcDbEntity
  8
7
  6
CONTINUOUS
 62
           7
100
AcDbLine
 10
112.000000000001
 20
3162.229517118631
 11
115.000000000001
 21
3127.467055491999
  0
LINE
  5
108
100
AcDbEntity
  8
7
  6
CONTINUOUS
 62
           7
100
AcDbLine
 10
115.000000000001
 20
3099.929517118631
 11
0.000000000002
 21
3099.929517118631
  0
LINE
  5
107
100
AcDbEntity
  8
7
  6
CONTINUOUS
 62
           7
100
AcDbLine
 10
-114.999999999999
 20
3099.929517118631
 11
-114.999999999999
 21
3127.467055491999
  0
LINE
  5
106
100
AcDbEntity
  8
7
  6
CONTINUOUS
 62
           7
100
AcDbLine
 10
0.000000000002
 20
3186.629517118629
 11
-84.599999999999
 21
3186.629517118629
  0
LINE
  5
105
100
AcDbEntity
  8
7
  6
CONTINUOUS
 62
           7
100
AcDbLine
 10
-88.652847999999
 20
3182.332347118631
 11
-109.147842999999
 21
3167.259298118632
  0
LINE
  5
104
100
AcDbEntity
  8
7
  6
CONTINUOUS
 62
           7
100
AcDbLine
 10
0.000000000002
 20
3099.929517118631
 11
-114.999999999999
 21
3099.929517118631
  0
LINE
  5
103
100
AcDbEntity
  8
1
  6
DOT_CENTER
 62
           2
100
AcDbLine
 10
473.997537221203
 20
2592.629517118629
 11
-664.640400689392
 21
2592.629517118629
  0
LINE
  5
102
100
AcDbEntity
  8
1
  6
CONTINUOUS
 62
           4
100
AcDbLine
 10
210.000000000001
 20
2823.12951711863
 11
210.000000000001
 21
2824.12951711863
  0
LINE
  5
101
100
AcDbEntity
  8
1
  6
CONTINUOUS
 62
           7
100
AcDbLine
 10
415.0
 20
2785.129517118629
 11
-579.999999999989
 21
2785.129517118629
  0
LINE
  5
100
100
AcDbEntity
  8
1
  6
CONTINUOUS
 62
           7
100
AcDbLine
 10
410.992065668632
 20
2785.129517118629
 11
410.992065668631
 21
2823.129517118629
  0
LINE
  5
FF
100
AcDbEntity
  8
1
  6
CONTINUOUS
 62
           7
100
AcDbLine
 10
410.992065668631
 20
2823.129517118629
 11
-566.455357142862
 21
2823.129517118629
  0
LINE
  5
FE
100
AcDbEntity
  8
1
  6
CONTINUOUS
 62
           7
100
AcDbLine
 10
-570.000000000003
 20
2400.12951711863
 11
-570.000000000003
 21
2385.329517118631
  0
LINE
  5
FD
100
AcDbEntity
  8
1
  6
CONTINUOUS
 62
           7
100
AcDbLine
 10
-570.000000000004
 20
2818.129517118629
 11
-566.455357142862
 21
2823.129517118629
  0
LINE
  5
FC
100
AcDbEntity
  8
1
  6
CONTINUOUS
 62
           7
100
AcDbLine
 10
-570.000000000004
 20
2818.129517118629
 11
-570.000000000004
 21
2785.129517118629
  0
LINE
  5
FB
100
AcDbEntity
  8
1
  6
CONTINUOUS
 62
           4
100
AcDbLine
 10
205.000000000001
 20
2829.129517118631
 11
-204.993063735605
 21
2829.129517118631
  0
LINE
  5
FA
100
AcDbEntity
  8
1
  6
CONTINUOUS
 62
           4
100
AcDbLine
 10
210.000000000001
 20
2824.12951711863
 11
205.000000000001
 21
2829.129517118631
  0
LINE
  5
F9
100
AcDbEntity
  8
1
  6
CONTINUOUS
 62
           4
100
AcDbLine
 10
-204.993063735605
 20
2829.129517118631
 11
-209.999999999999
 21
2824.12951711863
  0
LINE
  5
F8
100
AcDbEntity
  8
1
  6
CONTINUOUS
 62
           4
100
AcDbLine
 10
-209.999999999999
 20
2824.12951711863
 11
-209.999999999999
 21
2823.12951711863
  0
LINE
  5
F7
100
AcDbEntity
  8
1
  6
CONTINUOUS
 62
           2
100
AcDbLine
 10
-528.316278697896
 20
2411.629517118629
 11
-232.333637661239
 21
2411.629517118629
  0
LINE
  5
F6
100
AcDbEntity
  8
1
  6
CONTINUOUS
 62
           2
100
AcDbLine
 10
-232.333637661239
 20
2411.629517118629
 11
-232.333637661239
 21
2771.629517118629
  0
LINE
  5
F5
100
AcDbEntity
  8
1
  6
CONTINUOUS
 62
           2
100
AcDbLine
 10
-232.333637661239
 20
2772.629517118629
 11
-528.316278697896
 21
2772.629517118629
  0
LINE
  5
F4
100
AcDbEntity
  8
1
  6
CONTINUOUS
 62
           2
100
AcDbLine
 10
-528.316278697896
 20
2771.629517118629
 11
-528.316278697896
 21
2411.629517118629
  0
LINE
  5
F3
100
AcDbEntity
  8
1
  6
CONTINUOUS
 62
           2
100
AcDbLine
 10
362.336090221744
 20
2411.629517118629
 11
404.999999999999
 21
2411.629517118629
  0
LINE
  5
F2
100
AcDbEntity
  8
1
  6
CONTINUOUS
 62
           2
100
AcDbLine
 10
404.999999999999
 20
2772.629517118629
 11
362.336090221744
 21
2772.629517118629
  0
LINE
  5
F1
100
AcDbEntity
  8
1
  6
CONTINUOUS
 62
           2
100
AcDbLine
 10
362.336090221744
 20
2771.629517118629
 11
362.336090221744
 21
2411.629517118629
  0
LINE
  5
F0
100
AcDbEntity
  8
1
  6
CONTINUOUS
 62
           7
100
AcDbLine
 10
410.992065668632
 20
2385.329517118631
 11
410.992065668632
 21
2400.129517118629
  0
LINE
  5
EF
100
AcDbEntity
  8
1
  6
CONTINUOUS
 62
           7
100
AcDbLine
 10
1460.000000000001
 20
4750.0
 11
1300.000000000003
 21
4750.0
  0
LINE
  5
EE
100
AcDbEntity
  8
1
  6
CONTINUOUS
 62
           7
100
AcDbLine
 10
1460.000000000001
 20
4950.0
 11
1460.000000000001
 21
4750.0
  0
LINE
  5
ED
100
AcDbEntity
  8
1
  6
CONTINUOUS
 62
           7
100
AcDbLine
 10
1300.000000000003
 20
4950.0
 11
1460.000000000001
 21
4950.0
  0
LINE
  5
EC
100
AcDbEntity
  8
1
  6
CONTINUOUS
 62
           7
100
AcDbLine
 10
1460.000000000001
 20
1534.629517118632
 11
1300.000000000001
 21
1534.629517118632
  0
LINE
  5
EB
100
AcDbEntity
  8
1
  6
CONTINUOUS
 62
           7
100
AcDbLine
 10
1460.000000000001
 20
1934.629517118632
 11
1460.000000000001
 21
1534.629517118632
  0
LINE
  5
EA
100
AcDbEntity
  8
1
  6
CONTINUOUS
 62
           7
100
AcDbLine
 10
1300.000000000001
 20
1934.629517118632
 11
1460.000000000001
 21
1934.629517118632
  0
LINE
  5
E9
100
AcDbEntity
  8
1
  6
CONTINUOUS
 62
           4
100
AcDbLine
 10
3700.000000000004
 20
1934.629517118632
 11
3730.000000000005
 21
1934.629517118632
  0
LINE
  5
E8
100
AcDbEntity
  8
1
  6
CONTINUOUS
 62
           4
100
AcDbLine
 10
3700.000000000004
 20
1534.629517118632
 11
3730.000000000005
 21
1534.629517118632
  0
LINE
  5
E7
100
AcDbEntity
  8
1
  6
CONTINUOUS
 62
           7
100
AcDbLine
 10
3500.000000000004
 20
1934.629517118632
 11
3500.000000000004
 21
1534.629517118632
  0
LINE
  5
E6
100
AcDbEntity
  8
1
  6
CONTINUOUS
 62
           7
100
AcDbLine
 10
3700.000000000004
 20
1934.629517118632
 11
3500.000000000004
 21
1934.629517118632
  0
LINE
  5
E5
100
AcDbEntity
  8
1
  6
CONTINUOUS
 62
           7
100
AcDbLine
 10
3700.000000000004
 20
1534.629517118632
 11
3700.000000000004
 21
1934.629517118632
  0
LINE
  5
E4
100
AcDbEntity
  8
1
  6
CONTINUOUS
 62
           7
100
AcDbLine
 10
3500.000000000004
 20
1534.629517118632
 11
3700.000000000004
 21
1534.629517118632
  0
LINE
  5
E3
100
AcDbEntity
  8
1
  6
CONTINUOUS
 62
           7
100
AcDbLine
 10
-1249.999999999996
 20
4020.000000000002
 11
-1249.999999999996
 21
5000.0
  0
LINE
  5
E2
100
AcDbEntity
  8
1
  6
CONTINUOUS
 62
           7
100
AcDbLine
 10
1250.000000000003
 20
4020.000000000002
 11
1250.000000000003
 21
5000.0
  0
LINE
  5
E1
100
AcDbEntity
  8
1
  6
CONTINUOUS
 62
           7
100
AcDbLine
 10
2750.000000000004
 20
2384.629517118631
 11
2770.000000000004
 21
2384.629517118631
  0
LINE
  5
E0
100
AcDbEntity
  8
1
  6
CONTINUOUS
 62
           7
100
AcDbLine
 10
2750.000000000003
 20
2284.629517118631
 11
2750.000000000004
 21
2384.629517118631
  0
LINE
  5
DF
100
AcDbEntity
  8
1
  6
CONTINUOUS
 62
           7
100
AcDbLine
 10
1300.000000000001
 20
2384.629517118629
 11
-1299.999999999999
 21
2384.629517118629
  0
LINE
  5
DE
100
AcDbEntity
  8
1
  6
CONTINUOUS
 62
           4
100
AcDbLine
 10
1230.000000000003
 20
4980.0
 11
-1229.999999999996
 21
4980.0
  0
LINE
  5
DD
100
AcDbEntity
  8
1
  6
CONTINUOUS
 62
           7
100
AcDbLine
 10
1456.01085787477
 20
234.629517118629
 11
-1448.319110952331
 21
234.62951711863
  0
LINE
  5
DC
100
AcDbEntity
  8
1
  6
CONTINUOUS
 62
           7
100
AcDbLine
 10
1250.000000000001
 20
1634.62951711863
 11
-1249.999999999999
 21
1634.62951711863
  0
LINE
  5
DB
100
AcDbEntity
  8
1
  6
DOT_CENTER
 62
           2
100
AcDbLine
 10
0.0
 20
234.62951711863
 11
0.0
 21
-342.65483091421
  0
LINE
  5
DA
100
AcDbEntity
  8
1
  6
DOT_CENTER
 62
           2
100
AcDbLine
 10
0.0
 20
3219.113396243276
 11
0.0
 21
234.62951711863
  0
LINE
  5
D9
100
AcDbEntity
  8
1
  6
CONTINUOUS
 62
           7
100
AcDbLine
 10
1235.000000000001
 20
274.62951711863
 11
15.0
 21
274.62951711863
  0
LINE
  5
D8
100
AcDbEntity
  8
1
  6
CONTINUOUS
 62
           7
100
AcDbLine
 10
-1249.999999999999
 20
534.62951711863
 11
1250.000000000001
 21
534.62951711863
  0
LINE
  5
D7
100
AcDbEntity
  8
1
  6
CONTINUOUS
 62
           7
100
AcDbLine
 10
-1249.999999999999
 20
248.48283978626
 11
-1249.999999999999
 21
307.236602770142
  0
LINE
  5
D6
100
AcDbEntity
  8
1
  6
CONTINUOUS
 62
           7
100
AcDbLine
 10
15.0
 20
274.62951711863
 11
15.0
 21
234.62951711863
  0
LINE
  5
D5
100
AcDbEntity
  8
1
  6
CONTINUOUS
 62
           7
100
AcDbLine
 10
1235.000000000001
 20
274.62951711863
 11
1235.000000000001
 21
234.629517118629
  0
LINE
  5
D4
100
AcDbEntity
  8
1
  6
LONG_DASHED
 62
           2
100
AcDbLine
 10
1250.000000000001
 20
-215.37048288137
 11
-1249.999999999999
 21
-215.37048288137
  0
LINE
  5
D3
100
AcDbEntity
  8
1
  6
LONG_DASHED
 62
           2
100
AcDbLine
 10
1250.000000000001
 20
-215.37048288137
 11
1250.000000000001
 21
234.62951711863
  0
LINE
  5
D2
100
AcDbEntity
  8
1
  6
LONG_DASHED
 62
           2
100
AcDbLine
 10
-1249.999999999999
 20
-215.37048288137
 11
-1249.999999999999
 21
234.62951711863
  0
LINE
  5
D1
100
AcDbEntity
  8
1
  6
CONTINUOUS
 62
           7
100
AcDbLine
 10
1300.000000000001
 20
2234.629517118629
 11
-1299.999999999999
 21
2234.629517118629
  0
LINE
  5
D0
100
AcDbEntity
  8
1
  6
CONTINUOUS
 62
           7
100
AcDbLine
 10
-1299.999999999999
 20
2384.629517118629
 11
-1299.999999999999
 21
234.62951711863
  0
LINE
  5
CF
100
AcDbEntity
  8
1
  6
CONTINUOUS
 62
           7
100
AcDbLine
 10
1300.000000000001
 20
234.629517118629
 11
1300.000000000001
 21
2384.629517118629
  0
LINE
  5
CE
100
AcDbEntity
  8
1
  6
CONTINUOUS
 62
           7
100
AcDbLine
 10
-1234.999999999999
 20
234.62951711863
 11
-1234.999999999999
 21
274.62951711863
  0
LINE
  5
CD
100
AcDbEntity
  8
1
  6
CONTINUOUS
 62
           7
100
AcDbLine
 10
-15.0
 20
234.62951711863
 11
-15.0
 21
274.62951711863
  0
LINE
  5
CC
100
AcDbEntity
  8
1
  6
CONTINUOUS
 62
           7
100
AcDbLine
 10
-15.0
 20
274.62951711863
 11
-1234.999999999999
 21
274.62951711863
  0
LINE
  5
CB
100
AcDbEntity
  8
1
  6
CONTINUOUS
 62
           7
100
AcDbLine
 10
0.0
 20
234.62951711863
 11
0.0
 21
534.62951711863
  0
LINE
  5
CA
100
AcDbEntity
  8
1
  6
CONTINUOUS
 62
           4
100
AcDbLine
 10
-579.999999999998
 20
5980.0
 11
-979.999999999996
 21
5980.0
  0
LINE
  5
C9
100
AcDbEntity
  8
1
  6
CONTINUOUS
 62
           7
100
AcDbLine
 10
-570.000000000001
 20
6000.0
 11
-1299.999999999996
 21
6000.0
  0
LINE
  5
C8
100
AcDbEntity
  8
1
  6
CONTINUOUS
 62
           7
100
AcDbLine
 10
-1299.999999999996
 20
5000.0
 11
1300.000000000003
 21
5000.0
  0
LINE
  5
C7
100
AcDbEntity
  8
1
  6
DOT_CENTER
 62
           2
100
AcDbLine
 10
-633.773688147247
 20
5610.0
 11
559.216021579184
 21
5610.0
  0
LINE
  5
C6
100
AcDbEntity
  8
1
  6
CONTINUOUS
 62
           7
100
AcDbLine
 10
2980.000000000004
 20
1824.629517118631
 11
2980.000000000004
 21
1584.62951711863
  0
LINE
  5
C5
100
AcDbEntity
  8
1
  6
CONTINUOUS
 62
           7
100
AcDbLine
 10
2800.000000000004
 20
1584.62951711863
 11
2800.000000000004
 21
1824.629517118631
  0
LINE
  5
C4
100
AcDbEntity
  8
1
  6
CONTINUOUS
 62
           7
100
AcDbLine
 10
2980.000000000004
 20
1584.62951711863
 11
2800.000000000004
 21
1584.62951711863
  0
LINE
  5
C3
100
AcDbEntity
  8
1
  6
CONTINUOUS
 62
           7
100
AcDbLine
 10
2990.000000000003
 20
2184.629517118632
 11
2800.000000000003
 21
2184.629517118631
  0
LINE
  5
C2
100
AcDbEntity
  8
1
  6
CONTINUOUS
 62
           7
100
AcDbLine
 10
2800.000000000003
 20
2184.629517118631
 11
2800.000000000003
 21
2096.629517118631
  0
LINE
  5
C1
100
AcDbEntity
  8
1
  6
CONTINUOUS
 62
           7
100
AcDbLine
 10
2800.000000000003
 20
2096.629517118631
 11
2990.000000000003
 21
2096.629517118631
  0
LINE
  5
C0
100
AcDbEntity
  8
1
  6
CONTINUOUS
 62
           7
100
AcDbLine
 10
2990.000000000003
 20
2096.629517118631
 11
2990.000000000003
 21
2184.629517118632
  0
LINE
  5
BF
100
AcDbEntity
  8
1
  6
CONTINUOUS
 62
           4
100
AcDbLine
 10
-1289.999999999996
 20
5000.0
 11
-1289.999999999996
 21
4020.000000000002
  0
LINE
  5
BE
100
AcDbEntity
  8
1
  6
CONTINUOUS
 62
           4
100
AcDbLine
 10
1290.000000000003
 20
5000.0
 11
1290.000000000003
 21
4020.000000000002
  0
LINE
  5
BD
100
AcDbEntity
  8
1
  6
CONTINUOUS
 62
           4
100
AcDbLine
 10
2750.000000000003
 20
2274.629517118631
 11
3750.000000000003
 21
2274.629517118631
  0
LINE
  5
BC
100
AcDbEntity
  8
1
  6
CONTINUOUS
 62
           4
100
AcDbLine
 10
1230.000000000003
 20
4480.0
 11
-1230.0
 21
4480.0
  0
LINE
  5
BB
100
AcDbEntity
  8
1
  6
CONTINUOUS
 62
           4
100
AcDbLine
 10
-1230.0
 20
4480.0
 11
-1229.999999999997
 21
4020.000000000002
  0
LINE
  5
BA
100
AcDbEntity
  8
1
  6
CONTINUOUS
 62
           4
100
AcDbLine
 10
-1252.999999999996
 20
5000.0
 11
-1252.999999999996
 21
4020.000000000002
  0
LINE
  5
B9
100
AcDbEntity
  8
1
  6
CONTINUOUS
 62
           4
100
AcDbLine
 10
980.000000000003
 20
5020.0
 11
520.000000000002
 21
5020.0
  0
LINE
  5
B8
100
AcDbEntity
  8
1
  6
CONTINUOUS
 62
           4
100
AcDbLine
 10
980.000000000003
 20
5980.0
 11
520.000000000002
 21
5980.0
  0
LINE
  5
B7
100
AcDbEntity
  8
1
  6
CONTINUOUS
 62
           4
100
AcDbLine
 10
1253.000000000003
 20
5000.0
 11
1253.000000000003
 21
4020.000000000002
  0
LINE
  5
B6
100
AcDbEntity
  8
1
  6
CONTINUOUS
 62
           4
100
AcDbLine
 10
1230.000000000003
 20
4480.0
 11
1230.000000000003
 21
4020.000000000002
  0
LINE
  5
B5
100
AcDbEntity
  8
1
  6
CONTINUOUS
 62
           4
100
AcDbLine
 10
980.000000000003
 20
5980.0
 11
980.000000000003
 21
5020.0
  0
LINE
  5
B4
100
AcDbEntity
  8
1
  6
CONTINUOUS
 62
           7
100
AcDbLine
 10
1300.000000000003
 20
4000.000000000001
 11
1300.000000000003
 21
6000.0
  0
LINE
  5
B3
100
AcDbEntity
  8
1
  6
DOT_CENTER
 62
           2
100
AcDbLine
 10
4050.000000000003
 20
409.62951711863
 11
4050.000000000003
 21
259.62951711863
  0
LINE
  5
B2
100
AcDbEntity
  8
1
  6
DOT_CENTER
 62
           2
100
AcDbLine
 10
3975.000000000003
 20
334.62951711863
 11
4125.000000000003
 21
334.62951711863
  0
LINE
  5
B1
100
AcDbEntity
  8
1
  6
CONTINUOUS
 62
           7
100
AcDbLine
 10
3750.000000000003
 20
2309.62951711863
 11
4750.000000000004
 21
2309.629517118631
  0
LINE
  5
B0
100
AcDbEntity
  8
1
  6
CONTINUOUS
 62
           7
100
AcDbLine
 10
3750.000000000003
 20
2234.629517118631
 11
3750.000000000003
 21
2309.62951711863
  0
LINE
  5
AF
100
AcDbEntity
  8
1
  6
CONTINUOUS
 62
           7
100
AcDbLine
 10
2750.000000000003
 20
2284.629517118631
 11
4750.000000000004
 21
2284.629517118631
  0
LINE
  5
AE
100
AcDbEntity
  8
1
  6
CONTINUOUS
 62
           4
100
AcDbLine
 10
2750.000000000003
 20
2237.629517118631
 11
3750.000000000003
 21
2237.629517118631
  0
LINE
  5
AD
100
AcDbEntity
  8
1
  6
CONTINUOUS
 62
           7
100
AcDbLine
 10
4750.000000000004
 20
2234.629517118631
 11
2750.000000000003
 21
2234.629517118631
  0
LINE
  5
AC
100
AcDbEntity
  8
1
  6
CONTINUOUS
 62
           7
100
AcDbLine
 10
4750.000000000004
 20
234.629517118631
 11
4750.000000000004
 21
2309.629517118631
  0
LINE
  5
AB
100
AcDbEntity
  8
1
  6
CONTINUOUS
 62
           7
100
AcDbLine
 10
2750.000000000003
 20
234.629517118631
 11
2750.000000000003
 21
2284.629517118631
  0
LINE
  5
AA
100
AcDbEntity
  8
1
  6
CONTINUOUS
 62
           7
100
AcDbLine
 10
1300.000000000003
 20
6000.0
 11
0.000000000002
 21
6000.0
  0
LINE
  5
A9
100
AcDbEntity
  8
1
  6
CONTINUOUS
 62
           4
100
AcDbLine
 10
-979.999999999996
 20
5019.999999999999
 11
-979.999999999996
 21
5980.0
  0
LINE
  5
A8
100
AcDbEntity
  8
1
  6
CONTINUOUS
 62
           4
100
AcDbLine
 10
-979.999999999996
 20
5019.999999999999
 11
-519.999999999998
 21
5020.0
  0
LINE
  5
A7
100
AcDbEntity
  8
1
  6
CONTINUOUS
 62
           4
100
AcDbLine
 10
-1229.999999999996
 20
4980.0
 11
-1229.999999999996
 21
4520.000000000002
  0
LINE
  5
A6
100
AcDbEntity
  8
1
  6
CONTINUOUS
 62
           4
100
AcDbLine
 10
1230.000000000002
 20
4520.000000000002
 11
1230.000000000003
 21
4980.0
  0
LINE
  5
A5
100
AcDbEntity
  8
1
  6
CONTINUOUS
 62
           7
100
AcDbLine
 10
-1299.999999999996
 20
6000.0
 11
-1299.999999999996
 21
4000.000000000001
  0
LINE
  5
A4
100
AcDbEntity
  8
1
  6
CONTINUOUS
 62
           7
100
AcDbLine
 10
-1299.999999999996
 20
4000.000000000001
 11
1300.000000000003
 21
4000.000000000001
  0
LINE
  5
A3
100
AcDbEntity
  8
1
  6
CONTINUOUS
 62
           7
100
AcDbLine
 10
2600.000000000003
 20
234.629517118631
 11
4898.26877072086
 21
234.629517118631
  0
LINE
  5
A2
100
AcDbEntity
  8
1
  6
CONTINUOUS
 62
           4
100
AcDbLine
 10
3730.000000000004
 20
2214.629517118632
 11
2770.000000000004
 21
2214.629517118632
  0
LINE
  5
A1
100
AcDbEntity
  8
1
  6
CONTINUOUS
 62
           4
100
AcDbLine
 10
2770.000000000004
 20
2214.629517118632
 11
2770.000000000004
 21
254.62951711863
  0
LINE
  5
A0
100
AcDbEntity
  8
1
  6
CONTINUOUS
 62
           4
100
AcDbLine
 10
2770.000000000004
 20
254.62951711863
 11
3730.000000000004
 21
254.629517118631
  0
LINE
  5
9F
100
AcDbEntity
  8
1
  6
CONTINUOUS
 62
           4
100
AcDbLine
 10
3770.000000000004
 20
254.629517118631
 11
4730.000000000003
 21
254.629517118631
  0
LINE
  5
9E
100
AcDbEntity
  8
1
  6
CONTINUOUS
 62
           4
100
AcDbLine
 10
4730.000000000003
 20
254.629517118631
 11
4730.000000000003
 21
1714.629517118632
  0
LINE
  5
9D
100
AcDbEntity
  8
1
  6
CONTINUOUS
 62
           4
100
AcDbLine
 10
4730.000000000003
 20
1714.629517118632
 11
3770.000000000004
 21
1714.629517118632
  0
LINE
  5
9C
100
AcDbEntity
  8
1
  6
LONG_DASHED
 62
           2
100
AcDbLine
 10
3300.000000000003
 20
-215.37048288137
 11
4700.000000000003
 21
-215.37048288137
  0
LINE
  5
9B
100
AcDbEntity
  8
1
  6
LONG_DASHED
 62
           2
100
AcDbLine
 10
4700.000000000003
 20
-215.37048288137
 11
4700.000000000003
 21
2234.629517118631
  0
LINE
  5
9A
100
AcDbEntity
  8
1
  6
CONTINUOUS
 62
           4
100
AcDbLine
 10
520.000000000002
 20
5980.0
 11
520.000000000002
 21
5020.0
  0
LINE
  5
99
100
AcDbEntity
  8
1
  6
CONTINUOUS
 62
           7
100
AcDbLine
 10
500.000000000002
 20
5000.0
 11
500.000000000002
 21
6000.0
  0
LINE
  5
98
100
AcDbEntity
  8
1
  6
CONTINUOUS
 62
           4
100
AcDbLine
 10
-519.999999999998
 20
5020.0
 11
-519.999999999998
 21
5407.701825033085
  0
LINE
  5
97
100
AcDbEntity
  8
1
  6
CONTINUOUS
 62
           7
100
AcDbLine
 10
-499.999999999998
 20
5000.0
 11
-499.999999999998
 21
5370.237536475705
  0
LINE
  5
96
100
AcDbEntity
  8
1
  6
CONTINUOUS
 62
           4
100
AcDbLine
 10
-1299.999999999997
 20
4020.000000000002
 11
1300.000000000003
 21
4020.000000000002
  0
LINE
  5
95
100
AcDbEntity
  8
1
  6
CONTINUOUS
 62
           4
100
AcDbLine
 10
-1229.999999999996
 20
4520.000000000002
 11
1230.000000000002
 21
4520.000000000002
  0
LINE
  5
94
100
AcDbEntity
  8
1
  6
CONTINUOUS
 62
           7
100
AcDbLine
 10
-1249.999999999996
 20
4500.000000000001
 11
1250.000000000003
 21
4500.000000000001
  0
LINE
  5
93
100
AcDbEntity
  8
1
  6
CONTINUOUS
 62
           7
100
AcDbLine
 10
1000.0
 20
5000.0
 11
1000.0
 21
6000.0
  0
LINE
  5
92
100
AcDbEntity
  8
1
  6
CONTINUOUS
 62
           7
100
AcDbLine
 10
-1000.0
 20
5000.0
 11
-1000.0
 21
6000.0
  0
LINE
  5
91
100
AcDbEntity
  8
1
  6
CONTINUOUS
 62
           4
100
AcDbLine
 10
1020.0
 20
5980.0
 11
1280.000000000003
 21
5980.0
  0
LINE
  5
90
100
AcDbEntity
  8
1
  6
CONTINUOUS
 62
           4
100
AcDbLine
 10
1280.000000000003
 20
5980.0
 11
1280.000000000003
 21
5020.0
  0
LINE
  5
8F
100
AcDbEntity
  8
1
  6
CONTINUOUS
 62
           4
100
AcDbLine
 10
1280.000000000003
 20
5020.0
 11
1020.0
 21
5020.0
  0
LINE
  5
8E
100
AcDbEntity
  8
1
  6
CONTINUOUS
 62
           4
100
AcDbLine
 10
1020.0
 20
5020.0
 11
1020.0
 21
5980.0
  0
LINE
  5
8D
100
AcDbEntity
  8
1
  6
CONTINUOUS
 62
           4
100
AcDbLine
 10
-1019.999999999996
 20
5020.0
 11
-1280.0
 21
5020.0
  0
LINE
  5
8C
100
AcDbEntity
  8
1
  6
CONTINUOUS
 62
           4
100
AcDbLine
 10
-1280.0
 20
5020.0
 11
-1280.0
 21
5980.0
  0
LINE
  5
8B
100
AcDbEntity
  8
1
  6
CONTINUOUS
 62
           4
100
AcDbLine
 10
-1280.0
 20
5980.0
 11
-1019.999999999996
 21
5980.0
  0
LINE
  5
8A
100
AcDbEntity
  8
1
  6
CONTINUOUS
 62
           4
100
AcDbLine
 10
-1019.999999999996
 20
5980.0
 11
-1019.999999999996
 21
5020.0
  0
LINE
  5
89
100
AcDbEntity
  8
1
  6
CONTINUOUS
 62
           7
100
AcDbLine
 10
3250.000000000004
 20
2284.629517118631
 11
3250.000000000004
 21
2274.629517118631
  0
LINE
  5
88
100
AcDbEntity
  8
1
  6
CONTINUOUS
 62
           7
100
AcDbLine
 10
3635.000000000004
 20
1491.379517118632
 11
3635.000000000004
 21
1504.629517118632
  0
LINE
  5
87
100
AcDbEntity
  8
1
  6
CONTINUOUS
 62
           7
100
AcDbLine
 10
3612.500000000004
 20
1534.629517118632
 11
3612.500000000004
 21
1504.629517118632
  0
LINE
  5
86
100
AcDbEntity
  8
1
  6
CONTINUOUS
 62
           7
100
AcDbLine
 10
3637.500000000004
 20
1534.629517118632
 11
3637.500000000004
 21
1504.629517118632
  0
LINE
  5
85
100
AcDbEntity
  8
1
  6
CONTINUOUS
 62
           7
100
AcDbLine
 10
3612.500000000004
 20
1504.629517118632
 11
3637.500000000004
 21
1504.629517118632
  0
LINE
  5
84
100
AcDbEntity
  8
1
  6
CONTINUOUS
 62
           7
100
AcDbLine
 10
3615.000000000004
 20
1504.629517118632
 11
3615.000000000004
 21
1491.379517118632
  0
LINE
  5
83
100
AcDbEntity
  8
1
  6
CONTINUOUS
 62
           7
100
AcDbLine
 10
3652.000000000004
 20
1474.379517118632
 11
3729.358987904709
 21
1474.379517118632
  0
LINE
  5
82
100
AcDbEntity
  8
1
  6
CONTINUOUS
 62
           7
100
AcDbLine
 10
3652.000000000004
 20
1454.379517118632
 11
3722.87574245764
 21
1454.379517118632
  0
LINE
  5
81
100
AcDbEntity
  8
1
  6
CONTINUOUS
 62
           7
100
AcDbLine
 10
1250.000000000001
 20
234.62951711863
 11
1250.000000000001
 21
2234.629517118629
  0
LINE
  5
80
100
AcDbEntity
  8
1
  6
CONTINUOUS
 62
           7
100
AcDbLine
 10
-1249.999999999999
 20
234.62951711863
 11
-1249.999999999999
 21
2234.629517118629
  0
LINE
  5
7F
100
AcDbEntity
  8
1
  6
CONTINUOUS
 62
           7
100
AcDbLine
 10
1250.000000000001
 20
1734.62951711863
 11
-1249.999999999999
 21
1734.62951711863
  0
LINE
  5
7E
100
AcDbEntity
  8
1
  6
CONTINUOUS
 62
           7
100
AcDbLine
 10
-249.999999999999
 20
2234.629517118629
 11
-249.999999999999
 21
1734.62951711863
  0
LINE
  5
7D
100
AcDbEntity
  8
1
  6
CONTINUOUS
 62
           7
100
AcDbLine
 10
4750.000000000004
 20
1734.629517118631
 11
3750.000000000003
 21
1734.629517118631
  0
LINE
  5
7C
100
AcDbEntity
  8
1
  6
CONTINUOUS
 62
           4
100
AcDbLine
 10
3770.000000000004
 20
2214.629517118632
 11
3770.000000000004
 21
1754.629517118632
  0
LINE
  5
7B
100
AcDbEntity
  8
1
  6
CONTINUOUS
 62
           4
100
AcDbLine
 10
4730.000000000003
 20
2214.629517118632
 11
3770.000000000004
 21
2214.629517118632
  0
LINE
  5
7A
100
AcDbEntity
  8
1
  6
CONTINUOUS
 62
           4
100
AcDbLine
 10
4730.000000000003
 20
1754.629517118632
 11
4730.000000000003
 21
2214.629517118632
  0
LINE
  5
79
100
AcDbEntity
  8
1
  6
CONTINUOUS
 62
           4
100
AcDbLine
 10
3770.000000000004
 20
1754.629517118632
 11
4730.000000000003
 21
1754.629517118632
  0
LINE
  5
78
100
AcDbEntity
  8
1
  6
LONG_DASHED
 62
           2
100
AcDbLine
 10
3300.000000000003
 20
234.629517118631
 11
3300.000000000003
 21
-215.37048288137
  0
LINE
  5
77
100
AcDbEntity
  8
1
  6
DOT_CENTER
 62
           2
100
AcDbLine
 10
0.000000000002
 20
6172.743568094669
 11
0.000000000002
 21
3868.775490951641
  0
LINE
  5
76
100
AcDbEntity
  8
1
  6
CONTINUOUS
 62
           4
100
AcDbLine
 10
3770.000000000005
 20
1535.460649453211
 11
3770.000000000005
 21
254.629517118629
  0
LINE
  5
75
100
AcDbEntity
  8
1
  6
CONTINUOUS
 62
           7
100
AcDbLine
 10
3750.000000000004
 20
1518.0405209405
 11
3750.000000000003
 21
2234.629517118631
  0
LINE
  5
74
100
AcDbEntity
  8
1
  6
CONTINUOUS
 62
           4
100
AcDbLine
 10
3730.000000000005
 20
1476.118281273926
 11
3730.000000000004
 21
2214.629517118632
  0
LINE
  5
73
100
AcDbEntity
  8
1
  6
CONTINUOUS
 62
           7
100
AcDbLine
 10
2800.000000000006
 20
1987.629517118631
 11
2800.000000000006
 21
1874.629517118631
  0
LINE
  5
72
100
AcDbEntity
  8
1
  6
CONTINUOUS
 62
           7
100
AcDbLine
 10
2980.000000000006
 20
1987.629517118632
 11
2800.000000000006
 21
1987.629517118631
  0
LINE
  5
71
100
AcDbEntity
  8
1
  6
CONTINUOUS
 62
           7
100
AcDbLine
 10
2980.000000000006
 20
1874.629517118631
 11
2980.000000000006
 21
1987.629517118632
  0
LINE
  5
70
100
AcDbEntity
  8
1
  6
CONTINUOUS
 62
           7
100
AcDbLine
 10
2800.000000000006
 20
1874.629517118631
 11
2980.000000000006
 21
1874.629517118631
  0
LINE
  5
6F
100
AcDbEntity
  8
1
  6
CONTINUOUS
 62
           7
100
AcDbLine
 10
-249.999999999999
 20
1734.629517118628
 11
-249.999999999999
 21
1498.374087104672
  0
LINE
  5
6E
100
AcDbEntity
  8
1
  6
CONTINUOUS
 62
           7
100
AcDbLine
 10
250.0
 20
1498.374087104672
 11
250.0
 21
534.629517118628
  0
LINE
  5
6D
100
AcDbEntity
  8
1
  6
CONTINUOUS
 62
           7
100
AcDbLine
 10
1250.000000000001
 20
1498.374087104672
 11
-1249.999999999999
 21
1498.374087104672
  0
LINE
  5
6C
100
AcDbEntity
  8
1
  6
DOT_CENTER
 62
           3
100
AcDbLine
 10
8.472255321879
 20
1074.83036544568
 11
8.472255321879
 21
984.831794445679
  0
LINE
  5
6B
100
AcDbEntity
  8
1
  6
DOT_CENTER
 62
           3
100
AcDbLine
 10
53.472255321879
 20
1029.83036544568
 11
-36.525199678126
 21
1029.83036544568
  0
LINE
  5
6A
100
AcDbEntity
  8
1
  6
CONTINUOUS
 62
           3
100
AcDbLine
 10
4.936660321885
 20
1057.96022844569
 11
2.548714321875
 21
1030.703104445689
  0
LINE
  5
69
100
AcDbEntity
  8
1
  6
CONTINUOUS
 62
           3
100
AcDbLine
 10
2.548714321875
 20
1028.957626445689
 11
4.936660321885
 21
1001.700502445689
  0
LINE
  5
68
100
AcDbEntity
  8
1
  6
CONTINUOUS
 62
           3
100
AcDbLine
 10
12.007850321894
 20
1057.96022844569
 11
14.395796321875
 21
1030.703104445689
  0
LINE
  5
67
100
AcDbEntity
  8
1
  6
CONTINUOUS
 62
           3
100
AcDbLine
 10
14.395796321875
 20
1028.957626445689
 11
12.007850321894
 21
1001.700502445689
  0
LINE
  5
66
100
AcDbEntity
  8
1
  6
CONTINUOUS
 62
           7
100
AcDbLine
 10
75.000000000001
 20
1380.912509506432
 11
-1074.999999999999
 21
1380.912509506432
  0
LINE
  5
65
100
AcDbEntity
  8
1
  6
CONTINUOUS
 62
           7
100
AcDbLine
 10
-1074.999999999999
 20
676.143043916994
 11
-1074.999999999999
 21
1380.912509506432
  0
LINE
  5
64
100
AcDbEntity
  8
1
  6
CONTINUOUS
 62
           7
100
AcDbLine
 10
75.000000000001
 20
676.143043916994
 11
75.000000000001
 21
1380.912509506432
  0
LINE
  5
63
100
AcDbEntity
  8
1
  6
CONTINUOUS
 62
           7
100
AcDbLine
 10
-1074.999999999999
 20
676.143043916994
 11
75.000000000001
 21
676.143043916994
  0
LINE
  5
62
100
AcDbEntity
  8
___S__
  6
DOT_CENTER
 62
           3
100
AcDbLine
 10
-1074.999999999975
 20
1355.682354405127
 11
-1074.999999999976
 21
1270.686644174019
  0
LINE
  5
61
100
AcDbEntity
  8
____
  6
CONTINUOUS
 62
           3
100
AcDbLine
 10
-1069.595947044856
 20
1349.078592624861
 11
-1069.595947044856
 21
1347.200661876736
  0
LINE
  5
60
100
AcDbEntity
  8
____
  6
CONTINUOUS
 62
           3
100
AcDbLine
 10
-1079.912775413719
 20
1349.548075311893
 11
-1070.087224586231
 21
1349.548075311893
  0
LINE
  5
5F
100
AcDbEntity
  8
____
  6
CONTINUOUS
 62
           3
100
AcDbLine
 10
-1080.404052955094
 20
1347.200661876737
 11
-1080.404052955094
 21
1349.078592624861
  0
LINE
  5
5E
100
AcDbEntity
  8
____
  6
CONTINUOUS
 62
           3
100
AcDbLine
 10
-1069.497691536591
 20
1311.519977662405
 11
-1080.502308463368
 21
1311.519977662405
  0
LINE
  5
5D
100
AcDbEntity
  8
____
  6
CONTINUOUS
 62
           3
100
AcDbLine
 10
-1069.49769153659
 20
1347.200661876736
 11
-1069.497691536591
 21
1311.519977662405
  0
LINE
  5
5C
100
AcDbEntity
  8
____
  6
CONTINUOUS
 62
           3
100
AcDbLine
 10
-1080.502308463367
 20
1347.200661876737
 11
-1069.49769153659
 21
1347.200661876736
  0
LINE
  5
5B
100
AcDbEntity
  8
____
  6
CONTINUOUS
 62
           3
100
AcDbLine
 10
-1080.502308463368
 20
1311.519977662405
 11
-1080.502308463367
 21
1347.200661876737
  0
LINE
  5
5A
100
AcDbEntity
  8
____
  6
CONTINUOUS
 62
           3
100
AcDbLine
 10
-1080.404052955095
 20
1273.022397325889
 11
-1080.404052955095
 21
1274.900328074012
  0
LINE
  5
59
100
AcDbEntity
  8
____
  6
CONTINUOUS
 62
           3
100
AcDbLine
 10
-1070.087224586231
 20
1272.55291463886
 11
-1079.91277541372
 21
1272.55291463886
  0
LINE
  5
58
100
AcDbEntity
  8
____
  6
CONTINUOUS
 62
           3
100
AcDbLine
 10
-1069.595947044857
 20
1274.900328074012
 11
-1069.595947044857
 21
1273.022397325889
  0
LINE
  5
57
100
AcDbEntity
  8
____
  6
CONTINUOUS
 62
           3
100
AcDbLine
 10
-1080.158414184407
 20
1311.519977662405
 11
-1080.158414184407
 21
1310.581012288345
  0
LINE
  5
56
100
AcDbEntity
  8
____
  6
CONTINUOUS
 62
           3
100
AcDbLine
 10
-1069.841585815544
 20
1311.519977662405
 11
-1080.158414184407
 21
1311.519977662405
  0
LINE
  5
55
100
AcDbEntity
  8
____
  6
CONTINUOUS
 62
           3
100
AcDbLine
 10
-1069.841585815544
 20
1310.581012288345
 11
-1069.841585815544
 21
1311.519977662405
  0
LINE
  5
54
100
AcDbEntity
  8
____
  6
CONTINUOUS
 62
           3
100
AcDbLine
 10
-1080.404052955094
 20
1349.078592624861
 11
-1069.595947044856
 21
1349.078592624861
  0
LINE
  5
53
100
AcDbEntity
  8
____
  6
CONTINUOUS
 62
           3
100
AcDbLine
 10
-1080.502308463368
 20
1310.581012288345
 11
-1069.497691536591
 21
1310.581012288345
  0
LINE
  5
52
100
AcDbEntity
  8
____
  6
CONTINUOUS
 62
           3
100
AcDbLine
 10
-1080.502308463368
 20
1274.900328074012
 11
-1080.502308463368
 21
1310.581012288345
  0
LINE
  5
51
100
AcDbEntity
  8
____
  6
CONTINUOUS
 62
           3
100
AcDbLine
 10
-1069.497691536591
 20
1274.900328074012
 11
-1080.502308463368
 21
1274.900328074012
  0
LINE
  5
50
100
AcDbEntity
  8
____
  6
CONTINUOUS
 62
           3
100
AcDbLine
 10
-1069.497691536591
 20
1310.581012288345
 11
-1069.497691536591
 21
1274.900328074012
  0
LINE
  5
4F
100
AcDbEntity
  8
____
  6
CONTINUOUS
 62
           3
100
AcDbLine
 10
-1080.404052955094
 20
1349.078592624861
 11
-1079.912775413719
 21
1349.548075311893
  0
LINE
  5
4E
100
AcDbEntity
  8
____
  6
CONTINUOUS
 62
           3
100
AcDbLine
 10
-1070.087224586231
 20
1349.548075311893
 11
-1069.595947044856
 21
1349.078592624861
  0
LINE
  5
4D
100
AcDbEntity
  8
____
  6
CONTINUOUS
 62
           3
100
AcDbLine
 10
-1079.91277541372
 20
1272.55291463886
 11
-1080.404052955095
 21
1273.022397325889
  0
LINE
  5
4C
100
AcDbEntity
  8
____
  6
CONTINUOUS
 62
           3
100
AcDbLine
 10
-1069.595947044857
 20
1273.022397325889
 11
-1070.087224586231
 21
1272.55291463886
  0
LINE
  5
4B
100
AcDbEntity
  8
____
  6
CONTINUOUS
 62
           3
100
AcDbLine
 10
-1080.404052955095
 20
1273.022397325889
 11
-1069.595947044857
 21
1273.022397325889
  0
LINE
  5
4A
100
AcDbEntity
  8
____
  6
CONTINUOUS
 62
           3
100
AcDbLine
 10
-1080.404052955119
 20
719.032826635836
 11
-1069.595947044881
 21
719.032826635836
  0
LINE
  5
49
100
AcDbEntity
  8
____
  6
CONTINUOUS
 62
           3
100
AcDbLine
 10
-1069.595947044881
 20
719.032826635836
 11
-1070.087224586256
 21
718.563343948803
  0
LINE
  5
48
100
AcDbEntity
  8
____
  6
CONTINUOUS
 62
           3
100
AcDbLine
 10
-1079.912775413745
 20
718.563343948803
 11
-1080.404052955119
 21
719.032826635836
  0
LINE
  5
47
100
AcDbEntity
  8
____
  6
CONTINUOUS
 62
           3
100
AcDbLine
 10
-1070.087224586254
 20
795.558504621838
 11
-1069.595947044879
 21
795.089021934808
  0
LINE
  5
46
100
AcDbEntity
  8
____
  6
CONTINUOUS
 62
           3
100
AcDbLine
 10
-1080.404052955117
 20
795.089021934808
 11
-1079.912775413743
 21
795.558504621838
  0
LINE
  5
45
100
AcDbEntity
  8
____
  6
CONTINUOUS
 62
           3
100
AcDbLine
 10
-1069.497691536607
 20
756.591441598291
 11
-1069.497691536608
 21
720.910757383957
  0
LINE
  5
44
100
AcDbEntity
  8
____
  6
CONTINUOUS
 62
           3
100
AcDbLine
 10
-1069.497691536608
 20
720.910757383957
 11
-1080.502308463384
 21
720.910757383957
  0
LINE
  5
43
100
AcDbEntity
  8
____
  6
CONTINUOUS
 62
           3
100
AcDbLine
 10
-1080.502308463384
 20
720.910757383957
 11
-1080.502308463384
 21
756.591441598291
  0
LINE
  5
42
100
AcDbEntity
  8
____
  6
CONTINUOUS
 62
           3
100
AcDbLine
 10
-1080.502308463384
 20
756.591441598291
 11
-1069.497691536607
 21
756.591441598291
  0
LINE
  5
41
100
AcDbEntity
  8
____
  6
CONTINUOUS
 62
           3
100
AcDbLine
 10
-1080.404052955117
 20
795.089021934808
 11
-1069.595947044879
 21
795.089021934808
  0
LINE
  5
40
100
AcDbEntity
  8
____
  6
CONTINUOUS
 62
           3
100
AcDbLine
 10
-1069.841585815568
 20
756.591441598291
 11
-1069.841585815568
 21
757.530406972352
  0
LINE
  5
3F
100
AcDbEntity
  8
____
  6
CONTINUOUS
 62
           3
100
AcDbLine
 10
-1069.841585815568
 20
757.530406972352
 11
-1080.158414184431
 21
757.530406972352
  0
LINE
  5
3E
100
AcDbEntity
  8
____
  6
CONTINUOUS
 62
           3
100
AcDbLine
 10
-1080.158414184431
 20
757.530406972352
 11
-1080.158414184431
 21
756.591441598291
  0
LINE
  5
3D
100
AcDbEntity
  8
____
  6
CONTINUOUS
 62
           3
100
AcDbLine
 10
-1069.595947044881
 20
720.910757383957
 11
-1069.595947044881
 21
719.032826635836
  0
LINE
  5
3C
100
AcDbEntity
  8
____
  6
CONTINUOUS
 62
           3
100
AcDbLine
 10
-1070.087224586256
 20
718.563343948803
 11
-1079.912775413745
 21
718.563343948803
  0
LINE
  5
3B
100
AcDbEntity
  8
____
  6
CONTINUOUS
 62
           3
100
AcDbLine
 10
-1080.404052955119
 20
719.032826635836
 11
-1080.404052955119
 21
720.910757383957
  0
LINE
  5
3A
100
AcDbEntity
  8
____
  6
CONTINUOUS
 62
           3
100
AcDbLine
 10
-1080.502308463384
 20
757.530406972352
 11
-1080.502308463383
 21
793.211091186684
  0
LINE
  5
39
100
AcDbEntity
  8
____
  6
CONTINUOUS
 62
           3
100
AcDbLine
 10
-1080.502308463383
 20
793.211091186684
 11
-1069.497691536606
 21
793.211091186684
  0
LINE
  5
38
100
AcDbEntity
  8
____
  6
CONTINUOUS
 62
           3
100
AcDbLine
 10
-1069.497691536606
 20
793.211091186684
 11
-1069.497691536607
 21
757.530406972352
  0
LINE
  5
37
100
AcDbEntity
  8
____
  6
CONTINUOUS
 62
           3
100
AcDbLine
 10
-1069.497691536607
 20
757.530406972352
 11
-1080.502308463384
 21
757.530406972352
  0
LINE
  5
36
100
AcDbEntity
  8
____
  6
CONTINUOUS
 62
           3
100
AcDbLine
 10
-1080.404052955117
 20
793.211091186684
 11
-1080.404052955117
 21
795.089021934808
  0
LINE
  5
35
100
AcDbEntity
  8
____
  6
CONTINUOUS
 62
           3
100
AcDbLine
 10
-1079.912775413743
 20
795.558504621838
 11
-1070.087224586254
 21
795.558504621838
  0
LINE
  5
34
100
AcDbEntity
  8
____
  6
CONTINUOUS
 62
           3
100
AcDbLine
 10
-1069.595947044879
 20
795.089021934808
 11
-1069.595947044879
 21
793.211091186684
  0
LINE
  5
33
100
AcDbEntity
  8
___S__
  6
DOT_CENTER
 62
           3
100
AcDbLine
 10
-1074.999999999999
 20
801.69278371509
 11
-1075.0
 21
716.697073483963
  0
LINE
  5
32
100
AcDbEntity
  8
1
  6
CONTINUOUS
 62
           7
100
AcDbLine
 10
-1069.497691536608
 20
721.143043916997
 11
75.000000000001
 21
721.143043916997
  0
LINE
  5
31
100
AcDbEntity
  8
1
  6
CONTINUOUS
 62
           4
100
AcDbLine
 10
3770.000000000005
 20
1714.62951711863
 11
3770.000000000005
 21
1549.094186334967
  0
LINE
  5
30
100
AcDbEntity
  8
1
  6
CONTINUOUS
 62
           4
100
AcDbLine
 10
3730.000000000005
 20
254.629517118629
 11
3730.000000000005
 21
1450.154620362894
  0
LINE
  5
2F
100
AcDbEntity
  8
1
  6
CONTINUOUS
 62
           7
100
AcDbLine
 10
3750.000000000004
 20
234.629517118629
 11
3750.000000000004
 21
1501.922790646799
  0
LINE
  5
2E
100
AcDbEntity
  8
1
  6
CONTINUOUS
 62
           7
100
AcDbLine
 10
2800.000000000004
 20
1824.629517118631
 11
2980.000000000004
 21
1824.629517118631
  0
POINT
  5
2D
100
AcDbEntity
  8
0
 62
           3
100
AcDbPoint
 10
3583.399996721738
 20
1099.629517118749
  0
ENDSEC
  0
SECTION
  2
OBJECTS
  0
DICTIONARY
  5
19
100
AcDbDictionary
  3
ACAD_GROUP
350
1A
  3
ACAD_MLINESTYLE
350
1B
  0
DICTIONARY
  5
1A
102
{ACAD_REACTORS
330
19
102
}
100
AcDbDictionary
  0
DICTIONARY
  5
1B
102
{ACAD_REACTORS
330
19
102
}
100
AcDbDictionary
  3
STANDARD
350
1C
  0
MLINESTYLE
  5
1C
102
{ACAD_REACTORS
330
1B
102
}
100
AcDbMlineStyle
  2
STANDARD
 70
           0
  3

 62
           0
 51
90.0
 52
90.0
 71
           2
 49
0.5
 62
         256
  6
BYLAYER
 49
-0.5
 62
         256
  6
BYLAYER
  0
ENDSEC
  0
EOF
