  0
SECTION
  2
HEADER
  9
$ACADVER
  1
AC1014
  9
$ACADMAINTVER
 70
           0
  9
$DWGCODEPAGE
  3
DOS932
  9
$INSBASE
 10
0.0
 20
0.0
 30
0.0
  9
$EXTMIN
 10
1.000000000000E+20
 20
1.000000000000E+20
 30
1.000000000000E+20
  9
$EXTMAX
 10
-1.000000000000E+20
 20
-1.000000000000E+20
 30
-1.000000000000E+20
  9
$LIMMIN
 10
0.0
 20
0.0
  9
$LIMMAX
 10
0.0
 20
0.0
  9
$ORTHOMODE
 70
           0
  9
$REGENMODE
 70
           1
  9
$FILLMODE
 70
           1
  9
$QTEXTMODE
 70
           0
  9
$MIRRTEXT
 70
           1
  9
$DRAGMODE
 70
           2
  9
$LTSCALE
 40
1.0
  9
$OSMODE
 70
           0
  9
$ATTMODE
 70
           1
  9
$TEXTSIZE
 40
0.2
  9
$TRACEWID
 40
0.05
  9
$TEXTSTYLE
  7
STANDARD
  9
$CLAYER
  8
0
  9
$CELTYPE
  6
CONTINUOUS
  9
$CECOLOR
 62
         256
  9
$CELTSCALE
 40
1.0
  9
$DELOBJ
 70
           1
  9
$DISPSILH
 70
           0
  9
$DIMSCALE
 40
1.0
  9
$DIMASZ
 40
0.18
  9
$DIMEXO
 40
0.0625
  9
$DIMDLI
 40
0.38
  9
$DIMRND
 40
0.0
  9
$DIMDLE
 40
0.0
  9
$DIMEXE
 40
0.18
  9
$DIMTP
 40
0.0
  9
$DIMTM
 40
0.0
  9
$DIMTXT
 40
0.18
  9
$DIMCEN
 40
0.09
  9
$DIMTSZ
 40
0.0
  9
$DIMTOL
 70
           0
  9
$DIMLIM
 70
           0
  9
$DIMTIH
 70
           1
  9
$DIMTOH
 70
           1
  9
$DIMSE1
 70
           0
  9
$DIMSE2
 70
           0
  9
$DIMTAD
 70
           0
  9
$DIMZIN
 70
           0
  9
$DIMBLK
  1

  9
$DIMASO
 70
           1
  9
$DIMSHO
 70
           1
  9
$DIMPOST
  1

  9
$DIMAPOST
  1

  9
$DIMALT
 70
           0
  9
$DIMALTD
 70
           2
  9
$DIMALTF
 40
25.4
  9
$DIMLFAC
 40
1.0
  9
$DIMTOFL
 70
           0
  9
$DIMTVP
 40
0.0
  9
$DIMTIX
 70
           0
  9
$DIMSOXD
 70
           0
  9
$DIMSAH
 70
           0
  9
$DIMBLK1
  1

  9
$DIMBLK2
  1

  9
$DIMSTYLE
  2
STANDARD
  9
$DIMCLRD
 70
           0
  9
$DIMCLRE
 70
           0
  9
$DIMCLRT
 70
           0
  9
$DIMTFAC
 40
1.0
  9
$DIMGAP
 40
0.09
  9
$DIMJUST
 70
           0
  9
$DIMSD1
 70
           0
  9
$DIMSD2
 70
           0
  9
$DIMTOLJ
 70
           1
  9
$DIMTZIN
 70
           0
  9
$DIMALTZ
 70
           0
  9
$DIMALTTZ
 70
           0
  9
$DIMFIT
 70
           3
  9
$DIMUPT
 70
           0
  9
$DIMUNIT
 70
           2
  9
$DIMDEC
 70
           4
  9
$DIMTDEC
 70
           4
  9
$DIMALTU
 70
           2
  9
$DIMALTTD
 70
           2
  9
$DIMTXSTY
  7
STANDARD
  9
$DIMAUNIT
 70
           0
  9
$LUNITS
 70
           2
  9
$LUPREC
 70
           4
  9
$SKETCHINC
 40
0.1
  9
$FILLETRAD
 40
0.0
  9
$AUNITS
 70
           0
  9
$AUPREC
 70
           0
  9
$MENU
  1
acad
  9
$ELEVATION
 40
0.0
  9
$PELEVATION
 40
0.0
  9
$THICKNESS
 40
0.0
  9
$LIMCHECK
 70
           0
  9
$BLIPMODE
 70
           1
  9
$CHAMFERA
 40
0.0
  9
$CHAMFERB
 40
0.0
  9
$CHAMFERC
 40
0.0
  9
$CHAMFERD
 40
0.0
  9
$SKPOLY
 70
           0
  9
$TDCREATE
 40
0.000000000
  9
$TDUPDATE
 40
0.000000000
  9
$TDINDWG
 40
0.0000000000
  9
$TDUSRTIMER
 40
0.0000000000
  9
$USRTIMER
 70
           1
  9
$ANGBASE
 50
0.0
  9
$ANGDIR
 70
           0
  9
$PDMODE
 70
           0
  9
$PDSIZE
 40
0.0
  9
$PLINEWID
 40
0.0
  9
$COORDS
 70
           0
  9
$SPLFRAME
 70
           0
  9
$SPLINETYPE
 70
           6
  9
$SPLINESEGS
 70
           8
  9
$ATTDIA
 70
           0
  9
$ATTREQ
 70
           1
  9
$HANDLING
 70
           1
  9
$HANDSEED
  5
39C
  9
$SURFTAB1
 70
           6
  9
$SURFTAB2
 70
           6
  9
$SURFTYPE
 70
           6
  9
$SURFU
 70
           6
  9
$SURFV
 70
           6
  9
$UCSNAME
  2

  9
$UCSORG
 10
0.0
 20
0.0
 30
0.0
  9
$UCSXDIR
 10
1.0
 20
0.0
 30
0.0
  9
$UCSYDIR
 10
0.0
 20
1.0
 30
0.0
  9
$PUCSNAME
  2

  9
$PUCSORG
 10
0.0
 20
0.0
 30
0.0
  9
$PUCSXDIR
 10
1.0
 20
0.0
 30
0.0
  9
$PUCSYDIR
 10
0.0
 20
1.0
 30
0.0
  9
$USERI1
 70
           0
  9
$USERI2
 70
           0
  9
$USERI3
 70
           0
  9
$USERI4
 70
           0
  9
$USERI5
 70
           0
  9
$USERR1
 40
0.0
  9
$USERR2
 40
0.0
  9
$USERR3
 40
0.0
  9
$USERR4
 40
0.0
  9
$USERR5
 40
0.0
  9
$WORLDVIEW
 70
           1
  9
$SHADEDGE
 70
           3
  9
$SHADEDIF
 70
          70
  9
$TILEMODE
 70
           1
  9
$MAXACTVP
 70
          16
  9
$PINSBASE
 10
0.0
 20
0.0
 30
0.0
  9
$PLIMCHECK
 70
           0
  9
$PEXTMIN
 10
1.000000000000E+20
 20
1.000000000000E+20
 30
1.000000000000E+20
  9
$PEXTMAX
 10
-1.000000000000E+20
 20
-1.000000000000E+20
 30
-1.000000000000E+20
  9
$PLIMMIN
 10
0.0
 20
0.0
  9
$PLIMMAX
 10
12.0
 20
9.0
  9
$UNITMODE
 70
           0
  9
$VISRETAIN
 70
           0
  9
$PLINEGEN
 70
           1
  9
$PSLTSCALE
 70
           0
  9
$TREEDEPTH
 70
        3020
  9
$PICKSTYLE
 70
           1
  9
$CMLSTYLE
  2
STANDARD
  9
$CMLJUST
 70
           0
  9
$CMLSCALE
 40
1.0
  9
$PROXYGRAPHICS
 70
           0
  9
$MEASUREMENT
 70
           0
  0
ENDSEC
  0
SECTION
  2
CLASSES
  0
CLASS
  1
LWPOLYLINE
  2
AcDbPolyline
  3
"AutoCAD"
 90
        0
280
           0
281
           1
  0
CLASS
  1
IMAGE
  2
AcDbRasterImage
  3
ISM
 90
      127
280
           0
281
           1
  0
CLASS
  1
OLE2FRAME
  2
AcDbOle2Frame
  3
""
 90
        0
280
           0
281
           1
  0
CLASS
  1
HATCH
  2
AcDbHatch
  3
"ACAD_SEDONA"
 90
        0
280
           0
281
           1
  0
CLASS
  1
DICTIONARYVAR
  2
AcDbDictionaryVar
  3
"AutoCAD"
 90
        0
280
           0
281
           0
  0
CLASS
  1
RASTERVARIABLES
  2
AcDbRasterVariables
  3
ISM
 90
        0
280
           0
281
           0
  0
CLASS
  1
IMAGEDEF
  2
AcDbRasterImageDef
  3
ISM
 90
        0
280
           0
281
           0
  0
CLASS
  1
IMAGEDEF_REACTOR
  2
AcDbRasterImageDefReactor
  3
ISM
 90
        1
280
           0
281
           0
  0
CLASS
  1
IDBUFFER
  2
AcDbIdBuffer
  3
"Acad"
 90
        0
280
           0
281
           0
  0
CLASS
  1
SPATIAL_FILTER
  2
AcDbSpatialFilter
  3
"Acad"
 90
        0
280
           0
281
           0
  0
CLASS
  1
XRECORD
  2
AcDbXrecord
  3
"<Built In>"
 90
        0
280
           0
281
           0
  0
CLASS
  1
SORTENTSTABLE
  2
AcDbSortentsTable
  3
"AutoCAD"
 90
        0
280
           0
281
           0
  0
CLASS
  1
LAYER_INDEX
  2
AcDbLayerIndex
  3
"Acad"
 90
        0
280
           0
281
           0
  0
CLASS
  1
SPATIAL_INDEX
  2
AcDbSpatialIndex
  3
"Acad"
 90
        0
280
           0
281
           0
  0
CLASS
  1
OBJECT_PTR
  2
CAseDLPNTableRecord
  3
"ASE-LPNTableRecord"
 90
        1
280
           0
281
           0
  0
CLASS
  1
LAYOUT
  2
AcDbLayout
  3
"AutoCAD 2000"
 90
        1
280
           0
281
           0
  0
CLASS
  1
PLOTSETTINGS
  2
AcDbPlotSettings
  3
"AutoCAD 2000"
 90
        1
280
           0
281
           0
  0
CLASS
  1
ACDBDICTIONARYWDFLT
  2
AcDbDictionaryWithDefault
  3
"AutoCAD 2000"
 90
        1
280
           0
281
           0
  0
CLASS
  1
ACDBPLACEHOLDER
  2
AcDbPlaceHolder
  3
"AutoCAD 2000"
 90
        1
280
           0
281
           0
  0
CLASS
  1
VBA_PROJECT
  2
AcDbVbaProject
  3
"acadvba"
 90
        1
280
           0
281
           0
  0
CLASS
  1
WIPEOUT
  2
AcDbWipeout
  3
WipeOut|AutoCAD Express Tool|expresstools@autodesk.com
 90
      127
280
           0
281
           1
  0
CLASS
  1
WIPEOUTVARIABLES
  2
AcDbWipeoutVariables
  3
WipeOut|AutoCAD Express Tool|expresstools@autodesk.com
 90
        0
280
           0
281
           0
  0
CLASS
  1
RTEXT
  2
RText
  3
RText|AutoCAD Express Tool|expresstools@autodesk.com
 90
        0
280
           0
281
           1
  0
CLASS
  1
ARCALIGNEDTEXT
  2
AcDbArcAlignedText
  3
ATEXT|AutoCAD Express Tool|expresstools@autodesk.com
 90
        0
280
           0
281
           1
  0
ENDSEC
  0
SECTION
  2
TABLES
  0
TABLE
  2
VPORT
  5
7
100
AcDbSymbolTable
 70
           1
  0
VPORT
  5
15
100
AcDbSymbolTableRecord
100
AcDbViewportTableRecord
  2
*ACTIVE
 70
           0
 10
0.0
 20
0.0
 11
1.0
 21
1.0
 12
6.591288
 22
4.579184
 13
0.0
 23
0.0
 14
1.0
 24
1.0
 15
0.0
 25
0.0
 16
0.0
 26
0.0
 36
1.0
 17
0.0
 27
0.0
 37
0.0
 40
9.158369
 41
0.688564
 42
50.0
 43
0.0
 44
0.0
 50
0.0
 51
0.0
 71
           0
 72
         100
 73
           1
 74
           1
 75
           0
 76
           0
 77
           0
 78
           0
  0
ENDTAB
  0
TABLE
  2
LTYPE
  5
4
100
AcDbSymbolTable
 70
          10
  0
LTYPE
  5
11
100
AcDbSymbolTableRecord
100
AcDbLinetypeTableRecord
  2
BYBLOCK
 70
          64
  3

 72
          65
 73
           0
 40
0.0
  0
LTYPE
  5
12
100
AcDbSymbolTableRecord
100
AcDbLinetypeTableRecord
  2
BYLAYER
 70
          64
  3

 72
          65
 73
           0
 40
0.0
  0
LTYPE
  5
13
100
AcDbSymbolTableRecord
100
AcDbLinetypeTableRecord
  2
CONTINUOUS
 70
          64
  3
Solid line
 72
          65
 73
           0
 40
0.0
  0
LTYPE
  5
1D
100
AcDbSymbolTableRecord
100
AcDbLinetypeTableRecord
  2
DASHED
 70
          64
  3
Dashed
 72
          65
 73
           2
 40
15.0
 49
12.0
 74
           0
 49
-3.0
 74
           0
  0
LTYPE
  5
1E
100
AcDbSymbolTableRecord
100
AcDbLinetypeTableRecord
  2
DOTTED
 70
          64
  3
Dotted
 72
          65
 73
           2
 40
3.5
 49
0.5
 74
           0
 49
-3.0
 74
           0
  0
LTYPE
  5
1F
100
AcDbSymbolTableRecord
100
AcDbLinetypeTableRecord
  2
DOT_CENTER
 70
          64
  3
Dot_Center
 72
          65
 73
           4
 40
2.0
 49
1.25
 74
           0
 49
-0.25
 74
           0
 49
0.25
 74
           0
 49
-0.25
 74
           0
  0
LTYPE
  5
20
100
AcDbSymbolTableRecord
100
AcDbLinetypeTableRecord
  2
LONG_DASHED
 70
          64
  3
Long_Dashed
 72
          65
 73
           2
 40
2.0
 49
1.5
 74
           0
 49
-0.5
 74
           0
  0
LTYPE
  5
21
100
AcDbSymbolTableRecord
100
AcDbLinetypeTableRecord
  2
DASH_CENTER
 70
          64
  3
Dash_Center
 72
          65
 73
           4
 40
36.0
 49
24.0
 74
           0
 49
-3.0
 74
           0
 49
6.0
 74
           0
 49
-3.0
 74
           0
  0
LTYPE
  5
22
100
AcDbSymbolTableRecord
100
AcDbLinetypeTableRecord
  2
PHANTOM
 70
          64
  3
Phantom
 72
          65
 73
           6
 40
2.5
 49
1.25
 74
           0
 49
-0.25
 74
           0
 49
0.25
 74
           0
 49
-0.25
 74
           0
 49
0.25
 74
           0
 49
-0.25
 74
           0
  0
LTYPE
  5
23
100
AcDbSymbolTableRecord
100
AcDbLinetypeTableRecord
  2
CENTER_DASH_DASH
 70
          64
  3
Center_Dash_Dash
 72
          65
 73
           6
 40
22.0
 49
12.0
 74
           0
 49
-3.0
 74
           0
 49
0.5
 74
           0
 49
-3.0
 74
           0
 49
0.5
 74
           0
 49
-3.0
 74
           0
  0
ENDTAB
  0
TABLE
  2
LAYER
  5
2
100
AcDbSymbolTable
 70
           7
  0
LAYER
  5
14
100
AcDbSymbolTableRecord
100
AcDbLayerTableRecord
  2
0
 70
           0
 62
           7
  6
CONTINUOUS
  0
LAYER
  5
24
100
AcDbSymbolTableRecord
100
AcDbLayerTableRecord
  2
___S__
 70
           0
 62
           7
  6
CONTINUOUS
  0
LAYER
  5
25
100
AcDbSymbolTableRecord
100
AcDbLayerTableRecord
  2
FORMAT
 70
           0
 62
           7
  6
CONTINUOUS
  0
LAYER
  5
26
100
AcDbSymbolTableRecord
100
AcDbLayerTableRecord
  2
1
 70
           0
 62
           7
  6
CONTINUOUS
  0
LAYER
  5
27
100
AcDbSymbolTableRecord
100
AcDbLayerTableRecord
  2
2
 70
           0
 62
           7
  6
CONTINUOUS
  0
LAYER
  5
28
100
AcDbSymbolTableRecord
100
AcDbLayerTableRecord
  2
7
 70
           0
 62
           7
  6
CONTINUOUS
  0
LAYER
  5
29
100
AcDbSymbolTableRecord
100
AcDbLayerTableRecord
  2
____
 70
           0
 62
           7
  6
CONTINUOUS
  0
ENDTAB
  0
TABLE
  2
STYLE
  5
3
100
AcDbSymbolTable
 70
           1
  0
STYLE
  5
17
100
AcDbSymbolTableRecord
100
AcDbTextStyleTableRecord
  2
STANDARD
 70
           0
 40
0.0
 41
1.0
 50
0.0
 71
           0
 42
0.0
  3
txt
  4

  0
ENDTAB
  0
TABLE
  2
VIEW
  5
5
100
AcDbSymbolTable
 70
           0
  0
ENDTAB
  0
TABLE
  2
UCS
  5
6
100
AcDbSymbolTable
 70
           0
  0
ENDTAB
  0
TABLE
  2
APPID
  5
8
100
AcDbSymbolTable
 70
           1
  0
APPID
  5
16
100
AcDbSymbolTableRecord
100
AcDbRegAppTableRecord
  2
ACAD
 70
           0
  0
ENDTAB
  0
TABLE
  2
DIMSTYLE
  5
9
100
AcDbSymbolTable
 70
           1
  0
DIMSTYLE
105
18
100
AcDbSymbolTableRecord
100
AcDbDimStyleTableRecord
  2
STANDARD
 70
           0
  3

  4

  5

  6

  7

 40
1.0
 41
0.18
 42
0.0625
 43
0.38
 44
0.18
 45
0.0
 46
0.0
 47
0.0
 48
0.0
 71
           0
 72
           0
 73
           1
 74
           1
 75
           0
 76
           0
 77
           0
 78
           0
140
0.18
141
0.09
142
0.0
143
25.4
144
1.0
145
0.0
146
1.0
147
0.09
170
           0
171
           2
172
           0
173
           0
174
           0
175
           0
176
           0
177
           0
178
           0
270
           2
271
           4
272
           4
273
           2
274
           2
275
           0
280
           0
281
           0
282
           0
283
           1
284
           0
285
           0
286
           0
287
           0
288
           0
340
17
  0
ENDTAB
  0
TABLE
  2
BLOCK_RECORD
  5
1
100
AcDbSymbolTable
 70
           0
  0
BLOCK_RECORD
  5
A
100
AcDbSymbolTableRecord
100
AcDbBlockTableRecord
  2
*MODEL_SPACE
  0
BLOCK_RECORD
  5
B
100
AcDbSymbolTableRecord
100
AcDbBlockTableRecord
  2
*PAPER_SPACE
  0
ENDTAB
  0
ENDSEC
  0
SECTION
  2
BLOCKS
  0
BLOCK
  5
D
100
AcDbEntity
  8
0
100
AcDbBlockBegin
  2
*MODEL_SPACE
 70
           0
 10
0.0
 20
0.0
 30
0.0
  3
*MODEL_SPACE
  1

  0
ENDBLK
  5
E
100
AcDbEntity
  8
0
100
AcDbBlockEnd
  0
BLOCK
  5
F
100
AcDbEntity
 67
           1
  8
0
100
AcDbBlockBegin
  2
*PAPER_SPACE
 70
           0
 10
0.0
 20
0.0
 30
0.0
  3
*PAPER_SPACE
  1

  0
ENDBLK
  5
10
100
AcDbEntity
 67
           1
  8
0
100
AcDbBlockEnd
  0
ENDSEC
  0
SECTION
  2
ENTITIES
  0
HATCH
  5
39A
100
AcDbEntity
  8
0
  6
CONTINUOUS
 62
           2
100
AcDbHatch
 10
0.0
 20
0.0
 30
0.0
210
0.0
220
0.0
230
1.0
  2
USER
 70
           0
 71
           1
 91
        1
 92
        1
 93
        8
 72
           1
 10
3902.0000000000032
 20
1304.9883620912481
 11
3979.3589879047058
 21
1304.988362091246
 72
           2
 10
3902.0000000000032
 20
1321.9883620912469
 40
17.000000000001364
 50
180.0
 51
-90.0
 73
           1
 72
           1
 10
3885.0000000000018
 20
1321.9883620912469
 11
3885.0000000000018
 21
1335.2383620912469
 72
           1
 10
3885.0000000000018
 20
1335.2383620912469
 11
3865.0000000000018
 21
1335.2383620912469
 72
           1
 10
3865.0000000000018
 20
1335.2383620912469
 11
3865.0000000000018
 21
1321.9883620912469
 72
           2
 10
3902.0000000000032
 20
1321.9883620912469
 40
37.000000000001364
 50
180.0
 51
-90.0
 73
           1
 72
           1
 10
3902.0000000000032
 20
1284.9883620912469
 11
3972.8757424576379
 21
1284.9883620912469
 72
           1
 10
3972.8757424576379
 20
1284.9883620912469
 11
3979.3589879047058
 21
1304.988362091246
 97
        7
330
CA
330
323
330
383
330
CB
330
324
330
C9
330
382
 75
           1
 76
           0
 52
45.0
 41
10.0
 77
           0
 78
           1
 53
45.0
 43
0.0
 44
0.0
 45
-7.0710678118654746
 46
7.0710678118654755
 79
           0
 98
        1
 10
0.0
 20
0.0
  0
ARC
  5
399
100
AcDbEntity
  8
1
  6
CONTINUOUS
 62
           3
100
AcDbCircle
 10
4398.163567691043
 20
1483.044615511203
 40
0.5
100
AcDbArc
 50
180.0
 51
-90.0
  0
ARC
  5
398
100
AcDbEntity
  8
1
  6
CONTINUOUS
 62
           3
100
AcDbCircle
 10
4398.163567691043
 20
1497.432108671284
 40
0.5
100
AcDbArc
 50
90.0
 51
180.0
  0
ARC
  5
397
100
AcDbEntity
  8
1
  6
CONTINUOUS
 62
           3
100
AcDbCircle
 10
4249.899998122326
 20
1206.238362091244
 40
280.000000000001
100
AcDbArc
 50
90.0
 51
180.0
  0
ARC
  5
396
100
AcDbEntity
  8
1
  6
CONTINUOUS
 62
           3
100
AcDbCircle
 10
4249.899996810933
 20
1206.238362091243
 40
288.0
100
AcDbArc
 50
90.0
 51
180.0
  0
ARC
  5
395
100
AcDbEntity
  8
1
  6
CONTINUOUS
 62
           4
100
AcDbCircle
 10
117.908702762046
 20
5359.006136313678
 40
12.0
100
AcDbArc
 50
90.0
 51
120.430594205703
  0
ARC
  5
394
100
AcDbEntity
  8
1
  6
CONTINUOUS
 62
           4
100
AcDbCircle
 10
117.908702762046
 20
5268.006136313678
 40
12.000000000002
100
AcDbArc
 50
-120.4305942057
 51
-90.0
  0
ARC
  5
393
100
AcDbEntity
  8
1
  6
CONTINUOUS
 62
           7
100
AcDbCircle
 10
144.824966598197
 20
5262.006136313678
 40
12.0
100
AcDbArc
 50
180.0
 51
-90.0
  0
ARC
  5
392
100
AcDbEntity
  8
1
  6
CONTINUOUS
 62
           7
100
AcDbCircle
 10
144.824966598197
 20
5365.006136313678
 40
12.0
100
AcDbArc
 50
90.0
 51
180.0
  0
ARC
  5
391
100
AcDbEntity
  8
1
  6
CONTINUOUS
 62
           7
100
AcDbCircle
 10
185.000000000001
 20
5262.006136313678
 40
12.0
100
AcDbArc
 50
-90.0
 51
0.0
  0
ARC
  5
390
100
AcDbEntity
  8
1
  6
CONTINUOUS
 62
           7
100
AcDbCircle
 10
185.000000000001
 20
5365.006136313678
 40
12.0
100
AcDbArc
 50
0.0
 51
90.0
  0
ARC
  5
38F
100
AcDbEntity
  8
1
  6
CONTINUOUS
 62
           7
100
AcDbCircle
 10
185.000000000001
 20
2853.538362091244
 40
12.0
100
AcDbArc
 50
0.0
 51
90.0
  0
ARC
  5
38E
100
AcDbEntity
  8
1
  6
CONTINUOUS
 62
           7
100
AcDbCircle
 10
185.000000000001
 20
2777.538362091244
 40
12.0
100
AcDbArc
 50
-90.0
 51
0.0
  0
ARC
  5
38D
100
AcDbEntity
  8
1
  6
CONTINUOUS
 62
           7
100
AcDbCircle
 10
134.4963968
 20
2853.538362091244
 40
12.0
100
AcDbArc
 50
90.000000000002
 51
180.0
  0
ARC
  5
38C
100
AcDbEntity
  8
1
  6
CONTINUOUS
 62
           7
100
AcDbCircle
 10
134.4963968
 20
2777.538362091244
 40
12.0
100
AcDbArc
 50
180.0
 51
-90.000000000002
  0
ARC
  5
38B
100
AcDbEntity
  8
1
  6
CONTINUOUS
 62
           7
100
AcDbCircle
 10
4488.500000000001
 20
2777.538362091244
 40
12.0
100
AcDbArc
 50
180.0
 51
-90.0
  0
ARC
  5
38A
100
AcDbEntity
  8
1
  6
CONTINUOUS
 62
           7
100
AcDbCircle
 10
4488.500000000001
 20
2853.538362091244
 40
12.0
100
AcDbArc
 50
90.0
 51
180.0
  0
ARC
  5
389
100
AcDbEntity
  8
1
  6
CONTINUOUS
 62
           7
100
AcDbCircle
 10
4591.500000000001
 20
2777.538362091244
 40
12.0
100
AcDbArc
 50
-90.0
 51
0.0
  0
ARC
  5
388
100
AcDbEntity
  8
1
  6
CONTINUOUS
 62
           7
100
AcDbCircle
 10
4591.500000000001
 20
2853.538362091244
 40
12.0
100
AcDbArc
 50
0.0
 51
90.0
  0
ARC
  5
387
100
AcDbEntity
  8
1
  6
CONTINUOUS
 62
           4
100
AcDbCircle
 10
5055.500000000001
 20
2675.738362091247
 40
1.0
100
AcDbArc
 50
180.0
 51
-90.0
  0
ARC
  5
386
100
AcDbEntity
  8
1
  6
CONTINUOUS
 62
           4
100
AcDbCircle
 10
5044.500000000001
 20
2675.738362091247
 40
1.0
100
AcDbArc
 50
-90.0
 51
0.0
  0
ARC
  5
385
100
AcDbEntity
  8
1
  6
CONTINUOUS
 62
           4
100
AcDbCircle
 10
5055.500000000001
 20
2224.738362091246
 40
1.0
100
AcDbArc
 50
90.0
 51
180.0
  0
ARC
  5
384
100
AcDbEntity
  8
1
  6
CONTINUOUS
 62
           4
100
AcDbCircle
 10
5044.500000000001
 20
2224.738362091246
 40
1.0
100
AcDbArc
 50
0.0
 51
90.0
  0
LWPOLYLINE
  5
383
100
AcDbEntity
  8
1
  6
CONTINUOUS
 62
           7
 60
           1
100
AcDbPolyline
 90
        3
 70
           0
 10
3885.000000000002
 20
1321.988362091247
 10
3885.000000000002
 20
1335.238362091247
 10
3865.000000000002
 20
1335.238362091247
  0
LWPOLYLINE
  5
382
100
AcDbEntity
  8
1
  6
CONTINUOUS
 62
           7
 60
           1
100
AcDbPolyline
 90
        2
 70
           0
 10
3972.875742457638
 20
1284.988362091247
 10
3979.358987904706
 20
1304.988362091246
  0
SPLINE
  5
381
100
AcDbEntity
  8
0
  6
CONTINUOUS
 62
           3
100
AcDbSpline
210
0.0
220
0.0
230
1.0
 70
           0
 71
           3
 72
           8
 73
           5
 74
           7
 42
0.00000000001
 43
0.00000000001
 44
0.00000000001
 40
0.0
 40
0.0
 40
0.0
 40
0.298965195031542
 40
0.4296296276534122
 40
0.4465803504026553
 40
0.4465803504026553
 40
0.4465803504026553
 10
3920.8999966098659
 20
949.88494171454568
 30
0.0
 10
3920.8999966099132
 20
949.7052986546696
 30
0.0
 10
3920.8999966099132
 20
949.46665438435866
 30
0.0
 10
3920.8999966099132
 20
949.44396978942586
 30
0.0
 10
3920.8999966099132
 20
949.43836136414302
 30
0.0
 11
3920.8999966098659
 21
949.88494171454568
 31
0.0
 11
3920.8999966099013
 21
949.70869323556735
 31
0.0
 11
3920.8999966099132
 21
949.53923391838418
 31
0.0
 11
3920.8999966099132
 21
949.47977934000141
 31
0.0
 11
3920.8999966099127
 21
949.44657467290426
 31
0.0
 11
3920.8999966099132
 21
949.44321890397464
 31
0.0
 11
3920.8999966099132
 21
949.43836136414302
 31
0.0
  0
SPLINE
  5
380
100
AcDbEntity
  8
0
  6
CONTINUOUS
 62
           3
100
AcDbSpline
210
0.0
220
0.0
230
1.0
 70
           0
 71
           3
 72
           8
 73
           5
 74
           7
 42
0.00000000001
 43
0.00000000001
 44
0.00000000001
 40
0.0
 40
0.0
 40
0.0
 40
0.0169507227492431
 40
0.1476151553711134
 40
0.4465803504026553
 40
0.4465803504026553
 40
0.4465803504026553
 10
3910.8999968334342
 20
949.43836136414302
 30
0.0
 10
3910.8999968334342
 20
949.44396978942586
 30
0.0
 10
3910.8999968334342
 20
949.46665438435866
 30
0.0
 10
3910.8999968334342
 20
949.7052986546696
 30
0.0
 10
3910.8999968334738
 20
949.88494171454568
 30
0.0
 11
3910.8999968334342
 21
949.43836136414302
 31
0.0
 11
3910.8999968334342
 21
949.44321890397464
 31
0.0
 11
3910.8999968334342
 21
949.44657467290426
 31
0.0
 11
3910.8999968334347
 21
949.47977934000141
 31
0.0
 11
3910.8999968334342
 21
949.53923391838418
 31
0.0
 11
3910.8999968334442
 21
949.70869323556735
 31
0.0
 11
3910.8999968334738
 21
949.88494171454568
 31
0.0
  0
SPLINE
  5
37F
100
AcDbEntity
  8
0
  6
CONTINUOUS
 62
           3
100
AcDbSpline
210
0.0
220
0.0
230
1.0
 70
           0
 71
           3
 72
           8
 73
           5
 74
           7
 42
0.00000000001
 43
0.00000000001
 44
0.00000000001
 40
0.0
 40
0.0
 40
0.0
 40
0.4813883392839989
 40
1.3325653926428966
 40
2.5594910488309011
 40
2.5594910488309011
 40
2.5594910488309011
 10
3918.399996665763
 20
949.43836136414302
 30
0.0
 10
3918.4592614719459
 20
949.43880706255277
 30
0.0
 10
3919.3034813132931
 20
949.44515598130874
 30
0.0
 10
3920.1307773327808
 20
949.67304793279891
 30
0.0
 10
3920.8999966098659
 20
949.88494171454568
 30
0.0
 11
3918.399996665763
 21
949.43836136414302
 31
0.0
 11
3918.5206887308823
 21
949.43926902359294
 31
0.0
 11
3918.7642353138754
 21
949.44110060512344
 31
0.0
 11
3919.2533835507447
 21
949.46747789430458
 31
0.0
 11
3919.6423362625155
 21
949.53849900947694
 31
0.0
 11
3920.2009718844852
 21
949.69238414740494
 31
0.0
 11
3920.8999966098659
 21
949.88494171454568
 31
0.0
  0
SPLINE
  5
37E
100
AcDbEntity
  8
0
  6
CONTINUOUS
 62
           3
100
AcDbSpline
210
0.0
220
0.0
230
1.0
 70
           0
 71
           3
 72
           8
 73
           5
 74
           7
 42
0.00000000001
 43
0.00000000001
 44
0.00000000001
 40
0.0
 40
0.0
 40
0.0
 40
0.48138847750517
 40
1.3325655942396439
 40
2.5594910572536129
 40
2.5594910572536129
 40
2.5594910572536129
 10
3913.3999967775549
 20
949.43836136414302
 30
0.0
 10
3913.4592615843958
 20
949.43880706279651
 30
0.0
 10
3914.303481700832
 20
949.4451559870713
 30
0.0
 10
3915.130777567962
 20
949.67304793296989
 30
0.0
 10
3915.899996721676
 20
949.8849417145384
 30
0.0
 11
3913.3999967775549
 21
949.43836136414302
 31
0.0
 11
3913.5206888783696
 21
949.43926902435214
 31
0.0
 11
3913.7642355671305
 21
949.44110060767241
 31
0.0
 11
3914.2533839007097
 21
949.46747790188613
 31
0.0
 11
3914.642336634045
 21
949.53849902572938
 31
0.0
 11
3915.2009721229115
 21
949.69238415155189
 31
0.0
 11
3915.899996721676
 21
949.8849417145384
 31
0.0
  0
SPLINE
  5
37D
100
AcDbEntity
  8
0
  6
CONTINUOUS
 62
           3
100
AcDbSpline
210
0.0
220
0.0
230
1.0
 70
           0
 71
           3
 72
           8
 73
           5
 74
           7
 42
0.00000000001
 43
0.00000000001
 44
0.00000000001
 40
0.0
 40
0.0
 40
0.0
 40
0.2779454797466456
 40
0.7862825386900824
 40
1.5429638907232084
 40
1.5429638907232084
 40
1.5429638907232084
 10
3911.5698696873469
 20
932.8383560354996
 30
0.0
 10
3911.6040862319251
 20
932.83880172775662
 30
0.0
 10
3912.0914969500318
 20
932.84515056241707
 30
0.0
 10
3912.569136417198
 20
933.07304641692008
 30
0.0
 10
3913.0132452878461
 20
933.28494383647831
 30
0.0
 11
3911.5698696873469
 21
932.8383560354996
 31
0.0
 11
3911.6386061814974
 21
932.83925137205949
 31
0.0
 11
3911.7763825747938
 21
932.84104599722559
 31
0.0
 11
3912.0607022116083
 21
932.86701893147131
 31
0.0
 11
3912.2834323715779
 21
932.93672860382594
 31
0.0
 11
3912.608737623455
 21
933.09194131853599
 31
0.0
 11
3913.0132452878461
 21
933.28494383647831
 31
0.0
  0
SPLINE
  5
37C
100
AcDbEntity
  8
0
  6
CONTINUOUS
 62
           3
100
AcDbSpline
210
0.0
220
0.0
230
1.0
 70
           0
 71
           3
 72
           8
 73
           5
 74
           7
 42
0.00000000001
 43
0.00000000001
 44
0.00000000001
 40
0.0
 40
0.0
 40
0.0
 40
0.2779464854374562
 40
0.7862840843770436
 40
1.5429642658571039
 40
1.5429642658571039
 40
1.5429642658571039
 10
3911.5698696873469
 20
937.83836616828467
 30
0.0
 10
3911.535653137983
 20
937.83792047291263
 30
0.0
 10
3911.0482404188829
 20
937.8315715686831
 30
0.0
 10
3910.5706019393419
 20
937.60367578471687
 30
0.0
 10
3910.1264938539739
 20
937.39177836735234
 30
0.0
 11
3911.5698696873469
 21
937.83836616828467
 31
0.0
 11
3911.5011329415929
 21
937.83747082231321
 31
0.0
 11
3911.3633558030592
 21
937.83567617514291
 31
0.0
 11
3911.0790354338678
 21
937.80970318129982
 31
0.0
 11
3910.856305094645
 21
937.7399934126895
 31
0.0
 11
3910.5310007068256
 21
937.58478083736884
 31
0.0
 11
3910.1264938539739
 21
937.39177836735234
 31
0.0
  0
SPLINE
  5
37B
100
AcDbEntity
  8
0
  6
CONTINUOUS
 62
           3
100
AcDbSpline
210
0.0
220
0.0
230
1.0
 70
           0
 71
           3
 72
           8
 73
           5
 74
           7
 42
0.00000000001
 43
0.00000000001
 44
0.00000000001
 40
0.0
 40
0.0
 40
0.0
 40
0.2779464854275355
 40
0.7862840843628117
 40
1.5429642658947564
 40
1.5429642658947564
 40
1.5429642658947564
 10
3920.2301237560059
 20
932.8383560354996
 30
0.0
 10
3920.2643403053648
 20
932.838801730878
 30
0.0
 10
3920.751753024455
 20
932.84515063510753
 30
0.0
 10
3921.2293915040009
 20
933.07304641906649
 30
0.0
 10
3921.6734995893662
 20
933.28494383655561
 30
0.0
 11
3920.2301237560059
 21
932.8383560354996
 31
0.0
 11
3920.2988605017545
 21
932.83925138147583
 31
0.0
 11
3920.4366376402822
 21
932.84104602864772
 31
0.0
 11
3920.7209580094691
 21
932.8670190224891
 31
0.0
 11
3920.9436883486856
 21
932.93672879109386
 31
0.0
 11
3921.2689927365132
 21
933.09194136644567
 31
0.0
 11
3921.6734995893662
 21
933.28494383655561
 31
0.0
  0
SPLINE
  5
37A
100
AcDbEntity
  8
0
  6
CONTINUOUS
 62
           3
100
AcDbSpline
210
0.0
220
0.0
230
1.0
 70
           0
 71
           3
 72
           8
 73
           5
 74
           7
 42
0.00000000001
 43
0.00000000001
 44
0.00000000001
 40
0.0
 40
0.0
 40
0.0
 40
0.2779454797520903
 40
0.7862825386962304
 40
1.5429638907280876
 40
1.5429638907280876
 40
1.5429638907280876
 10
3920.2301237560059
 20
937.83836616828467
 30
0.0
 10
3920.1959072114259
 20
937.83792047602674
 30
0.0
 10
3919.7084964933119
 20
937.83157164136992
 30
0.0
 10
3919.2308570261539
 20
937.60367578686328
 30
0.0
 10
3918.786748155504
 20
937.39177836730505
 30
0.0
 11
3920.2301237560059
 21
937.83836616828467
 31
0.0
 11
3920.1613872618527
 21
937.83747083172432
 31
0.0
 11
3920.0236108685522
 21
937.83567620655901
 31
0.0
 11
3919.7392912317355
 21
937.80970327231455
 31
0.0
 11
3919.5165610717686
 21
937.73999359995923
 31
0.0
 11
3919.1912558198946
 21
937.5847808852476
 31
0.0
 11
3918.786748155504
 21
937.39177836730505
 31
0.0
  0
SPLINE
  5
379
100
AcDbEntity
  8
0
  6
CONTINUOUS
 62
           3
100
AcDbSpline
210
0.0
220
0.0
230
1.0
 70
           0
 71
           3
 72
           8
 73
           5
 74
           7
 42
0.00000000001
 43
0.00000000001
 44
0.00000000001
 40
0.0
 40
0.0
 40
0.0
 40
0.7097107189133256
 40
1.6878556121189796
 40
2.9354150974108162
 40
2.9354150974108162
 40
2.9354150974108162
 10
3913.0132452878461
 20
933.28494383647831
 30
0.0
 10
3913.2266018694959
 20
933.22530269393883
 30
0.0
 10
3914.166904550465
 20
932.96245293419543
 30
0.0
 10
3915.1443418916861
 20
932.89246419110987
 30
0.0
 10
3915.899996721676
 20
932.8383560354996
 30
0.0
 11
3913.0132452878461
 21
933.28494383647831
 31
0.0
 11
3913.2721075078007
 21
933.21258216645572
 31
0.0
 11
3913.6219810043667
 21
933.11477944146714
 31
0.0
 11
3914.1380638628571
 21
932.99284495808445
 31
0.0
 11
3914.5964653461306
 21
932.9316945224798
 31
0.0
 11
3915.1962864627949
 21
932.88874473504973
 31
0.0
 11
3915.899996721676
 21
932.8383560354996
 31
0.0
  0
SPLINE
  5
378
100
AcDbEntity
  8
0
  6
CONTINUOUS
 62
           3
100
AcDbSpline
210
0.0
220
0.0
230
1.0
 70
           0
 71
           3
 72
           8
 73
           5
 74
           7
 42
0.00000000001
 43
0.00000000001
 44
0.00000000001
 40
0.0
 40
0.0
 40
0.0
 40
0.727368139490912
 40
1.7065914567886846
 40
2.9387223240294422
 40
2.9387223240294422
 40
2.9387223240294422
 10
3915.899996721676
 20
932.8383560354996
 30
0.0
 10
3916.1387195010338
 20
932.84383557457022
 30
0.0
 10
3917.1156271469831
 20
932.86625908869519
 30
0.0
 10
3918.0674888562448
 20
933.10473971196461
 30
0.0
 10
3918.786748155364
 20
933.28494383655561
 30
0.0
 11
3915.899996721676
 21
932.8383560354996
 31
0.0
 11
3916.1831310149742
 21
932.84485497718663
 31
0.0
 11
3916.5550883361539
 21
932.85339272410658
 31
0.0
 11
3917.0808673755137
 21
932.88944326462797
 31
0.0
 11
3917.5371268719337
 21
932.97186215701504
 31
0.0
 11
3918.1147131849475
 21
933.11657135437497
 31
0.0
 11
3918.786748155364
 21
933.28494383655561
 31
0.0
  0
SPLINE
  5
377
100
AcDbEntity
  8
0
  6
CONTINUOUS
 62
           3
100
AcDbSpline
210
0.0
220
0.0
230
1.0
 70
           0
 71
           3
 72
           8
 73
           5
 74
           7
 42
0.00000000001
 43
0.00000000001
 44
0.00000000001
 40
0.0
 40
0.0
 40
0.0
 40
1.2321308673587168
 40
2.2113541846564475
 40
2.9387223241473386
 40
2.9387223241473386
 40
2.9387223241473386
 10
3918.786748155504
 20
937.39177836730505
 30
0.0
 10
3918.0674888562448
 20
937.57198249182238
 30
0.0
 10
3917.1156271469831
 20
937.81046311509181
 30
0.0
 10
3916.1387195010338
 20
937.83288662921314
 30
0.0
 10
3915.899996721676
 20
937.83836616828467
 30
0.0
 11
3918.786748155504
 21
937.39177836730505
 31
0.0
 11
3918.1147131849766
 21
937.56015084943192
 31
0.0
 11
3917.5371268719118
 21
937.70486004677764
 31
0.0
 11
3917.0808673755078
 21
937.78727893915993
 31
0.0
 11
3916.5550883361539
 21
937.82332947967825
 31
0.0
 11
3916.1831310149746
 21
937.8318672265973
 31
0.0
 11
3915.899996721676
 21
937.83836616828467
 31
0.0
  0
SPLINE
  5
376
100
AcDbEntity
  8
0
  6
CONTINUOUS
 62
           3
100
AcDbSpline
210
0.0
220
0.0
230
1.0
 70
           0
 71
           3
 72
           8
 73
           5
 74
           7
 42
0.00000000001
 43
0.00000000001
 44
0.00000000001
 40
0.0
 40
0.0
 40
0.0
 40
1.2475616964926877
 40
2.2257084622417858
 40
2.9354211178789069
 40
2.9354211178789069
 40
2.9354211178789069
 10
3915.899996721676
 20
937.83836616828467
 30
0.0
 10
3915.1443400642552
 20
937.78427090071546
 30
0.0
 10
3914.1668989125851
 20
937.71429872471253
 30
0.0
 10
3913.2266017037641
 20
937.45142520240461
 30
0.0
 10
3913.0132452878461
 20
937.39177836730505
 30
0.0
 11
3915.899996721676
 21
937.83836616828467
 31
0.0
 11
3915.1962845668049
 21
937.78798945693654
 31
0.0
 11
3914.5964614170352
 21
937.74504985803071
 31
0.0
 11
3914.1380594916341
 21
937.68390145155149
 31
0.0
 11
3913.6219787243294
 21
937.5619584987503
 31
0.0
 11
3913.2721068549258
 21
937.46414681771614
 31
0.0
 11
3913.0132452878461
 21
937.39177836730505
 31
0.0
  0
SPLINE
  5
375
100
AcDbEntity
  8
0
  6
CONTINUOUS
 62
           3
100
AcDbSpline
210
0.0
220
0.0
230
1.0
 70
           0
 71
           3
 72
           8
 73
           5
 74
           7
 42
0.00000000001
 43
0.00000000001
 44
0.00000000001
 40
0.0
 40
0.0
 40
0.0
 40
0.2779452695550583
 40
0.7862805426581736
 40
1.5429573554986598
 40
1.5429573554986598
 40
1.5429573554986598
 10
3911.5698696873469
 20
937.83836616828467
 30
0.0
 10
3911.6040862308751
 20
937.8388118730536
 30
0.0
 10
3912.0914965280849
 20
937.845160880609
 30
0.0
 10
3912.569136228366
 20
938.07304892432785
 30
0.0
 10
3913.0132452878461
 20
938.28493906810309
 30
0.0
 11
3911.5698696873469
 21
937.83836616828467
 31
0.0
 11
3911.6386062202869
 21
937.83926153050788
 31
0.0
 11
3911.7763827320496
 21
937.84105620763989
 31
0.0
 11
3912.0607020292264
 21
937.86702847208414
 31
0.0
 11
3912.283432328687
 21
937.93673591947856
 31
0.0
 11
3912.608737518316
 21
938.09194320905931
 31
0.0
 11
3913.0132452878461
 21
938.28493906810309
 31
0.0
  0
SPLINE
  5
374
100
AcDbEntity
  8
0
  6
CONTINUOUS
 62
           3
100
AcDbSpline
210
0.0
220
0.0
230
1.0
 70
           0
 71
           3
 72
           8
 73
           5
 74
           7
 42
0.00000000001
 43
0.00000000001
 44
0.00000000001
 40
0.0
 40
0.0
 40
0.0
 40
0.2779463803323705
 40
0.786283086339479
 40
1.5429609982602714
 40
1.5429609982602714
 40
1.5429609982602714
 10
3911.5698696873469
 20
942.83836139990945
 30
0.0
 10
3911.5356531385059
 20
942.83791569828009
 30
0.0
 10
3911.048240629877
 20
942.83156670760127
 30
0.0
 10
3910.570602033763
 20
942.60367482903075
 30
0.0
 10
3910.1264938539739
 20
942.39178104944858
 30
0.0
 11
3911.5698696873469
 21
942.83836139990945
 31
0.0
 11
3911.5011329221993
 21
942.83746604110513
 31
0.0
 11
3911.3633557244375
 21
942.83567136795102
 31
0.0
 11
3911.0790355250756
 21
942.80969870900935
 31
0.0
 11
3910.8563051161136
 21
942.73999005288397
 31
0.0
 11
3910.5310007594035
 21
942.58478019009851
 31
0.0
 11
3910.1264938539739
 21
942.39178104944858
 31
0.0
  0
SPLINE
  5
373
100
AcDbEntity
  8
0
  6
CONTINUOUS
 62
           3
100
AcDbSpline
210
0.0
220
0.0
230
1.0
 70
           0
 71
           3
 72
           8
 73
           5
 74
           7
 42
0.00000000001
 43
0.00000000001
 44
0.00000000001
 40
0.0
 40
0.0
 40
0.0
 40
0.2779462752393203
 40
0.786282088327928
 40
1.542957730650736
 40
1.542957730650736
 40
1.542957730650736
 10
3920.2301237560059
 20
937.83836616828467
 30
0.0
 10
3920.2643403043239
 20
937.83881187617135
 30
0.0
 10
3920.7517526025058
 20
937.84516095329582
 30
0.0
 10
3921.229391315167
 20
938.0730489264779
 30
0.0
 10
3921.6734995893662
 20
938.28493906815402
 30
0.0
 11
3920.2301237560059
 21
937.83836616828467
 31
0.0
 11
3920.2988605405503
 21
937.83926153992149
 31
0.0
 11
3920.4366377975475
 21
937.84105623905862
 31
0.0
 11
3920.7209578270881
 21
937.86702856309796
 31
0.0
 11
3920.9436883057951
 21
937.93673610674205
 31
0.0
 11
3921.2689926313742
 21
938.09194325696308
 31
0.0
 11
3921.6734995893662
 21
938.28493906815402
 31
0.0
  0
SPLINE
  5
372
100
AcDbEntity
  8
0
  6
CONTINUOUS
 62
           3
100
AcDbSpline
210
0.0
220
0.0
230
1.0
 70
           0
 71
           3
 72
           8
 73
           5
 74
           7
 42
0.00000000001
 43
0.00000000001
 44
0.00000000001
 40
0.0
 40
0.0
 40
0.0
 40
0.2779453746524566
 40
0.78628154066683
 40
1.5429606230903361
 40
1.5429606230903361
 40
1.5429606230903361
 10
3920.2301237560059
 20
942.83836139990945
 30
0.0
 10
3920.1959072119521
 20
942.83791570139419
 30
0.0
 10
3919.708496704292
 20
942.83156678028809
 30
0.0
 10
3919.2308571205749
 20
942.6036748311808
 30
0.0
 10
3918.786748155504
 20
942.39178104951043
 30
0.0
 11
3920.2301237560059
 21
942.83836139990945
 31
0.0
 11
3920.1613872424591
 21
942.83746605051624
 31
0.0
 11
3920.0236107899273
 21
942.83567139936736
 31
0.0
 11
3919.7392913229332
 21
942.80969880002317
 31
0.0
 11
3919.5165610932208
 21
942.73999024014927
 31
0.0
 11
3919.1912558724684
 21
942.58478023800524
 31
0.0
 11
3918.786748155504
 21
942.39178104951043
 31
0.0
  0
SPLINE
  5
371
100
AcDbEntity
  8
0
  6
CONTINUOUS
 62
           3
100
AcDbSpline
210
0.0
220
0.0
230
1.0
 70
           0
 71
           3
 72
           8
 73
           5
 74
           7
 42
0.00000000001
 43
0.00000000001
 44
0.00000000001
 40
0.0
 40
0.0
 40
0.0
 40
0.7097104926809627
 40
1.6878550560182828
 40
2.9354142011740763
 40
2.9354142011740763
 40
2.9354142011740763
 10
3913.0132452878461
 20
938.28493906810309
 30
0.0
 10
3913.2266018489559
 20
938.22529776059218
 30
0.0
 10
3914.1669038516538
 20
937.96244743810075
 30
0.0
 10
3915.1443416651732
 20
937.89246750386428
 30
0.0
 10
3915.899996721676
 20
937.83836616828467
 30
0.0
 11
3913.0132452878461
 21
938.28493906810309
 31
0.0
 11
3913.272107422154
 21
938.21257721489997
 31
0.0
 11
3913.6219807028592
 21
938.11477427031286
 31
0.0
 11
3914.138063311374
 21
937.99284051132395
 31
0.0
 11
3914.5964648393301
 21
937.93169289878142
 31
0.0
 11
3915.1962862228384
 21
937.88874851869855
 31
0.0
 11
3915.899996721676
 21
937.83836616828467
 31
0.0
  0
SPLINE
  5
370
100
AcDbEntity
  8
0
  6
CONTINUOUS
 62
           3
100
AcDbSpline
210
0.0
220
0.0
230
1.0
 70
           0
 71
           3
 72
           8
 73
           5
 74
           7
 42
0.00000000001
 43
0.00000000001
 44
0.00000000001
 40
0.0
 40
0.0
 40
0.0
 40
0.7273675739563918
 40
1.7065896374631198
 40
2.9387184666009158
 40
2.9387184666009158
 40
2.9387184666009158
 10
3915.899996721676
 20
937.83836616828467
 30
0.0
 10
3916.1387194651579
 20
937.84384589250749
 30
0.0
 10
3917.115626026095
 20
937.86627014276291
 30
0.0
 10
3918.067488501054
 20
938.10474178552886
 30
0.0
 10
3918.786748155364
 20
938.28493906815402
 30
0.0
 11
3915.899996721676
 21
937.83836616828467
 31
0.0
 11
3916.1831309024919
 21
937.84486532796188
 31
0.0
 11
3916.5550879579764
 21
937.85340335854858
 31
0.0
 11
3917.0808665470117
 21
937.8894532251087
 31
0.0
 11
3917.5371261778819
 21
937.97186925636072
 31
0.0
 11
3918.1147128338384
 21
938.11657297389308
 31
0.0
 11
3918.786748155364
 21
938.28493906815402
 31
0.0
  0
SPLINE
  5
36F
100
AcDbEntity
  8
0
  6
CONTINUOUS
 62
           3
100
AcDbSpline
210
0.0
220
0.0
230
1.0
 70
           0
 71
           3
 72
           8
 73
           5
 74
           7
 42
0.00000000001
 43
0.00000000001
 44
0.00000000001
 40
0.0
 40
0.0
 40
0.0
 40
1.2321298483020804
 40
2.2113525386985291
 40
2.9387203954185188
 40
2.9387203954185188
 40
2.9387203954185188
 10
3918.786748155504
 20
942.39178104951043
 30
0.0
 10
3918.067488678646
 20
942.57198175305803
 30
0.0
 10
3917.1156265865338
 20
942.81045788607662
 30
0.0
 10
3916.1387194830941
 20
942.83288176826591
 30
0.0
 10
3915.899996721676
 20
942.83836139990945
 30
0.0
 11
3918.786748155504
 21
942.39178104951043
 31
0.0
 11
3918.1147130094191
 21
942.56015033768733
 31
0.0
 11
3917.5371265248805
 21
942.70485679512296
 31
0.0
 11
3917.0808669612525
 21
942.78727425693842
 31
0.0
 11
3916.5550881470626
 21
942.82332446047769
 31
0.0
 11
3916.1831309587315
 21
942.83186234922971
 31
0.0
 11
3915.899996721676
 21
942.83836139990945
 31
0.0
  0
SPLINE
  5
36E
100
AcDbEntity
  8
0
  6
CONTINUOUS
 62
           3
100
AcDbSpline
210
0.0
220
0.0
230
1.0
 70
           0
 71
           3
 72
           8
 73
           5
 74
           7
 42
0.00000000001
 43
0.00000000001
 44
0.00000000001
 40
0.0
 40
0.0
 40
0.0
 40
1.2475604207861863
 40
2.2257060852946733
 40
2.9354176594297074
 40
2.9354176594297074
 40
2.9354176594297074
 10
3915.899996721676
 20
942.83836139990945
 30
0.0
 10
3915.1443408647228
 20
942.78426309834958
 30
0.0
 10
3914.1669013821629
 20
942.7142870432499
 30
0.0
 10
3913.226601776365
 20
942.45142512081566
 30
0.0
 10
3913.0132452878461
 20
942.39178104951043
 30
0.0
 11
3915.899996721676
 21
942.83836139990945
 31
0.0
 11
3915.1962853948321
 21
942.78798186904214
 31
0.0
 11
3914.5964631282091
 21
942.74503987955973
 31
0.0
 11
3914.138061401537
 21
942.68389187005027
 31
0.0
 11
3913.6219797136164
 21
942.56195351414158
 31
0.0
 11
3913.2721071385477
 21
942.46414620132077
 31
0.0
 11
3913.0132452878461
 21
942.39178104951043
 31
0.0
  0
SPLINE
  5
36D
100
AcDbEntity
  8
0
  6
CONTINUOUS
 62
           3
100
AcDbSpline
210
0.0
220
0.0
230
1.0
 70
           0
 71
           3
 72
           8
 73
           5
 74
           7
 42
0.00000000001
 43
0.00000000001
 44
0.00000000001
 40
0.0
 40
0.0
 40
0.0
 40
0.2779454797466338
 40
0.7862825386908301
 40
1.5429638907231729
 40
1.5429638907231729
 40
1.5429638907231729
 10
3911.5698696873469
 20
925.23836149529143
 30
0.0
 10
3911.6040862319251
 20
925.23880718754936
 30
0.0
 10
3912.0914969500318
 20
925.24515602220617
 30
0.0
 10
3912.569136417198
 20
925.47305187671282
 30
0.0
 10
3913.0132452878461
 20
925.6849492962674
 30
0.0
 11
3911.5698696873469
 21
925.23836149529143
 31
0.0
 11
3911.6386061814974
 21
925.23925683185166
 31
0.0
 11
3911.7763825747934
 21
925.24105145701697
 31
0.0
 11
3912.0607022116092
 21
925.26702439126154
 31
0.0
 11
3912.2834323715783
 21
925.33673406361663
 31
0.0
 11
3912.6087376234555
 21
925.49194677832747
 31
0.0
 11
3913.0132452878461
 21
925.6849492962674
 31
0.0
  0
SPLINE
  5
36C
100
AcDbEntity
  8
0
  6
CONTINUOUS
 62
           3
100
AcDbSpline
210
0.0
220
0.0
230
1.0
 70
           0
 71
           3
 72
           8
 73
           5
 74
           7
 42
0.00000000001
 43
0.00000000001
 44
0.00000000001
 40
0.0
 40
0.0
 40
0.0
 40
0.2779462752367956
 40
0.7862820883279655
 40
1.5429577306136644
 40
1.5429577306136644
 40
1.5429577306136644
 10
3911.5698696873469
 20
930.23835672691621
 30
0.0
 10
3911.5356531390339
 20
930.23791101903316
 30
0.0
 10
3911.048240840847
 20
930.23156194190506
 30
0.0
 10
3910.570602128184
 20
930.00367396872662
 30
0.0
 10
3910.1264938539739
 20
929.79178382715963
 30
0.0
 11
3911.5698696873469
 21
930.23835672691621
 31
0.0
 11
3911.5011329028061
 21
930.23746135528177
 31
0.0
 11
3911.3633556458099
 21
930.23566665614464
 31
0.0
 11
3911.0790356162638
 21
930.20969433210303
 31
0.0
 11
3910.8563051375509
 21
930.13998678845724
 31
0.0
 11
3910.5310008119727
 21
929.98477963826758
 31
0.0
 11
3910.1264938539739
 21
929.79178382715963
 31
0.0
  0
SPLINE
  5
36B
100
AcDbEntity
  8
0
  6
CONTINUOUS
 62
           3
100
AcDbSpline
210
0.0
220
0.0
230
1.0
 70
           0
 71
           3
 72
           8
 73
           5
 74
           7
 42
0.00000000001
 43
0.00000000001
 44
0.00000000001
 40
0.0
 40
0.0
 40
0.0
 40
0.2779464854691728
 40
0.7862840844052323
 40
1.5429642659454019
 40
1.5429642659454019
 40
1.5429642659454019
 10
3920.2301237559659
 20
925.2383614951641
 30
0.0
 10
3920.2643403053648
 20
925.2388071906671
 30
0.0
 10
3920.751753024455
 20
925.24515609489663
 30
0.0
 10
3921.2293915040009
 20
925.47305187885922
 30
0.0
 10
3921.6734995893662
 20
925.68494929636563
 30
0.0
 11
3920.2301237559659
 21
925.2383614951641
 31
0.0
 11
3920.2988605017485
 21
925.2392568412339
 31
0.0
 11
3920.4366376402986
 21
925.24105148843705
 31
0.0
 11
3920.7209580094736
 21
925.26702448227866
 31
0.0
 11
3920.9436883486846
 21
925.33673425088386
 31
0.0
 11
3921.2689927365132
 21
925.49194682624204
 31
0.0
 11
3921.6734995893662
 21
925.68494929636563
 31
0.0
  0
SPLINE
  5
36A
100
AcDbEntity
  8
0
  6
CONTINUOUS
 62
           3
100
AcDbSpline
210
0.0
220
0.0
230
1.0
 70
           0
 71
           3
 72
           8
 73
           5
 74
           7
 42
0.00000000001
 43
0.00000000001
 44
0.00000000001
 40
0.0
 40
0.0
 40
0.0
 40
0.2779452695534432
 40
0.7862805426562026
 40
1.5429573555005875
 40
1.5429573555005875
 40
1.5429573555005875
 10
3920.2301237560059
 20
930.23835672691621
 30
0.0
 10
3920.195907212476
 20
930.23791102214727
 30
0.0
 10
3919.7084969152729
 20
930.23156201459551
 30
0.0
 10
3919.230857214985
 20
930.00367397087666
 30
0.0
 10
3918.786748155504
 20
929.79178382710143
 30
0.0
 11
3920.2301237560059
 21
930.23835672691621
 31
0.0
 11
3920.1613872230655
 21
930.23746136469322
 31
0.0
 11
3920.0236107113042
 21
930.23566668756234
 31
0.0
 11
3919.7392914141301
 21
930.20969442311991
 31
0.0
 11
3919.5165611146685
 21
930.13998697572629
 31
0.0
 11
3919.191255925035
 21
929.98477968614509
 31
0.0
 11
3918.786748155504
 21
929.79178382710143
 31
0.0
  0
SPLINE
  5
369
100
AcDbEntity
  8
0
  6
CONTINUOUS
 62
           3
100
AcDbSpline
210
0.0
220
0.0
230
1.0
 70
           0
 71
           3
 72
           8
 73
           5
 74
           7
 42
0.00000000001
 43
0.00000000001
 44
0.00000000001
 40
0.0
 40
0.0
 40
0.0
 40
0.7097126556361417
 40
1.6878594213852396
 40
2.9354211178779273
 40
2.9354211178779273
 40
2.9354211178779273
 10
3913.0132452878461
 20
925.6849492962674
 30
0.0
 10
3913.2266017037641
 20
925.62530246117149
 30
0.0
 10
3914.1668989125851
 20
925.36242893886356
 30
0.0
 10
3915.1443400642552
 20
925.29245676286064
 30
0.0
 10
3915.899996721676
 20
925.23836149529143
 30
0.0
 11
3913.0132452878461
 21
925.6849492962674
 31
0.0
 11
3913.2721068549249
 21
925.61258084585893
 31
0.0
 11
3913.621978724329
 21
925.51476916482591
 31
0.0
 11
3914.1380594916341
 21
925.3928262120246
 31
0.0
 11
3914.5964614170352
 21
925.33167780554538
 31
0.0
 11
3915.1962845668049
 21
925.28873820663944
 31
0.0
 11
3915.899996721676
 21
925.23836149529143
 31
0.0
  0
SPLINE
  5
368
100
AcDbEntity
  8
0
  6
CONTINUOUS
 62
           3
100
AcDbSpline
210
0.0
220
0.0
230
1.0
 70
           0
 71
           3
 72
           8
 73
           5
 74
           7
 42
0.00000000001
 43
0.00000000001
 44
0.00000000001
 40
0.0
 40
0.0
 40
0.0
 40
0.7273681394908493
 40
1.7065914567887326
 40
2.9387223240344635
 40
2.9387223240344635
 40
2.9387223240344635
 10
3915.899996721676
 20
925.23836149529143
 30
0.0
 10
3916.1387195010338
 20
925.24384103435932
 30
0.0
 10
3917.1156271469831
 20
925.26626454848429
 30
0.0
 10
3918.0674888562448
 20
925.50474517175462
 30
0.0
 10
3918.786748155364
 20
925.68494929636563
 30
0.0
 11
3915.899996721676
 21
925.23836149529143
 31
0.0
 11
3916.1831310149746
 21
925.24486043697641
 31
0.0
 11
3916.5550883361534
 21
925.25339818389557
 31
0.0
 11
3917.0808673755128
 21
925.28944872441718
 31
0.0
 11
3917.5371268719332
 21
925.37186761680437
 31
0.0
 11
3918.1147131849461
 21
925.51657681416975
 31
0.0
 11
3918.786748155364
 21
925.68494929636563
 31
0.0
  0
SPLINE
  5
367
100
AcDbEntity
  8
0
  6
CONTINUOUS
 62
           3
100
AcDbSpline
210
0.0
220
0.0
230
1.0
 70
           0
 71
           3
 72
           8
 73
           5
 74
           7
 42
0.00000000001
 43
0.00000000001
 44
0.00000000001
 40
0.0
 40
0.0
 40
0.0
 40
1.2321288292608397
 40
2.2113508927680092
 40
2.9387184667243176
 40
2.9387184667243176
 40
2.9387184667243176
 10
3918.786748155504
 20
929.79178382710143
 30
0.0
 10
3918.067488501054
 20
929.97198110967202
 30
0.0
 10
3917.115626026095
 20
930.2104527524416
 30
0.0
 10
3916.1387194651579
 20
930.23287700269702
 30
0.0
 10
3915.899996721676
 20
930.23835672691621
 30
0.0
 11
3918.786748155504
 21
929.79178382710143
 31
0.0
 11
3918.1147128338675
 21
929.96014992132336
 31
0.0
 11
3917.5371261778587
 21
930.104853638848
 31
0.0
 11
3917.0808665470063
 21
930.18726967009673
 31
0.0
 11
3916.5550879579764
 21
930.22331953665594
 31
0.0
 11
3916.1831309024919
 21
930.23185756724149
 31
0.0
 11
3915.899996721676
 21
930.23835672691621
 31
0.0
  0
SPLINE
  5
366
100
AcDbEntity
  8
0
  6
CONTINUOUS
 62
           3
100
AcDbSpline
210
0.0
220
0.0
230
1.0
 70
           0
 71
           3
 72
           8
 73
           5
 74
           7
 42
0.00000000001
 43
0.00000000001
 44
0.00000000001
 40
0.0
 40
0.0
 40
0.0
 40
1.2475591451557939
 40
2.2257037084929916
 40
2.935414201173097
 40
2.935414201173097
 40
2.935414201173097
 10
3915.899996721676
 20
930.23835672691621
 30
0.0
 10
3915.1443416651732
 20
930.18425539133659
 30
0.0
 10
3914.1669038516538
 20
930.11427545710012
 30
0.0
 10
3913.2266018489559
 20
929.8514251346096
 30
0.0
 10
3913.0132452878461
 20
929.79178382710143
 30
0.0
 11
3915.899996721676
 21
930.23835672691621
 31
0.0
 11
3915.1962862228379
 21
930.1879743765021
 31
0.0
 11
3914.5964648393297
 21
930.14502999641945
 31
0.0
 11
3914.1380633113745
 21
930.08388238387704
 31
0.0
 11
3913.6219807028592
 21
929.96194862488846
 31
0.0
 11
3913.272107422154
 21
929.86414568030227
 31
0.0
 11
3913.0132452878461
 21
929.79178382710143
 31
0.0
  0
SPLINE
  5
365
100
AcDbEntity
  8
0
  6
CONTINUOUS
 62
           3
100
AcDbSpline
210
0.0
220
0.0
230
1.0
 70
           0
 71
           3
 72
           8
 73
           5
 74
           7
 42
0.00000000001
 43
0.00000000001
 44
0.00000000001
 40
0.0
 40
0.0
 40
0.0
 40
0.2779464854658322
 40
0.7862840844019154
 40
1.5429642659217191
 40
1.5429642659217191
 40
1.5429642659217191
 10
3920.2301237559659
 20
925.2383614951641
 30
0.0
 10
3920.2643403053648
 20
925.23791579991939
 30
0.0
 10
3920.751753024455
 20
925.23156689568623
 30
0.0
 10
3921.2293915040009
 20
925.00367111172363
 30
0.0
 10
3921.6734995893662
 20
924.79177369426452
 30
0.0
 11
3920.2301237559659
 21
925.2383614951641
 31
0.0
 11
3920.2988605017481
 21
925.2374661492878
 31
0.0
 11
3920.4366376402977
 21
925.23567150214808
 31
0.0
 11
3920.7209580094732
 21
925.20969850830454
 31
0.0
 11
3920.9436883486869
 21
925.1399887396974
 31
0.0
 11
3921.2689927365136
 21
924.9847761643523
 31
0.0
 11
3921.6734995893662
 21
924.79177369426452
 31
0.0
  0
SPLINE
  5
364
100
AcDbEntity
  8
0
  6
CONTINUOUS
 62
           3
100
AcDbSpline
210
0.0
220
0.0
230
1.0
 70
           0
 71
           3
 72
           8
 73
           5
 74
           7
 42
0.00000000001
 43
0.00000000001
 44
0.00000000001
 40
0.0
 40
0.0
 40
0.0
 40
0.377815528498466
 40
0.8942062233974729
 40
1.5357514174671705
 40
1.5357514174671705
 40
1.5357514174671705
 10
3910.1264938539739
 20
924.79177369426452
 30
0.0
 10
3910.2210118970361
 20
924.84483378214918
 30
0.0
 10
3910.6908817949029
 20
925.1086071026175
 30
0.0
 10
3911.179522734305
 20
925.18073927744263
 30
0.0
 10
3911.5698696873469
 20
925.23836149529143
 30
0.0
 11
3910.1264938539739
 21
924.79177369426452
 31
0.0
 11
3910.2470141544081
 21
924.85943080527159
 31
0.0
 11
3910.4195389695869
 21
924.95628196252289
 31
0.0
 11
3910.6775244143305
 21
925.07856779648
 31
0.0
 11
3910.908795097926
 21
925.14077501816223
 31
0.0
 11
3911.2094275634709
 21
925.18515376708467
 31
0.0
 11
3911.5698696873469
 21
925.23836149529143
 31
0.0
  0
SPLINE
  5
363
100
AcDbEntity
  8
0
  6
CONTINUOUS
 62
           3
100
AcDbSpline
210
0.0
220
0.0
230
1.0
 70
           0
 71
           3
 72
           8
 73
           5
 74
           7
 42
0.00000000001
 43
0.00000000001
 44
0.00000000001
 40
0.0
 40
0.0
 40
0.0
 40
0.6415450374769541
 40
1.1579303686103186
 40
1.5357381749059442
 40
1.5357381749059442
 40
1.5357381749059442
 10
3911.5698696873469
 20
920.23836626366301
 30
0.0
 10
3911.1795237086139
 20
920.29599578511898
 30
0.0
 10
3910.6908846293609
 20
920.36813700812763
 30
0.0
 10
3910.221011962115
 20
920.63188453949897
 30
0.0
 10
3910.1264938539739
 20
920.68493916346688
 30
0.0
 11
3911.5698696873469
 21
920.23836626366301
 31
0.0
 11
3911.2094282457051
 21
920.29158076804242
 31
0.0
 11
3910.9087958782452
 21
920.33596523826861
 31
0.0
 11
3910.677526047321
 21
920.39817178920543
 31
0.0
 11
3910.419539052315
 21
920.52044790229809
 31
0.0
 11
3910.2470142076295
 21
920.61728903619075
 31
0.0
 11
3910.1264938539739
 21
920.68493916346688
 31
0.0
  0
SPLINE
  5
362
100
AcDbEntity
  8
0
  6
CONTINUOUS
 62
           3
100
AcDbSpline
210
0.0
220
0.0
230
1.0
 70
           0
 71
           3
 72
           8
 73
           5
 74
           7
 42
0.00000000001
 43
0.00000000001
 44
0.00000000001
 40
0.0
 40
0.0
 40
0.0
 40
0.3539460334953544
 40
0.864341413660737
 40
1.543106811400454
 40
1.543106811400454
 40
1.543106811400454
 10
3911.5698696873469
 20
925.23836149529143
 30
0.0
 10
3911.6793238424239
 20
925.23375559907345
 30
0.0
 10
3912.167681671046
 20
925.21320520998324
 30
0.0
 10
3912.643821348448
 20
924.97589572559718
 30
0.0
 10
3913.013245287972
 20
924.79177369426452
 30
0.0
 11
3911.5698696873469
 21
925.23836149529143
 31
0.0
 11
3911.7019556855821
 21
925.23280323759764
 31
0.0
 11
3911.8793053701343
 21
925.22534025695256
 31
0.0
 11
3912.1466781413892
 21
925.19077528616879
 31
0.0
 11
3912.3720438533301
 21
925.11135046775621
 31
0.0
 11
3912.6682329595492
 21
924.96372890330372
 31
0.0
 11
3913.013245287972
 21
924.79177369426452
 31
0.0
  0
SPLINE
  5
361
100
AcDbEntity
  8
0
  6
CONTINUOUS
 62
           3
100
AcDbSpline
210
0.0
220
0.0
230
1.0
 70
           0
 71
           3
 72
           8
 73
           5
 74
           7
 42
0.00000000001
 43
0.00000000001
 44
0.00000000001
 40
0.0
 40
0.0
 40
0.0
 40
0.6787700534940095
 40
1.1891668948828344
 40
1.5431123743467667
 40
1.5431123743467667
 40
1.5431123743467667
 10
3913.0132452878461
 20
920.68493916348507
 30
0.0
 10
3912.6438214744039
 20
920.50081046284959
 30
0.0
 10
3912.1676820506241
 20
920.26349242802735
 30
0.0
 10
3911.679323852587
 20
920.24296664250414
 30
0.0
 10
3911.5698696873469
 20
920.23836626366301
 30
0.0
 11
3913.0132452878461
 21
920.68493916348507
 31
0.0
 11
3912.6682329736386
 21
920.51297767425001
 31
0.0
 11
3912.3720436578997
 21
920.36535060781603
 31
0.0
 11
3912.1466781919485
 21
920.28592683785166
 31
0.0
 11
3911.8793050086451
 21
920.25137188753627
 31
0.0
 11
3911.7019556002915
 21
920.24391785905186
 31
0.0
 11
3911.5698696873469
 21
920.23836626366301
 31
0.0
  0
SPLINE
  5
360
100
AcDbEntity
  8
0
  6
CONTINUOUS
 62
           3
100
AcDbSpline
210
0.0
220
0.0
230
1.0
 70
           0
 71
           3
 72
           8
 73
           5
 74
           7
 42
0.00000000001
 43
0.00000000001
 44
0.00000000001
 40
0.0
 40
0.0
 40
0.0
 40
0.2779452695534669
 40
0.7862805426570332
 40
1.5429573556207801
 40
1.5429573556207801
 40
1.5429573556207801
 10
3920.2301237560059
 20
920.23836626366301
 30
0.0
 10
3920.195907212476
 20
920.23881196843195
 30
0.0
 10
3919.7084969152729
 20
920.24516097598735
 30
0.0
 10
3919.230857214985
 20
920.47304901970983
 30
0.0
 10
3918.786748155364
 20
920.68493916346688
 30
0.0
 11
3920.2301237560059
 21
920.23836626366301
 31
0.0
 11
3920.1613872230655
 21
920.23926162588623
 31
0.0
 11
3920.0236107113042
 21
920.24105630301824
 31
0.0
 11
3919.7392914141342
 21
920.26702856746078
 31
0.0
 11
3919.5165611146858
 21
920.33673601484952
 31
0.0
 11
3919.1912559250045
 21
920.4919433044339
 31
0.0
 11
3918.786748155364
 21
920.68493916346688
 31
0.0
  0
SPLINE
  5
35F
100
AcDbEntity
  8
0
  6
CONTINUOUS
 62
           3
100
AcDbSpline
210
0.0
220
0.0
230
1.0
 70
           0
 71
           3
 72
           8
 73
           5
 74
           7
 42
0.00000000001
 43
0.00000000001
 44
0.00000000001
 40
0.0
 40
0.0
 40
0.0
 40
0.5558558490683135
 40
1.5343195422050602
 40
2.9385037456626764
 40
2.9385037456626764
 40
2.9385037456626764
 10
3915.899996721676
 20
920.23836626356479
 30
0.0
 10
3915.831563636294
 20
920.23881196954517
 30
0.0
 10
3914.856741687242
 20
920.24516100191158
 30
0.0
 10
3913.9014629162648
 20
920.47304902047381
 30
0.0
 10
3913.0132452878461
 20
920.68493916348507
 30
0.0
 11
3915.899996721676
 21
920.23836626356479
 31
0.0
 11
3915.7603818762482
 21
920.23927557756531
 31
0.0
 11
3915.4784035107295
 21
920.24111210760611
 31
0.0
 11
3914.9140828960167
 21
920.26754503346206
 31
0.0
 11
3914.4644446988532
 21
920.33874602241872
 31
0.0
 11
3913.8201539548068
 21
920.49244580671279
 31
0.0
 11
3913.0132452878461
 21
920.68493916348507
 31
0.0
  0
SPLINE
  5
35E
100
AcDbEntity
  8
0
  6
CONTINUOUS
 62
           3
100
AcDbSpline
210
0.0
220
0.0
230
1.0
 70
           0
 71
           3
 72
           8
 73
           5
 74
           7
 42
0.00000000001
 43
0.00000000001
 44
0.00000000001
 40
0.0
 40
0.0
 40
0.0
 40
0.5558562714163038
 40
1.5343210643715153
 40
2.9385072682936051
 40
2.9385072682936051
 40
2.9385072682936051
 10
3915.899996721676
 20
925.23836149529143
 30
0.0
 10
3915.9684298091461
 20
925.23791580192028
 30
0.0
 10
3916.943252600026
 20
925.23156694245608
 30
0.0
 10
3917.8985309047439
 20
925.00367111310607
 30
0.0
 10
3918.786748155504
 20
924.79177369431181
 30
0.0
 11
3915.899996721676
 21
925.23836149529143
 31
0.0
 11
3916.0396116244074
 21
925.23745220654121
 31
0.0
 11
3916.3215901576627
 21
925.23561572703284
 31
0.0
 11
3916.8859111712882
 21
925.20918208571959
 31
0.0
 11
3917.335549327438
 21
925.13797873093358
 31
0.0
 11
3917.9798398231073
 21
924.98427366286444
 31
0.0
 11
3918.786748155504
 21
924.79177369431181
 31
0.0
  0
CIRCLE
  5
35D
100
AcDbEntity
  8
1
  6
CONTINUOUS
 62
           4
100
AcDbCircle
 10
0.0
 20
5313.506136313678
 40
100.9476
  0
CIRCLE
  5
35C
100
AcDbEntity
  8
1
  6
CONTINUOUS
 62
           4
100
AcDbCircle
 10
0.0
 20
5313.506136313678
 40
125.0
  0
CIRCLE
  5
35B
100
AcDbEntity
  8
1
  6
CONTINUOUS
 62
           7
100
AcDbCircle
 10
0.0
 20
5313.506136313678
 40
360.000000000001
  0
CIRCLE
  5
35A
100
AcDbEntity
  8
1
  6
CONTINUOUS
 62
           7
100
AcDbCircle
 10
4300.000000000002
 20
165.238362091244
 40
7.499999999999
  0
CIRCLE
  5
359
100
AcDbEntity
  8
1
  6
CONTINUOUS
 62
           2
100
AcDbCircle
 10
4300.000000000002
 20
165.238362091244
 40
8.349999999999
  0
CIRCLE
  5
358
100
AcDbEntity
  8
1
  6
CONTINUOUS
 62
           7
100
AcDbCircle
 10
4300.000000000002
 20
165.238362091244
 40
14.999999999999
  0
CIRCLE
  5
357
100
AcDbEntity
  8
1
  6
CONTINUOUS
 62
           3
100
AcDbCircle
 10
-241.527744678121
 20
860.439210418293
 40
40.0
  0
ARC
  5
356
100
AcDbEntity
  8
1
  6
CONTINUOUS
 62
           3
100
AcDbCircle
 10
4420.163567691043
 20
1490.238362091243
 40
9.499999999998
100
AcDbArc
 50
-124.797812779181
 51
0.0
  0
ARC
  5
355
100
AcDbEntity
  8
1
  6
CONTINUOUS
 62
           3
100
AcDbCircle
 10
4420.163567691043
 20
1490.238362091243
 40
9.5
100
AcDbArc
 50
0.0
 51
125.916957371438
  0
ARC
  5
354
100
AcDbEntity
  8
1
  6
CONTINUOUS
 62
           3
100
AcDbCircle
 10
4420.163567691043
 20
1490.238362091243
 40
5.871834995061
100
AcDbArc
 50
0.0
 51
38.599713917924
  0
ARC
  5
353
100
AcDbEntity
  8
1
  6
CONTINUOUS
 62
           3
100
AcDbCircle
 10
4420.163567691043
 20
1490.238362091243
 40
5.871834995069
100
AcDbArc
 50
38.599713917924
 51
90.0
  0
ARC
  5
352
100
AcDbEntity
  8
1
  6
CONTINUOUS
 62
           3
100
AcDbCircle
 10
4420.163567691043
 20
1490.238362091243
 40
5.871834995066
100
AcDbArc
 50
-90.0
 51
0.0
  0
ARC
  5
351
100
AcDbEntity
  8
0
  6
CONTINUOUS
 62
           3
100
AcDbCircle
 10
3978.399996721515
 20
933.238362091356
 40
2.5
100
AcDbArc
 50
0.0
 51
180.0
  0
ARC
  5
350
100
AcDbEntity
  8
0
  6
CONTINUOUS
 62
           3
100
AcDbCircle
 10
3978.399996721515
 20
1197.238362091141
 40
2.499999999991
100
AcDbArc
 50
180.0
 51
0.0
  0
ARC
  5
34F
100
AcDbEntity
  8
0
  6
CONTINUOUS
 62
           3
100
AcDbCircle
 10
3853.399996721825
 20
1197.238362091141
 40
2.5
100
AcDbArc
 50
180.0
 51
0.0
  0
ARC
  5
34E
100
AcDbEntity
  8
0
  6
CONTINUOUS
 62
           3
100
AcDbCircle
 10
3853.399996721825
 20
933.238362091356
 40
2.49999999999
100
AcDbArc
 50
0.0
 51
180.0
  0
ARC
  5
34D
100
AcDbEntity
  8
0
  6
CONTINUOUS
 62
           3
100
AcDbCircle
 10
3857.899996721815
 20
1074.23836209124
 40
0.999999999997
100
AcDbArc
 50
-90.0
 51
90.0
  0
ARC
  5
34C
100
AcDbEntity
  8
0
  6
CONTINUOUS
 62
           3
100
AcDbCircle
 10
3857.899996721815
 20
996.238362091305
 40
1.0
100
AcDbArc
 50
-90.0
 51
90.0
  0
ARC
  5
34B
100
AcDbEntity
  8
0
  6
CONTINUOUS
 62
           3
100
AcDbCircle
 10
3857.899996721815
 20
974.238362091422
 40
0.999999999996
100
AcDbArc
 50
-90.0
 51
90.0
  0
ARC
  5
34A
100
AcDbEntity
  8
0
  6
CONTINUOUS
 62
           3
100
AcDbCircle
 10
3973.899996721524
 20
974.238362091422
 40
1.0
100
AcDbArc
 50
90.0
 51
-90.0
  0
ARC
  5
349
100
AcDbEntity
  8
0
  6
CONTINUOUS
 62
           3
100
AcDbCircle
 10
3973.899996721524
 20
996.238362091305
 40
0.999999999996
100
AcDbArc
 50
90.0
 51
-90.0
  0
ARC
  5
348
100
AcDbEntity
  8
0
  6
CONTINUOUS
 62
           3
100
AcDbCircle
 10
3973.899996721524
 20
1074.23836209124
 40
1.0
100
AcDbArc
 50
90.0
 51
-90.0
  0
ARC
  5
347
100
AcDbEntity
  8
0
  6
CONTINUOUS
 62
           3
100
AcDbCircle
 10
3973.899996721524
 20
1096.238362091123
 40
1.0
100
AcDbArc
 50
90.0
 51
-90.0
  0
ARC
  5
346
100
AcDbEntity
  8
0
  6
CONTINUOUS
 62
           3
100
AcDbCircle
 10
3857.899996721815
 20
1096.238362091123
 40
0.999999999996
100
AcDbArc
 50
-90.0
 51
90.0
  0
ARC
  5
345
100
AcDbEntity
  8
0
  6
CONTINUOUS
 62
           3
100
AcDbCircle
 10
3922.373499413463
 20
955.23836209124
 40
0.900000000001
100
AcDbArc
 50
-90.0
 51
-62.733955549508
  0
ARC
  5
344
100
AcDbEntity
  8
0
  6
CONTINUOUS
 62
           3
100
AcDbCircle
 10
3909.426494029873
 20
955.23836209124
 40
0.900000000001
100
AcDbArc
 50
-117.26604445044
 51
-90.0
  0
ARC
  5
343
100
AcDbEntity
  8
0
  6
CONTINUOUS
 62
           3
100
AcDbCircle
 10
3915.899996721676
 20
880.238362091302
 40
53.999999999964
100
AcDbArc
 50
180.0
 51
0.0
  0
ARC
  5
342
100
AcDbEntity
  8
0
  6
CONTINUOUS
 62
           3
100
AcDbCircle
 10
3915.899996721676
 20
880.238362091302
 40
45.99999999997
100
AcDbArc
 50
180.0
 51
0.0
  0
ARC
  5
341
100
AcDbEntity
  8
0
  6
CONTINUOUS
 62
           3
100
AcDbCircle
 10
3915.899996721676
 20
920.238362091465
 40
4.0
100
AcDbArc
 50
180.0
 51
0.0
  0
ARC
  5
340
100
AcDbEntity
  8
1
  6
CONTINUOUS
 62
           7
100
AcDbCircle
 10
0.0
 20
5313.506136313678
 40
150.0
100
AcDbArc
 50
23.882765003116
 51
-89.999999999999
  0
ARC
  5
33F
100
AcDbEntity
  8
1
  6
CONTINUOUS
 62
           7
100
AcDbCircle
 10
0.0
 20
5313.506136313678
 40
150.000000000001
100
AcDbArc
 50
-89.999999999999
 51
-23.882765003116
  0
ARC
  5
33E
100
AcDbEntity
  8
1
  6
CONTINUOUS
 62
           7
100
AcDbCircle
 10
18.000000000003
 20
5258.505921734607
 40
459.999999999998
100
AcDbArc
 50
71.463109290188
 51
88.271493544498
  0
ARC
  5
33D
100
AcDbEntity
  8
1
  6
CONTINUOUS
 62
           7
100
AcDbCircle
 10
-46.999999999997
 20
5268.506136313678
 40
525.0
100
AcDbArc
 50
-2.792103456718
 51
-0.563719865862
  0
ARC
  5
33C
100
AcDbEntity
  8
1
  6
CONTINUOUS
 62
           7
100
AcDbCircle
 10
-39.999999999997
 20
5363.506136313678
 40
620.000000000001
100
AcDbArc
 50
-174.912285430339
 51
-90.336887134984
  0
ARC
  5
33B
100
AcDbEntity
  8
1
  6
CONTINUOUS
 62
           7
100
AcDbCircle
 10
452.450424338097
 20
5409.677442837126
 40
4.999999999999
100
AcDbArc
 50
109.497261771687
 51
-90.0
  0
ARC
  5
33A
100
AcDbEntity
  8
1
  6
CONTINUOUS
 62
           7
100
AcDbCircle
 10
18.000000000003
 20
5258.505921734607
 40
460.0
100
AcDbArc
 50
0.602232686388
 51
18.563086854737
  0
ARC
  5
339
100
AcDbEntity
  8
1
  6
CONTINUOUS
 62
           7
100
AcDbCircle
 10
452.450424338097
 20
5409.677442837126
 40
5.0
100
AcDbArc
 50
-90.0
 51
-71.125521506268
  0
ARC
  5
338
100
AcDbEntity
  8
1
  6
CONTINUOUS
 62
           7
100
AcDbCircle
 10
477.10941262802
 20
5237.939429021019
 40
5.000000000002
100
AcDbArc
 50
86.935058466839
 51
-93.610617686046
  0
ARC
  5
337
100
AcDbEntity
  8
1
  6
CONTINUOUS
 62
           7
100
AcDbCircle
 10
-46.999999999997
 20
5268.506136313678
 40
525.000000000001
100
AcDbArc
 50
-89.633899153763
 51
-3.883455762483
  0
ARC
  5
336
100
AcDbEntity
  8
1
  6
CONTINUOUS
 62
           7
100
AcDbCircle
 10
18.000000000003
 20
5258.505921734607
 40
459.999999999999
100
AcDbArc
 50
19.808653410673
 51
70.217542734251
  0
ARC
  5
335
100
AcDbEntity
  8
1
  6
CONTINUOUS
 62
           7
100
AcDbCircle
 10
168.972870673508
 20
5693.025417638532
 40
5.000000000001
100
AcDbArc
 50
161.151717651226
 51
-19.471065626776
  0
ARC
  5
334
100
AcDbEntity
  8
1
  6
CONTINUOUS
 62
           7
100
AcDbCircle
 10
-39.999999999997
 20
5363.506136313678
 40
620.0
100
AcDbArc
 50
-180.0
 51
-175.836413410616
  0
ARC
  5
333
100
AcDbEntity
  8
1
  6
CONTINUOUS
 62
           7
100
AcDbCircle
 10
-657.980582219212
 20
5313.506136313678
 40
4.999999999996
100
AcDbArc
 50
-85.143317425416
 51
94.394618584461
  0
ARC
  5
332
100
AcDbEntity
  8
7
  6
CONTINUOUS
 62
           7
100
AcDbCircle
 10
117.56
 20
3043.598362091244
 40
3.84
100
AcDbArc
 50
0.0
 51
90.0
  0
ARC
  5
331
100
AcDbEntity
  8
7
  6
CONTINUOUS
 62
           7
100
AcDbCircle
 10
116.5078244
 20
3049.838362091245
 40
2.400000000001
100
AcDbArc
 50
-124.999999999967
 51
-90.0
  0
ARC
  5
330
100
AcDbEntity
  8
7
  6
CONTINUOUS
 62
           7
100
AcDbCircle
 10
91.76
 20
3069.687722891244
 40
2.400000000001
100
AcDbArc
 50
180.0
 51
-124.999999999977
  0
ARC
  5
32F
100
AcDbEntity
  8
7
  6
CONTINUOUS
 62
           7
100
AcDbCircle
 10
85.52
 20
3069.398362091241
 40
3.84
100
AcDbArc
 50
0.0
 51
90.0
  0
ARC
  5
32E
100
AcDbEntity
  8
7
  6
CONTINUOUS
 62
           7
100
AcDbCircle
 10
-94.760000000001
 20
3069.687722891244
 40
2.400000000001
100
AcDbArc
 50
-55.000000000014
 51
0.0
  0
ARC
  5
32D
100
AcDbEntity
  8
7
  6
CONTINUOUS
 62
           7
100
AcDbCircle
 10
-88.52
 20
3069.398362091241
 40
3.840000000001
100
AcDbArc
 50
90.0
 51
180.0
  0
ARC
  5
32C
100
AcDbEntity
  8
7
  6
CONTINUOUS
 62
           7
100
AcDbCircle
 10
-113.96
 20
3043.371990491242
 40
7.440000000002
100
AcDbArc
 50
122.681914999998
 51
180.0
  0
ARC
  5
32B
100
AcDbEntity
  8
7
  6
CONTINUOUS
 62
           7
100
AcDbCircle
 10
4426.04
 20
3043.371990491245
 40
7.440000000001
100
AcDbArc
 50
122.681915000002
 51
180.0
  0
ARC
  5
32A
100
AcDbEntity
  8
7
  6
CONTINUOUS
 62
           7
100
AcDbCircle
 10
4451.479999999999
 20
3069.398362091244
 40
3.84
100
AcDbArc
 50
90.0
 51
180.0
  0
ARC
  5
329
100
AcDbEntity
  8
7
  6
CONTINUOUS
 62
           7
100
AcDbCircle
 10
4445.239999999999
 20
3069.687722891245
 40
2.400000000001
100
AcDbArc
 50
-54.999999999986
 51
0.0
  0
ARC
  5
328
100
AcDbEntity
  8
7
  6
CONTINUOUS
 62
           7
100
AcDbCircle
 10
4625.52
 20
3069.398362091244
 40
3.839999999999
100
AcDbArc
 50
0.0
 51
90.0
  0
ARC
  5
327
100
AcDbEntity
  8
7
  6
CONTINUOUS
 62
           7
100
AcDbCircle
 10
4631.759999999999
 20
3069.687722891245
 40
2.4
100
AcDbArc
 50
180.0
 51
-124.999999999978
  0
ARC
  5
326
100
AcDbEntity
  8
7
  6
CONTINUOUS
 62
           7
100
AcDbCircle
 10
4656.507824400001
 20
3049.838362091246
 40
2.400000000002
100
AcDbArc
 50
-124.999999999983
 51
-90.0
  0
ARC
  5
325
100
AcDbEntity
  8
7
  6
CONTINUOUS
 62
           7
100
AcDbCircle
 10
4657.56
 20
3043.598362091245
 40
3.839999999998
100
AcDbArc
 50
0.0
 51
90.0
  0
ARC
  5
324
100
AcDbEntity
  8
1
  6
CONTINUOUS
 62
           7
100
AcDbCircle
 10
3902.000000000003
 20
1321.988362091247
 40
37.000000000001
100
AcDbArc
 50
180.0
 51
-90.0
  0
ARC
  5
323
100
AcDbEntity
  8
1
  6
CONTINUOUS
 62
           7
100
AcDbCircle
 10
3902.000000000003
 20
1321.988362091247
 40
17.000000000001
100
AcDbArc
 50
180.0
 51
-90.0
  0
ARC
  5
322
100
AcDbEntity
  8
1
  6
CONTINUOUS
 62
           3
100
AcDbCircle
 10
-238.490241678122
 20
832.352984418302
 40
0.500000000003
100
AcDbArc
 50
-83.827497998184
 51
-5.006793000168
  0
ARC
  5
321
100
AcDbEntity
  8
1
  6
CONTINUOUS
 62
           3
100
AcDbCircle
 10
-244.565247678121
 20
832.352984418302
 40
0.499999999996
100
AcDbArc
 50
-174.993206999753
 51
-96.17250199931
  0
ARC
  5
320
100
AcDbEntity
  8
1
  6
CONTINUOUS
 62
           3
100
AcDbCircle
 10
-238.490241678122
 20
888.525436418294
 40
0.500000000005
100
AcDbArc
 50
5.00679300131
 51
83.827497998173
  0
ARC
  5
31F
100
AcDbEntity
  8
1
  6
CONTINUOUS
 62
           3
100
AcDbCircle
 10
-244.565247678121
 20
888.525436418294
 40
0.499999999999
100
AcDbArc
 50
96.172501999321
 51
174.993206998611
  0
ARC
  5
31E
100
AcDbEntity
  8
1
  6
CONTINUOUS
 62
           3
100
AcDbCircle
 10
-245.566047678115
 20
860.439210418293
 40
9.999999999999
100
AcDbArc
 50
-5.006792999977
 51
5.006793000024
  0
ARC
  5
31D
100
AcDbEntity
  8
1
  6
CONTINUOUS
 62
           3
100
AcDbCircle
 10
-237.489442678121
 20
860.439210418293
 40
10.0
100
AcDbArc
 50
174.993206999976
 51
-174.993207000022
  0
ARC
  5
31C
100
AcDbEntity
  8
1
  6
CONTINUOUS
 62
           3
100
AcDbCircle
 10
-241.527744678121
 20
860.439210418293
 40
10.749999999989
100
AcDbArc
 50
118.773506999972
 51
-118.773506999949
  0
ARC
  5
31B
100
AcDbEntity
  8
1
  6
CONTINUOUS
 62
           3
100
AcDbCircle
 10
-241.527744678121
 20
860.439210418293
 40
10.75
100
AcDbArc
 50
-61.226493000023
 51
0.0
  0
ARC
  5
31A
100
AcDbEntity
  8
1
  6
CONTINUOUS
 62
           3
100
AcDbCircle
 10
-241.527744678121
 20
860.439210418293
 40
10.75
100
AcDbArc
 50
0.0
 51
61.226493
  0
ARC
  5
319
100
AcDbEntity
  8
1
  6
CONTINUOUS
 62
           3
100
AcDbCircle
 10
-241.527744678121
 20
860.439210418293
 40
28.749999999988
100
AcDbArc
 50
-96.172501999994
 51
-83.827497999994
  0
ARC
  5
318
100
AcDbEntity
  8
1
  6
CONTINUOUS
 62
           3
100
AcDbCircle
 10
-241.527744678121
 20
860.439210418293
 40
28.750000000009
100
AcDbArc
 50
83.827497999998
 51
96.172501999989
  0
LINE
  5
317
100
AcDbEntity
  8
1
  6
DOT_CENTER
 62
           2
100
AcDbLine
 10
0.0
 20
5901.176601354834
 11
0.0
 21
3648.186812561349
  0
LINE
  5
316
100
AcDbEntity
  8
1
  6
CONTINUOUS
 62
           3
100
AcDbLine
 10
4420.163567691043
 20
1501.208017205846
 11
4414.489527668224
 21
1497.932108671284
  0
LINE
  5
315
100
AcDbEntity
  8
1
  6
CONTINUOUS
 62
           3
100
AcDbLine
 10
4429.663567691043
 20
1495.723189648546
 11
4420.163567691043
 21
1501.208017205846
  0
LINE
  5
314
100
AcDbEntity
  8
1
  6
CONTINUOUS
 62
           3
100
AcDbLine
 10
4429.663567691043
 20
1484.753534533943
 11
4429.663567691043
 21
1495.723189648546
  0
LINE
  5
313
100
AcDbEntity
  8
1
  6
CONTINUOUS
 62
           3
100
AcDbLine
 10
4420.163567691043
 20
1479.268706976642
 11
4429.663567691043
 21
1484.753534533943
  0
LINE
  5
312
100
AcDbEntity
  8
1
  6
CONTINUOUS
 62
           3
100
AcDbLine
 10
4414.489527668231
 20
1482.544615511203
 11
4420.163567691043
 21
1479.268706976642
  0
LINE
  5
311
100
AcDbEntity
  8
1
  6
DOT_CENTER
 62
           3
100
AcDbLine
 10
4396.218519558623
 20
1490.238362091243
 11
4437.667695262442
 21
1490.238362091243
  0
LINE
  5
310
100
AcDbEntity
  8
1
  6
CONTINUOUS
 62
           3
100
AcDbLine
 10
4409.389214871944
 20
1481.988362091243
 11
4409.389214871944
 21
1482.544615511203
  0
LINE
  5
30F
100
AcDbEntity
  8
1
  6
CONTINUOUS
 62
           3
100
AcDbLine
 10
4409.389214871944
 20
1481.988362091243
 11
4399.714603906645
 21
1481.988362091243
  0
LINE
  5
30E
100
AcDbEntity
  8
1
  6
CONTINUOUS
 62
           3
100
AcDbLine
 10
4399.714603906645
 20
1481.988362091243
 11
4399.714603906645
 21
1490.238362091243
  0
LINE
  5
30D
100
AcDbEntity
  8
1
  6
CONTINUOUS
 62
           3
100
AcDbLine
 10
4399.714603906645
 20
1484.238362091243
 11
4398.868798384463
 21
1484.238362091243
  0
LINE
  5
30C
100
AcDbEntity
  8
1
  6
CONTINUOUS
 62
           3
100
AcDbLine
 10
4398.868798384463
 20
1482.544615511203
 11
4398.868798384463
 21
1490.238362091243
  0
LINE
  5
30B
100
AcDbEntity
  8
1
  6
CONTINUOUS
 62
           3
100
AcDbLine
 10
4398.868798384463
 20
1482.544615511203
 11
4398.163567691043
 21
1482.544615511203
  0
LINE
  5
30A
100
AcDbEntity
  8
1
  6
CONTINUOUS
 62
           3
100
AcDbLine
 10
4397.663567691043
 20
1490.238362091243
 11
4397.663567691043
 21
1483.044615511203
  0
LINE
  5
309
100
AcDbEntity
  8
1
  6
CONTINUOUS
 62
           3
100
AcDbLine
 10
4397.663567691043
 20
1497.432108671284
 11
4397.663567691043
 21
1490.238362091243
  0
LINE
  5
308
100
AcDbEntity
  8
1
  6
CONTINUOUS
 62
           3
100
AcDbLine
 10
4398.163567691043
 20
1497.932108671284
 11
4398.868798384463
 21
1497.932108671284
  0
LINE
  5
307
100
AcDbEntity
  8
1
  6
CONTINUOUS
 62
           3
100
AcDbLine
 10
4398.868798384463
 20
1490.238362091243
 11
4398.868798384463
 21
1497.932108671284
  0
LINE
  5
306
100
AcDbEntity
  8
1
  6
CONTINUOUS
 62
           3
100
AcDbLine
 10
4398.868798384463
 20
1496.238362091243
 11
4399.714603906645
 21
1496.238362091243
  0
LINE
  5
305
100
AcDbEntity
  8
1
  6
CONTINUOUS
 62
           3
100
AcDbLine
 10
4399.714603906645
 20
1498.488362091243
 11
4409.389214871944
 21
1498.488362091243
  0
LINE
  5
304
100
AcDbEntity
  8
1
  6
CONTINUOUS
 62
           3
100
AcDbLine
 10
4399.714603906645
 20
1490.238362091243
 11
4399.714603906645
 21
1498.488362091243
  0
LINE
  5
303
100
AcDbEntity
  8
1
  6
CONTINUOUS
 62
           3
100
AcDbLine
 10
4409.389214871944
 20
1497.932108671284
 11
4409.389214871944
 21
1498.488362091243
  0
LINE
  5
302
100
AcDbEntity
  8
1
  6
CONTINUOUS
 62
           3
100
AcDbLine
 10
4409.389214871944
 20
1482.544615511203
 11
4409.389214871944
 21
1497.932108671284
  0
LINE
  5
301
100
AcDbEntity
  8
1
  6
CONTINUOUS
 62
           3
100
AcDbLine
 10
4415.254330418635
 20
1482.544615511203
 11
4415.254330418635
 21
1497.932108671284
  0
LINE
  5
300
100
AcDbEntity
  8
1
  6
CONTINUOUS
 62
           3
100
AcDbLine
 10
4415.254330418635
 20
1482.544615511203
 11
4409.389214871944
 21
1482.544615511203
  0
LINE
  5
2FF
100
AcDbEntity
  8
1
  6
CONTINUOUS
 62
           3
100
AcDbLine
 10
4415.254330418635
 20
1497.932108671284
 11
4409.389214871944
 21
1497.932108671284
  0
LINE
  5
2FE
100
AcDbEntity
  8
1
  6
CONTINUOUS
 62
           3
100
AcDbLine
 10
4415.254330418635
 20
1496.110197086312
 11
4420.163567691043
 21
1496.110197086312
  0
LINE
  5
2FD
100
AcDbEntity
  8
1
  6
DOT_CENTER
 62
           3
100
AcDbLine
 10
4420.163567691043
 20
1503.881917896118
 11
4420.163567691043
 21
1472.746370346368
  0
LINE
  5
2FC
100
AcDbEntity
  8
1
  6
CONTINUOUS
 62
           3
100
AcDbLine
 10
4420.163567691043
 20
1484.366527096177
 11
4415.254330418635
 21
1484.366527096177
  0
LINE
  5
2FB
100
AcDbEntity
  8
0
  6
CONTINUOUS
 62
           3
100
AcDbLine
 10
3914.844723494175
 20
958.354754286435
 11
3915.899996721676
 21
958.370102482636
  0
LINE
  5
2FA
100
AcDbEntity
  8
0
  6
CONTINUOUS
 62
           3
100
AcDbLine
 10
3913.903805503277
 20
958.310378628436
 11
3914.844723494175
 21
958.354754286435
  0
LINE
  5
2F9
100
AcDbEntity
  8
0
  6
CONTINUOUS
 62
           3
100
AcDbLine
 10
3913.179205573575
 20
958.241773682234
 11
3913.903805503277
 21
958.310378628436
  0
LINE
  5
2F8
100
AcDbEntity
  8
0
  6
CONTINUOUS
 62
           3
100
AcDbLine
 10
3912.749445840378
 20
958.156382578035
 11
3913.179205573575
 21
958.241773682234
  0
LINE
  5
2F7
100
AcDbEntity
  8
0
  6
CONTINUOUS
 62
           3
100
AcDbLine
 10
3912.661097088374
 20
958.063451486235
 11
3912.749445840378
 21
958.156382578035
  0
LINE
  5
2F6
100
AcDbEntity
  8
0
  6
CONTINUOUS
 62
           3
100
AcDbLine
 10
3912.899996695578
 20
957.977903920037
 11
3912.661097088374
 21
958.063451486235
  0
LINE
  5
2F5
100
AcDbEntity
  8
0
  6
CONTINUOUS
 62
           3
100
AcDbLine
 10
3919.138896354964
 20
958.063451486235
 11
3918.899996747764
 21
957.977903920037
  0
LINE
  5
2F4
100
AcDbEntity
  8
0
  6
CONTINUOUS
 62
           3
100
AcDbLine
 10
3919.050547602963
 20
958.156382578035
 11
3919.138896354964
 21
958.063451486235
  0
LINE
  5
2F3
100
AcDbEntity
  8
0
  6
CONTINUOUS
 62
           3
100
AcDbLine
 10
3918.620787869765
 20
958.241773682234
 11
3919.050547602963
 21
958.156382578035
  0
LINE
  5
2F2
100
AcDbEntity
  8
0
  6
CONTINUOUS
 62
           3
100
AcDbLine
 10
3917.896187940064
 20
958.310378628436
 11
3918.620787869765
 21
958.241773682234
  0
LINE
  5
2F1
100
AcDbEntity
  8
0
  6
CONTINUOUS
 62
           3
100
AcDbLine
 10
3916.955269949176
 20
958.354754286435
 11
3917.896187940064
 21
958.310378628436
  0
LINE
  5
2F0
100
AcDbEntity
  8
0
  6
CONTINUOUS
 62
           3
100
AcDbLine
 10
3915.899996721676
 20
958.370102482636
 11
3916.955269949176
 21
958.354754286435
  0
LINE
  5
2EF
100
AcDbEntity
  8
FORMAT
  6
CONTINUOUS
 62
           3
100
AcDbLine
 10
3912.399996721575
 20
957.835207194136
 11
3901.899996721586
 21
957.835207194136
  0
LINE
  5
2EE
100
AcDbEntity
  8
FORMAT
  6
DOT_CENTER
 62
           3
100
AcDbLine
 10
3915.899996721676
 20
814.997759343499
 11
3915.899996721676
 21
1290.632752859812
  0
LINE
  5
2ED
100
AcDbEntity
  8
FORMAT
  6
CONTINUOUS
 62
           3
100
AcDbLine
 10
3919.399996721766
 20
957.835207194136
 11
3912.399996721575
 21
957.835207194136
  0
LINE
  5
2EC
100
AcDbEntity
  8
FORMAT
  6
CONTINUOUS
 62
           3
100
AcDbLine
 10
3929.899996721757
 20
957.835207194136
 11
3919.399996721766
 21
957.835207194136
  0
LINE
  5
2EB
100
AcDbEntity
  8
FORMAT
  6
DOT_CENTER
 62
           3
100
AcDbLine
 10
3840.999996721634
 20
940.238362091251
 11
3827.399996721745
 21
940.238362091251
  0
LINE
  5
2EA
100
AcDbEntity
  8
FORMAT
  6
DOT_CENTER
 62
           3
100
AcDbLine
 10
3840.999996721634
 20
1190.238362091243
 11
3827.399996721745
 21
1190.238362091243
  0
LINE
  5
2E9
100
AcDbEntity
  8
0
  6
CONTINUOUS
 62
           3
100
AcDbLine
 10
3850.899999106021
 20
930.238356727058
 11
3835.499999189235
 21
930.238356727058
  0
LINE
  5
2E8
100
AcDbEntity
  8
0
  6
CONTINUOUS
 62
           3
100
AcDbLine
 10
3854.399995023125
 20
1155.238365667475
 11
3854.399995023125
 21
1075.238361867639
  0
LINE
  5
2E7
100
AcDbEntity
  8
0
  6
CONTINUOUS
 62
           3
100
AcDbLine
 10
3857.399997377517
 20
1155.238365667475
 11
3854.399995023125
 21
1155.238365667475
  0
LINE
  5
2E6
100
AcDbEntity
  8
0
  6
CONTINUOUS
 62
           3
100
AcDbLine
 10
3857.399997377517
 20
1115.238362836207
 11
3857.399997377517
 21
1155.238365667475
  0
LINE
  5
2E5
100
AcDbEntity
  8
0
  6
CONTINUOUS
 62
           3
100
AcDbLine
 10
3857.399997377517
 20
1095.238361420724
 11
3857.399997377517
 21
1097.238363611123
  0
LINE
  5
2E4
100
AcDbEntity
  8
0
  6
CONTINUOUS
 62
           3
100
AcDbLine
 10
3854.399995023125
 20
1075.238361867639
 11
3855.975189322324
 21
1075.238361867639
  0
LINE
  5
2E3
100
AcDbEntity
  8
0
  6
CONTINUOUS
 62
           3
100
AcDbLine
 10
3975.899995380622
 20
933.238362806557
 11
3975.899995380622
 21
932.538365858257
  0
LINE
  5
2E2
100
AcDbEntity
  8
0
  6
CONTINUOUS
 62
           3
100
AcDbLine
 10
3980.899994337315
 20
930.238356727058
 11
3980.899994337315
 21
933.238362806557
  0
LINE
  5
2E1
100
AcDbEntity
  8
0
  6
CONTINUOUS
 62
           3
100
AcDbLine
 10
3980.899994337315
 20
1200.238367455439
 11
3980.899994337315
 21
1197.23836137594
  0
LINE
  5
2E0
100
AcDbEntity
  8
0
  6
CONTINUOUS
 62
           3
100
AcDbLine
 10
3975.899995380622
 20
1197.23836137594
 11
3975.899995380622
 21
1197.938358324237
  0
LINE
  5
2DF
100
AcDbEntity
  8
0
  6
CONTINUOUS
 62
           3
100
AcDbLine
 10
3855.899998062715
 20
1197.23836137594
 11
3855.899998062715
 21
1197.938358324237
  0
LINE
  5
2DE
100
AcDbEntity
  8
0
  6
CONTINUOUS
 62
           3
100
AcDbLine
 10
3850.899999106021
 20
1200.238367455439
 11
3850.899999106021
 21
1197.23836137594
  0
LINE
  5
2DD
100
AcDbEntity
  8
0
  6
CONTINUOUS
 62
           3
100
AcDbLine
 10
3850.899999106021
 20
1200.238367455439
 11
3835.499999189235
 21
1200.238367455439
  0
LINE
  5
2DC
100
AcDbEntity
  8
0
  6
CONTINUOUS
 62
           3
100
AcDbLine
 10
3850.899999106021
 20
930.238356727058
 11
3850.899999106021
 21
933.238362806557
  0
LINE
  5
2DB
100
AcDbEntity
  8
0
  6
CONTINUOUS
 62
           3
100
AcDbLine
 10
3855.899998062715
 20
933.238362806557
 11
3855.899998062715
 21
932.538365858257
  0
LINE
  5
2DA
100
AcDbEntity
  8
0
  6
CONTINUOUS
 62
           3
100
AcDbLine
 10
3854.399995023125
 20
975.238358515023
 11
3854.399995023125
 21
1055.238362314855
  0
LINE
  5
2D9
100
AcDbEntity
  8
0
  6
CONTINUOUS
 62
           3
100
AcDbLine
 10
3854.399995023125
 20
1055.238362314855
 11
3855.899998062715
 21
1055.238362314855
  0
LINE
  5
2D8
100
AcDbEntity
  8
0
  6
CONTINUOUS
 62
           3
100
AcDbLine
 10
3857.399997377517
 20
997.238358395803
 11
3857.399997377517
 21
995.238361793206
  0
LINE
  5
2D7
100
AcDbEntity
  8
0
  6
CONTINUOUS
 62
           3
100
AcDbLine
 10
3855.975189322324
 20
975.238358515023
 11
3854.399995023125
 21
975.238358515023
  0
LINE
  5
2D6
100
AcDbEntity
  8
0
  6
CONTINUOUS
 62
           3
100
AcDbLine
 10
3977.399998420226
 20
1155.238365667475
 11
3977.399998420226
 21
1075.238361867639
  0
LINE
  5
2D5
100
AcDbEntity
  8
0
  6
CONTINUOUS
 62
           3
100
AcDbLine
 10
3977.399998420226
 20
1075.238361867639
 11
3975.824804121023
 21
1075.238361867639
  0
LINE
  5
2D4
100
AcDbEntity
  8
0
  6
CONTINUOUS
 62
           3
100
AcDbLine
 10
3974.399996066126
 20
1115.238362836207
 11
3974.399996066126
 21
1155.238365667475
  0
LINE
  5
2D3
100
AcDbEntity
  8
0
  6
CONTINUOUS
 62
           3
100
AcDbLine
 10
3974.399996066126
 20
1095.238361420724
 11
3974.399996066126
 21
1097.238363611123
  0
LINE
  5
2D2
100
AcDbEntity
  8
0
  6
CONTINUOUS
 62
           3
100
AcDbLine
 10
3974.399996066126
 20
1155.238365667475
 11
3977.399998420226
 21
1155.238365667475
  0
LINE
  5
2D1
100
AcDbEntity
  8
0
  6
CONTINUOUS
 62
           3
100
AcDbLine
 10
3977.399998420226
 20
975.238358515023
 11
3977.399998420226
 21
1055.238362314855
  0
LINE
  5
2D0
100
AcDbEntity
  8
0
  6
CONTINUOUS
 62
           3
100
AcDbLine
 10
3975.824804121023
 20
975.238358515023
 11
3977.399998420226
 21
975.238358515023
  0
LINE
  5
2CF
100
AcDbEntity
  8
0
  6
CONTINUOUS
 62
           3
100
AcDbLine
 10
3974.399996066126
 20
997.238358395803
 11
3974.399996066126
 21
995.238361793206
  0
LINE
  5
2CE
100
AcDbEntity
  8
0
  6
CONTINUOUS
 62
           3
100
AcDbLine
 10
3977.399998420226
 20
1055.238362314855
 11
3975.899995380622
 21
1055.238362314855
  0
LINE
  5
2CD
100
AcDbEntity
  8
0
  6
CONTINUOUS
 62
           3
100
AcDbLine
 10
3835.499999189235
 20
1200.238367455439
 11
3833.399993443334
 21
1200.238367455439
  0
LINE
  5
2CC
100
AcDbEntity
  8
0
  6
CONTINUOUS
 62
           3
100
AcDbLine
 10
3833.399993443334
 20
1200.238367455439
 11
3833.399993443334
 21
930.238356727058
  0
LINE
  5
2CB
100
AcDbEntity
  8
0
  6
CONTINUOUS
 62
           3
100
AcDbLine
 10
3835.499999189235
 20
930.238356727058
 11
3833.399993443334
 21
930.238356727058
  0
LINE
  5
2CA
100
AcDbEntity
  8
0
  6
CONTINUOUS
 62
           3
100
AcDbLine
 10
3855.899998062715
 20
931.838368909956
 11
3855.899998062715
 21
932.538365858257
  0
LINE
  5
2C9
100
AcDbEntity
  8
0
  6
CONTINUOUS
 62
           3
100
AcDbLine
 10
3975.899995380622
 20
931.838368909956
 11
3975.899995380622
 21
932.538365858257
  0
LINE
  5
2C8
100
AcDbEntity
  8
0
  6
CONTINUOUS
 62
           3
100
AcDbLine
 10
3855.899998062715
 20
1198.638355272239
 11
3855.899998062715
 21
1197.938358324237
  0
LINE
  5
2C7
100
AcDbEntity
  8
0
  6
CONTINUOUS
 62
           3
100
AcDbLine
 10
3975.899995380622
 20
1198.638355272239
 11
3975.899995380622
 21
1197.938358324237
  0
LINE
  5
2C6
100
AcDbEntity
  8
0
  6
CONTINUOUS
 62
           3
100
AcDbLine
 10
3970.899996423623
 20
1198.638355272239
 11
3975.899995380622
 21
1198.638355272239
  0
LINE
  5
2C5
100
AcDbEntity
  8
0
  6
CONTINUOUS
 62
           3
100
AcDbLine
 10
3975.899995380622
 20
1200.238367455439
 11
3970.899996423623
 21
1200.238367455439
  0
LINE
  5
2C4
100
AcDbEntity
  8
0
  6
CONTINUOUS
 62
           3
100
AcDbLine
 10
3975.899995380622
 20
1198.638355272239
 11
3975.899995380622
 21
1200.238367455439
  0
LINE
  5
2C3
100
AcDbEntity
  8
0
  6
CONTINUOUS
 62
           3
100
AcDbLine
 10
3970.899996423623
 20
931.838368909956
 11
3975.899995380622
 21
931.838368909956
  0
LINE
  5
2C2
100
AcDbEntity
  8
0
  6
CONTINUOUS
 62
           3
100
AcDbLine
 10
3975.899995380622
 20
930.238356727058
 11
3970.899996423623
 21
930.238356727058
  0
LINE
  5
2C1
100
AcDbEntity
  8
0
  6
CONTINUOUS
 62
           3
100
AcDbLine
 10
3975.899995380622
 20
931.838368909956
 11
3975.899995380622
 21
930.238356727058
  0
LINE
  5
2C0
100
AcDbEntity
  8
0
  6
CONTINUOUS
 62
           3
100
AcDbLine
 10
3960.899998509633
 20
931.838368909956
 11
3962.899995112235
 21
931.838368909956
  0
LINE
  5
2BF
100
AcDbEntity
  8
0
  6
CONTINUOUS
 62
           3
100
AcDbLine
 10
3962.899995112235
 20
930.238356727058
 11
3960.899998509633
 21
930.238356727058
  0
LINE
  5
2BE
100
AcDbEntity
  8
0
  6
CONTINUOUS
 62
           3
100
AcDbLine
 10
3962.899995112235
 20
931.838368909956
 11
3962.899995112235
 21
930.238356727058
  0
LINE
  5
2BD
100
AcDbEntity
  8
0
  6
CONTINUOUS
 62
           3
100
AcDbLine
 10
3960.899998509633
 20
1198.638355272239
 11
3962.899995112235
 21
1198.638355272239
  0
LINE
  5
2BC
100
AcDbEntity
  8
0
  6
CONTINUOUS
 62
           3
100
AcDbLine
 10
3962.899995112235
 20
1200.238367455439
 11
3960.899998509633
 21
1200.238367455439
  0
LINE
  5
2BB
100
AcDbEntity
  8
0
  6
CONTINUOUS
 62
           3
100
AcDbLine
 10
3962.899995112235
 20
1198.638355272239
 11
3962.899995112235
 21
1200.238367455439
  0
LINE
  5
2BA
100
AcDbEntity
  8
0
  6
CONTINUOUS
 62
           3
100
AcDbLine
 10
3968.899996095921
 20
931.838368909956
 11
3970.899996423623
 21
931.838368909956
  0
LINE
  5
2B9
100
AcDbEntity
  8
0
  6
CONTINUOUS
 62
           3
100
AcDbLine
 10
3970.899996423623
 20
930.238356727058
 11
3968.899996095921
 21
930.238356727058
  0
LINE
  5
2B8
100
AcDbEntity
  8
0
  6
CONTINUOUS
 62
           3
100
AcDbLine
 10
3968.899996095921
 20
930.238356727058
 11
3968.899996095921
 21
931.838368909956
  0
LINE
  5
2B7
100
AcDbEntity
  8
0
  6
CONTINUOUS
 62
           3
100
AcDbLine
 10
3968.899996095921
 20
1198.638355272239
 11
3970.899996423623
 21
1198.638355272239
  0
LINE
  5
2B6
100
AcDbEntity
  8
0
  6
CONTINUOUS
 62
           3
100
AcDbLine
 10
3970.899996423623
 20
1200.238367455439
 11
3968.899996095921
 21
1200.238367455439
  0
LINE
  5
2B5
100
AcDbEntity
  8
0
  6
CONTINUOUS
 62
           3
100
AcDbLine
 10
3968.899996095921
 20
1200.238367455439
 11
3968.899996095921
 21
1198.638355272239
  0
LINE
  5
2B4
100
AcDbEntity
  8
0
  6
CONTINUOUS
 62
           3
100
AcDbLine
 10
3860.899997019713
 20
1198.638355272239
 11
3855.899998062715
 21
1198.638355272239
  0
LINE
  5
2B3
100
AcDbEntity
  8
0
  6
CONTINUOUS
 62
           3
100
AcDbLine
 10
3855.899998062715
 20
1200.238367455439
 11
3860.899997019713
 21
1200.238367455439
  0
LINE
  5
2B2
100
AcDbEntity
  8
0
  6
CONTINUOUS
 62
           3
100
AcDbLine
 10
3855.899998062715
 20
1198.638355272239
 11
3855.899998062715
 21
1200.238367455439
  0
LINE
  5
2B1
100
AcDbEntity
  8
0
  6
CONTINUOUS
 62
           3
100
AcDbLine
 10
3860.899997019713
 20
931.838368909956
 11
3855.899998062715
 21
931.838368909956
  0
LINE
  5
2B0
100
AcDbEntity
  8
0
  6
CONTINUOUS
 62
           3
100
AcDbLine
 10
3855.899998062715
 20
930.238356727058
 11
3860.899997019713
 21
930.238356727058
  0
LINE
  5
2AF
100
AcDbEntity
  8
0
  6
CONTINUOUS
 62
           3
100
AcDbLine
 10
3855.899998062715
 20
931.838368909956
 11
3855.899998062715
 21
930.238356727058
  0
LINE
  5
2AE
100
AcDbEntity
  8
0
  6
CONTINUOUS
 62
           3
100
AcDbLine
 10
3870.899994933704
 20
1198.638355272239
 11
3960.899998509633
 21
1198.638355272239
  0
LINE
  5
2AD
100
AcDbEntity
  8
0
  6
CONTINUOUS
 62
           3
100
AcDbLine
 10
3870.899994933704
 20
1200.238367455439
 11
3960.899998509633
 21
1200.238367455439
  0
LINE
  5
2AC
100
AcDbEntity
  8
0
  6
CONTINUOUS
 62
           3
100
AcDbLine
 10
3870.899994933704
 20
931.838368909956
 11
3960.899998509633
 21
931.838368909956
  0
LINE
  5
2AB
100
AcDbEntity
  8
0
  6
CONTINUOUS
 62
           3
100
AcDbLine
 10
3870.899994933704
 20
930.238356727058
 11
3960.899998509633
 21
930.238356727058
  0
LINE
  5
2AA
100
AcDbEntity
  8
0
  6
CONTINUOUS
 62
           3
100
AcDbLine
 10
3870.899994933704
 20
931.838368909956
 11
3868.899998331105
 21
931.838368909956
  0
LINE
  5
2A9
100
AcDbEntity
  8
0
  6
CONTINUOUS
 62
           3
100
AcDbLine
 10
3868.899998331105
 20
931.838368909956
 11
3868.899998331105
 21
930.238356727058
  0
LINE
  5
2A8
100
AcDbEntity
  8
0
  6
CONTINUOUS
 62
           3
100
AcDbLine
 10
3868.899998331105
 20
930.238356727058
 11
3870.899994933704
 21
930.238356727058
  0
LINE
  5
2A7
100
AcDbEntity
  8
0
  6
CONTINUOUS
 62
           3
100
AcDbLine
 10
3870.899994933704
 20
1198.638355272239
 11
3868.899998331105
 21
1198.638355272239
  0
LINE
  5
2A6
100
AcDbEntity
  8
0
  6
CONTINUOUS
 62
           3
100
AcDbLine
 10
3868.899998331105
 20
1200.238367455439
 11
3870.899994933704
 21
1200.238367455439
  0
LINE
  5
2A5
100
AcDbEntity
  8
0
  6
CONTINUOUS
 62
           3
100
AcDbLine
 10
3868.899998331105
 20
1198.638355272239
 11
3868.899998331105
 21
1200.238367455439
  0
LINE
  5
2A4
100
AcDbEntity
  8
0
  6
CONTINUOUS
 62
           3
100
AcDbLine
 10
3862.899997347714
 20
1198.638355272239
 11
3860.899997019713
 21
1198.638355272239
  0
LINE
  5
2A3
100
AcDbEntity
  8
0
  6
CONTINUOUS
 62
           3
100
AcDbLine
 10
3862.899997347714
 20
1200.238367455439
 11
3862.899997347714
 21
1198.638355272239
  0
LINE
  5
2A2
100
AcDbEntity
  8
0
  6
CONTINUOUS
 62
           3
100
AcDbLine
 10
3860.899997019713
 20
1200.238367455439
 11
3862.899997347714
 21
1200.238367455439
  0
LINE
  5
2A1
100
AcDbEntity
  8
0
  6
CONTINUOUS
 62
           3
100
AcDbLine
 10
3862.899997347714
 20
931.838368909956
 11
3860.899997019713
 21
931.838368909956
  0
LINE
  5
2A0
100
AcDbEntity
  8
0
  6
CONTINUOUS
 62
           3
100
AcDbLine
 10
3860.899997019713
 20
930.238356727058
 11
3862.899997347714
 21
930.238356727058
  0
LINE
  5
29F
100
AcDbEntity
  8
0
  6
CONTINUOUS
 62
           3
100
AcDbLine
 10
3862.899997347714
 20
930.238356727058
 11
3862.899997347714
 21
931.838368909956
  0
LINE
  5
29E
100
AcDbEntity
  8
0
  6
CONTINUOUS
 62
           3
100
AcDbLine
 10
3975.824804121023
 20
975.238358515023
 11
3974.199996405625
 21
975.238358515023
  0
LINE
  5
29D
100
AcDbEntity
  8
0
  6
CONTINUOUS
 62
           3
100
AcDbLine
 10
3974.199996405625
 20
995.238361793206
 11
3975.899995380622
 21
995.238361793206
  0
LINE
  5
29C
100
AcDbEntity
  8
0
  6
CONTINUOUS
 62
           3
100
AcDbLine
 10
3975.899995380622
 20
995.238361793206
 11
3975.899995380622
 21
975.238358515023
  0
LINE
  5
29B
100
AcDbEntity
  8
0
  6
CONTINUOUS
 62
           3
100
AcDbLine
 10
3855.899998062715
 20
1095.238361420724
 11
3857.599997037716
 21
1095.238361420724
  0
LINE
  5
29A
100
AcDbEntity
  8
0
  6
CONTINUOUS
 62
           3
100
AcDbLine
 10
3855.899998062715
 20
1075.238361867639
 11
3855.899998062715
 21
1095.238361420724
  0
LINE
  5
299
100
AcDbEntity
  8
0
  6
CONTINUOUS
 62
           3
100
AcDbLine
 10
3857.599997037716
 20
1075.238361867639
 11
3855.975189322324
 21
1075.238361867639
  0
LINE
  5
298
100
AcDbEntity
  8
0
  6
CONTINUOUS
 62
           3
100
AcDbLine
 10
3855.975189322324
 20
975.238358515023
 11
3857.599997037716
 21
975.238358515023
  0
LINE
  5
297
100
AcDbEntity
  8
0
  6
CONTINUOUS
 62
           3
100
AcDbLine
 10
3857.599997037716
 20
995.238361793206
 11
3855.899998062715
 21
995.238361793206
  0
LINE
  5
296
100
AcDbEntity
  8
0
  6
CONTINUOUS
 62
           3
100
AcDbLine
 10
3855.899998062715
 20
995.238361793206
 11
3855.899998062715
 21
975.238358515023
  0
LINE
  5
295
100
AcDbEntity
  8
0
  6
CONTINUOUS
 62
           3
100
AcDbLine
 10
3857.599997037716
 20
1095.238361420724
 11
3857.899998390715
 21
1095.238361420724
  0
LINE
  5
294
100
AcDbEntity
  8
0
  6
CONTINUOUS
 62
           3
100
AcDbLine
 10
3857.899998390715
 20
1075.238361867639
 11
3857.599997037716
 21
1075.238361867639
  0
LINE
  5
293
100
AcDbEntity
  8
0
  6
CONTINUOUS
 62
           3
100
AcDbLine
 10
3855.899998062715
 20
1073.238362471143
 11
3857.899998390715
 21
1073.238362471143
  0
LINE
  5
292
100
AcDbEntity
  8
0
  6
CONTINUOUS
 62
           3
100
AcDbLine
 10
3855.899998062715
 20
1073.238362471143
 11
3855.899998062715
 21
997.238358395803
  0
LINE
  5
291
100
AcDbEntity
  8
0
  6
CONTINUOUS
 62
           3
100
AcDbLine
 10
3855.899998062715
 20
997.238358395803
 11
3857.899998390715
 21
997.238358395803
  0
LINE
  5
290
100
AcDbEntity
  8
0
  6
CONTINUOUS
 62
           3
100
AcDbLine
 10
3857.899998390715
 20
995.238361793206
 11
3857.599997037716
 21
995.238361793206
  0
LINE
  5
28F
100
AcDbEntity
  8
0
  6
CONTINUOUS
 62
           3
100
AcDbLine
 10
3857.599997037716
 20
975.238358515023
 11
3857.899998390715
 21
975.238358515023
  0
LINE
  5
28E
100
AcDbEntity
  8
0
  6
CONTINUOUS
 62
           3
100
AcDbLine
 10
3857.899998390715
 20
973.238361912427
 11
3855.899998062715
 21
973.238361912427
  0
LINE
  5
28D
100
AcDbEntity
  8
0
  6
CONTINUOUS
 62
           3
100
AcDbLine
 10
3855.899998062715
 20
956.938361662035
 11
3855.899998062715
 21
973.238361912427
  0
LINE
  5
28C
100
AcDbEntity
  8
0
  6
CONTINUOUS
 62
           3
100
AcDbLine
 10
3975.899995380622
 20
956.938361662035
 11
3975.899995380622
 21
973.238361912427
  0
LINE
  5
28B
100
AcDbEntity
  8
0
  6
CONTINUOUS
 62
           3
100
AcDbLine
 10
3973.899995052624
 20
973.238361912427
 11
3975.899995380622
 21
973.238361912427
  0
LINE
  5
28A
100
AcDbEntity
  8
0
  6
CONTINUOUS
 62
           3
100
AcDbLine
 10
3974.199996405625
 20
975.238358515023
 11
3973.899995052624
 21
975.238358515023
  0
LINE
  5
289
100
AcDbEntity
  8
0
  6
CONTINUOUS
 62
           3
100
AcDbLine
 10
3973.899995052624
 20
995.238361793206
 11
3974.199996405625
 21
995.238361793206
  0
LINE
  5
288
100
AcDbEntity
  8
0
  6
CONTINUOUS
 62
           3
100
AcDbLine
 10
3975.899995380622
 20
997.238358395803
 11
3973.899995052624
 21
997.238358395803
  0
LINE
  5
287
100
AcDbEntity
  8
0
  6
CONTINUOUS
 62
           3
100
AcDbLine
 10
3975.899995380622
 20
1073.238362471143
 11
3975.899995380622
 21
997.238358395803
  0
LINE
  5
286
100
AcDbEntity
  8
0
  6
CONTINUOUS
 62
           3
100
AcDbLine
 10
3975.899995380622
 20
1073.238362471143
 11
3973.899995052624
 21
1073.238362471143
  0
LINE
  5
285
100
AcDbEntity
  8
0
  6
CONTINUOUS
 62
           3
100
AcDbLine
 10
3973.899995052624
 20
1075.238361867639
 11
3974.199996405625
 21
1075.238361867639
  0
LINE
  5
284
100
AcDbEntity
  8
0
  6
CONTINUOUS
 62
           3
100
AcDbLine
 10
3974.199996405625
 20
1095.238361420724
 11
3973.899995052624
 21
1095.238361420724
  0
LINE
  5
283
100
AcDbEntity
  8
0
  6
CONTINUOUS
 62
           3
100
AcDbLine
 10
3973.899995052624
 20
1097.238363611123
 11
3975.899995380622
 21
1097.238363611123
  0
LINE
  5
282
100
AcDbEntity
  8
0
  6
CONTINUOUS
 62
           3
100
AcDbLine
 10
3975.899995380622
 20
1113.538363861509
 11
3975.899995380622
 21
1097.238363611123
  0
LINE
  5
281
100
AcDbEntity
  8
0
  6
CONTINUOUS
 62
           3
100
AcDbLine
 10
3855.899998062715
 20
1113.538363861509
 11
3855.899998062715
 21
1097.238363611123
  0
LINE
  5
280
100
AcDbEntity
  8
0
  6
CONTINUOUS
 62
           3
100
AcDbLine
 10
3857.899998390715
 20
1097.238363611123
 11
3855.899998062715
 21
1097.238363611123
  0
LINE
  5
27F
100
AcDbEntity
  8
0
  6
CONTINUOUS
 62
           3
100
AcDbLine
 10
3974.199996405625
 20
1075.238361867639
 11
3975.824804121023
 21
1075.238361867639
  0
LINE
  5
27E
100
AcDbEntity
  8
0
  6
CONTINUOUS
 62
           3
100
AcDbLine
 10
3975.899995380622
 20
1075.238361867639
 11
3975.899995380622
 21
1095.238361420724
  0
LINE
  5
27D
100
AcDbEntity
  8
0
  6
CONTINUOUS
 62
           3
100
AcDbLine
 10
3975.899995380622
 20
1095.238361420724
 11
3974.199996405625
 21
1095.238361420724
  0
LINE
  5
27C
100
AcDbEntity
  8
0
  6
CONTINUOUS
 62
           3
100
AcDbLine
 10
3975.899995380622
 20
1114.038361149308
 11
3975.899995380622
 21
1113.538363861509
  0
LINE
  5
27B
100
AcDbEntity
  8
0
  6
CONTINUOUS
 62
           3
100
AcDbLine
 10
3855.899998062715
 20
1114.038361149308
 11
3855.899998062715
 21
1113.538363861509
  0
LINE
  5
27A
100
AcDbEntity
  8
0
  6
CONTINUOUS
 62
           3
100
AcDbLine
 10
3855.899998062715
 20
956.438360648836
 11
3855.899998062715
 21
956.938361662035
  0
LINE
  5
279
100
AcDbEntity
  8
0
  6
CONTINUOUS
 62
           3
100
AcDbLine
 10
3975.899995380622
 20
956.438360648836
 11
3975.899995380622
 21
956.938361662035
  0
LINE
  5
278
100
AcDbEntity
  8
0
  6
CONTINUOUS
 62
           3
100
AcDbLine
 10
3918.899996747764
 20
1115.238362836207
 11
3919.149996788764
 21
1115.238362836207
  0
LINE
  5
277
100
AcDbEntity
  8
0
  6
CONTINUOUS
 62
           3
100
AcDbLine
 10
3912.649996654578
 20
1115.238362836207
 11
3912.899996695578
 21
1115.238362836207
  0
LINE
  5
276
100
AcDbEntity
  8
0
  6
CONTINUOUS
 62
           3
100
AcDbLine
 10
3918.899996747764
 20
1114.038361149308
 11
3919.149996788764
 21
1114.038361149308
  0
LINE
  5
275
100
AcDbEntity
  8
0
  6
CONTINUOUS
 62
           3
100
AcDbLine
 10
3912.649996654578
 20
1114.038361149308
 11
3912.899996695578
 21
1114.038361149308
  0
LINE
  5
274
100
AcDbEntity
  8
0
  6
CONTINUOUS
 62
           3
100
AcDbLine
 10
3912.899996695578
 20
956.438360648836
 11
3912.649996654578
 21
956.438360648836
  0
LINE
  5
273
100
AcDbEntity
  8
0
  6
CONTINUOUS
 62
           3
100
AcDbLine
 10
3919.149996788764
 20
956.438360648836
 11
3918.899996747764
 21
956.438360648836
  0
LINE
  5
272
100
AcDbEntity
  8
0
  6
CONTINUOUS
 62
           3
100
AcDbLine
 10
3860.899997019713
 20
956.438360648836
 11
3855.899998062715
 21
956.438360648836
  0
LINE
  5
271
100
AcDbEntity
  8
0
  6
CONTINUOUS
 62
           3
100
AcDbLine
 10
3855.899998062715
 20
955.238362687341
 11
3860.899997019713
 21
955.238362687341
  0
LINE
  5
270
100
AcDbEntity
  8
0
  6
CONTINUOUS
 62
           3
100
AcDbLine
 10
3855.899998062715
 20
956.438360648836
 11
3855.899998062715
 21
955.238362687341
  0
LINE
  5
26F
100
AcDbEntity
  8
0
  6
CONTINUOUS
 62
           3
100
AcDbLine
 10
3855.899998062715
 20
1115.238362836207
 11
3860.899997019713
 21
1115.238362836207
  0
LINE
  5
26E
100
AcDbEntity
  8
0
  6
CONTINUOUS
 62
           3
100
AcDbLine
 10
3860.899997019713
 20
1114.038361149308
 11
3855.899998062715
 21
1114.038361149308
  0
LINE
  5
26D
100
AcDbEntity
  8
0
  6
CONTINUOUS
 62
           3
100
AcDbLine
 10
3855.899998062715
 20
1114.038361149308
 11
3855.899998062715
 21
1115.238362836207
  0
LINE
  5
26C
100
AcDbEntity
  8
0
  6
CONTINUOUS
 62
           3
100
AcDbLine
 10
3960.899998509633
 20
1115.238362836207
 11
3945.899996051145
 21
1115.238362836207
  0
LINE
  5
26B
100
AcDbEntity
  8
0
  6
CONTINUOUS
 62
           3
100
AcDbLine
 10
3960.899998509633
 20
1114.038361149308
 11
3945.899996051145
 21
1114.038361149308
  0
LINE
  5
26A
100
AcDbEntity
  8
0
  6
CONTINUOUS
 62
           3
100
AcDbLine
 10
3975.899995380622
 20
1115.238362836207
 11
3970.899996423623
 21
1115.238362836207
  0
LINE
  5
269
100
AcDbEntity
  8
0
  6
CONTINUOUS
 62
           3
100
AcDbLine
 10
3970.899996423623
 20
1114.038361149308
 11
3975.899995380622
 21
1114.038361149308
  0
LINE
  5
268
100
AcDbEntity
  8
0
  6
CONTINUOUS
 62
           3
100
AcDbLine
 10
3975.899995380622
 20
1114.038361149308
 11
3975.899995380622
 21
1115.238362836207
  0
LINE
  5
267
100
AcDbEntity
  8
0
  6
CONTINUOUS
 62
           3
100
AcDbLine
 10
3960.899998509633
 20
956.438360648836
 11
3945.899996051145
 21
956.438360648836
  0
LINE
  5
266
100
AcDbEntity
  8
0
  6
CONTINUOUS
 62
           3
100
AcDbLine
 10
3960.899998509633
 20
955.238362687341
 11
3945.899996051145
 21
955.238362687341
  0
LINE
  5
265
100
AcDbEntity
  8
0
  6
CONTINUOUS
 62
           3
100
AcDbLine
 10
3870.899994933704
 20
1115.238362836207
 11
3885.899997392191
 21
1115.238362836207
  0
LINE
  5
264
100
AcDbEntity
  8
0
  6
CONTINUOUS
 62
           3
100
AcDbLine
 10
3870.899994933704
 20
1114.038361149308
 11
3885.899997392191
 21
1114.038361149308
  0
LINE
  5
263
100
AcDbEntity
  8
0
  6
CONTINUOUS
 62
           3
100
AcDbLine
 10
3970.899996423623
 20
956.438360648836
 11
3975.899995380622
 21
956.438360648836
  0
LINE
  5
262
100
AcDbEntity
  8
0
  6
CONTINUOUS
 62
           3
100
AcDbLine
 10
3975.899995380622
 20
955.238362687341
 11
3970.899996423623
 21
955.238362687341
  0
LINE
  5
261
100
AcDbEntity
  8
0
  6
CONTINUOUS
 62
           3
100
AcDbLine
 10
3975.899995380622
 20
956.438360648836
 11
3975.899995380622
 21
955.238362687341
  0
LINE
  5
260
100
AcDbEntity
  8
0
  6
CONTINUOUS
 62
           3
100
AcDbLine
 10
3870.899994933704
 20
956.438360648836
 11
3885.899997392191
 21
956.438360648836
  0
LINE
  5
25F
100
AcDbEntity
  8
0
  6
CONTINUOUS
 62
           3
100
AcDbLine
 10
3870.899994933704
 20
955.238362687341
 11
3885.899997392191
 21
955.238362687341
  0
LINE
  5
25E
100
AcDbEntity
  8
0
  6
CONTINUOUS
 62
           3
100
AcDbLine
 10
3868.899998331105
 20
1115.238362836207
 11
3870.899994933704
 21
1115.238362836207
  0
LINE
  5
25D
100
AcDbEntity
  8
0
  6
CONTINUOUS
 62
           3
100
AcDbLine
 10
3870.899994933704
 20
1114.038361149308
 11
3868.899998331105
 21
1114.038361149308
  0
LINE
  5
25C
100
AcDbEntity
  8
0
  6
CONTINUOUS
 62
           3
100
AcDbLine
 10
3868.899998331105
 20
1114.038361149308
 11
3868.899998331105
 21
1115.238362836207
  0
LINE
  5
25B
100
AcDbEntity
  8
0
  6
CONTINUOUS
 62
           3
100
AcDbLine
 10
3860.899997019713
 20
1115.238362836207
 11
3862.899997347714
 21
1115.238362836207
  0
LINE
  5
25A
100
AcDbEntity
  8
0
  6
CONTINUOUS
 62
           3
100
AcDbLine
 10
3862.899997347714
 20
1114.038361149308
 11
3860.899997019713
 21
1114.038361149308
  0
LINE
  5
259
100
AcDbEntity
  8
0
  6
CONTINUOUS
 62
           3
100
AcDbLine
 10
3862.899997347714
 20
1115.238362836207
 11
3862.899997347714
 21
1114.038361149308
  0
LINE
  5
258
100
AcDbEntity
  8
0
  6
CONTINUOUS
 62
           3
100
AcDbLine
 10
3960.899998509633
 20
956.438360648836
 11
3962.899995112235
 21
956.438360648836
  0
LINE
  5
257
100
AcDbEntity
  8
0
  6
CONTINUOUS
 62
           3
100
AcDbLine
 10
3962.899995112235
 20
955.238362687341
 11
3960.899998509633
 21
955.238362687341
  0
LINE
  5
256
100
AcDbEntity
  8
0
  6
CONTINUOUS
 62
           3
100
AcDbLine
 10
3962.899995112235
 20
956.438360648836
 11
3962.899995112235
 21
955.238362687341
  0
LINE
  5
255
100
AcDbEntity
  8
0
  6
CONTINUOUS
 62
           3
100
AcDbLine
 10
3968.899996095921
 20
956.438360648836
 11
3970.899996423623
 21
956.438360648836
  0
LINE
  5
254
100
AcDbEntity
  8
0
  6
CONTINUOUS
 62
           3
100
AcDbLine
 10
3970.899996423623
 20
955.238362687341
 11
3968.899996095921
 21
955.238362687341
  0
LINE
  5
253
100
AcDbEntity
  8
0
  6
CONTINUOUS
 62
           3
100
AcDbLine
 10
3968.899996095921
 20
955.238362687341
 11
3968.899996095921
 21
956.438360648836
  0
LINE
  5
252
100
AcDbEntity
  8
0
  6
CONTINUOUS
 62
           3
100
AcDbLine
 10
3962.899995112235
 20
1115.238362836207
 11
3960.899998509633
 21
1115.238362836207
  0
LINE
  5
251
100
AcDbEntity
  8
0
  6
CONTINUOUS
 62
           3
100
AcDbLine
 10
3960.899998509633
 20
1114.038361149308
 11
3962.899995112235
 21
1114.038361149308
  0
LINE
  5
250
100
AcDbEntity
  8
0
  6
CONTINUOUS
 62
           3
100
AcDbLine
 10
3962.899995112235
 20
1114.038361149308
 11
3962.899995112235
 21
1115.238362836207
  0
LINE
  5
24F
100
AcDbEntity
  8
0
  6
CONTINUOUS
 62
           3
100
AcDbLine
 10
3970.899996423623
 20
1115.238362836207
 11
3968.899996095921
 21
1115.238362836207
  0
LINE
  5
24E
100
AcDbEntity
  8
0
  6
CONTINUOUS
 62
           3
100
AcDbLine
 10
3968.899996095921
 20
1114.038361149308
 11
3970.899996423623
 21
1114.038361149308
  0
LINE
  5
24D
100
AcDbEntity
  8
0
  6
CONTINUOUS
 62
           3
100
AcDbLine
 10
3968.899996095921
 20
1115.238362836207
 11
3968.899996095921
 21
1114.038361149308
  0
LINE
  5
24C
100
AcDbEntity
  8
0
  6
CONTINUOUS
 62
           3
100
AcDbLine
 10
3870.899994933704
 20
956.438360648836
 11
3868.899998331105
 21
956.438360648836
  0
LINE
  5
24B
100
AcDbEntity
  8
0
  6
CONTINUOUS
 62
           3
100
AcDbLine
 10
3868.899998331105
 20
955.238362687341
 11
3870.899994933704
 21
955.238362687341
  0
LINE
  5
24A
100
AcDbEntity
  8
0
  6
CONTINUOUS
 62
           3
100
AcDbLine
 10
3868.899998331105
 20
956.438360648836
 11
3868.899998331105
 21
955.238362687341
  0
LINE
  5
249
100
AcDbEntity
  8
0
  6
CONTINUOUS
 62
           3
100
AcDbLine
 10
3862.899997347714
 20
956.438360648836
 11
3860.899997019713
 21
956.438360648836
  0
LINE
  5
248
100
AcDbEntity
  8
0
  6
CONTINUOUS
 62
           3
100
AcDbLine
 10
3860.899997019713
 20
955.238362687341
 11
3862.899997347714
 21
955.238362687341
  0
LINE
  5
247
100
AcDbEntity
  8
0
  6
CONTINUOUS
 62
           3
100
AcDbLine
 10
3862.899997347714
 20
955.238362687341
 11
3862.899997347714
 21
956.438360648836
  0
LINE
  5
246
100
AcDbEntity
  8
0
  6
CONTINUOUS
 62
           3
100
AcDbLine
 10
3912.399996613578
 20
956.438360648836
 11
3912.649996654578
 21
956.438360648836
  0
LINE
  5
245
100
AcDbEntity
  8
0
  6
CONTINUOUS
 62
           3
100
AcDbLine
 10
3912.649996654578
 20
956.438360648836
 11
3912.649996654578
 21
955.238362687341
  0
LINE
  5
244
100
AcDbEntity
  8
0
  6
CONTINUOUS
 62
           3
100
AcDbLine
 10
3945.899996051145
 20
956.438360648836
 11
3935.899996274753
 21
956.438360648836
  0
LINE
  5
243
100
AcDbEntity
  8
0
  6
CONTINUOUS
 62
           3
100
AcDbLine
 10
3945.899996051145
 20
955.238362687341
 11
3935.899996274753
 21
955.238362687341
  0
LINE
  5
242
100
AcDbEntity
  8
0
  6
CONTINUOUS
 62
           3
100
AcDbLine
 10
3945.899996051145
 20
956.438360648836
 11
3945.899996051145
 21
955.238362687341
  0
LINE
  5
241
100
AcDbEntity
  8
0
  6
CONTINUOUS
 62
           3
100
AcDbLine
 10
3910.649996792474
 20
1115.238362836207
 11
3912.649996654578
 21
1115.238362836207
  0
LINE
  5
240
100
AcDbEntity
  8
0
  6
CONTINUOUS
 62
           3
100
AcDbLine
 10
3912.649996654578
 20
1114.038361149308
 11
3910.649996792474
 21
1114.038361149308
  0
LINE
  5
23F
100
AcDbEntity
  8
0
  6
CONTINUOUS
 62
           3
100
AcDbLine
 10
3912.649996654578
 20
1115.238362836207
 11
3912.649996654578
 21
1114.038361149308
  0
LINE
  5
23E
100
AcDbEntity
  8
0
  6
CONTINUOUS
 62
           3
100
AcDbLine
 10
3923.899997101564
 20
956.438360648836
 11
3935.899996274753
 21
956.438360648836
  0
LINE
  5
23D
100
AcDbEntity
  8
0
  6
CONTINUOUS
 62
           3
100
AcDbLine
 10
3923.899997101564
 20
955.238362687341
 11
3935.899996274753
 21
955.238362687341
  0
LINE
  5
23C
100
AcDbEntity
  8
0
  6
CONTINUOUS
 62
           3
100
AcDbLine
 10
3935.899996274753
 20
956.438360648836
 11
3935.899996274753
 21
955.238362687341
  0
LINE
  5
23B
100
AcDbEntity
  8
0
  6
CONTINUOUS
 62
           3
100
AcDbLine
 10
3885.899997392191
 20
956.438360648836
 11
3895.899997168588
 21
956.438360648836
  0
LINE
  5
23A
100
AcDbEntity
  8
0
  6
CONTINUOUS
 62
           3
100
AcDbLine
 10
3885.899997392191
 20
955.238362687341
 11
3895.899997168588
 21
955.238362687341
  0
LINE
  5
239
100
AcDbEntity
  8
0
  6
CONTINUOUS
 62
           3
100
AcDbLine
 10
3885.899997392191
 20
956.438360648836
 11
3885.899997392191
 21
955.238362687341
  0
LINE
  5
238
100
AcDbEntity
  8
0
  6
CONTINUOUS
 62
           3
100
AcDbLine
 10
3919.149996788764
 20
1115.238362836207
 11
3921.149996650866
 21
1115.238362836207
  0
LINE
  5
237
100
AcDbEntity
  8
0
  6
CONTINUOUS
 62
           3
100
AcDbLine
 10
3921.149996650866
 20
1114.038361149308
 11
3919.149996788764
 21
1114.038361149308
  0
LINE
  5
236
100
AcDbEntity
  8
0
  6
CONTINUOUS
 62
           3
100
AcDbLine
 10
3919.149996788764
 20
1114.038361149308
 11
3919.149996788764
 21
1115.238362836207
  0
LINE
  5
235
100
AcDbEntity
  8
0
  6
CONTINUOUS
 62
           3
100
AcDbLine
 10
3945.899996051145
 20
1115.238362836207
 11
3935.899996274753
 21
1115.238362836207
  0
LINE
  5
234
100
AcDbEntity
  8
0
  6
CONTINUOUS
 62
           3
100
AcDbLine
 10
3945.899996051145
 20
1114.038361149308
 11
3935.899996274753
 21
1114.038361149308
  0
LINE
  5
233
100
AcDbEntity
  8
0
  6
CONTINUOUS
 62
           3
100
AcDbLine
 10
3945.899996051145
 20
1114.038361149308
 11
3945.899996051145
 21
1115.238362836207
  0
LINE
  5
232
100
AcDbEntity
  8
0
  6
CONTINUOUS
 62
           3
100
AcDbLine
 10
3919.149996788764
 20
956.438360648836
 11
3919.399996829764
 21
956.438360648836
  0
LINE
  5
231
100
AcDbEntity
  8
0
  6
CONTINUOUS
 62
           3
100
AcDbLine
 10
3919.149996788764
 20
955.238362687341
 11
3919.149996788764
 21
956.438360648836
  0
LINE
  5
230
100
AcDbEntity
  8
0
  6
CONTINUOUS
 62
           3
100
AcDbLine
 10
3895.899997168588
 20
956.438360648836
 11
3907.899996341776
 21
956.438360648836
  0
LINE
  5
22F
100
AcDbEntity
  8
0
  6
CONTINUOUS
 62
           3
100
AcDbLine
 10
3895.899997168588
 20
955.238362687341
 11
3907.899996341776
 21
955.238362687341
  0
LINE
  5
22E
100
AcDbEntity
  8
0
  6
CONTINUOUS
 62
           3
100
AcDbLine
 10
3895.899997168588
 20
956.438360648836
 11
3895.899997168588
 21
955.238362687341
  0
LINE
  5
22D
100
AcDbEntity
  8
0
  6
CONTINUOUS
 62
           3
100
AcDbLine
 10
3895.899997168588
 20
1115.238362836207
 11
3910.649996792474
 21
1115.238362836207
  0
LINE
  5
22C
100
AcDbEntity
  8
0
  6
CONTINUOUS
 62
           3
100
AcDbLine
 10
3895.899997168588
 20
1114.038361149308
 11
3910.649996792474
 21
1114.038361149308
  0
LINE
  5
22B
100
AcDbEntity
  8
0
  6
CONTINUOUS
 62
           3
100
AcDbLine
 10
3921.149996650866
 20
1115.238362836207
 11
3935.899996274753
 21
1115.238362836207
  0
LINE
  5
22A
100
AcDbEntity
  8
0
  6
CONTINUOUS
 62
           3
100
AcDbLine
 10
3921.149996650866
 20
1114.038361149308
 11
3935.899996274753
 21
1114.038361149308
  0
LINE
  5
229
100
AcDbEntity
  8
0
  6
CONTINUOUS
 62
           3
100
AcDbLine
 10
3935.899996274753
 20
1114.038361149308
 11
3935.899996274753
 21
1115.238362836207
  0
LINE
  5
228
100
AcDbEntity
  8
0
  6
CONTINUOUS
 62
           3
100
AcDbLine
 10
3885.899997392191
 20
1114.038361149308
 11
3885.899997392191
 21
1115.238362836207
  0
LINE
  5
227
100
AcDbEntity
  8
0
  6
CONTINUOUS
 62
           3
100
AcDbLine
 10
3885.899997392191
 20
1114.038361149308
 11
3895.899997168588
 21
1114.038361149308
  0
LINE
  5
226
100
AcDbEntity
  8
0
  6
CONTINUOUS
 62
           3
100
AcDbLine
 10
3895.899997168588
 20
1114.038361149308
 11
3895.899997168588
 21
1115.238362836207
  0
LINE
  5
225
100
AcDbEntity
  8
0
  6
CONTINUOUS
 62
           3
100
AcDbLine
 10
3885.899997392191
 20
1115.238362836207
 11
3895.899997168588
 21
1115.238362836207
  0
LINE
  5
224
100
AcDbEntity
  8
0
  6
CONTINUOUS
 62
           3
100
AcDbLine
 10
3923.899997101564
 20
954.438364046239
 11
3923.899997101564
 21
953.514603811039
  0
LINE
  5
223
100
AcDbEntity
  8
0
  6
CONTINUOUS
 62
           3
100
AcDbLine
 10
3907.899996341776
 20
954.438364046239
 11
3907.899996341776
 21
953.514603811039
  0
LINE
  5
222
100
AcDbEntity
  8
0
  6
CONTINUOUS
 62
           3
100
AcDbLine
 10
3910.899996833474
 20
953.514603811039
 11
3907.899996341776
 21
953.514603811039
  0
LINE
  5
221
100
AcDbEntity
  8
0
  6
CONTINUOUS
 62
           3
100
AcDbLine
 10
3923.899997101564
 20
953.514603811039
 11
3920.899996609866
 21
953.514603811039
  0
LINE
  5
220
100
AcDbEntity
  8
0
  6
CONTINUOUS
 62
           3
100
AcDbLine
 10
3918.399996665763
 20
949.438361364143
 11
3920.899996609913
 21
949.438361364143
  0
LINE
  5
21F
100
AcDbEntity
  8
0
  6
CONTINUOUS
 62
           3
100
AcDbLine
 10
3910.899996833434
 20
949.438361364143
 11
3913.399996777555
 21
949.438361364143
  0
LINE
  5
21E
100
AcDbEntity
  8
0
  6
CONTINUOUS
 62
           3
100
AcDbLine
 10
3920.899996609866
 20
949.884941714546
 11
3920.899996609866
 21
954.338362353438
  0
LINE
  5
21D
100
AcDbEntity
  8
0
  6
CONTINUOUS
 62
           3
100
AcDbLine
 10
3910.899996833474
 20
949.884941714546
 11
3910.899996833474
 21
954.338362353438
  0
LINE
  5
21C
100
AcDbEntity
  8
0
  6
CONTINUOUS
 62
           3
100
AcDbLine
 10
3910.899996833474
 20
949.884941714546
 11
3913.399996777555
 21
949.438361364143
  0
LINE
  5
21B
100
AcDbEntity
  8
0
  6
CONTINUOUS
 62
           3
100
AcDbLine
 10
3915.899996721676
 20
949.884941714538
 11
3915.899996721676
 21
954.338362353438
  0
LINE
  5
21A
100
AcDbEntity
  8
0
  6
CONTINUOUS
 62
           3
100
AcDbLine
 10
3913.399996777555
 20
949.438361364143
 11
3918.399996665763
 21
949.438361364143
  0
LINE
  5
219
100
AcDbEntity
  8
0
  6
CONTINUOUS
 62
           3
100
AcDbLine
 10
3915.899996721676
 20
949.884941714538
 11
3918.399996665763
 21
949.438361364143
  0
LINE
  5
218
100
AcDbEntity
  8
0
  6
CONTINUOUS
 62
           3
100
AcDbLine
 10
3912.399996613578
 20
954.438364046239
 11
3919.399996829764
 21
954.438364046239
  0
LINE
  5
217
100
AcDbEntity
  8
0
  6
CONTINUOUS
 62
           3
100
AcDbLine
 10
3912.399996613578
 20
955.238362687341
 11
3919.399996829764
 21
955.238362687341
  0
LINE
  5
216
100
AcDbEntity
  8
0
  6
CONTINUOUS
 62
           3
100
AcDbLine
 10
3919.399996829764
 20
959.228506224736
 11
3912.399996613578
 21
959.228506224736
  0
LINE
  5
215
100
AcDbEntity
  8
0
  6
CONTINUOUS
 62
           3
100
AcDbLine
 10
3912.899996695578
 20
957.484831946537
 11
3912.399996613578
 21
957.484831946537
  0
LINE
  5
214
100
AcDbEntity
  8
0
  6
CONTINUOUS
 62
           3
100
AcDbLine
 10
3919.399996829764
 20
957.484831946537
 11
3918.899996747764
 21
957.484831946537
  0
LINE
  5
213
100
AcDbEntity
  8
0
  6
CONTINUOUS
 62
           3
100
AcDbLine
 10
3923.899997101564
 20
960.038361984137
 11
3923.899997101564
 21
954.438364046239
  0
LINE
  5
212
100
AcDbEntity
  8
0
  6
CONTINUOUS
 62
           3
100
AcDbLine
 10
3907.899996341776
 20
960.038361984137
 11
3907.899996341776
 21
954.438364046239
  0
LINE
  5
211
100
AcDbEntity
  8
0
  6
CONTINUOUS
 62
           3
100
AcDbLine
 10
3912.399996613578
 20
954.438364046239
 11
3912.399996613578
 21
960.038361984137
  0
LINE
  5
210
100
AcDbEntity
  8
0
  6
CONTINUOUS
 62
           3
100
AcDbLine
 10
3919.399996829764
 20
960.038361984137
 11
3919.399996829764
 21
954.438364046239
  0
LINE
  5
20F
100
AcDbEntity
  8
0
  6
CONTINUOUS
 62
           3
100
AcDbLine
 10
3912.399996613578
 20
954.438364046239
 11
3907.899996341776
 21
954.438364046239
  0
LINE
  5
20E
100
AcDbEntity
  8
0
  6
CONTINUOUS
 62
           3
100
AcDbLine
 10
3912.399996613578
 20
960.031209426735
 11
3919.399996829764
 21
960.031209426735
  0
LINE
  5
20D
100
AcDbEntity
  8
0
  6
CONTINUOUS
 62
           3
100
AcDbLine
 10
3923.899997101564
 20
954.438364046239
 11
3919.399996829764
 21
954.438364046239
  0
LINE
  5
20C
100
AcDbEntity
  8
0
  6
CONTINUOUS
 62
           3
100
AcDbLine
 10
3917.899996816561
 20
1203.661015170236
 11
3913.899996626775
 21
1203.661015170236
  0
LINE
  5
20B
100
AcDbEntity
  8
0
  6
CONTINUOUS
 62
           3
100
AcDbLine
 10
3912.899996695578
 20
1202.661013143536
 11
3918.899996747764
 21
1202.661013143536
  0
LINE
  5
20A
100
AcDbEntity
  8
0
  6
CONTINUOUS
 62
           3
100
AcDbLine
 10
3861.899995321014
 20
1230.238368647612
 11
3865.899995976712
 21
1230.238368647612
  0
LINE
  5
209
100
AcDbEntity
  8
0
  6
CONTINUOUS
 62
           3
100
AcDbLine
 10
3865.899995976712
 20
1230.238368647612
 11
3869.899996632414
 21
1230.238368647612
  0
LINE
  5
208
100
AcDbEntity
  8
0
  6
CONTINUOUS
 62
           3
100
AcDbLine
 10
3911.569869687347
 20
932.8383560355
 11
3910.899996833474
 21
932.838356035357
  0
LINE
  5
207
100
AcDbEntity
  8
0
  6
CONTINUOUS
 62
           3
100
AcDbLine
 10
3920.899996609866
 20
932.838356035357
 11
3920.230123756006
 21
932.8383560355
  0
LINE
  5
206
100
AcDbEntity
  8
0
  6
CONTINUOUS
 62
           3
100
AcDbLine
 10
3911.569869687347
 20
937.838366168285
 11
3910.899996833474
 21
937.838366168252
  0
LINE
  5
205
100
AcDbEntity
  8
0
  6
CONTINUOUS
 62
           3
100
AcDbLine
 10
3920.230123756006
 20
932.8383560355
 11
3915.899996721676
 21
932.8383560355
  0
LINE
  5
204
100
AcDbEntity
  8
0
  6
CONTINUOUS
 62
           3
100
AcDbLine
 10
3915.899996721676
 20
932.8383560355
 11
3911.569869687347
 21
932.8383560355
  0
LINE
  5
203
100
AcDbEntity
  8
0
  6
CONTINUOUS
 62
           3
100
AcDbLine
 10
3910.126493853974
 20
937.391778367352
 11
3910.126493853974
 21
933.284943836556
  0
LINE
  5
202
100
AcDbEntity
  8
0
  6
CONTINUOUS
 62
           3
100
AcDbLine
 10
3910.126493853974
 20
933.284943836556
 11
3911.569869687347
 21
932.8383560355
  0
LINE
  5
201
100
AcDbEntity
  8
0
  6
CONTINUOUS
 62
           3
100
AcDbLine
 10
3913.013245287846
 20
937.391778367305
 11
3911.569869687347
 21
937.838366168285
  0
LINE
  5
200
100
AcDbEntity
  8
0
  6
CONTINUOUS
 62
           3
100
AcDbLine
 10
3918.786748155364
 20
933.284943836556
 11
3920.230123756006
 21
932.8383560355
  0
LINE
  5
1FF
100
AcDbEntity
  8
0
  6
CONTINUOUS
 62
           3
100
AcDbLine
 10
3921.673499589366
 20
937.391778367352
 11
3921.673499589366
 21
933.284943836556
  0
LINE
  5
1FE
100
AcDbEntity
  8
0
  6
CONTINUOUS
 62
           3
100
AcDbLine
 10
3921.673499589366
 20
937.391778367352
 11
3920.230123756006
 21
937.838366168285
  0
LINE
  5
1FD
100
AcDbEntity
  8
0
  6
CONTINUOUS
 62
           3
100
AcDbLine
 10
3913.013245287846
 20
937.391778367305
 11
3913.013245287846
 21
933.284943836478
  0
LINE
  5
1FC
100
AcDbEntity
  8
0
  6
CONTINUOUS
 62
           3
100
AcDbLine
 10
3918.786748155504
 20
937.391778367305
 11
3918.786748155364
 21
933.284943836556
  0
LINE
  5
1FB
100
AcDbEntity
  8
0
  6
CONTINUOUS
 62
           3
100
AcDbLine
 10
3920.899996609866
 20
937.838366168252
 11
3920.230123756006
 21
937.838366168285
  0
LINE
  5
1FA
100
AcDbEntity
  8
0
  6
CONTINUOUS
 62
           3
100
AcDbLine
 10
3920.899996609866
 20
942.838361399848
 11
3920.230123756006
 21
942.838361399909
  0
LINE
  5
1F9
100
AcDbEntity
  8
0
  6
CONTINUOUS
 62
           3
100
AcDbLine
 10
3911.569869687347
 20
942.838361399909
 11
3910.899996833474
 21
942.838361399848
  0
LINE
  5
1F8
100
AcDbEntity
  8
0
  6
CONTINUOUS
 62
           3
100
AcDbLine
 10
3915.899996721676
 20
937.838366168285
 11
3911.569869687347
 21
937.838366168285
  0
LINE
  5
1F7
100
AcDbEntity
  8
0
  6
CONTINUOUS
 62
           3
100
AcDbLine
 10
3920.230123756006
 20
937.838366168285
 11
3915.899996721676
 21
937.838366168285
  0
LINE
  5
1F6
100
AcDbEntity
  8
0
  6
CONTINUOUS
 62
           3
100
AcDbLine
 10
3915.899996721676
 20
942.838361399909
 11
3911.569869687347
 21
942.838361399909
  0
LINE
  5
1F5
100
AcDbEntity
  8
0
  6
CONTINUOUS
 62
           3
100
AcDbLine
 10
3910.126493853974
 20
942.391781049449
 11
3910.126493853974
 21
938.284939068154
  0
LINE
  5
1F4
100
AcDbEntity
  8
0
  6
CONTINUOUS
 62
           3
100
AcDbLine
 10
3910.126493853974
 20
938.284939068154
 11
3911.569869687347
 21
937.838366168285
  0
LINE
  5
1F3
100
AcDbEntity
  8
0
  6
CONTINUOUS
 62
           3
100
AcDbLine
 10
3913.013245287846
 20
942.39178104951
 11
3911.569869687347
 21
942.838361399909
  0
LINE
  5
1F2
100
AcDbEntity
  8
0
  6
CONTINUOUS
 62
           3
100
AcDbLine
 10
3920.230123756006
 20
942.838361399909
 11
3915.899996721676
 21
942.838361399909
  0
LINE
  5
1F1
100
AcDbEntity
  8
0
  6
CONTINUOUS
 62
           3
100
AcDbLine
 10
3918.786748155364
 20
938.284939068154
 11
3920.230123756006
 21
937.838366168285
  0
LINE
  5
1F0
100
AcDbEntity
  8
0
  6
CONTINUOUS
 62
           3
100
AcDbLine
 10
3921.673499589366
 20
942.391781049449
 11
3921.673499589366
 21
938.284939068154
  0
LINE
  5
1EF
100
AcDbEntity
  8
0
  6
CONTINUOUS
 62
           3
100
AcDbLine
 10
3921.673499589366
 20
942.391781049449
 11
3920.230123756006
 21
942.838361399909
  0
LINE
  5
1EE
100
AcDbEntity
  8
0
  6
CONTINUOUS
 62
           3
100
AcDbLine
 10
3913.013245287846
 20
942.39178104951
 11
3913.013245287846
 21
938.284939068103
  0
LINE
  5
1ED
100
AcDbEntity
  8
0
  6
CONTINUOUS
 62
           3
100
AcDbLine
 10
3918.786748155504
 20
942.39178104951
 11
3918.786748155364
 21
938.284939068154
  0
LINE
  5
1EC
100
AcDbEntity
  8
0
  6
CONTINUOUS
 62
           3
100
AcDbLine
 10
3910.126493853974
 20
929.79178382716
 11
3910.126493853974
 21
925.684949296366
  0
LINE
  5
1EB
100
AcDbEntity
  8
0
  6
CONTINUOUS
 62
           3
100
AcDbLine
 10
3910.126493853974
 20
925.684949296366
 11
3911.569869687347
 21
925.238361495291
  0
LINE
  5
1EA
100
AcDbEntity
  8
0
  6
CONTINUOUS
 62
           3
100
AcDbLine
 10
3913.013245287846
 20
929.791783827101
 11
3911.569869687347
 21
930.238356726916
  0
LINE
  5
1E9
100
AcDbEntity
  8
0
  6
CONTINUOUS
 62
           3
100
AcDbLine
 10
3918.786748155364
 20
925.684949296366
 11
3920.230123755966
 21
925.238361495164
  0
LINE
  5
1E8
100
AcDbEntity
  8
0
  6
CONTINUOUS
 62
           3
100
AcDbLine
 10
3921.673499589366
 20
929.79178382716
 11
3921.673499589366
 21
925.684949296366
  0
LINE
  5
1E7
100
AcDbEntity
  8
0
  6
CONTINUOUS
 62
           3
100
AcDbLine
 10
3921.673499589366
 20
929.79178382716
 11
3920.230123756006
 21
930.238356726916
  0
LINE
  5
1E6
100
AcDbEntity
  8
0
  6
CONTINUOUS
 62
           3
100
AcDbLine
 10
3913.013245287846
 20
929.791783827101
 11
3913.013245287846
 21
925.684949296267
  0
LINE
  5
1E5
100
AcDbEntity
  8
0
  6
CONTINUOUS
 62
           3
100
AcDbLine
 10
3918.786748155504
 20
929.791783827101
 11
3918.786748155364
 21
925.684949296366
  0
LINE
  5
1E4
100
AcDbEntity
  8
0
  6
CONTINUOUS
 62
           3
100
AcDbLine
 10
3910.899996833474
 20
925.238361495164
 11
3911.569869687347
 21
925.238361495291
  0
LINE
  5
1E3
100
AcDbEntity
  8
0
  6
CONTINUOUS
 62
           3
100
AcDbLine
 10
3920.899996609866
 20
920.238366263565
 11
3920.230123756006
 21
920.238366263663
  0
LINE
  5
1E2
100
AcDbEntity
  8
0
  6
CONTINUOUS
 62
           3
100
AcDbLine
 10
3910.899996833474
 20
920.238366263565
 11
3911.569869687347
 21
920.238366263663
  0
LINE
  5
1E1
100
AcDbEntity
  8
0
  6
CONTINUOUS
 62
           3
100
AcDbLine
 10
3921.673499589366
 20
920.684939163467
 11
3920.230123756006
 21
920.238366263663
  0
LINE
  5
1E0
100
AcDbEntity
  8
0
  6
CONTINUOUS
 62
           3
100
AcDbLine
 10
3921.673499589366
 20
920.684939163467
 11
3921.673499589366
 21
924.791773694265
  0
LINE
  5
1DF
100
AcDbEntity
  8
0
  6
CONTINUOUS
 62
           3
100
AcDbLine
 10
3910.126493853974
 20
920.684939163467
 11
3910.126493853974
 21
924.791773694265
  0
LINE
  5
1DE
100
AcDbEntity
  8
0
  6
CONTINUOUS
 62
           3
100
AcDbLine
 10
3915.899996721676
 20
925.238361495291
 11
3920.230123755966
 21
925.238361495164
  0
LINE
  5
1DD
100
AcDbEntity
  8
0
  6
CONTINUOUS
 62
           3
100
AcDbLine
 10
3918.786748155504
 20
924.791773694312
 11
3920.230123755966
 21
925.238361495164
  0
LINE
  5
1DC
100
AcDbEntity
  8
0
  6
CONTINUOUS
 62
           3
100
AcDbLine
 10
3911.569869687347
 20
925.238361495291
 11
3915.899996721676
 21
925.238361495291
  0
LINE
  5
1DB
100
AcDbEntity
  8
0
  6
CONTINUOUS
 62
           3
100
AcDbLine
 10
3911.569869687347
 20
920.238366263663
 11
3915.899996721676
 21
920.238366263565
  0
LINE
  5
1DA
100
AcDbEntity
  8
0
  6
CONTINUOUS
 62
           3
100
AcDbLine
 10
3915.899996721676
 20
920.238366263565
 11
3920.230123756006
 21
920.238366263663
  0
LINE
  5
1D9
100
AcDbEntity
  8
0
  6
CONTINUOUS
 62
           3
100
AcDbLine
 10
3913.013245287972
 20
924.791773694265
 11
3915.899996721676
 21
925.238361495291
  0
LINE
  5
1D8
100
AcDbEntity
  8
0
  6
CONTINUOUS
 62
           3
100
AcDbLine
 10
3913.013245287846
 20
920.684939163485
 11
3913.013245287972
 21
924.791773694265
  0
LINE
  5
1D7
100
AcDbEntity
  8
0
  6
CONTINUOUS
 62
           3
100
AcDbLine
 10
3918.786748155364
 20
920.684939163467
 11
3915.899996721676
 21
920.238366263565
  0
LINE
  5
1D6
100
AcDbEntity
  8
0
  6
CONTINUOUS
 62
           3
100
AcDbLine
 10
3918.786748155364
 20
920.684939163467
 11
3918.786748155504
 21
924.791773694312
  0
LINE
  5
1D5
100
AcDbEntity
  8
0
  6
CONTINUOUS
 62
           3
100
AcDbLine
 10
3972.899996751325
 20
959.038359957437
 11
3972.899996751325
 21
1109.038362192611
  0
LINE
  5
1D4
100
AcDbEntity
  8
0
  6
CONTINUOUS
 62
           3
100
AcDbLine
 10
3861.899995321014
 20
1109.038362192611
 11
3858.899996692011
 21
1109.038362192611
  0
LINE
  5
1D3
100
AcDbEntity
  8
0
  6
CONTINUOUS
 62
           3
100
AcDbLine
 10
3912.899996695578
 20
1109.038362192611
 11
3869.899996632414
 21
1109.038362192611
  0
LINE
  5
1D2
100
AcDbEntity
  8
0
  6
CONTINUOUS
 62
           3
100
AcDbLine
 10
3961.899996810933
 20
1109.038362192611
 11
3918.899996747764
 21
1109.038362192611
  0
LINE
  5
1D1
100
AcDbEntity
  8
0
  6
CONTINUOUS
 62
           3
100
AcDbLine
 10
3972.899996751325
 20
1109.038362192611
 11
3969.899998122327
 21
1109.038362192611
  0
LINE
  5
1D0
100
AcDbEntity
  8
0
  6
CONTINUOUS
 62
           3
100
AcDbLine
 10
3858.899996692011
 20
1109.038362192611
 11
3858.899996692011
 21
959.038359957437
  0
LINE
  5
1CF
100
AcDbEntity
  8
0
  6
CONTINUOUS
 62
           3
100
AcDbLine
 10
3969.899998122327
 20
959.038359957437
 11
3972.899996751325
 21
959.038359957437
  0
LINE
  5
1CE
100
AcDbEntity
  8
0
  6
CONTINUOUS
 62
           3
100
AcDbLine
 10
3923.899997101564
 20
959.038359957437
 11
3961.899996810933
 21
959.038359957437
  0
LINE
  5
1CD
100
AcDbEntity
  8
0
  6
CONTINUOUS
 62
           3
100
AcDbLine
 10
3869.899996632414
 20
959.038359957437
 11
3907.899996341776
 21
959.038359957437
  0
LINE
  5
1CC
100
AcDbEntity
  8
0
  6
CONTINUOUS
 62
           3
100
AcDbLine
 10
3858.899996692011
 20
959.038359957437
 11
3861.899995321014
 21
959.038359957437
  0
LINE
  5
1CB
100
AcDbEntity
  8
0
  6
CONTINUOUS
 62
           3
100
AcDbLine
 10
3909.426494029873
 20
954.338362091238
 11
3922.373499413463
 21
954.338362091238
  0
LINE
  5
1CA
100
AcDbEntity
  8
0
  6
CONTINUOUS
 62
           3
100
AcDbLine
 10
3923.899997101564
 20
960.038361984137
 11
3919.399996829764
 21
960.038361984137
  0
LINE
  5
1C9
100
AcDbEntity
  8
0
  6
CONTINUOUS
 62
           3
100
AcDbLine
 10
3912.399996613578
 20
960.038361984137
 11
3907.899996341776
 21
960.038361984137
  0
LINE
  5
1C8
100
AcDbEntity
  8
0
  6
CONTINUOUS
 62
           3
100
AcDbLine
 10
3913.899996626775
 20
1203.661015170236
 11
3912.899996695578
 21
1202.661013143536
  0
LINE
  5
1C7
100
AcDbEntity
  8
0
  6
CONTINUOUS
 62
           3
100
AcDbLine
 10
3918.899996747764
 20
1202.661013143536
 11
3917.899996816561
 21
1203.661015170236
  0
LINE
  5
1C6
100
AcDbEntity
  8
0
  6
CONTINUOUS
 62
           3
100
AcDbLine
 10
3912.899996695578
 20
932.838356035357
 11
3912.899996695578
 21
931.838368909956
  0
LINE
  5
1C5
100
AcDbEntity
  8
0
  6
CONTINUOUS
 62
           3
100
AcDbLine
 10
3912.899996695578
 20
949.438361364143
 11
3912.899996695578
 21
942.838361399848
  0
LINE
  5
1C4
100
AcDbEntity
  8
0
  6
CONTINUOUS
 62
           3
100
AcDbLine
 10
3912.899996695578
 20
958.195788698838
 11
3912.899996695578
 21
955.238362687341
  0
LINE
  5
1C3
100
AcDbEntity
  8
0
  6
CONTINUOUS
 62
           3
100
AcDbLine
 10
3912.899996695578
 20
1198.638355272239
 11
3912.899996695578
 21
960.031209426735
  0
LINE
  5
1C2
100
AcDbEntity
  8
0
  6
CONTINUOUS
 62
           3
100
AcDbLine
 10
3912.899996695578
 20
1202.661013143536
 11
3912.899996695578
 21
1200.238367455439
  0
LINE
  5
1C1
100
AcDbEntity
  8
0
  6
CONTINUOUS
 62
           3
100
AcDbLine
 10
3918.899996747764
 20
1200.238367455439
 11
3918.899996747764
 21
1202.661013143536
  0
LINE
  5
1C0
100
AcDbEntity
  8
0
  6
CONTINUOUS
 62
           3
100
AcDbLine
 10
3918.899996747764
 20
960.031209426735
 11
3918.899996747764
 21
1198.638355272239
  0
LINE
  5
1BF
100
AcDbEntity
  8
0
  6
CONTINUOUS
 62
           3
100
AcDbLine
 10
3918.899996747764
 20
955.238362687341
 11
3918.899996747764
 21
958.195788698838
  0
LINE
  5
1BE
100
AcDbEntity
  8
0
  6
CONTINUOUS
 62
           3
100
AcDbLine
 10
3918.899996747764
 20
942.838361399848
 11
3918.899996747764
 21
949.438361364143
  0
LINE
  5
1BD
100
AcDbEntity
  8
0
  6
CONTINUOUS
 62
           3
100
AcDbLine
 10
3918.899996747764
 20
931.838368909956
 11
3918.899996747764
 21
932.838356035357
  0
LINE
  5
1BC
100
AcDbEntity
  8
0
  6
CONTINUOUS
 62
           3
100
AcDbLine
 10
3869.899996632414
 20
1200.238367455439
 11
3869.899996632414
 21
1230.238368647612
  0
LINE
  5
1BB
100
AcDbEntity
  8
0
  6
CONTINUOUS
 62
           3
100
AcDbLine
 10
3869.899996632414
 20
1115.238362836207
 11
3869.899996632414
 21
1198.638355272239
  0
LINE
  5
1BA
100
AcDbEntity
  8
0
  6
CONTINUOUS
 62
           3
100
AcDbLine
 10
3869.899996632414
 20
956.438360648836
 11
3869.899996632414
 21
1114.038361149308
  0
LINE
  5
1B9
100
AcDbEntity
  8
0
  6
CONTINUOUS
 62
           3
100
AcDbLine
 10
3869.899996632414
 20
931.838368909956
 11
3869.899996632414
 21
955.238362687341
  0
LINE
  5
1B8
100
AcDbEntity
  8
0
  6
CONTINUOUS
 62
           3
100
AcDbLine
 10
3861.899995321014
 20
930.238356727058
 11
3861.899995321014
 21
880.238359707199
  0
LINE
  5
1B7
100
AcDbEntity
  8
0
  6
CONTINUOUS
 62
           3
100
AcDbLine
 10
3861.899995321014
 20
955.238362687341
 11
3861.899995321014
 21
931.838368909956
  0
LINE
  5
1B6
100
AcDbEntity
  8
0
  6
CONTINUOUS
 62
           3
100
AcDbLine
 10
3861.899995321014
 20
1114.038361149308
 11
3861.899995321014
 21
956.438360648836
  0
LINE
  5
1B5
100
AcDbEntity
  8
0
  6
CONTINUOUS
 62
           3
100
AcDbLine
 10
3861.899995321014
 20
1198.638355272239
 11
3861.899995321014
 21
1115.238362836207
  0
LINE
  5
1B4
100
AcDbEntity
  8
0
  6
CONTINUOUS
 62
           3
100
AcDbLine
 10
3861.899995321014
 20
1230.238368647612
 11
3861.899995321014
 21
1200.238367455439
  0
LINE
  5
1B3
100
AcDbEntity
  8
0
  6
CONTINUOUS
 62
           3
100
AcDbLine
 10
3969.899998122327
 20
1200.238367455439
 11
3969.899998122327
 21
1206.238362091244
  0
LINE
  5
1B2
100
AcDbEntity
  8
0
  6
CONTINUOUS
 62
           3
100
AcDbLine
 10
3969.899998122327
 20
1115.238362836207
 11
3969.899998122327
 21
1198.638355272239
  0
LINE
  5
1B1
100
AcDbEntity
  8
0
  6
CONTINUOUS
 62
           3
100
AcDbLine
 10
3969.899998122327
 20
956.438360648836
 11
3969.899998122327
 21
1114.038361149308
  0
LINE
  5
1B0
100
AcDbEntity
  8
0
  6
CONTINUOUS
 62
           3
100
AcDbLine
 10
3969.899998122327
 20
931.838368909956
 11
3969.899998122327
 21
955.238362687341
  0
LINE
  5
1AF
100
AcDbEntity
  8
0
  6
CONTINUOUS
 62
           3
100
AcDbLine
 10
3969.899998122327
 20
880.238359707199
 11
3969.899998122327
 21
930.238356727058
  0
LINE
  5
1AE
100
AcDbEntity
  8
0
  6
CONTINUOUS
 62
           3
100
AcDbLine
 10
3961.899996810933
 20
930.238356727058
 11
3961.899996810933
 21
880.238359707199
  0
LINE
  5
1AD
100
AcDbEntity
  8
0
  6
CONTINUOUS
 62
           3
100
AcDbLine
 10
3961.899996810933
 20
955.238362687341
 11
3961.899996810933
 21
931.838368909956
  0
LINE
  5
1AC
100
AcDbEntity
  8
0
  6
CONTINUOUS
 62
           3
100
AcDbLine
 10
3961.899996810933
 20
1114.038361149308
 11
3961.899996810933
 21
956.438360648836
  0
LINE
  5
1AB
100
AcDbEntity
  8
0
  6
CONTINUOUS
 62
           3
100
AcDbLine
 10
3961.899996810933
 20
1198.638355272239
 11
3961.899996810933
 21
1115.238362836207
  0
LINE
  5
1AA
100
AcDbEntity
  8
0
  6
CONTINUOUS
 62
           3
100
AcDbLine
 10
3961.899996810933
 20
1206.238362091243
 11
3961.899996810933
 21
1200.238367455439
  0
LINE
  5
1A9
100
AcDbEntity
  8
0
  6
CONTINUOUS
 62
           3
100
AcDbLine
 10
3910.126493853974
 20
933.284943836556
 11
3910.899996833474
 21
932.838356035357
  0
LINE
  5
1A8
100
AcDbEntity
  8
0
  6
CONTINUOUS
 62
           3
100
AcDbLine
 10
3920.899996609866
 20
932.838356035357
 11
3921.673499589366
 21
933.284943836556
  0
LINE
  5
1A7
100
AcDbEntity
  8
0
  6
CONTINUOUS
 62
           3
100
AcDbLine
 10
3921.673499589366
 20
937.391778367352
 11
3920.899996609866
 21
937.838366168252
  0
LINE
  5
1A6
100
AcDbEntity
  8
0
  6
CONTINUOUS
 62
           3
100
AcDbLine
 10
3910.899996833474
 20
937.838366168252
 11
3910.126493853974
 21
937.391778367352
  0
LINE
  5
1A5
100
AcDbEntity
  8
0
  6
CONTINUOUS
 62
           3
100
AcDbLine
 10
3910.126493853974
 20
938.284939068154
 11
3910.899996833474
 21
937.838366168252
  0
LINE
  5
1A4
100
AcDbEntity
  8
0
  6
CONTINUOUS
 62
           3
100
AcDbLine
 10
3920.899996609866
 20
937.838366168252
 11
3921.673499589366
 21
938.284939068154
  0
LINE
  5
1A3
100
AcDbEntity
  8
0
  6
CONTINUOUS
 62
           3
100
AcDbLine
 10
3921.673499589366
 20
942.391781049449
 11
3920.899996609866
 21
942.838361399848
  0
LINE
  5
1A2
100
AcDbEntity
  8
0
  6
CONTINUOUS
 62
           3
100
AcDbLine
 10
3910.899996833474
 20
942.838361399848
 11
3910.126493853974
 21
942.391781049449
  0
LINE
  5
1A1
100
AcDbEntity
  8
0
  6
CONTINUOUS
 62
           3
100
AcDbLine
 10
3910.126493853974
 20
925.684949296366
 11
3910.899996833474
 21
925.238361495164
  0
LINE
  5
1A0
100
AcDbEntity
  8
0
  6
CONTINUOUS
 62
           3
100
AcDbLine
 10
3920.899996609866
 20
925.238361495164
 11
3921.673499589366
 21
925.684949296366
  0
LINE
  5
19F
100
AcDbEntity
  8
0
  6
CONTINUOUS
 62
           3
100
AcDbLine
 10
3921.673499589366
 20
929.79178382716
 11
3920.899996609866
 21
930.238356727058
  0
LINE
  5
19E
100
AcDbEntity
  8
0
  6
CONTINUOUS
 62
           3
100
AcDbLine
 10
3910.899996833474
 20
930.238356727058
 11
3910.126493853974
 21
929.79178382716
  0
LINE
  5
19D
100
AcDbEntity
  8
0
  6
CONTINUOUS
 62
           3
100
AcDbLine
 10
3921.673499589366
 20
924.791773694265
 11
3920.899996609866
 21
925.238361495164
  0
LINE
  5
19C
100
AcDbEntity
  8
0
  6
CONTINUOUS
 62
           3
100
AcDbLine
 10
3910.899996833474
 20
925.238361495164
 11
3910.126493853974
 21
924.791773694265
  0
LINE
  5
19B
100
AcDbEntity
  8
0
  6
CONTINUOUS
 62
           3
100
AcDbLine
 10
3920.899996609866
 20
920.238366263565
 11
3921.673499589366
 21
920.684939163467
  0
LINE
  5
19A
100
AcDbEntity
  8
0
  6
CONTINUOUS
 62
           3
100
AcDbLine
 10
3910.126493853974
 20
920.684939163467
 11
3910.899996833474
 21
920.238366263565
  0
LINE
  5
199
100
AcDbEntity
  8
0
  6
CONTINUOUS
 62
           3
100
AcDbLine
 10
3869.899996632414
 20
880.238359707199
 11
3869.899996632414
 21
930.238356727058
  0
LINE
  5
198
100
AcDbEntity
  8
1
  6
CONTINUOUS
 62
           3
100
AcDbLine
 10
4397.500000000002
 20
1494.238362091243
 11
4249.899996810933
 21
1494.238362091243
  0
LINE
  5
197
100
AcDbEntity
  8
1
  6
CONTINUOUS
 62
           3
100
AcDbLine
 10
4397.500000000002
 20
1486.238362091245
 11
4249.899998122326
 21
1486.238362091245
  0
LINE
  5
196
100
AcDbEntity
  8
1
  6
CONTINUOUS
 62
           4
100
AcDbLine
 10
134.432661752784
 20
5256.006136313678
 11
117.908702762046
 21
5256.006136313678
  0
LINE
  5
195
100
AcDbEntity
  8
1
  6
CONTINUOUS
 62
           4
100
AcDbLine
 10
134.432661752784
 20
5371.006136313678
 11
117.908702762046
 21
5371.006136313678
  0
LINE
  5
194
100
AcDbEntity
  8
1
  6
CONTINUOUS
 62
           7
100
AcDbLine
 10
185.000000000001
 20
5250.006136313678
 11
144.824966598197
 21
5250.006136313678
  0
LINE
  5
193
100
AcDbEntity
  8
1
  6
CONTINUOUS
 62
           7
100
AcDbLine
 10
144.824966598197
 20
5377.006136313678
 11
185.000000000001
 21
5377.006136313678
  0
LINE
  5
192
100
AcDbEntity
  8
1
  6
CONTINUOUS
 62
           7
100
AcDbLine
 10
132.824966598197
 20
5262.006136313678
 11
132.824966598197
 21
5365.006136313678
  0
LINE
  5
191
100
AcDbEntity
  8
1
  6
CONTINUOUS
 62
           7
100
AcDbLine
 10
197.000000000001
 20
5365.006136313678
 11
197.000000000001
 21
5262.006136313678
  0
LINE
  5
190
100
AcDbEntity
  8
1
  6
CONTINUOUS
 62
           4
100
AcDbLine
 10
-689.999999999996
 20
5819.006136313678
 11
40.000000000003
 21
5819.006136313678
  0
LINE
  5
18F
100
AcDbEntity
  8
1
  6
CONTINUOUS
 62
           7
100
AcDbLine
 10
40.000000000003
 20
5823.506136313678
 11
-689.999999999996
 21
5823.506136313678
  0
LINE
  5
18E
100
AcDbEntity
  8
1
  6
CONTINUOUS
 62
           4
100
AcDbLine
 10
40.000000000003
 20
5828.006136313678
 11
-689.999999999996
 21
5828.006136313678
  0
LINE
  5
18D
100
AcDbEntity
  8
1
  6
DOT_CENTER
 62
           2
100
AcDbLine
 10
-324.999999999997
 20
5932.395105236627
 11
-324.999999999997
 21
5500.158008769738
  0
LINE
  5
18C
100
AcDbEntity
  8
1
  6
CONTINUOUS
 62
           7
100
AcDbLine
 10
0.000000000001
 20
5773.506136313678
 11
0.000000000003
 21
5783.506136313678
  0
LINE
  5
18B
100
AcDbEntity
  8
1
  6
CONTINUOUS
 62
           7
100
AcDbLine
 10
-649.999999999996
 20
5783.506136313678
 11
-649.999999999996
 21
5773.506136313678
  0
LINE
  5
18A
100
AcDbEntity
  8
1
  6
CONTINUOUS
 62
           7
100
AcDbLine
 10
-659.999999999996
 20
5763.506136313678
 11
-649.999999999996
 21
5773.506136313678
  0
LINE
  5
189
100
AcDbEntity
  8
1
  6
CONTINUOUS
 62
           7
100
AcDbLine
 10
31.875234341348
 20
5718.296610931303
 11
0.000000000001
 21
5773.506136313678
  0
LINE
  5
188
100
AcDbEntity
  8
1
  6
CONTINUOUS
 62
           7
100
AcDbLine
 10
-659.999999999996
 20
5763.506136313678
 11
-659.999999999996
 21
5363.506136313677
  0
LINE
  5
187
100
AcDbEntity
  8
1
  6
CONTINUOUS
 62
           7
100
AcDbLine
 10
-689.999999999996
 20
5858.506136313678
 11
-689.999999999996
 21
5823.506136313678
  0
LINE
  5
186
100
AcDbEntity
  8
1
  6
CONTINUOUS
 62
           7
100
AcDbLine
 10
-689.999999999996
 20
5858.506136313678
 11
-684.999999999996
 21
5863.506136313678
  0
LINE
  5
185
100
AcDbEntity
  8
1
  6
CONTINUOUS
 62
           7
100
AcDbLine
 10
35.000000000003
 20
5863.506136313678
 11
-684.999999999996
 21
5863.506136313678
  0
LINE
  5
184
100
AcDbEntity
  8
1
  6
CONTINUOUS
 62
           7
100
AcDbLine
 10
35.000000000003
 20
5863.506136313678
 11
40.000000000003
 21
5858.506136313678
  0
LINE
  5
183
100
AcDbEntity
  8
1
  6
CONTINUOUS
 62
           7
100
AcDbLine
 10
40.000000000003
 20
5823.506136313678
 11
40.000000000003
 21
5858.506136313678
  0
LINE
  5
182
100
AcDbEntity
  8
1
  6
CONTINUOUS
 62
           7
100
AcDbLine
 10
40.000000000003
 20
5788.506136313678
 11
40.000000000003
 21
5823.506136313678
  0
LINE
  5
181
100
AcDbEntity
  8
1
  6
CONTINUOUS
 62
           7
100
AcDbLine
 10
40.000000000003
 20
5788.506136313678
 11
35.000000000003
 21
5783.506136313678
  0
LINE
  5
180
100
AcDbEntity
  8
1
  6
CONTINUOUS
 62
           7
100
AcDbLine
 10
-684.999999999996
 20
5783.506136313678
 11
35.000000000003
 21
5783.506136313678
  0
LINE
  5
17F
100
AcDbEntity
  8
1
  6
CONTINUOUS
 62
           7
100
AcDbLine
 10
-684.999999999996
 20
5783.506136313678
 11
-689.999999999996
 21
5788.506136313678
  0
LINE
  5
17E
100
AcDbEntity
  8
1
  6
CONTINUOUS
 62
           7
100
AcDbLine
 10
-689.999999999996
 20
5823.506136313678
 11
-689.999999999996
 21
5788.506136313678
  0
LINE
  5
17D
100
AcDbEntity
  8
1
  6
CONTINUOUS
 62
           7
100
AcDbLine
 10
445.000000000003
 20
5413.506136313678
 11
170.000000200063
 21
5688.506136313678
  0
LINE
  5
17C
100
AcDbEntity
  8
1
  6
CONTINUOUS
 62
           7
100
AcDbLine
 10
-645.983368801932
 20
5309.037486137508
 11
-56.963420073539
 21
4720.017537409111
  0
LINE
  5
17B
100
AcDbEntity
  8
1
  6
CONTINUOUS
 62
           7
100
AcDbLine
 10
-179.999999999997
 20
5783.506136313678
 11
-649.999999999998
 21
5313.506136313678
  0
LINE
  5
17A
100
AcDbEntity
  8
1
  6
CONTINUOUS
 62
           7
100
AcDbLine
 10
-650.226009489052
 20
5313.280126824628
 11
-645.983368801932
 21
5309.037486137508
  0
LINE
  5
179
100
AcDbEntity
  8
1
  6
CONTINUOUS
 62
           7
100
AcDbLine
 10
-52.720779386419
 20
4715.774896721991
 11
470.538238691626
 21
5239.033914800036
  0
LINE
  5
178
100
AcDbEntity
  8
1
  6
CONTINUOUS
 62
           7
100
AcDbLine
 10
-56.963420073539
 20
4720.017537409111
 11
-52.720779386419
 21
4715.774896721991
  0
LINE
  5
177
100
AcDbEntity
  8
1
  6
CONTINUOUS
 62
           7
100
AcDbLine
 10
-649.999999999998
 20
5313.506136313678
 11
-650.226009489052
 21
5313.280126824628
  0
LINE
  5
176
100
AcDbEntity
  8
1
  6
CONTINUOUS
 62
           7
100
AcDbLine
 10
216.000000000001
 20
5097.50613631368
 11
216.000000000003
 21
5583.506136313678
  0
LINE
  5
175
100
AcDbEntity
  8
1
  6
CONTINUOUS
 62
           7
100
AcDbLine
 10
-215.999999999997
 20
5097.50613631368
 11
270.000000000003
 21
5097.50613631368
  0
LINE
  5
174
100
AcDbEntity
  8
1
  6
CONTINUOUS
 62
           7
100
AcDbLine
 10
-215.999999999999
 20
5529.50613631368
 11
-215.999999999997
 21
5043.506136313678
  0
LINE
  5
173
100
AcDbEntity
  8
1
  6
CONTINUOUS
 62
           7
100
AcDbLine
 10
216.000000000004
 20
5529.50613631368
 11
-269.999999999997
 21
5529.50613631368
  0
LINE
  5
172
100
AcDbEntity
  8
1
  6
CONTINUOUS
 62
           7
100
AcDbLine
 10
-52.72077938642
 20
2215.238362091245
 11
-52.72077938642
 21
2230.238362091245
  0
LINE
  5
171
100
AcDbEntity
  8
1
  6
CONTINUOUS
 62
           7
100
AcDbLine
 10
197.000000000001
 20
2853.538362091244
 11
197.000000000001
 21
2777.538362091244
  0
LINE
  5
170
100
AcDbEntity
  8
1
  6
CONTINUOUS
 62
           7
100
AcDbLine
 10
122.4963968
 20
2777.538362091244
 11
122.4963968
 21
2853.538362091244
  0
LINE
  5
16F
100
AcDbEntity
  8
1
  6
CONTINUOUS
 62
           7
100
AcDbLine
 10
134.4963968
 20
2865.538362091244
 11
185.000000000001
 21
2865.538362091244
  0
LINE
  5
16E
100
AcDbEntity
  8
1
  6
CONTINUOUS
 62
           7
100
AcDbLine
 10
185.000000000001
 20
2765.538362091244
 11
134.4963968
 21
2765.538362091244
  0
LINE
  5
16D
100
AcDbEntity
  8
2
  6
CONTINUOUS
 62
           4
100
AcDbLine
 10
109.2423704
 20
2724.338362091244
 11
-112.242370399999
 21
2724.338362091244
  0
LINE
  5
16C
100
AcDbEntity
  8
7
  6
CONTINUOUS
 62
           7
100
AcDbLine
 10
125.0
 20
3010.470227339286
 11
125.0
 21
2977.425181291243
  0
LINE
  5
16B
100
AcDbEntity
  8
7
  6
CONTINUOUS
 62
           7
100
AcDbLine
 10
-125.0
 20
3010.470227339286
 11
-121.400000000001
 21
3043.371990491242
  0
LINE
  5
16A
100
AcDbEntity
  8
1
  6
CONTINUOUS
 62
           4
100
AcDbLine
 10
125.0
 20
3010.470227339286
 11
-125.0
 21
3010.470227339286
  0
LINE
  5
169
100
AcDbEntity
  8
2
  6
CONTINUOUS
 62
           7
100
AcDbLine
 10
-112.242370399999
 20
2724.338362091244
 11
-125.496396800001
 21
2756.138362091247
  0
LINE
  5
168
100
AcDbEntity
  8
2
  6
CONTINUOUS
 62
           7
100
AcDbLine
 10
-125.496396800001
 20
2831.388362091247
 11
-125.496396800001
 21
2756.138362091247
  0
LINE
  5
167
100
AcDbEntity
  8
2
  6
CONTINUOUS
 62
           7
100
AcDbLine
 10
-119.7446492
 20
2977.425181291243
 11
-125.496396800001
 21
2963.625181291243
  0
LINE
  5
166
100
AcDbEntity
  8
2
  6
CONTINUOUS
 62
           7
100
AcDbLine
 10
-125.496396800001
 20
2831.388362091247
 11
-125.496396800001
 21
2963.625181291243
  0
LINE
  5
165
100
AcDbEntity
  8
2
  6
CONTINUOUS
 62
           4
100
AcDbLine
 10
-107.060000000001
 20
2724.338362091244
 11
-107.060000000001
 21
2714.238362091245
  0
LINE
  5
164
100
AcDbEntity
  8
2
  6
CONTINUOUS
 62
           4
100
AcDbLine
 10
104.06
 20
2714.238362091245
 11
104.06
 21
2724.338362091244
  0
LINE
  5
163
100
AcDbEntity
  8
2
  6
CONTINUOUS
 62
           7
100
AcDbLine
 10
122.4963968
 20
2963.625181291242
 11
122.4963968
 21
2831.388362091247
  0
LINE
  5
162
100
AcDbEntity
  8
2
  6
CONTINUOUS
 62
           7
100
AcDbLine
 10
122.4963968
 20
2963.625181291242
 11
116.7446492
 21
2977.425181291243
  0
LINE
  5
161
100
AcDbEntity
  8
2
  6
CONTINUOUS
 62
           7
100
AcDbLine
 10
122.4963968
 20
2756.138362091247
 11
122.4963968
 21
2831.388362091247
  0
LINE
  5
160
100
AcDbEntity
  8
2
  6
CONTINUOUS
 62
           7
100
AcDbLine
 10
122.4963968
 20
2756.138362091247
 11
109.2423704
 21
2724.338362091244
  0
LINE
  5
15F
100
AcDbEntity
  8
7
  6
CONTINUOUS
 62
           7
100
AcDbLine
 10
-88.52
 20
3073.238362091242
 11
85.52
 21
3073.238362091242
  0
LINE
  5
15E
100
AcDbEntity
  8
7
  6
CONTINUOUS
 62
           7
100
AcDbLine
 10
90.3834164
 20
3067.721758091243
 11
115.1312408
 21
3047.872397291244
  0
LINE
  5
15D
100
AcDbEntity
  8
7
  6
CONTINUOUS
 62
           4
100
AcDbLine
 10
-120.1904276
 20
3047.438362091244
 11
117.56
 21
3047.438362091244
  0
LINE
  5
15C
100
AcDbEntity
  8
7
  6
CONTINUOUS
 62
           7
100
AcDbLine
 10
121.4
 20
3043.598362091244
 11
125.0
 21
3010.470227339286
  0
LINE
  5
15B
100
AcDbEntity
  8
7
  6
CONTINUOUS
 62
           7
100
AcDbLine
 10
125.0
 20
2977.425181291243
 11
-125.0
 21
2977.425181291243
  0
LINE
  5
15A
100
AcDbEntity
  8
7
  6
CONTINUOUS
 62
           7
100
AcDbLine
 10
-125.0
 20
2977.425181291243
 11
-125.0
 21
3010.470227339286
  0
LINE
  5
159
100
AcDbEntity
  8
7
  6
CONTINUOUS
 62
           7
100
AcDbLine
 10
-93.3834176
 20
3067.721758091243
 11
-117.977411600001
 21
3049.634099291243
  0
LINE
  5
158
100
AcDbEntity
  8
1
  6
DOT_CENTER
 62
           2
100
AcDbLine
 10
533.829689541416
 20
2450.238362091248
 11
-732.147676803783
 21
2450.238362091246
  0
LINE
  5
157
100
AcDbEntity
  8
1
  6
CONTINUOUS
 62
           2
100
AcDbLine
 10
467.974062000609
 20
2630.238362091248
 11
425.133110726256
 21
2630.238362091248
  0
LINE
  5
156
100
AcDbEntity
  8
1
  6
CONTINUOUS
 62
           2
100
AcDbLine
 10
425.133110726256
 20
2270.238362091247
 11
467.974062000609
 21
2270.238362091248
  0
LINE
  5
155
100
AcDbEntity
  8
1
  6
CONTINUOUS
 62
           2
100
AcDbLine
 10
425.133110726256
 20
2630.238362091248
 11
425.133110726256
 21
2270.238362091247
  0
LINE
  5
154
100
AcDbEntity
  8
1
  6
CONTINUOUS
 62
           7
100
AcDbLine
 10
-649.226009489053
 20
2230.238362091242
 11
-649.226009489053
 21
2215.238362091245
  0
LINE
  5
153
100
AcDbEntity
  8
1
  6
CONTINUOUS
 62
           7
100
AcDbLine
 10
-648.999999999995
 20
2670.238362091245
 11
-648.999999999994
 21
2230.238362091242
  0
LINE
  5
152
100
AcDbEntity
  8
1
  6
CONTINUOUS
 62
           7
100
AcDbLine
 10
-649.226009489053
 20
2670.238362091245
 11
-649.226009489053
 21
2708.238362091243
  0
LINE
  5
151
100
AcDbEntity
  8
1
  6
CONTINUOUS
 62
           7
100
AcDbLine
 10
-667.432750797188
 20
2670.238362091245
 11
-689.999999999998
 21
2670.238362091245
  0
LINE
  5
150
100
AcDbEntity
  8
1
  6
CONTINUOUS
 62
           7
100
AcDbLine
 10
-658.999999999998
 20
2710.238362091245
 11
-689.999999999998
 21
2710.238362091245
  0
LINE
  5
14F
100
AcDbEntity
  8
1
  6
CONTINUOUS
 62
           7
100
AcDbLine
 10
467.974062000609
 20
2670.238362091245
 11
467.974062000609
 21
2230.238362091245
  0
LINE
  5
14E
100
AcDbEntity
  8
1
  6
CONTINUOUS
 62
           4
100
AcDbLine
 10
270.0
 20
2708.238362091245
 11
270.0
 21
2709.238362091242
  0
LINE
  5
14D
100
AcDbEntity
  8
1
  6
CONTINUOUS
 62
           4
100
AcDbLine
 10
265.0
 20
2714.238362091245
 11
-264.993063735609
 21
2714.238362091245
  0
LINE
  5
14C
100
AcDbEntity
  8
1
  6
CONTINUOUS
 62
           4
100
AcDbLine
 10
270.0
 20
2709.238362091242
 11
265.0
 21
2714.238362091245
  0
LINE
  5
14B
100
AcDbEntity
  8
1
  6
CONTINUOUS
 62
           7
100
AcDbLine
 10
470.538238691625
 20
2230.238362091245
 11
470.538238691625
 21
2215.238362091245
  0
LINE
  5
14A
100
AcDbEntity
  8
1
  6
CONTINUOUS
 62
           7
100
AcDbLine
 10
470.538238691625
 20
2708.238362091245
 11
470.538238691625
 21
2670.238362091245
  0
LINE
  5
149
100
AcDbEntity
  8
1
  6
CONTINUOUS
 62
           7
100
AcDbLine
 10
-649.226009489053
 20
2708.238362091243
 11
470.538238691625
 21
2708.238362091245
  0
LINE
  5
148
100
AcDbEntity
  8
1
  6
CONTINUOUS
 62
           2
100
AcDbLine
 10
-576.934895578941
 20
2630.238362091248
 11
-576.934895578941
 21
2270.238362091247
  0
LINE
  5
147
100
AcDbEntity
  8
1
  6
CONTINUOUS
 62
           2
100
AcDbLine
 10
-268.542359119501
 20
2630.238362091248
 11
-576.934895578941
 21
2630.238362091248
  0
LINE
  5
146
100
AcDbEntity
  8
1
  6
CONTINUOUS
 62
           2
100
AcDbLine
 10
-268.542359119501
 20
2270.238362091247
 11
-268.542359119501
 21
2630.238362091248
  0
LINE
  5
145
100
AcDbEntity
  8
1
  6
CONTINUOUS
 62
           2
100
AcDbLine
 10
-576.934895578941
 20
2270.238362091247
 11
-268.542359119501
 21
2270.238362091247
  0
LINE
  5
144
100
AcDbEntity
  8
1
  6
CONTINUOUS
 62
           7
100
AcDbLine
 10
477.97458985055
 20
2230.238362091245
 11
-658.999999999997
 21
2230.238362091242
  0
LINE
  5
143
100
AcDbEntity
  8
1
  6
CONTINUOUS
 62
           7
100
AcDbLine
 10
477.97458985055
 20
2670.238362091245
 11
-658.999999999997
 21
2670.238362091245
  0
LINE
  5
142
100
AcDbEntity
  8
1
  6
CONTINUOUS
 62
           7
100
AcDbLine
 10
-689.999999999998
 20
2230.238362091245
 11
-667.188191940733
 21
2230.238362091245
  0
LINE
  5
141
100
AcDbEntity
  8
1
  6
CONTINUOUS
 62
           7
100
AcDbLine
 10
-689.999999999998
 20
2710.238362091245
 11
-689.999999999998
 21
2215.238362091245
  0
LINE
  5
140
100
AcDbEntity
  8
1
  6
CONTINUOUS
 62
           4
100
AcDbLine
 10
-264.993063735609
 20
2714.238362091245
 11
-268.19750294482
 21
2711.038362091244
  0
LINE
  5
13F
100
AcDbEntity
  8
1
  6
CONTINUOUS
 62
           7
100
AcDbLine
 10
-52.72077938642
 20
2670.238362091245
 11
-52.72077938642
 21
2708.238362091243
  0
LINE
  5
13E
100
AcDbEntity
  8
1
  6
DOT_CENTER
 62
           2
100
AcDbLine
 10
5150.588082276606
 20
2450.238362091245
 11
3915.991794870067
 21
2450.238362091245
  0
LINE
  5
13D
100
AcDbEntity
  8
2
  6
CONTINUOUS
 62
           4
100
AcDbLine
 10
4644.06
 20
2714.238362091245
 11
4644.06
 21
2724.338362091244
  0
LINE
  5
13C
100
AcDbEntity
  8
7
  6
CONTINUOUS
 62
           7
100
AcDbLine
 10
4446.616582399999
 20
3067.721758091243
 11
4422.022588399998
 21
3049.634099291245
  0
LINE
  5
13B
100
AcDbEntity
  8
7
  6
CONTINUOUS
 62
           7
100
AcDbLine
 10
4540.000000000001
 20
3073.238362091244
 11
4451.479999999999
 21
3073.238362091244
  0
LINE
  5
13A
100
AcDbEntity
  8
7
  6
CONTINUOUS
 62
           7
100
AcDbLine
 10
4415.000000000001
 20
2977.425181291244
 11
4415.000000000001
 21
3010.470227339286
  0
LINE
  5
139
100
AcDbEntity
  8
7
  6
CONTINUOUS
 62
           7
100
AcDbLine
 10
4665.000000000001
 20
2977.425181291244
 11
4415.000000000001
 21
2977.425181291244
  0
LINE
  5
138
100
AcDbEntity
  8
7
  6
CONTINUOUS
 62
           7
100
AcDbLine
 10
4661.399999999999
 20
3043.598362091245
 11
4665.000000000001
 21
3010.470227339286
  0
LINE
  5
137
100
AcDbEntity
  8
7
  6
CONTINUOUS
 62
           4
100
AcDbLine
 10
4419.8095724
 20
3047.438362091244
 11
4657.56
 21
3047.438362091244
  0
LINE
  5
136
100
AcDbEntity
  8
7
  6
CONTINUOUS
 62
           7
100
AcDbLine
 10
4630.383416400001
 20
3067.721758091243
 11
4655.1312408
 21
3047.872397291244
  0
LINE
  5
135
100
AcDbEntity
  8
7
  6
CONTINUOUS
 62
           7
100
AcDbLine
 10
4540.000000000001
 20
3073.238362091244
 11
4625.52
 21
3073.238362091244
  0
LINE
  5
134
100
AcDbEntity
  8
2
  6
CONTINUOUS
 62
           7
100
AcDbLine
 10
4662.4963968
 20
2756.138362091247
 11
4649.242370399998
 21
2724.338362091244
  0
LINE
  5
133
100
AcDbEntity
  8
2
  6
CONTINUOUS
 62
           7
100
AcDbLine
 10
4662.4963968
 20
2756.138362091247
 11
4662.4963968
 21
2831.388362091247
  0
LINE
  5
132
100
AcDbEntity
  8
2
  6
CONTINUOUS
 62
           7
100
AcDbLine
 10
4662.4963968
 20
2963.625181291245
 11
4656.744649199999
 21
2977.425181291244
  0
LINE
  5
131
100
AcDbEntity
  8
2
  6
CONTINUOUS
 62
           7
100
AcDbLine
 10
4662.4963968
 20
2963.625181291245
 11
4662.4963968
 21
2831.388362091247
  0
LINE
  5
130
100
AcDbEntity
  8
2
  6
CONTINUOUS
 62
           4
100
AcDbLine
 10
4432.94
 20
2724.338362091244
 11
4432.94
 21
2714.238362091245
  0
LINE
  5
12F
100
AcDbEntity
  8
2
  6
CONTINUOUS
 62
           7
100
AcDbLine
 10
4414.5036032
 20
2831.388362091247
 11
4414.5036032
 21
2963.625181291246
  0
LINE
  5
12E
100
AcDbEntity
  8
2
  6
CONTINUOUS
 62
           7
100
AcDbLine
 10
4420.255350799999
 20
2977.425181291244
 11
4414.5036032
 21
2963.625181291246
  0
LINE
  5
12D
100
AcDbEntity
  8
2
  6
CONTINUOUS
 62
           7
100
AcDbLine
 10
4414.5036032
 20
2831.388362091247
 11
4414.5036032
 21
2756.138362091247
  0
LINE
  5
12C
100
AcDbEntity
  8
2
  6
CONTINUOUS
 62
           7
100
AcDbLine
 10
4427.7576296
 20
2724.338362091244
 11
4414.5036032
 21
2756.138362091247
  0
LINE
  5
12B
100
AcDbEntity
  8
1
  6
CONTINUOUS
 62
           4
100
AcDbLine
 10
4665.000000000001
 20
3010.470227339286
 11
4415.000000000001
 21
3010.470227339286
  0
LINE
  5
12A
100
AcDbEntity
  8
7
  6
CONTINUOUS
 62
           7
100
AcDbLine
 10
4415.000000000001
 20
3010.470227339286
 11
4418.600000000001
 21
3043.371990491245
  0
LINE
  5
129
100
AcDbEntity
  8
7
  6
CONTINUOUS
 62
           7
100
AcDbLine
 10
4665.000000000001
 20
3010.470227339286
 11
4665.000000000001
 21
2977.425181291244
  0
LINE
  5
128
100
AcDbEntity
  8
2
  6
CONTINUOUS
 62
           4
100
AcDbLine
 10
4649.242370399998
 20
2724.338362091244
 11
4427.7576296
 21
2724.338362091244
  0
LINE
  5
127
100
AcDbEntity
  8
1
  6
CONTINUOUS
 62
           7
100
AcDbLine
 10
4591.500000000001
 20
2765.538362091244
 11
4488.500000000001
 21
2765.538362091244
  0
LINE
  5
126
100
AcDbEntity
  8
1
  6
CONTINUOUS
 62
           7
100
AcDbLine
 10
4488.500000000001
 20
2865.538362091244
 11
4591.500000000001
 21
2865.538362091244
  0
LINE
  5
125
100
AcDbEntity
  8
1
  6
CONTINUOUS
 62
           7
100
AcDbLine
 10
4476.500000000001
 20
2777.538362091244
 11
4476.500000000001
 21
2853.538362091244
  0
LINE
  5
124
100
AcDbEntity
  8
1
  6
CONTINUOUS
 62
           7
100
AcDbLine
 10
4603.500000000001
 20
2853.538362091244
 11
4603.500000000001
 21
2777.538362091244
  0
LINE
  5
123
100
AcDbEntity
  8
1
  6
CONTINUOUS
 62
           7
100
AcDbLine
 10
4465.527778486358
 20
2192.238362091245
 11
3942.268760408316
 21
2192.238362091245
  0
LINE
  5
122
100
AcDbEntity
  8
1
  6
CONTINUOUS
 62
           7
100
AcDbLine
 10
4465.527778486358
 20
2230.238362091245
 11
4465.527778486358
 21
2192.238362091245
  0
LINE
  5
121
100
AcDbEntity
  8
1
  6
CONTINUOUS
 62
           7
100
AcDbLine
 10
4640.000000000001
 20
2230.238362091245
 11
4640.000000000001
 21
2192.238362091245
  0
LINE
  5
120
100
AcDbEntity
  8
1
  6
CONTINUOUS
 62
           7
100
AcDbLine
 10
4915.000000000001
 20
2230.238362091245
 11
4915.000000000001
 21
2192.238362091245
  0
LINE
  5
11F
100
AcDbEntity
  8
1
  6
CONTINUOUS
 62
           7
100
AcDbLine
 10
4915.000000000001
 20
2707.938362091245
 11
4915.000000000001
 21
2670.238362091245
  0
LINE
  5
11E
100
AcDbEntity
  8
1
  6
CONTINUOUS
 62
           7
100
AcDbLine
 10
4640.000000000001
 20
2708.238362091245
 11
5006.464466094069
 21
2708.238362091246
  0
LINE
  5
11D
100
AcDbEntity
  8
1
  6
CONTINUOUS
 62
           7
100
AcDbLine
 10
4465.527778486358
 20
2708.238362091245
 11
4465.527778486358
 21
2670.238362091245
  0
LINE
  5
11C
100
AcDbEntity
  8
1
  6
CONTINUOUS
 62
           7
100
AcDbLine
 10
4640.000000000001
 20
2708.238362091245
 11
4640.000000000001
 21
2670.238362091245
  0
LINE
  5
11B
100
AcDbEntity
  8
1
  6
DOT_CENTER
 62
           2
100
AcDbLine
 10
4540.000000000001
 20
2106.526664274566
 11
4540.000000000001
 21
3173.234366878024
  0
LINE
  5
11A
100
AcDbEntity
  8
1
  6
CONTINUOUS
 62
           7
100
AcDbLine
 10
3980.010908476357
 20
2230.238362091245
 11
3980.010908476357
 21
2670.238362091245
  0
LINE
  5
119
100
AcDbEntity
  8
1
  6
CONTINUOUS
 62
           4
100
AcDbLine
 10
4880.000000000001
 20
2140.238362091245
 11
4880.000000000001
 21
2146.238362091245
  0
LINE
  5
118
100
AcDbEntity
  8
1
  6
CONTINUOUS
 62
           4
100
AcDbLine
 10
4200.000000000001
 20
2146.238362091245
 11
4200.000000000001
 21
2140.238362091245
  0
LINE
  5
117
100
AcDbEntity
  8
1
  6
CONTINUOUS
 62
           7
100
AcDbLine
 10
4200.000000000001
 20
2140.238362091245
 11
4880.000000000001
 21
2140.238362091245
  0
LINE
  5
116
100
AcDbEntity
  8
1
  6
CONTINUOUS
 62
           4
100
AcDbLine
 10
4880.000000000001
 20
2146.238362091245
 11
4200.000000000001
 21
2146.238362091245
  0
LINE
  5
115
100
AcDbEntity
  8
0
  6
CONTINUOUS
 62
           7
100
AcDbLine
 10
4860.000000000001
 20
2230.238362091242
 11
4794.211716344317
 21
2230.238362091242
  0
LINE
  5
114
100
AcDbEntity
  8
0
  6
CONTINUOUS
 62
           7
100
AcDbLine
 10
4241.8
 20
2192.238362091245
 11
4241.8
 21
2146.238362091245
  0
LINE
  5
113
100
AcDbEntity
  8
0
  6
CONTINUOUS
 62
           7
100
AcDbLine
 10
4838.200000000002
 20
2146.238362091245
 11
4838.200000000002
 21
2192.238362091245
  0
LINE
  5
112
100
AcDbEntity
  8
1
  6
CONTINUOUS
 62
           4
100
AcDbLine
 10
4270.000000000001
 20
2709.238362091242
 11
4270.000000000001
 21
2708.238362091245
  0
LINE
  5
111
100
AcDbEntity
  8
1
  6
CONTINUOUS
 62
           4
100
AcDbLine
 10
4804.993063735609
 20
2714.238362091245
 11
4275.000000000001
 21
2714.238362091245
  0
LINE
  5
110
100
AcDbEntity
  8
1
  6
CONTINUOUS
 62
           4
100
AcDbLine
 10
4275.000000000001
 20
2714.238362091245
 11
4270.000000000001
 21
2709.238362091242
  0
LINE
  5
10F
100
AcDbEntity
  8
1
  6
CONTINUOUS
 62
           4
100
AcDbLine
 10
4810.000000000003
 20
2709.238362091242
 11
4804.993063735609
 21
2714.238362091245
  0
LINE
  5
10E
100
AcDbEntity
  8
1
  6
CONTINUOUS
 62
           4
100
AcDbLine
 10
4810.000000000003
 20
2708.238362091245
 11
4810.000000000003
 21
2709.238362091242
  0
LINE
  5
10D
100
AcDbEntity
  8
1
  6
CONTINUOUS
 62
           7
100
AcDbLine
 10
5010.000000000001
 20
2230.238362091246
 11
3942.268760408317
 21
2230.238362091245
  0
LINE
  5
10C
100
AcDbEntity
  8
1
  6
CONTINUOUS
 62
           7
100
AcDbLine
 10
5010.000000000001
 20
2670.238362091245
 11
3942.268760408316
 21
2670.238362091245
  0
LINE
  5
10B
100
AcDbEntity
  8
1
  6
CONTINUOUS
 62
           7
100
AcDbLine
 10
3942.268760408316
 20
2192.238362091245
 11
3942.268760408317
 21
2230.238362091245
  0
LINE
  5
10A
100
AcDbEntity
  8
1
  6
CONTINUOUS
 62
           7
100
AcDbLine
 10
5010.000000000001
 20
2197.238362091245
 11
5006.464466094069
 21
2192.238362091245
  0
LINE
  5
109
100
AcDbEntity
  8
1
  6
CONTINUOUS
 62
           7
100
AcDbLine
 10
5006.464466094069
 20
2708.238362091246
 11
5010.000000000001
 21
2703.238362091245
  0
LINE
  5
108
100
AcDbEntity
  8
1
  6
CONTINUOUS
 62
           7
100
AcDbLine
 10
3942.268760408316
 20
2670.238362091245
 11
3942.268760408316
 21
2708.238362091245
  0
LINE
  5
107
100
AcDbEntity
  8
1
  6
CONTINUOUS
 62
           7
100
AcDbLine
 10
3942.268760408316
 20
2708.238362091245
 11
4465.527778486358
 21
2708.238362091245
  0
LINE
  5
106
100
AcDbEntity
  8
1
  6
CONTINUOUS
 62
           7
100
AcDbLine
 10
5010.000000000001
 20
2703.238362091245
 11
5010.000000000001
 21
2670.238362091245
  0
LINE
  5
105
100
AcDbEntity
  8
1
  6
CONTINUOUS
 62
           7
100
AcDbLine
 10
5010.000000000001
 20
2230.238362091246
 11
5010.000000000001
 21
2197.238362091245
  0
LINE
  5
104
100
AcDbEntity
  8
1
  6
CONTINUOUS
 62
           7
100
AcDbLine
 10
5006.464466094069
 20
2192.238362091245
 11
4640.000000000001
 21
2192.238362091245
  0
LINE
  5
103
100
AcDbEntity
  8
1
  6
CONTINUOUS
 62
           7
100
AcDbLine
 10
5010.000000000001
 20
2230.238362091246
 11
5044.499999999999
 21
2230.238362091245
  0
LINE
  5
102
100
AcDbEntity
  8
1
  6
CONTINUOUS
 62
           7
100
AcDbLine
 10
5010.000000000001
 20
2670.238362091245
 11
5010.000000000001
 21
2230.238362091246
  0
LINE
  5
101
100
AcDbEntity
  8
1
  6
CONTINUOUS
 62
           4
100
AcDbLine
 10
5045.500000000001
 20
2670.238362091247
 11
5045.500000000001
 21
2230.238362091245
  0
LINE
  5
100
100
AcDbEntity
  8
1
  6
CONTINUOUS
 62
           4
100
AcDbLine
 10
5045.500000000001
 20
2190.238362091245
 11
5045.500000000001
 21
2224.738362091246
  0
LINE
  5
FF
100
AcDbEntity
  8
1
  6
CONTINUOUS
 62
           4
100
AcDbLine
 10
5045.500000000001
 20
2675.738362091247
 11
5045.500000000001
 21
2710.238362091247
  0
LINE
  5
FE
100
AcDbEntity
  8
1
  6
CONTINUOUS
 62
           7
100
AcDbLine
 10
5044.500000000019
 20
2670.238362091247
 11
5010.000000000001
 21
2670.238362091245
  0
LINE
  5
FD
100
AcDbEntity
  8
1
  6
CONTINUOUS
 62
           7
100
AcDbLine
 10
5090.000000000001
 20
2670.238362091245
 11
5055.500000000001
 21
2670.238362091247
  0
LINE
  5
FC
100
AcDbEntity
  8
1
  6
CONTINUOUS
 62
           4
100
AcDbLine
 10
5054.500000000003
 20
2710.238362091247
 11
5054.500000000001
 21
2675.738362091247
  0
LINE
  5
FB
100
AcDbEntity
  8
1
  6
CONTINUOUS
 62
           4
100
AcDbLine
 10
5054.500000000001
 20
2224.738362091246
 11
5054.500000000003
 21
2190.238362091245
  0
LINE
  5
FA
100
AcDbEntity
  8
1
  6
CONTINUOUS
 62
           4
100
AcDbLine
 10
5054.500000000001
 20
2230.238362091245
 11
5054.500000000001
 21
2670.238362091247
  0
LINE
  5
F9
100
AcDbEntity
  8
1
  6
CONTINUOUS
 62
           7
100
AcDbLine
 10
5090.000000000001
 20
2230.238362091246
 11
5090.000000000001
 21
2670.238362091245
  0
LINE
  5
F8
100
AcDbEntity
  8
1
  6
CONTINUOUS
 62
           7
100
AcDbLine
 10
5055.499999999999
 20
2230.238362091245
 11
5090.000000000001
 21
2230.238362091246
  0
LINE
  5
F7
100
AcDbEntity
  8
1
  6
CONTINUOUS
 62
           7
100
AcDbLine
 10
5050.000000000001
 20
2190.238362091246
 11
5050.000000000001
 21
2710.238362091247
  0
LINE
  5
F6
100
AcDbEntity
  8
1
  6
CONTINUOUS
 62
           4
100
AcDbLine
 10
5010.000000000001
 20
2674.738362091245
 11
5044.500000000001
 21
2674.738362091247
  0
LINE
  5
F5
100
AcDbEntity
  8
1
  6
CONTINUOUS
 62
           7
100
AcDbLine
 10
5010.000000000001
 20
2670.238362091245
 11
5010.000000000001
 21
2674.738362091245
  0
LINE
  5
F4
100
AcDbEntity
  8
1
  6
CONTINUOUS
 62
           4
100
AcDbLine
 10
5090.000000000001
 20
2674.738362091248
 11
5055.500000000001
 21
2674.738362091247
  0
LINE
  5
F3
100
AcDbEntity
  8
1
  6
CONTINUOUS
 62
           7
100
AcDbLine
 10
5090.000000000001
 20
2670.238362091245
 11
5090.000000000001
 21
2674.738362091248
  0
LINE
  5
F2
100
AcDbEntity
  8
1
  6
CONTINUOUS
 62
           4
100
AcDbLine
 10
5045.500000000001
 20
2710.238362091247
 11
5054.500000000003
 21
2710.238362091247
  0
LINE
  5
F1
100
AcDbEntity
  8
1
  6
CONTINUOUS
 62
           7
100
AcDbLine
 10
5055.500000000001
 20
2670.238362091247
 11
5044.500000000019
 21
2670.238362091247
  0
LINE
  5
F0
100
AcDbEntity
  8
1
  6
CONTINUOUS
 62
           4
100
AcDbLine
 10
5045.500000000001
 20
2190.238362091245
 11
5054.500000000003
 21
2190.238362091245
  0
LINE
  5
EF
100
AcDbEntity
  8
1
  6
CONTINUOUS
 62
           7
100
AcDbLine
 10
5009.999999999999
 20
2225.738362091245
 11
5010.000000000001
 21
2230.238362091246
  0
LINE
  5
EE
100
AcDbEntity
  8
1
  6
CONTINUOUS
 62
           4
100
AcDbLine
 10
5090.000000000001
 20
2225.738362091246
 11
5055.500000000001
 21
2225.738362091246
  0
LINE
  5
ED
100
AcDbEntity
  8
1
  6
CONTINUOUS
 62
           7
100
AcDbLine
 10
5090.000000000001
 20
2230.238362091246
 11
5090.000000000001
 21
2225.738362091246
  0
LINE
  5
EC
100
AcDbEntity
  8
1
  6
CONTINUOUS
 62
           4
100
AcDbLine
 10
5044.500000000001
 20
2225.738362091246
 11
5009.999999999999
 21
2225.738362091245
  0
LINE
  5
EB
100
AcDbEntity
  8
1
  6
CONTINUOUS
 62
           7
100
AcDbLine
 10
5055.499999999999
 20
2230.238362091245
 11
5044.499999999999
 21
2230.238362091245
  0
LINE
  5
EA
100
AcDbEntity
  8
1
  6
CONTINUOUS
 62
           2
100
AcDbLine
 10
4692.532262743705
 20
2270.238362091245
 11
4692.532262743705
 21
2630.238362091245
  0
LINE
  5
E9
100
AcDbEntity
  8
1
  6
CONTINUOUS
 62
           2
100
AcDbLine
 10
4692.532262743705
 20
2630.238362091245
 11
4285.319562772419
 21
2630.238362091245
  0
LINE
  5
E8
100
AcDbEntity
  8
1
  6
CONTINUOUS
 62
           2
100
AcDbLine
 10
4285.319562772419
 20
2630.238362091245
 11
4285.319562772419
 21
2270.238362091245
  0
LINE
  5
E7
100
AcDbEntity
  8
1
  6
CONTINUOUS
 62
           2
100
AcDbLine
 10
4285.319562772419
 20
2270.238362091245
 11
4692.532262743705
 21
2270.238362091245
  0
LINE
  5
E6
100
AcDbEntity
  8
1
  6
CONTINUOUS
 62
           7
100
AcDbLine
 10
0.0
 20
4730.46913271683
 11
0.0
 21
3823.50613631368
  0
LINE
  5
E5
100
AcDbEntity
  8
1
  6
CONTINUOUS
 62
           7
100
AcDbLine
 10
1710.000000000001
 20
4523.506136313679
 11
1550.000000000001
 21
4523.506136313679
  0
LINE
  5
E4
100
AcDbEntity
  8
1
  6
CONTINUOUS
 62
           7
100
AcDbLine
 10
1710.000000000001
 20
4723.506136313679
 11
1710.000000000001
 21
4523.506136313679
  0
LINE
  5
E3
100
AcDbEntity
  8
1
  6
CONTINUOUS
 62
           7
100
AcDbLine
 10
1550.000000000001
 20
4723.506136313679
 11
1710.000000000001
 21
4723.506136313679
  0
LINE
  5
E2
100
AcDbEntity
  8
1
  6
CONTINUOUS
 62
           7
100
AcDbLine
 10
1710.000000000001
 20
1365.238362091247
 11
1550.000000000001
 21
1365.238362091247
  0
LINE
  5
E1
100
AcDbEntity
  8
1
  6
CONTINUOUS
 62
           7
100
AcDbLine
 10
1710.000000000001
 20
1765.238362091247
 11
1710.000000000001
 21
1365.238362091247
  0
LINE
  5
E0
100
AcDbEntity
  8
1
  6
CONTINUOUS
 62
           7
100
AcDbLine
 10
1550.000000000001
 20
1765.238362091247
 11
1710.000000000001
 21
1765.238362091247
  0
LINE
  5
DF
100
AcDbEntity
  8
1
  6
CONTINUOUS
 62
           4
100
AcDbLine
 10
3950.000000000002
 20
1765.238362091247
 11
3980.000000000001
 21
1765.238362091247
  0
LINE
  5
DE
100
AcDbEntity
  8
1
  6
CONTINUOUS
 62
           4
100
AcDbLine
 10
3950.000000000002
 20
1365.238362091247
 11
3980.000000000001
 21
1365.238362091247
  0
LINE
  5
DD
100
AcDbEntity
  8
1
  6
CONTINUOUS
 62
           7
100
AcDbLine
 10
3750.000000000001
 20
1365.238362091247
 11
3750.000000000001
 21
1765.238362091247
  0
LINE
  5
DC
100
AcDbEntity
  8
1
  6
CONTINUOUS
 62
           7
100
AcDbLine
 10
3950.000000000002
 20
1365.238362091247
 11
3750.000000000001
 21
1365.238362091247
  0
LINE
  5
DB
100
AcDbEntity
  8
1
  6
CONTINUOUS
 62
           7
100
AcDbLine
 10
3950.000000000002
 20
1765.238362091247
 11
3950.000000000002
 21
1365.238362091247
  0
LINE
  5
DA
100
AcDbEntity
  8
1
  6
CONTINUOUS
 62
           7
100
AcDbLine
 10
3750.000000000001
 20
1765.238362091247
 11
3950.000000000002
 21
1765.238362091247
  0
LINE
  5
D9
100
AcDbEntity
  8
1
  6
CONTINUOUS
 62
           7
100
AcDbLine
 10
500.0
 20
2065.238362091245
 11
500.0
 21
1565.238362091245
  0
LINE
  5
D8
100
AcDbEntity
  8
1
  6
CONTINUOUS
 62
           7
100
AcDbLine
 10
-500.0
 20
2065.238362091245
 11
-500.0
 21
1565.238362091245
  0
LINE
  5
D7
100
AcDbEntity
  8
1
  6
CONTINUOUS
 62
           4
100
AcDbLine
 10
4020.0
 20
1585.238362091245
 11
4980.000000000001
 21
1585.238362091245
  0
LINE
  5
D6
100
AcDbEntity
  8
1
  6
CONTINUOUS
 62
           4
100
AcDbLine
 10
4020.0
 20
2045.238362091245
 11
4020.0
 21
1585.238362091245
  0
LINE
  5
D5
100
AcDbEntity
  8
1
  6
CONTINUOUS
 62
           4
100
AcDbLine
 10
4980.000000000001
 20
1585.238362091245
 11
4980.000000000001
 21
2045.238362091245
  0
LINE
  5
D4
100
AcDbEntity
  8
1
  6
CONTINUOUS
 62
           4
100
AcDbLine
 10
4980.000000000001
 20
2045.238362091245
 11
4020.0
 21
2045.238362091245
  0
LINE
  5
D3
100
AcDbEntity
  8
1
  6
CONTINUOUS
 62
           7
100
AcDbLine
 10
5000.000000000001
 20
1565.238362091245
 11
4000.000000000001
 21
1565.238362091245
  0
LINE
  5
D2
100
AcDbEntity
  8
1
  6
CONTINUOUS
 62
           7
100
AcDbLine
 10
5000.000000000001
 20
2065.238362091245
 11
3000.000000000001
 21
2065.238362091245
  0
LINE
  5
D1
100
AcDbEntity
  8
1
  6
CONTINUOUS
 62
           7
100
AcDbLine
 10
-1499.999999999999
 20
65.238362091244
 11
-1499.999999999999
 21
2065.238362091245
  0
LINE
  5
D0
100
AcDbEntity
  8
1
  6
CONTINUOUS
 62
           7
100
AcDbLine
 10
1500.000000000001
 20
65.238362091244
 11
1500.000000000001
 21
2065.238362091245
  0
LINE
  5
CF
100
AcDbEntity
  8
1
  6
CONTINUOUS
 62
           7
100
AcDbLine
 10
3885.000000000002
 20
1321.988362091247
 11
3885.000000000002
 21
1335.238362091247
  0
LINE
  5
CE
100
AcDbEntity
  8
1
  6
CONTINUOUS
 62
           7
100
AcDbLine
 10
3862.500000000002
 20
1365.238362091247
 11
3862.500000000002
 21
1335.238362091247
  0
LINE
  5
CD
100
AcDbEntity
  8
1
  6
CONTINUOUS
 62
           7
100
AcDbLine
 10
3887.500000000002
 20
1365.238362091247
 11
3887.500000000002
 21
1335.238362091247
  0
LINE
  5
CC
100
AcDbEntity
  8
1
  6
CONTINUOUS
 62
           7
100
AcDbLine
 10
3862.500000000002
 20
1335.238362091247
 11
3887.500000000002
 21
1335.238362091247
  0
LINE
  5
CB
100
AcDbEntity
  8
1
  6
CONTINUOUS
 62
           7
100
AcDbLine
 10
3865.000000000002
 20
1335.238362091247
 11
3865.000000000002
 21
1321.988362091247
  0
LINE
  5
CA
100
AcDbEntity
  8
1
  6
CONTINUOUS
 62
           7
100
AcDbLine
 10
3902.000000000003
 20
1304.988362091248
 11
3979.358987904706
 21
1304.988362091246
  0
LINE
  5
C9
100
AcDbEntity
  8
1
  6
CONTINUOUS
 62
           7
100
AcDbLine
 10
3902.000000000003
 20
1284.988362091247
 11
3972.875742457638
 21
1284.988362091247
  0
LINE
  5
C8
100
AcDbEntity
  8
1
  6
CONTINUOUS
 62
           7
100
AcDbLine
 10
1737.282846715321
 20
65.238362091244
 11
-1772.029197080289
 21
65.238362091243
  0
LINE
  5
C7
100
AcDbEntity
  8
1
  6
CONTINUOUS
 62
           7
100
AcDbLine
 10
-500.0
 20
4773.506136313679
 11
-500.0
 21
4947.81394249715
  0
LINE
  5
C6
100
AcDbEntity
  8
1
  6
CONTINUOUS
 62
           4
100
AcDbLine
 10
-520.0
 20
4793.506136313679
 11
-520.0
 21
4971.077798906707
  0
LINE
  5
C5
100
AcDbEntity
  8
1
  6
CONTINUOUS
 62
           7
100
AcDbLine
 10
500.0
 20
4773.506136313679
 11
500.0
 21
5773.506136313679
  0
LINE
  5
C4
100
AcDbEntity
  8
1
  6
CONTINUOUS
 62
           4
100
AcDbLine
 10
520.0
 20
5753.506136313679
 11
520.0
 21
4793.506136313679
  0
LINE
  5
C3
100
AcDbEntity
  8
1
  6
CONTINUOUS
 62
           7
100
AcDbLine
 10
-15.0
 20
105.238362091244
 11
-1484.999999999999
 21
105.238362091244
  0
LINE
  5
C2
100
AcDbEntity
  8
1
  6
CONTINUOUS
 62
           7
100
AcDbLine
 10
-15.0
 20
65.238362091244
 11
-15.0
 21
105.238362091244
  0
LINE
  5
C1
100
AcDbEntity
  8
1
  6
CONTINUOUS
 62
           7
100
AcDbLine
 10
-1484.999999999999
 20
65.238362091243
 11
-1484.999999999999
 21
105.238362091244
  0
LINE
  5
C0
100
AcDbEntity
  8
1
  6
LONG_DASHED
 62
           2
100
AcDbLine
 10
4950.000000000001
 20
-384.761637908756
 11
4950.000000000001
 21
65.238362091244
  0
LINE
  5
BF
100
AcDbEntity
  8
1
  6
LONG_DASHED
 62
           2
100
AcDbLine
 10
3550.000000000001
 20
-384.761637908756
 11
4950.000000000001
 21
-384.761637908756
  0
LINE
  5
BE
100
AcDbEntity
  8
1
  6
LONG_DASHED
 62
           2
100
AcDbLine
 10
3550.000000000001
 20
65.238362091244
 11
3550.000000000001
 21
-384.761637908756
  0
LINE
  5
BD
100
AcDbEntity
  8
1
  6
CONTINUOUS
 62
           4
100
AcDbLine
 10
4980.000000000001
 20
1545.238362091245
 11
4020.0
 21
1545.238362091245
  0
LINE
  5
BC
100
AcDbEntity
  8
1
  6
CONTINUOUS
 62
           4
100
AcDbLine
 10
4980.000000000001
 20
85.238362091244
 11
4980.000000000001
 21
1545.238362091245
  0
LINE
  5
BB
100
AcDbEntity
  8
1
  6
CONTINUOUS
 62
           4
100
AcDbLine
 10
4020.0
 20
85.238362091244
 11
4980.000000000001
 21
85.238362091244
  0
LINE
  5
BA
100
AcDbEntity
  8
1
  6
CONTINUOUS
 62
           4
100
AcDbLine
 10
3020.0
 20
85.238362091244
 11
3980.000000000001
 21
85.238362091244
  0
LINE
  5
B9
100
AcDbEntity
  8
1
  6
CONTINUOUS
 62
           4
100
AcDbLine
 10
3019.999999999999
 20
2045.238362091245
 11
3020.0
 21
85.238362091244
  0
LINE
  5
B8
100
AcDbEntity
  8
1
  6
CONTINUOUS
 62
           4
100
AcDbLine
 10
3980.000000000001
 20
2045.238362091245
 11
3019.999999999999
 21
2045.238362091245
  0
LINE
  5
B7
100
AcDbEntity
  8
1
  6
CONTINUOUS
 62
           7
100
AcDbLine
 10
2823.366837524921
 20
65.238362091244
 11
5132.1315318969
 21
65.238362091244
  0
LINE
  5
B6
100
AcDbEntity
  8
1
  6
CONTINUOUS
 62
           7
100
AcDbLine
 10
-1549.999999999999
 20
3773.50613631368
 11
1550.000000000001
 21
3773.50613631368
  0
LINE
  5
B5
100
AcDbEntity
  8
1
  6
CONTINUOUS
 62
           7
100
AcDbLine
 10
-1549.999999999999
 20
5773.506136313679
 11
-1549.999999999999
 21
3773.50613631368
  0
LINE
  5
B4
100
AcDbEntity
  8
1
  6
CONTINUOUS
 62
           7
100
AcDbLine
 10
-1549.999999999999
 20
4773.506136313679
 11
-230.525588832581
 21
4773.506136313679
  0
LINE
  5
B3
100
AcDbEntity
  8
1
  6
CONTINUOUS
 62
           4
100
AcDbLine
 10
-20.0
 20
3823.50613631368
 11
-20.0
 21
4744.200881714795
  0
LINE
  5
B2
100
AcDbEntity
  8
1
  6
CONTINUOUS
 62
           7
100
AcDbLine
 10
-1549.999999999999
 20
3823.50613631368
 11
1550.000000000001
 21
3823.50613631368
  0
LINE
  5
B1
100
AcDbEntity
  8
1
  6
CONTINUOUS
 62
           4
100
AcDbLine
 10
-1480.0
 20
4753.506136313679
 11
-1480.0
 21
3823.50613631368
  0
LINE
  5
B0
100
AcDbEntity
  8
1
  6
CONTINUOUS
 62
           7
100
AcDbLine
 10
-1499.999999999999
 20
3823.50613631368
 11
-1499.999999999999
 21
5773.506136313679
  0
LINE
  5
AF
100
AcDbEntity
  8
1
  6
CONTINUOUS
 62
           7
100
AcDbLine
 10
1500.000000000001
 20
3823.50613631368
 11
1500.000000000001
 21
5773.506136313679
  0
LINE
  5
AE
100
AcDbEntity
  8
1
  6
CONTINUOUS
 62
           4
100
AcDbLine
 10
-1480.0
 20
4793.506136313679
 11
-520.0
 21
4793.506136313679
  0
LINE
  5
AD
100
AcDbEntity
  8
1
  6
CONTINUOUS
 62
           4
100
AcDbLine
 10
-1480.0
 20
4793.506136313679
 11
-1480.0
 21
5753.506136313679
  0
LINE
  5
AC
100
AcDbEntity
  8
1
  6
CONTINUOUS
 62
           7
100
AcDbLine
 10
1550.000000000001
 20
5773.506136313679
 11
0.0
 21
5773.506136313679
  0
LINE
  5
AB
100
AcDbEntity
  8
1
  6
CONTINUOUS
 62
           7
100
AcDbLine
 10
1550.000000000001
 20
65.238362091243
 11
1550.000000000001
 21
2215.238362091245
  0
LINE
  5
AA
100
AcDbEntity
  8
1
  6
CONTINUOUS
 62
           7
100
AcDbLine
 10
1550.000000000001
 20
2215.238362091245
 11
-1549.999999999999
 21
2215.238362091245
  0
LINE
  5
A9
100
AcDbEntity
  8
1
  6
CONTINUOUS
 62
           7
100
AcDbLine
 10
-1549.999999999999
 20
2215.238362091245
 11
-1549.999999999999
 21
65.238362091243
  0
LINE
  5
A8
100
AcDbEntity
  8
1
  6
CONTINUOUS
 62
           7
100
AcDbLine
 10
1550.000000000001
 20
2065.238362091245
 11
-1549.999999999999
 21
2065.238362091245
  0
LINE
  5
A7
100
AcDbEntity
  8
1
  6
CONTINUOUS
 62
           7
100
AcDbLine
 10
3000.000000000001
 20
65.238362091244
 11
3000.000000000001
 21
2215.238362091245
  0
LINE
  5
A6
100
AcDbEntity
  8
1
  6
CONTINUOUS
 62
           7
100
AcDbLine
 10
5000.000000000001
 20
65.238362091244
 11
5000.000000000001
 21
2140.238362091245
  0
LINE
  5
A5
100
AcDbEntity
  8
1
  6
CONTINUOUS
 62
           7
100
AcDbLine
 10
3000.000000000001
 20
2215.238362091245
 11
3050.000000000001
 21
2215.238362091245
  0
LINE
  5
A4
100
AcDbEntity
  8
1
  6
CONTINUOUS
 62
           7
100
AcDbLine
 10
3050.000000000001
 20
2195.238362091245
 11
3050.000000000001
 21
2215.238362091245
  0
LINE
  5
A3
100
AcDbEntity
  8
1
  6
CONTINUOUS
 62
           4
100
AcDbLine
 10
3000.000000000001
 20
2068.238362091245
 11
5000.000000000001
 21
2068.238362091245
  0
LINE
  5
A2
100
AcDbEntity
  8
1
  6
CONTINUOUS
 62
           7
100
AcDbLine
 10
3000.000000000001
 20
2115.238362091245
 11
5000.000000000001
 21
2115.238362091245
  0
LINE
  5
A1
100
AcDbEntity
  8
1
  6
CONTINUOUS
 62
           7
100
AcDbLine
 10
4000.000000000001
 20
1565.238362091245
 11
4000.0
 21
2140.238362091244
  0
LINE
  5
A0
100
AcDbEntity
  8
1
  6
CONTINUOUS
 62
           7
100
AcDbLine
 10
4000.0
 20
2140.238362091244
 11
5000.000000000001
 21
2140.238362091245
  0
LINE
  5
9F
100
AcDbEntity
  8
1
  6
LONG_DASHED
 62
           2
100
AcDbLine
 10
-1499.999999999999
 20
-384.761637908756
 11
-1499.999999999999
 21
65.238362091244
  0
LINE
  5
9E
100
AcDbEntity
  8
1
  6
LONG_DASHED
 62
           2
100
AcDbLine
 10
1500.000000000001
 20
-384.761637908756
 11
1500.000000000001
 21
65.238362091244
  0
LINE
  5
9D
100
AcDbEntity
  8
1
  6
CONTINUOUS
 62
           7
100
AcDbLine
 10
1500.000000000001
 20
1565.238362091245
 11
-1499.999999999999
 21
1565.238362091245
  0
LINE
  5
9C
100
AcDbEntity
  8
1
  6
LONG_DASHED
 62
           2
100
AcDbLine
 10
1500.000000000001
 20
-384.761637908756
 11
-1499.999999999999
 21
-384.761637908756
  0
LINE
  5
9B
100
AcDbEntity
  8
1
  6
CONTINUOUS
 62
           7
100
AcDbLine
 10
1485.000000000001
 20
105.238362091244
 11
1485.000000000001
 21
65.238362091244
  0
LINE
  5
9A
100
AcDbEntity
  8
1
  6
CONTINUOUS
 62
           7
100
AcDbLine
 10
15.0
 20
105.238362091244
 11
15.0
 21
65.238362091244
  0
LINE
  5
99
100
AcDbEntity
  8
1
  6
CONTINUOUS
 62
           7
100
AcDbLine
 10
-1499.999999999999
 20
79.091684758874
 11
-1499.999999999999
 21
137.845447742756
  0
LINE
  5
98
100
AcDbEntity
  8
1
  6
CONTINUOUS
 62
           7
100
AcDbLine
 10
-1499.999999999999
 20
365.238362091244
 11
1500.000000000001
 21
365.238362091244
  0
LINE
  5
97
100
AcDbEntity
  8
1
  6
CONTINUOUS
 62
           7
100
AcDbLine
 10
1485.000000000001
 20
65.238362091244
 11
1500.000000000001
 21
65.238362091244
  0
LINE
  5
96
100
AcDbEntity
  8
1
  6
CONTINUOUS
 62
           7
100
AcDbLine
 10
-1499.999999999999
 20
65.238362091244
 11
-1484.999999999999
 21
65.238362091244
  0
LINE
  5
95
100
AcDbEntity
  8
1
  6
CONTINUOUS
 62
           7
100
AcDbLine
 10
1485.000000000001
 20
105.238362091244
 11
15.0
 21
105.238362091244
  0
LINE
  5
94
100
AcDbEntity
  8
1
  6
CONTINUOUS
 62
           7
100
AcDbLine
 10
0.0
 20
1565.238362091245
 11
0.0
 21
65.238362091244
  0
LINE
  5
93
100
AcDbEntity
  8
1
  6
DOT_CENTER
 62
           2
100
AcDbLine
 10
0.0
 20
-34.761637908756
 11
0.0
 21
-484.542240505003
  0
LINE
  5
92
100
AcDbEntity
  8
1
  6
DOT_CENTER
 62
           2
100
AcDbLine
 10
4225.000000000001
 20
165.238362091244
 11
4375.000000000001
 21
165.238362091244
  0
LINE
  5
91
100
AcDbEntity
  8
1
  6
DOT_CENTER
 62
           2
100
AcDbLine
 10
4300.000000000002
 20
240.238362091244
 11
4300.000000000002
 21
90.238362091244
  0
LINE
  5
90
100
AcDbEntity
  8
1
  6
CONTINUOUS
 62
           7
100
AcDbLine
 10
1550.000000000001
 20
3773.50613631368
 11
1550.000000000001
 21
5773.506136313679
  0
LINE
  5
8F
100
AcDbEntity
  8
1
  6
CONTINUOUS
 62
           4
100
AcDbLine
 10
1480.000000000001
 20
5753.506136313679
 11
1480.000000000001
 21
4793.506136313679
  0
LINE
  5
8E
100
AcDbEntity
  8
1
  6
CONTINUOUS
 62
           4
100
AcDbLine
 10
1480.000000000001
 20
4753.506136313679
 11
1480.000000000001
 21
3823.50613631368
  0
LINE
  5
8D
100
AcDbEntity
  8
1
  6
CONTINUOUS
 62
           4
100
AcDbLine
 10
1503.000000000001
 20
5773.506136313679
 11
1503.000000000001
 21
3823.50613631368
  0
LINE
  5
8C
100
AcDbEntity
  8
1
  6
CONTINUOUS
 62
           4
100
AcDbLine
 10
1480.000000000001
 20
5753.506136313679
 11
520.0
 21
5753.506136313679
  0
LINE
  5
8B
100
AcDbEntity
  8
1
  6
CONTINUOUS
 62
           4
100
AcDbLine
 10
1480.000000000001
 20
4793.506136313679
 11
520.0
 21
4793.506136313679
  0
LINE
  5
8A
100
AcDbEntity
  8
1
  6
CONTINUOUS
 62
           4
100
AcDbLine
 10
-1502.999999999999
 20
5773.506136313679
 11
-1502.999999999999
 21
3823.50613631368
  0
LINE
  5
89
100
AcDbEntity
  8
1
  6
CONTINUOUS
 62
           4
100
AcDbLine
 10
1480.000000000001
 20
4753.506136313679
 11
54.98039027186
 21
4753.506136313679
  0
LINE
  5
88
100
AcDbEntity
  8
1
  6
CONTINUOUS
 62
           7
100
AcDbLine
 10
0.0
 20
40.238362091245
 11
0.0
 21
-34.761637908756
  0
LINE
  5
87
100
AcDbEntity
  8
1
  6
CONTINUOUS
 62
           4
100
AcDbLine
 10
3000.000000000001
 20
2105.238362091245
 11
5000.000000000001
 21
2105.238362091245
  0
LINE
  5
86
100
AcDbEntity
  8
1
  6
CONTINUOUS
 62
           4
100
AcDbLine
 10
1540.000000000001
 20
5773.506136313679
 11
1540.000000000001
 21
3823.50613631368
  0
LINE
  5
85
100
AcDbEntity
  8
1
  6
CONTINUOUS
 62
           4
100
AcDbLine
 10
-1539.999999999999
 20
5773.506136313679
 11
-1539.999999999999
 21
3823.50613631368
  0
LINE
  5
84
100
AcDbEntity
  8
1
  6
CONTINUOUS
 62
           7
100
AcDbLine
 10
3240.000000000001
 20
1927.238362091245
 11
3240.000000000001
 21
2015.238362091245
  0
LINE
  5
83
100
AcDbEntity
  8
1
  6
CONTINUOUS
 62
           7
100
AcDbLine
 10
3050.000000000001
 20
1927.238362091245
 11
3240.000000000001
 21
1927.238362091245
  0
LINE
  5
82
100
AcDbEntity
  8
1
  6
CONTINUOUS
 62
           7
100
AcDbLine
 10
3050.000000000001
 20
2015.238362091245
 11
3050.000000000001
 21
1927.238362091245
  0
LINE
  5
81
100
AcDbEntity
  8
1
  6
CONTINUOUS
 62
           7
100
AcDbLine
 10
3240.000000000001
 20
2015.238362091245
 11
3050.000000000001
 21
2015.238362091245
  0
LINE
  5
80
100
AcDbEntity
  8
1
  6
CONTINUOUS
 62
           7
100
AcDbLine
 10
3230.000000000001
 20
1415.238362091244
 11
3050.000000000001
 21
1415.238362091244
  0
LINE
  5
7F
100
AcDbEntity
  8
1
  6
CONTINUOUS
 62
           7
100
AcDbLine
 10
3050.000000000001
 20
1655.238362091244
 11
3230.000000000001
 21
1655.238362091244
  0
LINE
  5
7E
100
AcDbEntity
  8
1
  6
CONTINUOUS
 62
           7
100
AcDbLine
 10
3050.000000000001
 20
1415.238362091244
 11
3050.000000000001
 21
1655.238362091244
  0
LINE
  5
7D
100
AcDbEntity
  8
1
  6
CONTINUOUS
 62
           7
100
AcDbLine
 10
3230.000000000001
 20
1655.238362091244
 11
3230.000000000001
 21
1415.238362091244
  0
LINE
  5
7C
100
AcDbEntity
  8
1
  6
CONTINUOUS
 62
           7
100
AcDbLine
 10
-15.0
 20
65.238362091244
 11
15.0
 21
65.238362091244
  0
LINE
  5
7B
100
AcDbEntity
  8
1
  6
DOT_CENTER
 62
           2
100
AcDbLine
 10
-684.888003224811
 20
5313.506136313679
 11
500.0
 21
5313.506136313679
  0
LINE
  5
7A
100
AcDbEntity
  8
1
  6
CONTINUOUS
 62
           7
100
AcDbLine
 10
127.928556845362
 20
4773.506136313679
 11
1550.000000000001
 21
4773.506136313679
  0
LINE
  5
79
100
AcDbEntity
  8
1
  6
CONTINUOUS
 62
           7
100
AcDbLine
 10
-650.0
 20
5773.506136313679
 11
-1549.999999999999
 21
5773.506136313679
  0
LINE
  5
78
100
AcDbEntity
  8
1
  6
CONTINUOUS
 62
           4
100
AcDbLine
 10
-659.999999999998
 20
5753.506136313679
 11
-1480.0
 21
5753.506136313679
  0
LINE
  5
77
100
AcDbEntity
  8
1
  6
DOT_CENTER
 62
           2
100
AcDbLine
 10
0.0
 20
3062.287971375463
 11
0.0
 21
1565.238362091245
  0
LINE
  5
76
100
AcDbEntity
  8
1
  6
CONTINUOUS
 62
           4
100
AcDbLine
 10
-150.905365064104
 20
4753.506136313678
 11
-1480.0
 21
4753.506136313679
  0
LINE
  5
75
100
AcDbEntity
  8
1
  6
CONTINUOUS
 62
           4
100
AcDbLine
 10
20.0
 20
4747.798924917485
 11
20.0
 21
3823.50613631368
  0
LINE
  5
74
100
AcDbEntity
  8
1
  6
CONTINUOUS
 62
           7
100
AcDbLine
 10
1500.000000000001
 20
1465.238362091245
 11
-1499.999999999999
 21
1465.238362091245
  0
LINE
  5
73
100
AcDbEntity
  8
1
  6
CONTINUOUS
 62
           7
100
AcDbLine
 10
3050.000000000001
 20
1818.238362091244
 11
3050.000000000001
 21
1705.238362091244
  0
LINE
  5
72
100
AcDbEntity
  8
1
  6
CONTINUOUS
 62
           7
100
AcDbLine
 10
3230.000000000001
 20
1818.238362091244
 11
3050.000000000001
 21
1818.238362091244
  0
LINE
  5
71
100
AcDbEntity
  8
1
  6
CONTINUOUS
 62
           7
100
AcDbLine
 10
3230.000000000001
 20
1705.238362091244
 11
3230.000000000001
 21
1818.238362091244
  0
LINE
  5
70
100
AcDbEntity
  8
1
  6
CONTINUOUS
 62
           7
100
AcDbLine
 10
3050.000000000001
 20
1705.238362091244
 11
3230.000000000001
 21
1705.238362091244
  0
LINE
  5
6F
100
AcDbEntity
  8
1
  6
CONTINUOUS
 62
           4
100
AcDbLine
 10
4020.0
 20
1366.069494425824
 11
4020.0
 21
85.238362091244
  0
LINE
  5
6E
100
AcDbEntity
  8
1
  6
CONTINUOUS
 62
           7
100
AcDbLine
 10
4000.000000000001
 20
1349.395588922082
 11
4000.000000000001
 21
1565.238362091245
  0
LINE
  5
6D
100
AcDbEntity
  8
1
  6
CONTINUOUS
 62
           4
100
AcDbLine
 10
3980.000000000001
 20
1306.727126246539
 11
3980.000000000001
 21
2045.238362091245
  0
LINE
  5
6C
100
AcDbEntity
  8
1
  6
CONTINUOUS
 62
           7
100
AcDbLine
 10
-1319.497691536608
 20
551.751888889611
 11
-174.999999999999
 21
551.751888889611
  0
LINE
  5
6B
100
AcDbEntity
  8
___S__
  6
DOT_CENTER
 62
           3
100
AcDbLine
 10
-1324.999999999999
 20
632.301628687704
 11
-1325.0
 21
547.305918456578
  0
LINE
  5
6A
100
AcDbEntity
  8
____
  6
CONTINUOUS
 62
           3
100
AcDbLine
 10
-1319.595947044879
 20
625.697866907421
 11
-1319.595947044879
 21
623.819936159299
  0
LINE
  5
69
100
AcDbEntity
  8
____
  6
CONTINUOUS
 62
           3
100
AcDbLine
 10
-1329.912775413743
 20
626.167349594452
 11
-1320.087224586254
 21
626.167349594452
  0
LINE
  5
68
100
AcDbEntity
  8
____
  6
CONTINUOUS
 62
           3
100
AcDbLine
 10
-1330.404052955117
 20
623.819936159299
 11
-1330.404052955117
 21
625.697866907421
  0
LINE
  5
67
100
AcDbEntity
  8
____
  6
CONTINUOUS
 62
           3
100
AcDbLine
 10
-1319.497691536607
 20
588.139251944966
 11
-1330.502308463384
 21
588.139251944966
  0
LINE
  5
66
100
AcDbEntity
  8
____
  6
CONTINUOUS
 62
           3
100
AcDbLine
 10
-1319.497691536606
 20
623.819936159299
 11
-1319.497691536607
 21
588.139251944966
  0
LINE
  5
65
100
AcDbEntity
  8
____
  6
CONTINUOUS
 62
           3
100
AcDbLine
 10
-1330.502308463383
 20
623.819936159299
 11
-1319.497691536606
 21
623.819936159299
  0
LINE
  5
64
100
AcDbEntity
  8
____
  6
CONTINUOUS
 62
           3
100
AcDbLine
 10
-1330.502308463384
 20
588.139251944966
 11
-1330.502308463383
 21
623.819936159299
  0
LINE
  5
63
100
AcDbEntity
  8
____
  6
CONTINUOUS
 62
           3
100
AcDbLine
 10
-1330.404052955119
 20
549.64167160845
 11
-1330.404052955119
 21
551.519602356572
  0
LINE
  5
62
100
AcDbEntity
  8
____
  6
CONTINUOUS
 62
           3
100
AcDbLine
 10
-1320.087224586256
 20
549.172188921418
 11
-1329.912775413745
 21
549.172188921418
  0
LINE
  5
61
100
AcDbEntity
  8
____
  6
CONTINUOUS
 62
           3
100
AcDbLine
 10
-1319.595947044881
 20
551.519602356572
 11
-1319.595947044881
 21
549.64167160845
  0
LINE
  5
60
100
AcDbEntity
  8
____
  6
CONTINUOUS
 62
           3
100
AcDbLine
 10
-1330.158414184431
 20
588.139251944966
 11
-1330.158414184431
 21
587.200286570905
  0
LINE
  5
5F
100
AcDbEntity
  8
____
  6
CONTINUOUS
 62
           3
100
AcDbLine
 10
-1319.841585815568
 20
588.139251944966
 11
-1330.158414184431
 21
588.139251944966
  0
LINE
  5
5E
100
AcDbEntity
  8
____
  6
CONTINUOUS
 62
           3
100
AcDbLine
 10
-1319.841585815568
 20
587.200286570905
 11
-1319.841585815568
 21
588.139251944966
  0
LINE
  5
5D
100
AcDbEntity
  8
____
  6
CONTINUOUS
 62
           3
100
AcDbLine
 10
-1330.404052955117
 20
625.697866907421
 11
-1319.595947044879
 21
625.697866907421
  0
LINE
  5
5C
100
AcDbEntity
  8
____
  6
CONTINUOUS
 62
           3
100
AcDbLine
 10
-1330.502308463384
 20
587.200286570905
 11
-1319.497691536607
 21
587.200286570905
  0
LINE
  5
5B
100
AcDbEntity
  8
____
  6
CONTINUOUS
 62
           3
100
AcDbLine
 10
-1330.502308463384
 20
551.519602356572
 11
-1330.502308463384
 21
587.200286570905
  0
LINE
  5
5A
100
AcDbEntity
  8
____
  6
CONTINUOUS
 62
           3
100
AcDbLine
 10
-1319.497691536608
 20
551.519602356572
 11
-1330.502308463384
 21
551.519602356572
  0
LINE
  5
59
100
AcDbEntity
  8
____
  6
CONTINUOUS
 62
           3
100
AcDbLine
 10
-1319.497691536607
 20
587.200286570905
 11
-1319.497691536608
 21
551.519602356572
  0
LINE
  5
58
100
AcDbEntity
  8
____
  6
CONTINUOUS
 62
           3
100
AcDbLine
 10
-1330.404052955117
 20
625.697866907421
 11
-1329.912775413743
 21
626.167349594452
  0
LINE
  5
57
100
AcDbEntity
  8
____
  6
CONTINUOUS
 62
           3
100
AcDbLine
 10
-1320.087224586254
 20
626.167349594452
 11
-1319.595947044879
 21
625.697866907421
  0
LINE
  5
56
100
AcDbEntity
  8
____
  6
CONTINUOUS
 62
           3
100
AcDbLine
 10
-1329.912775413745
 20
549.172188921418
 11
-1330.404052955119
 21
549.64167160845
  0
LINE
  5
55
100
AcDbEntity
  8
____
  6
CONTINUOUS
 62
           3
100
AcDbLine
 10
-1319.595947044881
 20
549.64167160845
 11
-1320.087224586256
 21
549.172188921418
  0
LINE
  5
54
100
AcDbEntity
  8
____
  6
CONTINUOUS
 62
           3
100
AcDbLine
 10
-1330.404052955119
 20
549.64167160845
 11
-1319.595947044881
 21
549.64167160845
  0
LINE
  5
53
100
AcDbEntity
  8
____
  6
CONTINUOUS
 62
           3
100
AcDbLine
 10
-1330.404052955095
 20
1103.631242298502
 11
-1319.595947044857
 21
1103.631242298502
  0
LINE
  5
52
100
AcDbEntity
  8
____
  6
CONTINUOUS
 62
           3
100
AcDbLine
 10
-1319.595947044857
 20
1103.631242298502
 11
-1320.087224586231
 21
1103.161759611473
  0
LINE
  5
51
100
AcDbEntity
  8
____
  6
CONTINUOUS
 62
           3
100
AcDbLine
 10
-1329.91277541372
 20
1103.161759611473
 11
-1330.404052955095
 21
1103.631242298502
  0
LINE
  5
50
100
AcDbEntity
  8
____
  6
CONTINUOUS
 62
           3
100
AcDbLine
 10
-1320.087224586231
 20
1180.156920284507
 11
-1319.595947044856
 21
1179.687437597474
  0
LINE
  5
4F
100
AcDbEntity
  8
____
  6
CONTINUOUS
 62
           3
100
AcDbLine
 10
-1330.404052955094
 20
1179.687437597474
 11
-1329.912775413719
 21
1180.156920284507
  0
LINE
  5
4E
100
AcDbEntity
  8
____
  6
CONTINUOUS
 62
           3
100
AcDbLine
 10
-1319.497691536591
 20
1141.189857260958
 11
-1319.497691536591
 21
1105.509173046626
  0
LINE
  5
4D
100
AcDbEntity
  8
____
  6
CONTINUOUS
 62
           3
100
AcDbLine
 10
-1319.497691536591
 20
1105.509173046626
 11
-1330.502308463368
 21
1105.509173046626
  0
LINE
  5
4C
100
AcDbEntity
  8
____
  6
CONTINUOUS
 62
           3
100
AcDbLine
 10
-1330.502308463368
 20
1105.509173046626
 11
-1330.502308463368
 21
1141.189857260958
  0
LINE
  5
4B
100
AcDbEntity
  8
____
  6
CONTINUOUS
 62
           3
100
AcDbLine
 10
-1330.502308463368
 20
1141.189857260958
 11
-1319.497691536591
 21
1141.189857260958
  0
LINE
  5
4A
100
AcDbEntity
  8
____
  6
CONTINUOUS
 62
           3
100
AcDbLine
 10
-1330.404052955094
 20
1179.687437597474
 11
-1319.595947044856
 21
1179.687437597474
  0
LINE
  5
49
100
AcDbEntity
  8
____
  6
CONTINUOUS
 62
           3
100
AcDbLine
 10
-1319.841585815544
 20
1141.189857260958
 11
-1319.841585815544
 21
1142.12882263502
  0
LINE
  5
48
100
AcDbEntity
  8
____
  6
CONTINUOUS
 62
           3
100
AcDbLine
 10
-1319.841585815544
 20
1142.12882263502
 11
-1330.158414184407
 21
1142.12882263502
  0
LINE
  5
47
100
AcDbEntity
  8
____
  6
CONTINUOUS
 62
           3
100
AcDbLine
 10
-1330.158414184407
 20
1142.12882263502
 11
-1330.158414184407
 21
1141.189857260958
  0
LINE
  5
46
100
AcDbEntity
  8
____
  6
CONTINUOUS
 62
           3
100
AcDbLine
 10
-1319.595947044857
 20
1105.509173046626
 11
-1319.595947044857
 21
1103.631242298502
  0
LINE
  5
45
100
AcDbEntity
  8
____
  6
CONTINUOUS
 62
           3
100
AcDbLine
 10
-1320.087224586231
 20
1103.161759611473
 11
-1329.91277541372
 21
1103.161759611473
  0
LINE
  5
44
100
AcDbEntity
  8
____
  6
CONTINUOUS
 62
           3
100
AcDbLine
 10
-1330.404052955095
 20
1103.631242298502
 11
-1330.404052955095
 21
1105.509173046626
  0
LINE
  5
43
100
AcDbEntity
  8
____
  6
CONTINUOUS
 62
           3
100
AcDbLine
 10
-1330.502308463368
 20
1142.12882263502
 11
-1330.502308463367
 21
1177.809506849352
  0
LINE
  5
42
100
AcDbEntity
  8
____
  6
CONTINUOUS
 62
           3
100
AcDbLine
 10
-1330.502308463367
 20
1177.809506849352
 11
-1319.49769153659
 21
1177.809506849351
  0
LINE
  5
41
100
AcDbEntity
  8
____
  6
CONTINUOUS
 62
           3
100
AcDbLine
 10
-1319.49769153659
 20
1177.809506849351
 11
-1319.497691536591
 21
1142.12882263502
  0
LINE
  5
40
100
AcDbEntity
  8
____
  6
CONTINUOUS
 62
           3
100
AcDbLine
 10
-1319.497691536591
 20
1142.12882263502
 11
-1330.502308463368
 21
1142.12882263502
  0
LINE
  5
3F
100
AcDbEntity
  8
____
  6
CONTINUOUS
 62
           3
100
AcDbLine
 10
-1330.404052955094
 20
1177.809506849352
 11
-1330.404052955094
 21
1179.687437597474
  0
LINE
  5
3E
100
AcDbEntity
  8
____
  6
CONTINUOUS
 62
           3
100
AcDbLine
 10
-1329.912775413719
 20
1180.156920284507
 11
-1320.087224586231
 21
1180.156920284507
  0
LINE
  5
3D
100
AcDbEntity
  8
____
  6
CONTINUOUS
 62
           3
100
AcDbLine
 10
-1319.595947044856
 20
1179.687437597474
 11
-1319.595947044856
 21
1177.809506849351
  0
LINE
  5
3C
100
AcDbEntity
  8
___S__
  6
DOT_CENTER
 62
           3
100
AcDbLine
 10
-1324.999999999975
 20
1186.291199377741
 11
-1324.999999999976
 21
1101.295489146633
  0
LINE
  5
3B
100
AcDbEntity
  8
1
  6
CONTINUOUS
 62
           7
100
AcDbLine
 10
-1324.999999999999
 20
506.751888889609
 11
-174.999999999999
 21
506.751888889609
  0
LINE
  5
3A
100
AcDbEntity
  8
1
  6
CONTINUOUS
 62
           7
100
AcDbLine
 10
-174.999999999999
 20
506.751888889609
 11
-174.999999999999
 21
1211.521354479045
  0
LINE
  5
39
100
AcDbEntity
  8
1
  6
CONTINUOUS
 62
           7
100
AcDbLine
 10
-1324.999999999999
 20
506.751888889609
 11
-1324.999999999999
 21
1211.521354479045
  0
LINE
  5
38
100
AcDbEntity
  8
1
  6
CONTINUOUS
 62
           7
100
AcDbLine
 10
-174.999999999999
 20
1211.521354479045
 11
-1324.999999999999
 21
1211.521354479045
  0
LINE
  5
37
100
AcDbEntity
  8
1
  6
CONTINUOUS
 62
           3
100
AcDbLine
 10
-235.604203678125
 20
859.566471418303
 11
-237.992149678106
 21
832.309347418302
  0
LINE
  5
36
100
AcDbEntity
  8
1
  6
CONTINUOUS
 62
           3
100
AcDbLine
 10
-237.992149678106
 20
888.569073418304
 11
-235.604203678125
 21
861.311949418304
  0
LINE
  5
35
100
AcDbEntity
  8
1
  6
CONTINUOUS
 62
           3
100
AcDbLine
 10
-247.451285678125
 20
859.566471418303
 11
-245.063339678115
 21
832.309347418302
  0
LINE
  5
34
100
AcDbEntity
  8
1
  6
CONTINUOUS
 62
           3
100
AcDbLine
 10
-245.063339678115
 20
888.569073418304
 11
-247.451285678125
 21
861.311949418304
  0
LINE
  5
33
100
AcDbEntity
  8
1
  6
DOT_CENTER
 62
           3
100
AcDbLine
 10
-196.527744678121
 20
860.439210418293
 11
-286.525199678126
 21
860.439210418293
  0
LINE
  5
32
100
AcDbEntity
  8
1
  6
DOT_CENTER
 62
           3
100
AcDbLine
 10
-241.527744678121
 20
905.439210418293
 11
-241.527744678121
 21
815.440639418293
  0
LINE
  5
31
100
AcDbEntity
  8
1
  6
CONTINUOUS
 62
           4
100
AcDbLine
 10
4020.0
 20
1545.238362091245
 11
4020.0
 21
1379.703031307579
  0
LINE
  5
30
100
AcDbEntity
  8
1
  6
CONTINUOUS
 62
           4
100
AcDbLine
 10
3980.000000000001
 20
85.238362091244
 11
3980.000000000001
 21
1280.763465335512
  0
LINE
  5
2F
100
AcDbEntity
  8
1
  6
CONTINUOUS
 62
           7
100
AcDbLine
 10
4000.000000000001
 20
65.238362091243
 11
4000.000000000001
 21
1331.749776761654
  0
LINE
  5
2E
100
AcDbEntity
  8
1
  6
CONTINUOUS
 62
           7
100
AcDbLine
 10
1500.000000000001
 20
1328.982932077287
 11
-1499.999999999999
 21
1328.982932077287
  0
POINT
  5
2D
100
AcDbEntity
  8
0
 62
           3
100
AcDbPoint
 10
3833.399996721734
 20
930.238362091361
  0
ENDSEC
  0
SECTION
  2
OBJECTS
  0
DICTIONARY
  5
19
100
AcDbDictionary
  3
ACAD_GROUP
350
1A
  3
ACAD_MLINESTYLE
350
1B
  0
DICTIONARY
  5
1A
102
{ACAD_REACTORS
330
19
102
}
100
AcDbDictionary
  0
DICTIONARY
  5
1B
102
{ACAD_REACTORS
330
19
102
}
100
AcDbDictionary
  3
STANDARD
350
1C
  0
MLINESTYLE
  5
1C
102
{ACAD_REACTORS
330
1B
102
}
100
AcDbMlineStyle
  2
STANDARD
 70
           0
  3

 62
           0
 51
90.0
 52
90.0
 71
           2
 49
0.5
 62
         256
  6
BYLAYER
 49
-0.5
 62
         256
  6
BYLAYER
  0
ENDSEC
  0
EOF
