  0
SECTION
  2
HEADER
  9
$ACADVER
  1
AC1014
  9
$ACADMAINTVER
 70
           0
  9
$DWGCODEPAGE
  3
DOS932
  9
$INSBASE
 10
0.0
 20
0.0
 30
0.0
  9
$EXTMIN
 10
1.000000000000E+20
 20
1.000000000000E+20
 30
1.000000000000E+20
  9
$EXTMAX
 10
-1.000000000000E+20
 20
-1.000000000000E+20
 30
-1.000000000000E+20
  9
$LIMMIN
 10
0.0
 20
0.0
  9
$LIMMAX
 10
0.0
 20
0.0
  9
$ORTHOMODE
 70
           0
  9
$REGENMODE
 70
           1
  9
$FILLMODE
 70
           1
  9
$QTEXTMODE
 70
           0
  9
$MIRRTEXT
 70
           1
  9
$DRAGMODE
 70
           2
  9
$LTSCALE
 40
1.0
  9
$OSMODE
 70
           0
  9
$ATTMODE
 70
           1
  9
$TEXTSIZE
 40
0.2
  9
$TRACEWID
 40
0.05
  9
$TEXTSTYLE
  7
STANDARD
  9
$CLAYER
  8
0
  9
$CELTYPE
  6
CONTINUOUS
  9
$CECOLOR
 62
         256
  9
$CELTSCALE
 40
1.0
  9
$DELOBJ
 70
           1
  9
$DISPSILH
 70
           0
  9
$DIMSCALE
 40
1.0
  9
$DIMASZ
 40
0.18
  9
$DIMEXO
 40
0.0625
  9
$DIMDLI
 40
0.38
  9
$DIMRND
 40
0.0
  9
$DIMDLE
 40
0.0
  9
$DIMEXE
 40
0.18
  9
$DIMTP
 40
0.0
  9
$DIMTM
 40
0.0
  9
$DIMTXT
 40
0.18
  9
$DIMCEN
 40
0.09
  9
$DIMTSZ
 40
0.0
  9
$DIMTOL
 70
           0
  9
$DIMLIM
 70
           0
  9
$DIMTIH
 70
           1
  9
$DIMTOH
 70
           1
  9
$DIMSE1
 70
           0
  9
$DIMSE2
 70
           0
  9
$DIMTAD
 70
           0
  9
$DIMZIN
 70
           0
  9
$DIMBLK
  1

  9
$DIMASO
 70
           1
  9
$DIMSHO
 70
           1
  9
$DIMPOST
  1

  9
$DIMAPOST
  1

  9
$DIMALT
 70
           0
  9
$DIMALTD
 70
           2
  9
$DIMALTF
 40
25.4
  9
$DIMLFAC
 40
1.0
  9
$DIMTOFL
 70
           0
  9
$DIMTVP
 40
0.0
  9
$DIMTIX
 70
           0
  9
$DIMSOXD
 70
           0
  9
$DIMSAH
 70
           0
  9
$DIMBLK1
  1

  9
$DIMBLK2
  1

  9
$DIMSTYLE
  2
STANDARD
  9
$DIMCLRD
 70
           0
  9
$DIMCLRE
 70
           0
  9
$DIMCLRT
 70
           0
  9
$DIMTFAC
 40
1.0
  9
$DIMGAP
 40
0.09
  9
$DIMJUST
 70
           0
  9
$DIMSD1
 70
           0
  9
$DIMSD2
 70
           0
  9
$DIMTOLJ
 70
           1
  9
$DIMTZIN
 70
           0
  9
$DIMALTZ
 70
           0
  9
$DIMALTTZ
 70
           0
  9
$DIMFIT
 70
           3
  9
$DIMUPT
 70
           0
  9
$DIMUNIT
 70
           2
  9
$DIMDEC
 70
           4
  9
$DIMTDEC
 70
           4
  9
$DIMALTU
 70
           2
  9
$DIMALTTD
 70
           2
  9
$DIMTXSTY
  7
STANDARD
  9
$DIMAUNIT
 70
           0
  9
$LUNITS
 70
           2
  9
$LUPREC
 70
           4
  9
$SKETCHINC
 40
0.1
  9
$FILLETRAD
 40
0.0
  9
$AUNITS
 70
           0
  9
$AUPREC
 70
           0
  9
$MENU
  1
acad
  9
$ELEVATION
 40
0.0
  9
$PELEVATION
 40
0.0
  9
$THICKNESS
 40
0.0
  9
$LIMCHECK
 70
           0
  9
$BLIPMODE
 70
           1
  9
$CHAMFERA
 40
0.0
  9
$CHAMFERB
 40
0.0
  9
$CHAMFERC
 40
0.0
  9
$CHAMFERD
 40
0.0
  9
$SKPOLY
 70
           0
  9
$TDCREATE
 40
0.000000000
  9
$TDUPDATE
 40
0.000000000
  9
$TDINDWG
 40
0.0000000000
  9
$TDUSRTIMER
 40
0.0000000000
  9
$USRTIMER
 70
           1
  9
$ANGBASE
 50
0.0
  9
$ANGDIR
 70
           0
  9
$PDMODE
 70
           0
  9
$PDSIZE
 40
0.0
  9
$PLINEWID
 40
0.0
  9
$COORDS
 70
           0
  9
$SPLFRAME
 70
           0
  9
$SPLINETYPE
 70
           6
  9
$SPLINESEGS
 70
           8
  9
$ATTDIA
 70
           0
  9
$ATTREQ
 70
           1
  9
$HANDLING
 70
           1
  9
$HANDSEED
  5
3A4
  9
$SURFTAB1
 70
           6
  9
$SURFTAB2
 70
           6
  9
$SURFTYPE
 70
           6
  9
$SURFU
 70
           6
  9
$SURFV
 70
           6
  9
$UCSNAME
  2

  9
$UCSORG
 10
0.0
 20
0.0
 30
0.0
  9
$UCSXDIR
 10
1.0
 20
0.0
 30
0.0
  9
$UCSYDIR
 10
0.0
 20
1.0
 30
0.0
  9
$PUCSNAME
  2

  9
$PUCSORG
 10
0.0
 20
0.0
 30
0.0
  9
$PUCSXDIR
 10
1.0
 20
0.0
 30
0.0
  9
$PUCSYDIR
 10
0.0
 20
1.0
 30
0.0
  9
$USERI1
 70
           0
  9
$USERI2
 70
           0
  9
$USERI3
 70
           0
  9
$USERI4
 70
           0
  9
$USERI5
 70
           0
  9
$USERR1
 40
0.0
  9
$USERR2
 40
0.0
  9
$USERR3
 40
0.0
  9
$USERR4
 40
0.0
  9
$USERR5
 40
0.0
  9
$WORLDVIEW
 70
           1
  9
$SHADEDGE
 70
           3
  9
$SHADEDIF
 70
          70
  9
$TILEMODE
 70
           1
  9
$MAXACTVP
 70
          16
  9
$PINSBASE
 10
0.0
 20
0.0
 30
0.0
  9
$PLIMCHECK
 70
           0
  9
$PEXTMIN
 10
1.000000000000E+20
 20
1.000000000000E+20
 30
1.000000000000E+20
  9
$PEXTMAX
 10
-1.000000000000E+20
 20
-1.000000000000E+20
 30
-1.000000000000E+20
  9
$PLIMMIN
 10
0.0
 20
0.0
  9
$PLIMMAX
 10
12.0
 20
9.0
  9
$UNITMODE
 70
           0
  9
$VISRETAIN
 70
           0
  9
$PLINEGEN
 70
           1
  9
$PSLTSCALE
 70
           0
  9
$TREEDEPTH
 70
        3020
  9
$PICKSTYLE
 70
           1
  9
$CMLSTYLE
  2
STANDARD
  9
$CMLJUST
 70
           0
  9
$CMLSCALE
 40
1.0
  9
$PROXYGRAPHICS
 70
           0
  9
$MEASUREMENT
 70
           0
  0
ENDSEC
  0
SECTION
  2
CLASSES
  0
CLASS
  1
LWPOLYLINE
  2
AcDbPolyline
  3
"AutoCAD"
 90
        0
280
           0
281
           1
  0
CLASS
  1
IMAGE
  2
AcDbRasterImage
  3
ISM
 90
      127
280
           0
281
           1
  0
CLASS
  1
OLE2FRAME
  2
AcDbOle2Frame
  3
""
 90
        0
280
           0
281
           1
  0
CLASS
  1
HATCH
  2
AcDbHatch
  3
"ACAD_SEDONA"
 90
        0
280
           0
281
           1
  0
CLASS
  1
DICTIONARYVAR
  2
AcDbDictionaryVar
  3
"AutoCAD"
 90
        0
280
           0
281
           0
  0
CLASS
  1
RASTERVARIABLES
  2
AcDbRasterVariables
  3
ISM
 90
        0
280
           0
281
           0
  0
CLASS
  1
IMAGEDEF
  2
AcDbRasterImageDef
  3
ISM
 90
        0
280
           0
281
           0
  0
CLASS
  1
IMAGEDEF_REACTOR
  2
AcDbRasterImageDefReactor
  3
ISM
 90
        1
280
           0
281
           0
  0
CLASS
  1
IDBUFFER
  2
AcDbIdBuffer
  3
"Acad"
 90
        0
280
           0
281
           0
  0
CLASS
  1
SPATIAL_FILTER
  2
AcDbSpatialFilter
  3
"Acad"
 90
        0
280
           0
281
           0
  0
CLASS
  1
XRECORD
  2
AcDbXrecord
  3
"<Built In>"
 90
        0
280
           0
281
           0
  0
CLASS
  1
SORTENTSTABLE
  2
AcDbSortentsTable
  3
"AutoCAD"
 90
        0
280
           0
281
           0
  0
CLASS
  1
LAYER_INDEX
  2
AcDbLayerIndex
  3
"Acad"
 90
        0
280
           0
281
           0
  0
CLASS
  1
SPATIAL_INDEX
  2
AcDbSpatialIndex
  3
"Acad"
 90
        0
280
           0
281
           0
  0
CLASS
  1
OBJECT_PTR
  2
CAseDLPNTableRecord
  3
"ASE-LPNTableRecord"
 90
        1
280
           0
281
           0
  0
CLASS
  1
LAYOUT
  2
AcDbLayout
  3
"AutoCAD 2000"
 90
        1
280
           0
281
           0
  0
CLASS
  1
PLOTSETTINGS
  2
AcDbPlotSettings
  3
"AutoCAD 2000"
 90
        1
280
           0
281
           0
  0
CLASS
  1
ACDBDICTIONARYWDFLT
  2
AcDbDictionaryWithDefault
  3
"AutoCAD 2000"
 90
        1
280
           0
281
           0
  0
CLASS
  1
ACDBPLACEHOLDER
  2
AcDbPlaceHolder
  3
"AutoCAD 2000"
 90
        1
280
           0
281
           0
  0
CLASS
  1
VBA_PROJECT
  2
AcDbVbaProject
  3
"acadvba"
 90
        1
280
           0
281
           0
  0
CLASS
  1
WIPEOUT
  2
AcDbWipeout
  3
WipeOut|AutoCAD Express Tool|expresstools@autodesk.com
 90
      127
280
           0
281
           1
  0
CLASS
  1
WIPEOUTVARIABLES
  2
AcDbWipeoutVariables
  3
WipeOut|AutoCAD Express Tool|expresstools@autodesk.com
 90
        0
280
           0
281
           0
  0
CLASS
  1
RTEXT
  2
RText
  3
RText|AutoCAD Express Tool|expresstools@autodesk.com
 90
        0
280
           0
281
           1
  0
CLASS
  1
ARCALIGNEDTEXT
  2
AcDbArcAlignedText
  3
ATEXT|AutoCAD Express Tool|expresstools@autodesk.com
 90
        0
280
           0
281
           1
  0
ENDSEC
  0
SECTION
  2
TABLES
  0
TABLE
  2
VPORT
  5
7
100
AcDbSymbolTable
 70
           1
  0
VPORT
  5
15
100
AcDbSymbolTableRecord
100
AcDbViewportTableRecord
  2
*ACTIVE
 70
           0
 10
0.0
 20
0.0
 11
1.0
 21
1.0
 12
6.591288
 22
4.579184
 13
0.0
 23
0.0
 14
1.0
 24
1.0
 15
0.0
 25
0.0
 16
0.0
 26
0.0
 36
1.0
 17
0.0
 27
0.0
 37
0.0
 40
9.158369
 41
0.688564
 42
50.0
 43
0.0
 44
0.0
 50
0.0
 51
0.0
 71
           0
 72
         100
 73
           1
 74
           1
 75
           0
 76
           0
 77
           0
 78
           0
  0
ENDTAB
  0
TABLE
  2
LTYPE
  5
4
100
AcDbSymbolTable
 70
          10
  0
LTYPE
  5
11
100
AcDbSymbolTableRecord
100
AcDbLinetypeTableRecord
  2
BYBLOCK
 70
          64
  3

 72
          65
 73
           0
 40
0.0
  0
LTYPE
  5
12
100
AcDbSymbolTableRecord
100
AcDbLinetypeTableRecord
  2
BYLAYER
 70
          64
  3

 72
          65
 73
           0
 40
0.0
  0
LTYPE
  5
13
100
AcDbSymbolTableRecord
100
AcDbLinetypeTableRecord
  2
CONTINUOUS
 70
          64
  3
Solid line
 72
          65
 73
           0
 40
0.0
  0
LTYPE
  5
1D
100
AcDbSymbolTableRecord
100
AcDbLinetypeTableRecord
  2
DASHED
 70
          64
  3
Dashed
 72
          65
 73
           2
 40
15.0
 49
12.0
 74
           0
 49
-3.0
 74
           0
  0
LTYPE
  5
1E
100
AcDbSymbolTableRecord
100
AcDbLinetypeTableRecord
  2
DOTTED
 70
          64
  3
Dotted
 72
          65
 73
           2
 40
3.5
 49
0.5
 74
           0
 49
-3.0
 74
           0
  0
LTYPE
  5
1F
100
AcDbSymbolTableRecord
100
AcDbLinetypeTableRecord
  2
DOT_CENTER
 70
          64
  3
Dot_Center
 72
          65
 73
           4
 40
2.0
 49
1.25
 74
           0
 49
-0.25
 74
           0
 49
0.25
 74
           0
 49
-0.25
 74
           0
  0
LTYPE
  5
20
100
AcDbSymbolTableRecord
100
AcDbLinetypeTableRecord
  2
LONG_DASHED
 70
          64
  3
Long_Dashed
 72
          65
 73
           2
 40
2.0
 49
1.5
 74
           0
 49
-0.5
 74
           0
  0
LTYPE
  5
21
100
AcDbSymbolTableRecord
100
AcDbLinetypeTableRecord
  2
DASH_CENTER
 70
          64
  3
Dash_Center
 72
          65
 73
           4
 40
36.0
 49
24.0
 74
           0
 49
-3.0
 74
           0
 49
6.0
 74
           0
 49
-3.0
 74
           0
  0
LTYPE
  5
22
100
AcDbSymbolTableRecord
100
AcDbLinetypeTableRecord
  2
PHANTOM
 70
          64
  3
Phantom
 72
          65
 73
           6
 40
2.5
 49
1.25
 74
           0
 49
-0.25
 74
           0
 49
0.25
 74
           0
 49
-0.25
 74
           0
 49
0.25
 74
           0
 49
-0.25
 74
           0
  0
LTYPE
  5
23
100
AcDbSymbolTableRecord
100
AcDbLinetypeTableRecord
  2
CENTER_DASH_DASH
 70
          64
  3
Center_Dash_Dash
 72
          65
 73
           6
 40
22.0
 49
12.0
 74
           0
 49
-3.0
 74
           0
 49
0.5
 74
           0
 49
-3.0
 74
           0
 49
0.5
 74
           0
 49
-3.0
 74
           0
  0
ENDTAB
  0
TABLE
  2
LAYER
  5
2
100
AcDbSymbolTable
 70
           8
  0
LAYER
  5
14
100
AcDbSymbolTableRecord
100
AcDbLayerTableRecord
  2
0
 70
           0
 62
           7
  6
CONTINUOUS
  0
LAYER
  5
24
100
AcDbSymbolTableRecord
100
AcDbLayerTableRecord
  2
___S__
 70
           0
 62
           7
  6
CONTINUOUS
  0
LAYER
  5
25
100
AcDbSymbolTableRecord
100
AcDbLayerTableRecord
  2
976
 70
           0
 62
           7
  6
CONTINUOUS
  0
LAYER
  5
26
100
AcDbSymbolTableRecord
100
AcDbLayerTableRecord
  2
FORMAT
 70
           0
 62
           7
  6
CONTINUOUS
  0
LAYER
  5
27
100
AcDbSymbolTableRecord
100
AcDbLayerTableRecord
  2
1
 70
           0
 62
           7
  6
CONTINUOUS
  0
LAYER
  5
28
100
AcDbSymbolTableRecord
100
AcDbLayerTableRecord
  2
2
 70
           0
 62
           7
  6
CONTINUOUS
  0
LAYER
  5
29
100
AcDbSymbolTableRecord
100
AcDbLayerTableRecord
  2
7
 70
           0
 62
           7
  6
CONTINUOUS
  0
LAYER
  5
2A
100
AcDbSymbolTableRecord
100
AcDbLayerTableRecord
  2
____
 70
           0
 62
           7
  6
CONTINUOUS
  0
ENDTAB
  0
TABLE
  2
STYLE
  5
3
100
AcDbSymbolTable
 70
           1
  0
STYLE
  5
17
100
AcDbSymbolTableRecord
100
AcDbTextStyleTableRecord
  2
STANDARD
 70
           0
 40
0.0
 41
1.0
 50
0.0
 71
           0
 42
0.0
  3
txt
  4

  0
ENDTAB
  0
TABLE
  2
VIEW
  5
5
100
AcDbSymbolTable
 70
           0
  0
ENDTAB
  0
TABLE
  2
UCS
  5
6
100
AcDbSymbolTable
 70
           0
  0
ENDTAB
  0
TABLE
  2
APPID
  5
8
100
AcDbSymbolTable
 70
           1
  0
APPID
  5
16
100
AcDbSymbolTableRecord
100
AcDbRegAppTableRecord
  2
ACAD
 70
           0
  0
ENDTAB
  0
TABLE
  2
DIMSTYLE
  5
9
100
AcDbSymbolTable
 70
           1
  0
DIMSTYLE
105
18
100
AcDbSymbolTableRecord
100
AcDbDimStyleTableRecord
  2
STANDARD
 70
           0
  3

  4

  5

  6

  7

 40
1.0
 41
0.18
 42
0.0625
 43
0.38
 44
0.18
 45
0.0
 46
0.0
 47
0.0
 48
0.0
 71
           0
 72
           0
 73
           1
 74
           1
 75
           0
 76
           0
 77
           0
 78
           0
140
0.18
141
0.09
142
0.0
143
25.4
144
1.0
145
0.0
146
1.0
147
0.09
170
           0
171
           2
172
           0
173
           0
174
           0
175
           0
176
           0
177
           0
178
           0
270
           2
271
           4
272
           4
273
           2
274
           2
275
           0
280
           0
281
           0
282
           0
283
           1
284
           0
285
           0
286
           0
287
           0
288
           0
340
17
  0
ENDTAB
  0
TABLE
  2
BLOCK_RECORD
  5
1
100
AcDbSymbolTable
 70
           0
  0
BLOCK_RECORD
  5
A
100
AcDbSymbolTableRecord
100
AcDbBlockTableRecord
  2
*MODEL_SPACE
  0
BLOCK_RECORD
  5
B
100
AcDbSymbolTableRecord
100
AcDbBlockTableRecord
  2
*PAPER_SPACE
  0
ENDTAB
  0
ENDSEC
  0
SECTION
  2
BLOCKS
  0
BLOCK
  5
D
100
AcDbEntity
  8
0
100
AcDbBlockBegin
  2
*MODEL_SPACE
 70
           0
 10
0.0
 20
0.0
 30
0.0
  3
*MODEL_SPACE
  1

  0
ENDBLK
  5
E
100
AcDbEntity
  8
0
100
AcDbBlockEnd
  0
BLOCK
  5
F
100
AcDbEntity
 67
           1
  8
0
100
AcDbBlockBegin
  2
*PAPER_SPACE
 70
           0
 10
0.0
 20
0.0
 30
0.0
  3
*PAPER_SPACE
  1

  0
ENDBLK
  5
10
100
AcDbEntity
 67
           1
  8
0
100
AcDbBlockEnd
  0
ENDSEC
  0
SECTION
  2
ENTITIES
  0
HATCH
  5
3A2
100
AcDbEntity
  8
0
  6
CONTINUOUS
 62
           2
100
AcDbHatch
 10
0.0
 20
0.0
 30
0.0
210
0.0
220
0.0
230
1.0
  2
USER
 70
           0
 71
           1
 91
        1
 92
        1
 93
        8
 72
           1
 10
4152.0
 20
1739.750000000003
 11
4229.358987904704
 21
1739.750000000003
 72
           2
 10
4152.0
 20
1756.750000000003
 40
17.0
 50
180.0
 51
-90.0
 73
           1
 72
           1
 10
4135.0
 20
1756.750000000003
 11
4135.0
 21
1770.000000000003
 72
           1
 10
4135.0
 20
1770.000000000003
 11
4115.0
 21
1770.000000000003
 72
           1
 10
4115.0
 20
1770.000000000003
 11
4115.0
 21
1756.750000000003
 72
           2
 10
4152.0
 20
1756.750000000003
 40
37.0
 50
180.0
 51
-90.0
 73
           1
 72
           1
 10
4152.0
 20
1719.750000000003
 11
4222.8757424576361
 21
1719.7500000000041
 72
           1
 10
4222.8757424576361
 20
1719.7500000000041
 11
4229.358987904704
 21
1739.750000000003
 97
        7
330
3E
330
31F
330
38B
330
3F
330
320
330
3D
330
38A
 75
           1
 76
           0
 52
45.0
 41
10.0
 77
           0
 78
           1
 53
45.0
 43
0.0
 44
0.0
 45
-7.0710678118654746
 46
7.0710678118654755
 79
           0
 98
        1
 10
0.0
 20
0.0
  0
ARC
  5
3A1
100
AcDbEntity
  8
1
  6
CONTINUOUS
 62
           4
100
AcDbCircle
 10
117.908702762047
 20
5758.496931272071
 40
12.0
100
AcDbArc
 50
90.0
 51
120.430594205713
  0
ARC
  5
3A0
100
AcDbEntity
  8
1
  6
CONTINUOUS
 62
           4
100
AcDbCircle
 10
117.908702762047
 20
5667.496931272071
 40
12.0
100
AcDbArc
 50
-120.430594205709
 51
-90.0
  0
ARC
  5
39F
100
AcDbEntity
  8
1
  6
CONTINUOUS
 62
           7
100
AcDbCircle
 10
144.824966598198
 20
5661.496931272071
 40
12.0
100
AcDbArc
 50
180.0
 51
-90.0
  0
ARC
  5
39E
100
AcDbEntity
  8
1
  6
CONTINUOUS
 62
           7
100
AcDbCircle
 10
144.824966598198
 20
5764.496931272071
 40
12.0
100
AcDbArc
 50
90.0
 51
180.0
  0
ARC
  5
39D
100
AcDbEntity
  8
1
  6
CONTINUOUS
 62
           7
100
AcDbCircle
 10
185.000000000002
 20
5661.496931272071
 40
12.0
100
AcDbArc
 50
-90.0
 51
0.0
  0
ARC
  5
39C
100
AcDbEntity
  8
1
  6
CONTINUOUS
 62
           7
100
AcDbCircle
 10
185.000000000002
 20
5764.496931272071
 40
12.0
100
AcDbArc
 50
0.0
 51
90.0
  0
ARC
  5
39B
100
AcDbEntity
  8
1
  6
CONTINUOUS
 62
           7
100
AcDbCircle
 10
185.000000000003
 20
3387.499999999997
 40
12.0
100
AcDbArc
 50
0.0
 51
90.0
  0
ARC
  5
39A
100
AcDbEntity
  8
1
  6
CONTINUOUS
 62
           7
100
AcDbCircle
 10
185.000000000003
 20
3311.499999999996
 40
12.0
100
AcDbArc
 50
-90.0
 51
0.0
  0
ARC
  5
399
100
AcDbEntity
  8
1
  6
CONTINUOUS
 62
           7
100
AcDbCircle
 10
134.496396800001
 20
3387.499999999997
 40
11.999999999999
100
AcDbArc
 50
90.0
 51
180.0
  0
ARC
  5
398
100
AcDbEntity
  8
1
  6
CONTINUOUS
 62
           7
100
AcDbCircle
 10
134.496396800001
 20
3311.499999999996
 40
12.0
100
AcDbArc
 50
180.0
 51
-90.0
  0
ARC
  5
397
100
AcDbEntity
  8
1
  6
CONTINUOUS
 62
           7
100
AcDbCircle
 10
4698.500000000002
 20
3311.5
 40
12.0
100
AcDbArc
 50
180.0
 51
-90.0
  0
ARC
  5
396
100
AcDbEntity
  8
1
  6
CONTINUOUS
 62
           7
100
AcDbCircle
 10
4698.500000000002
 20
3387.5
 40
12.0
100
AcDbArc
 50
90.0
 51
180.0
  0
ARC
  5
395
100
AcDbEntity
  8
1
  6
CONTINUOUS
 62
           7
100
AcDbCircle
 10
4801.500000000002
 20
3311.5
 40
12.0
100
AcDbArc
 50
-90.0
 51
0.0
  0
ARC
  5
394
100
AcDbEntity
  8
1
  6
CONTINUOUS
 62
           7
100
AcDbCircle
 10
4801.500000000002
 20
3387.5
 40
12.0
100
AcDbArc
 50
0.0
 51
90.0
  0
ARC
  5
393
100
AcDbEntity
  8
1
  6
CONTINUOUS
 62
           4
100
AcDbCircle
 10
5305.5
 20
2660.0
 40
1.0
100
AcDbArc
 50
90.0
 51
180.0
  0
ARC
  5
392
100
AcDbEntity
  8
1
  6
CONTINUOUS
 62
           4
100
AcDbCircle
 10
5294.5
 20
2660.0
 40
1.0
100
AcDbArc
 50
0.0
 51
90.0
  0
ARC
  5
391
100
AcDbEntity
  8
1
  6
CONTINUOUS
 62
           4
100
AcDbCircle
 10
5294.5
 20
3165.999999999998
 40
0.999999999998
100
AcDbArc
 50
-90.0
 51
0.000000000104
  0
ARC
  5
390
100
AcDbEntity
  8
1
  6
CONTINUOUS
 62
           4
100
AcDbCircle
 10
5305.5
 20
3165.999999999998
 40
1.0
100
AcDbArc
 50
179.999999999895
 51
-90.0
  0
ARC
  5
38F
100
AcDbEntity
  8
1
  6
CONTINUOUS
 62
           3
100
AcDbCircle
 10
4648.163567691041
 20
1917.806253419961
 40
0.5
100
AcDbArc
 50
180.0
 51
-90.0
  0
ARC
  5
38E
100
AcDbEntity
  8
1
  6
CONTINUOUS
 62
           3
100
AcDbCircle
 10
4648.163567691041
 20
1932.19374658004
 40
0.5
100
AcDbArc
 50
90.0
 51
180.0
  0
ARC
  5
38D
100
AcDbEntity
  8
1
  6
CONTINUOUS
 62
           3
100
AcDbCircle
 10
4499.899998122324
 20
1641.000000000001
 40
280.0
100
AcDbArc
 50
90.0
 51
180.0
  0
ARC
  5
38C
100
AcDbEntity
  8
1
  6
CONTINUOUS
 62
           3
100
AcDbCircle
 10
4499.899996810931
 20
1641.0
 40
288.0
100
AcDbArc
 50
90.0
 51
180.0
  0
LWPOLYLINE
  5
38B
100
AcDbEntity
  8
1
  6
CONTINUOUS
 62
           7
 60
           1
100
AcDbPolyline
 90
        3
 70
           0
 10
4135.0
 20
1756.750000000003
 10
4135.0
 20
1770.000000000003
 10
4115.0
 20
1770.000000000003
  0
LWPOLYLINE
  5
38A
100
AcDbEntity
  8
1
  6
CONTINUOUS
 62
           7
 60
           1
100
AcDbPolyline
 90
        2
 70
           0
 10
4222.875742457636
 20
1719.750000000004
 10
4229.358987904704
 20
1739.750000000003
  0
SPLINE
  5
389
100
AcDbEntity
  8
0
  6
CONTINUOUS
 62
           3
100
AcDbSpline
210
0.0
220
0.0
230
1.0
 70
           0
 71
           3
 72
           8
 73
           5
 74
           7
 42
0.00000000001
 43
0.00000000001
 44
0.00000000001
 40
0.0
 40
0.0
 40
0.0
 40
0.2989651950314283
 40
0.4296296276535259
 40
0.4465803504008363
 40
0.4465803504008363
 40
0.4465803504008363
 10
4170.8999966098654
 20
1384.6465796233019
 30
0.0
 10
4170.8999966099118
 20
1384.4669365634261
 30
0.0
 10
4170.8999966099118
 20
1384.2282922931149
 30
0.0
 10
4170.8999966099118
 20
1384.2056076981819
 30
0.0
 10
4170.8999966099118
 20
1384.1999992729011
 30
0.0
 11
4170.8999966098654
 21
1384.6465796233019
 31
0.0
 11
4170.8999966099
 21
1384.4703311443236
 31
0.0
 11
4170.8999966099118
 21
1384.3008718271406
 31
0.0
 11
4170.8999966099118
 21
1384.2414172487579
 31
0.0
 11
4170.8999966099118
 21
1384.2082125816601
 31
0.0
 11
4170.8999966099118
 21
1384.2048568127311
 31
0.0
 11
4170.8999966099118
 21
1384.1999992729011
 31
0.0
  0
SPLINE
  5
388
100
AcDbEntity
  8
0
  6
CONTINUOUS
 62
           3
100
AcDbSpline
210
0.0
220
0.0
230
1.0
 70
           0
 71
           3
 72
           8
 73
           5
 74
           7
 42
0.00000000001
 43
0.00000000001
 44
0.00000000001
 40
0.0
 40
0.0
 40
0.0
 40
0.0169507227473105
 40
0.1476151553694081
 40
0.4465803504008363
 40
0.4465803504008363
 40
0.4465803504008363
 10
4160.8999968334329
 20
1384.1999992729011
 30
0.0
 10
4160.8999968334329
 20
1384.2056076981819
 30
0.0
 10
4160.8999968334329
 20
1384.2282922931149
 30
0.0
 10
4160.8999968334329
 20
1384.4669365634261
 30
0.0
 10
4160.899996833472
 20
1384.6465796233019
 30
0.0
 11
4160.8999968334329
 21
1384.1999992729011
 31
0.0
 11
4160.8999968334329
 21
1384.2048568127314
 31
0.0
 11
4160.8999968334329
 21
1384.2082125816601
 31
0.0
 11
4160.8999968334329
 21
1384.2414172487574
 31
0.0
 11
4160.8999968334329
 21
1384.3008718271406
 31
0.0
 11
4160.8999968334429
 21
1384.4703311443236
 31
0.0
 11
4160.899996833472
 21
1384.6465796233019
 31
0.0
  0
SPLINE
  5
387
100
AcDbEntity
  8
0
  6
CONTINUOUS
 62
           3
100
AcDbSpline
210
0.0
220
0.0
230
1.0
 70
           0
 71
           3
 72
           8
 73
           5
 74
           7
 42
0.00000000001
 43
0.00000000001
 44
0.00000000001
 40
0.0
 40
0.0
 40
0.0
 40
0.4813883392842194
 40
1.3325653926429744
 40
2.5594910488319842
 40
2.5594910488319842
 40
2.5594910488319842
 10
4168.3999966657611
 20
1384.1999992729011
 30
0.0
 10
4168.459261471944
 20
1384.2004449713099
 30
0.0
 10
4169.3034813132917
 20
1384.2067938900659
 30
0.0
 10
4170.130777332779
 20
1384.4346858415549
 30
0.0
 10
4170.8999966098654
 20
1384.6465796233019
 30
0.0
 11
4168.3999966657611
 21
1384.1999992729011
 31
0.0
 11
4168.5206887308805
 21
1384.2009069323503
 31
0.0
 11
4168.7642353138735
 21
1384.2027385138806
 31
0.0
 11
4169.2533835507429
 21
1384.2291158030616
 31
0.0
 11
4169.6423362625137
 21
1384.3001369182334
 31
0.0
 11
4170.2009718844847
 21
1384.4540220561616
 31
0.0
 11
4170.8999966098654
 21
1384.6465796233019
 31
0.0
  0
SPLINE
  5
386
100
AcDbEntity
  8
0
  6
CONTINUOUS
 62
           3
100
AcDbSpline
210
0.0
220
0.0
230
1.0
 70
           0
 71
           3
 72
           8
 73
           5
 74
           7
 42
0.00000000001
 43
0.00000000001
 44
0.00000000001
 40
0.0
 40
0.0
 40
0.0
 40
0.4813884775037948
 40
1.3325655942383983
 40
2.5594910572531155
 40
2.5594910572531155
 40
2.5594910572531155
 10
4163.3999967775544
 20
1384.1999992729011
 30
0.0
 10
4163.459261584394
 20
1384.200444971553
 30
0.0
 10
4164.3034817008302
 20
1384.206793895828
 30
0.0
 10
4165.1307775679606
 20
1384.4346858417259
 30
0.0
 10
4165.8999967216751
 20
1384.6465796232951
 30
0.0
 11
4163.3999967775544
 21
1384.1999992729011
 31
0.0
 11
4163.5206888783678
 21
1384.2009069331091
 31
0.0
 11
4163.7642355671278
 21
1384.2027385164288
 31
0.0
 11
4164.2533839007074
 21
1384.2291158106427
 31
0.0
 11
4164.6423366340432
 21
1384.3001369344856
 31
0.0
 11
4165.2009721229097
 21
1384.454022060308
 31
0.0
 11
4165.8999967216751
 21
1384.6465796232951
 31
0.0
  0
SPLINE
  5
385
100
AcDbEntity
  8
0
  6
CONTINUOUS
 62
           3
100
AcDbSpline
210
0.0
220
0.0
230
1.0
 70
           0
 71
           3
 72
           8
 73
           5
 74
           7
 42
0.00000000001
 43
0.00000000001
 44
0.00000000001
 40
0.0
 40
0.0
 40
0.0
 40
0.2779454797452844
 40
0.7862825386893746
 40
1.542963890722207
 40
1.542963890722207
 40
1.542963890722207
 10
4161.569869687346
 20
1367.5999939442561
 30
0.0
 10
4161.6040862319223
 20
1367.6004396365131
 30
0.0
 10
4162.09149695003
 20
1367.606788471174
 30
0.0
 10
4162.5691364171962
 20
1367.8346843256779
 30
0.0
 10
4163.0132452878443
 20
1368.046581745235
 30
0.0
 11
4161.569869687346
 21
1367.5999939442561
 31
0.0
 11
4161.6386061814947
 21
1367.6008892808159
 31
0.0
 11
4161.7763825747907
 21
1367.6026839059823
 31
0.0
 11
4162.0607022116073
 21
1367.6286568402284
 31
0.0
 11
4162.2834323715761
 21
1367.6983665125833
 31
0.0
 11
4162.6087376234536
 21
1367.8535792272935
 31
0.0
 11
4163.0132452878443
 21
1368.046581745235
 31
0.0
  0
SPLINE
  5
384
100
AcDbEntity
  8
0
  6
CONTINUOUS
 62
           3
100
AcDbSpline
210
0.0
220
0.0
230
1.0
 70
           0
 71
           3
 72
           8
 73
           5
 74
           7
 42
0.00000000001
 43
0.00000000001
 44
0.00000000001
 40
0.0
 40
0.0
 40
0.0
 40
0.2779464854372229
 40
0.7862840843773913
 40
1.542964265856738
 40
1.542964265856738
 40
1.542964265856738
 10
4161.569869687346
 20
1372.6000040770409
 30
0.0
 10
4161.5356531379821
 20
1372.5995583816691
 30
0.0
 10
4161.0482404188824
 20
1372.59320947744
 30
0.0
 10
4160.5706019393401
 20
1372.3653136934729
 30
0.0
 10
4160.1264938539734
 20
1372.1534162761091
 30
0.0
 11
4161.569869687346
 21
1372.6000040770409
 31
0.0
 11
4161.501132941592
 21
1372.5991087310697
 31
0.0
 11
4161.3633558030579
 21
1372.5973140838994
 31
0.0
 11
4161.0790354338669
 21
1372.5713410900562
 31
0.0
 11
4160.8563050946441
 21
1372.501631321446
 31
0.0
 11
4160.5310007068247
 21
1372.3464187461252
 31
0.0
 11
4160.1264938539734
 21
1372.1534162761091
 31
0.0
  0
SPLINE
  5
383
100
AcDbEntity
  8
0
  6
CONTINUOUS
 62
           3
100
AcDbSpline
210
0.0
220
0.0
230
1.0
 70
           0
 71
           3
 72
           8
 73
           5
 74
           7
 42
0.00000000001
 43
0.00000000001
 44
0.00000000001
 40
0.0
 40
0.0
 40
0.0
 40
0.2779464854282279
 40
0.7862840843628116
 40
1.5429642658951668
 40
1.5429642658951668
 40
1.5429642658951668
 10
4170.2301237560041
 20
1367.5999939442561
 30
0.0
 10
4170.2643403053644
 20
1367.6004396396361
 30
0.0
 10
4170.7517530244531
 20
1367.606788543864
 30
0.0
 10
4171.2293915039991
 20
1367.834684327823
 30
0.0
 10
4171.6734995893648
 20
1368.0465817453121
 30
0.0
 11
4170.2301237560041
 21
1367.5999939442561
 31
0.0
 11
4170.2988605017545
 21
1367.6008892902335
 31
0.0
 11
4170.4366376402822
 21
1367.6026839374053
 31
0.0
 11
4170.7209580094677
 21
1367.6286569312458
 31
0.0
 11
4170.9436883486833
 21
1367.6983666998503
 31
0.0
 11
4171.2689927365109
 21
1367.853579275202
 31
0.0
 11
4171.6734995893648
 21
1368.0465817453121
 31
0.0
  0
SPLINE
  5
382
100
AcDbEntity
  8
0
  6
CONTINUOUS
 62
           3
100
AcDbSpline
210
0.0
220
0.0
230
1.0
 70
           0
 71
           3
 72
           8
 73
           5
 74
           7
 42
0.00000000001
 43
0.00000000001
 44
0.00000000001
 40
0.0
 40
0.0
 40
0.0
 40
0.2779454797516238
 40
0.7862825386960015
 40
1.5429638907280734
 40
1.5429638907280734
 40
1.5429638907280734
 10
4170.2301237560041
 20
1372.6000040770409
 30
0.0
 10
4170.1959072114241
 20
1372.599558384783
 30
0.0
 10
4169.708496493311
 20
1372.593209550128
 30
0.0
 10
4169.2308570261521
 20
1372.36531369562
 30
0.0
 10
4168.7867481555022
 20
1372.1534162760629
 30
0.0
 11
4170.2301237560041
 21
1372.6000040770409
 31
0.0
 11
4170.1613872618509
 21
1372.5991087404805
 31
0.0
 11
4170.0236108685513
 21
1372.5973141153158
 31
0.0
 11
4169.7392912317346
 21
1372.5713411810721
 31
0.0
 11
4169.5165610717668
 21
1372.5016315087169
 31
0.0
 11
4169.1912558198928
 21
1372.3464187940049
 31
0.0
 11
4168.7867481555022
 21
1372.1534162760629
 31
0.0
  0
SPLINE
  5
381
100
AcDbEntity
  8
0
  6
CONTINUOUS
 62
           3
100
AcDbSpline
210
0.0
220
0.0
230
1.0
 70
           0
 71
           3
 72
           8
 73
           5
 74
           7
 42
0.00000000001
 43
0.00000000001
 44
0.00000000001
 40
0.0
 40
0.0
 40
0.0
 40
0.7097107189136365
 40
1.6878556121186348
 40
2.9354150974118154
 40
2.9354150974118154
 40
2.9354150974118154
 10
4163.0132452878443
 20
1368.046581745235
 30
0.0
 10
4163.2266018694954
 20
1367.9869406026951
 30
0.0
 10
4164.1669045504623
 20
1367.7240908429519
 30
0.0
 10
4165.1443418916842
 20
1367.6541020998659
 30
0.0
 10
4165.8999967216751
 20
1367.5999939442561
 30
0.0
 11
4163.0132452878443
 21
1368.046581745235
 31
0.0
 11
4163.2721075078007
 21
1367.9742200752123
 31
0.0
 11
4163.6219810043658
 21
1367.8764173502236
 31
0.0
 11
4164.1380638628543
 21
1367.7544828668408
 31
0.0
 11
4164.5964653461278
 21
1367.6933324312363
 31
0.0
 11
4165.1962864627931
 21
1367.6503826438061
 31
0.0
 11
4165.8999967216751
 21
1367.5999939442561
 31
0.0
  0
SPLINE
  5
380
100
AcDbEntity
  8
0
  6
CONTINUOUS
 62
           3
100
AcDbSpline
210
0.0
220
0.0
230
1.0
 70
           0
 71
           3
 72
           8
 73
           5
 74
           7
 42
0.00000000001
 43
0.00000000001
 44
0.00000000001
 40
0.0
 40
0.0
 40
0.0
 40
0.7273681394902353
 40
1.7065914567886487
 40
2.9387223240284963
 40
2.9387223240284963
 40
2.9387223240284963
 10
4165.8999967216751
 20
1367.5999939442561
 30
0.0
 10
4166.138719501032
 20
1367.6054734833269
 30
0.0
 10
4167.1156271469818
 20
1367.6278969974519
 30
0.0
 10
4168.0674888562444
 20
1367.8663776207211
 30
0.0
 10
4168.7867481553621
 20
1368.0465817453121
 30
0.0
 11
4165.8999967216751
 21
1367.5999939442561
 31
0.0
 11
4166.1831310149719
 21
1367.6064928859432
 31
0.0
 11
4166.555088336152
 21
1367.6150306328632
 31
0.0
 11
4167.0808673755118
 21
1367.6510811733845
 31
0.0
 11
4167.5371268719337
 21
1367.7335000657718
 31
0.0
 11
4168.1147131849466
 21
1367.8782092631316
 31
0.0
 11
4168.7867481553621
 21
1368.0465817453121
 31
0.0
  0
SPLINE
  5
37F
100
AcDbEntity
  8
0
  6
CONTINUOUS
 62
           3
100
AcDbSpline
210
0.0
220
0.0
230
1.0
 70
           0
 71
           3
 72
           8
 73
           5
 74
           7
 42
0.00000000001
 43
0.00000000001
 44
0.00000000001
 40
0.0
 40
0.0
 40
0.0
 40
1.2321308673575031
 40
2.2113541846558551
 40
2.9387223241460565
 40
2.9387223241460565
 40
2.9387223241460565
 10
4168.7867481555022
 20
1372.1534162760629
 30
0.0
 10
4168.0674888562444
 20
1372.3336204005791
 30
0.0
 10
4167.1156271469818
 20
1372.5721010238481
 30
0.0
 10
4166.138719501032
 20
1372.5945245379701
 30
0.0
 10
4165.8999967216751
 20
1372.6000040770409
 30
0.0
 11
4168.7867481555022
 21
1372.1534162760629
 31
0.0
 11
4168.1147131849757
 21
1372.3217887581889
 31
0.0
 11
4167.5371268719109
 21
1372.4664979555341
 31
0.0
 11
4167.0808673755073
 21
1372.5489168479164
 31
0.0
 11
4166.555088336152
 21
1372.5849673884352
 31
0.0
 11
4166.1831310149737
 21
1372.593505135354
 31
0.0
 11
4165.8999967216751
 21
1372.6000040770409
 31
0.0
  0
SPLINE
  5
37E
100
AcDbEntity
  8
0
  6
CONTINUOUS
 62
           3
100
AcDbSpline
210
0.0
220
0.0
230
1.0
 70
           0
 71
           3
 72
           8
 73
           5
 74
           7
 42
0.00000000001
 43
0.00000000001
 44
0.00000000001
 40
0.0
 40
0.0
 40
0.0
 40
1.2475616964931251
 40
2.2257084622422227
 40
2.9354211178794145
 40
2.9354211178794145
 40
2.9354211178794145
 10
4165.8999967216751
 20
1372.6000040770409
 30
0.0
 10
4165.1443400642538
 20
1372.5459088094719
 30
0.0
 10
4164.1668989125837
 20
1372.475936633469
 30
0.0
 10
4163.2266017037628
 20
1372.2130631111611
 30
0.0
 10
4163.0132452878443
 20
1372.1534162760629
 30
0.0
 11
4165.8999967216751
 21
1372.6000040770409
 31
0.0
 11
4165.196284566804
 21
1372.5496273656929
 31
0.0
 11
4164.5964614170334
 21
1372.5066877667873
 31
0.0
 11
4164.1380594916318
 21
1372.445539360308
 31
0.0
 11
4163.6219787243281
 21
1372.3235964075068
 31
0.0
 11
4163.2721068549254
 21
1372.225784726473
 31
0.0
 11
4163.0132452878443
 21
1372.1534162760629
 31
0.0
  0
SPLINE
  5
37D
100
AcDbEntity
  8
0
  6
CONTINUOUS
 62
           3
100
AcDbSpline
210
0.0
220
0.0
230
1.0
 70
           0
 71
           3
 72
           8
 73
           5
 74
           7
 42
0.00000000001
 43
0.00000000001
 44
0.00000000001
 40
0.0
 40
0.0
 40
0.0
 40
0.2779452695546096
 40
0.7862805426569653
 40
1.5429573554978036
 40
1.5429573554978036
 40
1.5429573554978036
 10
4161.569869687346
 20
1372.6000040770409
 30
0.0
 10
4161.6040862308737
 20
1372.6004497818101
 30
0.0
 10
4162.0914965280836
 20
1372.6067987893659
 30
0.0
 10
4162.5691362283633
 20
1372.8346868330841
 30
0.0
 10
4163.0132452878443
 20
1373.04657697686
 30
0.0
 11
4161.569869687346
 21
1372.6000040770409
 31
0.0
 11
4161.6386062202855
 21
1372.6008994392644
 31
0.0
 11
4161.7763827320487
 21
1372.6026941163966
 31
0.0
 11
4162.0607020292246
 21
1372.628666380841
 31
0.0
 11
4162.2834323286852
 21
1372.6983738282352
 31
0.0
 11
4162.6087375183142
 21
1372.8535811178158
 31
0.0
 11
4163.0132452878443
 21
1373.04657697686
 31
0.0
  0
SPLINE
  5
37C
100
AcDbEntity
  8
0
  6
CONTINUOUS
 62
           3
100
AcDbSpline
210
0.0
220
0.0
230
1.0
 70
           0
 71
           3
 72
           8
 73
           5
 74
           7
 42
0.00000000001
 43
0.00000000001
 44
0.00000000001
 40
0.0
 40
0.0
 40
0.0
 40
0.2779463803337243
 40
0.786283086340376
 40
1.5429609982601331
 40
1.5429609982601331
 40
1.5429609982601331
 10
4161.569869687346
 20
1377.5999993086659
 30
0.0
 10
4161.5356531385041
 20
1377.5995536070379
 30
0.0
 10
4161.0482406298743
 20
1377.593204616358
 30
0.0
 10
4160.570602033762
 20
1377.3653127377879
 30
0.0
 10
4160.1264938539734
 20
1377.1534189582051
 30
0.0
 11
4161.569869687346
 21
1377.5999993086659
 31
0.0
 11
4161.501132922197
 21
1377.5991039498626
 31
0.0
 11
4161.3633557244348
 21
1377.5973092767085
 31
0.0
 11
4161.0790355250738
 21
1377.5713366177663
 31
0.0
 11
4160.8563051161109
 21
1377.5016279616409
 31
0.0
 11
4160.5310007594016
 21
1377.3464180988553
 31
0.0
 11
4160.1264938539734
 21
1377.1534189582051
 31
0.0
  0
SPLINE
  5
37B
100
AcDbEntity
  8
0
  6
CONTINUOUS
 62
           3
100
AcDbSpline
210
0.0
220
0.0
230
1.0
 70
           0
 71
           3
 72
           8
 73
           5
 74
           7
 42
0.00000000001
 43
0.00000000001
 44
0.00000000001
 40
0.0
 40
0.0
 40
0.0
 40
0.2779462752393233
 40
0.7862820883274686
 40
1.5429577306519295
 40
1.5429577306519295
 40
1.5429577306519295
 10
4170.2301237560041
 20
1372.6000040770409
 30
0.0
 10
4170.2643403043221
 20
1372.6004497849281
 30
0.0
 10
4170.751752602504
 20
1372.6067988620521
 30
0.0
 10
4171.2293913151643
 20
1372.8346868352339
 30
0.0
 10
4171.6734995893648
 20
1373.0465769769121
 30
0.0
 11
4170.2301237560041
 21
1372.6000040770409
 31
0.0
 11
4170.298860540548
 21
1372.6008994486779
 31
0.0
 11
4170.4366377975457
 21
1372.6026941478153
 31
0.0
 11
4170.7209578270867
 21
1372.6286664718543
 31
0.0
 11
4170.9436883057915
 21
1372.6983740154981
 31
0.0
 11
4171.2689926313715
 21
1372.8535811657196
 31
0.0
 11
4171.6734995893648
 21
1373.0465769769121
 31
0.0
  0
SPLINE
  5
37A
100
AcDbEntity
  8
0
  6
CONTINUOUS
 62
           3
100
AcDbSpline
210
0.0
220
0.0
230
1.0
 70
           0
 71
           3
 72
           8
 73
           5
 74
           7
 42
0.00000000001
 43
0.00000000001
 44
0.00000000001
 40
0.0
 40
0.0
 40
0.0
 40
0.2779453746522189
 40
0.7862815406665487
 40
1.5429606230909056
 40
1.5429606230909056
 40
1.5429606230909056
 10
4170.2301237560041
 20
1377.5999993086659
 30
0.0
 10
4170.1959072119507
 20
1377.5995536101509
 30
0.0
 10
4169.7084967042902
 20
1377.5932046890459
 30
0.0
 10
4169.230857120574
 20
1377.365312739938
 30
0.0
 10
4168.7867481555022
 20
1377.1534189582669
 30
0.0
 11
4170.2301237560041
 21
1377.5999993086659
 31
0.0
 11
4170.1613872424577
 21
1377.599103959273
 31
0.0
 11
4170.0236107899254
 21
1377.5973093081243
 31
0.0
 11
4169.7392913229314
 21
1377.5713367087808
 31
0.0
 11
4169.5165610932199
 21
1377.501628148907
 31
0.0
 11
4169.1912558724671
 21
1377.3464181467623
 31
0.0
 11
4168.7867481555022
 21
1377.1534189582669
 31
0.0
  0
SPLINE
  5
379
100
AcDbEntity
  8
0
  6
CONTINUOUS
 62
           3
100
AcDbSpline
210
0.0
220
0.0
230
1.0
 70
           0
 71
           3
 72
           8
 73
           5
 74
           7
 42
0.00000000001
 43
0.00000000001
 44
0.00000000001
 40
0.0
 40
0.0
 40
0.0
 40
0.7097104926816197
 40
1.6878550560184646
 40
2.9354142011749875
 40
2.9354142011749875
 40
2.9354142011749875
 10
4163.0132452878443
 20
1373.04657697686
 30
0.0
 10
4163.2266018489554
 20
1372.9869356693489
 30
0.0
 10
4164.166903851652
 20
1372.7240853468579
 30
0.0
 10
4165.1443416651719
 20
1372.654105412621
 30
0.0
 10
4165.8999967216751
 20
1372.6000040770409
 30
0.0
 11
4163.0132452878443
 21
1373.04657697686
 31
0.0
 11
4163.2721074221536
 21
1372.9742151236569
 31
0.0
 11
4163.6219807028583
 21
1372.8764121790696
 31
0.0
 11
4164.1380633113713
 21
1372.7544784200809
 31
0.0
 11
4164.5964648393274
 21
1372.6933308075384
 31
0.0
 11
4165.1962862228365
 21
1372.6503864274553
 31
0.0
 11
4165.8999967216751
 21
1372.6000040770409
 31
0.0
  0
SPLINE
  5
378
100
AcDbEntity
  8
0
  6
CONTINUOUS
 62
           3
100
AcDbSpline
210
0.0
220
0.0
230
1.0
 70
           0
 71
           3
 72
           8
 73
           5
 74
           7
 42
0.00000000001
 43
0.00000000001
 44
0.00000000001
 40
0.0
 40
0.0
 40
0.0
 40
0.7273675739550281
 40
1.7065896374617373
 40
2.9387184666004718
 40
2.9387184666004718
 40
2.9387184666004718
 10
4165.8999967216751
 20
1372.6000040770409
 30
0.0
 10
4166.1387194651561
 20
1372.605483801264
 30
0.0
 10
4167.1156260260923
 20
1372.6279080515189
 30
0.0
 10
4168.0674885010521
 20
1372.8663796942849
 30
0.0
 10
4168.7867481553621
 20
1373.0465769769121
 30
0.0
 11
4165.8999967216751
 21
1372.6000040770409
 31
0.0
 11
4166.1831309024901
 21
1372.6065032367185
 31
0.0
 11
4166.5550879579741
 21
1372.6150412673048
 31
0.0
 11
4167.0808665470095
 21
1372.6510911338648
 31
0.0
 11
4167.5371261778791
 21
1372.7335071651169
 31
0.0
 11
4168.1147128338362
 21
1372.8782108826497
 31
0.0
 11
4168.7867481553621
 21
1373.0465769769121
 31
0.0
  0
SPLINE
  5
377
100
AcDbEntity
  8
0
  6
CONTINUOUS
 62
           3
100
AcDbSpline
210
0.0
220
0.0
230
1.0
 70
           0
 71
           3
 72
           8
 73
           5
 74
           7
 42
0.00000000001
 43
0.00000000001
 44
0.00000000001
 40
0.0
 40
0.0
 40
0.0
 40
1.2321298483019152
 40
2.2113525386989785
 40
2.9387203954176098
 40
2.9387203954176098
 40
2.9387203954176098
 10
4168.7867481555022
 20
1377.1534189582669
 30
0.0
 10
4168.0674886786446
 20
1377.333619661815
 30
0.0
 10
4167.115626586532
 20
1377.5720957948331
 30
0.0
 10
4166.1387194830913
 20
1377.5945196770219
 30
0.0
 10
4165.8999967216751
 20
1377.5999993086659
 30
0.0
 11
4168.7867481555022
 21
1377.1534189582669
 31
0.0
 11
4168.1147130094178
 21
1377.3217882464442
 31
0.0
 11
4167.5371265248787
 21
1377.4664947038796
 31
0.0
 11
4167.0808669612506
 21
1377.5489121656947
 31
0.0
 11
4166.555088147059
 21
1377.5849623692338
 31
0.0
 11
4166.1831309587287
 21
1377.5935002579859
 31
0.0
 11
4165.8999967216751
 21
1377.5999993086659
 31
0.0
  0
SPLINE
  5
376
100
AcDbEntity
  8
0
  6
CONTINUOUS
 62
           3
100
AcDbSpline
210
0.0
220
0.0
230
1.0
 70
           0
 71
           3
 72
           8
 73
           5
 74
           7
 42
0.00000000001
 43
0.00000000001
 44
0.00000000001
 40
0.0
 40
0.0
 40
0.0
 40
1.24756042078711
 40
2.2257060852955828
 40
2.9354176594305246
 40
2.9354176594305246
 40
2.9354176594305246
 10
4165.8999967216751
 20
1377.5999993086659
 30
0.0
 10
4165.144340864721
 20
1377.5459010071061
 30
0.0
 10
4164.1669013821611
 20
1377.4759249520059
 30
0.0
 10
4163.2266017763632
 20
1377.2130630295719
 30
0.0
 10
4163.0132452878443
 20
1377.1534189582669
 30
0.0
 11
4165.8999967216751
 21
1377.5999993086659
 31
0.0
 11
4165.1962853948316
 21
1377.5496197777986
 31
0.0
 11
4164.5964631282077
 21
1377.5066777883162
 31
0.0
 11
4164.1380614015361
 21
1377.4455297788065
 31
0.0
 11
4163.6219797136146
 21
1377.3235914228976
 31
0.0
 11
4163.2721071385458
 21
1377.2257841100773
 31
0.0
 11
4163.0132452878443
 21
1377.1534189582669
 31
0.0
  0
SPLINE
  5
375
100
AcDbEntity
  8
0
  6
CONTINUOUS
 62
           3
100
AcDbSpline
210
0.0
220
0.0
230
1.0
 70
           0
 71
           3
 72
           8
 73
           5
 74
           7
 42
0.00000000001
 43
0.00000000001
 44
0.00000000001
 40
0.0
 40
0.0
 40
0.0
 40
0.2779454797452741
 40
0.7862825386897797
 40
1.5429638907220735
 40
1.5429638907220735
 40
1.5429638907220735
 10
4161.569869687346
 20
1359.9999994040479
 30
0.0
 10
4161.6040862319223
 20
1360.0004450963061
 30
0.0
 10
4162.09149695003
 20
1360.0067939309631
 30
0.0
 10
4162.5691364171962
 20
1360.2346897854691
 30
0.0
 10
4163.0132452878443
 20
1360.4465872050239
 30
0.0
 11
4161.569869687346
 21
1359.9999994040479
 31
0.0
 11
4161.6386061814956
 21
1360.0008947406086
 31
0.0
 11
4161.7763825747907
 21
1360.0026893657737
 31
0.0
 11
4162.0607022116064
 21
1360.0286623000184
 31
0.0
 11
4162.283432371577
 21
1360.0983719723736
 31
0.0
 11
4162.6087376234536
 21
1360.2535846870837
 31
0.0
 11
4163.0132452878443
 21
1360.4465872050239
 31
0.0
  0
SPLINE
  5
374
100
AcDbEntity
  8
0
  6
CONTINUOUS
 62
           3
100
AcDbSpline
210
0.0
220
0.0
230
1.0
 70
           0
 71
           3
 72
           8
 73
           5
 74
           7
 42
0.00000000001
 43
0.00000000001
 44
0.00000000001
 40
0.0
 40
0.0
 40
0.0
 40
0.2779462752379294
 40
0.7862820883294689
 40
1.5429577306141136
 40
1.5429577306141136
 40
1.5429577306141136
 10
4161.569869687346
 20
1364.9999946356729
 30
0.0
 10
4161.5356531390325
 20
1364.9995489277901
 30
0.0
 10
4161.0482408408443
 20
1364.993199850662
 30
0.0
 10
4160.5706021281821
 20
1364.7653118774831
 30
0.0
 10
4160.1264938539734
 20
1364.553421735915
 30
0.0
 11
4161.569869687346
 21
1364.9999946356729
 31
0.0
 11
4161.5011329028048
 21
1364.9990992640387
 31
0.0
 11
4161.363355645808
 21
1364.9973045649015
 31
0.0
 11
4161.0790356162615
 21
1364.97133224086
 31
0.0
 11
4160.8563051375486
 21
1364.9016246972139
 31
0.0
 11
4160.5310008119714
 21
1364.7464175470238
 31
0.0
 11
4160.1264938539734
 21
1364.553421735915
 31
0.0
  0
SPLINE
  5
373
100
AcDbEntity
  8
0
  6
CONTINUOUS
 62
           3
100
AcDbSpline
210
0.0
220
0.0
230
1.0
 70
           0
 71
           3
 72
           8
 73
           5
 74
           7
 42
0.00000000001
 43
0.00000000001
 44
0.00000000001
 40
0.0
 40
0.0
 40
0.0
 40
0.27794648546984
 40
0.7862840844052634
 40
1.5429642659453049
 40
1.5429642659453049
 40
1.5429642659453049
 10
4170.2301237559641
 20
1359.9999994039219
 30
0.0
 10
4170.2643403053644
 20
1360.000445099424
 30
0.0
 10
4170.7517530244531
 20
1360.0067940036531
 30
0.0
 10
4171.2293915039991
 20
1360.2346897876159
 30
0.0
 10
4171.6734995893648
 20
1360.446587205121
 30
0.0
 11
4170.2301237559641
 21
1359.9999994039219
 31
0.0
 11
4170.2988605017481
 21
1360.0008947499909
 31
0.0
 11
4170.4366376402986
 21
1360.002689397194
 31
0.0
 11
4170.7209580094714
 21
1360.0286623910351
 31
0.0
 11
4170.9436883486833
 21
1360.0983721596403
 31
0.0
 11
4171.2689927365109
 21
1360.2535847349982
 31
0.0
 11
4171.6734995893648
 21
1360.446587205121
 31
0.0
  0
SPLINE
  5
372
100
AcDbEntity
  8
0
  6
CONTINUOUS
 62
           3
100
AcDbSpline
210
0.0
220
0.0
230
1.0
 70
           0
 71
           3
 72
           8
 73
           5
 74
           7
 42
0.00000000001
 43
0.00000000001
 44
0.00000000001
 40
0.0
 40
0.0
 40
0.0
 40
0.2779452695532173
 40
0.7862805426562545
 40
1.5429573555005907
 40
1.5429573555005907
 40
1.5429573555005907
 10
4170.2301237560041
 20
1364.9999946356729
 30
0.0
 10
4170.1959072124746
 20
1364.999548930904
 30
0.0
 10
4169.7084969152711
 20
1364.993199923352
 30
0.0
 10
4169.2308572149832
 20
1364.7653118796329
 30
0.0
 10
4168.7867481555022
 20
1364.5534217358579
 30
0.0
 11
4170.2301237560041
 21
1364.9999946356729
 31
0.0
 11
4170.1613872230637
 21
1364.9990992734502
 31
0.0
 11
4170.0236107113024
 21
1364.9973045963191
 31
0.0
 11
4169.7392914141274
 21
1364.9713323318763
 31
0.0
 11
4169.5165611146658
 21
1364.9016248844825
 31
0.0
 11
4169.1912559250341
 21
1364.7464175949015
 31
0.0
 11
4168.7867481555022
 21
1364.5534217358579
 31
0.0
  0
SPLINE
  5
371
100
AcDbEntity
  8
0
  6
CONTINUOUS
 62
           3
100
AcDbSpline
210
0.0
220
0.0
230
1.0
 70
           0
 71
           3
 72
           8
 73
           5
 74
           7
 42
0.00000000001
 43
0.00000000001
 44
0.00000000001
 40
0.0
 40
0.0
 40
0.0
 40
0.7097126556365796
 40
1.6878594213857179
 40
2.935421117878819
 40
2.935421117878819
 40
2.935421117878819
 10
4163.0132452878443
 20
1360.4465872050239
 30
0.0
 10
4163.2266017037628
 20
1360.386940369928
 30
0.0
 10
4164.1668989125837
 20
1360.12406684762
 30
0.0
 10
4165.1443400642538
 20
1360.054094671616
 30
0.0
 10
4165.8999967216751
 20
1359.9999994040479
 30
0.0
 11
4163.0132452878443
 21
1360.4465872050239
 31
0.0
 11
4163.2721068549245
 21
1360.3742187546154
 31
0.0
 11
4163.6219787243281
 21
1360.2764070735825
 31
0.0
 11
4164.1380594916318
 21
1360.1544641207806
 31
0.0
 11
4164.5964614170334
 21
1360.0933157143013
 31
0.0
 11
4165.196284566804
 21
1360.0503761153952
 31
0.0
 11
4165.8999967216751
 21
1359.9999994040479
 31
0.0
  0
SPLINE
  5
370
100
AcDbEntity
  8
0
  6
CONTINUOUS
 62
           3
100
AcDbSpline
210
0.0
220
0.0
230
1.0
 70
           0
 71
           3
 72
           8
 73
           5
 74
           7
 42
0.00000000001
 43
0.00000000001
 44
0.00000000001
 40
0.0
 40
0.0
 40
0.0
 40
0.7273681394901727
 40
1.7065914567886966
 40
2.9387223240332414
 40
2.9387223240332414
 40
2.9387223240332414
 10
4165.8999967216751
 20
1359.9999994040479
 30
0.0
 10
4166.138719501032
 20
1360.005478943116
 30
0.0
 10
4167.1156271469818
 20
1360.027902457241
 30
0.0
 10
4168.0674888562444
 20
1360.2663830805111
 30
0.0
 10
4168.7867481553621
 20
1360.446587205121
 30
0.0
 11
4165.8999967216751
 21
1359.9999994040479
 31
0.0
 11
4166.1831310149719
 21
1360.006498345733
 31
0.0
 11
4166.555088336152
 21
1360.0150360926523
 31
0.0
 11
4167.0808673755118
 21
1360.0510866331738
 31
0.0
 11
4167.5371268719327
 21
1360.1335055255608
 31
0.0
 11
4168.1147131849466
 21
1360.2782147229261
 31
0.0
 11
4168.7867481553621
 21
1360.446587205121
 31
0.0
  0
SPLINE
  5
36F
100
AcDbEntity
  8
0
  6
CONTINUOUS
 62
           3
100
AcDbSpline
210
0.0
220
0.0
230
1.0
 70
           0
 71
           3
 72
           8
 73
           5
 74
           7
 42
0.00000000001
 43
0.00000000001
 44
0.00000000001
 40
0.0
 40
0.0
 40
0.0
 40
1.2321288292613362
 40
2.2113508927684427
 40
2.9387184667233872
 40
2.9387184667233872
 40
2.9387184667233872
 10
4168.7867481555022
 20
1364.5534217358579
 30
0.0
 10
4168.0674885010521
 20
1364.733619018429
 30
0.0
 10
4167.1156260260923
 20
1364.9720906611981
 30
0.0
 10
4166.1387194651561
 20
1364.994514911454
 30
0.0
 10
4165.8999967216751
 20
1364.9999946356729
 30
0.0
 11
4168.7867481555022
 21
1364.5534217358579
 31
0.0
 11
4168.1147128338662
 21
1364.7217878300803
 31
0.0
 11
4167.5371261778564
 21
1364.8664915476047
 31
0.0
 11
4167.0808665470049
 21
1364.9489075788533
 31
0.0
 11
4166.5550879579741
 21
1364.9849574454126
 31
0.0
 11
4166.1831309024901
 21
1364.9934954759983
 31
0.0
 11
4165.8999967216751
 21
1364.9999946356729
 31
0.0
  0
SPLINE
  5
36E
100
AcDbEntity
  8
0
  6
CONTINUOUS
 62
           3
100
AcDbSpline
210
0.0
220
0.0
230
1.0
 70
           0
 71
           3
 72
           8
 73
           5
 74
           7
 42
0.00000000001
 43
0.00000000001
 44
0.00000000001
 40
0.0
 40
0.0
 40
0.0
 40
1.2475591451564418
 40
2.2257037084933442
 40
2.9354142011742907
 40
2.9354142011742907
 40
2.9354142011742907
 10
4165.8999967216751
 20
1364.9999946356729
 30
0.0
 10
4165.1443416651719
 20
1364.9458933000931
 30
0.0
 10
4164.166903851652
 20
1364.875913365858
 30
0.0
 10
4163.2266018489554
 20
1364.6130630433661
 30
0.0
 10
4163.0132452878443
 20
1364.5534217358579
 30
0.0
 11
4165.8999967216751
 21
1364.9999946356729
 31
0.0
 11
4165.1962862228356
 21
1364.949612285259
 31
0.0
 11
4164.5964648393274
 21
1364.9066679051766
 31
0.0
 11
4164.1380633113722
 21
1364.8455202926343
 31
0.0
 11
4163.6219807028583
 21
1364.7235865336456
 31
0.0
 11
4163.2721074221536
 21
1364.625783589059
 31
0.0
 11
4163.0132452878443
 21
1364.5534217358579
 31
0.0
  0
SPLINE
  5
36D
100
AcDbEntity
  8
0
  6
CONTINUOUS
 62
           3
100
AcDbSpline
210
0.0
220
0.0
230
1.0
 70
           0
 71
           3
 72
           8
 73
           5
 74
           7
 42
0.00000000001
 43
0.00000000001
 44
0.00000000001
 40
0.0
 40
0.0
 40
0.0
 40
0.2779464854665291
 40
0.786284084402224
 40
1.5429642659222422
 40
1.5429642659222422
 40
1.5429642659222422
 10
4170.2301237559641
 20
1359.9999994039219
 30
0.0
 10
4170.2643403053644
 20
1359.9995537086761
 30
0.0
 10
4170.7517530244531
 20
1359.9932048044429
 30
0.0
 10
4171.2293915039991
 20
1359.765309020479
 30
0.0
 10
4171.6734995893648
 20
1359.553411603021
 30
0.0
 11
4170.2301237559641
 21
1359.9999994039219
 31
0.0
 11
4170.2988605017472
 21
1359.9991040580446
 31
0.0
 11
4170.4366376402968
 21
1359.997309410905
 31
0.0
 11
4170.7209580094723
 21
1359.9713364170611
 31
0.0
 11
4170.943688348686
 21
1359.9016266484537
 31
0.0
 11
4171.2689927365118
 21
1359.7464140731081
 31
0.0
 11
4171.6734995893648
 21
1359.553411603021
 31
0.0
  0
SPLINE
  5
36C
100
AcDbEntity
  8
0
  6
CONTINUOUS
 62
           3
100
AcDbSpline
210
0.0
220
0.0
230
1.0
 70
           0
 71
           3
 72
           8
 73
           5
 74
           7
 42
0.00000000001
 43
0.00000000001
 44
0.00000000001
 40
0.0
 40
0.0
 40
0.0
 40
0.3778155284983235
 40
0.8942062233973662
 40
1.5357514174666138
 40
1.5357514174666138
 40
1.5357514174666138
 10
4160.1264938539734
 20
1359.553411603021
 30
0.0
 10
4160.2210118970343
 20
1359.6064716909059
 30
0.0
 10
4160.6908817949034
 20
1359.870245011374
 30
0.0
 10
4161.1795227343036
 20
1359.9423771861991
 30
0.0
 10
4161.569869687346
 20
1359.9999994040479
 30
0.0
 11
4160.1264938539734
 21
1359.553411603021
 31
0.0
 11
4160.2470141544072
 21
1359.6210687140281
 31
0.0
 11
4160.419538969586
 21
1359.7179198712795
 31
0.0
 11
4160.67752441433
 21
1359.8402057052367
 31
0.0
 11
4160.9087950979256
 21
1359.9024129269187
 31
0.0
 11
4161.2094275634699
 21
1359.9467916758413
 31
0.0
 11
4161.569869687346
 21
1359.9999994040479
 31
0.0
  0
SPLINE
  5
36B
100
AcDbEntity
  8
0
  6
CONTINUOUS
 62
           3
100
AcDbSpline
210
0.0
220
0.0
230
1.0
 70
           0
 71
           3
 72
           8
 73
           5
 74
           7
 42
0.00000000001
 43
0.00000000001
 44
0.00000000001
 40
0.0
 40
0.0
 40
0.0
 40
0.6415450374775127
 40
1.157930368611257
 40
1.5357381749057557
 40
1.5357381749057557
 40
1.5357381749057557
 10
4161.569869687346
 20
1355.0000041724199
 30
0.0
 10
4161.1795237086126
 20
1355.0576336938759
 30
0.0
 10
4160.6908846293591
 20
1355.129774916883
 30
0.0
 10
4160.2210119621141
 20
1355.393522448257
 30
0.0
 10
4160.1264938539734
 20
1355.4465770722229
 30
0.0
 11
4161.569869687346
 21
1355.0000041724199
 31
0.0
 11
4161.2094282457037
 21
1355.0532186767991
 31
0.0
 11
4160.9087958782438
 21
1355.0976031470248
 31
0.0
 11
4160.6775260473187
 21
1355.1598096979615
 31
0.0
 11
4160.4195390523128
 21
1355.2820858110551
 31
0.0
 11
4160.247014207629
 21
1355.378926944948
 31
0.0
 11
4160.1264938539734
 21
1355.4465770722229
 31
0.0
  0
SPLINE
  5
36A
100
AcDbEntity
  8
0
  6
CONTINUOUS
 62
           3
100
AcDbSpline
210
0.0
220
0.0
230
1.0
 70
           0
 71
           3
 72
           8
 73
           5
 74
           7
 42
0.00000000001
 43
0.00000000001
 44
0.00000000001
 40
0.0
 40
0.0
 40
0.0
 40
0.3539460334951224
 40
0.8643414136594119
 40
1.5431068114000444
 40
1.5431068114000444
 40
1.5431068114000444
 10
4161.569869687346
 20
1359.9999994040479
 30
0.0
 10
4161.6793238424234
 20
1359.9953935078299
 30
0.0
 10
4162.1676816710442
 20
1359.97484311874
 30
0.0
 10
4162.6438213484453
 20
1359.7375336343539
 30
0.0
 10
4163.0132452879707
 20
1359.553411603021
 30
0.0
 11
4161.569869687346
 21
1359.9999994040479
 31
0.0
 11
4161.7019556855812
 21
1359.9944411463539
 31
0.0
 11
4161.8793053701338
 21
1359.9869781657089
 31
0.0
 11
4162.1466781413865
 21
1359.9524131949254
 31
0.0
 11
4162.3720438533273
 21
1359.8729883765131
 31
0.0
 11
4162.6682329595478
 21
1359.7253668120607
 31
0.0
 11
4163.0132452879707
 21
1359.553411603021
 31
0.0
  0
SPLINE
  5
369
100
AcDbEntity
  8
0
  6
CONTINUOUS
 62
           3
100
AcDbSpline
210
0.0
220
0.0
230
1.0
 70
           0
 71
           3
 72
           8
 73
           5
 74
           7
 42
0.00000000001
 43
0.00000000001
 44
0.00000000001
 40
0.0
 40
0.0
 40
0.0
 40
0.6787700534939568
 40
1.1891668948836114
 40
1.5431123743464028
 40
1.5431123743464028
 40
1.5431123743464028
 10
4163.0132452878443
 20
1355.4465770722429
 30
0.0
 10
4162.643821474403
 20
1355.2624483716061
 30
0.0
 10
4162.1676820506227
 20
1355.0251303367841
 30
0.0
 10
4161.6793238525843
 20
1355.0046045512611
 30
0.0
 10
4161.569869687346
 20
1355.0000041724199
 30
0.0
 11
4163.0132452878443
 21
1355.4465770722429
 31
0.0
 11
4162.6682329736368
 21
1355.2746155830068
 31
0.0
 11
4162.3720436578997
 21
1355.126988516573
 31
0.0
 11
4162.1466781919471
 21
1355.0475647466085
 31
0.0
 11
4161.8793050086433
 21
1355.0130097962931
 31
0.0
 11
4161.7019556002888
 21
1355.0055557678088
 31
0.0
 11
4161.569869687346
 21
1355.0000041724199
 31
0.0
  0
SPLINE
  5
368
100
AcDbEntity
  8
0
  6
CONTINUOUS
 62
           3
100
AcDbSpline
210
0.0
220
0.0
230
1.0
 70
           0
 71
           3
 72
           8
 73
           5
 74
           7
 42
0.00000000001
 43
0.00000000001
 44
0.00000000001
 40
0.0
 40
0.0
 40
0.0
 40
0.2779452695532454
 40
0.7862805426569324
 40
1.5429573556204834
 40
1.5429573556204834
 40
1.5429573556204834
 10
4170.2301237560041
 20
1355.0000041724199
 30
0.0
 10
4170.1959072124746
 20
1355.00044987719
 30
0.0
 10
4169.7084969152711
 20
1355.0067988847441
 30
0.0
 10
4169.2308572149832
 20
1355.2346869284661
 30
0.0
 10
4168.7867481553621
 20
1355.4465770722229
 30
0.0
 11
4170.2301237560041
 21
1355.0000041724199
 31
0.0
 11
4170.1613872230637
 21
1355.0008995346438
 31
0.0
 11
4170.0236107113033
 21
1355.0026942117756
 31
0.0
 11
4169.7392914141319
 21
1355.0286664762175
 31
0.0
 11
4169.516561114684
 21
1355.098373923606
 31
0.0
 11
4169.1912559250031
 21
1355.2535812131905
 31
0.0
 11
4168.7867481553621
 21
1355.4465770722229
 31
0.0
  0
SPLINE
  5
367
100
AcDbEntity
  8
0
  6
CONTINUOUS
 62
           3
100
AcDbSpline
210
0.0
220
0.0
230
1.0
 70
           0
 71
           3
 72
           8
 73
           5
 74
           7
 42
0.00000000001
 43
0.00000000001
 44
0.00000000001
 40
0.0
 40
0.0
 40
0.0
 40
0.55585584906922
 40
1.5343195422054714
 40
2.9385037456638727
 40
2.9385037456638727
 40
2.9385037456638727
 10
4165.8999967216751
 20
1355.000004172322
 30
0.0
 10
4165.8315636362913
 20
1355.0004498783021
 30
0.0
 10
4164.8567416872411
 20
1355.0067989106681
 30
0.0
 10
4163.901462916263
 20
1355.2346869292301
 30
0.0
 10
4163.0132452878443
 20
1355.4465770722429
 30
0.0
 11
4165.8999967216751
 21
1355.000004172322
 31
0.0
 11
4165.7603818762454
 21
1355.0009134863221
 31
0.0
 11
4165.4784035107277
 21
1355.0027500163631
 31
0.0
 11
4164.9140828960153
 21
1355.0291829422185
 31
0.0
 11
4164.4644446988523
 21
1355.100383931175
 31
0.0
 11
4163.8201539548045
 21
1355.2540837154693
 31
0.0
 11
4163.0132452878443
 21
1355.4465770722429
 31
0.0
  0
SPLINE
  5
366
100
AcDbEntity
  8
0
  6
CONTINUOUS
 62
           3
100
AcDbSpline
210
0.0
220
0.0
230
1.0
 70
           0
 71
           3
 72
           8
 73
           5
 74
           7
 42
0.00000000001
 43
0.00000000001
 44
0.00000000001
 40
0.0
 40
0.0
 40
0.0
 40
0.5558562714151618
 40
1.5343210643708305
 40
2.9385072682930682
 40
2.9385072682930682
 40
2.9385072682930682
 10
4165.8999967216751
 20
1359.9999994040479
 30
0.0
 10
4165.9684298091433
 20
1359.999553710677
 30
0.0
 10
4166.9432526000246
 20
1359.9932048512139
 30
0.0
 10
4167.8985309047421
 20
1359.7653090218639
 30
0.0
 10
4168.7867481555022
 20
1359.5534116030681
 30
0.0
 11
4165.8999967216751
 21
1359.9999994040479
 31
0.0
 11
4166.0396116244056
 21
1359.999090115298
 31
0.0
 11
4166.3215901576605
 21
1359.9972536357898
 31
0.0
 11
4166.8859111712864
 21
1359.9708199944771
 31
0.0
 11
4167.3355493274366
 21
1359.8996166396914
 31
0.0
 11
4167.9798398231051
 21
1359.7459115716217
 31
0.0
 11
4168.7867481555022
 21
1359.5534116030681
 31
0.0
  0
CIRCLE
  5
365
100
AcDbEntity
  8
1
  6
CONTINUOUS
 62
           4
100
AcDbCircle
 10
0.0
 20
5712.996931272069
 40
100.947599999999
  0
CIRCLE
  5
364
100
AcDbEntity
  8
1
  6
CONTINUOUS
 62
           4
100
AcDbCircle
 10
0.0
 20
5712.996931272069
 40
125.0
  0
CIRCLE
  5
363
100
AcDbEntity
  8
1
  6
CONTINUOUS
 62
           7
100
AcDbCircle
 10
0.0
 20
5712.996931272069
 40
400.0
  0
CIRCLE
  5
362
100
AcDbEntity
  8
1
  6
CONTINUOUS
 62
           3
100
AcDbCircle
 10
-491.52774467812
 20
1295.20084832705
 40
40.0
  0
CIRCLE
  5
361
100
AcDbEntity
  8
1
  6
CONTINUOUS
 62
           7
100
AcDbCircle
 10
4550.0
 20
600.0
 40
15.0
  0
CIRCLE
  5
360
100
AcDbEntity
  8
1
  6
CONTINUOUS
 62
           2
100
AcDbCircle
 10
4550.0
 20
600.0
 40
8.350000000001
  0
CIRCLE
  5
35F
100
AcDbEntity
  8
1
  6
CONTINUOUS
 62
           7
100
AcDbCircle
 10
4550.0
 20
600.0
 40
7.5
  0
ARC
  5
35E
100
AcDbEntity
  8
1
  6
CONTINUOUS
 62
           7
100
AcDbCircle
 10
0.0
 20
5712.996931272069
 40
150.0
100
AcDbArc
 50
-89.999999999999
 51
-23.882765003116
  0
ARC
  5
35D
100
AcDbEntity
  8
1
  6
CONTINUOUS
 62
           7
100
AcDbCircle
 10
0.0
 20
5712.996931272069
 40
132.84
100
AcDbArc
 50
-75.809724714478
 51
-75.809724714478
  0
ARC
  5
35C
100
AcDbEntity
  8
1
  6
CONTINUOUS
 62
           7
100
AcDbCircle
 10
0.0
 20
5712.996931272069
 40
150.000000000002
100
AcDbArc
 50
23.882765003117
 51
-89.999999999999
  0
ARC
  5
35B
100
AcDbEntity
  8
0
  6
CONTINUOUS
 62
           7
100
AcDbCircle
 10
44.999999999999
 20
5689.996931272069
 40
469.999999999995
100
AcDbArc
 50
31.359627184827
 51
72.547531235072
  0
ARC
  5
35A
100
AcDbEntity
  8
1
  6
CONTINUOUS
 62
           7
100
AcDbCircle
 10
181.182082628215
 20
6139.835169276618
 40
5.000000000001
100
AcDbArc
 50
163.461829900473
 51
-17.147702543134
  0
ARC
  5
359
100
AcDbEntity
  8
1
  6
CONTINUOUS
 62
           7
100
AcDbCircle
 10
529.981720683266
 20
5638.512857870234
 40
4.999999999999
100
AcDbArc
 50
89.793306572368
 51
-90.727565944103
  0
ARC
  5
358
100
AcDbEntity
  8
0
  6
CONTINUOUS
 62
           7
100
AcDbCircle
 10
-20.000000000001
 20
5642.996931272069
 40
550.0
100
AcDbArc
 50
-65.3714141245
 51
-0.988002202365
  0
ARC
  5
357
100
AcDbEntity
  8
0
  6
CONTINUOUS
 62
           7
100
AcDbCircle
 10
-20.000000000001
 20
5642.996931272069
 40
550.0
100
AcDbArc
 50
0.053742830624
 51
18.194147279427
  0
ARC
  5
356
100
AcDbEntity
  8
1
  6
CONTINUOUS
 62
           7
100
AcDbCircle
 10
500.919408978728
 20
5819.470638518366
 40
5.0
100
AcDbArc
 50
108.975456054163
 51
-71.545416462327
  0
ARC
  5
355
100
AcDbEntity
  8
0
  6
CONTINUOUS
 62
           7
100
AcDbCircle
 10
-68.000000000001
 20
5752.996931272069
 40
670.0
100
AcDbArc
 50
180.0
 51
-177.004902602006
  0
ARC
  5
354
100
AcDbEntity
  8
1
  6
CONTINUOUS
 62
           7
100
AcDbCircle
 10
-736.804904288238
 20
5712.996931272069
 40
5.0
100
AcDbArc
 50
-86.36353044751
 51
93.208888116183
  0
ARC
  5
353
100
AcDbEntity
  8
0
  6
CONTINUOUS
 62
           7
100
AcDbCircle
 10
-68.000000000001
 20
5752.996931272067
 40
669.999999999998
100
AcDbArc
 50
-176.149739729349
 51
-90.0
  0
ARC
  5
352
100
AcDbEntity
  8
0
  6
CONTINUOUS
 62
           7
100
AcDbCircle
 10
-20.000000000001
 20
5642.996931272069
 40
550.0
100
AcDbArc
 50
19.235892312416
 51
32.0167313156
  0
ARC
  5
351
100
AcDbEntity
  8
0
  6
CONTINUOUS
 62
           7
100
AcDbCircle
 10
44.999999999999
 20
5689.996931272069
 40
469.999999999995
100
AcDbArc
 50
73.766596122265
 51
91.7405042324
  0
ARC
  5
350
100
AcDbEntity
  8
0
  6
CONTINUOUS
 62
           7
100
AcDbCircle
 10
-68.000000000001
 20
5752.996931272069
 40
670.0
100
AcDbArc
 50
-90.0
 51
-65.560184603745
  0
ARC
  5
34F
100
AcDbEntity
  8
7
  6
CONTINUOUS
 62
           7
100
AcDbCircle
 10
-113.959999999999
 20
3525.133628400001
 40
7.44
100
AcDbArc
 50
122.681914999996
 51
180.0
  0
ARC
  5
34E
100
AcDbEntity
  8
7
  6
CONTINUOUS
 62
           7
100
AcDbCircle
 10
-88.52
 20
3551.16
 40
3.84
100
AcDbArc
 50
90.0
 51
180.0
  0
ARC
  5
34D
100
AcDbEntity
  8
7
  6
CONTINUOUS
 62
           7
100
AcDbCircle
 10
-94.76
 20
3551.4493608
 40
2.4
100
AcDbArc
 50
-54.999999999974
 51
0.0
  0
ARC
  5
34C
100
AcDbEntity
  8
7
  6
CONTINUOUS
 62
           7
100
AcDbCircle
 10
85.520000000001
 20
3551.16
 40
3.84
100
AcDbArc
 50
0.0
 51
90.0
  0
ARC
  5
34B
100
AcDbEntity
  8
7
  6
CONTINUOUS
 62
           7
100
AcDbCircle
 10
91.760000000001
 20
3551.4493608
 40
2.400000000001
100
AcDbArc
 50
180.0
 51
-125.000000000008
  0
ARC
  5
34A
100
AcDbEntity
  8
7
  6
CONTINUOUS
 62
           7
100
AcDbCircle
 10
116.507824400001
 20
3531.600000000001
 40
2.399999999998
100
AcDbArc
 50
-125.000000000003
 51
-90.0
  0
ARC
  5
349
100
AcDbEntity
  8
7
  6
CONTINUOUS
 62
           7
100
AcDbCircle
 10
117.56
 20
3525.360000000002
 40
3.84
100
AcDbArc
 50
0.0
 51
90.0
  0
ARC
  5
348
100
AcDbEntity
  8
7
  6
CONTINUOUS
 62
           7
100
AcDbCircle
 10
4867.56
 20
3570.360000000001
 40
3.840000000002
100
AcDbArc
 50
0.0
 51
90.0
  0
ARC
  5
347
100
AcDbEntity
  8
7
  6
CONTINUOUS
 62
           7
100
AcDbCircle
 10
4866.507824400002
 20
3576.6
 40
2.399999999999
100
AcDbArc
 50
-125.000000000021
 51
-90.0
  0
ARC
  5
346
100
AcDbEntity
  8
7
  6
CONTINUOUS
 62
           7
100
AcDbCircle
 10
4841.76
 20
3596.449360799999
 40
2.400000000001
100
AcDbArc
 50
180.0
 51
-125.000000000039
  0
ARC
  5
345
100
AcDbEntity
  8
7
  6
CONTINUOUS
 62
           7
100
AcDbCircle
 10
4835.52
 20
3596.16
 40
3.839999999998
100
AcDbArc
 50
0.0
 51
90.0
  0
ARC
  5
344
100
AcDbEntity
  8
7
  6
CONTINUOUS
 62
           7
100
AcDbCircle
 10
4655.24
 20
3596.449360799999
 40
2.399999999999
100
AcDbArc
 50
-54.999999999961
 51
0.0
  0
ARC
  5
343
100
AcDbEntity
  8
7
  6
CONTINUOUS
 62
           7
100
AcDbCircle
 10
4661.480000000001
 20
3596.16
 40
3.84
100
AcDbArc
 50
90.0
 51
180.0
  0
ARC
  5
342
100
AcDbEntity
  8
7
  6
CONTINUOUS
 62
           7
100
AcDbCircle
 10
4636.040000000001
 20
3570.133628400001
 40
7.44
100
AcDbArc
 50
122.68191499999
 51
180.0
  0
ARC
  5
341
100
AcDbEntity
  8
1
  6
CONTINUOUS
 62
           3
100
AcDbCircle
 10
4670.163567691041
 20
1925.0
 40
9.499999999999
100
AcDbArc
 50
-124.797812779177
 51
0.0
  0
ARC
  5
340
100
AcDbEntity
  8
1
  6
CONTINUOUS
 62
           3
100
AcDbCircle
 10
4670.163567691041
 20
1925.0
 40
9.5
100
AcDbArc
 50
0.0
 51
125.916957371441
  0
ARC
  5
33F
100
AcDbEntity
  8
1
  6
CONTINUOUS
 62
           3
100
AcDbCircle
 10
4670.163567691041
 20
1925.0
 40
5.871834995061
100
AcDbArc
 50
0.0
 51
38.599713917924
  0
ARC
  5
33E
100
AcDbEntity
  8
1
  6
CONTINUOUS
 62
           3
100
AcDbCircle
 10
4670.163567691041
 20
1925.0
 40
5.871834995069
100
AcDbArc
 50
38.599713917924
 51
90.0
  0
ARC
  5
33D
100
AcDbEntity
  8
1
  6
CONTINUOUS
 62
           3
100
AcDbCircle
 10
4670.163567691041
 20
1925.0
 40
5.871834995066
100
AcDbArc
 50
-90.0
 51
0.0
  0
ARC
  5
33C
100
AcDbEntity
  8
0
  6
CONTINUOUS
 62
           3
100
AcDbCircle
 10
4228.399996721513
 20
1368.000000000114
 40
2.5
100
AcDbArc
 50
-0.000000000021
 51
180.0
  0
ARC
  5
33B
100
AcDbEntity
  8
0
  6
CONTINUOUS
 62
           3
100
AcDbCircle
 10
4228.399996721513
 20
1631.999999999898
 40
2.499999999991
100
AcDbArc
 50
180.0
 51
0.0
  0
ARC
  5
33A
100
AcDbEntity
  8
0
  6
CONTINUOUS
 62
           3
100
AcDbCircle
 10
4103.399996721824
 20
1631.999999999898
 40
2.5
100
AcDbArc
 50
180.0
 51
0.0
  0
ARC
  5
339
100
AcDbEntity
  8
0
  6
CONTINUOUS
 62
           3
100
AcDbCircle
 10
4103.399996721824
 20
1368.000000000113
 40
2.499999999989
100
AcDbArc
 50
0.0
 51
180.0
  0
ARC
  5
338
100
AcDbEntity
  8
0
  6
CONTINUOUS
 62
           3
100
AcDbCircle
 10
4107.899996721813
 20
1508.999999999996
 40
0.999999999996
100
AcDbArc
 50
-90.0
 51
90.0
  0
ARC
  5
337
100
AcDbEntity
  8
0
  6
CONTINUOUS
 62
           3
100
AcDbCircle
 10
4107.899996721813
 20
1431.000000000062
 40
1.0
100
AcDbArc
 50
-90.0
 51
90.0
  0
ARC
  5
336
100
AcDbEntity
  8
0
  6
CONTINUOUS
 62
           3
100
AcDbCircle
 10
4107.899996721813
 20
1409.000000000178
 40
0.999999999996
100
AcDbArc
 50
-90.0
 51
90.0
  0
ARC
  5
335
100
AcDbEntity
  8
0
  6
CONTINUOUS
 62
           3
100
AcDbCircle
 10
4223.899996721522
 20
1409.000000000178
 40
1.0
100
AcDbArc
 50
90.0
 51
-90.0
  0
ARC
  5
334
100
AcDbEntity
  8
0
  6
CONTINUOUS
 62
           3
100
AcDbCircle
 10
4223.899996721522
 20
1431.000000000062
 40
0.999999999996
100
AcDbArc
 50
90.0
 51
-90.0
  0
ARC
  5
333
100
AcDbEntity
  8
0
  6
CONTINUOUS
 62
           3
100
AcDbCircle
 10
4223.899996721522
 20
1508.999999999996
 40
1.0
100
AcDbArc
 50
90.0
 51
-90.0
  0
ARC
  5
332
100
AcDbEntity
  8
0
  6
CONTINUOUS
 62
           3
100
AcDbCircle
 10
4223.899996721522
 20
1530.99999999988
 40
1.0
100
AcDbArc
 50
90.0
 51
-90.0
  0
ARC
  5
331
100
AcDbEntity
  8
0
  6
CONTINUOUS
 62
           3
100
AcDbCircle
 10
4107.899996721813
 20
1530.99999999988
 40
0.999999999997
100
AcDbArc
 50
-90.0
 51
90.0
  0
ARC
  5
330
100
AcDbEntity
  8
0
  6
CONTINUOUS
 62
           3
100
AcDbCircle
 10
4172.373499413461
 20
1389.999999999996
 40
0.900000000001
100
AcDbArc
 50
-90.0
 51
-62.733955549455
  0
ARC
  5
32F
100
AcDbEntity
  8
0
  6
CONTINUOUS
 62
           3
100
AcDbCircle
 10
4159.426494029872
 20
1389.999999999996
 40
0.9
100
AcDbArc
 50
-117.266044450441
 51
-90.0
  0
ARC
  5
32E
100
AcDbEntity
  8
0
  6
CONTINUOUS
 62
           3
100
AcDbCircle
 10
4165.899996721675
 20
1315.000000000058
 40
53.999999999964
100
AcDbArc
 50
180.0
 51
0.0
  0
ARC
  5
32D
100
AcDbEntity
  8
0
  6
CONTINUOUS
 62
           3
100
AcDbCircle
 10
4165.899996721675
 20
1315.000000000058
 40
45.999999999971
100
AcDbArc
 50
180.0
 51
0.0
  0
ARC
  5
32C
100
AcDbEntity
  8
0
  6
CONTINUOUS
 62
           3
100
AcDbCircle
 10
4165.899996721675
 20
1355.000000000222
 40
4.0
100
AcDbArc
 50
180.0
 51
0.0
  0
ARC
  5
32B
100
AcDbEntity
  8
1
  6
CONTINUOUS
 62
           3
100
AcDbCircle
 10
-488.490241678122
 20
1267.114622327059
 40
0.500000000002
100
AcDbArc
 50
-83.827497998172
 51
-5.006793000323
  0
ARC
  5
32A
100
AcDbEntity
  8
1
  6
CONTINUOUS
 62
           3
100
AcDbCircle
 10
-494.565247678121
 20
1267.114622327059
 40
0.499999999996
100
AcDbArc
 50
-174.993206999596
 51
-96.172501999302
  0
ARC
  5
329
100
AcDbEntity
  8
1
  6
CONTINUOUS
 62
           3
100
AcDbCircle
 10
-488.490241678122
 20
1323.287074327051
 40
0.500000000005
100
AcDbArc
 50
5.006793001258
 51
83.827497998161
  0
ARC
  5
328
100
AcDbEntity
  8
1
  6
CONTINUOUS
 62
           3
100
AcDbCircle
 10
-494.565247678121
 20
1323.287074327051
 40
0.499999999999
100
AcDbArc
 50
96.172501999313
 51
174.993206998661
  0
ARC
  5
327
100
AcDbEntity
  8
1
  6
CONTINUOUS
 62
           3
100
AcDbCircle
 10
-495.566047678115
 20
1295.20084832705
 40
9.999999999999
100
AcDbArc
 50
-5.006792999977
 51
5.006793000024
  0
ARC
  5
326
100
AcDbEntity
  8
1
  6
CONTINUOUS
 62
           3
100
AcDbCircle
 10
-487.489442678121
 20
1295.20084832705
 40
10.0
100
AcDbArc
 50
174.993206999976
 51
-174.993207000022
  0
ARC
  5
325
100
AcDbEntity
  8
1
  6
CONTINUOUS
 62
           3
100
AcDbCircle
 10
-491.52774467812
 20
1295.20084832705
 40
10.74999999999
100
AcDbArc
 50
118.773506999971
 51
-118.773506999951
  0
ARC
  5
324
100
AcDbEntity
  8
1
  6
CONTINUOUS
 62
           3
100
AcDbCircle
 10
-491.52774467812
 20
1295.20084832705
 40
10.75
100
AcDbArc
 50
-61.226493000021
 51
0.0
  0
ARC
  5
323
100
AcDbEntity
  8
1
  6
CONTINUOUS
 62
           3
100
AcDbCircle
 10
-491.52774467812
 20
1295.20084832705
 40
10.75
100
AcDbArc
 50
0.0
 51
61.226493000001
  0
ARC
  5
322
100
AcDbEntity
  8
1
  6
CONTINUOUS
 62
           3
100
AcDbCircle
 10
-491.52774467812
 20
1295.20084832705
 40
28.749999999988
100
AcDbArc
 50
-96.172501999994
 51
-83.827497999994
  0
ARC
  5
321
100
AcDbEntity
  8
1
  6
CONTINUOUS
 62
           3
100
AcDbCircle
 10
-491.52774467812
 20
1295.20084832705
 40
28.75000000001
100
AcDbArc
 50
83.827497999999
 51
96.172501999989
  0
ARC
  5
320
100
AcDbEntity
  8
1
  6
CONTINUOUS
 62
           7
100
AcDbCircle
 10
4152.0
 20
1756.750000000003
 40
37.0
100
AcDbArc
 50
180.0
 51
-90.0
  0
ARC
  5
31F
100
AcDbEntity
  8
1
  6
CONTINUOUS
 62
           7
100
AcDbCircle
 10
4152.0
 20
1756.750000000003
 40
17.0
100
AcDbArc
 50
180.0
 51
-90.0
  0
LINE
  5
31E
100
AcDbEntity
  8
1
  6
CONTINUOUS
 62
           4
100
AcDbLine
 10
134.432661752785
 20
5655.496931272071
 11
117.908702762047
 21
5655.496931272071
  0
LINE
  5
31D
100
AcDbEntity
  8
1
  6
CONTINUOUS
 62
           4
100
AcDbLine
 10
134.432661752785
 20
5770.496931272071
 11
117.908702762047
 21
5770.496931272071
  0
LINE
  5
31C
100
AcDbEntity
  8
1
  6
CONTINUOUS
 62
           7
100
AcDbLine
 10
185.000000000002
 20
5649.496931272071
 11
144.824966598198
 21
5649.496931272071
  0
LINE
  5
31B
100
AcDbEntity
  8
1
  6
CONTINUOUS
 62
           7
100
AcDbLine
 10
144.824966598198
 20
5776.496931272071
 11
185.000000000002
 21
5776.496931272071
  0
LINE
  5
31A
100
AcDbEntity
  8
1
  6
CONTINUOUS
 62
           7
100
AcDbLine
 10
132.824966598198
 20
5661.496931272071
 11
132.824966598198
 21
5764.496931272071
  0
LINE
  5
319
100
AcDbEntity
  8
1
  6
CONTINUOUS
 62
           7
100
AcDbLine
 10
197.000000000002
 20
5764.496931272071
 11
197.000000000002
 21
5661.496931272071
  0
LINE
  5
318
100
AcDbEntity
  8
1
  6
DOT_CENTER
 62
           2
100
AcDbLine
 10
-365.0
 20
6356.024225103685
 11
-365.0
 21
5909.692337682185
  0
LINE
  5
317
100
AcDbEntity
  8
1
  6
CONTINUOUS
 62
           7
100
AcDbLine
 10
226.000000000001
 20
5486.996931272069
 11
226.000000000001
 21
5972.996931272069
  0
LINE
  5
316
100
AcDbEntity
  8
1
  6
CONTINUOUS
 62
           7
100
AcDbLine
 10
-225.999999999999
 20
5486.996931272069
 11
260.000000000002
 21
5486.996931272069
  0
LINE
  5
315
100
AcDbEntity
  8
1
  6
CONTINUOUS
 62
           7
100
AcDbLine
 10
226.000000000001
 20
5938.996931272069
 11
-259.999999999999
 21
5938.996931272069
  0
LINE
  5
314
100
AcDbEntity
  8
1
  6
CONTINUOUS
 62
           7
100
AcDbLine
 10
-225.999999999999
 20
5938.996931272069
 11
-225.999999999999
 21
5452.996931272069
  0
LINE
  5
313
100
AcDbEntity
  8
0
  6
CONTINUOUS
 62
           7
100
AcDbLine
 10
30.724756890082
 20
6159.780091287573
 11
-0.000000000001
 21
6212.996931272069
  0
LINE
  5
312
100
AcDbEntity
  8
0
  6
CONTINUOUS
 62
           7
100
AcDbLine
 10
-730.0
 20
6212.996931272069
 11
-738.000000000001
 21
6202.996931272069
  0
LINE
  5
311
100
AcDbEntity
  8
0
  6
CONTINUOUS
 62
           7
100
AcDbLine
 10
-738.000000000001
 20
6202.996931272069
 11
-738.000000000001
 21
5752.996931272069
  0
LINE
  5
310
100
AcDbEntity
  8
0
  6
CONTINUOUS
 62
           7
100
AcDbLine
 10
-730.0
 20
6222.996931272069
 11
-730.0
 21
6212.996931272069
  0
LINE
  5
30F
100
AcDbEntity
  8
1
  6
CONTINUOUS
 62
           7
100
AcDbLine
 10
-0.000000000001
 20
6212.996931272069
 11
-0.000000000001
 21
6222.996931272069
  0
LINE
  5
30E
100
AcDbEntity
  8
0
  6
CONTINUOUS
 62
           7
100
AcDbLine
 10
-0.000000000001
 20
6212.996931272069
 11
-0.000000000001
 21
6222.996931272069
  0
LINE
  5
30D
100
AcDbEntity
  8
1
  6
CONTINUOUS
 62
           7
100
AcDbLine
 10
-729.116882454315
 20
5713.880048817756
 11
-220.000000000001
 21
6222.996931272069
  0
LINE
  5
30C
100
AcDbEntity
  8
1
  6
CONTINUOUS
 62
           7
100
AcDbLine
 10
495.999999999999
 20
5820.997091044957
 11
181.999999999999
 21
6134.996931272069
  0
LINE
  5
30B
100
AcDbEntity
  8
1
  6
CONTINUOUS
 62
           7
100
AcDbLine
 10
-729.116882454315
 20
5713.880048817756
 11
-63.022294576588
 21
5047.785460940027
  0
LINE
  5
30A
100
AcDbEntity
  8
1
  6
CONTINUOUS
 62
           7
100
AcDbLine
 10
527.41186771418
 20
5638.219623230794
 11
-63.022294576588
 21
5047.785460940027
  0
LINE
  5
309
100
AcDbEntity
  8
1
  6
CONTINUOUS
 62
           7
100
AcDbLine
 10
-769.000000000001
 20
6297.996931272069
 11
-764.0
 21
6302.996931272067
  0
LINE
  5
308
100
AcDbEntity
  8
1
  6
CONTINUOUS
 62
           7
100
AcDbLine
 10
40.999999999999
 20
6297.996931272069
 11
35.999999999999
 21
6302.996931272069
  0
LINE
  5
307
100
AcDbEntity
  8
1
  6
CONTINUOUS
 62
           7
100
AcDbLine
 10
-764.0
 20
6302.996931272067
 11
35.999999999999
 21
6302.996931272069
  0
LINE
  5
306
100
AcDbEntity
  8
1
  6
CONTINUOUS
 62
           7
100
AcDbLine
 10
-769.000000000001
 20
6262.996931272069
 11
-769.000000000001
 21
6297.996931272069
  0
LINE
  5
305
100
AcDbEntity
  8
1
  6
CONTINUOUS
 62
           7
100
AcDbLine
 10
40.999999999999
 20
6297.996931272069
 11
40.999999999999
 21
6262.996931272069
  0
LINE
  5
304
100
AcDbEntity
  8
1
  6
CONTINUOUS
 62
           4
100
AcDbLine
 10
-769.0
 20
6267.496931272067
 11
40.999999999999
 21
6267.496931272069
  0
LINE
  5
303
100
AcDbEntity
  8
1
  6
CONTINUOUS
 62
           4
100
AcDbLine
 10
40.999999999999
 20
6258.496931272069
 11
-769.0
 21
6258.496931272069
  0
LINE
  5
302
100
AcDbEntity
  8
1
  6
CONTINUOUS
 62
           7
100
AcDbLine
 10
40.999999999999
 20
6262.996931272069
 11
40.999999999999
 21
6227.996931272069
  0
LINE
  5
301
100
AcDbEntity
  8
1
  6
CONTINUOUS
 62
           7
100
AcDbLine
 10
-769.000000000001
 20
6227.996931272069
 11
-769.000000000001
 21
6262.996931272069
  0
LINE
  5
300
100
AcDbEntity
  8
1
  6
CONTINUOUS
 62
           7
100
AcDbLine
 10
35.999999999999
 20
6222.996931272069
 11
-764.0
 21
6222.996931272069
  0
LINE
  5
2FF
100
AcDbEntity
  8
1
  6
CONTINUOUS
 62
           7
100
AcDbLine
 10
35.999999999999
 20
6222.996931272069
 11
40.999999999999
 21
6227.996931272069
  0
LINE
  5
2FE
100
AcDbEntity
  8
1
  6
CONTINUOUS
 62
           7
100
AcDbLine
 10
-764.0
 20
6222.996931272069
 11
-769.000000000001
 21
6227.996931272069
  0
LINE
  5
2FD
100
AcDbEntity
  8
1
  6
CONTINUOUS
 62
           7
100
AcDbLine
 10
-769.000000000001
 20
6262.996931272069
 11
40.999999999999
 21
6262.996931272069
  0
LINE
  5
2FC
100
AcDbEntity
  8
1
  6
CONTINUOUS
 62
           7
100
AcDbLine
 10
197.000000000003
 20
3387.499999999997
 11
197.000000000003
 21
3311.499999999996
  0
LINE
  5
2FB
100
AcDbEntity
  8
1
  6
CONTINUOUS
 62
           7
100
AcDbLine
 10
122.496396800001
 20
3311.499999999996
 11
122.496396800001
 21
3387.499999999997
  0
LINE
  5
2FA
100
AcDbEntity
  8
1
  6
CONTINUOUS
 62
           7
100
AcDbLine
 10
134.496396800001
 20
3399.499999999996
 11
185.000000000003
 21
3399.499999999996
  0
LINE
  5
2F9
100
AcDbEntity
  8
1
  6
CONTINUOUS
 62
           7
100
AcDbLine
 10
185.000000000003
 20
3299.499999999996
 11
134.496396800001
 21
3299.499999999996
  0
LINE
  5
2F8
100
AcDbEntity
  8
7
  6
CONTINUOUS
 62
           7
100
AcDbLine
 10
-93.383417599999
 20
3549.483396
 11
-117.977411599999
 21
3531.395737200001
  0
LINE
  5
2F7
100
AcDbEntity
  8
7
  6
CONTINUOUS
 62
           7
100
AcDbLine
 10
-124.999999999999
 20
3459.186819199999
 11
-124.999999999999
 21
3492.231865248044
  0
LINE
  5
2F6
100
AcDbEntity
  8
7
  6
CONTINUOUS
 62
           7
100
AcDbLine
 10
125.000000000001
 20
3459.186819199999
 11
-124.999999999999
 21
3459.186819199999
  0
LINE
  5
2F5
100
AcDbEntity
  8
7
  6
CONTINUOUS
 62
           7
100
AcDbLine
 10
121.400000000001
 20
3525.360000000002
 11
125.000000000001
 21
3492.231865248044
  0
LINE
  5
2F4
100
AcDbEntity
  8
7
  6
CONTINUOUS
 62
           7
100
AcDbLine
 10
-120.190427599999
 20
3529.200000000001
 11
117.56
 21
3529.200000000001
  0
LINE
  5
2F3
100
AcDbEntity
  8
7
  6
CONTINUOUS
 62
           7
100
AcDbLine
 10
90.383416400001
 20
3549.483396
 11
115.1312408
 21
3529.634035200002
  0
LINE
  5
2F2
100
AcDbEntity
  8
7
  6
CONTINUOUS
 62
           7
100
AcDbLine
 10
-88.52
 20
3555.0
 11
85.520000000001
 21
3555.0
  0
LINE
  5
2F1
100
AcDbEntity
  8
2
  6
CONTINUOUS
 62
           7
100
AcDbLine
 10
122.496396800001
 20
3240.403984566909
 11
109.2423704
 21
3208.603984566908
  0
LINE
  5
2F0
100
AcDbEntity
  8
2
  6
CONTINUOUS
 62
           7
100
AcDbLine
 10
122.496396800001
 20
3240.403984566909
 11
122.496396800001
 21
3445.3868192
  0
LINE
  5
2EF
100
AcDbEntity
  8
2
  6
CONTINUOUS
 62
           4
100
AcDbLine
 10
109.2423704
 20
3208.603984566908
 11
-112.2423704
 21
3208.603984566908
  0
LINE
  5
2EE
100
AcDbEntity
  8
2
  6
CONTINUOUS
 62
           7
100
AcDbLine
 10
122.496396800001
 20
3445.3868192
 11
116.7446492
 21
3459.186819199999
  0
LINE
  5
2ED
100
AcDbEntity
  8
2
  6
CONTINUOUS
 62
           4
100
AcDbLine
 10
-107.06
 20
3208.603984566908
 11
-107.06
 21
3204.503984566908
  0
LINE
  5
2EC
100
AcDbEntity
  8
2
  6
CONTINUOUS
 62
           7
100
AcDbLine
 10
-125.4963968
 20
3240.403984566909
 11
-125.4963968
 21
3445.3868192
  0
LINE
  5
2EB
100
AcDbEntity
  8
2
  6
CONTINUOUS
 62
           7
100
AcDbLine
 10
-119.744649199999
 20
3459.186819199999
 11
-125.4963968
 21
3445.3868192
  0
LINE
  5
2EA
100
AcDbEntity
  8
2
  6
CONTINUOUS
 62
           7
100
AcDbLine
 10
-112.2423704
 20
3208.603984566908
 11
-125.4963968
 21
3240.403984566909
  0
LINE
  5
2E9
100
AcDbEntity
  8
1
  6
CONTINUOUS
 62
           7
100
AcDbLine
 10
125.000000000001
 20
3492.231865248044
 11
-124.999999999999
 21
3492.231865248044
  0
LINE
  5
2E8
100
AcDbEntity
  8
7
  6
CONTINUOUS
 62
           7
100
AcDbLine
 10
-124.999999999999
 20
3492.231865248044
 11
-121.399999999999
 21
3525.133628400001
  0
LINE
  5
2E7
100
AcDbEntity
  8
7
  6
CONTINUOUS
 62
           7
100
AcDbLine
 10
125.000000000001
 20
3492.231865248044
 11
125.000000000001
 21
3459.186819199999
  0
LINE
  5
2E6
100
AcDbEntity
  8
2
  6
CONTINUOUS
 62
           4
100
AcDbLine
 10
104.06
 20
3204.503984566908
 11
104.06
 21
3208.603984566908
  0
LINE
  5
2E5
100
AcDbEntity
  8
1
  6
DOT_CENTER
 62
           2
100
AcDbLine
 10
-826.409104289507
 20
2913.0
 11
576.013204171225
 21
2913.0
  0
LINE
  5
2E4
100
AcDbEntity
  8
1
  6
CONTINUOUS
 62
           2
100
AcDbLine
 10
-630.593032057173
 20
3093.0
 11
-630.593032057173
 21
2733.0
  0
LINE
  5
2E3
100
AcDbEntity
  8
1
  6
CONTINUOUS
 62
           2
100
AcDbLine
 10
-313.160800656588
 20
3093.0
 11
-630.593032057173
 21
3093.0
  0
LINE
  5
2E2
100
AcDbEntity
  8
1
  6
CONTINUOUS
 62
           2
100
AcDbLine
 10
-313.160800656588
 20
2733.0
 11
-313.160800656588
 21
3093.0
  0
LINE
  5
2E1
100
AcDbEntity
  8
1
  6
CONTINUOUS
 62
           2
100
AcDbLine
 10
-630.593032057173
 20
2733.0
 11
-313.160800656588
 21
2733.0
  0
LINE
  5
2E0
100
AcDbEntity
  8
976
  6
CONTINUOUS
 62
           7
100
AcDbLine
 10
-731.116882454314
 20
2665.5
 11
-731.116882454314
 21
2650.7
  0
LINE
  5
2DF
100
AcDbEntity
  8
976
  6
CONTINUOUS
 62
           7
100
AcDbLine
 10
-731.116882454314
 20
3198.503984566909
 11
-731.116882454314
 21
3160.503984566909
  0
LINE
  5
2DE
100
AcDbEntity
  8
1
  6
CONTINUOUS
 62
           7
100
AcDbLine
 10
-730.0
 20
2665.3
 11
-730.0
 21
3160.503984566909
  0
LINE
  5
2DD
100
AcDbEntity
  8
1
  6
CONTINUOUS
 62
           4
100
AcDbLine
 10
-749.999999999999
 20
2660.2
 11
-770.999999999998
 21
2660.2
  0
LINE
  5
2DC
100
AcDbEntity
  8
1
  6
CONTINUOUS
 62
           7
100
AcDbLine
 10
-749.999999999999
 20
2664.699999999999
 11
-770.999999999998
 21
2664.699999999999
  0
LINE
  5
2DB
100
AcDbEntity
  8
1
  6
CONTINUOUS
 62
           2
100
AcDbLine
 10
522.58813228582
 20
3093.0
 11
483.681715763562
 21
3093.0
  0
LINE
  5
2DA
100
AcDbEntity
  8
1
  6
CONTINUOUS
 62
           2
100
AcDbLine
 10
483.681715763562
 20
3093.0
 11
483.681715763562
 21
2733.0
  0
LINE
  5
2D9
100
AcDbEntity
  8
1
  6
CONTINUOUS
 62
           2
100
AcDbLine
 10
483.681715763562
 20
2733.0
 11
522.58813228582
 21
2733.0
  0
LINE
  5
2D8
100
AcDbEntity
  8
976
  6
CONTINUOUS
 62
           7
100
AcDbLine
 10
530.0
 20
3198.503984566909
 11
-731.116882454314
 21
3198.503984566909
  0
LINE
  5
2D7
100
AcDbEntity
  8
976
  6
CONTINUOUS
 62
           7
100
AcDbLine
 10
-63.022294576588
 20
2665.5
 11
-63.022294576588
 21
2650.7
  0
LINE
  5
2D6
100
AcDbEntity
  8
976
  6
CONTINUOUS
 62
           7
100
AcDbLine
 10
-63.022294576588
 20
3198.503984566909
 11
-63.022294576588
 21
3160.503984566909
  0
LINE
  5
2D5
100
AcDbEntity
  8
976
  6
CONTINUOUS
 62
           7
100
AcDbLine
 10
498.58813228582
 20
3198.503984566909
 11
498.58813228582
 21
3160.503984566909
  0
LINE
  5
2D4
100
AcDbEntity
  8
976
  6
CONTINUOUS
 62
           7
100
AcDbLine
 10
498.58813228582
 20
2665.5
 11
498.58813228582
 21
2650.7
  0
LINE
  5
2D3
100
AcDbEntity
  8
1
  6
CONTINUOUS
 62
           4
100
AcDbLine
 10
-770.999999999998
 20
3165.80398456691
 11
-749.999999999999
 21
3165.80398456691
  0
LINE
  5
2D2
100
AcDbEntity
  8
1
  6
CONTINUOUS
 62
           7
100
AcDbLine
 10
-770.999999999998
 20
3201.30398456691
 11
-749.999999999999
 21
3201.30398456691
  0
LINE
  5
2D1
100
AcDbEntity
  8
1
  6
CONTINUOUS
 62
           7
100
AcDbLine
 10
-770.999999999998
 20
3161.30398456691
 11
-749.999999999999
 21
3161.30398456691
  0
LINE
  5
2D0
100
AcDbEntity
  8
976
  6
CONTINUOUS
 62
           7
100
AcDbLine
 10
532.58813228582
 20
2665.5
 11
-739.999999999999
 21
2665.5
  0
LINE
  5
2CF
100
AcDbEntity
  8
976
  6
CONTINUOUS
 62
           7
100
AcDbLine
 10
532.58813228582
 20
3160.503984566908
 11
-739.999999999999
 21
3160.503984566908
  0
LINE
  5
2CE
100
AcDbEntity
  8
1
  6
CONTINUOUS
 62
           4
100
AcDbLine
 10
260.000000000001
 20
3198.503984566909
 11
260.000000000001
 21
3199.503984566909
  0
LINE
  5
2CD
100
AcDbEntity
  8
1
  6
CONTINUOUS
 62
           4
100
AcDbLine
 10
-259.999999999999
 20
3198.503984566909
 11
-259.999999999999
 21
3199.503984566909
  0
LINE
  5
2CC
100
AcDbEntity
  8
1
  6
CONTINUOUS
 62
           4
100
AcDbLine
 10
-259.999999999999
 20
3199.503984566909
 11
-254.999999999999
 21
3204.503984566909
  0
LINE
  5
2CB
100
AcDbEntity
  8
1
  6
CONTINUOUS
 62
           4
100
AcDbLine
 10
255.000000000001
 20
3204.503984566909
 11
-254.999999999999
 21
3204.503984566909
  0
LINE
  5
2CA
100
AcDbEntity
  8
1
  6
CONTINUOUS
 62
           4
100
AcDbLine
 10
255.000000000001
 20
3204.503984566909
 11
260.000000000001
 21
3199.503984566909
  0
LINE
  5
2C9
100
AcDbEntity
  8
976
  6
CONTINUOUS
 62
           7
100
AcDbLine
 10
530.0
 20
3198.503984566909
 11
530.0
 21
3160.503984566909
  0
LINE
  5
2C8
100
AcDbEntity
  8
976
  6
CONTINUOUS
 62
           7
100
AcDbLine
 10
530.0
 20
2665.5
 11
530.0
 21
2650.7
  0
LINE
  5
2C7
100
AcDbEntity
  8
1
  6
CONTINUOUS
 62
           7
100
AcDbLine
 10
522.58813228582
 20
2665.3
 11
522.58813228582
 21
3160.503984566909
  0
LINE
  5
2C6
100
AcDbEntity
  8
1
  6
CONTINUOUS
 62
           7
100
AcDbLine
 10
-770.999999999998
 20
2650.5
 11
-770.999999999998
 21
3201.30398456691
  0
LINE
  5
2C5
100
AcDbEntity
  8
2
  6
CONTINUOUS
 62
           7
100
AcDbLine
 10
4872.496396800001
 20
3239.6
 11
4872.496396800001
 21
3490.3868192
  0
LINE
  5
2C4
100
AcDbEntity
  8
7
  6
CONTINUOUS
 62
           7
100
AcDbLine
 10
4875.0
 20
3537.231865248043
 11
4875.0
 21
3504.1868192
  0
LINE
  5
2C3
100
AcDbEntity
  8
7
  6
CONTINUOUS
 62
           7
100
AcDbLine
 10
4625.0
 20
3537.231865248043
 11
4628.600000000002
 21
3570.133628400001
  0
LINE
  5
2C2
100
AcDbEntity
  8
1
  6
CONTINUOUS
 62
           7
100
AcDbLine
 10
4875.0
 20
3537.231865248043
 11
4625.0
 21
3537.231865248043
  0
LINE
  5
2C1
100
AcDbEntity
  8
2
  6
CONTINUOUS
 62
           7
100
AcDbLine
 10
4637.757629599999
 20
3207.799999999999
 11
4624.503603199999
 21
3239.6
  0
LINE
  5
2C0
100
AcDbEntity
  8
2
  6
CONTINUOUS
 62
           7
100
AcDbLine
 10
4624.503603199999
 20
3490.386819200001
 11
4624.503603199999
 21
3239.6
  0
LINE
  5
2BF
100
AcDbEntity
  8
2
  6
CONTINUOUS
 62
           7
100
AcDbLine
 10
4630.2553508
 20
3504.1868192
 11
4624.503603199999
 21
3490.386819200001
  0
LINE
  5
2BE
100
AcDbEntity
  8
2
  6
CONTINUOUS
 62
           4
100
AcDbLine
 10
4642.940000000001
 20
3207.799999999999
 11
4642.940000000001
 21
3203.699999999999
  0
LINE
  5
2BD
100
AcDbEntity
  8
2
  6
CONTINUOUS
 62
           7
100
AcDbLine
 10
4872.496396800001
 20
3490.3868192
 11
4866.7446492
 21
3504.1868192
  0
LINE
  5
2BC
100
AcDbEntity
  8
2
  6
CONTINUOUS
 62
           4
100
AcDbLine
 10
4859.242370400001
 20
3207.799999999999
 11
4637.757629599999
 21
3207.799999999999
  0
LINE
  5
2BB
100
AcDbEntity
  8
2
  6
CONTINUOUS
 62
           7
100
AcDbLine
 10
4872.496396800001
 20
3239.6
 11
4859.242370400001
 21
3207.799999999999
  0
LINE
  5
2BA
100
AcDbEntity
  8
7
  6
CONTINUOUS
 62
           7
100
AcDbLine
 10
4750.000000000002
 20
3600.0
 11
4835.52
 21
3600.0
  0
LINE
  5
2B9
100
AcDbEntity
  8
7
  6
CONTINUOUS
 62
           7
100
AcDbLine
 10
4840.383416400002
 20
3594.483396
 11
4865.131240800001
 21
3574.634035200001
  0
LINE
  5
2B8
100
AcDbEntity
  8
7
  6
CONTINUOUS
 62
           7
100
AcDbLine
 10
4629.8095724
 20
3574.200000000001
 11
4867.56
 21
3574.200000000001
  0
LINE
  5
2B7
100
AcDbEntity
  8
7
  6
CONTINUOUS
 62
           7
100
AcDbLine
 10
4871.400000000002
 20
3570.360000000001
 11
4875.0
 21
3537.231865248043
  0
LINE
  5
2B6
100
AcDbEntity
  8
7
  6
CONTINUOUS
 62
           7
100
AcDbLine
 10
4875.0
 20
3504.1868192
 11
4625.0
 21
3504.1868192
  0
LINE
  5
2B5
100
AcDbEntity
  8
7
  6
CONTINUOUS
 62
           7
100
AcDbLine
 10
4625.0
 20
3504.1868192
 11
4625.0
 21
3537.231865248043
  0
LINE
  5
2B4
100
AcDbEntity
  8
7
  6
CONTINUOUS
 62
           7
100
AcDbLine
 10
4750.000000000002
 20
3600.0
 11
4661.480000000001
 21
3600.0
  0
LINE
  5
2B3
100
AcDbEntity
  8
7
  6
CONTINUOUS
 62
           7
100
AcDbLine
 10
4656.6165824
 20
3594.483396
 11
4632.022588399999
 21
3576.3957372
  0
LINE
  5
2B2
100
AcDbEntity
  8
1
  6
CONTINUOUS
 62
           7
100
AcDbLine
 10
4801.500000000002
 20
3299.5
 11
4698.500000000002
 21
3299.5
  0
LINE
  5
2B1
100
AcDbEntity
  8
1
  6
CONTINUOUS
 62
           7
100
AcDbLine
 10
4698.500000000002
 20
3399.5
 11
4801.500000000002
 21
3399.5
  0
LINE
  5
2B0
100
AcDbEntity
  8
1
  6
CONTINUOUS
 62
           7
100
AcDbLine
 10
4686.500000000002
 20
3311.5
 11
4686.500000000002
 21
3387.5
  0
LINE
  5
2AF
100
AcDbEntity
  8
1
  6
CONTINUOUS
 62
           7
100
AcDbLine
 10
4813.500000000002
 20
3387.5
 11
4813.500000000002
 21
3311.5
  0
LINE
  5
2AE
100
AcDbEntity
  8
2
  6
CONTINUOUS
 62
           4
100
AcDbLine
 10
4854.06
 20
3203.699999999999
 11
4854.06
 21
3207.799999999999
  0
LINE
  5
2AD
100
AcDbEntity
  8
1
  6
CONTINUOUS
 62
           7
100
AcDbLine
 10
5340.0
 20
3165.0
 11
5340.0
 21
2661.0
  0
LINE
  5
2AC
100
AcDbEntity
  8
976
  6
CONTINUOUS
 62
           7
100
AcDbLine
 10
5260.0
 20
3159.699999999999
 11
4074.788529667961
 21
3159.699999999999
  0
LINE
  5
2AB
100
AcDbEntity
  8
1
  6
CONTINUOUS
 62
           7
100
AcDbLine
 10
5340.0
 20
2665.5
 11
5300.0
 21
2665.5
  0
LINE
  5
2AA
100
AcDbEntity
  8
1
  6
CONTINUOUS
 62
           4
100
AcDbLine
 10
5305.5
 20
3165.0
 11
5340.0
 21
3165.0
  0
LINE
  5
2A9
100
AcDbEntity
  8
1
  6
DOT_CENTER
 62
           2
100
AcDbLine
 10
4053.771485574419
 20
2913.0
 11
5394.764587761991
 21
2913.0
  0
LINE
  5
2A8
100
AcDbEntity
  8
1
  6
DOT_CENTER
 62
           2
100
AcDbLine
 10
4750.0
 20
2536.871335955671
 11
4750.0
 21
3641.943017367194
  0
LINE
  5
2A7
100
AcDbEntity
  8
1
  6
CONTINUOUS
 62
           2
100
AcDbLine
 10
4885.513456000908
 20
3093.0
 11
4474.48654399909
 21
3093.0
  0
LINE
  5
2A6
100
AcDbEntity
  8
1
  6
CONTINUOUS
 62
           2
100
AcDbLine
 10
4885.513456000908
 20
2733.0
 11
4885.513456000908
 21
3093.0
  0
LINE
  5
2A5
100
AcDbEntity
  8
1
  6
CONTINUOUS
 62
           2
100
AcDbLine
 10
4474.48654399909
 20
2733.0
 11
4885.513456000908
 21
2733.0
  0
LINE
  5
2A4
100
AcDbEntity
  8
1
  6
CONTINUOUS
 62
           2
100
AcDbLine
 10
4474.48654399909
 20
3093.0
 11
4474.48654399909
 21
2733.0
  0
LINE
  5
2A3
100
AcDbEntity
  8
976
  6
CONTINUOUS
 62
           7
100
AcDbLine
 10
4858.000159772888
 20
2628.300000000003
 11
5256.440677966102
 21
2628.300000000001
  0
LINE
  5
2A2
100
AcDbEntity
  8
976
  6
CONTINUOUS
 62
           7
100
AcDbLine
 10
4675.222691958727
 20
2628.300000000003
 11
4675.222691958725
 21
2666.300000000003
  0
LINE
  5
2A1
100
AcDbEntity
  8
976
  6
CONTINUOUS
 62
           7
100
AcDbLine
 10
4858.000159772888
 20
2628.300000000003
 11
4858.000159772888
 21
2666.300000000003
  0
LINE
  5
2A0
100
AcDbEntity
  8
976
  6
CONTINUOUS
 62
           7
100
AcDbLine
 10
5172.000000000002
 20
2628.300000000003
 11
5172.0
 21
2666.300000000003
  0
LINE
  5
29F
100
AcDbEntity
  8
976
  6
CONTINUOUS
 62
           7
100
AcDbLine
 10
4675.222691958727
 20
3197.699999999999
 11
4074.788529667961
 21
3197.699999999999
  0
LINE
  5
29E
100
AcDbEntity
  8
976
  6
CONTINUOUS
 62
           7
100
AcDbLine
 10
4675.222691958725
 20
3159.699999999999
 11
4675.222691958727
 21
3197.699999999999
  0
LINE
  5
29D
100
AcDbEntity
  8
976
  6
CONTINUOUS
 62
           7
100
AcDbLine
 10
4858.000159772888
 20
3159.699999999999
 11
4858.000159772888
 21
3197.699999999999
  0
LINE
  5
29C
100
AcDbEntity
  8
976
  6
CONTINUOUS
 62
           7
100
AcDbLine
 10
5172.0
 20
3159.699999999999
 11
5172.000000000002
 21
3197.699999999999
  0
LINE
  5
29B
100
AcDbEntity
  8
976
  6
CONTINUOUS
 62
           7
100
AcDbLine
 10
5260.0
 20
3159.699999999999
 11
5260.000000000002
 21
3192.699999999999
  0
LINE
  5
29A
100
AcDbEntity
  8
1
  6
CONTINUOUS
 62
           4
100
AcDbLine
 10
5294.5
 20
2661.0
 11
5260.0
 21
2661.0
  0
LINE
  5
299
100
AcDbEntity
  8
1
  6
CONTINUOUS
 62
           7
100
AcDbLine
 10
5305.5
 20
2665.5
 11
5340.0
 21
2665.5
  0
LINE
  5
298
100
AcDbEntity
  8
1
  6
CONTINUOUS
 62
           4
100
AcDbLine
 10
5295.5
 20
2625.5
 11
5300.0
 21
2625.5
  0
LINE
  5
297
100
AcDbEntity
  8
1
  6
CONTINUOUS
 62
           4
100
AcDbLine
 10
5295.5
 20
2660.0
 11
5295.5
 21
2625.5
  0
LINE
  5
296
100
AcDbEntity
  8
1
  6
CONTINUOUS
 62
           4
100
AcDbLine
 10
5340.0
 20
2661.0
 11
5305.5
 21
2661.0
  0
LINE
  5
295
100
AcDbEntity
  8
1
  6
CONTINUOUS
 62
           4
100
AcDbLine
 10
5304.5
 20
2625.5
 11
5304.5
 21
2660.0
  0
LINE
  5
294
100
AcDbEntity
  8
1
  6
CONTINUOUS
 62
           4
100
AcDbLine
 10
5300.0
 20
2625.5
 11
5304.5
 21
2625.5
  0
LINE
  5
293
100
AcDbEntity
  8
1
  6
CONTINUOUS
 62
           4
100
AcDbLine
 10
5260.0
 20
3165.0
 11
5294.5
 21
3165.0
  0
LINE
  5
292
100
AcDbEntity
  8
1
  6
CONTINUOUS
 62
           4
100
AcDbLine
 10
5295.5
 20
3200.5
 11
5295.5
 21
3166.0
  0
LINE
  5
291
100
AcDbEntity
  8
1
  6
CONTINUOUS
 62
           4
100
AcDbLine
 10
5300.0
 20
3200.5
 11
5295.5
 21
3200.5
  0
LINE
  5
290
100
AcDbEntity
  8
1
  6
CONTINUOUS
 62
           4
100
AcDbLine
 10
5304.5
 20
3200.5
 11
5300.0
 21
3200.5
  0
LINE
  5
28F
100
AcDbEntity
  8
1
  6
CONTINUOUS
 62
           4
100
AcDbLine
 10
5304.5
 20
3166.0
 11
5304.5
 21
3200.5
  0
LINE
  5
28E
100
AcDbEntity
  8
1
  6
CONTINUOUS
 62
           7
100
AcDbLine
 10
5300.0
 20
3200.5
 11
5300.0
 21
2625.5
  0
LINE
  5
28D
100
AcDbEntity
  8
1
  6
CONTINUOUS
 62
           4
100
AcDbLine
 10
5304.299999999999
 20
2665.5
 11
5304.299999999999
 21
3160.5
  0
LINE
  5
28C
100
AcDbEntity
  8
1
  6
CONTINUOUS
 62
           4
100
AcDbLine
 10
5295.699999999999
 20
3160.5
 11
5295.699999999999
 21
2665.5
  0
LINE
  5
28B
100
AcDbEntity
  8
1
  6
CONTINUOUS
 62
           7
100
AcDbLine
 10
5300.0
 20
2665.5
 11
5260.0
 21
2665.5
  0
LINE
  5
28A
100
AcDbEntity
  8
1
  6
CONTINUOUS
 62
           7
100
AcDbLine
 10
5260.0
 20
3160.5
 11
5300.0
 21
3160.5
  0
LINE
  5
289
100
AcDbEntity
  8
1
  6
CONTINUOUS
 62
           7
100
AcDbLine
 10
5260.0
 20
2661.0
 11
5260.0
 21
3165.0
  0
LINE
  5
288
100
AcDbEntity
  8
1
  6
CONTINUOUS
 62
           7
100
AcDbLine
 10
5300.0
 20
3160.5
 11
5340.0
 21
3160.5
  0
LINE
  5
287
100
AcDbEntity
  8
1
  6
CONTINUOUS
 62
           7
100
AcDbLine
 10
4120.0
 20
3159.699999999999
 11
4120.0
 21
2666.300000000001
  0
LINE
  5
286
100
AcDbEntity
  8
1
  6
CONTINUOUS
 62
           7
100
AcDbLine
 10
5260.0
 20
2665.5
 11
5294.5
 21
2665.5
  0
LINE
  5
285
100
AcDbEntity
  8
1
  6
CONTINUOUS
 62
           7
100
AcDbLine
 10
5294.5
 20
3160.5
 11
5260.0
 21
3160.5
  0
LINE
  5
284
100
AcDbEntity
  8
1
  6
CONTINUOUS
 62
           7
100
AcDbLine
 10
5340.0
 20
3160.5
 11
5305.5
 21
3160.5
  0
LINE
  5
283
100
AcDbEntity
  8
1
  6
CONTINUOUS
 62
           7
100
AcDbLine
 10
5260.0
 20
2633.300000000001
 11
5256.440677966102
 21
2628.300000000001
  0
LINE
  5
282
100
AcDbEntity
  8
1
  6
CONTINUOUS
 62
           7
100
AcDbLine
 10
5260.000000000002
 20
3192.699999999999
 11
5256.440677966102
 21
3197.699999999999
  0
LINE
  5
281
100
AcDbEntity
  8
976
  6
CONTINUOUS
 62
           7
100
AcDbLine
 10
4074.788529667961
 20
2628.300000000001
 11
4074.788529667961
 21
2666.300000000001
  0
LINE
  5
280
100
AcDbEntity
  8
976
  6
CONTINUOUS
 62
           7
100
AcDbLine
 10
4074.788529667961
 20
3159.699999999999
 11
4074.788529667961
 21
3197.699999999999
  0
LINE
  5
27F
100
AcDbEntity
  8
976
  6
CONTINUOUS
 62
           7
100
AcDbLine
 10
4074.788529667961
 20
2628.300000000001
 11
4675.222691958727
 21
2628.300000000003
  0
LINE
  5
27E
100
AcDbEntity
  8
976
  6
CONTINUOUS
 62
           7
100
AcDbLine
 10
5260.0
 20
2666.300000000001
 11
5260.0
 21
2633.300000000001
  0
LINE
  5
27D
100
AcDbEntity
  8
976
  6
CONTINUOUS
 62
           7
100
AcDbLine
 10
5260.0
 20
2666.300000000001
 11
4074.788529667961
 21
2666.300000000001
  0
LINE
  5
27C
100
AcDbEntity
  8
976
  6
CONTINUOUS
 62
           7
100
AcDbLine
 10
5256.440677966102
 20
3197.699999999999
 11
4858.000159772888
 21
3197.699999999999
  0
LINE
  5
27B
100
AcDbEntity
  8
1
  6
CONTINUOUS
 62
           4
100
AcDbLine
 10
4490.0
 20
3198.699999999999
 11
4495.0
 21
3203.699999999999
  0
LINE
  5
27A
100
AcDbEntity
  8
1
  6
CONTINUOUS
 62
           4
100
AcDbLine
 10
5005.0
 20
3203.699999999999
 11
4495.0
 21
3203.699999999999
  0
LINE
  5
279
100
AcDbEntity
  8
1
  6
CONTINUOUS
 62
           4
100
AcDbLine
 10
5005.0
 20
3203.699999999999
 11
5010.0
 21
3198.699999999999
  0
LINE
  5
278
100
AcDbEntity
  8
1
  6
CONTINUOUS
 62
           4
100
AcDbLine
 10
5010.0
 20
3198.699999999999
 11
5010.0
 21
3197.699999999999
  0
LINE
  5
277
100
AcDbEntity
  8
1
  6
CONTINUOUS
 62
           4
100
AcDbLine
 10
4490.0
 20
3198.699999999999
 11
4490.0
 21
3197.699999999999
  0
LINE
  5
276
100
AcDbEntity
  8
0
  6
CONTINUOUS
 62
           7
100
AcDbLine
 10
4416.800000000001
 20
2628.300000000001
 11
4416.799999999999
 21
2581.0
  0
LINE
  5
275
100
AcDbEntity
  8
0
  6
CONTINUOUS
 62
           7
100
AcDbLine
 10
5083.200000000001
 20
2581.0
 11
5083.200000000001
 21
2628.300000000001
  0
LINE
  5
274
100
AcDbEntity
  8
1
  6
CONTINUOUS
 62
           4
100
AcDbLine
 10
4377.5
 20
2581.0
 11
5122.5
 21
2581.0
  0
LINE
  5
273
100
AcDbEntity
  8
1
  6
CONTINUOUS
 62
           7
100
AcDbLine
 10
5122.5
 20
2575.0
 11
4377.5
 21
2575.0
  0
LINE
  5
272
100
AcDbEntity
  8
1
  6
CONTINUOUS
 62
           4
100
AcDbLine
 10
4377.5
 20
2575.0
 11
4377.5
 21
2581.0
  0
LINE
  5
271
100
AcDbEntity
  8
1
  6
CONTINUOUS
 62
           4
100
AcDbLine
 10
5122.5
 20
2581.0
 11
5122.5
 21
2575.0
  0
LINE
  5
270
100
AcDbEntity
  8
1
  6
CONTINUOUS
 62
           3
100
AcDbLine
 10
4670.163567691041
 20
1935.969655114602
 11
4664.489527668222
 21
1932.69374658004
  0
LINE
  5
26F
100
AcDbEntity
  8
1
  6
CONTINUOUS
 62
           3
100
AcDbLine
 10
4679.663567691041
 20
1930.484827557302
 11
4670.163567691041
 21
1935.969655114602
  0
LINE
  5
26E
100
AcDbEntity
  8
1
  6
CONTINUOUS
 62
           3
100
AcDbLine
 10
4679.663567691041
 20
1919.515172442699
 11
4679.663567691041
 21
1930.484827557302
  0
LINE
  5
26D
100
AcDbEntity
  8
1
  6
CONTINUOUS
 62
           3
100
AcDbLine
 10
4670.163567691041
 20
1914.030344885398
 11
4679.663567691041
 21
1919.515172442699
  0
LINE
  5
26C
100
AcDbEntity
  8
1
  6
CONTINUOUS
 62
           3
100
AcDbLine
 10
4664.489527668229
 20
1917.306253419961
 11
4670.163567691041
 21
1914.030344885398
  0
LINE
  5
26B
100
AcDbEntity
  8
1
  6
DOT_CENTER
 62
           3
100
AcDbLine
 10
4646.218519558621
 20
1925.0
 11
4687.66769526244
 21
1925.0
  0
LINE
  5
26A
100
AcDbEntity
  8
1
  6
CONTINUOUS
 62
           3
100
AcDbLine
 10
4659.389214871942
 20
1916.75
 11
4659.389214871942
 21
1917.306253419961
  0
LINE
  5
269
100
AcDbEntity
  8
1
  6
CONTINUOUS
 62
           3
100
AcDbLine
 10
4659.389214871942
 20
1916.75
 11
4649.714603906643
 21
1916.75
  0
LINE
  5
268
100
AcDbEntity
  8
1
  6
CONTINUOUS
 62
           3
100
AcDbLine
 10
4649.714603906643
 20
1916.75
 11
4649.714603906643
 21
1925.0
  0
LINE
  5
267
100
AcDbEntity
  8
1
  6
CONTINUOUS
 62
           3
100
AcDbLine
 10
4649.714603906643
 20
1919.0
 11
4648.868798384461
 21
1919.0
  0
LINE
  5
266
100
AcDbEntity
  8
1
  6
CONTINUOUS
 62
           3
100
AcDbLine
 10
4648.868798384461
 20
1917.306253419961
 11
4648.868798384461
 21
1925.0
  0
LINE
  5
265
100
AcDbEntity
  8
1
  6
CONTINUOUS
 62
           3
100
AcDbLine
 10
4648.868798384461
 20
1917.306253419961
 11
4648.163567691041
 21
1917.306253419961
  0
LINE
  5
264
100
AcDbEntity
  8
1
  6
CONTINUOUS
 62
           3
100
AcDbLine
 10
4647.663567691041
 20
1925.0
 11
4647.663567691041
 21
1917.806253419961
  0
LINE
  5
263
100
AcDbEntity
  8
1
  6
CONTINUOUS
 62
           3
100
AcDbLine
 10
4647.663567691041
 20
1932.19374658004
 11
4647.663567691041
 21
1925.0
  0
LINE
  5
262
100
AcDbEntity
  8
1
  6
CONTINUOUS
 62
           3
100
AcDbLine
 10
4648.163567691041
 20
1932.69374658004
 11
4648.868798384461
 21
1932.69374658004
  0
LINE
  5
261
100
AcDbEntity
  8
1
  6
CONTINUOUS
 62
           3
100
AcDbLine
 10
4648.868798384461
 20
1925.0
 11
4648.868798384461
 21
1932.69374658004
  0
LINE
  5
260
100
AcDbEntity
  8
1
  6
CONTINUOUS
 62
           3
100
AcDbLine
 10
4648.868798384461
 20
1931.0
 11
4649.714603906643
 21
1931.0
  0
LINE
  5
25F
100
AcDbEntity
  8
1
  6
CONTINUOUS
 62
           3
100
AcDbLine
 10
4649.714603906643
 20
1933.25
 11
4659.389214871942
 21
1933.25
  0
LINE
  5
25E
100
AcDbEntity
  8
1
  6
CONTINUOUS
 62
           3
100
AcDbLine
 10
4649.714603906643
 20
1925.0
 11
4649.714603906643
 21
1933.25
  0
LINE
  5
25D
100
AcDbEntity
  8
1
  6
CONTINUOUS
 62
           3
100
AcDbLine
 10
4659.389214871942
 20
1932.69374658004
 11
4659.389214871942
 21
1933.25
  0
LINE
  5
25C
100
AcDbEntity
  8
1
  6
CONTINUOUS
 62
           3
100
AcDbLine
 10
4659.389214871942
 20
1917.306253419961
 11
4659.389214871942
 21
1932.69374658004
  0
LINE
  5
25B
100
AcDbEntity
  8
1
  6
CONTINUOUS
 62
           3
100
AcDbLine
 10
4665.254330418633
 20
1917.306253419961
 11
4665.254330418633
 21
1932.69374658004
  0
LINE
  5
25A
100
AcDbEntity
  8
1
  6
CONTINUOUS
 62
           3
100
AcDbLine
 10
4665.254330418633
 20
1917.306253419961
 11
4659.389214871942
 21
1917.306253419961
  0
LINE
  5
259
100
AcDbEntity
  8
1
  6
CONTINUOUS
 62
           3
100
AcDbLine
 10
4665.254330418633
 20
1932.69374658004
 11
4659.389214871942
 21
1932.69374658004
  0
LINE
  5
258
100
AcDbEntity
  8
1
  6
CONTINUOUS
 62
           3
100
AcDbLine
 10
4665.254330418633
 20
1930.87183499507
 11
4670.163567691041
 21
1930.87183499507
  0
LINE
  5
257
100
AcDbEntity
  8
1
  6
DOT_CENTER
 62
           3
100
AcDbLine
 10
4670.163567691041
 20
1938.643555804874
 11
4670.163567691041
 21
1907.508008255126
  0
LINE
  5
256
100
AcDbEntity
  8
1
  6
CONTINUOUS
 62
           3
100
AcDbLine
 10
4670.163567691041
 20
1919.128165004934
 11
4665.254330418633
 21
1919.128165004934
  0
LINE
  5
255
100
AcDbEntity
  8
0
  6
CONTINUOUS
 62
           3
100
AcDbLine
 10
4164.844723494172
 20
1393.116392195192
 11
4165.899996721675
 21
1393.131740391393
  0
LINE
  5
254
100
AcDbEntity
  8
0
  6
CONTINUOUS
 62
           3
100
AcDbLine
 10
4163.903805503274
 20
1393.072016537193
 11
4164.844723494172
 21
1393.116392195192
  0
LINE
  5
253
100
AcDbEntity
  8
0
  6
CONTINUOUS
 62
           3
100
AcDbLine
 10
4163.179205573573
 20
1393.003411590991
 11
4163.903805503274
 21
1393.072016537193
  0
LINE
  5
252
100
AcDbEntity
  8
0
  6
CONTINUOUS
 62
           3
100
AcDbLine
 10
4162.749445840376
 20
1392.918020486793
 11
4163.179205573573
 21
1393.003411590991
  0
LINE
  5
251
100
AcDbEntity
  8
0
  6
CONTINUOUS
 62
           3
100
AcDbLine
 10
4162.661097088372
 20
1392.825089394993
 11
4162.749445840376
 21
1392.918020486793
  0
LINE
  5
250
100
AcDbEntity
  8
0
  6
CONTINUOUS
 62
           3
100
AcDbLine
 10
4162.899996695576
 20
1392.739541828793
 11
4162.661097088372
 21
1392.825089394993
  0
LINE
  5
24F
100
AcDbEntity
  8
0
  6
CONTINUOUS
 62
           3
100
AcDbLine
 10
4169.138896354963
 20
1392.825089394993
 11
4168.899996747763
 21
1392.739541828793
  0
LINE
  5
24E
100
AcDbEntity
  8
0
  6
CONTINUOUS
 62
           3
100
AcDbLine
 10
4169.050547602961
 20
1392.918020486793
 11
4169.138896354963
 21
1392.825089394993
  0
LINE
  5
24D
100
AcDbEntity
  8
0
  6
CONTINUOUS
 62
           3
100
AcDbLine
 10
4168.620787869762
 20
1393.003411590991
 11
4169.050547602961
 21
1392.918020486793
  0
LINE
  5
24C
100
AcDbEntity
  8
0
  6
CONTINUOUS
 62
           3
100
AcDbLine
 10
4167.896187940061
 20
1393.072016537193
 11
4168.620787869762
 21
1393.003411590991
  0
LINE
  5
24B
100
AcDbEntity
  8
0
  6
CONTINUOUS
 62
           3
100
AcDbLine
 10
4166.955269949174
 20
1393.116392195192
 11
4167.896187940061
 21
1393.072016537193
  0
LINE
  5
24A
100
AcDbEntity
  8
0
  6
CONTINUOUS
 62
           3
100
AcDbLine
 10
4165.899996721675
 20
1393.131740391393
 11
4166.955269949174
 21
1393.116392195192
  0
LINE
  5
249
100
AcDbEntity
  8
FORMAT
  6
CONTINUOUS
 62
           3
100
AcDbLine
 10
4162.399996721573
 20
1392.596845102893
 11
4151.899996721584
 21
1392.596845102893
  0
LINE
  5
248
100
AcDbEntity
  8
FORMAT
  6
DOT_CENTER
 62
           3
100
AcDbLine
 10
4165.899996721675
 20
1249.759397252255
 11
4165.899996721675
 21
1725.394390768569
  0
LINE
  5
247
100
AcDbEntity
  8
FORMAT
  6
CONTINUOUS
 62
           3
100
AcDbLine
 10
4169.399996721764
 20
1392.596845102893
 11
4162.399996721573
 21
1392.596845102893
  0
LINE
  5
246
100
AcDbEntity
  8
FORMAT
  6
CONTINUOUS
 62
           3
100
AcDbLine
 10
4179.899996721755
 20
1392.596845102893
 11
4169.399996721764
 21
1392.596845102893
  0
LINE
  5
245
100
AcDbEntity
  8
FORMAT
  6
DOT_CENTER
 62
           3
100
AcDbLine
 10
4090.999996721633
 20
1375.000000000007
 11
4077.399996721744
 21
1375.000000000007
  0
LINE
  5
244
100
AcDbEntity
  8
FORMAT
  6
DOT_CENTER
 62
           3
100
AcDbLine
 10
4090.999996721633
 20
1625.0
 11
4077.399996721744
 21
1625.0
  0
LINE
  5
243
100
AcDbEntity
  8
0
  6
CONTINUOUS
 62
           3
100
AcDbLine
 10
4100.899999106019
 20
1364.999994635816
 11
4085.499999189234
 21
1364.999994635815
  0
LINE
  5
242
100
AcDbEntity
  8
0
  6
CONTINUOUS
 62
           3
100
AcDbLine
 10
4104.399995023124
 20
1590.000003576231
 11
4104.399995023124
 21
1509.999999776395
  0
LINE
  5
241
100
AcDbEntity
  8
0
  6
CONTINUOUS
 62
           3
100
AcDbLine
 10
4107.399997377515
 20
1590.000003576231
 11
4104.399995023124
 21
1590.000003576231
  0
LINE
  5
240
100
AcDbEntity
  8
0
  6
CONTINUOUS
 62
           3
100
AcDbLine
 10
4107.399997377515
 20
1550.000000744964
 11
4107.399997377515
 21
1590.000003576231
  0
LINE
  5
23F
100
AcDbEntity
  8
0
  6
CONTINUOUS
 62
           3
100
AcDbLine
 10
4107.399997377515
 20
1529.999999329481
 11
4107.399997377515
 21
1532.000001519879
  0
LINE
  5
23E
100
AcDbEntity
  8
0
  6
CONTINUOUS
 62
           3
100
AcDbLine
 10
4104.399995023124
 20
1509.999999776395
 11
4105.975189322322
 21
1509.999999776395
  0
LINE
  5
23D
100
AcDbEntity
  8
0
  6
CONTINUOUS
 62
           3
100
AcDbLine
 10
4225.899995380621
 20
1368.000000715314
 11
4225.899995380621
 21
1367.300003767013
  0
LINE
  5
23C
100
AcDbEntity
  8
0
  6
CONTINUOUS
 62
           3
100
AcDbLine
 10
4230.899994337314
 20
1364.999994635816
 11
4230.899994337314
 21
1368.000000715314
  0
LINE
  5
23B
100
AcDbEntity
  8
0
  6
CONTINUOUS
 62
           3
100
AcDbLine
 10
4230.899994337314
 20
1635.000005364196
 11
4230.899994337314
 21
1631.999999284697
  0
LINE
  5
23A
100
AcDbEntity
  8
0
  6
CONTINUOUS
 62
           3
100
AcDbLine
 10
4225.899995380621
 20
1631.999999284697
 11
4225.899995380621
 21
1632.699996232995
  0
LINE
  5
239
100
AcDbEntity
  8
0
  6
CONTINUOUS
 62
           3
100
AcDbLine
 10
4105.899998062714
 20
1631.999999284697
 11
4105.899998062714
 21
1632.699996232995
  0
LINE
  5
238
100
AcDbEntity
  8
0
  6
CONTINUOUS
 62
           3
100
AcDbLine
 10
4100.899999106019
 20
1635.000005364196
 11
4100.899999106019
 21
1631.999999284697
  0
LINE
  5
237
100
AcDbEntity
  8
0
  6
CONTINUOUS
 62
           3
100
AcDbLine
 10
4100.899999106019
 20
1635.000005364196
 11
4085.499999189234
 21
1635.000005364196
  0
LINE
  5
236
100
AcDbEntity
  8
0
  6
CONTINUOUS
 62
           3
100
AcDbLine
 10
4100.899999106019
 20
1364.999994635816
 11
4100.899999106019
 21
1368.000000715314
  0
LINE
  5
235
100
AcDbEntity
  8
0
  6
CONTINUOUS
 62
           3
100
AcDbLine
 10
4105.899998062714
 20
1368.000000715314
 11
4105.899998062714
 21
1367.300003767013
  0
LINE
  5
234
100
AcDbEntity
  8
0
  6
CONTINUOUS
 62
           3
100
AcDbLine
 10
4104.399995023124
 20
1409.999996423779
 11
4104.399995023124
 21
1490.000000223612
  0
LINE
  5
233
100
AcDbEntity
  8
0
  6
CONTINUOUS
 62
           3
100
AcDbLine
 10
4104.399995023124
 20
1490.000000223612
 11
4105.899998062714
 21
1490.000000223612
  0
LINE
  5
232
100
AcDbEntity
  8
0
  6
CONTINUOUS
 62
           3
100
AcDbLine
 10
4107.399997377515
 20
1431.999996304559
 11
4107.399997377515
 21
1429.999999701962
  0
LINE
  5
231
100
AcDbEntity
  8
0
  6
CONTINUOUS
 62
           3
100
AcDbLine
 10
4105.975189322322
 20
1409.999996423779
 11
4104.399995023124
 21
1409.999996423779
  0
LINE
  5
230
100
AcDbEntity
  8
0
  6
CONTINUOUS
 62
           3
100
AcDbLine
 10
4227.399998420225
 20
1590.000003576231
 11
4227.399998420225
 21
1509.999999776395
  0
LINE
  5
22F
100
AcDbEntity
  8
0
  6
CONTINUOUS
 62
           3
100
AcDbLine
 10
4227.399998420225
 20
1509.999999776395
 11
4225.824804121022
 21
1509.999999776395
  0
LINE
  5
22E
100
AcDbEntity
  8
0
  6
CONTINUOUS
 62
           3
100
AcDbLine
 10
4224.399996066124
 20
1550.000000744964
 11
4224.399996066124
 21
1590.000003576231
  0
LINE
  5
22D
100
AcDbEntity
  8
0
  6
CONTINUOUS
 62
           3
100
AcDbLine
 10
4224.399996066124
 20
1529.999999329481
 11
4224.399996066124
 21
1532.000001519879
  0
LINE
  5
22C
100
AcDbEntity
  8
0
  6
CONTINUOUS
 62
           3
100
AcDbLine
 10
4224.399996066124
 20
1590.000003576231
 11
4227.399998420225
 21
1590.000003576231
  0
LINE
  5
22B
100
AcDbEntity
  8
0
  6
CONTINUOUS
 62
           3
100
AcDbLine
 10
4227.399998420225
 20
1409.999996423779
 11
4227.399998420225
 21
1490.000000223612
  0
LINE
  5
22A
100
AcDbEntity
  8
0
  6
CONTINUOUS
 62
           3
100
AcDbLine
 10
4225.824804121022
 20
1409.999996423779
 11
4227.399998420225
 21
1409.999996423779
  0
LINE
  5
229
100
AcDbEntity
  8
0
  6
CONTINUOUS
 62
           3
100
AcDbLine
 10
4224.399996066124
 20
1431.999996304559
 11
4224.399996066124
 21
1429.999999701962
  0
LINE
  5
228
100
AcDbEntity
  8
0
  6
CONTINUOUS
 62
           3
100
AcDbLine
 10
4227.399998420225
 20
1490.000000223612
 11
4225.899995380621
 21
1490.000000223612
  0
LINE
  5
227
100
AcDbEntity
  8
0
  6
CONTINUOUS
 62
           3
100
AcDbLine
 10
4085.499999189234
 20
1635.000005364196
 11
4083.399993443331
 21
1635.000005364196
  0
LINE
  5
226
100
AcDbEntity
  8
0
  6
CONTINUOUS
 62
           3
100
AcDbLine
 10
4083.399993443331
 20
1635.000005364196
 11
4083.399993443331
 21
1364.999994635815
  0
LINE
  5
225
100
AcDbEntity
  8
0
  6
CONTINUOUS
 62
           3
100
AcDbLine
 10
4085.499999189234
 20
1364.999994635815
 11
4083.399993443331
 21
1364.999994635815
  0
LINE
  5
224
100
AcDbEntity
  8
0
  6
CONTINUOUS
 62
           3
100
AcDbLine
 10
4105.899998062714
 20
1366.600006818713
 11
4105.899998062714
 21
1367.300003767013
  0
LINE
  5
223
100
AcDbEntity
  8
0
  6
CONTINUOUS
 62
           3
100
AcDbLine
 10
4225.899995380621
 20
1366.600006818713
 11
4225.899995380621
 21
1367.300003767013
  0
LINE
  5
222
100
AcDbEntity
  8
0
  6
CONTINUOUS
 62
           3
100
AcDbLine
 10
4105.899998062714
 20
1633.399993180997
 11
4105.899998062714
 21
1632.699996232995
  0
LINE
  5
221
100
AcDbEntity
  8
0
  6
CONTINUOUS
 62
           3
100
AcDbLine
 10
4225.899995380621
 20
1633.399993180997
 11
4225.899995380621
 21
1632.699996232995
  0
LINE
  5
220
100
AcDbEntity
  8
0
  6
CONTINUOUS
 62
           3
100
AcDbLine
 10
4220.899996423622
 20
1633.399993180997
 11
4225.899995380621
 21
1633.399993180997
  0
LINE
  5
21F
100
AcDbEntity
  8
0
  6
CONTINUOUS
 62
           3
100
AcDbLine
 10
4225.899995380621
 20
1635.000005364196
 11
4220.899996423622
 21
1635.000005364196
  0
LINE
  5
21E
100
AcDbEntity
  8
0
  6
CONTINUOUS
 62
           3
100
AcDbLine
 10
4225.899995380621
 20
1633.399993180997
 11
4225.899995380621
 21
1635.000005364196
  0
LINE
  5
21D
100
AcDbEntity
  8
0
  6
CONTINUOUS
 62
           3
100
AcDbLine
 10
4220.899996423622
 20
1366.600006818713
 11
4225.899995380621
 21
1366.600006818713
  0
LINE
  5
21C
100
AcDbEntity
  8
0
  6
CONTINUOUS
 62
           3
100
AcDbLine
 10
4225.899995380621
 20
1364.999994635816
 11
4220.899996423622
 21
1364.999994635816
  0
LINE
  5
21B
100
AcDbEntity
  8
0
  6
CONTINUOUS
 62
           3
100
AcDbLine
 10
4225.899995380621
 20
1366.600006818713
 11
4225.899995380621
 21
1364.999994635816
  0
LINE
  5
21A
100
AcDbEntity
  8
0
  6
CONTINUOUS
 62
           3
100
AcDbLine
 10
4210.899998509632
 20
1366.600006818713
 11
4212.899995112233
 21
1366.600006818713
  0
LINE
  5
219
100
AcDbEntity
  8
0
  6
CONTINUOUS
 62
           3
100
AcDbLine
 10
4212.899995112233
 20
1364.999994635816
 11
4210.899998509632
 21
1364.999994635816
  0
LINE
  5
218
100
AcDbEntity
  8
0
  6
CONTINUOUS
 62
           3
100
AcDbLine
 10
4212.899995112233
 20
1366.600006818713
 11
4212.899995112233
 21
1364.999994635816
  0
LINE
  5
217
100
AcDbEntity
  8
0
  6
CONTINUOUS
 62
           3
100
AcDbLine
 10
4210.899998509632
 20
1633.399993180997
 11
4212.899995112233
 21
1633.399993180997
  0
LINE
  5
216
100
AcDbEntity
  8
0
  6
CONTINUOUS
 62
           3
100
AcDbLine
 10
4212.899995112233
 20
1635.000005364196
 11
4210.899998509632
 21
1635.000005364196
  0
LINE
  5
215
100
AcDbEntity
  8
0
  6
CONTINUOUS
 62
           3
100
AcDbLine
 10
4212.899995112233
 20
1633.399993180997
 11
4212.899995112233
 21
1635.000005364196
  0
LINE
  5
214
100
AcDbEntity
  8
0
  6
CONTINUOUS
 62
           3
100
AcDbLine
 10
4218.899996095919
 20
1366.600006818713
 11
4220.899996423622
 21
1366.600006818713
  0
LINE
  5
213
100
AcDbEntity
  8
0
  6
CONTINUOUS
 62
           3
100
AcDbLine
 10
4220.899996423622
 20
1364.999994635816
 11
4218.899996095919
 21
1364.999994635816
  0
LINE
  5
212
100
AcDbEntity
  8
0
  6
CONTINUOUS
 62
           3
100
AcDbLine
 10
4218.899996095919
 20
1364.999994635816
 11
4218.899996095919
 21
1366.600006818713
  0
LINE
  5
211
100
AcDbEntity
  8
0
  6
CONTINUOUS
 62
           3
100
AcDbLine
 10
4218.899996095919
 20
1633.399993180997
 11
4220.899996423622
 21
1633.399993180997
  0
LINE
  5
210
100
AcDbEntity
  8
0
  6
CONTINUOUS
 62
           3
100
AcDbLine
 10
4220.899996423622
 20
1635.000005364196
 11
4218.899996095919
 21
1635.000005364196
  0
LINE
  5
20F
100
AcDbEntity
  8
0
  6
CONTINUOUS
 62
           3
100
AcDbLine
 10
4218.899996095919
 20
1635.000005364196
 11
4218.899996095919
 21
1633.399993180997
  0
LINE
  5
20E
100
AcDbEntity
  8
0
  6
CONTINUOUS
 62
           3
100
AcDbLine
 10
4110.899997019711
 20
1633.399993180997
 11
4105.899998062714
 21
1633.399993180997
  0
LINE
  5
20D
100
AcDbEntity
  8
0
  6
CONTINUOUS
 62
           3
100
AcDbLine
 10
4105.899998062714
 20
1635.000005364196
 11
4110.899997019711
 21
1635.000005364196
  0
LINE
  5
20C
100
AcDbEntity
  8
0
  6
CONTINUOUS
 62
           3
100
AcDbLine
 10
4105.899998062714
 20
1633.399993180997
 11
4105.899998062714
 21
1635.000005364196
  0
LINE
  5
20B
100
AcDbEntity
  8
0
  6
CONTINUOUS
 62
           3
100
AcDbLine
 10
4110.899997019711
 20
1366.600006818713
 11
4105.899998062714
 21
1366.600006818713
  0
LINE
  5
20A
100
AcDbEntity
  8
0
  6
CONTINUOUS
 62
           3
100
AcDbLine
 10
4105.899998062714
 20
1364.999994635816
 11
4110.899997019711
 21
1364.999994635816
  0
LINE
  5
209
100
AcDbEntity
  8
0
  6
CONTINUOUS
 62
           3
100
AcDbLine
 10
4105.899998062714
 20
1366.600006818713
 11
4105.899998062714
 21
1364.999994635816
  0
LINE
  5
208
100
AcDbEntity
  8
0
  6
CONTINUOUS
 62
           3
100
AcDbLine
 10
4120.899994933703
 20
1633.399993180997
 11
4210.899998509632
 21
1633.399993180997
  0
LINE
  5
207
100
AcDbEntity
  8
0
  6
CONTINUOUS
 62
           3
100
AcDbLine
 10
4120.899994933703
 20
1635.000005364196
 11
4210.899998509632
 21
1635.000005364196
  0
LINE
  5
206
100
AcDbEntity
  8
0
  6
CONTINUOUS
 62
           3
100
AcDbLine
 10
4120.899994933703
 20
1366.600006818713
 11
4210.899998509632
 21
1366.600006818713
  0
LINE
  5
205
100
AcDbEntity
  8
0
  6
CONTINUOUS
 62
           3
100
AcDbLine
 10
4120.899994933703
 20
1364.999994635816
 11
4210.899998509632
 21
1364.999994635816
  0
LINE
  5
204
100
AcDbEntity
  8
0
  6
CONTINUOUS
 62
           3
100
AcDbLine
 10
4120.899994933703
 20
1366.600006818713
 11
4118.899998331102
 21
1366.600006818713
  0
LINE
  5
203
100
AcDbEntity
  8
0
  6
CONTINUOUS
 62
           3
100
AcDbLine
 10
4118.899998331102
 20
1366.600006818713
 11
4118.899998331102
 21
1364.999994635816
  0
LINE
  5
202
100
AcDbEntity
  8
0
  6
CONTINUOUS
 62
           3
100
AcDbLine
 10
4118.899998331102
 20
1364.999994635816
 11
4120.899994933703
 21
1364.999994635816
  0
LINE
  5
201
100
AcDbEntity
  8
0
  6
CONTINUOUS
 62
           3
100
AcDbLine
 10
4120.899994933703
 20
1633.399993180997
 11
4118.899998331102
 21
1633.399993180997
  0
LINE
  5
200
100
AcDbEntity
  8
0
  6
CONTINUOUS
 62
           3
100
AcDbLine
 10
4118.899998331102
 20
1635.000005364196
 11
4120.899994933703
 21
1635.000005364196
  0
LINE
  5
1FF
100
AcDbEntity
  8
0
  6
CONTINUOUS
 62
           3
100
AcDbLine
 10
4118.899998331102
 20
1633.399993180997
 11
4118.899998331102
 21
1635.000005364196
  0
LINE
  5
1FE
100
AcDbEntity
  8
0
  6
CONTINUOUS
 62
           3
100
AcDbLine
 10
4112.899997347713
 20
1633.399993180997
 11
4110.899997019711
 21
1633.399993180997
  0
LINE
  5
1FD
100
AcDbEntity
  8
0
  6
CONTINUOUS
 62
           3
100
AcDbLine
 10
4112.899997347713
 20
1635.000005364196
 11
4112.899997347713
 21
1633.399993180997
  0
LINE
  5
1FC
100
AcDbEntity
  8
0
  6
CONTINUOUS
 62
           3
100
AcDbLine
 10
4110.899997019711
 20
1635.000005364196
 11
4112.899997347713
 21
1635.000005364196
  0
LINE
  5
1FB
100
AcDbEntity
  8
0
  6
CONTINUOUS
 62
           3
100
AcDbLine
 10
4112.899997347713
 20
1366.600006818713
 11
4110.899997019711
 21
1366.600006818713
  0
LINE
  5
1FA
100
AcDbEntity
  8
0
  6
CONTINUOUS
 62
           3
100
AcDbLine
 10
4110.899997019711
 20
1364.999994635816
 11
4112.899997347713
 21
1364.999994635816
  0
LINE
  5
1F9
100
AcDbEntity
  8
0
  6
CONTINUOUS
 62
           3
100
AcDbLine
 10
4112.899997347713
 20
1364.999994635816
 11
4112.899997347713
 21
1366.600006818713
  0
LINE
  5
1F8
100
AcDbEntity
  8
0
  6
CONTINUOUS
 62
           3
100
AcDbLine
 10
4225.824804121022
 20
1409.999996423779
 11
4224.199996405623
 21
1409.999996423779
  0
LINE
  5
1F7
100
AcDbEntity
  8
0
  6
CONTINUOUS
 62
           3
100
AcDbLine
 10
4224.199996405623
 20
1429.999999701962
 11
4225.899995380621
 21
1429.999999701962
  0
LINE
  5
1F6
100
AcDbEntity
  8
0
  6
CONTINUOUS
 62
           3
100
AcDbLine
 10
4225.899995380621
 20
1429.999999701962
 11
4225.899995380621
 21
1409.999996423779
  0
LINE
  5
1F5
100
AcDbEntity
  8
0
  6
CONTINUOUS
 62
           3
100
AcDbLine
 10
4105.899998062714
 20
1529.999999329481
 11
4107.599997037714
 21
1529.999999329481
  0
LINE
  5
1F4
100
AcDbEntity
  8
0
  6
CONTINUOUS
 62
           3
100
AcDbLine
 10
4105.899998062714
 20
1509.999999776395
 11
4105.899998062714
 21
1529.999999329481
  0
LINE
  5
1F3
100
AcDbEntity
  8
0
  6
CONTINUOUS
 62
           3
100
AcDbLine
 10
4107.599997037714
 20
1509.999999776395
 11
4105.975189322322
 21
1509.999999776395
  0
LINE
  5
1F2
100
AcDbEntity
  8
0
  6
CONTINUOUS
 62
           3
100
AcDbLine
 10
4105.975189322322
 20
1409.999996423779
 11
4107.599997037714
 21
1409.999996423779
  0
LINE
  5
1F1
100
AcDbEntity
  8
0
  6
CONTINUOUS
 62
           3
100
AcDbLine
 10
4107.599997037714
 20
1429.999999701962
 11
4105.899998062714
 21
1429.999999701962
  0
LINE
  5
1F0
100
AcDbEntity
  8
0
  6
CONTINUOUS
 62
           3
100
AcDbLine
 10
4105.899998062714
 20
1429.999999701962
 11
4105.899998062714
 21
1409.999996423779
  0
LINE
  5
1EF
100
AcDbEntity
  8
0
  6
CONTINUOUS
 62
           3
100
AcDbLine
 10
4107.599997037714
 20
1529.999999329481
 11
4107.899998390714
 21
1529.999999329481
  0
LINE
  5
1EE
100
AcDbEntity
  8
0
  6
CONTINUOUS
 62
           3
100
AcDbLine
 10
4107.899998390714
 20
1509.999999776395
 11
4107.599997037714
 21
1509.999999776395
  0
LINE
  5
1ED
100
AcDbEntity
  8
0
  6
CONTINUOUS
 62
           3
100
AcDbLine
 10
4105.899998062714
 20
1508.000000379899
 11
4107.899998390714
 21
1508.000000379899
  0
LINE
  5
1EC
100
AcDbEntity
  8
0
  6
CONTINUOUS
 62
           3
100
AcDbLine
 10
4105.899998062714
 20
1508.000000379899
 11
4105.899998062714
 21
1431.999996304559
  0
LINE
  5
1EB
100
AcDbEntity
  8
0
  6
CONTINUOUS
 62
           3
100
AcDbLine
 10
4105.899998062714
 20
1431.999996304559
 11
4107.899998390714
 21
1431.999996304559
  0
LINE
  5
1EA
100
AcDbEntity
  8
0
  6
CONTINUOUS
 62
           3
100
AcDbLine
 10
4107.899998390714
 20
1429.999999701962
 11
4107.599997037714
 21
1429.999999701962
  0
LINE
  5
1E9
100
AcDbEntity
  8
0
  6
CONTINUOUS
 62
           3
100
AcDbLine
 10
4107.599997037714
 20
1409.999996423779
 11
4107.899998390714
 21
1409.999996423779
  0
LINE
  5
1E8
100
AcDbEntity
  8
0
  6
CONTINUOUS
 62
           3
100
AcDbLine
 10
4107.899998390714
 20
1407.999999821183
 11
4105.899998062714
 21
1407.999999821183
  0
LINE
  5
1E7
100
AcDbEntity
  8
0
  6
CONTINUOUS
 62
           3
100
AcDbLine
 10
4105.899998062714
 20
1391.699999570792
 11
4105.899998062714
 21
1407.999999821183
  0
LINE
  5
1E6
100
AcDbEntity
  8
0
  6
CONTINUOUS
 62
           3
100
AcDbLine
 10
4225.899995380621
 20
1391.699999570792
 11
4225.899995380621
 21
1407.999999821183
  0
LINE
  5
1E5
100
AcDbEntity
  8
0
  6
CONTINUOUS
 62
           3
100
AcDbLine
 10
4223.899995052621
 20
1407.999999821183
 11
4225.899995380621
 21
1407.999999821183
  0
LINE
  5
1E4
100
AcDbEntity
  8
0
  6
CONTINUOUS
 62
           3
100
AcDbLine
 10
4224.199996405623
 20
1409.999996423779
 11
4223.899995052621
 21
1409.999996423779
  0
LINE
  5
1E3
100
AcDbEntity
  8
0
  6
CONTINUOUS
 62
           3
100
AcDbLine
 10
4223.899995052621
 20
1429.999999701962
 11
4224.199996405623
 21
1429.999999701962
  0
LINE
  5
1E2
100
AcDbEntity
  8
0
  6
CONTINUOUS
 62
           3
100
AcDbLine
 10
4225.899995380621
 20
1431.999996304559
 11
4223.899995052621
 21
1431.999996304559
  0
LINE
  5
1E1
100
AcDbEntity
  8
0
  6
CONTINUOUS
 62
           3
100
AcDbLine
 10
4225.899995380621
 20
1508.000000379899
 11
4225.899995380621
 21
1431.999996304559
  0
LINE
  5
1E0
100
AcDbEntity
  8
0
  6
CONTINUOUS
 62
           3
100
AcDbLine
 10
4225.899995380621
 20
1508.000000379899
 11
4223.899995052621
 21
1508.000000379899
  0
LINE
  5
1DF
100
AcDbEntity
  8
0
  6
CONTINUOUS
 62
           3
100
AcDbLine
 10
4223.899995052621
 20
1509.999999776395
 11
4224.199996405623
 21
1509.999999776395
  0
LINE
  5
1DE
100
AcDbEntity
  8
0
  6
CONTINUOUS
 62
           3
100
AcDbLine
 10
4224.199996405623
 20
1529.999999329481
 11
4223.899995052621
 21
1529.999999329481
  0
LINE
  5
1DD
100
AcDbEntity
  8
0
  6
CONTINUOUS
 62
           3
100
AcDbLine
 10
4223.899995052621
 20
1532.000001519879
 11
4225.899995380621
 21
1532.000001519879
  0
LINE
  5
1DC
100
AcDbEntity
  8
0
  6
CONTINUOUS
 62
           3
100
AcDbLine
 10
4225.899995380621
 20
1548.300001770265
 11
4225.899995380621
 21
1532.000001519879
  0
LINE
  5
1DB
100
AcDbEntity
  8
0
  6
CONTINUOUS
 62
           3
100
AcDbLine
 10
4105.899998062714
 20
1548.300001770265
 11
4105.899998062714
 21
1532.000001519879
  0
LINE
  5
1DA
100
AcDbEntity
  8
0
  6
CONTINUOUS
 62
           3
100
AcDbLine
 10
4107.899998390714
 20
1532.000001519879
 11
4105.899998062714
 21
1532.000001519879
  0
LINE
  5
1D9
100
AcDbEntity
  8
0
  6
CONTINUOUS
 62
           3
100
AcDbLine
 10
4224.199996405623
 20
1509.999999776395
 11
4225.824804121022
 21
1509.999999776395
  0
LINE
  5
1D8
100
AcDbEntity
  8
0
  6
CONTINUOUS
 62
           3
100
AcDbLine
 10
4225.899995380621
 20
1509.999999776395
 11
4225.899995380621
 21
1529.999999329481
  0
LINE
  5
1D7
100
AcDbEntity
  8
0
  6
CONTINUOUS
 62
           3
100
AcDbLine
 10
4225.899995380621
 20
1529.999999329481
 11
4224.199996405623
 21
1529.999999329481
  0
LINE
  5
1D6
100
AcDbEntity
  8
0
  6
CONTINUOUS
 62
           3
100
AcDbLine
 10
4225.899995380621
 20
1548.799999058066
 11
4225.899995380621
 21
1548.300001770265
  0
LINE
  5
1D5
100
AcDbEntity
  8
0
  6
CONTINUOUS
 62
           3
100
AcDbLine
 10
4105.899998062714
 20
1548.799999058066
 11
4105.899998062714
 21
1548.300001770265
  0
LINE
  5
1D4
100
AcDbEntity
  8
0
  6
CONTINUOUS
 62
           3
100
AcDbLine
 10
4105.899998062714
 20
1391.199998557593
 11
4105.899998062714
 21
1391.699999570792
  0
LINE
  5
1D3
100
AcDbEntity
  8
0
  6
CONTINUOUS
 62
           3
100
AcDbLine
 10
4225.899995380621
 20
1391.199998557593
 11
4225.899995380621
 21
1391.699999570792
  0
LINE
  5
1D2
100
AcDbEntity
  8
0
  6
CONTINUOUS
 62
           3
100
AcDbLine
 10
4168.899996747763
 20
1550.000000744964
 11
4169.149996788763
 21
1550.000000744964
  0
LINE
  5
1D1
100
AcDbEntity
  8
0
  6
CONTINUOUS
 62
           3
100
AcDbLine
 10
4162.649996654576
 20
1550.000000744964
 11
4162.899996695576
 21
1550.000000744964
  0
LINE
  5
1D0
100
AcDbEntity
  8
0
  6
CONTINUOUS
 62
           3
100
AcDbLine
 10
4168.899996747763
 20
1548.799999058066
 11
4169.149996788763
 21
1548.799999058065
  0
LINE
  5
1CF
100
AcDbEntity
  8
0
  6
CONTINUOUS
 62
           3
100
AcDbLine
 10
4162.649996654576
 20
1548.799999058066
 11
4162.899996695576
 21
1548.799999058066
  0
LINE
  5
1CE
100
AcDbEntity
  8
0
  6
CONTINUOUS
 62
           3
100
AcDbLine
 10
4162.899996695576
 20
1391.199998557593
 11
4162.649996654576
 21
1391.199998557593
  0
LINE
  5
1CD
100
AcDbEntity
  8
0
  6
CONTINUOUS
 62
           3
100
AcDbLine
 10
4169.149996788763
 20
1391.199998557593
 11
4168.899996747763
 21
1391.199998557593
  0
LINE
  5
1CC
100
AcDbEntity
  8
0
  6
CONTINUOUS
 62
           3
100
AcDbLine
 10
4110.899997019711
 20
1391.199998557593
 11
4105.899998062714
 21
1391.199998557593
  0
LINE
  5
1CB
100
AcDbEntity
  8
0
  6
CONTINUOUS
 62
           3
100
AcDbLine
 10
4105.899998062714
 20
1390.000000596097
 11
4110.899997019711
 21
1390.000000596097
  0
LINE
  5
1CA
100
AcDbEntity
  8
0
  6
CONTINUOUS
 62
           3
100
AcDbLine
 10
4105.899998062714
 20
1391.199998557593
 11
4105.899998062714
 21
1390.000000596097
  0
LINE
  5
1C9
100
AcDbEntity
  8
0
  6
CONTINUOUS
 62
           3
100
AcDbLine
 10
4105.899998062714
 20
1550.000000744964
 11
4110.899997019711
 21
1550.000000744964
  0
LINE
  5
1C8
100
AcDbEntity
  8
0
  6
CONTINUOUS
 62
           3
100
AcDbLine
 10
4110.899997019711
 20
1548.799999058066
 11
4105.899998062714
 21
1548.799999058066
  0
LINE
  5
1C7
100
AcDbEntity
  8
0
  6
CONTINUOUS
 62
           3
100
AcDbLine
 10
4105.899998062714
 20
1548.799999058066
 11
4105.899998062714
 21
1550.000000744964
  0
LINE
  5
1C6
100
AcDbEntity
  8
0
  6
CONTINUOUS
 62
           3
100
AcDbLine
 10
4210.899998509632
 20
1550.000000744964
 11
4195.899996051144
 21
1550.000000744964
  0
LINE
  5
1C5
100
AcDbEntity
  8
0
  6
CONTINUOUS
 62
           3
100
AcDbLine
 10
4210.899998509632
 20
1548.799999058066
 11
4195.899996051144
 21
1548.799999058065
  0
LINE
  5
1C4
100
AcDbEntity
  8
0
  6
CONTINUOUS
 62
           3
100
AcDbLine
 10
4225.899995380621
 20
1550.000000744964
 11
4220.899996423622
 21
1550.000000744964
  0
LINE
  5
1C3
100
AcDbEntity
  8
0
  6
CONTINUOUS
 62
           3
100
AcDbLine
 10
4220.899996423622
 20
1548.799999058066
 11
4225.899995380621
 21
1548.799999058066
  0
LINE
  5
1C2
100
AcDbEntity
  8
0
  6
CONTINUOUS
 62
           3
100
AcDbLine
 10
4225.899995380621
 20
1548.799999058066
 11
4225.899995380621
 21
1550.000000744964
  0
LINE
  5
1C1
100
AcDbEntity
  8
0
  6
CONTINUOUS
 62
           3
100
AcDbLine
 10
4210.899998509632
 20
1391.199998557593
 11
4195.899996051144
 21
1391.199998557593
  0
LINE
  5
1C0
100
AcDbEntity
  8
0
  6
CONTINUOUS
 62
           3
100
AcDbLine
 10
4210.899998509632
 20
1390.000000596097
 11
4195.899996051144
 21
1390.000000596097
  0
LINE
  5
1BF
100
AcDbEntity
  8
0
  6
CONTINUOUS
 62
           3
100
AcDbLine
 10
4120.899994933703
 20
1550.000000744964
 11
4135.899997392189
 21
1550.000000744964
  0
LINE
  5
1BE
100
AcDbEntity
  8
0
  6
CONTINUOUS
 62
           3
100
AcDbLine
 10
4120.899994933703
 20
1548.799999058066
 11
4135.899997392189
 21
1548.799999058066
  0
LINE
  5
1BD
100
AcDbEntity
  8
0
  6
CONTINUOUS
 62
           3
100
AcDbLine
 10
4220.899996423622
 20
1391.199998557593
 11
4225.899995380621
 21
1391.199998557593
  0
LINE
  5
1BC
100
AcDbEntity
  8
0
  6
CONTINUOUS
 62
           3
100
AcDbLine
 10
4225.899995380621
 20
1390.000000596097
 11
4220.899996423622
 21
1390.000000596097
  0
LINE
  5
1BB
100
AcDbEntity
  8
0
  6
CONTINUOUS
 62
           3
100
AcDbLine
 10
4225.899995380621
 20
1391.199998557593
 11
4225.899995380621
 21
1390.000000596097
  0
LINE
  5
1BA
100
AcDbEntity
  8
0
  6
CONTINUOUS
 62
           3
100
AcDbLine
 10
4120.899994933703
 20
1391.199998557593
 11
4135.899997392189
 21
1391.199998557593
  0
LINE
  5
1B9
100
AcDbEntity
  8
0
  6
CONTINUOUS
 62
           3
100
AcDbLine
 10
4120.899994933703
 20
1390.000000596097
 11
4135.899997392189
 21
1390.000000596097
  0
LINE
  5
1B8
100
AcDbEntity
  8
0
  6
CONTINUOUS
 62
           3
100
AcDbLine
 10
4118.899998331102
 20
1550.000000744964
 11
4120.899994933703
 21
1550.000000744964
  0
LINE
  5
1B7
100
AcDbEntity
  8
0
  6
CONTINUOUS
 62
           3
100
AcDbLine
 10
4120.899994933703
 20
1548.799999058066
 11
4118.899998331102
 21
1548.799999058066
  0
LINE
  5
1B6
100
AcDbEntity
  8
0
  6
CONTINUOUS
 62
           3
100
AcDbLine
 10
4118.899998331102
 20
1548.799999058066
 11
4118.899998331102
 21
1550.000000744964
  0
LINE
  5
1B5
100
AcDbEntity
  8
0
  6
CONTINUOUS
 62
           3
100
AcDbLine
 10
4110.899997019711
 20
1550.000000744964
 11
4112.899997347713
 21
1550.000000744964
  0
LINE
  5
1B4
100
AcDbEntity
  8
0
  6
CONTINUOUS
 62
           3
100
AcDbLine
 10
4112.899997347713
 20
1548.799999058066
 11
4110.899997019711
 21
1548.799999058066
  0
LINE
  5
1B3
100
AcDbEntity
  8
0
  6
CONTINUOUS
 62
           3
100
AcDbLine
 10
4112.899997347713
 20
1550.000000744964
 11
4112.899997347713
 21
1548.799999058066
  0
LINE
  5
1B2
100
AcDbEntity
  8
0
  6
CONTINUOUS
 62
           3
100
AcDbLine
 10
4210.899998509632
 20
1391.199998557593
 11
4212.899995112233
 21
1391.199998557593
  0
LINE
  5
1B1
100
AcDbEntity
  8
0
  6
CONTINUOUS
 62
           3
100
AcDbLine
 10
4212.899995112233
 20
1390.000000596097
 11
4210.899998509632
 21
1390.000000596097
  0
LINE
  5
1B0
100
AcDbEntity
  8
0
  6
CONTINUOUS
 62
           3
100
AcDbLine
 10
4212.899995112233
 20
1391.199998557593
 11
4212.899995112233
 21
1390.000000596097
  0
LINE
  5
1AF
100
AcDbEntity
  8
0
  6
CONTINUOUS
 62
           3
100
AcDbLine
 10
4218.899996095919
 20
1391.199998557593
 11
4220.899996423622
 21
1391.199998557593
  0
LINE
  5
1AE
100
AcDbEntity
  8
0
  6
CONTINUOUS
 62
           3
100
AcDbLine
 10
4220.899996423622
 20
1390.000000596097
 11
4218.899996095919
 21
1390.000000596097
  0
LINE
  5
1AD
100
AcDbEntity
  8
0
  6
CONTINUOUS
 62
           3
100
AcDbLine
 10
4218.899996095919
 20
1390.000000596097
 11
4218.899996095919
 21
1391.199998557593
  0
LINE
  5
1AC
100
AcDbEntity
  8
0
  6
CONTINUOUS
 62
           3
100
AcDbLine
 10
4212.899995112233
 20
1550.000000744964
 11
4210.899998509632
 21
1550.000000744964
  0
LINE
  5
1AB
100
AcDbEntity
  8
0
  6
CONTINUOUS
 62
           3
100
AcDbLine
 10
4210.899998509632
 20
1548.799999058066
 11
4212.899995112233
 21
1548.799999058066
  0
LINE
  5
1AA
100
AcDbEntity
  8
0
  6
CONTINUOUS
 62
           3
100
AcDbLine
 10
4212.899995112233
 20
1548.799999058066
 11
4212.899995112233
 21
1550.000000744964
  0
LINE
  5
1A9
100
AcDbEntity
  8
0
  6
CONTINUOUS
 62
           3
100
AcDbLine
 10
4220.899996423622
 20
1550.000000744964
 11
4218.899996095919
 21
1550.000000744964
  0
LINE
  5
1A8
100
AcDbEntity
  8
0
  6
CONTINUOUS
 62
           3
100
AcDbLine
 10
4218.899996095919
 20
1548.799999058066
 11
4220.899996423622
 21
1548.799999058066
  0
LINE
  5
1A7
100
AcDbEntity
  8
0
  6
CONTINUOUS
 62
           3
100
AcDbLine
 10
4218.899996095919
 20
1550.000000744964
 11
4218.899996095919
 21
1548.799999058066
  0
LINE
  5
1A6
100
AcDbEntity
  8
0
  6
CONTINUOUS
 62
           3
100
AcDbLine
 10
4120.899994933703
 20
1391.199998557593
 11
4118.899998331102
 21
1391.199998557593
  0
LINE
  5
1A5
100
AcDbEntity
  8
0
  6
CONTINUOUS
 62
           3
100
AcDbLine
 10
4118.899998331102
 20
1390.000000596097
 11
4120.899994933703
 21
1390.000000596097
  0
LINE
  5
1A4
100
AcDbEntity
  8
0
  6
CONTINUOUS
 62
           3
100
AcDbLine
 10
4118.899998331102
 20
1391.199998557593
 11
4118.899998331102
 21
1390.000000596097
  0
LINE
  5
1A3
100
AcDbEntity
  8
0
  6
CONTINUOUS
 62
           3
100
AcDbLine
 10
4112.899997347713
 20
1391.199998557593
 11
4110.899997019711
 21
1391.199998557593
  0
LINE
  5
1A2
100
AcDbEntity
  8
0
  6
CONTINUOUS
 62
           3
100
AcDbLine
 10
4110.899997019711
 20
1390.000000596097
 11
4112.899997347713
 21
1390.000000596097
  0
LINE
  5
1A1
100
AcDbEntity
  8
0
  6
CONTINUOUS
 62
           3
100
AcDbLine
 10
4112.899997347713
 20
1390.000000596097
 11
4112.899997347713
 21
1391.199998557593
  0
LINE
  5
1A0
100
AcDbEntity
  8
0
  6
CONTINUOUS
 62
           3
100
AcDbLine
 10
4162.399996613576
 20
1391.199998557593
 11
4162.649996654576
 21
1391.199998557593
  0
LINE
  5
19F
100
AcDbEntity
  8
0
  6
CONTINUOUS
 62
           3
100
AcDbLine
 10
4162.649996654576
 20
1391.199998557593
 11
4162.649996654576
 21
1390.000000596097
  0
LINE
  5
19E
100
AcDbEntity
  8
0
  6
CONTINUOUS
 62
           3
100
AcDbLine
 10
4195.899996051144
 20
1391.199998557593
 11
4185.899996274751
 21
1391.199998557593
  0
LINE
  5
19D
100
AcDbEntity
  8
0
  6
CONTINUOUS
 62
           3
100
AcDbLine
 10
4195.899996051144
 20
1390.000000596097
 11
4185.899996274751
 21
1390.000000596097
  0
LINE
  5
19C
100
AcDbEntity
  8
0
  6
CONTINUOUS
 62
           3
100
AcDbLine
 10
4195.899996051144
 20
1391.199998557593
 11
4195.899996051144
 21
1390.000000596097
  0
LINE
  5
19B
100
AcDbEntity
  8
0
  6
CONTINUOUS
 62
           3
100
AcDbLine
 10
4160.649996792473
 20
1550.000000744964
 11
4162.649996654576
 21
1550.000000744964
  0
LINE
  5
19A
100
AcDbEntity
  8
0
  6
CONTINUOUS
 62
           3
100
AcDbLine
 10
4162.649996654576
 20
1548.799999058066
 11
4160.649996792473
 21
1548.799999058066
  0
LINE
  5
199
100
AcDbEntity
  8
0
  6
CONTINUOUS
 62
           3
100
AcDbLine
 10
4162.649996654576
 20
1550.000000744964
 11
4162.649996654576
 21
1548.799999058066
  0
LINE
  5
198
100
AcDbEntity
  8
0
  6
CONTINUOUS
 62
           3
100
AcDbLine
 10
4173.899997101563
 20
1391.199998557593
 11
4185.899996274751
 21
1391.199998557593
  0
LINE
  5
197
100
AcDbEntity
  8
0
  6
CONTINUOUS
 62
           3
100
AcDbLine
 10
4173.899997101563
 20
1390.000000596097
 11
4185.899996274751
 21
1390.000000596097
  0
LINE
  5
196
100
AcDbEntity
  8
0
  6
CONTINUOUS
 62
           3
100
AcDbLine
 10
4185.899996274751
 20
1391.199998557593
 11
4185.899996274751
 21
1390.000000596097
  0
LINE
  5
195
100
AcDbEntity
  8
0
  6
CONTINUOUS
 62
           3
100
AcDbLine
 10
4135.899997392189
 20
1391.199998557593
 11
4145.899997168586
 21
1391.199998557593
  0
LINE
  5
194
100
AcDbEntity
  8
0
  6
CONTINUOUS
 62
           3
100
AcDbLine
 10
4135.899997392189
 20
1390.000000596097
 11
4145.899997168586
 21
1390.000000596097
  0
LINE
  5
193
100
AcDbEntity
  8
0
  6
CONTINUOUS
 62
           3
100
AcDbLine
 10
4135.899997392189
 20
1391.199998557593
 11
4135.899997392189
 21
1390.000000596097
  0
LINE
  5
192
100
AcDbEntity
  8
0
  6
CONTINUOUS
 62
           3
100
AcDbLine
 10
4169.149996788763
 20
1550.000000744964
 11
4171.149996650865
 21
1550.000000744964
  0
LINE
  5
191
100
AcDbEntity
  8
0
  6
CONTINUOUS
 62
           3
100
AcDbLine
 10
4171.149996650865
 20
1548.799999058065
 11
4169.149996788763
 21
1548.799999058065
  0
LINE
  5
190
100
AcDbEntity
  8
0
  6
CONTINUOUS
 62
           3
100
AcDbLine
 10
4169.149996788763
 20
1548.799999058065
 11
4169.149996788763
 21
1550.000000744964
  0
LINE
  5
18F
100
AcDbEntity
  8
0
  6
CONTINUOUS
 62
           3
100
AcDbLine
 10
4195.899996051144
 20
1550.000000744964
 11
4185.899996274751
 21
1550.000000744964
  0
LINE
  5
18E
100
AcDbEntity
  8
0
  6
CONTINUOUS
 62
           3
100
AcDbLine
 10
4195.899996051144
 20
1548.799999058065
 11
4185.899996274751
 21
1548.799999058065
  0
LINE
  5
18D
100
AcDbEntity
  8
0
  6
CONTINUOUS
 62
           3
100
AcDbLine
 10
4195.899996051144
 20
1548.799999058065
 11
4195.899996051144
 21
1550.000000744964
  0
LINE
  5
18C
100
AcDbEntity
  8
0
  6
CONTINUOUS
 62
           3
100
AcDbLine
 10
4169.149996788763
 20
1391.199998557593
 11
4169.399996829763
 21
1391.199998557593
  0
LINE
  5
18B
100
AcDbEntity
  8
0
  6
CONTINUOUS
 62
           3
100
AcDbLine
 10
4169.149996788763
 20
1390.000000596097
 11
4169.149996788763
 21
1391.199998557593
  0
LINE
  5
18A
100
AcDbEntity
  8
0
  6
CONTINUOUS
 62
           3
100
AcDbLine
 10
4145.899997168586
 20
1391.199998557593
 11
4157.899996341775
 21
1391.199998557593
  0
LINE
  5
189
100
AcDbEntity
  8
0
  6
CONTINUOUS
 62
           3
100
AcDbLine
 10
4145.899997168586
 20
1390.000000596097
 11
4157.899996341775
 21
1390.000000596097
  0
LINE
  5
188
100
AcDbEntity
  8
0
  6
CONTINUOUS
 62
           3
100
AcDbLine
 10
4145.899997168586
 20
1391.199998557593
 11
4145.899997168586
 21
1390.000000596097
  0
LINE
  5
187
100
AcDbEntity
  8
0
  6
CONTINUOUS
 62
           3
100
AcDbLine
 10
4145.899997168586
 20
1550.000000744964
 11
4160.649996792473
 21
1550.000000744964
  0
LINE
  5
186
100
AcDbEntity
  8
0
  6
CONTINUOUS
 62
           3
100
AcDbLine
 10
4145.899997168586
 20
1548.799999058066
 11
4160.649996792473
 21
1548.799999058066
  0
LINE
  5
185
100
AcDbEntity
  8
0
  6
CONTINUOUS
 62
           3
100
AcDbLine
 10
4171.149996650865
 20
1550.000000744964
 11
4185.899996274751
 21
1550.000000744964
  0
LINE
  5
184
100
AcDbEntity
  8
0
  6
CONTINUOUS
 62
           3
100
AcDbLine
 10
4171.149996650865
 20
1548.799999058065
 11
4185.899996274751
 21
1548.799999058065
  0
LINE
  5
183
100
AcDbEntity
  8
0
  6
CONTINUOUS
 62
           3
100
AcDbLine
 10
4185.899996274751
 20
1548.799999058065
 11
4185.899996274751
 21
1550.000000744964
  0
LINE
  5
182
100
AcDbEntity
  8
0
  6
CONTINUOUS
 62
           3
100
AcDbLine
 10
4135.899997392189
 20
1548.799999058066
 11
4135.899997392189
 21
1550.000000744964
  0
LINE
  5
181
100
AcDbEntity
  8
0
  6
CONTINUOUS
 62
           3
100
AcDbLine
 10
4135.899997392189
 20
1548.799999058066
 11
4145.899997168586
 21
1548.799999058066
  0
LINE
  5
180
100
AcDbEntity
  8
0
  6
CONTINUOUS
 62
           3
100
AcDbLine
 10
4145.899997168586
 20
1548.799999058066
 11
4145.899997168586
 21
1550.000000744964
  0
LINE
  5
17F
100
AcDbEntity
  8
0
  6
CONTINUOUS
 62
           3
100
AcDbLine
 10
4135.899997392189
 20
1550.000000744964
 11
4145.899997168586
 21
1550.000000744964
  0
LINE
  5
17E
100
AcDbEntity
  8
0
  6
CONTINUOUS
 62
           3
100
AcDbLine
 10
4173.899997101563
 20
1389.200001954996
 11
4173.899997101563
 21
1388.276241719796
  0
LINE
  5
17D
100
AcDbEntity
  8
0
  6
CONTINUOUS
 62
           3
100
AcDbLine
 10
4157.899996341775
 20
1389.200001954996
 11
4157.899996341775
 21
1388.276241719796
  0
LINE
  5
17C
100
AcDbEntity
  8
0
  6
CONTINUOUS
 62
           3
100
AcDbLine
 10
4160.899996833472
 20
1388.276241719796
 11
4157.899996341775
 21
1388.276241719796
  0
LINE
  5
17B
100
AcDbEntity
  8
0
  6
CONTINUOUS
 62
           3
100
AcDbLine
 10
4173.899997101563
 20
1388.276241719796
 11
4170.899996609865
 21
1388.276241719796
  0
LINE
  5
17A
100
AcDbEntity
  8
0
  6
CONTINUOUS
 62
           3
100
AcDbLine
 10
4168.399996665761
 20
1384.199999272901
 11
4170.899996609912
 21
1384.199999272901
  0
LINE
  5
179
100
AcDbEntity
  8
0
  6
CONTINUOUS
 62
           3
100
AcDbLine
 10
4160.899996833433
 20
1384.199999272901
 11
4163.399996777554
 21
1384.199999272901
  0
LINE
  5
178
100
AcDbEntity
  8
0
  6
CONTINUOUS
 62
           3
100
AcDbLine
 10
4170.899996609865
 20
1384.646579623302
 11
4170.899996609865
 21
1389.100000262195
  0
LINE
  5
177
100
AcDbEntity
  8
0
  6
CONTINUOUS
 62
           3
100
AcDbLine
 10
4160.899996833472
 20
1384.646579623302
 11
4160.899996833472
 21
1389.100000262195
  0
LINE
  5
176
100
AcDbEntity
  8
0
  6
CONTINUOUS
 62
           3
100
AcDbLine
 10
4160.899996833472
 20
1384.646579623302
 11
4163.399996777554
 21
1384.199999272901
  0
LINE
  5
175
100
AcDbEntity
  8
0
  6
CONTINUOUS
 62
           3
100
AcDbLine
 10
4165.899996721675
 20
1384.646579623295
 11
4165.899996721675
 21
1389.100000262195
  0
LINE
  5
174
100
AcDbEntity
  8
0
  6
CONTINUOUS
 62
           3
100
AcDbLine
 10
4163.399996777554
 20
1384.199999272901
 11
4168.399996665761
 21
1384.199999272901
  0
LINE
  5
173
100
AcDbEntity
  8
0
  6
CONTINUOUS
 62
           3
100
AcDbLine
 10
4165.899996721675
 20
1384.646579623295
 11
4168.399996665761
 21
1384.199999272901
  0
LINE
  5
172
100
AcDbEntity
  8
0
  6
CONTINUOUS
 62
           3
100
AcDbLine
 10
4162.399996613576
 20
1389.200001954996
 11
4169.399996829763
 21
1389.200001954996
  0
LINE
  5
171
100
AcDbEntity
  8
0
  6
CONTINUOUS
 62
           3
100
AcDbLine
 10
4162.399996613576
 20
1390.000000596097
 11
4169.399996829763
 21
1390.000000596097
  0
LINE
  5
170
100
AcDbEntity
  8
0
  6
CONTINUOUS
 62
           3
100
AcDbLine
 10
4169.399996829763
 20
1393.990144133492
 11
4162.399996613576
 21
1393.990144133492
  0
LINE
  5
16F
100
AcDbEntity
  8
0
  6
CONTINUOUS
 62
           3
100
AcDbLine
 10
4162.899996695576
 20
1392.246469855294
 11
4162.399996613576
 21
1392.246469855294
  0
LINE
  5
16E
100
AcDbEntity
  8
0
  6
CONTINUOUS
 62
           3
100
AcDbLine
 10
4169.399996829763
 20
1392.246469855294
 11
4168.899996747763
 21
1392.246469855294
  0
LINE
  5
16D
100
AcDbEntity
  8
0
  6
CONTINUOUS
 62
           3
100
AcDbLine
 10
4173.899997101563
 20
1394.799999892893
 11
4173.899997101563
 21
1389.200001954996
  0
LINE
  5
16C
100
AcDbEntity
  8
0
  6
CONTINUOUS
 62
           3
100
AcDbLine
 10
4157.899996341775
 20
1394.799999892893
 11
4157.899996341775
 21
1389.200001954996
  0
LINE
  5
16B
100
AcDbEntity
  8
0
  6
CONTINUOUS
 62
           3
100
AcDbLine
 10
4162.399996613576
 20
1389.200001954996
 11
4162.399996613576
 21
1394.799999892893
  0
LINE
  5
16A
100
AcDbEntity
  8
0
  6
CONTINUOUS
 62
           3
100
AcDbLine
 10
4169.399996829763
 20
1394.799999892893
 11
4169.399996829763
 21
1389.200001954996
  0
LINE
  5
169
100
AcDbEntity
  8
0
  6
CONTINUOUS
 62
           3
100
AcDbLine
 10
4162.399996613576
 20
1389.200001954996
 11
4157.899996341775
 21
1389.200001954996
  0
LINE
  5
168
100
AcDbEntity
  8
0
  6
CONTINUOUS
 62
           3
100
AcDbLine
 10
4162.399996613576
 20
1394.792847335491
 11
4169.399996829763
 21
1394.792847335491
  0
LINE
  5
167
100
AcDbEntity
  8
0
  6
CONTINUOUS
 62
           3
100
AcDbLine
 10
4173.899997101563
 20
1389.200001954996
 11
4169.399996829763
 21
1389.200001954996
  0
LINE
  5
166
100
AcDbEntity
  8
0
  6
CONTINUOUS
 62
           3
100
AcDbLine
 10
4167.899996816559
 20
1638.422653078993
 11
4163.899996626774
 21
1638.422653078993
  0
LINE
  5
165
100
AcDbEntity
  8
0
  6
CONTINUOUS
 62
           3
100
AcDbLine
 10
4162.899996695576
 20
1637.422651052293
 11
4168.899996747763
 21
1637.422651052293
  0
LINE
  5
164
100
AcDbEntity
  8
0
  6
CONTINUOUS
 62
           3
100
AcDbLine
 10
4111.899995321013
 20
1665.000006556369
 11
4115.899995976711
 21
1665.000006556369
  0
LINE
  5
163
100
AcDbEntity
  8
0
  6
CONTINUOUS
 62
           3
100
AcDbLine
 10
4115.899995976711
 20
1665.000006556369
 11
4119.899996632413
 21
1665.000006556369
  0
LINE
  5
162
100
AcDbEntity
  8
0
  6
CONTINUOUS
 62
           3
100
AcDbLine
 10
4161.569869687346
 20
1367.599993944256
 11
4160.899996833472
 21
1367.599993944113
  0
LINE
  5
161
100
AcDbEntity
  8
0
  6
CONTINUOUS
 62
           3
100
AcDbLine
 10
4170.899996609865
 20
1367.599993944113
 11
4170.230123756004
 21
1367.599993944256
  0
LINE
  5
160
100
AcDbEntity
  8
0
  6
CONTINUOUS
 62
           3
100
AcDbLine
 10
4161.569869687346
 20
1372.600004077041
 11
4160.899996833472
 21
1372.60000407701
  0
LINE
  5
15F
100
AcDbEntity
  8
0
  6
CONTINUOUS
 62
           3
100
AcDbLine
 10
4170.230123756004
 20
1367.599993944256
 11
4165.899996721675
 21
1367.599993944256
  0
LINE
  5
15E
100
AcDbEntity
  8
0
  6
CONTINUOUS
 62
           3
100
AcDbLine
 10
4165.899996721675
 20
1367.599993944256
 11
4161.569869687346
 21
1367.599993944256
  0
LINE
  5
15D
100
AcDbEntity
  8
0
  6
CONTINUOUS
 62
           3
100
AcDbLine
 10
4160.126493853973
 20
1372.153416276109
 11
4160.126493853973
 21
1368.046581745312
  0
LINE
  5
15C
100
AcDbEntity
  8
0
  6
CONTINUOUS
 62
           3
100
AcDbLine
 10
4160.126493853973
 20
1368.046581745312
 11
4161.569869687346
 21
1367.599993944256
  0
LINE
  5
15B
100
AcDbEntity
  8
0
  6
CONTINUOUS
 62
           3
100
AcDbLine
 10
4163.013245287844
 20
1372.153416276063
 11
4161.569869687346
 21
1372.600004077041
  0
LINE
  5
15A
100
AcDbEntity
  8
0
  6
CONTINUOUS
 62
           3
100
AcDbLine
 10
4168.786748155362
 20
1368.046581745312
 11
4170.230123756004
 21
1367.599993944256
  0
LINE
  5
159
100
AcDbEntity
  8
0
  6
CONTINUOUS
 62
           3
100
AcDbLine
 10
4171.673499589365
 20
1372.153416276109
 11
4171.673499589365
 21
1368.046581745312
  0
LINE
  5
158
100
AcDbEntity
  8
0
  6
CONTINUOUS
 62
           3
100
AcDbLine
 10
4171.673499589365
 20
1372.153416276109
 11
4170.230123756004
 21
1372.600004077041
  0
LINE
  5
157
100
AcDbEntity
  8
0
  6
CONTINUOUS
 62
           3
100
AcDbLine
 10
4163.013245287844
 20
1372.153416276063
 11
4163.013245287844
 21
1368.046581745235
  0
LINE
  5
156
100
AcDbEntity
  8
0
  6
CONTINUOUS
 62
           3
100
AcDbLine
 10
4168.786748155502
 20
1372.153416276063
 11
4168.786748155362
 21
1368.046581745312
  0
LINE
  5
155
100
AcDbEntity
  8
0
  6
CONTINUOUS
 62
           3
100
AcDbLine
 10
4170.899996609865
 20
1372.60000407701
 11
4170.230123756004
 21
1372.600004077041
  0
LINE
  5
154
100
AcDbEntity
  8
0
  6
CONTINUOUS
 62
           3
100
AcDbLine
 10
4170.899996609865
 20
1377.599999308604
 11
4170.230123756004
 21
1377.599999308666
  0
LINE
  5
153
100
AcDbEntity
  8
0
  6
CONTINUOUS
 62
           3
100
AcDbLine
 10
4161.569869687346
 20
1377.599999308666
 11
4160.899996833472
 21
1377.599999308604
  0
LINE
  5
152
100
AcDbEntity
  8
0
  6
CONTINUOUS
 62
           3
100
AcDbLine
 10
4165.899996721675
 20
1372.600004077041
 11
4161.569869687346
 21
1372.600004077041
  0
LINE
  5
151
100
AcDbEntity
  8
0
  6
CONTINUOUS
 62
           3
100
AcDbLine
 10
4170.230123756004
 20
1372.600004077041
 11
4165.899996721675
 21
1372.600004077041
  0
LINE
  5
150
100
AcDbEntity
  8
0
  6
CONTINUOUS
 62
           3
100
AcDbLine
 10
4165.899996721675
 20
1377.599999308666
 11
4161.569869687346
 21
1377.599999308666
  0
LINE
  5
14F
100
AcDbEntity
  8
0
  6
CONTINUOUS
 62
           3
100
AcDbLine
 10
4160.126493853973
 20
1377.153418958205
 11
4160.126493853973
 21
1373.046576976912
  0
LINE
  5
14E
100
AcDbEntity
  8
0
  6
CONTINUOUS
 62
           3
100
AcDbLine
 10
4160.126493853973
 20
1373.046576976912
 11
4161.569869687346
 21
1372.600004077041
  0
LINE
  5
14D
100
AcDbEntity
  8
0
  6
CONTINUOUS
 62
           3
100
AcDbLine
 10
4163.013245287844
 20
1377.153418958267
 11
4161.569869687346
 21
1377.599999308666
  0
LINE
  5
14C
100
AcDbEntity
  8
0
  6
CONTINUOUS
 62
           3
100
AcDbLine
 10
4170.230123756004
 20
1377.599999308666
 11
4165.899996721675
 21
1377.599999308666
  0
LINE
  5
14B
100
AcDbEntity
  8
0
  6
CONTINUOUS
 62
           3
100
AcDbLine
 10
4168.786748155362
 20
1373.046576976912
 11
4170.230123756004
 21
1372.600004077041
  0
LINE
  5
14A
100
AcDbEntity
  8
0
  6
CONTINUOUS
 62
           3
100
AcDbLine
 10
4171.673499589365
 20
1377.153418958205
 11
4171.673499589365
 21
1373.046576976912
  0
LINE
  5
149
100
AcDbEntity
  8
0
  6
CONTINUOUS
 62
           3
100
AcDbLine
 10
4171.673499589365
 20
1377.153418958205
 11
4170.230123756004
 21
1377.599999308666
  0
LINE
  5
148
100
AcDbEntity
  8
0
  6
CONTINUOUS
 62
           3
100
AcDbLine
 10
4163.013245287844
 20
1377.153418958267
 11
4163.013245287844
 21
1373.04657697686
  0
LINE
  5
147
100
AcDbEntity
  8
0
  6
CONTINUOUS
 62
           3
100
AcDbLine
 10
4168.786748155502
 20
1377.153418958267
 11
4168.786748155362
 21
1373.046576976912
  0
LINE
  5
146
100
AcDbEntity
  8
0
  6
CONTINUOUS
 62
           3
100
AcDbLine
 10
4160.126493853973
 20
1364.553421735915
 11
4160.126493853973
 21
1360.446587205121
  0
LINE
  5
145
100
AcDbEntity
  8
0
  6
CONTINUOUS
 62
           3
100
AcDbLine
 10
4160.126493853973
 20
1360.446587205121
 11
4161.569869687346
 21
1359.999999404048
  0
LINE
  5
144
100
AcDbEntity
  8
0
  6
CONTINUOUS
 62
           3
100
AcDbLine
 10
4163.013245287844
 20
1364.553421735858
 11
4161.569869687346
 21
1364.999994635673
  0
LINE
  5
143
100
AcDbEntity
  8
0
  6
CONTINUOUS
 62
           3
100
AcDbLine
 10
4168.786748155362
 20
1360.446587205121
 11
4170.230123755964
 21
1359.999999403922
  0
LINE
  5
142
100
AcDbEntity
  8
0
  6
CONTINUOUS
 62
           3
100
AcDbLine
 10
4171.673499589365
 20
1364.553421735915
 11
4171.673499589365
 21
1360.446587205121
  0
LINE
  5
141
100
AcDbEntity
  8
0
  6
CONTINUOUS
 62
           3
100
AcDbLine
 10
4171.673499589365
 20
1364.553421735915
 11
4170.230123756004
 21
1364.999994635673
  0
LINE
  5
140
100
AcDbEntity
  8
0
  6
CONTINUOUS
 62
           3
100
AcDbLine
 10
4163.013245287844
 20
1364.553421735858
 11
4163.013245287844
 21
1360.446587205024
  0
LINE
  5
13F
100
AcDbEntity
  8
0
  6
CONTINUOUS
 62
           3
100
AcDbLine
 10
4168.786748155502
 20
1364.553421735858
 11
4168.786748155362
 21
1360.446587205121
  0
LINE
  5
13E
100
AcDbEntity
  8
0
  6
CONTINUOUS
 62
           3
100
AcDbLine
 10
4160.899996833472
 20
1359.999999403922
 11
4161.569869687346
 21
1359.999999404048
  0
LINE
  5
13D
100
AcDbEntity
  8
0
  6
CONTINUOUS
 62
           3
100
AcDbLine
 10
4170.899996609865
 20
1355.000004172322
 11
4170.230123756004
 21
1355.00000417242
  0
LINE
  5
13C
100
AcDbEntity
  8
0
  6
CONTINUOUS
 62
           3
100
AcDbLine
 10
4160.899996833472
 20
1355.000004172322
 11
4161.569869687346
 21
1355.00000417242
  0
LINE
  5
13B
100
AcDbEntity
  8
0
  6
CONTINUOUS
 62
           3
100
AcDbLine
 10
4171.673499589365
 20
1355.446577072223
 11
4170.230123756004
 21
1355.00000417242
  0
LINE
  5
13A
100
AcDbEntity
  8
0
  6
CONTINUOUS
 62
           3
100
AcDbLine
 10
4171.673499589365
 20
1355.446577072223
 11
4171.673499589365
 21
1359.553411603021
  0
LINE
  5
139
100
AcDbEntity
  8
0
  6
CONTINUOUS
 62
           3
100
AcDbLine
 10
4160.126493853973
 20
1355.446577072223
 11
4160.126493853973
 21
1359.553411603021
  0
LINE
  5
138
100
AcDbEntity
  8
0
  6
CONTINUOUS
 62
           3
100
AcDbLine
 10
4165.899996721675
 20
1359.999999404048
 11
4170.230123755964
 21
1359.999999403922
  0
LINE
  5
137
100
AcDbEntity
  8
0
  6
CONTINUOUS
 62
           3
100
AcDbLine
 10
4168.786748155502
 20
1359.553411603068
 11
4170.230123755964
 21
1359.999999403922
  0
LINE
  5
136
100
AcDbEntity
  8
0
  6
CONTINUOUS
 62
           3
100
AcDbLine
 10
4161.569869687346
 20
1359.999999404048
 11
4165.899996721675
 21
1359.999999404048
  0
LINE
  5
135
100
AcDbEntity
  8
0
  6
CONTINUOUS
 62
           3
100
AcDbLine
 10
4161.569869687346
 20
1355.00000417242
 11
4165.899996721675
 21
1355.000004172322
  0
LINE
  5
134
100
AcDbEntity
  8
0
  6
CONTINUOUS
 62
           3
100
AcDbLine
 10
4165.899996721675
 20
1355.000004172322
 11
4170.230123756004
 21
1355.00000417242
  0
LINE
  5
133
100
AcDbEntity
  8
0
  6
CONTINUOUS
 62
           3
100
AcDbLine
 10
4163.013245287971
 20
1359.553411603021
 11
4165.899996721675
 21
1359.999999404048
  0
LINE
  5
132
100
AcDbEntity
  8
0
  6
CONTINUOUS
 62
           3
100
AcDbLine
 10
4163.013245287844
 20
1355.446577072243
 11
4163.013245287971
 21
1359.553411603021
  0
LINE
  5
131
100
AcDbEntity
  8
0
  6
CONTINUOUS
 62
           3
100
AcDbLine
 10
4168.786748155362
 20
1355.446577072223
 11
4165.899996721675
 21
1355.000004172322
  0
LINE
  5
130
100
AcDbEntity
  8
0
  6
CONTINUOUS
 62
           3
100
AcDbLine
 10
4168.786748155362
 20
1355.446577072223
 11
4168.786748155502
 21
1359.553411603068
  0
LINE
  5
12F
100
AcDbEntity
  8
0
  6
CONTINUOUS
 62
           3
100
AcDbLine
 10
4222.899996751324
 20
1393.799997866195
 11
4222.899996751324
 21
1543.800000101368
  0
LINE
  5
12E
100
AcDbEntity
  8
0
  6
CONTINUOUS
 62
           3
100
AcDbLine
 10
4111.899995321013
 20
1543.800000101368
 11
4108.899996692009
 21
1543.800000101368
  0
LINE
  5
12D
100
AcDbEntity
  8
0
  6
CONTINUOUS
 62
           3
100
AcDbLine
 10
4162.899996695576
 20
1543.800000101368
 11
4119.899996632413
 21
1543.800000101368
  0
LINE
  5
12C
100
AcDbEntity
  8
0
  6
CONTINUOUS
 62
           3
100
AcDbLine
 10
4211.899996810931
 20
1543.800000101368
 11
4168.899996747763
 21
1543.800000101368
  0
LINE
  5
12B
100
AcDbEntity
  8
0
  6
CONTINUOUS
 62
           3
100
AcDbLine
 10
4222.899996751324
 20
1543.800000101368
 11
4219.899998122326
 21
1543.800000101368
  0
LINE
  5
12A
100
AcDbEntity
  8
0
  6
CONTINUOUS
 62
           3
100
AcDbLine
 10
4108.899996692009
 20
1543.800000101368
 11
4108.899996692009
 21
1393.799997866195
  0
LINE
  5
129
100
AcDbEntity
  8
0
  6
CONTINUOUS
 62
           3
100
AcDbLine
 10
4219.899998122326
 20
1393.799997866195
 11
4222.899996751324
 21
1393.799997866195
  0
LINE
  5
128
100
AcDbEntity
  8
0
  6
CONTINUOUS
 62
           3
100
AcDbLine
 10
4173.899997101563
 20
1393.799997866195
 11
4211.899996810931
 21
1393.799997866195
  0
LINE
  5
127
100
AcDbEntity
  8
0
  6
CONTINUOUS
 62
           3
100
AcDbLine
 10
4119.899996632413
 20
1393.799997866195
 11
4157.899996341775
 21
1393.799997866195
  0
LINE
  5
126
100
AcDbEntity
  8
0
  6
CONTINUOUS
 62
           3
100
AcDbLine
 10
4108.899996692009
 20
1393.799997866195
 11
4111.899995321013
 21
1393.799997866195
  0
LINE
  5
125
100
AcDbEntity
  8
0
  6
CONTINUOUS
 62
           3
100
AcDbLine
 10
4159.426494029872
 20
1389.099999999995
 11
4172.373499413461
 21
1389.099999999995
  0
LINE
  5
124
100
AcDbEntity
  8
0
  6
CONTINUOUS
 62
           3
100
AcDbLine
 10
4173.899997101563
 20
1394.799999892893
 11
4169.399996829763
 21
1394.799999892893
  0
LINE
  5
123
100
AcDbEntity
  8
0
  6
CONTINUOUS
 62
           3
100
AcDbLine
 10
4162.399996613576
 20
1394.799999892893
 11
4157.899996341775
 21
1394.799999892893
  0
LINE
  5
122
100
AcDbEntity
  8
0
  6
CONTINUOUS
 62
           3
100
AcDbLine
 10
4163.899996626774
 20
1638.422653078993
 11
4162.899996695576
 21
1637.422651052293
  0
LINE
  5
121
100
AcDbEntity
  8
0
  6
CONTINUOUS
 62
           3
100
AcDbLine
 10
4168.899996747763
 20
1637.422651052293
 11
4167.899996816559
 21
1638.422653078993
  0
LINE
  5
120
100
AcDbEntity
  8
0
  6
CONTINUOUS
 62
           3
100
AcDbLine
 10
4162.899996695576
 20
1367.599993944113
 11
4162.899996695576
 21
1366.600006818713
  0
LINE
  5
11F
100
AcDbEntity
  8
0
  6
CONTINUOUS
 62
           3
100
AcDbLine
 10
4162.899996695576
 20
1384.199999272901
 11
4162.899996695576
 21
1377.599999308604
  0
LINE
  5
11E
100
AcDbEntity
  8
0
  6
CONTINUOUS
 62
           3
100
AcDbLine
 10
4162.899996695576
 20
1392.957426607594
 11
4162.899996695576
 21
1390.000000596097
  0
LINE
  5
11D
100
AcDbEntity
  8
0
  6
CONTINUOUS
 62
           3
100
AcDbLine
 10
4162.899996695576
 20
1633.399993180997
 11
4162.899996695576
 21
1394.792847335491
  0
LINE
  5
11C
100
AcDbEntity
  8
0
  6
CONTINUOUS
 62
           3
100
AcDbLine
 10
4162.899996695576
 20
1637.422651052293
 11
4162.899996695576
 21
1635.000005364196
  0
LINE
  5
11B
100
AcDbEntity
  8
0
  6
CONTINUOUS
 62
           3
100
AcDbLine
 10
4168.899996747763
 20
1635.000005364196
 11
4168.899996747763
 21
1637.422651052293
  0
LINE
  5
11A
100
AcDbEntity
  8
0
  6
CONTINUOUS
 62
           3
100
AcDbLine
 10
4168.899996747763
 20
1394.792847335491
 11
4168.899996747763
 21
1633.399993180997
  0
LINE
  5
119
100
AcDbEntity
  8
0
  6
CONTINUOUS
 62
           3
100
AcDbLine
 10
4168.899996747763
 20
1390.000000596097
 11
4168.899996747763
 21
1392.957426607594
  0
LINE
  5
118
100
AcDbEntity
  8
0
  6
CONTINUOUS
 62
           3
100
AcDbLine
 10
4168.899996747763
 20
1377.599999308604
 11
4168.899996747763
 21
1384.199999272901
  0
LINE
  5
117
100
AcDbEntity
  8
0
  6
CONTINUOUS
 62
           3
100
AcDbLine
 10
4168.899996747763
 20
1366.600006818713
 11
4168.899996747763
 21
1367.599993944113
  0
LINE
  5
116
100
AcDbEntity
  8
0
  6
CONTINUOUS
 62
           3
100
AcDbLine
 10
4119.899996632413
 20
1635.000005364196
 11
4119.899996632413
 21
1665.000006556369
  0
LINE
  5
115
100
AcDbEntity
  8
0
  6
CONTINUOUS
 62
           3
100
AcDbLine
 10
4119.899996632413
 20
1550.000000744964
 11
4119.899996632413
 21
1633.399993180997
  0
LINE
  5
114
100
AcDbEntity
  8
0
  6
CONTINUOUS
 62
           3
100
AcDbLine
 10
4119.899996632413
 20
1391.199998557593
 11
4119.899996632413
 21
1548.799999058066
  0
LINE
  5
113
100
AcDbEntity
  8
0
  6
CONTINUOUS
 62
           3
100
AcDbLine
 10
4119.899996632413
 20
1366.600006818713
 11
4119.899996632413
 21
1390.000000596097
  0
LINE
  5
112
100
AcDbEntity
  8
0
  6
CONTINUOUS
 62
           3
100
AcDbLine
 10
4111.899995321013
 20
1364.999994635816
 11
4111.899995321013
 21
1314.999997615956
  0
LINE
  5
111
100
AcDbEntity
  8
0
  6
CONTINUOUS
 62
           3
100
AcDbLine
 10
4111.899995321013
 20
1390.000000596097
 11
4111.899995321013
 21
1366.600006818713
  0
LINE
  5
110
100
AcDbEntity
  8
0
  6
CONTINUOUS
 62
           3
100
AcDbLine
 10
4111.899995321013
 20
1548.799999058066
 11
4111.899995321013
 21
1391.199998557593
  0
LINE
  5
10F
100
AcDbEntity
  8
0
  6
CONTINUOUS
 62
           3
100
AcDbLine
 10
4111.899995321013
 20
1633.399993180997
 11
4111.899995321013
 21
1550.000000744964
  0
LINE
  5
10E
100
AcDbEntity
  8
0
  6
CONTINUOUS
 62
           3
100
AcDbLine
 10
4111.899995321013
 20
1665.000006556369
 11
4111.899995321013
 21
1635.000005364196
  0
LINE
  5
10D
100
AcDbEntity
  8
0
  6
CONTINUOUS
 62
           3
100
AcDbLine
 10
4219.899998122326
 20
1635.000005364196
 11
4219.899998122326
 21
1641.000000000001
  0
LINE
  5
10C
100
AcDbEntity
  8
0
  6
CONTINUOUS
 62
           3
100
AcDbLine
 10
4219.899998122326
 20
1550.000000744964
 11
4219.899998122326
 21
1633.399993180997
  0
LINE
  5
10B
100
AcDbEntity
  8
0
  6
CONTINUOUS
 62
           3
100
AcDbLine
 10
4219.899998122326
 20
1391.199998557593
 11
4219.899998122326
 21
1548.799999058066
  0
LINE
  5
10A
100
AcDbEntity
  8
0
  6
CONTINUOUS
 62
           3
100
AcDbLine
 10
4219.899998122326
 20
1366.600006818713
 11
4219.899998122326
 21
1390.000000596097
  0
LINE
  5
109
100
AcDbEntity
  8
0
  6
CONTINUOUS
 62
           3
100
AcDbLine
 10
4219.899998122326
 20
1314.999997615956
 11
4219.899998122326
 21
1364.999994635816
  0
LINE
  5
108
100
AcDbEntity
  8
0
  6
CONTINUOUS
 62
           3
100
AcDbLine
 10
4211.899996810931
 20
1364.999994635816
 11
4211.899996810931
 21
1314.999997615956
  0
LINE
  5
107
100
AcDbEntity
  8
0
  6
CONTINUOUS
 62
           3
100
AcDbLine
 10
4211.899996810931
 20
1390.000000596097
 11
4211.899996810931
 21
1366.600006818713
  0
LINE
  5
106
100
AcDbEntity
  8
0
  6
CONTINUOUS
 62
           3
100
AcDbLine
 10
4211.899996810931
 20
1548.799999058066
 11
4211.899996810931
 21
1391.199998557593
  0
LINE
  5
105
100
AcDbEntity
  8
0
  6
CONTINUOUS
 62
           3
100
AcDbLine
 10
4211.899996810931
 20
1633.399993180997
 11
4211.899996810931
 21
1550.000000744964
  0
LINE
  5
104
100
AcDbEntity
  8
0
  6
CONTINUOUS
 62
           3
100
AcDbLine
 10
4211.899996810931
 20
1641.0
 11
4211.899996810931
 21
1635.000005364196
  0
LINE
  5
103
100
AcDbEntity
  8
0
  6
CONTINUOUS
 62
           3
100
AcDbLine
 10
4160.126493853973
 20
1368.046581745312
 11
4160.899996833472
 21
1367.599993944113
  0
LINE
  5
102
100
AcDbEntity
  8
0
  6
CONTINUOUS
 62
           3
100
AcDbLine
 10
4170.899996609865
 20
1367.599993944113
 11
4171.673499589365
 21
1368.046581745312
  0
LINE
  5
101
100
AcDbEntity
  8
0
  6
CONTINUOUS
 62
           3
100
AcDbLine
 10
4171.673499589365
 20
1372.153416276109
 11
4170.899996609865
 21
1372.60000407701
  0
LINE
  5
100
100
AcDbEntity
  8
0
  6
CONTINUOUS
 62
           3
100
AcDbLine
 10
4160.899996833472
 20
1372.60000407701
 11
4160.126493853973
 21
1372.153416276109
  0
LINE
  5
FF
100
AcDbEntity
  8
0
  6
CONTINUOUS
 62
           3
100
AcDbLine
 10
4160.126493853973
 20
1373.046576976912
 11
4160.899996833472
 21
1372.60000407701
  0
LINE
  5
FE
100
AcDbEntity
  8
0
  6
CONTINUOUS
 62
           3
100
AcDbLine
 10
4170.899996609865
 20
1372.60000407701
 11
4171.673499589365
 21
1373.046576976912
  0
LINE
  5
FD
100
AcDbEntity
  8
0
  6
CONTINUOUS
 62
           3
100
AcDbLine
 10
4171.673499589365
 20
1377.153418958205
 11
4170.899996609865
 21
1377.599999308604
  0
LINE
  5
FC
100
AcDbEntity
  8
0
  6
CONTINUOUS
 62
           3
100
AcDbLine
 10
4160.899996833472
 20
1377.599999308604
 11
4160.126493853973
 21
1377.153418958205
  0
LINE
  5
FB
100
AcDbEntity
  8
0
  6
CONTINUOUS
 62
           3
100
AcDbLine
 10
4160.126493853973
 20
1360.446587205121
 11
4160.899996833472
 21
1359.999999403922
  0
LINE
  5
FA
100
AcDbEntity
  8
0
  6
CONTINUOUS
 62
           3
100
AcDbLine
 10
4170.899996609865
 20
1359.999999403922
 11
4171.673499589365
 21
1360.446587205121
  0
LINE
  5
F9
100
AcDbEntity
  8
0
  6
CONTINUOUS
 62
           3
100
AcDbLine
 10
4171.673499589365
 20
1364.553421735915
 11
4170.899996609865
 21
1364.999994635816
  0
LINE
  5
F8
100
AcDbEntity
  8
0
  6
CONTINUOUS
 62
           3
100
AcDbLine
 10
4160.899996833472
 20
1364.999994635816
 11
4160.126493853973
 21
1364.553421735915
  0
LINE
  5
F7
100
AcDbEntity
  8
0
  6
CONTINUOUS
 62
           3
100
AcDbLine
 10
4171.673499589365
 20
1359.553411603021
 11
4170.899996609865
 21
1359.999999403922
  0
LINE
  5
F6
100
AcDbEntity
  8
0
  6
CONTINUOUS
 62
           3
100
AcDbLine
 10
4160.899996833472
 20
1359.999999403922
 11
4160.126493853973
 21
1359.553411603021
  0
LINE
  5
F5
100
AcDbEntity
  8
0
  6
CONTINUOUS
 62
           3
100
AcDbLine
 10
4170.899996609865
 20
1355.000004172322
 11
4171.673499589365
 21
1355.446577072223
  0
LINE
  5
F4
100
AcDbEntity
  8
0
  6
CONTINUOUS
 62
           3
100
AcDbLine
 10
4160.126493853973
 20
1355.446577072223
 11
4160.899996833472
 21
1355.000004172322
  0
LINE
  5
F3
100
AcDbEntity
  8
0
  6
CONTINUOUS
 62
           3
100
AcDbLine
 10
4119.899996632413
 20
1314.999997615956
 11
4119.899996632413
 21
1364.999994635816
  0
LINE
  5
F2
100
AcDbEntity
  8
1
  6
CONTINUOUS
 62
           3
100
AcDbLine
 10
4647.5
 20
1929.0
 11
4499.899996810931
 21
1929.0
  0
LINE
  5
F1
100
AcDbEntity
  8
1
  6
CONTINUOUS
 62
           3
100
AcDbLine
 10
4647.5
 20
1921.000000000001
 11
4499.899998122324
 21
1921.000000000001
  0
LINE
  5
F0
100
AcDbEntity
  8
1
  6
LONG_DASHED
 62
           2
100
AcDbLine
 10
-1749.999999999999
 20
50.0
 11
-1749.999999999999
 21
500.0
  0
LINE
  5
EF
100
AcDbEntity
  8
1
  6
CONTINUOUS
 62
           7
100
AcDbLine
 10
-1749.999999999999
 20
500.0
 11
-1749.999999999999
 21
2500.0
  0
LINE
  5
EE
100
AcDbEntity
  8
1
  6
CONTINUOUS
 62
           7
100
AcDbLine
 10
3300.0
 20
2139.999999999999
 11
3480.0
 21
2139.999999999999
  0
LINE
  5
ED
100
AcDbEntity
  8
1
  6
CONTINUOUS
 62
           7
100
AcDbLine
 10
3480.0
 20
2139.999999999999
 11
3480.0
 21
2253.0
  0
LINE
  5
EC
100
AcDbEntity
  8
1
  6
CONTINUOUS
 62
           7
100
AcDbLine
 10
3480.0
 20
2253.0
 11
3300.0
 21
2252.999999999999
  0
LINE
  5
EB
100
AcDbEntity
  8
1
  6
CONTINUOUS
 62
           7
100
AcDbLine
 10
3300.0
 20
2252.999999999999
 11
3300.0
 21
2139.999999999999
  0
LINE
  5
EA
100
AcDbEntity
  8
1
  6
CONTINUOUS
 62
           4
100
AcDbLine
 10
4270.0
 20
1800.831132334582
 11
4270.0
 21
520.0
  0
LINE
  5
E9
100
AcDbEntity
  8
1
  6
CONTINUOUS
 62
           7
100
AcDbLine
 10
4250.0
 20
1784.157226830841
 11
4250.0
 21
2000.0
  0
LINE
  5
E8
100
AcDbEntity
  8
1
  6
CONTINUOUS
 62
           4
100
AcDbLine
 10
4230.0
 20
1741.618134304472
 11
4230.0
 21
2480.0
  0
LINE
  5
E7
100
AcDbEntity
  8
1
  6
CONTINUOUS
 62
           4
100
AcDbLine
 10
4270.0
 20
1980.0
 11
4270.0
 21
1814.464669216339
  0
LINE
  5
E6
100
AcDbEntity
  8
1
  6
CONTINUOUS
 62
           4
100
AcDbLine
 10
4230.0
 20
520.0
 11
4230.0
 21
1715.060781705834
  0
LINE
  5
E5
100
AcDbEntity
  8
1
  6
CONTINUOUS
 62
           7
100
AcDbLine
 10
4250.0
 20
500.0
 11
4250.0
 21
1767.293273528173
  0
LINE
  5
E4
100
AcDbEntity
  8
1
  6
CONTINUOUS
 62
           7
100
AcDbLine
 10
250.000000000001
 20
2000.0
 11
250.000000000001
 21
1763.744569986046
  0
LINE
  5
E3
100
AcDbEntity
  8
1
  6
CONTINUOUS
 62
           7
100
AcDbLine
 10
1750.000000000001
 20
1763.744569986046
 11
-1749.999999999999
 21
1763.744569986046
  0
LINE
  5
E2
100
AcDbEntity
  8
1
  6
CONTINUOUS
 62
           7
100
AcDbLine
 10
-1569.497691536608
 20
986.513526798368
 11
-424.999999999999
 21
986.513526798368
  0
LINE
  5
E1
100
AcDbEntity
  8
___S__
  6
DOT_CENTER
 62
           3
100
AcDbLine
 10
-1574.999999999999
 20
1067.06326659646
 11
-1575.0
 21
982.067556365335
  0
LINE
  5
E0
100
AcDbEntity
  8
____
  6
CONTINUOUS
 62
           3
100
AcDbLine
 10
-1569.595947044879
 20
1060.459504816178
 11
-1569.595947044879
 21
1058.581574068056
  0
LINE
  5
DF
100
AcDbEntity
  8
____
  6
CONTINUOUS
 62
           3
100
AcDbLine
 10
-1579.912775413743
 20
1060.928987503209
 11
-1570.087224586254
 21
1060.928987503209
  0
LINE
  5
DE
100
AcDbEntity
  8
____
  6
CONTINUOUS
 62
           3
100
AcDbLine
 10
-1580.404052955117
 20
1058.581574068056
 11
-1580.404052955117
 21
1060.459504816178
  0
LINE
  5
DD
100
AcDbEntity
  8
____
  6
CONTINUOUS
 62
           3
100
AcDbLine
 10
-1569.497691536607
 20
1022.900889853722
 11
-1580.502308463384
 21
1022.900889853723
  0
LINE
  5
DC
100
AcDbEntity
  8
____
  6
CONTINUOUS
 62
           3
100
AcDbLine
 10
-1569.497691536606
 20
1058.581574068056
 11
-1569.497691536607
 21
1022.900889853722
  0
LINE
  5
DB
100
AcDbEntity
  8
____
  6
CONTINUOUS
 62
           3
100
AcDbLine
 10
-1580.502308463383
 20
1058.581574068056
 11
-1569.497691536606
 21
1058.581574068056
  0
LINE
  5
DA
100
AcDbEntity
  8
____
  6
CONTINUOUS
 62
           3
100
AcDbLine
 10
-1580.502308463384
 20
1022.900889853723
 11
-1580.502308463383
 21
1058.581574068056
  0
LINE
  5
D9
100
AcDbEntity
  8
____
  6
CONTINUOUS
 62
           3
100
AcDbLine
 10
-1580.404052955119
 20
984.403309517206
 11
-1580.404052955119
 21
986.281240265329
  0
LINE
  5
D8
100
AcDbEntity
  8
____
  6
CONTINUOUS
 62
           3
100
AcDbLine
 10
-1570.087224586256
 20
983.933826830174
 11
-1579.912775413745
 21
983.933826830174
  0
LINE
  5
D7
100
AcDbEntity
  8
____
  6
CONTINUOUS
 62
           3
100
AcDbLine
 10
-1569.595947044881
 20
986.281240265329
 11
-1569.595947044881
 21
984.403309517206
  0
LINE
  5
D6
100
AcDbEntity
  8
____
  6
CONTINUOUS
 62
           3
100
AcDbLine
 10
-1580.158414184431
 20
1022.900889853723
 11
-1580.158414184431
 21
1021.961924479661
  0
LINE
  5
D5
100
AcDbEntity
  8
____
  6
CONTINUOUS
 62
           3
100
AcDbLine
 10
-1569.841585815567
 20
1022.900889853722
 11
-1580.158414184431
 21
1022.900889853723
  0
LINE
  5
D4
100
AcDbEntity
  8
____
  6
CONTINUOUS
 62
           3
100
AcDbLine
 10
-1569.841585815567
 20
1021.961924479661
 11
-1569.841585815567
 21
1022.900889853722
  0
LINE
  5
D3
100
AcDbEntity
  8
____
  6
CONTINUOUS
 62
           3
100
AcDbLine
 10
-1580.404052955117
 20
1060.459504816178
 11
-1569.595947044879
 21
1060.459504816178
  0
LINE
  5
D2
100
AcDbEntity
  8
____
  6
CONTINUOUS
 62
           3
100
AcDbLine
 10
-1580.502308463384
 20
1021.961924479661
 11
-1569.497691536607
 21
1021.961924479661
  0
LINE
  5
D1
100
AcDbEntity
  8
____
  6
CONTINUOUS
 62
           3
100
AcDbLine
 10
-1580.502308463384
 20
986.281240265329
 11
-1580.502308463384
 21
1021.961924479661
  0
LINE
  5
D0
100
AcDbEntity
  8
____
  6
CONTINUOUS
 62
           3
100
AcDbLine
 10
-1569.497691536608
 20
986.281240265329
 11
-1580.502308463384
 21
986.281240265329
  0
LINE
  5
CF
100
AcDbEntity
  8
____
  6
CONTINUOUS
 62
           3
100
AcDbLine
 10
-1569.497691536607
 20
1021.961924479661
 11
-1569.497691536608
 21
986.281240265329
  0
LINE
  5
CE
100
AcDbEntity
  8
____
  6
CONTINUOUS
 62
           3
100
AcDbLine
 10
-1580.404052955117
 20
1060.459504816178
 11
-1579.912775413743
 21
1060.928987503209
  0
LINE
  5
CD
100
AcDbEntity
  8
____
  6
CONTINUOUS
 62
           3
100
AcDbLine
 10
-1570.087224586254
 20
1060.928987503209
 11
-1569.595947044879
 21
1060.459504816178
  0
LINE
  5
CC
100
AcDbEntity
  8
____
  6
CONTINUOUS
 62
           3
100
AcDbLine
 10
-1579.912775413745
 20
983.933826830174
 11
-1580.404052955119
 21
984.403309517206
  0
LINE
  5
CB
100
AcDbEntity
  8
____
  6
CONTINUOUS
 62
           3
100
AcDbLine
 10
-1569.595947044881
 20
984.403309517206
 11
-1570.087224586256
 21
983.933826830174
  0
LINE
  5
CA
100
AcDbEntity
  8
____
  6
CONTINUOUS
 62
           3
100
AcDbLine
 10
-1580.404052955119
 20
984.403309517206
 11
-1569.595947044881
 21
984.403309517206
  0
LINE
  5
C9
100
AcDbEntity
  8
____
  6
CONTINUOUS
 62
           3
100
AcDbLine
 10
-1580.404052955095
 20
1538.392880207259
 11
-1569.595947044857
 21
1538.392880207259
  0
LINE
  5
C8
100
AcDbEntity
  8
____
  6
CONTINUOUS
 62
           3
100
AcDbLine
 10
-1569.595947044857
 20
1538.392880207259
 11
-1570.087224586231
 21
1537.923397520231
  0
LINE
  5
C7
100
AcDbEntity
  8
____
  6
CONTINUOUS
 62
           3
100
AcDbLine
 10
-1579.91277541372
 20
1537.923397520231
 11
-1580.404052955095
 21
1538.392880207259
  0
LINE
  5
C6
100
AcDbEntity
  8
____
  6
CONTINUOUS
 62
           3
100
AcDbLine
 10
-1570.087224586231
 20
1614.918558193263
 11
-1569.595947044856
 21
1614.449075506233
  0
LINE
  5
C5
100
AcDbEntity
  8
____
  6
CONTINUOUS
 62
           3
100
AcDbLine
 10
-1580.404052955093
 20
1614.449075506233
 11
-1579.912775413719
 21
1614.918558193263
  0
LINE
  5
C4
100
AcDbEntity
  8
____
  6
CONTINUOUS
 62
           3
100
AcDbLine
 10
-1569.497691536591
 20
1575.951495169715
 11
-1569.497691536591
 21
1540.270810955382
  0
LINE
  5
C3
100
AcDbEntity
  8
____
  6
CONTINUOUS
 62
           3
100
AcDbLine
 10
-1569.497691536591
 20
1540.270810955382
 11
-1580.502308463368
 21
1540.270810955382
  0
LINE
  5
C2
100
AcDbEntity
  8
____
  6
CONTINUOUS
 62
           3
100
AcDbLine
 10
-1580.502308463368
 20
1540.270810955382
 11
-1580.502308463368
 21
1575.951495169715
  0
LINE
  5
C1
100
AcDbEntity
  8
____
  6
CONTINUOUS
 62
           3
100
AcDbLine
 10
-1580.502308463368
 20
1575.951495169715
 11
-1569.497691536591
 21
1575.951495169715
  0
LINE
  5
C0
100
AcDbEntity
  8
____
  6
CONTINUOUS
 62
           3
100
AcDbLine
 10
-1580.404052955093
 20
1614.449075506233
 11
-1569.595947044856
 21
1614.449075506233
  0
LINE
  5
BF
100
AcDbEntity
  8
____
  6
CONTINUOUS
 62
           3
100
AcDbLine
 10
-1569.841585815544
 20
1575.951495169715
 11
-1569.841585815544
 21
1576.890460543777
  0
LINE
  5
BE
100
AcDbEntity
  8
____
  6
CONTINUOUS
 62
           3
100
AcDbLine
 10
-1569.841585815544
 20
1576.890460543777
 11
-1580.158414184407
 21
1576.890460543777
  0
LINE
  5
BD
100
AcDbEntity
  8
____
  6
CONTINUOUS
 62
           3
100
AcDbLine
 10
-1580.158414184407
 20
1576.890460543777
 11
-1580.158414184407
 21
1575.951495169715
  0
LINE
  5
BC
100
AcDbEntity
  8
____
  6
CONTINUOUS
 62
           3
100
AcDbLine
 10
-1569.595947044857
 20
1540.270810955382
 11
-1569.595947044857
 21
1538.392880207259
  0
LINE
  5
BB
100
AcDbEntity
  8
____
  6
CONTINUOUS
 62
           3
100
AcDbLine
 10
-1570.087224586231
 20
1537.923397520231
 11
-1579.91277541372
 21
1537.923397520231
  0
LINE
  5
BA
100
AcDbEntity
  8
____
  6
CONTINUOUS
 62
           3
100
AcDbLine
 10
-1580.404052955095
 20
1538.392880207259
 11
-1580.404052955095
 21
1540.270810955382
  0
LINE
  5
B9
100
AcDbEntity
  8
____
  6
CONTINUOUS
 62
           3
100
AcDbLine
 10
-1580.502308463368
 20
1576.890460543777
 11
-1580.502308463367
 21
1612.571144758109
  0
LINE
  5
B8
100
AcDbEntity
  8
____
  6
CONTINUOUS
 62
           3
100
AcDbLine
 10
-1580.502308463367
 20
1612.571144758109
 11
-1569.49769153659
 21
1612.571144758108
  0
LINE
  5
B7
100
AcDbEntity
  8
____
  6
CONTINUOUS
 62
           3
100
AcDbLine
 10
-1569.49769153659
 20
1612.571144758108
 11
-1569.497691536591
 21
1576.890460543777
  0
LINE
  5
B6
100
AcDbEntity
  8
____
  6
CONTINUOUS
 62
           3
100
AcDbLine
 10
-1569.497691536591
 20
1576.890460543777
 11
-1580.502308463368
 21
1576.890460543777
  0
LINE
  5
B5
100
AcDbEntity
  8
____
  6
CONTINUOUS
 62
           3
100
AcDbLine
 10
-1580.404052955093
 20
1612.571144758109
 11
-1580.404052955093
 21
1614.449075506233
  0
LINE
  5
B4
100
AcDbEntity
  8
____
  6
CONTINUOUS
 62
           3
100
AcDbLine
 10
-1579.912775413719
 20
1614.918558193263
 11
-1570.087224586231
 21
1614.918558193263
  0
LINE
  5
B3
100
AcDbEntity
  8
____
  6
CONTINUOUS
 62
           3
100
AcDbLine
 10
-1569.595947044856
 20
1614.449075506233
 11
-1569.595947044856
 21
1612.571144758108
  0
LINE
  5
B2
100
AcDbEntity
  8
___S__
  6
DOT_CENTER
 62
           3
100
AcDbLine
 10
-1574.999999999975
 20
1621.052837286497
 11
-1574.999999999975
 21
1536.057127055389
  0
LINE
  5
B1
100
AcDbEntity
  8
1
  6
CONTINUOUS
 62
           7
100
AcDbLine
 10
-1574.999999999999
 20
941.513526798366
 11
-424.999999999999
 21
941.513526798366
  0
LINE
  5
B0
100
AcDbEntity
  8
1
  6
CONTINUOUS
 62
           7
100
AcDbLine
 10
-424.999999999999
 20
941.513526798366
 11
-424.999999999999
 21
1646.282992387804
  0
LINE
  5
AF
100
AcDbEntity
  8
1
  6
CONTINUOUS
 62
           7
100
AcDbLine
 10
-1574.999999999999
 20
941.513526798366
 11
-1574.999999999999
 21
1646.282992387804
  0
LINE
  5
AE
100
AcDbEntity
  8
1
  6
CONTINUOUS
 62
           7
100
AcDbLine
 10
-424.999999999999
 20
1646.282992387804
 11
-1574.999999999999
 21
1646.282992387804
  0
LINE
  5
AD
100
AcDbEntity
  8
1
  6
CONTINUOUS
 62
           3
100
AcDbLine
 10
-485.604203678125
 20
1294.32810932706
 11
-487.992149678105
 21
1267.070985327059
  0
LINE
  5
AC
100
AcDbEntity
  8
1
  6
CONTINUOUS
 62
           3
100
AcDbLine
 10
-487.992149678105
 20
1323.33071132706
 11
-485.604203678125
 21
1296.073587327061
  0
LINE
  5
AB
100
AcDbEntity
  8
1
  6
CONTINUOUS
 62
           3
100
AcDbLine
 10
-497.451285678125
 20
1294.32810932706
 11
-495.063339678115
 21
1267.070985327059
  0
LINE
  5
AA
100
AcDbEntity
  8
1
  6
CONTINUOUS
 62
           3
100
AcDbLine
 10
-495.063339678115
 20
1323.33071132706
 11
-497.451285678125
 21
1296.073587327061
  0
LINE
  5
A9
100
AcDbEntity
  8
1
  6
DOT_CENTER
 62
           3
100
AcDbLine
 10
-446.52774467812
 20
1295.20084832705
 11
-536.525199678126
 21
1295.20084832705
  0
LINE
  5
A8
100
AcDbEntity
  8
1
  6
DOT_CENTER
 62
           3
100
AcDbLine
 10
-491.52774467812
 20
1340.20084832705
 11
-491.52774467812
 21
1250.20227732705
  0
LINE
  5
A7
100
AcDbEntity
  8
1
  6
CONTINUOUS
 62
           7
100
AcDbLine
 10
-249.999999999999
 20
1763.744569986046
 11
-249.999999999999
 21
500.0
  0
LINE
  5
A6
100
AcDbEntity
  8
1
  6
CONTINUOUS
 62
           7
100
AcDbLine
 10
1750.000000000001
 20
500.0
 11
1750.000000000001
 21
2500.0
  0
LINE
  5
A5
100
AcDbEntity
  8
1
  6
CONTINUOUS
 62
           4
100
AcDbLine
 10
4270.0
 20
2020.0
 11
5230.0
 21
2020.0
  0
LINE
  5
A4
100
AcDbEntity
  8
1
  6
CONTINUOUS
 62
           4
100
AcDbLine
 10
4270.0
 20
2480.0
 11
4270.0
 21
2020.0
  0
LINE
  5
A3
100
AcDbEntity
  8
1
  6
CONTINUOUS
 62
           4
100
AcDbLine
 10
5230.0
 20
2480.0
 11
4270.0
 21
2480.0
  0
LINE
  5
A2
100
AcDbEntity
  8
1
  6
CONTINUOUS
 62
           4
100
AcDbLine
 10
5230.0
 20
2020.0
 11
5230.0
 21
2480.0
  0
LINE
  5
A1
100
AcDbEntity
  8
1
  6
LONG_DASHED
 62
           2
100
AcDbLine
 10
3800.0
 20
500.0
 11
3800.0
 21
50.0
  0
LINE
  5
A0
100
AcDbEntity
  8
1
  6
CONTINUOUS
 62
           7
100
AcDbLine
 10
5250.0
 20
2000.0
 11
4250.0
 21
2000.0
  0
LINE
  5
9F
100
AcDbEntity
  8
1
  6
CONTINUOUS
 62
           7
100
AcDbLine
 10
-750.0
 20
2500.0
 11
-750.0
 21
2000.0
  0
LINE
  5
9E
100
AcDbEntity
  8
1
  6
CONTINUOUS
 62
           7
100
AcDbLine
 10
750.0
 20
2500.0
 11
750.0
 21
2000.0
  0
LINE
  5
9D
100
AcDbEntity
  8
1
  6
CONTINUOUS
 62
           7
100
AcDbLine
 10
1750.000000000001
 20
2000.0
 11
-1749.999999999999
 21
2000.0
  0
LINE
  5
9C
100
AcDbEntity
  8
1
  6
CONTINUOUS
 62
           7
100
AcDbLine
 10
-2007.15629023024
 20
500.0
 11
2020.055353619711
 21
500.0
  0
LINE
  5
9B
100
AcDbEntity
  8
1
  6
DOT_CENTER
 62
           2
100
AcDbLine
 10
0.0
 20
3608.916662956
 11
0.0
 21
-59.940415981071
  0
LINE
  5
9A
100
AcDbEntity
  8
1
  6
CONTINUOUS
 62
           7
100
AcDbLine
 10
3480.0
 20
2089.999999999999
 11
3480.0
 21
1850.0
  0
LINE
  5
99
100
AcDbEntity
  8
1
  6
CONTINUOUS
 62
           7
100
AcDbLine
 10
3300.0
 20
1850.0
 11
3300.0
 21
2089.999999999999
  0
LINE
  5
98
100
AcDbEntity
  8
1
  6
CONTINUOUS
 62
           7
100
AcDbLine
 10
3300.0
 20
2089.999999999999
 11
3480.0
 21
2089.999999999999
  0
LINE
  5
97
100
AcDbEntity
  8
1
  6
CONTINUOUS
 62
           7
100
AcDbLine
 10
3480.0
 20
1850.0
 11
3300.0
 21
1850.0
  0
LINE
  5
96
100
AcDbEntity
  8
1
  6
CONTINUOUS
 62
           7
100
AcDbLine
 10
3490.0
 20
2450.0
 11
3300.0
 21
2450.0
  0
LINE
  5
95
100
AcDbEntity
  8
1
  6
CONTINUOUS
 62
           7
100
AcDbLine
 10
3300.0
 20
2450.0
 11
3300.0
 21
2362.0
  0
LINE
  5
94
100
AcDbEntity
  8
1
  6
CONTINUOUS
 62
           7
100
AcDbLine
 10
3300.0
 20
2362.0
 11
3490.0
 21
2362.0
  0
LINE
  5
93
100
AcDbEntity
  8
1
  6
CONTINUOUS
 62
           7
100
AcDbLine
 10
3490.0
 20
2362.0
 11
3490.0
 21
2450.0
  0
LINE
  5
92
100
AcDbEntity
  8
1
  6
CONTINUOUS
 62
           4
100
AcDbLine
 10
3250.000000000001
 20
2540.0
 11
4250.0
 21
2540.0
  0
LINE
  5
91
100
AcDbEntity
  8
1
  6
CONTINUOUS
 62
           4
100
AcDbLine
 10
1730.000000000001
 20
5192.996931272069
 11
296.227766016839
 21
5192.996931272069
  0
LINE
  5
90
100
AcDbEntity
  8
1
  6
CONTINUOUS
 62
           4
100
AcDbLine
 10
1780.000000000001
 20
5232.996931272069
 11
1520.0
 21
5232.996931272069
  0
LINE
  5
8F
100
AcDbEntity
  8
1
  6
CONTINUOUS
 62
           4
100
AcDbLine
 10
1780.000000000001
 20
6192.996931272069
 11
1520.0
 21
6192.996931272069
  0
LINE
  5
8E
100
AcDbEntity
  8
1
  6
CONTINUOUS
 62
           4
100
AcDbLine
 10
1730.000000000001
 20
5192.996931272069
 11
1730.000000000001
 21
4262.996931272069
  0
LINE
  5
8D
100
AcDbEntity
  8
1
  6
CONTINUOUS
 62
           4
100
AcDbLine
 10
1780.000000000001
 20
6192.996931272069
 11
1780.000000000001
 21
5232.996931272069
  0
LINE
  5
8C
100
AcDbEntity
  8
1
  6
CONTINUOUS
 62
           7
100
AcDbLine
 10
1800.000000000001
 20
4212.996931272069
 11
1800.000000000001
 21
6212.996931272069
  0
LINE
  5
8B
100
AcDbEntity
  8
1
  6
DOT_CENTER
 62
           2
100
AcDbLine
 10
4550.0
 20
675.0
 11
4550.0
 21
525.0
  0
LINE
  5
8A
100
AcDbEntity
  8
1
  6
DOT_CENTER
 62
           2
100
AcDbLine
 10
4475.0
 20
600.0
 11
4625.0
 21
600.0
  0
LINE
  5
89
100
AcDbEntity
  8
1
  6
DOT_CENTER
 62
           2
100
AcDbLine
 10
0.0
 20
4262.996931272069
 11
0.0
 21
4087.677607519738
  0
LINE
  5
88
100
AcDbEntity
  8
1
  6
CONTINUOUS
 62
           7
100
AcDbLine
 10
1735.000000000001
 20
540.0
 11
-234.999999999999
 21
540.0
  0
LINE
  5
87
100
AcDbEntity
  8
1
  6
CONTINUOUS
 62
           7
100
AcDbLine
 10
-1749.999999999999
 20
800.0
 11
1750.000000000001
 21
800.0
  0
LINE
  5
86
100
AcDbEntity
  8
1
  6
CONTINUOUS
 62
           7
100
AcDbLine
 10
-234.999999999999
 20
540.0
 11
-234.999999999999
 21
500.0
  0
LINE
  5
85
100
AcDbEntity
  8
1
  6
CONTINUOUS
 62
           7
100
AcDbLine
 10
1735.000000000001
 20
540.0
 11
1735.000000000001
 21
500.0
  0
LINE
  5
84
100
AcDbEntity
  8
1
  6
LONG_DASHED
 62
           2
100
AcDbLine
 10
1750.000000000001
 20
50.0
 11
-1749.999999999999
 21
50.0
  0
LINE
  5
83
100
AcDbEntity
  8
1
  6
CONTINUOUS
 62
           7
100
AcDbLine
 10
1750.000000000001
 20
1900.0
 11
-1749.999999999999
 21
1900.0
  0
LINE
  5
82
100
AcDbEntity
  8
1
  6
LONG_DASHED
 62
           2
100
AcDbLine
 10
1750.000000000001
 20
50.0
 11
1750.000000000001
 21
500.0
  0
LINE
  5
81
100
AcDbEntity
  8
1
  6
CONTINUOUS
 62
           7
100
AcDbLine
 10
4250.0
 20
2575.0
 11
5250.0
 21
2575.000000000001
  0
LINE
  5
80
100
AcDbEntity
  8
1
  6
CONTINUOUS
 62
           7
100
AcDbLine
 10
4250.0
 20
2000.0
 11
4250.0
 21
2575.0
  0
LINE
  5
7F
100
AcDbEntity
  8
1
  6
CONTINUOUS
 62
           7
100
AcDbLine
 10
3250.000000000001
 20
2550.0
 11
5250.0
 21
2550.0
  0
LINE
  5
7E
100
AcDbEntity
  8
1
  6
CONTINUOUS
 62
           4
100
AcDbLine
 10
3250.000000000001
 20
2503.0
 11
4250.0
 21
2503.0
  0
LINE
  5
7D
100
AcDbEntity
  8
1
  6
CONTINUOUS
 62
           7
100
AcDbLine
 10
3300.000000000001
 20
2630.0
 11
3300.000000000001
 21
2650.0
  0
LINE
  5
7C
100
AcDbEntity
  8
1
  6
CONTINUOUS
 62
           7
100
AcDbLine
 10
3250.000000000001
 20
2650.0
 11
3300.000000000001
 21
2650.0
  0
LINE
  5
7B
100
AcDbEntity
  8
1
  6
CONTINUOUS
 62
           7
100
AcDbLine
 10
5250.0
 20
2500.0
 11
3250.000000000001
 21
2500.0
  0
LINE
  5
7A
100
AcDbEntity
  8
1
  6
CONTINUOUS
 62
           7
100
AcDbLine
 10
5250.0
 20
500.0
 11
5250.0
 21
2575.000000000001
  0
LINE
  5
79
100
AcDbEntity
  8
1
  6
CONTINUOUS
 62
           7
100
AcDbLine
 10
3250.000000000001
 20
500.0
 11
3250.000000000001
 21
2650.0
  0
LINE
  5
78
100
AcDbEntity
  8
1
  6
CONTINUOUS
 62
           7
100
AcDbLine
 10
1800.000000000001
 20
2500.0
 11
-1799.999999999999
 21
2500.0
  0
LINE
  5
77
100
AcDbEntity
  8
1
  6
CONTINUOUS
 62
           7
100
AcDbLine
 10
-1799.999999999999
 20
2650.0
 11
-1799.999999999999
 21
500.0
  0
LINE
  5
76
100
AcDbEntity
  8
1
  6
CONTINUOUS
 62
           7
100
AcDbLine
 10
1800.000000000001
 20
2650.0
 11
-1799.999999999999
 21
2650.0
  0
LINE
  5
75
100
AcDbEntity
  8
1
  6
CONTINUOUS
 62
           7
100
AcDbLine
 10
1800.000000000001
 20
500.0
 11
1800.000000000001
 21
2650.0
  0
LINE
  5
74
100
AcDbEntity
  8
1
  6
CONTINUOUS
 62
           7
100
AcDbLine
 10
1800.000000000001
 20
6212.996931272069
 11
0.0
 21
6212.996931272069
  0
LINE
  5
73
100
AcDbEntity
  8
1
  6
CONTINUOUS
 62
           4
100
AcDbLine
 10
-1779.999999999999
 20
5232.996931272069
 11
-1779.999999999999
 21
6192.996931272069
  0
LINE
  5
72
100
AcDbEntity
  8
1
  6
CONTINUOUS
 62
           4
100
AcDbLine
 10
-1779.999999999999
 20
5232.996931272069
 11
-1520.0
 21
5232.996931272069
  0
LINE
  5
71
100
AcDbEntity
  8
1
  6
CONTINUOUS
 62
           7
100
AcDbLine
 10
1750.000000000001
 20
4262.996931272069
 11
1750.000000000001
 21
5212.996931272069
  0
LINE
  5
70
100
AcDbEntity
  8
1
  6
CONTINUOUS
 62
           7
100
AcDbLine
 10
-1749.999999999999
 20
4262.996931272069
 11
-1749.999999999999
 21
5212.996931272069
  0
LINE
  5
6F
100
AcDbEntity
  8
1
  6
CONTINUOUS
 62
           4
100
AcDbLine
 10
-1729.999999999999
 20
5192.996931272069
 11
-1729.999999999999
 21
4262.996931272069
  0
LINE
  5
6E
100
AcDbEntity
  8
1
  6
CONTINUOUS
 62
           7
100
AcDbLine
 10
-1799.999999999999
 20
4262.996931272069
 11
1800.000000000001
 21
4262.996931272069
  0
LINE
  5
6D
100
AcDbEntity
  8
1
  6
CONTINUOUS
 62
           7
100
AcDbLine
 10
-1799.999999999999
 20
6212.996931272069
 11
-1799.999999999999
 21
4212.996931272069
  0
LINE
  5
6C
100
AcDbEntity
  8
1
  6
CONTINUOUS
 62
           7
100
AcDbLine
 10
-1799.999999999999
 20
4212.996931272069
 11
1800.000000000001
 21
4212.996931272069
  0
LINE
  5
6B
100
AcDbEntity
  8
1
  6
CONTINUOUS
 62
           7
100
AcDbLine
 10
3050.03260283584
 20
500.0
 11
5462.36143794764
 21
500.0
  0
LINE
  5
6A
100
AcDbEntity
  8
1
  6
CONTINUOUS
 62
           4
100
AcDbLine
 10
4230.0
 20
2480.0
 11
3270.0
 21
2480.0
  0
LINE
  5
69
100
AcDbEntity
  8
1
  6
CONTINUOUS
 62
           4
100
AcDbLine
 10
3270.0
 20
2480.0
 11
3270.0
 21
520.0
  0
LINE
  5
68
100
AcDbEntity
  8
1
  6
CONTINUOUS
 62
           4
100
AcDbLine
 10
3270.0
 20
520.0
 11
4230.0
 21
520.0
  0
LINE
  5
67
100
AcDbEntity
  8
1
  6
CONTINUOUS
 62
           4
100
AcDbLine
 10
4270.0
 20
520.0
 11
5230.0
 21
520.0
  0
LINE
  5
66
100
AcDbEntity
  8
1
  6
CONTINUOUS
 62
           4
100
AcDbLine
 10
5230.0
 20
520.0
 11
5230.0
 21
1980.0
  0
LINE
  5
65
100
AcDbEntity
  8
1
  6
CONTINUOUS
 62
           4
100
AcDbLine
 10
5230.0
 20
1980.0
 11
4270.0
 21
1980.0
  0
LINE
  5
64
100
AcDbEntity
  8
1
  6
LONG_DASHED
 62
           2
100
AcDbLine
 10
3800.0
 20
50.0
 11
5200.0
 21
50.0
  0
LINE
  5
63
100
AcDbEntity
  8
1
  6
LONG_DASHED
 62
           2
100
AcDbLine
 10
5200.0
 20
50.0
 11
5200.0
 21
500.0
  0
LINE
  5
62
100
AcDbEntity
  8
1
  6
CONTINUOUS
 62
           7
100
AcDbLine
 10
-1734.999999999999
 20
500.0
 11
-1734.999999999999
 21
540.0
  0
LINE
  5
61
100
AcDbEntity
  8
1
  6
CONTINUOUS
 62
           7
100
AcDbLine
 10
-265.0
 20
500.0
 11
-264.999999999999
 21
540.0
  0
LINE
  5
60
100
AcDbEntity
  8
1
  6
CONTINUOUS
 62
           4
100
AcDbLine
 10
520.0
 20
6192.996931272069
 11
520.000000000001
 21
5747.399996361165
  0
LINE
  5
5F
100
AcDbEntity
  8
1
  6
CONTINUOUS
 62
           4
100
AcDbLine
 10
-520.0
 20
5232.996931272069
 11
-520.0
 21
5258.430454446151
  0
LINE
  5
5E
100
AcDbEntity
  8
1
  6
CONTINUOUS
 62
           7
100
AcDbLine
 10
-499.999999999999
 20
5212.996931272069
 11
-500.0
 21
5240.868041245348
  0
LINE
  5
5D
100
AcDbEntity
  8
1
  6
CONTINUOUS
 62
           7
100
AcDbLine
 10
-1499.999999999999
 20
5212.996931272069
 11
-1499.999999999999
 21
6212.996931272069
  0
LINE
  5
5C
100
AcDbEntity
  8
1
  6
CONTINUOUS
 62
           7
100
AcDbLine
 10
1500.000000000001
 20
5212.996931272069
 11
1500.000000000001
 21
6212.996931272069
  0
LINE
  5
5B
100
AcDbEntity
  8
1
  6
CONTINUOUS
 62
           4
100
AcDbLine
 10
1480.000000000001
 20
6192.996931272069
 11
520.0
 21
6192.996931272069
  0
LINE
  5
5A
100
AcDbEntity
  8
1
  6
CONTINUOUS
 62
           4
100
AcDbLine
 10
1520.0
 20
5232.996931272069
 11
1520.0
 21
6192.996931272069
  0
LINE
  5
59
100
AcDbEntity
  8
1
  6
CONTINUOUS
 62
           4
100
AcDbLine
 10
1480.000000000001
 20
5232.996931272069
 11
520.0
 21
5232.996931272069
  0
LINE
  5
58
100
AcDbEntity
  8
1
  6
CONTINUOUS
 62
           4
100
AcDbLine
 10
1480.000000000001
 20
5232.996931272069
 11
1480.000000000001
 21
6192.996931272069
  0
LINE
  5
57
100
AcDbEntity
  8
1
  6
CONTINUOUS
 62
           4
100
AcDbLine
 10
-1520.0
 20
6192.996931272069
 11
-1779.999999999999
 21
6192.996931272069
  0
LINE
  5
56
100
AcDbEntity
  8
1
  6
CONTINUOUS
 62
           4
100
AcDbLine
 10
-1520.0
 20
5232.996931272069
 11
-1520.0
 21
6192.996931272069
  0
LINE
  5
55
100
AcDbEntity
  8
1
  6
CONTINUOUS
 62
           4
100
AcDbLine
 10
-1480.0
 20
5232.996931272069
 11
-520.0
 21
5232.996931272069
  0
LINE
  5
54
100
AcDbEntity
  8
1
  6
CONTINUOUS
 62
           4
100
AcDbLine
 10
-1480.0
 20
5232.996931272069
 11
-1480.0
 21
6192.996931272069
  0
LINE
  5
53
100
AcDbEntity
  8
1
  6
CONTINUOUS
 62
           4
100
AcDbLine
 10
-269.999999999999
 20
4262.996931272069
 11
-269.999999999999
 21
5114.173011870172
  0
LINE
  5
52
100
AcDbEntity
  8
1
  6
CONTINUOUS
 62
           7
100
AcDbLine
 10
-264.999999999999
 20
540.0
 11
-1734.999999999999
 21
540.0
  0
LINE
  5
51
100
AcDbEntity
  8
1
  6
CONTINUOUS
 62
           4
100
AcDbLine
 10
-1789.999999999999
 20
5212.996931272069
 11
-1789.999999999999
 21
4262.996931272069
  0
LINE
  5
50
100
AcDbEntity
  8
1
  6
CONTINUOUS
 62
           4
100
AcDbLine
 10
-1752.999999999999
 20
5212.996931272069
 11
-1752.999999999999
 21
4262.996931272069
  0
LINE
  5
4F
100
AcDbEntity
  8
1
  6
CONTINUOUS
 62
           4
100
AcDbLine
 10
1790.000000000001
 20
5212.996931272069
 11
1790.000000000001
 21
4262.996931272069
  0
LINE
  5
4E
100
AcDbEntity
  8
1
  6
CONTINUOUS
 62
           4
100
AcDbLine
 10
1753.000000000001
 20
5212.996931272069
 11
1753.000000000001
 21
4262.996931272069
  0
LINE
  5
4D
100
AcDbEntity
  8
1
  6
CONTINUOUS
 62
           7
100
AcDbLine
 10
-1799.999999999999
 20
5212.996931272069
 11
-464.610640301039
 21
5212.996931272069
  0
LINE
  5
4C
100
AcDbEntity
  8
1
  6
CONTINUOUS
 62
           7
100
AcDbLine
 10
500.000000000001
 20
5212.996931272069
 11
500.000000000001
 21
5463.832202600382
  0
LINE
  5
4B
100
AcDbEntity
  8
1
  6
DOT_CENTER
 62
           2
100
AcDbLine
 10
-756.592492016161
 20
5712.996931272069
 11
549.259399999597
 21
5712.996931272069
  0
LINE
  5
4A
100
AcDbEntity
  8
1
  6
CONTINUOUS
 62
           7
100
AcDbLine
 10
-728.000000000001
 20
6212.996931272069
 11
-1799.999999999999
 21
6212.996931272069
  0
LINE
  5
49
100
AcDbEntity
  8
1
  6
CONTINUOUS
 62
           4
100
AcDbLine
 10
-738.000000000001
 20
6192.996931272069
 11
-1480.0
 21
6192.996931272069
  0
LINE
  5
48
100
AcDbEntity
  8
1
  6
CONTINUOUS
 62
           7
100
AcDbLine
 10
322.928563989646
 20
5212.996931272069
 11
1800.000000000001
 21
5212.996931272069
  0
LINE
  5
47
100
AcDbEntity
  8
1
  6
CONTINUOUS
 62
           4
100
AcDbLine
 10
-230.0
 20
5102.876942346947
 11
-229.999999999999
 21
4262.996931272069
  0
LINE
  5
46
100
AcDbEntity
  8
1
  6
CONTINUOUS
 62
           7
100
AcDbLine
 10
-250.0
 20
5108.189983418682
 11
-249.999999999999
 21
4262.996931272069
  0
LINE
  5
45
100
AcDbEntity
  8
1
  6
CONTINUOUS
 62
           4
100
AcDbLine
 10
-435.831483154991
 20
5192.996931272069
 11
-1729.999999999999
 21
5192.996931272069
  0
LINE
  5
44
100
AcDbEntity
  8
1
  6
CONTINUOUS
 62
           4
100
AcDbLine
 10
520.0
 20
5538.593866182963
 11
520.0
 21
5232.996931272069
  0
LINE
  5
43
100
AcDbEntity
  8
1
  6
CONTINUOUS
 62
           7
100
AcDbLine
 10
500.000000000001
 20
5814.555896701157
 11
500.000000000001
 21
6212.996931272069
  0
LINE
  5
42
100
AcDbEntity
  8
1
  6
CONTINUOUS
 62
           7
100
AcDbLine
 10
4112.5
 20
1800.000000000003
 11
4112.5
 21
1770.000000000003
  0
LINE
  5
41
100
AcDbEntity
  8
1
  6
CONTINUOUS
 62
           7
100
AcDbLine
 10
4137.5
 20
1800.000000000003
 11
4137.5
 21
1770.000000000003
  0
LINE
  5
40
100
AcDbEntity
  8
1
  6
CONTINUOUS
 62
           7
100
AcDbLine
 10
4112.5
 20
1770.000000000003
 11
4137.5
 21
1770.000000000003
  0
LINE
  5
3F
100
AcDbEntity
  8
1
  6
CONTINUOUS
 62
           7
100
AcDbLine
 10
4115.0
 20
1770.000000000003
 11
4115.0
 21
1756.750000000003
  0
LINE
  5
3E
100
AcDbEntity
  8
1
  6
CONTINUOUS
 62
           7
100
AcDbLine
 10
4152.0
 20
1739.750000000003
 11
4229.358987904704
 21
1739.750000000003
  0
LINE
  5
3D
100
AcDbEntity
  8
1
  6
CONTINUOUS
 62
           7
100
AcDbLine
 10
4152.0
 20
1719.750000000003
 11
4222.875742457636
 21
1719.750000000004
  0
LINE
  5
3C
100
AcDbEntity
  8
1
  6
DOT_CENTER
 62
           2
100
AcDbLine
 10
0.0
 20
6371.728495216663
 11
0.0
 21
4262.996931272069
  0
LINE
  5
3B
100
AcDbEntity
  8
1
  6
CONTINUOUS
 62
           7
100
AcDbLine
 10
4135.0
 20
1756.750000000003
 11
4135.0
 21
1770.000000000003
  0
LINE
  5
3A
100
AcDbEntity
  8
1
  6
CONTINUOUS
 62
           4
100
AcDbLine
 10
4200.0
 20
1800.000000000003
 11
4230.0
 21
1800.000000000003
  0
LINE
  5
39
100
AcDbEntity
  8
1
  6
CONTINUOUS
 62
           7
100
AcDbLine
 10
4200.0
 20
1800.000000000003
 11
4000.0
 21
1800.000000000003
  0
LINE
  5
38
100
AcDbEntity
  8
1
  6
CONTINUOUS
 62
           7
100
AcDbLine
 10
4000.0
 20
1800.000000000003
 11
4000.0
 21
2200.000000000004
  0
LINE
  5
37
100
AcDbEntity
  8
1
  6
CONTINUOUS
 62
           7
100
AcDbLine
 10
4000.0
 20
2200.000000000004
 11
4200.0
 21
2200.000000000004
  0
LINE
  5
36
100
AcDbEntity
  8
1
  6
CONTINUOUS
 62
           7
100
AcDbLine
 10
4200.0
 20
2200.000000000004
 11
4200.0
 21
1800.000000000003
  0
LINE
  5
35
100
AcDbEntity
  8
1
  6
CONTINUOUS
 62
           4
100
AcDbLine
 10
4200.0
 20
2200.000000000004
 11
4230.0
 21
2200.000000000004
  0
LINE
  5
34
100
AcDbEntity
  8
1
  6
CONTINUOUS
 62
           7
100
AcDbLine
 10
1800.000000000001
 20
2200.000000000004
 11
1960.000000000001
 21
2200.000000000004
  0
LINE
  5
33
100
AcDbEntity
  8
1
  6
CONTINUOUS
 62
           7
100
AcDbLine
 10
1960.000000000001
 20
2200.000000000004
 11
1960.000000000001
 21
1800.000000000003
  0
LINE
  5
32
100
AcDbEntity
  8
1
  6
CONTINUOUS
 62
           7
100
AcDbLine
 10
1960.000000000001
 20
1800.000000000003
 11
1800.000000000001
 21
1800.000000000003
  0
LINE
  5
31
100
AcDbEntity
  8
1
  6
CONTINUOUS
 62
           7
100
AcDbLine
 10
1800.000000000001
 20
5162.996931272069
 11
1960.000000000001
 21
5162.996931272069
  0
LINE
  5
30
100
AcDbEntity
  8
1
  6
CONTINUOUS
 62
           7
100
AcDbLine
 10
1960.000000000001
 20
5162.996931272069
 11
1960.000000000001
 21
4962.996931272069
  0
LINE
  5
2F
100
AcDbEntity
  8
1
  6
CONTINUOUS
 62
           7
100
AcDbLine
 10
1960.000000000001
 20
4962.996931272069
 11
1800.000000000001
 21
4962.996931272069
  0
POINT
  5
2E
100
AcDbEntity
  8
0
 62
           3
100
AcDbPoint
 10
4083.399996721731
 20
1365.000000000117
  0
ENDSEC
  0
SECTION
  2
OBJECTS
  0
DICTIONARY
  5
19
100
AcDbDictionary
  3
ACAD_GROUP
350
1A
  3
ACAD_MLINESTYLE
350
1B
  0
DICTIONARY
  5
1A
102
{ACAD_REACTORS
330
19
102
}
100
AcDbDictionary
  0
DICTIONARY
  5
1B
102
{ACAD_REACTORS
330
19
102
}
100
AcDbDictionary
  3
STANDARD
350
1C
  0
MLINESTYLE
  5
1C
102
{ACAD_REACTORS
330
1B
102
}
100
AcDbMlineStyle
  2
STANDARD
 70
           0
  3

 62
           0
 51
90.0
 52
90.0
 71
           2
 49
0.5
 62
         256
  6
BYLAYER
 49
-0.5
 62
         256
  6
BYLAYER
  0
ENDSEC
  0
EOF
