  0
SECTION
  2
HEADER
  9
$ACADVER
  1
AC1014
  9
$ACADMAINTVER
 70
           0
  9
$DWGCODEPAGE
  3
DOS932
  9
$INSBASE
 10
0.0
 20
0.0
 30
0.0
  9
$EXTMIN
 10
1.000000000000E+20
 20
1.000000000000E+20
 30
1.000000000000E+20
  9
$EXTMAX
 10
-1.000000000000E+20
 20
-1.000000000000E+20
 30
-1.000000000000E+20
  9
$LIMMIN
 10
0.0
 20
0.0
  9
$LIMMAX
 10
0.0
 20
0.0
  9
$ORTHOMODE
 70
           0
  9
$REGENMODE
 70
           1
  9
$FILLMODE
 70
           1
  9
$QTEXTMODE
 70
           0
  9
$MIRRTEXT
 70
           1
  9
$DRAGMODE
 70
           2
  9
$LTSCALE
 40
1.0
  9
$OSMODE
 70
           0
  9
$ATTMODE
 70
           1
  9
$TEXTSIZE
 40
0.2
  9
$TRACEWID
 40
0.05
  9
$TEXTSTYLE
  7
STANDARD
  9
$CLAYER
  8
0
  9
$CELTYPE
  6
CONTINUOUS
  9
$CECOLOR
 62
         256
  9
$CELTSCALE
 40
1.0
  9
$DELOBJ
 70
           1
  9
$DISPSILH
 70
           0
  9
$DIMSCALE
 40
1.0
  9
$DIMASZ
 40
0.18
  9
$DIMEXO
 40
0.0625
  9
$DIMDLI
 40
0.38
  9
$DIMRND
 40
0.0
  9
$DIMDLE
 40
0.0
  9
$DIMEXE
 40
0.18
  9
$DIMTP
 40
0.0
  9
$DIMTM
 40
0.0
  9
$DIMTXT
 40
0.18
  9
$DIMCEN
 40
0.09
  9
$DIMTSZ
 40
0.0
  9
$DIMTOL
 70
           0
  9
$DIMLIM
 70
           0
  9
$DIMTIH
 70
           1
  9
$DIMTOH
 70
           1
  9
$DIMSE1
 70
           0
  9
$DIMSE2
 70
           0
  9
$DIMTAD
 70
           0
  9
$DIMZIN
 70
           0
  9
$DIMBLK
  1

  9
$DIMASO
 70
           1
  9
$DIMSHO
 70
           1
  9
$DIMPOST
  1

  9
$DIMAPOST
  1

  9
$DIMALT
 70
           0
  9
$DIMALTD
 70
           2
  9
$DIMALTF
 40
25.4
  9
$DIMLFAC
 40
1.0
  9
$DIMTOFL
 70
           0
  9
$DIMTVP
 40
0.0
  9
$DIMTIX
 70
           0
  9
$DIMSOXD
 70
           0
  9
$DIMSAH
 70
           0
  9
$DIMBLK1
  1

  9
$DIMBLK2
  1

  9
$DIMSTYLE
  2
STANDARD
  9
$DIMCLRD
 70
           0
  9
$DIMCLRE
 70
           0
  9
$DIMCLRT
 70
           0
  9
$DIMTFAC
 40
1.0
  9
$DIMGAP
 40
0.09
  9
$DIMJUST
 70
           0
  9
$DIMSD1
 70
           0
  9
$DIMSD2
 70
           0
  9
$DIMTOLJ
 70
           1
  9
$DIMTZIN
 70
           0
  9
$DIMALTZ
 70
           0
  9
$DIMALTTZ
 70
           0
  9
$DIMFIT
 70
           3
  9
$DIMUPT
 70
           0
  9
$DIMUNIT
 70
           2
  9
$DIMDEC
 70
           4
  9
$DIMTDEC
 70
           4
  9
$DIMALTU
 70
           2
  9
$DIMALTTD
 70
           2
  9
$DIMTXSTY
  7
STANDARD
  9
$DIMAUNIT
 70
           0
  9
$LUNITS
 70
           2
  9
$LUPREC
 70
           4
  9
$SKETCHINC
 40
0.1
  9
$FILLETRAD
 40
0.0
  9
$AUNITS
 70
           0
  9
$AUPREC
 70
           0
  9
$MENU
  1
acad
  9
$ELEVATION
 40
0.0
  9
$PELEVATION
 40
0.0
  9
$THICKNESS
 40
0.0
  9
$LIMCHECK
 70
           0
  9
$BLIPMODE
 70
           1
  9
$CHAMFERA
 40
0.0
  9
$CHAMFERB
 40
0.0
  9
$CHAMFERC
 40
0.0
  9
$CHAMFERD
 40
0.0
  9
$SKPOLY
 70
           0
  9
$TDCREATE
 40
0.000000000
  9
$TDUPDATE
 40
0.000000000
  9
$TDINDWG
 40
0.0000000000
  9
$TDUSRTIMER
 40
0.0000000000
  9
$USRTIMER
 70
           1
  9
$ANGBASE
 50
0.0
  9
$ANGDIR
 70
           0
  9
$PDMODE
 70
           0
  9
$PDSIZE
 40
0.0
  9
$PLINEWID
 40
0.0
  9
$COORDS
 70
           0
  9
$SPLFRAME
 70
           0
  9
$SPLINETYPE
 70
           6
  9
$SPLINESEGS
 70
           8
  9
$ATTDIA
 70
           0
  9
$ATTREQ
 70
           1
  9
$HANDLING
 70
           1
  9
$HANDSEED
  5
3C1
  9
$SURFTAB1
 70
           6
  9
$SURFTAB2
 70
           6
  9
$SURFTYPE
 70
           6
  9
$SURFU
 70
           6
  9
$SURFV
 70
           6
  9
$UCSNAME
  2

  9
$UCSORG
 10
0.0
 20
0.0
 30
0.0
  9
$UCSXDIR
 10
1.0
 20
0.0
 30
0.0
  9
$UCSYDIR
 10
0.0
 20
1.0
 30
0.0
  9
$PUCSNAME
  2

  9
$PUCSORG
 10
0.0
 20
0.0
 30
0.0
  9
$PUCSXDIR
 10
1.0
 20
0.0
 30
0.0
  9
$PUCSYDIR
 10
0.0
 20
1.0
 30
0.0
  9
$USERI1
 70
           0
  9
$USERI2
 70
           0
  9
$USERI3
 70
           0
  9
$USERI4
 70
           0
  9
$USERI5
 70
           0
  9
$USERR1
 40
0.0
  9
$USERR2
 40
0.0
  9
$USERR3
 40
0.0
  9
$USERR4
 40
0.0
  9
$USERR5
 40
0.0
  9
$WORLDVIEW
 70
           1
  9
$SHADEDGE
 70
           3
  9
$SHADEDIF
 70
          70
  9
$TILEMODE
 70
           1
  9
$MAXACTVP
 70
          16
  9
$PINSBASE
 10
0.0
 20
0.0
 30
0.0
  9
$PLIMCHECK
 70
           0
  9
$PEXTMIN
 10
1.000000000000E+20
 20
1.000000000000E+20
 30
1.000000000000E+20
  9
$PEXTMAX
 10
-1.000000000000E+20
 20
-1.000000000000E+20
 30
-1.000000000000E+20
  9
$PLIMMIN
 10
0.0
 20
0.0
  9
$PLIMMAX
 10
12.0
 20
9.0
  9
$UNITMODE
 70
           0
  9
$VISRETAIN
 70
           0
  9
$PLINEGEN
 70
           1
  9
$PSLTSCALE
 70
           0
  9
$TREEDEPTH
 70
        3020
  9
$PICKSTYLE
 70
           1
  9
$CMLSTYLE
  2
STANDARD
  9
$CMLJUST
 70
           0
  9
$CMLSCALE
 40
1.0
  9
$PROXYGRAPHICS
 70
           0
  9
$MEASUREMENT
 70
           0
  0
ENDSEC
  0
SECTION
  2
CLASSES
  0
CLASS
  1
LWPOLYLINE
  2
AcDbPolyline
  3
"AutoCAD"
 90
        0
280
           0
281
           1
  0
CLASS
  1
IMAGE
  2
AcDbRasterImage
  3
ISM
 90
      127
280
           0
281
           1
  0
CLASS
  1
OLE2FRAME
  2
AcDbOle2Frame
  3
""
 90
        0
280
           0
281
           1
  0
CLASS
  1
HATCH
  2
AcDbHatch
  3
"ACAD_SEDONA"
 90
        0
280
           0
281
           1
  0
CLASS
  1
DICTIONARYVAR
  2
AcDbDictionaryVar
  3
"AutoCAD"
 90
        0
280
           0
281
           0
  0
CLASS
  1
RASTERVARIABLES
  2
AcDbRasterVariables
  3
ISM
 90
        0
280
           0
281
           0
  0
CLASS
  1
IMAGEDEF
  2
AcDbRasterImageDef
  3
ISM
 90
        0
280
           0
281
           0
  0
CLASS
  1
IMAGEDEF_REACTOR
  2
AcDbRasterImageDefReactor
  3
ISM
 90
        1
280
           0
281
           0
  0
CLASS
  1
IDBUFFER
  2
AcDbIdBuffer
  3
"Acad"
 90
        0
280
           0
281
           0
  0
CLASS
  1
SPATIAL_FILTER
  2
AcDbSpatialFilter
  3
"Acad"
 90
        0
280
           0
281
           0
  0
CLASS
  1
XRECORD
  2
AcDbXrecord
  3
"<Built In>"
 90
        0
280
           0
281
           0
  0
CLASS
  1
SORTENTSTABLE
  2
AcDbSortentsTable
  3
"AutoCAD"
 90
        0
280
           0
281
           0
  0
CLASS
  1
LAYER_INDEX
  2
AcDbLayerIndex
  3
"Acad"
 90
        0
280
           0
281
           0
  0
CLASS
  1
SPATIAL_INDEX
  2
AcDbSpatialIndex
  3
"Acad"
 90
        0
280
           0
281
           0
  0
CLASS
  1
OBJECT_PTR
  2
CAseDLPNTableRecord
  3
"ASE-LPNTableRecord"
 90
        1
280
           0
281
           0
  0
CLASS
  1
LAYOUT
  2
AcDbLayout
  3
"AutoCAD 2000"
 90
        1
280
           0
281
           0
  0
CLASS
  1
PLOTSETTINGS
  2
AcDbPlotSettings
  3
"AutoCAD 2000"
 90
        1
280
           0
281
           0
  0
CLASS
  1
ACDBDICTIONARYWDFLT
  2
AcDbDictionaryWithDefault
  3
"AutoCAD 2000"
 90
        1
280
           0
281
           0
  0
CLASS
  1
ACDBPLACEHOLDER
  2
AcDbPlaceHolder
  3
"AutoCAD 2000"
 90
        1
280
           0
281
           0
  0
CLASS
  1
VBA_PROJECT
  2
AcDbVbaProject
  3
"acadvba"
 90
        1
280
           0
281
           0
  0
CLASS
  1
WIPEOUT
  2
AcDbWipeout
  3
WipeOut|AutoCAD Express Tool|expresstools@autodesk.com
 90
      127
280
           0
281
           1
  0
CLASS
  1
WIPEOUTVARIABLES
  2
AcDbWipeoutVariables
  3
WipeOut|AutoCAD Express Tool|expresstools@autodesk.com
 90
        0
280
           0
281
           0
  0
CLASS
  1
RTEXT
  2
RText
  3
RText|AutoCAD Express Tool|expresstools@autodesk.com
 90
        0
280
           0
281
           1
  0
CLASS
  1
ARCALIGNEDTEXT
  2
AcDbArcAlignedText
  3
ATEXT|AutoCAD Express Tool|expresstools@autodesk.com
 90
        0
280
           0
281
           1
  0
ENDSEC
  0
SECTION
  2
TABLES
  0
TABLE
  2
VPORT
  5
7
100
AcDbSymbolTable
 70
           1
  0
VPORT
  5
15
100
AcDbSymbolTableRecord
100
AcDbViewportTableRecord
  2
*ACTIVE
 70
           0
 10
0.0
 20
0.0
 11
1.0
 21
1.0
 12
6.591288
 22
4.579184
 13
0.0
 23
0.0
 14
1.0
 24
1.0
 15
0.0
 25
0.0
 16
0.0
 26
0.0
 36
1.0
 17
0.0
 27
0.0
 37
0.0
 40
9.158369
 41
0.688564
 42
50.0
 43
0.0
 44
0.0
 50
0.0
 51
0.0
 71
           0
 72
         100
 73
           1
 74
           1
 75
           0
 76
           0
 77
           0
 78
           0
  0
ENDTAB
  0
TABLE
  2
LTYPE
  5
4
100
AcDbSymbolTable
 70
          10
  0
LTYPE
  5
11
100
AcDbSymbolTableRecord
100
AcDbLinetypeTableRecord
  2
BYBLOCK
 70
          64
  3

 72
          65
 73
           0
 40
0.0
  0
LTYPE
  5
12
100
AcDbSymbolTableRecord
100
AcDbLinetypeTableRecord
  2
BYLAYER
 70
          64
  3

 72
          65
 73
           0
 40
0.0
  0
LTYPE
  5
13
100
AcDbSymbolTableRecord
100
AcDbLinetypeTableRecord
  2
CONTINUOUS
 70
          64
  3
Solid line
 72
          65
 73
           0
 40
0.0
  0
LTYPE
  5
1D
100
AcDbSymbolTableRecord
100
AcDbLinetypeTableRecord
  2
DASHED
 70
          64
  3
Dashed
 72
          65
 73
           2
 40
15.0
 49
12.0
 74
           0
 49
-3.0
 74
           0
  0
LTYPE
  5
1E
100
AcDbSymbolTableRecord
100
AcDbLinetypeTableRecord
  2
DOTTED
 70
          64
  3
Dotted
 72
          65
 73
           2
 40
3.5
 49
0.5
 74
           0
 49
-3.0
 74
           0
  0
LTYPE
  5
1F
100
AcDbSymbolTableRecord
100
AcDbLinetypeTableRecord
  2
DOT_CENTER
 70
          64
  3
Dot_Center
 72
          65
 73
           4
 40
2.0
 49
1.25
 74
           0
 49
-0.25
 74
           0
 49
0.25
 74
           0
 49
-0.25
 74
           0
  0
LTYPE
  5
20
100
AcDbSymbolTableRecord
100
AcDbLinetypeTableRecord
  2
LONG_DASHED
 70
          64
  3
Long_Dashed
 72
          65
 73
           2
 40
2.0
 49
1.5
 74
           0
 49
-0.5
 74
           0
  0
LTYPE
  5
21
100
AcDbSymbolTableRecord
100
AcDbLinetypeTableRecord
  2
DASH_CENTER
 70
          64
  3
Dash_Center
 72
          65
 73
           4
 40
36.0
 49
24.0
 74
           0
 49
-3.0
 74
           0
 49
6.0
 74
           0
 49
-3.0
 74
           0
  0
LTYPE
  5
22
100
AcDbSymbolTableRecord
100
AcDbLinetypeTableRecord
  2
PHANTOM
 70
          64
  3
Phantom
 72
          65
 73
           6
 40
2.5
 49
1.25
 74
           0
 49
-0.25
 74
           0
 49
0.25
 74
           0
 49
-0.25
 74
           0
 49
0.25
 74
           0
 49
-0.25
 74
           0
  0
LTYPE
  5
23
100
AcDbSymbolTableRecord
100
AcDbLinetypeTableRecord
  2
CENTER_DASH_DASH
 70
          64
  3
Center_Dash_Dash
 72
          65
 73
           6
 40
22.0
 49
12.0
 74
           0
 49
-3.0
 74
           0
 49
0.5
 74
           0
 49
-3.0
 74
           0
 49
0.5
 74
           0
 49
-3.0
 74
           0
  0
ENDTAB
  0
TABLE
  2
LAYER
  5
2
100
AcDbSymbolTable
 70
           9
  0
LAYER
  5
14
100
AcDbSymbolTableRecord
100
AcDbLayerTableRecord
  2
0
 70
           0
 62
           7
  6
CONTINUOUS
  0
LAYER
  5
24
100
AcDbSymbolTableRecord
100
AcDbLayerTableRecord
  2
___S__
 70
           0
 62
           7
  6
CONTINUOUS
  0
LAYER
  5
25
100
AcDbSymbolTableRecord
100
AcDbLayerTableRecord
  2
976
 70
           0
 62
           7
  6
CONTINUOUS
  0
LAYER
  5
26
100
AcDbSymbolTableRecord
100
AcDbLayerTableRecord
  2
FORMAT
 70
           0
 62
           7
  6
CONTINUOUS
  0
LAYER
  5
27
100
AcDbSymbolTableRecord
100
AcDbLayerTableRecord
  2
1
 70
           0
 62
           7
  6
CONTINUOUS
  0
LAYER
  5
28
100
AcDbSymbolTableRecord
100
AcDbLayerTableRecord
  2
2
 70
           0
 62
           7
  6
CONTINUOUS
  0
LAYER
  5
29
100
AcDbSymbolTableRecord
100
AcDbLayerTableRecord
  2
6
 70
           0
 62
           7
  6
CONTINUOUS
  0
LAYER
  5
2A
100
AcDbSymbolTableRecord
100
AcDbLayerTableRecord
  2
7
 70
           0
 62
           7
  6
CONTINUOUS
  0
LAYER
  5
2B
100
AcDbSymbolTableRecord
100
AcDbLayerTableRecord
  2
____
 70
           0
 62
           7
  6
CONTINUOUS
  0
ENDTAB
  0
TABLE
  2
STYLE
  5
3
100
AcDbSymbolTable
 70
           1
  0
STYLE
  5
17
100
AcDbSymbolTableRecord
100
AcDbTextStyleTableRecord
  2
STANDARD
 70
           0
 40
0.0
 41
1.0
 50
0.0
 71
           0
 42
0.0
  3
txt
  4

  0
ENDTAB
  0
TABLE
  2
VIEW
  5
5
100
AcDbSymbolTable
 70
           0
  0
ENDTAB
  0
TABLE
  2
UCS
  5
6
100
AcDbSymbolTable
 70
           0
  0
ENDTAB
  0
TABLE
  2
APPID
  5
8
100
AcDbSymbolTable
 70
           1
  0
APPID
  5
16
100
AcDbSymbolTableRecord
100
AcDbRegAppTableRecord
  2
ACAD
 70
           0
  0
ENDTAB
  0
TABLE
  2
DIMSTYLE
  5
9
100
AcDbSymbolTable
 70
           1
  0
DIMSTYLE
105
18
100
AcDbSymbolTableRecord
100
AcDbDimStyleTableRecord
  2
STANDARD
 70
           0
  3

  4

  5

  6

  7

 40
1.0
 41
0.18
 42
0.0625
 43
0.38
 44
0.18
 45
0.0
 46
0.0
 47
0.0
 48
0.0
 71
           0
 72
           0
 73
           1
 74
           1
 75
           0
 76
           0
 77
           0
 78
           0
140
0.18
141
0.09
142
0.0
143
25.4
144
1.0
145
0.0
146
1.0
147
0.09
170
           0
171
           2
172
           0
173
           0
174
           0
175
           0
176
           0
177
           0
178
           0
270
           2
271
           4
272
           4
273
           2
274
           2
275
           0
280
           0
281
           0
282
           0
283
           1
284
           0
285
           0
286
           0
287
           0
288
           0
340
17
  0
ENDTAB
  0
TABLE
  2
BLOCK_RECORD
  5
1
100
AcDbSymbolTable
 70
           0
  0
BLOCK_RECORD
  5
A
100
AcDbSymbolTableRecord
100
AcDbBlockTableRecord
  2
*MODEL_SPACE
  0
BLOCK_RECORD
  5
B
100
AcDbSymbolTableRecord
100
AcDbBlockTableRecord
  2
*PAPER_SPACE
  0
ENDTAB
  0
ENDSEC
  0
SECTION
  2
BLOCKS
  0
BLOCK
  5
D
100
AcDbEntity
  8
0
100
AcDbBlockBegin
  2
*MODEL_SPACE
 70
           0
 10
0.0
 20
0.0
 30
0.0
  3
*MODEL_SPACE
  1

  0
ENDBLK
  5
E
100
AcDbEntity
  8
0
100
AcDbBlockEnd
  0
BLOCK
  5
F
100
AcDbEntity
 67
           1
  8
0
100
AcDbBlockBegin
  2
*PAPER_SPACE
 70
           0
 10
0.0
 20
0.0
 30
0.0
  3
*PAPER_SPACE
  1

  0
ENDBLK
  5
10
100
AcDbEntity
 67
           1
  8
0
100
AcDbBlockEnd
  0
ENDSEC
  0
SECTION
  2
ENTITIES
  0
HATCH
  5
3BF
100
AcDbEntity
  8
0
  6
CONTINUOUS
 62
           2
100
AcDbHatch
 10
0.0
 20
0.0
 30
0.0
210
0.0
220
0.0
230
1.0
  2
USER
 70
           0
 71
           1
 91
        1
 92
        1
 93
        8
 72
           1
 10
4479.9999999999982
 20
1107.5
 11
4382.4999999999991
 21
1107.5
 72
           2
 10
4479.9999999999982
 20
1112.5
 40
5.0
 50
-90.0
 51
0.0
 73
           1
 72
           1
 10
4484.9999999999991
 20
1112.5
 11
4484.9999999999991
 21
1180.0
 72
           1
 10
4499.9999999999991
 20
1180.0
 11
4484.9999999999991
 21
1180.0
 72
           1
 10
4499.9999999999991
 20
1112.5
 11
4499.9999999999991
 21
1180.0
 72
           2
 10
4479.9999999999982
 20
1112.5
 40
20.0
 50
-90.0
 51
0.0
 73
           1
 72
           1
 10
4382.4999999999991
 20
1107.5
 11
4382.4999999999991
 21
1092.5
 72
           1
 10
4382.4999999999991
 20
1092.5
 11
4479.9999999999982
 21
1092.5
 97
        7
330
4E
330
3A5
330
50
330
3A3
330
4F
330
3A6
330
3A4
 75
           1
 76
           0
 52
45.0
 41
10.0
 77
           0
 78
           1
 53
45.0
 43
0.0
 44
0.0
 45
-7.0710678118654746
 46
7.0710678118654755
 79
           0
 98
        1
 10
0.0
 20
0.0
  0
ARC
  5
3BE
100
AcDbEntity
  8
1
  6
CONTINUOUS
 62
           4
100
AcDbCircle
 10
6417.999999999999
 20
2730.5
 40
1.0
100
AcDbArc
 50
180.0
 51
-90.0
  0
ARC
  5
3BD
100
AcDbEntity
  8
1
  6
CONTINUOUS
 62
           4
100
AcDbCircle
 10
6406.999999999999
 20
2730.5
 40
1.0
100
AcDbArc
 50
-90.0
 51
0.0
  0
ARC
  5
3BC
100
AcDbEntity
  8
1
  6
CONTINUOUS
 62
           4
100
AcDbCircle
 10
6406.999999999999
 20
2169.5
 40
1.0
100
AcDbArc
 50
0.0
 51
90.0
  0
ARC
  5
3BB
100
AcDbEntity
  8
1
  6
CONTINUOUS
 62
           4
100
AcDbCircle
 10
6417.999999999999
 20
2169.5
 40
1.0
100
AcDbArc
 50
90.0
 51
180.0
  0
ARC
  5
3BA
100
AcDbEntity
  8
1
  6
CONTINUOUS
 62
           7
100
AcDbCircle
 10
5877.499999999999
 20
2834.199999999997
 40
10.0
100
AcDbArc
 50
-90.0
 51
0.0
  0
ARC
  5
3B9
100
AcDbEntity
  8
1
  6
CONTINUOUS
 62
           7
100
AcDbCircle
 10
5767.499999999999
 20
2834.199999999997
 40
10.0
100
AcDbArc
 50
180.0
 51
-90.0
  0
ARC
  5
3B8
100
AcDbEntity
  8
1
  6
CONTINUOUS
 62
           7
100
AcDbCircle
 10
5877.499999999999
 20
2934.199999999997
 40
10.0
100
AcDbArc
 50
0.0
 51
90.0
  0
ARC
  5
3B7
100
AcDbEntity
  8
1
  6
CONTINUOUS
 62
           7
100
AcDbCircle
 10
5767.499999999999
 20
2934.199999999997
 40
10.0
100
AcDbArc
 50
90.0
 51
180.0
  0
ARC
  5
3B6
100
AcDbEntity
  8
1
  6
CONTINUOUS
 62
           7
100
AcDbCircle
 10
161.076192999999
 20
2935.0
 40
10.0
100
AcDbArc
 50
90.0
 51
180.0
  0
ARC
  5
3B5
100
AcDbEntity
  8
1
  6
CONTINUOUS
 62
           7
100
AcDbCircle
 10
161.076192999999
 20
2835.0
 40
10.0
100
AcDbArc
 50
180.0
 51
-90.0
  0
ARC
  5
3B4
100
AcDbEntity
  8
1
  6
CONTINUOUS
 62
           7
100
AcDbCircle
 10
246.0
 20
2935.0
 40
10.0
100
AcDbArc
 50
0.0
 51
90.0
  0
ARC
  5
3B3
100
AcDbEntity
  8
1
  6
CONTINUOUS
 62
           7
100
AcDbCircle
 10
246.0
 20
2835.0
 40
10.0
100
AcDbArc
 50
-90.0
 51
0.0
  0
ARC
  5
3B2
100
AcDbEntity
  8
1
  6
CONTINUOUS
 62
           4
100
AcDbCircle
 10
181.31940966506
 20
6015.12329172748
 40
10.0
100
AcDbArc
 50
90.0
 51
180.0
  0
ARC
  5
3B1
100
AcDbEntity
  8
1
  6
CONTINUOUS
 62
           4
100
AcDbCircle
 10
181.31940966506
 20
5915.12329172748
 40
10.0
100
AcDbArc
 50
180.0
 51
-90.0
  0
ARC
  5
3B0
100
AcDbEntity
  8
1
  6
CONTINUOUS
 62
           7
100
AcDbCircle
 10
196.0
 20
5910.12329172748
 40
10.0
100
AcDbArc
 50
180.0
 51
-90.0
  0
ARC
  5
3AF
100
AcDbEntity
  8
1
  6
CONTINUOUS
 62
           7
100
AcDbCircle
 10
196.0
 20
6020.12329172748
 40
10.0
100
AcDbArc
 50
90.0
 51
180.0
  0
ARC
  5
3AE
100
AcDbEntity
  8
1
  6
CONTINUOUS
 62
           7
100
AcDbCircle
 10
246.0
 20
5910.12329172748
 40
10.0
100
AcDbArc
 50
-90.0
 51
0.0
  0
ARC
  5
3AD
100
AcDbEntity
  8
1
  6
CONTINUOUS
 62
           7
100
AcDbCircle
 10
246.0
 20
6020.12329172748
 40
10.0
100
AcDbArc
 50
0.0
 51
90.0
  0
ARC
  5
3AC
100
AcDbEntity
  8
1
  6
CONTINUOUS
 62
           3
100
AcDbCircle
 10
5382.399996810935
 20
1639.110868296099
 40
58.0
100
AcDbArc
 50
90.0
 51
180.0
  0
ARC
  5
3AB
100
AcDbEntity
  8
1
  6
CONTINUOUS
 62
           3
100
AcDbCircle
 10
5384.489640809793
 20
1379.1108682961
 40
317.999999999999
100
AcDbArc
 50
45.0
 51
90.0
  0
ARC
  5
3AA
100
AcDbEntity
  8
1
  6
CONTINUOUS
 62
           3
100
AcDbCircle
 10
5384.489640809793
 20
1379.1108682961
 40
310.000000000001
100
AcDbArc
 50
45.0
 51
90.0
  0
ARC
  5
3A9
100
AcDbEntity
  8
1
  6
CONTINUOUS
 62
           3
100
AcDbCircle
 10
5382.399998122329
 20
1639.110868296101
 40
50.0
100
AcDbArc
 50
90.0
 51
180.0
  0
ARC
  5
3A8
100
AcDbEntity
  8
1
  6
CONTINUOUS
 62
           3
100
AcDbCircle
 10
5762.020471516057
 20
1435.46960219722
 40
0.499999999998
100
AcDbArc
 50
135.000000000037
 51
-134.999999999797
  0
ARC
  5
3A7
100
AcDbEntity
  8
1
  6
CONTINUOUS
 62
           3
100
AcDbCircle
 10
5772.193965493826
 20
1445.643096174988
 40
0.499999999999
100
AcDbArc
 50
45.000000000055
 51
135.000000000092
  0
ARC
  5
3A6
100
AcDbEntity
  8
1
  6
CONTINUOUS
 62
           7
100
AcDbCircle
 10
4479.999999999998
 20
1112.5
 40
20.0
100
AcDbArc
 50
-90.0
 51
0.0
  0
ARC
  5
3A5
100
AcDbEntity
  8
1
  6
CONTINUOUS
 62
           7
100
AcDbCircle
 10
4479.999999999998
 20
1112.5
 40
5.0
100
AcDbArc
 50
-90.0
 51
0.0
  0
LWPOLYLINE
  5
3A4
100
AcDbEntity
  8
1
  6
CONTINUOUS
 62
           7
 60
           1
100
AcDbPolyline
 90
        3
 70
           0
 10
4382.499999999999
 20
1107.5
 10
4382.499999999999
 20
1092.5
 10
4479.999999999998
 20
1092.5
  0
LWPOLYLINE
  5
3A3
100
AcDbEntity
  8
1
  6
CONTINUOUS
 62
           7
 60
           1
100
AcDbPolyline
 90
        2
 70
           0
 10
4499.999999999999
 20
1180.0
 10
4484.999999999999
 20
1180.0
  0
SPLINE
  5
3A2
100
AcDbEntity
  8
0
  6
CONTINUOUS
 62
           3
100
AcDbSpline
210
0.0
220
0.0
230
1.0
 70
           0
 71
           3
 72
           8
 73
           5
 74
           7
 42
0.00000000001
 43
0.00000000001
 44
0.00000000001
 40
0.0
 40
0.0
 40
0.0
 40
0.2989651950319967
 40
0.4296296276529574
 40
0.4465803504019732
 40
0.4465803504019732
 40
0.4465803504019732
 10
5283.3999966098681
 20
1384.6465796233019
 30
0.0
 10
5283.3999966099154
 20
1384.466936563425
 30
0.0
 10
5283.3999966099154
 20
1384.2282922931149
 30
0.0
 10
5283.3999966099154
 20
1384.205607698183
 30
0.0
 10
5283.3999966099154
 20
1384.1999992729
 30
0.0
 11
5283.3999966098681
 21
1384.6465796233019
 31
0.0
 11
5283.3999966099036
 21
1384.4703311443229
 31
0.0
 11
5283.3999966099163
 21
1384.3008718271399
 31
0.0
 11
5283.3999966099163
 21
1384.2414172487579
 31
0.0
 11
5283.3999966099154
 21
1384.2082125816614
 31
0.0
 11
5283.3999966099154
 21
1384.2048568127318
 31
0.0
 11
5283.3999966099154
 21
1384.1999992729
 31
0.0
  0
SPLINE
  5
3A1
100
AcDbEntity
  8
0
  6
CONTINUOUS
 62
           3
100
AcDbSpline
210
0.0
220
0.0
230
1.0
 70
           0
 71
           3
 72
           8
 73
           5
 74
           7
 42
0.00000000001
 43
0.00000000001
 44
0.00000000001
 40
0.0
 40
0.0
 40
0.0
 40
0.0169507227490158
 40
0.1476151553699765
 40
0.4465803504019732
 40
0.4465803504019732
 40
0.4465803504019732
 10
5273.3999968334374
 20
1384.1999992729
 30
0.0
 10
5273.3999968334374
 20
1384.205607698183
 30
0.0
 10
5273.3999968334374
 20
1384.2282922931149
 30
0.0
 10
5273.3999968334374
 20
1384.466936563425
 30
0.0
 10
5273.3999968334774
 20
1384.6465796233019
 30
0.0
 11
5273.3999968334374
 21
1384.1999992729
 31
0.0
 11
5273.3999968334374
 21
1384.2048568127318
 31
0.0
 11
5273.3999968334374
 21
1384.2082125816612
 31
0.0
 11
5273.3999968334383
 21
1384.2414172487577
 31
0.0
 11
5273.3999968334374
 21
1384.3008718271399
 31
0.0
 11
5273.3999968334483
 21
1384.4703311443232
 31
0.0
 11
5273.3999968334774
 21
1384.6465796233019
 31
0.0
  0
SPLINE
  5
3A0
100
AcDbEntity
  8
0
  6
CONTINUOUS
 62
           3
100
AcDbSpline
210
0.0
220
0.0
230
1.0
 70
           0
 71
           3
 72
           8
 73
           5
 74
           7
 42
0.00000000001
 43
0.00000000001
 44
0.00000000001
 40
0.0
 40
0.0
 40
0.0
 40
0.4813883392842279
 40
1.3325653926440109
 40
2.559491048831116
 40
2.559491048831116
 40
2.559491048831116
 10
5280.8999966657648
 20
1384.1999992729
 30
0.0
 10
5280.9592614719477
 20
1384.2004449713099
 30
0.0
 10
5281.8034813132954
 20
1384.2067938900659
 30
0.0
 10
5282.6307773327844
 20
1384.4346858415561
 30
0.0
 10
5283.3999966098681
 20
1384.6465796233019
 30
0.0
 11
5280.8999966657648
 21
1384.1999992729
 31
0.0
 11
5281.0206887308841
 21
1384.2009069323501
 31
0.0
 11
5281.2642353138772
 21
1384.2027385138806
 31
0.0
 11
5281.7533835507465
 21
1384.2291158030614
 31
0.0
 11
5282.1423362625192
 21
1384.3001369182343
 31
0.0
 11
5282.7009718844884
 21
1384.4540220561621
 31
0.0
 11
5283.3999966098681
 21
1384.6465796233019
 31
0.0
  0
SPLINE
  5
39F
100
AcDbEntity
  8
0
  6
CONTINUOUS
 62
           3
100
AcDbSpline
210
0.0
220
0.0
230
1.0
 70
           0
 71
           3
 72
           8
 73
           5
 74
           7
 42
0.00000000001
 43
0.00000000001
 44
0.00000000001
 40
0.0
 40
0.0
 40
0.0
 40
0.4813884775056222
 40
1.3325655942390287
 40
2.5594910572531564
 40
2.5594910572531564
 40
2.5594910572531564
 10
5275.8999967775571
 20
1384.1999992729
 30
0.0
 10
5275.9592615843994
 20
1384.200444971553
 30
0.0
 10
5276.8034817008338
 20
1384.206793895828
 30
0.0
 10
5277.6307775679634
 20
1384.4346858417271
 30
0.0
 10
5278.3999967216778
 20
1384.6465796232951
 30
0.0
 11
5275.8999967775571
 21
1384.1999992729
 31
0.0
 11
5276.0206888783723
 21
1384.2009069331086
 31
0.0
 11
5276.2642355671342
 21
1384.202738516429
 31
0.0
 11
5276.7533839007119
 21
1384.2291158106427
 31
0.0
 11
5277.1423366340459
 21
1384.3001369344861
 31
0.0
 11
5277.7009721229124
 21
1384.4540220603087
 31
0.0
 11
5278.3999967216778
 21
1384.6465796232951
 31
0.0
  0
SPLINE
  5
39E
100
AcDbEntity
  8
0
  6
CONTINUOUS
 62
           3
100
AcDbSpline
210
0.0
220
0.0
230
1.0
 70
           0
 71
           3
 72
           8
 73
           5
 74
           7
 42
0.00000000001
 43
0.00000000001
 44
0.00000000001
 40
0.0
 40
0.0
 40
0.0
 40
0.2779454797471107
 40
0.7862825386906907
 40
1.5429638907224874
 40
1.5429638907224874
 40
1.5429638907224874
 10
5274.0698696873487
 20
1367.5999939442549
 30
0.0
 10
5274.104086231926
 20
1367.600439636512
 30
0.0
 10
5274.5914969500354
 20
1367.606788471174
 30
0.0
 10
5275.0691364171989
 20
1367.834684325677
 30
0.0
 10
5275.513245287847
 20
1368.046581745235
 30
0.0
 11
5274.0698696873487
 21
1367.5999939442549
 31
0.0
 11
5274.1386061814983
 21
1367.600889280815
 31
0.0
 11
5274.2763825747952
 21
1367.6026839059814
 31
0.0
 11
5274.5607022116128
 21
1367.6286568402281
 31
0.0
 11
5274.7834323715806
 21
1367.6983665125831
 31
0.0
 11
5275.1087376234573
 21
1367.853579227293
 31
0.0
 11
5275.513245287847
 21
1368.046581745235
 31
0.0
  0
SPLINE
  5
39D
100
AcDbEntity
  8
0
  6
CONTINUOUS
 62
           3
100
AcDbSpline
210
0.0
220
0.0
230
1.0
 70
           0
 71
           3
 72
           8
 73
           5
 74
           7
 42
0.00000000001
 43
0.00000000001
 44
0.00000000001
 40
0.0
 40
0.0
 40
0.0
 40
0.2779464854372303
 40
0.7862840843767363
 40
1.5429642658567384
 40
1.5429642658567384
 40
1.5429642658567384
 10
5274.0698696873487
 20
1372.6000040770409
 30
0.0
 10
5274.0356531379848
 20
1372.599558381668
 30
0.0
 10
5273.5482404188851
 20
1372.59320947744
 30
0.0
 10
5273.0706019393438
 20
1372.365313693474
 30
0.0
 10
5272.6264938539762
 20
1372.1534162761091
 30
0.0
 11
5274.0698696873487
 21
1372.6000040770409
 31
0.0
 11
5274.0011329415956
 21
1372.5991087310688
 31
0.0
 11
5273.8633558030615
 21
1372.5973140838987
 31
0.0
 11
5273.5790354338696
 21
1372.5713410900564
 31
0.0
 11
5273.3563050946468
 21
1372.5016313214464
 31
0.0
 11
5273.0310007068274
 21
1372.3464187461259
 31
0.0
 11
5272.6264938539762
 21
1372.1534162761091
 31
0.0
  0
SPLINE
  5
39C
100
AcDbEntity
  8
0
  6
CONTINUOUS
 62
           3
100
AcDbSpline
210
0.0
220
0.0
230
1.0
 70
           0
 71
           3
 72
           8
 73
           5
 74
           7
 42
0.00000000001
 43
0.00000000001
 44
0.00000000001
 40
0.0
 40
0.0
 40
0.0
 40
0.2779464854282354
 40
0.7862840843632371
 40
1.5429642658963338
 40
1.5429642658963338
 40
1.5429642658963338
 10
5282.7301237560068
 20
1367.5999939442549
 30
0.0
 10
5282.7643403053671
 20
1367.6004396396349
 30
0.0
 10
5283.2517530244559
 20
1367.606788543864
 30
0.0
 10
5283.7293915040027
 20
1367.834684327823
 30
0.0
 10
5284.1734995893694
 20
1368.046581745311
 30
0.0
 11
5282.7301237560068
 21
1367.5999939442549
 31
0.0
 11
5282.7988605017554
 21
1367.6008892902323
 31
0.0
 11
5282.9366376402841
 21
1367.6026839374044
 31
0.0
 11
5283.2209580094705
 21
1367.6286569312458
 31
0.0
 11
5283.4436883486869
 21
1367.6983666998503
 31
0.0
 11
5283.7689927365154
 21
1367.8535792752018
 31
0.0
 11
5284.1734995893694
 21
1368.046581745311
 31
0.0
  0
SPLINE
  5
39B
100
AcDbEntity
  8
0
  6
CONTINUOUS
 62
           3
100
AcDbSpline
210
0.0
220
0.0
230
1.0
 70
           0
 71
           3
 72
           8
 73
           5
 74
           7
 42
0.00000000001
 43
0.00000000001
 44
0.00000000001
 40
0.0
 40
0.0
 40
0.0
 40
0.2779454797516238
 40
0.7862825386955912
 40
1.5429638907284651
 40
1.5429638907284651
 40
1.5429638907284651
 10
5282.7301237560068
 20
1372.6000040770409
 30
0.0
 10
5282.6959072114269
 20
1372.599558384783
 30
0.0
 10
5282.2084964933138
 20
1372.593209550128
 30
0.0
 10
5281.7308570261557
 20
1372.36531369562
 30
0.0
 10
5281.2867481555049
 20
1372.153416276062
 30
0.0
 11
5282.7301237560068
 21
1372.6000040770409
 31
0.0
 11
5282.6613872618536
 21
1372.5991087404807
 31
0.0
 11
5282.523610868554
 21
1372.5973141153161
 31
0.0
 11
5282.2392912317382
 21
1372.5713411810721
 31
0.0
 11
5282.0165610717704
 21
1372.5016315087169
 31
0.0
 11
5281.6912558198974
 21
1372.3464187940046
 31
0.0
 11
5281.2867481555049
 21
1372.153416276062
 31
0.0
  0
SPLINE
  5
39A
100
AcDbEntity
  8
0
  6
CONTINUOUS
 62
           3
100
AcDbSpline
210
0.0
220
0.0
230
1.0
 70
           0
 71
           3
 72
           8
 73
           5
 74
           7
 42
0.00000000001
 43
0.00000000001
 44
0.00000000001
 40
0.0
 40
0.0
 40
0.0
 40
0.709710718913952
 40
1.6878556121190167
 40
2.935415097411866
 40
2.935415097411866
 40
2.935415097411866
 10
5275.513245287847
 20
1368.046581745235
 30
0.0
 10
5275.7266018694982
 20
1367.986940602696
 30
0.0
 10
5276.6669045504659
 20
1367.7240908429519
 30
0.0
 10
5277.644341891687
 20
1367.654102099867
 30
0.0
 10
5278.3999967216778
 20
1367.5999939442549
 30
0.0
 11
5275.513245287847
 21
1368.046581745235
 31
0.0
 11
5275.7721075078025
 21
1367.9742200752128
 31
0.0
 11
5276.1219810043685
 21
1367.8764173502241
 31
0.0
 11
5276.638063862858
 21
1367.754482866841
 31
0.0
 11
5277.0964653461306
 21
1367.6933324312367
 31
0.0
 11
5277.6962864627958
 21
1367.6503826438066
 31
0.0
 11
5278.3999967216778
 21
1367.5999939442549
 31
0.0
  0
SPLINE
  5
399
100
AcDbEntity
  8
0
  6
CONTINUOUS
 62
           3
100
AcDbSpline
210
0.0
220
0.0
230
1.0
 70
           0
 71
           3
 72
           8
 73
           5
 74
           7
 42
0.00000000001
 43
0.00000000001
 44
0.00000000001
 40
0.0
 40
0.0
 40
0.0
 40
0.7273681394911705
 40
1.7065914567890048
 40
2.9387223240291553
 40
2.9387223240291553
 40
2.9387223240291553
 10
5278.3999967216778
 20
1367.5999939442549
 30
0.0
 10
5278.6387195010357
 20
1367.6054734833269
 30
0.0
 10
5279.6156271469854
 20
1367.6278969974519
 30
0.0
 10
5280.5674888562471
 20
1367.86637762072
 30
0.0
 10
5281.2867481553658
 20
1368.046581745311
 30
0.0
 11
5278.3999967216778
 21
1367.5999939442549
 31
0.0
 11
5278.6831310149764
 21
1367.606492885943
 31
0.0
 11
5279.0550883361557
 21
1367.6150306328632
 31
0.0
 11
5279.5808673755155
 21
1367.6510811733842
 31
0.0
 11
5280.0371268719364
 21
1367.7335000657713
 31
0.0
 11
5280.6147131849493
 21
1367.8782092631304
 31
0.0
 11
5281.2867481553658
 21
1368.046581745311
 31
0.0
  0
SPLINE
  5
398
100
AcDbEntity
  8
0
  6
CONTINUOUS
 62
           3
100
AcDbSpline
210
0.0
220
0.0
230
1.0
 70
           0
 71
           3
 72
           8
 73
           5
 74
           7
 42
0.00000000001
 43
0.00000000001
 44
0.00000000001
 40
0.0
 40
0.0
 40
0.0
 40
1.2321308673573936
 40
2.2113541846554048
 40
2.9387223241465046
 40
2.9387223241465046
 40
2.9387223241465046
 10
5281.2867481555049
 20
1372.153416276062
 30
0.0
 10
5280.5674888562471
 20
1372.3336204005791
 30
0.0
 10
5279.6156271469854
 20
1372.572101023849
 30
0.0
 10
5278.6387195010357
 20
1372.5945245379701
 30
0.0
 10
5278.3999967216778
 20
1372.6000040770409
 30
0.0
 11
5281.2867481555049
 21
1372.153416276062
 31
0.0
 11
5280.6147131849784
 21
1372.3217887581889
 31
0.0
 11
5280.0371268719136
 21
1372.4664979555346
 31
0.0
 11
5279.58086737551
 21
1372.5489168479169
 31
0.0
 11
5279.0550883361557
 21
1372.5849673884354
 31
0.0
 11
5278.6831310149764
 21
1372.593505135354
 31
0.0
 11
5278.3999967216778
 21
1372.6000040770409
 31
0.0
  0
SPLINE
  5
397
100
AcDbEntity
  8
0
  6
CONTINUOUS
 62
           3
100
AcDbSpline
210
0.0
220
0.0
230
1.0
 70
           0
 71
           3
 72
           8
 73
           5
 74
           7
 42
0.00000000001
 43
0.00000000001
 44
0.00000000001
 40
0.0
 40
0.0
 40
0.0
 40
1.2475616964922178
 40
2.2257084622414687
 40
2.9354211178796286
 40
2.9354211178796286
 40
2.9354211178796286
 10
5278.3999967216778
 20
1372.6000040770409
 30
0.0
 10
5277.6443400642574
 20
1372.5459088094719
 30
0.0
 10
5276.6668989125874
 20
1372.475936633469
 30
0.0
 10
5275.7266017037664
 20
1372.21306311116
 30
0.0
 10
5275.513245287847
 20
1372.153416276062
 30
0.0
 11
5278.3999967216778
 21
1372.6000040770409
 31
0.0
 11
5277.6962845668077
 21
1372.5496273656929
 31
0.0
 11
5277.0964614170371
 21
1372.5066877667873
 31
0.0
 11
5276.6380594916363
 21
1372.445539360308
 31
0.0
 11
5276.1219787243317
 21
1372.3235964075061
 31
0.0
 11
5275.7721068549272
 21
1372.2257847264718
 31
0.0
 11
5275.513245287847
 21
1372.153416276062
 31
0.0
  0
SPLINE
  5
396
100
AcDbEntity
  8
0
  6
CONTINUOUS
 62
           3
100
AcDbSpline
210
0.0
220
0.0
230
1.0
 70
           0
 71
           3
 72
           8
 73
           5
 74
           7
 42
0.00000000001
 43
0.00000000001
 44
0.00000000001
 40
0.0
 40
0.0
 40
0.0
 40
0.2779452695546022
 40
0.7862805426577674
 40
1.5429573554978033
 40
1.5429573554978033
 40
1.5429573554978033
 10
5274.0698696873487
 20
1372.6000040770409
 30
0.0
 10
5274.1040862308764
 20
1372.6004497818089
 30
0.0
 10
5274.5914965280863
 20
1372.6067987893659
 30
0.0
 10
5275.0691362283669
 20
1372.8346868330859
 30
0.0
 10
5275.513245287847
 20
1373.04657697686
 30
0.0
 11
5274.0698696873487
 21
1372.6000040770409
 31
0.0
 11
5274.1386062202882
 21
1372.6008994392637
 31
0.0
 11
5274.2763827320514
 21
1372.6026941163957
 31
0.0
 11
5274.5607020292273
 21
1372.6286663808407
 31
0.0
 11
5274.7834323286879
 21
1372.6983738282361
 31
0.0
 11
5275.108737518317
 21
1372.8535811178167
 31
0.0
 11
5275.513245287847
 21
1373.04657697686
 31
0.0
  0
SPLINE
  5
395
100
AcDbEntity
  8
0
  6
CONTINUOUS
 62
           3
100
AcDbSpline
210
0.0
220
0.0
230
1.0
 70
           0
 71
           3
 72
           8
 73
           5
 74
           7
 42
0.00000000001
 43
0.00000000001
 44
0.00000000001
 40
0.0
 40
0.0
 40
0.0
 40
0.2779463803328208
 40
0.786283086339877
 40
1.5429609982605341
 40
1.5429609982605341
 40
1.5429609982605341
 10
5274.0698696873487
 20
1377.5999993086659
 30
0.0
 10
5274.0356531385078
 20
1377.599553607037
 30
0.0
 10
5273.5482406298779
 20
1377.593204616358
 30
0.0
 10
5273.0706020337648
 20
1377.3653127377879
 30
0.0
 10
5272.6264938539762
 20
1377.1534189582039
 30
0.0
 11
5274.0698696873487
 21
1377.5999993086659
 31
0.0
 11
5274.0011329222007
 21
1377.5991039498617
 31
0.0
 11
5273.8633557244384
 21
1377.5973092767078
 31
0.0
 11
5273.5790355250774
 21
1377.5713366177661
 31
0.0
 11
5273.3563051161145
 21
1377.5016279616407
 31
0.0
 11
5273.0310007594053
 21
1377.3464180988551
 31
0.0
 11
5272.6264938539762
 21
1377.1534189582039
 31
0.0
  0
SPLINE
  5
394
100
AcDbEntity
  8
0
  6
CONTINUOUS
 62
           3
100
AcDbSpline
210
0.0
220
0.0
230
1.0
 70
           0
 71
           3
 72
           8
 73
           5
 74
           7
 42
0.00000000001
 43
0.00000000001
 44
0.00000000001
 40
0.0
 40
0.0
 40
0.0
 40
0.277946275241148
 40
0.7862820883294368
 40
1.5429577306529678
 40
1.5429577306529678
 40
1.5429577306529678
 10
5282.7301237560068
 20
1372.6000040770409
 30
0.0
 10
5282.7643403043257
 20
1372.6004497849281
 30
0.0
 10
5283.2517526025094
 20
1372.606798862053
 30
0.0
 10
5283.729391315168
 20
1372.8346868352351
 30
0.0
 10
5284.1734995893694
 20
1373.046576976911
 30
0.0
 11
5282.7301237560068
 21
1372.6000040770409
 31
0.0
 11
5282.7988605405526
 21
1372.6008994486781
 31
0.0
 11
5282.9366377975512
 21
1372.6026941478153
 31
0.0
 11
5283.2209578270922
 21
1372.6286664718552
 31
0.0
 11
5283.443688305797
 21
1372.6983740154992
 31
0.0
 11
5283.768992631376
 21
1372.8535811657202
 31
0.0
 11
5284.1734995893694
 21
1373.046576976911
 31
0.0
  0
SPLINE
  5
393
100
AcDbEntity
  8
0
  6
CONTINUOUS
 62
           3
100
AcDbSpline
210
0.0
220
0.0
230
1.0
 70
           0
 71
           3
 72
           8
 73
           5
 74
           7
 42
0.00000000001
 43
0.00000000001
 44
0.00000000001
 40
0.0
 40
0.0
 40
0.0
 40
0.2779453746513154
 40
0.7862815406658656
 40
1.5429606230904371
 40
1.5429606230904371
 40
1.5429606230904371
 10
5282.7301237560068
 20
1377.5999993086659
 30
0.0
 10
5282.6959072119544
 20
1377.5995536101509
 30
0.0
 10
5282.2084967042938
 20
1377.593204689045
 30
0.0
 10
5281.7308571205767
 20
1377.365312739938
 30
0.0
 10
5281.2867481555049
 20
1377.1534189582669
 30
0.0
 11
5282.7301237560068
 21
1377.5999993086659
 31
0.0
 11
5282.6613872424614
 21
1377.5991039592732
 31
0.0
 11
5282.52361078993
 21
1377.5973093081241
 31
0.0
 11
5282.2392913229351
 21
1377.5713367087801
 31
0.0
 11
5282.0165610932227
 21
1377.5016281489065
 31
0.0
 11
5281.6912558724698
 21
1377.3464181467623
 31
0.0
 11
5281.2867481555049
 21
1377.1534189582669
 31
0.0
  0
SPLINE
  5
392
100
AcDbEntity
  8
0
  6
CONTINUOUS
 62
           3
100
AcDbSpline
210
0.0
220
0.0
230
1.0
 70
           0
 71
           3
 72
           8
 73
           5
 74
           7
 42
0.00000000001
 43
0.00000000001
 44
0.00000000001
 40
0.0
 40
0.0
 40
0.0
 40
0.7097104926820577
 40
1.687855056019794
 40
2.9354142011749564
 40
2.9354142011749564
 40
2.9354142011749564
 10
5275.513245287847
 20
1373.04657697686
 30
0.0
 10
5275.7266018489581
 20
1372.9869356693489
 30
0.0
 10
5276.6669038516557
 20
1372.7240853468579
 30
0.0
 10
5277.6443416651764
 20
1372.654105412621
 30
0.0
 10
5278.3999967216778
 20
1372.6000040770409
 30
0.0
 11
5275.513245287847
 21
1373.04657697686
 31
0.0
 11
5275.7721074221563
 21
1372.9742151236569
 31
0.0
 11
5276.1219807028619
 21
1372.8764121790696
 31
0.0
 11
5276.6380633113768
 21
1372.7544784200811
 31
0.0
 11
5277.0964648393328
 21
1372.6933308075384
 31
0.0
 11
5277.6962862228402
 21
1372.6503864274555
 31
0.0
 11
5278.3999967216778
 21
1372.6000040770409
 31
0.0
  0
SPLINE
  5
391
100
AcDbEntity
  8
0
  6
CONTINUOUS
 62
           3
100
AcDbSpline
210
0.0
220
0.0
230
1.0
 70
           0
 71
           3
 72
           8
 73
           5
 74
           7
 42
0.00000000001
 43
0.00000000001
 44
0.00000000001
 40
0.0
 40
0.0
 40
0.0
 40
0.7273675739554958
 40
1.7065896374626726
 40
2.9387184666008546
 40
2.9387184666008546
 40
2.9387184666008546
 10
5278.3999967216778
 20
1372.6000040770409
 30
0.0
 10
5278.6387194651588
 20
1372.605483801264
 30
0.0
 10
5279.6156260260959
 20
1372.6279080515201
 30
0.0
 10
5280.5674885010558
 20
1372.866379694286
 30
0.0
 10
5281.2867481553658
 20
1373.046576976911
 30
0.0
 11
5278.3999967216778
 21
1372.6000040770409
 31
0.0
 11
5278.6831309024928
 21
1372.6065032367185
 31
0.0
 11
5279.0550879579769
 21
1372.6150412673053
 31
0.0
 11
5279.5808665470131
 21
1372.651091133866
 31
0.0
 11
5280.0371261778837
 21
1372.733507165118
 31
0.0
 11
5280.6147128338407
 21
1372.8782108826504
 31
0.0
 11
5281.2867481553658
 21
1373.046576976911
 31
0.0
  0
SPLINE
  5
390
100
AcDbEntity
  8
0
  6
CONTINUOUS
 62
           3
100
AcDbSpline
210
0.0
220
0.0
230
1.0
 70
           0
 71
           3
 72
           8
 73
           5
 74
           7
 42
0.00000000001
 43
0.00000000001
 44
0.00000000001
 40
0.0
 40
0.0
 40
0.0
 40
1.2321298483013359
 40
2.2113525386978461
 40
2.9387203954173868
 40
2.9387203954173868
 40
2.9387203954173868
 10
5281.2867481555049
 20
1377.1534189582669
 30
0.0
 10
5280.5674886786474
 20
1377.333619661815
 30
0.0
 10
5279.6156265865357
 20
1377.572095794832
 30
0.0
 10
5278.638719483095
 20
1377.5945196770231
 30
0.0
 10
5278.3999967216778
 20
1377.5999993086659
 30
0.0
 11
5281.2867481555049
 21
1377.1534189582669
 31
0.0
 11
5280.6147130094205
 21
1377.3217882464439
 31
0.0
 11
5280.0371265248823
 21
1377.4664947038789
 31
0.0
 11
5279.5808669612534
 21
1377.5489121656942
 31
0.0
 11
5279.0550881470645
 21
1377.5849623692341
 31
0.0
 11
5278.6831309587333
 21
1377.5935002579865
 31
0.0
 11
5278.3999967216778
 21
1377.5999993086659
 31
0.0
  0
SPLINE
  5
38F
100
AcDbEntity
  8
0
  6
CONTINUOUS
 62
           3
100
AcDbSpline
210
0.0
220
0.0
230
1.0
 70
           0
 71
           3
 72
           8
 73
           5
 74
           7
 42
0.00000000001
 43
0.00000000001
 44
0.00000000001
 40
0.0
 40
0.0
 40
0.0
 40
1.2475604207866562
 40
2.2257060852956547
 40
2.9354176594307497
 40
2.9354176594307497
 40
2.9354176594307497
 10
5278.3999967216778
 20
1377.5999993086659
 30
0.0
 10
5277.6443408647247
 20
1377.5459010071049
 30
0.0
 10
5276.6669013821638
 20
1377.4759249520071
 30
0.0
 10
5275.7266017763659
 20
1377.2130630295719
 30
0.0
 10
5275.513245287847
 20
1377.1534189582669
 30
0.0
 11
5278.3999967216778
 21
1377.5999993086659
 31
0.0
 11
5277.6962853948353
 21
1377.5496197777979
 31
0.0
 11
5277.0964631282113
 21
1377.5066777883162
 31
0.0
 11
5276.6380614015388
 21
1377.4455297788072
 31
0.0
 11
5276.1219797136173
 21
1377.3235914228983
 31
0.0
 11
5275.7721071385495
 21
1377.2257841100773
 31
0.0
 11
5275.513245287847
 21
1377.1534189582669
 31
0.0
  0
SPLINE
  5
38E
100
AcDbEntity
  8
0
  6
CONTINUOUS
 62
           3
100
AcDbSpline
210
0.0
220
0.0
230
1.0
 70
           0
 71
           3
 72
           8
 73
           5
 74
           7
 42
0.00000000001
 43
0.00000000001
 44
0.00000000001
 40
0.0
 40
0.0
 40
0.0
 40
0.2779454797470929
 40
0.7862825386914726
 40
1.5429638907223393
 40
1.5429638907223393
 40
1.5429638907223393
 10
5274.0698696873487
 20
1359.9999994040479
 30
0.0
 10
5274.104086231926
 20
1360.0004450963061
 30
0.0
 10
5274.5914969500354
 20
1360.0067939309631
 30
0.0
 10
5275.0691364171989
 20
1360.23468978547
 30
0.0
 10
5275.513245287847
 20
1360.4465872050239
 30
0.0
 11
5274.0698696873487
 21
1359.9999994040479
 31
0.0
 11
5274.1386061814992
 21
1360.0008947406084
 31
0.0
 11
5274.2763825747952
 21
1360.0026893657739
 31
0.0
 11
5274.5607022116119
 21
1360.0286623000184
 31
0.0
 11
5274.7834323715815
 21
1360.0983719723738
 31
0.0
 11
5275.1087376234555
 21
1360.2535846870844
 31
0.0
 11
5275.513245287847
 21
1360.4465872050239
 31
0.0
  0
SPLINE
  5
38D
100
AcDbEntity
  8
0
  6
CONTINUOUS
 62
           3
100
AcDbSpline
210
0.0
220
0.0
230
1.0
 70
           0
 71
           3
 72
           8
 73
           5
 74
           7
 42
0.00000000001
 43
0.00000000001
 44
0.00000000001
 40
0.0
 40
0.0
 40
0.0
 40
0.2779462752374747
 40
0.7862820883292148
 40
1.542957730614025
 40
1.542957730614025
 40
1.542957730614025
 10
5274.0698696873487
 20
1364.9999946356729
 30
0.0
 10
5274.0356531390353
 20
1364.9995489277901
 30
0.0
 10
5273.5482408408479
 20
1364.993199850662
 30
0.0
 10
5273.0706021281849
 20
1364.765311877482
 30
0.0
 10
5272.6264938539762
 20
1364.553421735915
 30
0.0
 11
5274.0698696873487
 21
1364.9999946356729
 31
0.0
 11
5274.0011329028075
 21
1364.9990992640387
 31
0.0
 11
5273.8633556458108
 21
1364.9973045649017
 31
0.0
 11
5273.5790356162652
 21
1364.97133224086
 31
0.0
 11
5273.3563051375513
 21
1364.9016246972135
 31
0.0
 11
5273.0310008119741
 21
1364.7464175470232
 31
0.0
 11
5272.6264938539762
 21
1364.553421735915
 31
0.0
  0
SPLINE
  5
38C
100
AcDbEntity
  8
0
  6
CONTINUOUS
 62
           3
100
AcDbSpline
210
0.0
220
0.0
230
1.0
 70
           0
 71
           3
 72
           8
 73
           5
 74
           7
 42
0.00000000001
 43
0.00000000001
 44
0.00000000001
 40
0.0
 40
0.0
 40
0.0
 40
0.2779464854698445
 40
0.7862840844059157
 40
1.542964265947433
 40
1.542964265947433
 40
1.542964265947433
 10
5282.7301237559668
 20
1359.999999403921
 30
0.0
 10
5282.7643403053671
 20
1360.000445099424
 30
0.0
 10
5283.2517530244559
 20
1360.006794003652
 30
0.0
 10
5283.7293915040027
 20
1360.2346897876159
 30
0.0
 10
5284.1734995893694
 20
1360.446587205121
 30
0.0
 11
5282.7301237559668
 21
1359.999999403921
 31
0.0
 11
5282.7988605017508
 21
1360.0008947499907
 31
0.0
 11
5282.9366376403013
 21
1360.0026893971935
 31
0.0
 11
5283.220958009475
 21
1360.0286623910345
 31
0.0
 11
5283.4436883486851
 21
1360.0983721596397
 31
0.0
 11
5283.7689927365145
 21
1360.2535847349982
 31
0.0
 11
5284.1734995893694
 21
1360.446587205121
 31
0.0
  0
SPLINE
  5
38B
100
AcDbEntity
  8
0
  6
CONTINUOUS
 62
           3
100
AcDbSpline
210
0.0
220
0.0
230
1.0
 70
           0
 71
           3
 72
           8
 73
           5
 74
           7
 42
0.00000000001
 43
0.00000000001
 44
0.00000000001
 40
0.0
 40
0.0
 40
0.0
 40
0.2779452695527626
 40
0.7862805426557556
 40
1.5429573555005023
 40
1.5429573555005023
 40
1.5429573555005023
 10
5282.7301237560068
 20
1364.9999946356729
 30
0.0
 10
5282.6959072124773
 20
1364.999548930904
 30
0.0
 10
5282.2084969152747
 20
1364.993199923352
 30
0.0
 10
5281.7308572149859
 20
1364.7653118796329
 30
0.0
 10
5281.2867481555049
 20
1364.5534217358579
 30
0.0
 11
5282.7301237560068
 21
1364.9999946356729
 31
0.0
 11
5282.6613872230673
 21
1364.9990992734502
 31
0.0
 11
5282.523610711306
 21
1364.9973045963191
 31
0.0
 11
5282.239291414131
 21
1364.9713323318763
 31
0.0
 11
5282.0165611146695
 21
1364.9016248844828
 31
0.0
 11
5281.6912559250359
 21
1364.7464175949017
 31
0.0
 11
5281.2867481555049
 21
1364.5534217358579
 31
0.0
  0
SPLINE
  5
38A
100
AcDbEntity
  8
0
  6
CONTINUOUS
 62
           3
100
AcDbSpline
210
0.0
220
0.0
230
1.0
 70
           0
 71
           3
 72
           8
 73
           5
 74
           7
 42
0.00000000001
 43
0.00000000001
 44
0.00000000001
 40
0.0
 40
0.0
 40
0.0
 40
0.7097126556374556
 40
1.6878594213865941
 40
2.9354211178787879
 40
2.9354211178787879
 40
2.9354211178787879
 10
5275.513245287847
 20
1360.4465872050239
 30
0.0
 10
5275.7266017037664
 20
1360.386940369928
 30
0.0
 10
5276.6668989125874
 20
1360.12406684762
 30
0.0
 10
5277.6443400642574
 20
1360.054094671616
 30
0.0
 10
5278.3999967216778
 20
1359.9999994040479
 30
0.0
 11
5275.513245287847
 21
1360.4465872050239
 31
0.0
 11
5275.7721068549281
 21
1360.3742187546154
 31
0.0
 11
5276.1219787243317
 21
1360.2764070735823
 31
0.0
 11
5276.6380594916354
 21
1360.1544641207809
 31
0.0
 11
5277.0964614170371
 21
1360.0933157143013
 31
0.0
 11
5277.6962845668077
 21
1360.0503761153952
 31
0.0
 11
5278.3999967216778
 21
1359.9999994040479
 31
0.0
  0
SPLINE
  5
389
100
AcDbEntity
  8
0
  6
CONTINUOUS
 62
           3
100
AcDbSpline
210
0.0
220
0.0
230
1.0
 70
           0
 71
           3
 72
           8
 73
           5
 74
           7
 42
0.00000000001
 43
0.00000000001
 44
0.00000000001
 40
0.0
 40
0.0
 40
0.0
 40
0.7273681394910819
 40
1.7065914567890266
 40
2.9387223240341505
 40
2.9387223240341505
 40
2.9387223240341505
 10
5278.3999967216778
 20
1359.9999994040479
 30
0.0
 10
5278.6387195010357
 20
1360.005478943116
 30
0.0
 10
5279.6156271469854
 20
1360.027902457241
 30
0.0
 10
5280.5674888562471
 20
1360.26638308051
 30
0.0
 10
5281.2867481553658
 20
1360.446587205121
 30
0.0
 11
5278.3999967216778
 21
1359.9999994040479
 31
0.0
 11
5278.6831310149764
 21
1360.0064983457332
 31
0.0
 11
5279.0550883361557
 21
1360.0150360926523
 31
0.0
 11
5279.5808673755164
 21
1360.051086633174
 31
0.0
 11
5280.0371268719355
 21
1360.1335055255604
 31
0.0
 11
5280.6147131849484
 21
1360.2782147229252
 31
0.0
 11
5281.2867481553658
 21
1360.446587205121
 31
0.0
  0
SPLINE
  5
388
100
AcDbEntity
  8
0
  6
CONTINUOUS
 62
           3
100
AcDbSpline
210
0.0
220
0.0
230
1.0
 70
           0
 71
           3
 72
           8
 73
           5
 74
           7
 42
0.00000000001
 43
0.00000000001
 44
0.00000000001
 40
0.0
 40
0.0
 40
0.0
 40
1.2321288292603156
 40
2.2113508927677517
 40
2.9387184667231638
 40
2.9387184667231638
 40
2.9387184667231638
 10
5281.2867481555049
 20
1364.5534217358579
 30
0.0
 10
5280.5674885010558
 20
1364.733619018429
 30
0.0
 10
5279.6156260260959
 20
1364.9720906611969
 30
0.0
 10
5278.6387194651588
 20
1364.994514911454
 30
0.0
 10
5278.3999967216778
 20
1364.9999946356729
 30
0.0
 11
5281.2867481555049
 21
1364.5534217358579
 31
0.0
 11
5280.6147128338689
 21
1364.7217878300798
 31
0.0
 11
5280.03712617786
 21
1364.866491547604
 31
0.0
 11
5279.5808665470067
 21
1364.9489075788524
 31
0.0
 11
5279.0550879579769
 21
1364.9849574454122
 31
0.0
 11
5278.6831309024938
 21
1364.9934954759983
 31
0.0
 11
5278.3999967216778
 21
1364.9999946356729
 31
0.0
  0
SPLINE
  5
387
100
AcDbEntity
  8
0
  6
CONTINUOUS
 62
           3
100
AcDbSpline
210
0.0
220
0.0
230
1.0
 70
           0
 71
           3
 72
           8
 73
           5
 74
           7
 42
0.00000000001
 43
0.00000000001
 44
0.00000000001
 40
0.0
 40
0.0
 40
0.0
 40
1.247559145155154
 40
2.2257037084929703
 40
2.9354142011740789
 40
2.9354142011740789
 40
2.9354142011740789
 10
5278.3999967216778
 20
1364.9999946356729
 30
0.0
 10
5277.6443416651764
 20
1364.9458933000919
 30
0.0
 10
5276.6669038516557
 20
1364.8759133658571
 30
0.0
 10
5275.7266018489581
 20
1364.6130630433649
 30
0.0
 10
5275.513245287847
 20
1364.5534217358579
 30
0.0
 11
5278.3999967216778
 21
1364.9999946356729
 31
0.0
 11
5277.6962862228411
 21
1364.9496122852581
 31
0.0
 11
5277.0964648393328
 21
1364.9066679051757
 31
0.0
 11
5276.6380633113758
 21
1364.8455202926334
 31
0.0
 11
5276.121980702861
 21
1364.7235865336445
 31
0.0
 11
5275.7721074221563
 21
1364.6257835890581
 31
0.0
 11
5275.513245287847
 21
1364.5534217358579
 31
0.0
  0
SPLINE
  5
386
100
AcDbEntity
  8
0
  6
CONTINUOUS
 62
           3
100
AcDbSpline
210
0.0
220
0.0
230
1.0
 70
           0
 71
           3
 72
           8
 73
           5
 74
           7
 42
0.00000000001
 43
0.00000000001
 44
0.00000000001
 40
0.0
 40
0.0
 40
0.0
 40
0.2779464854665173
 40
0.7862840844026227
 40
1.5429642659238723
 40
1.5429642659238723
 40
1.5429642659238723
 10
5282.7301237559668
 20
1359.999999403921
 30
0.0
 10
5282.7643403053671
 20
1359.9995537086761
 30
0.0
 10
5283.2517530244559
 20
1359.9932048044429
 30
0.0
 10
5283.7293915040027
 20
1359.765309020479
 30
0.0
 10
5284.1734995893694
 20
1359.553411603021
 30
0.0
 11
5282.7301237559668
 21
1359.999999403921
 31
0.0
 11
5282.7988605017499
 21
1359.9991040580444
 31
0.0
 11
5282.9366376402995
 21
1359.997309410905
 31
0.0
 11
5283.220958009475
 21
1359.9713364170614
 31
0.0
 11
5283.4436883486887
 21
1359.9016266484537
 31
0.0
 11
5283.7689927365154
 21
1359.7464140731081
 31
0.0
 11
5284.1734995893694
 21
1359.553411603021
 31
0.0
  0
SPLINE
  5
385
100
AcDbEntity
  8
0
  6
CONTINUOUS
 62
           3
100
AcDbSpline
210
0.0
220
0.0
230
1.0
 70
           0
 71
           3
 72
           8
 73
           5
 74
           7
 42
0.00000000001
 43
0.00000000001
 44
0.00000000001
 40
0.0
 40
0.0
 40
0.0
 40
0.3778155284983235
 40
0.8942062233972833
 40
1.535751417466614
 40
1.535751417466614
 40
1.535751417466614
 10
5272.6264938539762
 20
1359.553411603021
 30
0.0
 10
5272.721011897037
 20
1359.6064716909059
 30
0.0
 10
5273.1908817949061
 20
1359.870245011374
 30
0.0
 10
5273.6795227343064
 20
1359.942377186198
 30
0.0
 10
5274.0698696873487
 20
1359.9999994040479
 30
0.0
 11
5272.6264938539762
 21
1359.553411603021
 31
0.0
 11
5272.747014154409
 21
1359.6210687140278
 31
0.0
 11
5272.9195389695888
 21
1359.7179198712795
 31
0.0
 11
5273.1775244143328
 21
1359.8402057052363
 31
0.0
 11
5273.4087950979283
 21
1359.9024129269183
 31
0.0
 11
5273.7094275634727
 21
1359.9467916758408
 31
0.0
 11
5274.0698696873487
 21
1359.9999994040479
 31
0.0
  0
SPLINE
  5
384
100
AcDbEntity
  8
0
  6
CONTINUOUS
 62
           3
100
AcDbSpline
210
0.0
220
0.0
230
1.0
 70
           0
 71
           3
 72
           8
 73
           5
 74
           7
 42
0.00000000001
 43
0.00000000001
 44
0.00000000001
 40
0.0
 40
0.0
 40
0.0
 40
0.6415450374770628
 40
1.1579303686104754
 40
1.5357381749062053
 40
1.5357381749062053
 40
1.5357381749062053
 10
5274.0698696873487
 20
1355.0000041724199
 30
0.0
 10
5273.6795237086153
 20
1355.0576336938759
 30
0.0
 10
5273.1908846293627
 20
1355.129774916883
 30
0.0
 10
5272.7210119621168
 20
1355.3935224482559
 30
0.0
 10
5272.6264938539762
 20
1355.446577072224
 30
0.0
 11
5274.0698696873487
 21
1355.0000041724199
 31
0.0
 11
5273.7094282457065
 21
1355.0532186767991
 31
0.0
 11
5273.4087958782466
 21
1355.0976031470245
 31
0.0
 11
5273.1775260473223
 21
1355.1598096979612
 31
0.0
 11
5272.9195390523164
 21
1355.2820858110542
 31
0.0
 11
5272.7470142076318
 21
1355.3789269449476
 31
0.0
 11
5272.6264938539762
 21
1355.446577072224
 31
0.0
  0
SPLINE
  5
383
100
AcDbEntity
  8
0
  6
CONTINUOUS
 62
           3
100
AcDbSpline
210
0.0
220
0.0
230
1.0
 70
           0
 71
           3
 72
           8
 73
           5
 74
           7
 42
0.00000000001
 43
0.00000000001
 44
0.00000000001
 40
0.0
 40
0.0
 40
0.0
 40
0.3539460334951224
 40
0.8643414136598189
 40
1.5431068114000444
 40
1.5431068114000444
 40
1.5431068114000444
 10
5274.0698696873487
 20
1359.9999994040479
 30
0.0
 10
5274.1793238424261
 20
1359.9953935078299
 30
0.0
 10
5274.6676816710469
 20
1359.97484311874
 30
0.0
 10
5275.1438213484489
 20
1359.7375336343539
 30
0.0
 10
5275.5132452879734
 20
1359.553411603021
 30
0.0
 11
5274.0698696873487
 21
1359.9999994040479
 31
0.0
 11
5274.201955685583
 21
1359.9944411463539
 31
0.0
 11
5274.3793053701356
 21
1359.9869781657089
 31
0.0
 11
5274.6466781413901
 21
1359.9524131949254
 31
0.0
 11
5274.872043853331
 21
1359.8729883765131
 31
0.0
 11
5275.1682329595506
 21
1359.7253668120604
 31
0.0
 11
5275.5132452879734
 21
1359.553411603021
 31
0.0
  0
SPLINE
  5
382
100
AcDbEntity
  8
0
  6
CONTINUOUS
 62
           3
100
AcDbSpline
210
0.0
220
0.0
230
1.0
 70
           0
 71
           3
 72
           8
 73
           5
 74
           7
 42
0.00000000001
 43
0.00000000001
 44
0.00000000001
 40
0.0
 40
0.0
 40
0.0
 40
0.6787700534938047
 40
1.1891668948827512
 40
1.5431123743459971
 40
1.5431123743459971
 40
1.5431123743459971
 10
5275.513245287847
 20
1355.446577072242
 30
0.0
 10
5275.1438214744057
 20
1355.2624483716049
 30
0.0
 10
5274.6676820506254
 20
1355.0251303367841
 30
0.0
 10
5274.1793238525879
 20
1355.0046045512611
 30
0.0
 10
5274.0698696873487
 20
1355.0000041724199
 30
0.0
 11
5275.513245287847
 21
1355.446577072242
 31
0.0
 11
5275.1682329736404
 21
1355.2746155830059
 31
0.0
 11
5274.8720436579024
 21
1355.1269885165721
 31
0.0
 11
5274.6466781919507
 21
1355.0475647466087
 31
0.0
 11
5274.379305008646
 21
1355.0130097962929
 31
0.0
 11
5274.2019556002924
 21
1355.0055557678088
 31
0.0
 11
5274.0698696873487
 21
1355.0000041724199
 31
0.0
  0
SPLINE
  5
381
100
AcDbEntity
  8
0
  6
CONTINUOUS
 62
           3
100
AcDbSpline
210
0.0
220
0.0
230
1.0
 70
           0
 71
           3
 72
           8
 73
           5
 74
           7
 42
0.00000000001
 43
0.00000000001
 44
0.00000000001
 40
0.0
 40
0.0
 40
0.0
 40
0.2779452695527966
 40
0.7862805426568251
 40
1.5429573556200635
 40
1.5429573556200635
 40
1.5429573556200635
 10
5282.7301237560068
 20
1355.0000041724199
 30
0.0
 10
5282.6959072124773
 20
1355.0004498771909
 30
0.0
 10
5282.2084969152747
 20
1355.0067988847441
 30
0.0
 10
5281.7308572149859
 20
1355.2346869284679
 30
0.0
 10
5281.2867481553658
 20
1355.446577072224
 30
0.0
 11
5282.7301237560068
 21
1355.0000041724199
 31
0.0
 11
5282.6613872230664
 21
1355.0008995346445
 31
0.0
 11
5282.523610711306
 21
1355.0026942117765
 31
0.0
 11
5282.2392914141356
 21
1355.0286664762177
 31
0.0
 11
5282.0165611146876
 21
1355.0983739236069
 31
0.0
 11
5281.6912559250059
 21
1355.2535812131916
 31
0.0
 11
5281.2867481553658
 21
1355.446577072224
 31
0.0
  0
SPLINE
  5
380
100
AcDbEntity
  8
0
  6
CONTINUOUS
 62
           3
100
AcDbSpline
210
0.0
220
0.0
230
1.0
 70
           0
 71
           3
 72
           8
 73
           5
 74
           7
 42
0.00000000001
 43
0.00000000001
 44
0.00000000001
 40
0.0
 40
0.0
 40
0.0
 40
0.5558558490687616
 40
1.5343195422043747
 40
2.9385037456639185
 40
2.9385037456639185
 40
2.9385037456639185
 10
5278.3999967216778
 20
1355.000004172322
 30
0.0
 10
5278.331563636295
 20
1355.0004498783021
 30
0.0
 10
5277.3567416872438
 20
1355.0067989106669
 30
0.0
 10
5276.4014629162684
 20
1355.234686929231
 30
0.0
 10
5275.513245287847
 20
1355.446577072242
 30
0.0
 11
5278.3999967216778
 21
1355.000004172322
 31
0.0
 11
5278.26038187625
 21
1355.0009134863221
 31
0.0
 11
5277.9784035107314
 21
1355.0027500163626
 31
0.0
 11
5277.414082896019
 21
1355.0291829422179
 31
0.0
 11
5276.9644446988568
 21
1355.1003839311747
 31
0.0
 11
5276.3201539548099
 21
1355.2540837154697
 31
0.0
 11
5275.513245287847
 21
1355.446577072242
 31
0.0
  0
SPLINE
  5
37F
100
AcDbEntity
  8
0
  6
CONTINUOUS
 62
           3
100
AcDbSpline
210
0.0
220
0.0
230
1.0
 70
           0
 71
           3
 72
           8
 73
           5
 74
           7
 42
0.00000000001
 43
0.00000000001
 44
0.00000000001
 40
0.0
 40
0.0
 40
0.0
 40
0.5558562714156194
 40
1.5343210643712788
 40
2.9385072682926525
 40
2.9385072682926525
 40
2.9385072682926525
 10
5278.3999967216778
 20
1359.9999994040479
 30
0.0
 10
5278.468429809147
 20
1359.999553710677
 30
0.0
 10
5279.4432526000273
 20
1359.993204851213
 30
0.0
 10
5280.3985309047457
 20
1359.765309021863
 30
0.0
 10
5281.2867481555049
 20
1359.553411603069
 30
0.0
 11
5278.3999967216778
 21
1359.9999994040479
 31
0.0
 11
5278.5396116244092
 21
1359.9990901152978
 31
0.0
 11
5278.8215901576641
 21
1359.9972536357895
 31
0.0
 11
5279.38591117129
 21
1359.9708199944766
 31
0.0
 11
5279.8355493274403
 21
1359.8996166396903
 31
0.0
 11
5280.4798398231087
 21
1359.7459115716213
 31
0.0
 11
5281.2867481555049
 21
1359.553411603069
 31
0.0
  0
CIRCLE
  5
37E
100
AcDbEntity
  8
1
  6
CONTINUOUS
 62
           7
100
AcDbCircle
 10
0.0
 20
5965.12329172748
 40
400.0
  0
CIRCLE
  5
37D
100
AcDbEntity
  8
1
  6
CONTINUOUS
 62
           4
100
AcDbCircle
 10
0.0
 20
5965.12329172748
 40
117.5
  0
CIRCLE
  5
37C
100
AcDbEntity
  8
1
  6
CONTINUOUS
 62
           4
100
AcDbCircle
 10
0.0
 20
5965.12329172748
 40
145.0
  0
CIRCLE
  5
37B
100
AcDbEntity
  8
1
  6
CONTINUOUS
 62
           7
100
AcDbCircle
 10
0.0
 20
5965.12329172748
 40
175.0
  0
CIRCLE
  5
37A
100
AcDbEntity
  8
1
  6
CONTINUOUS
 62
           3
100
AcDbCircle
 10
-1241.527744678122
 20
795.200848327049
 40
40.0
  0
CIRCLE
  5
379
100
AcDbEntity
  8
1
  6
CONTINUOUS
 62
           7
100
AcDbCircle
 10
5662.499999999999
 20
100.0
 40
7.5
  0
CIRCLE
  5
378
100
AcDbEntity
  8
1
  6
CONTINUOUS
 62
           2
100
AcDbCircle
 10
5662.499999999999
 20
100.0
 40
8.350000000001
  0
CIRCLE
  5
377
100
AcDbEntity
  8
1
  6
CONTINUOUS
 62
           7
100
AcDbCircle
 10
5662.499999999999
 20
100.0
 40
15.0
  0
ARC
  5
376
100
AcDbEntity
  8
7
  6
CONTINUOUS
 62
           7
100
AcDbCircle
 10
5684.334848
 20
3177.0
 40
3.0
100
AcDbArc
 50
-90.0
 51
-55.000000000011
  0
ARC
  5
375
100
AcDbEntity
  8
7
  6
CONTINUOUS
 62
           7
100
AcDbCircle
 10
5683.2
 20
3170.799999999999
 40
3.200000000001
100
AcDbArc
 50
90.0
 51
180.0
  0
ARC
  5
374
100
AcDbEntity
  8
7
  6
CONTINUOUS
 62
           7
100
AcDbCircle
 10
5702.839735999999
 20
3197.041133999999
 40
1.999999999999
100
AcDbArc
 50
-54.999999999941
 51
-5.310029000059
  0
ARC
  5
373
100
AcDbEntity
  8
7
  6
CONTINUOUS
 62
           7
100
AcDbCircle
 10
5708.039736
 20
3196.799999999999
 40
3.200000000001
100
AcDbArc
 50
90.0
 51
174.689970999988
  0
ARC
  5
372
100
AcDbEntity
  8
7
  6
CONTINUOUS
 62
           7
100
AcDbCircle
 10
5960.665152999999
 20
3177.0
 40
3.000000000001
100
AcDbArc
 50
-124.999999999974
 51
-90.0
  0
ARC
  5
371
100
AcDbEntity
  8
7
  6
CONTINUOUS
 62
           7
100
AcDbCircle
 10
5961.8
 20
3170.799999999999
 40
3.199999999999
100
AcDbArc
 50
0.0
 51
90.0
  0
ARC
  5
370
100
AcDbEntity
  8
7
  6
CONTINUOUS
 62
           7
100
AcDbCircle
 10
5942.160263000001
 20
3197.041133999999
 40
2.000000000002
100
AcDbArc
 50
-174.689970999941
 51
-125.000000000059
  0
ARC
  5
36F
100
AcDbEntity
  8
7
  6
CONTINUOUS
 62
           7
100
AcDbCircle
 10
5936.960263
 20
3196.799999999999
 40
3.2
100
AcDbArc
 50
5.31002900001
 51
90.0
  0
ARC
  5
36E
100
AcDbEntity
  8
7
  6
CONTINUOUS
 62
           7
100
AcDbCircle
 10
5967.249999999999
 20
3137.625000001462
 40
2.310438270445
100
AcDbArc
 50
-166.865977658294
 51
-115.939287658323
  0
ARC
  5
36D
100
AcDbEntity
  8
7
  6
CONTINUOUS
 62
           7
100
AcDbCircle
 10
5964.3
 20
3133.0
 40
3.199999999999
100
AcDbArc
 50
0.0
 51
50.926690000005
  0
ARC
  5
36C
100
AcDbEntity
  8
7
  6
CONTINUOUS
 62
           7
100
AcDbCircle
 10
5680.95
 20
3132.474999998541
 40
3.489717037458
100
AcDbArc
 50
120.420768185186
 51
171.347458185206
  0
ARC
  5
36B
100
AcDbEntity
  8
7
  6
CONTINUOUS
 62
           7
100
AcDbCircle
 10
5677.999999999999
 20
3137.1
 40
2.0
100
AcDbArc
 50
-50.926689999965
 51
0.0
  0
ARC
  5
36A
100
AcDbEntity
  8
7
  6
CONTINUOUS
 62
           7
100
AcDbCircle
 10
144.5
 20
3137.1
 40
2.0
100
AcDbArc
 50
180.0
 51
-129.073310000015
  0
ARC
  5
369
100
AcDbEntity
  8
7
  6
CONTINUOUS
 62
           7
100
AcDbCircle
 10
141.549999999999
 20
3132.474999998541
 40
3.48971703746
100
AcDbArc
 50
8.652541814793
 51
59.579231814815
  0
ARC
  5
368
100
AcDbEntity
  8
7
  6
CONTINUOUS
 62
           7
100
AcDbCircle
 10
-141.800000000001
 20
3133.0
 40
3.200000000002
100
AcDbArc
 50
129.073309999987
 51
180.0
  0
ARC
  5
367
100
AcDbEntity
  8
7
  6
CONTINUOUS
 62
           7
100
AcDbCircle
 10
-144.750000000001
 20
3137.625000001463
 40
2.310438270446
100
AcDbArc
 50
-64.060712341686
 51
-13.134022341728
  0
ARC
  5
366
100
AcDbEntity
  8
7
  6
CONTINUOUS
 62
           7
100
AcDbCircle
 10
-114.460263
 20
3196.799999999998
 40
3.200000000002
100
AcDbArc
 50
90.0
 51
174.689970999958
  0
ARC
  5
365
100
AcDbEntity
  8
7
  6
CONTINUOUS
 62
           7
100
AcDbCircle
 10
-119.660263000001
 20
3197.041134000001
 40
2.0
100
AcDbArc
 50
-54.999999999994
 51
-5.310029000061
  0
ARC
  5
364
100
AcDbEntity
  8
7
  6
CONTINUOUS
 62
           7
100
AcDbCircle
 10
-139.300000000001
 20
3170.799999999998
 40
3.200000000002
100
AcDbArc
 50
90.0
 51
180.0
  0
ARC
  5
363
100
AcDbEntity
  8
7
  6
CONTINUOUS
 62
           7
100
AcDbCircle
 10
-138.165153
 20
3177.0
 40
3.0
100
AcDbArc
 50
-90.0
 51
-55.00000000002
  0
ARC
  5
362
100
AcDbEntity
  8
7
  6
CONTINUOUS
 62
           7
100
AcDbCircle
 10
114.460264
 20
3196.799999999998
 40
3.2
100
AcDbArc
 50
5.310029000044
 51
90.0
  0
ARC
  5
361
100
AcDbEntity
  8
7
  6
CONTINUOUS
 62
           7
100
AcDbCircle
 10
119.660264
 20
3197.041134000001
 40
2.000000000001
100
AcDbArc
 50
-174.689970999938
 51
-125.000000000006
  0
ARC
  5
360
100
AcDbEntity
  8
7
  6
CONTINUOUS
 62
           7
100
AcDbCircle
 10
139.299999999999
 20
3170.799999999998
 40
3.2
100
AcDbArc
 50
0.0
 51
90.0
  0
ARC
  5
35F
100
AcDbEntity
  8
7
  6
CONTINUOUS
 62
           7
100
AcDbCircle
 10
138.165151999999
 20
3177.0
 40
3.000000000002
100
AcDbArc
 50
-124.999999999977
 51
-90.0
  0
ARC
  5
35E
100
AcDbEntity
  8
0
  6
CONTINUOUS
 62
           7
100
AcDbCircle
 10
-68.000000000001
 20
5935.123291727478
 40
670.0
100
AcDbArc
 50
-90.0
 51
-65.560184603745
  0
ARC
  5
35D
100
AcDbEntity
  8
0
  6
CONTINUOUS
 62
           7
100
AcDbCircle
 10
44.999999999999
 20
5982.12329172748
 40
469.999999999995
100
AcDbArc
 50
73.766596122265
 51
91.7405042324
  0
ARC
  5
35C
100
AcDbEntity
  8
0
  6
CONTINUOUS
 62
           7
100
AcDbCircle
 10
40.018279316733
 20
5895.12329172748
 40
550.0
100
AcDbArc
 50
19.235892312416
 51
32.0167313156
  0
ARC
  5
35B
100
AcDbEntity
  8
0
  6
CONTINUOUS
 62
           7
100
AcDbCircle
 10
-73.065287554536
 20
6015.579728268403
 40
750.473530701588
100
AcDbArc
 50
-175.763021490041
 51
-89.613281760693
  0
ARC
  5
35A
100
AcDbEntity
  8
1
  6
CONTINUOUS
 62
           7
100
AcDbCircle
 10
-821.804904288239
 20
5965.12329172748
 40
5.0
100
AcDbArc
 50
-86.36353044751
 51
93.208888116186
  0
ARC
  5
359
100
AcDbEntity
  8
0
  6
CONTINUOUS
 62
           7
100
AcDbCircle
 10
-153.000000000002
 20
6005.12329172748
 40
670.0
100
AcDbArc
 50
180.0
 51
-177.004902602006
  0
ARC
  5
358
100
AcDbEntity
  8
1
  6
CONTINUOUS
 62
           7
100
AcDbCircle
 10
560.937688295461
 20
6071.596998973781
 40
4.999999999996
100
AcDbArc
 50
108.975456054181
 51
-71.545416462343
  0
ARC
  5
357
100
AcDbEntity
  8
0
  6
CONTINUOUS
 62
           7
100
AcDbCircle
 10
40.009260634159
 20
5895.179785363755
 40
549.990931231541
100
AcDbArc
 50
0.047858441198
 51
18.188262890001
  0
ARC
  5
356
100
AcDbEntity
  8
0
  6
CONTINUOUS
 62
           7
100
AcDbCircle
 10
-45.556018666515
 20
5907.842725363736
 40
635.943732327677
100
AcDbArc
 50
-66.384222171459
 51
-2.000810249325
  0
ARC
  5
355
100
AcDbEntity
  8
1
  6
CONTINUOUS
 62
           7
100
AcDbCircle
 10
590.022726517383
 20
5890.639403617937
 40
4.999833824392
100
AcDbArc
 50
90.260436258245
 51
-90.260436258244
  0
ARC
  5
354
100
AcDbEntity
  8
1
  6
CONTINUOUS
 62
           7
100
AcDbCircle
 10
181.182082628214
 20
6431.96152973203
 40
5.0
100
AcDbArc
 50
163.461829900472
 51
-17.147702543123
  0
ARC
  5
353
100
AcDbEntity
  8
0
  6
CONTINUOUS
 62
           7
100
AcDbCircle
 10
21.782943312384
 20
5882.259673745973
 40
572.282825445527
100
AcDbArc
 50
32.140798007649
 51
73.328702057894
  0
ARC
  5
352
100
AcDbEntity
  8
1
  6
CONTINUOUS
 62
           3
100
AcDbCircle
 10
5782.663567691046
 20
1425.0
 40
9.5
100
AcDbArc
 50
-169.797812779172
 51
-45.000000000002
  0
ARC
  5
351
100
AcDbEntity
  8
1
  6
CONTINUOUS
 62
           3
100
AcDbCircle
 10
5782.663567691046
 20
1425.0
 40
9.499999999999
100
AcDbArc
 50
-45.000000000002
 51
80.91695737144
  0
ARC
  5
350
100
AcDbEntity
  8
1
  6
CONTINUOUS
 62
           3
100
AcDbCircle
 10
5782.663567691046
 20
1425.0
 40
5.871834995063
100
AcDbArc
 50
-44.999999999994
 51
-6.400286082077
  0
ARC
  5
34F
100
AcDbEntity
  8
1
  6
CONTINUOUS
 62
           3
100
AcDbCircle
 10
5782.663567691046
 20
1425.0
 40
5.871834995067
100
AcDbArc
 50
-6.400286082077
 51
45.000000000001
  0
ARC
  5
34E
100
AcDbEntity
  8
1
  6
CONTINUOUS
 62
           3
100
AcDbCircle
 10
5782.663567691046
 20
1425.0
 40
5.871834995066
100
AcDbArc
 50
-134.999999999979
 51
-44.999999999994
  0
ARC
  5
34D
100
AcDbEntity
  8
0
  6
CONTINUOUS
 62
           3
100
AcDbCircle
 10
5340.899996721517
 20
1368.000000000113
 40
2.5
100
AcDbArc
 50
0.0
 51
180.0
  0
ARC
  5
34C
100
AcDbEntity
  8
0
  6
CONTINUOUS
 62
           3
100
AcDbCircle
 10
5340.899996721517
 20
1631.999999999898
 40
2.499999999992
100
AcDbArc
 50
180.0
 51
0.0
  0
ARC
  5
34B
100
AcDbEntity
  8
0
  6
CONTINUOUS
 62
           3
100
AcDbCircle
 10
5215.899996721827
 20
1631.999999999898
 40
2.5
100
AcDbArc
 50
180.0
 51
0.0
  0
ARC
  5
34A
100
AcDbEntity
  8
0
  6
CONTINUOUS
 62
           3
100
AcDbCircle
 10
5215.899996721827
 20
1368.000000000113
 40
2.49999999999
100
AcDbArc
 50
0.0
 51
180.0
  0
ARC
  5
349
100
AcDbEntity
  8
0
  6
CONTINUOUS
 62
           3
100
AcDbCircle
 10
5220.399996721817
 20
1508.999999999996
 40
0.999999999996
100
AcDbArc
 50
-90.0
 51
90.0
  0
ARC
  5
348
100
AcDbEntity
  8
0
  6
CONTINUOUS
 62
           3
100
AcDbCircle
 10
5220.399996721817
 20
1431.000000000062
 40
1.0
100
AcDbArc
 50
-90.0
 51
90.0
  0
ARC
  5
347
100
AcDbEntity
  8
0
  6
CONTINUOUS
 62
           3
100
AcDbCircle
 10
5220.399996721817
 20
1409.000000000178
 40
0.999999999996
100
AcDbArc
 50
-90.0
 51
90.0
  0
ARC
  5
346
100
AcDbEntity
  8
0
  6
CONTINUOUS
 62
           3
100
AcDbCircle
 10
5336.399996721525
 20
1409.000000000178
 40
1.0
100
AcDbArc
 50
90.0
 51
-90.0
  0
ARC
  5
345
100
AcDbEntity
  8
0
  6
CONTINUOUS
 62
           3
100
AcDbCircle
 10
5336.399996721525
 20
1431.000000000062
 40
0.999999999996
100
AcDbArc
 50
90.0
 51
-90.0
  0
ARC
  5
344
100
AcDbEntity
  8
0
  6
CONTINUOUS
 62
           3
100
AcDbCircle
 10
5336.399996721525
 20
1508.999999999996
 40
1.0
100
AcDbArc
 50
90.0
 51
-90.0
  0
ARC
  5
343
100
AcDbEntity
  8
0
  6
CONTINUOUS
 62
           3
100
AcDbCircle
 10
5336.399996721525
 20
1530.99999999988
 40
1.0
100
AcDbArc
 50
90.0
 51
-90.0
  0
ARC
  5
342
100
AcDbEntity
  8
0
  6
CONTINUOUS
 62
           3
100
AcDbCircle
 10
5220.399996721817
 20
1530.99999999988
 40
0.999999999996
100
AcDbArc
 50
-90.0
 51
90.0
  0
ARC
  5
341
100
AcDbEntity
  8
0
  6
CONTINUOUS
 62
           3
100
AcDbCircle
 10
5284.873499413465
 20
1389.999999999996
 40
0.900000000001
100
AcDbArc
 50
-90.0
 51
-62.733955549507
  0
ARC
  5
340
100
AcDbEntity
  8
0
  6
CONTINUOUS
 62
           3
100
AcDbCircle
 10
5271.926494029874
 20
1389.999999999996
 40
0.9
100
AcDbArc
 50
-117.266044450441
 51
-90.0
  0
ARC
  5
33F
100
AcDbEntity
  8
0
  6
CONTINUOUS
 62
           3
100
AcDbCircle
 10
5278.399996721678
 20
1315.000000000058
 40
53.999999999964
100
AcDbArc
 50
180.0
 51
0.0
  0
ARC
  5
33E
100
AcDbEntity
  8
0
  6
CONTINUOUS
 62
           3
100
AcDbCircle
 10
5278.399996721678
 20
1315.000000000058
 40
45.999999999971
100
AcDbArc
 50
180.0
 51
0.0
  0
ARC
  5
33D
100
AcDbEntity
  8
0
  6
CONTINUOUS
 62
           3
100
AcDbCircle
 10
5278.399996721678
 20
1355.000000000222
 40
4.0
100
AcDbArc
 50
180.0
 51
0.0
  0
ARC
  5
33C
100
AcDbEntity
  8
1
  6
CONTINUOUS
 62
           3
100
AcDbCircle
 10
-1241.527744678122
 20
795.200848327049
 40
28.75000000001
100
AcDbArc
 50
83.827497999999
 51
96.172501999989
  0
ARC
  5
33B
100
AcDbEntity
  8
1
  6
CONTINUOUS
 62
           3
100
AcDbCircle
 10
-1241.527744678122
 20
795.200848327049
 40
28.749999999987
100
AcDbArc
 50
-96.172501999994
 51
-83.827497999994
  0
ARC
  5
33A
100
AcDbEntity
  8
1
  6
CONTINUOUS
 62
           3
100
AcDbCircle
 10
-1241.527744678122
 20
795.200848327049
 40
10.75
100
AcDbArc
 50
0.0
 51
61.226493000002
  0
ARC
  5
339
100
AcDbEntity
  8
1
  6
CONTINUOUS
 62
           3
100
AcDbCircle
 10
-1241.527744678122
 20
795.200848327049
 40
10.75
100
AcDbArc
 50
-61.226493000021
 51
0.0
  0
ARC
  5
338
100
AcDbEntity
  8
1
  6
CONTINUOUS
 62
           3
100
AcDbCircle
 10
-1241.527744678122
 20
795.200848327049
 40
10.74999999999
100
AcDbArc
 50
118.77350699997
 51
-118.773506999951
  0
ARC
  5
337
100
AcDbEntity
  8
1
  6
CONTINUOUS
 62
           3
100
AcDbCircle
 10
-1237.489442678122
 20
795.200848327049
 40
10.0
100
AcDbArc
 50
174.993206999971
 51
-174.993207000022
  0
ARC
  5
336
100
AcDbEntity
  8
1
  6
CONTINUOUS
 62
           3
100
AcDbCircle
 10
-1245.566047678116
 20
795.200848327049
 40
9.999999999999
100
AcDbArc
 50
-5.006792999977
 51
5.006793000029
  0
ARC
  5
335
100
AcDbEntity
  8
1
  6
CONTINUOUS
 62
           3
100
AcDbCircle
 10
-1244.565247678122
 20
823.287074327051
 40
0.499999999999
100
AcDbArc
 50
96.172501999326
 51
174.993206998714
  0
ARC
  5
334
100
AcDbEntity
  8
1
  6
CONTINUOUS
 62
           3
100
AcDbCircle
 10
-1238.490241678123
 20
823.287074327051
 40
0.500000000005
100
AcDbArc
 50
5.006793001206
 51
83.827497998161
  0
ARC
  5
333
100
AcDbEntity
  8
1
  6
CONTINUOUS
 62
           3
100
AcDbCircle
 10
-1244.565247678122
 20
767.114622327059
 40
0.499999999996
100
AcDbArc
 50
-174.993206999752
 51
-96.172501999303
  0
ARC
  5
332
100
AcDbEntity
  8
1
  6
CONTINUOUS
 62
           3
100
AcDbCircle
 10
-1238.490241678123
 20
767.114622327059
 40
0.500000000003
100
AcDbArc
 50
-83.827497998184
 51
-5.006793000168
  0
LINE
  5
331
100
AcDbEntity
  8
6
  6
CONTINUOUS
 62
           7
100
AcDbLine
 10
5688.999999999999
 20
2768.199999999997
 11
5688.999999999999
 21
2794.200000000001
  0
LINE
  5
330
100
AcDbEntity
  8
1
  6
CONTINUOUS
 62
           7
100
AcDbLine
 10
5955.999999999999
 20
2768.199999999997
 11
5955.999999999999
 21
2794.200000000001
  0
LINE
  5
32F
100
AcDbEntity
  8
7
  6
CONTINUOUS
 62
           7
100
AcDbLine
 10
5703.986888999999
 20
3195.402829999999
 11
5686.055577
 21
3174.542544
  0
LINE
  5
32E
100
AcDbEntity
  8
7
  6
CONTINUOUS
 62
           7
100
AcDbLine
 10
5680.000000000001
 20
3170.799999999999
 11
5679.999999999999
 21
3137.1
  0
LINE
  5
32D
100
AcDbEntity
  8
7
  6
CONTINUOUS
 62
           7
100
AcDbLine
 10
5704.853468999999
 20
3197.096143999999
 11
5704.831153
 21
3196.856043999998
  0
LINE
  5
32C
100
AcDbEntity
  8
7
  6
CONTINUOUS
 62
           7
100
AcDbLine
 10
5941.013110999999
 20
3195.402829999999
 11
5958.944424
 21
3174.542544
  0
LINE
  5
32B
100
AcDbEntity
  8
7
  6
CONTINUOUS
 62
           7
100
AcDbLine
 10
5964.999999999999
 20
3170.799999999999
 11
5964.999999999999
 21
3137.1
  0
LINE
  5
32A
100
AcDbEntity
  8
7
  6
CONTINUOUS
 62
           7
100
AcDbLine
 10
5940.146530999999
 20
3197.096143999999
 11
5940.168846
 21
3196.856043999998
  0
LINE
  5
329
100
AcDbEntity
  8
7
  6
CONTINUOUS
 62
           7
100
AcDbLine
 10
5967.499999999999
 20
3133.0
 11
5967.499999999999
 21
3095.0
  0
LINE
  5
328
100
AcDbEntity
  8
7
  6
CONTINUOUS
 62
           7
100
AcDbLine
 10
5966.239371999999
 20
3135.547319999998
 11
5966.317006
 21
3135.484288000001
  0
LINE
  5
327
100
AcDbEntity
  8
2
  6
CONTINUOUS
 62
           7
100
AcDbLine
 10
5671.423807
 20
3081.0
 11
5671.423807
 21
2826.200000000001
  0
LINE
  5
326
100
AcDbEntity
  8
2
  6
CONTINUOUS
 62
           7
100
AcDbLine
 10
5688.942013999999
 20
2794.200000000001
 11
5671.423807
 21
2826.200000000001
  0
LINE
  5
325
100
AcDbEntity
  8
2
  6
CONTINUOUS
 62
           7
100
AcDbLine
 10
5679.088021999999
 20
3095.0
 11
5671.423807
 21
3081.0
  0
LINE
  5
324
100
AcDbEntity
  8
2
  6
CONTINUOUS
 62
           7
100
AcDbLine
 10
5973.576193
 20
2826.199999999997
 11
5972.547587
 21
2826.199999999997
  0
LINE
  5
323
100
AcDbEntity
  8
2
  6
CONTINUOUS
 62
           7
100
AcDbLine
 10
5973.576193
 20
3081.0
 11
5965.911977999999
 21
3095.0
  0
LINE
  5
322
100
AcDbEntity
  8
2
  6
CONTINUOUS
 62
           7
100
AcDbLine
 10
5973.576193
 20
2826.199999999997
 11
5956.057985999999
 21
2794.200000000001
  0
LINE
  5
321
100
AcDbEntity
  8
2
  6
CONTINUOUS
 62
           7
100
AcDbLine
 10
5973.576193
 20
2826.199999999997
 11
5973.576193
 21
3081.0
  0
LINE
  5
320
100
AcDbEntity
  8
7
  6
CONTINUOUS
 62
           7
100
AcDbLine
 10
5679.182994
 20
3135.484288000001
 11
5679.260627999999
 21
3135.547319999998
  0
LINE
  5
31F
100
AcDbEntity
  8
7
  6
CONTINUOUS
 62
           7
100
AcDbLine
 10
5677.499999999999
 20
3095.0
 11
5677.499999999999
 21
3133.0
  0
LINE
  5
31E
100
AcDbEntity
  8
2
  6
CONTINUOUS
 62
           4
100
AcDbLine
 10
5688.999999999999
 20
2784.200000000001
 11
5955.999999999999
 21
2784.200000000001
  0
LINE
  5
31D
100
AcDbEntity
  8
1
  6
CONTINUOUS
 62
           4
100
AcDbLine
 10
6236.799999999998
 20
2081.0
 11
6236.799999999998
 21
2075.0
  0
LINE
  5
31C
100
AcDbEntity
  8
1
  6
CONTINUOUS
 62
           4
100
AcDbLine
 10
5408.199999999999
 20
2075.0
 11
5408.199999999999
 21
2081.0
  0
LINE
  5
31B
100
AcDbEntity
  8
1
  6
CONTINUOUS
 62
           7
100
AcDbLine
 10
6236.799999999998
 20
2075.0
 11
5408.199999999999
 21
2075.0
  0
LINE
  5
31A
100
AcDbEntity
  8
1
  6
CONTINUOUS
 62
           4
100
AcDbLine
 10
5408.199999999999
 20
2081.0
 11
6236.799999999998
 21
2081.0
  0
LINE
  5
319
100
AcDbEntity
  8
0
  6
CONTINUOUS
 62
           7
100
AcDbLine
 10
6197.499999999999
 20
2081.0
 11
6197.499999999999
 21
2137.799999999999
  0
LINE
  5
318
100
AcDbEntity
  8
0
  6
CONTINUOUS
 62
           7
100
AcDbLine
 10
5447.5
 20
2137.799999999999
 11
5447.499999999998
 21
2081.0
  0
LINE
  5
317
100
AcDbEntity
  8
1
  6
CONTINUOUS
 62
           4
100
AcDbLine
 10
5562.499999999999
 20
2763.199999999997
 11
5562.499999999999
 21
2762.199999999997
  0
LINE
  5
316
100
AcDbEntity
  8
1
  6
CONTINUOUS
 62
           4
100
AcDbLine
 10
6082.499999999999
 20
2763.199999999997
 11
6082.499999999999
 21
2762.199999999997
  0
LINE
  5
315
100
AcDbEntity
  8
1
  6
CONTINUOUS
 62
           4
100
AcDbLine
 10
6077.499999999999
 20
2768.199999999997
 11
6082.499999999999
 21
2763.199999999997
  0
LINE
  5
314
100
AcDbEntity
  8
1
  6
CONTINUOUS
 62
           4
100
AcDbLine
 10
6077.499999999999
 20
2768.199999999997
 11
5567.499999999999
 21
2768.199999999997
  0
LINE
  5
313
100
AcDbEntity
  8
1
  6
CONTINUOUS
 62
           4
100
AcDbLine
 10
5562.499999999999
 20
2763.199999999997
 11
5567.499999999999
 21
2768.199999999997
  0
LINE
  5
312
100
AcDbEntity
  8
976
  6
CONTINUOUS
 62
           7
100
AcDbLine
 10
6368.940677966101
 20
2762.199999999997
 11
5930.500159772887
 21
2762.199999999997
  0
LINE
  5
311
100
AcDbEntity
  8
976
  6
CONTINUOUS
 62
           7
100
AcDbLine
 10
6372.5
 20
2175.799999999999
 11
5077.288529667961
 21
2175.799999999999
  0
LINE
  5
310
100
AcDbEntity
  8
976
  6
CONTINUOUS
 62
           7
100
AcDbLine
 10
6372.5
 20
2175.799999999999
 11
6372.499999999999
 21
2142.799999999999
  0
LINE
  5
30F
100
AcDbEntity
  8
976
  6
CONTINUOUS
 62
           7
100
AcDbLine
 10
5077.288529667961
 20
2137.799999999999
 11
5747.722691958726
 21
2137.799999999999
  0
LINE
  5
30E
100
AcDbEntity
  8
976
  6
CONTINUOUS
 62
           7
100
AcDbLine
 10
5077.288529667961
 20
2724.199999999997
 11
5077.288529667961
 21
2762.199999999997
  0
LINE
  5
30D
100
AcDbEntity
  8
976
  6
CONTINUOUS
 62
           7
100
AcDbLine
 10
5077.288529667961
 20
2137.799999999999
 11
5077.288529667961
 21
2175.799999999999
  0
LINE
  5
30C
100
AcDbEntity
  8
1
  6
CONTINUOUS
 62
           7
100
AcDbLine
 10
6372.500000000001
 20
2757.199999999997
 11
6368.940677966101
 21
2762.199999999997
  0
LINE
  5
30B
100
AcDbEntity
  8
1
  6
CONTINUOUS
 62
           7
100
AcDbLine
 10
6372.499999999999
 20
2142.799999999999
 11
6368.940677966101
 21
2137.799999999999
  0
LINE
  5
30A
100
AcDbEntity
  8
1
  6
CONTINUOUS
 62
           7
100
AcDbLine
 10
6452.5
 20
2725.0
 11
6417.999999999999
 21
2725.0
  0
LINE
  5
309
100
AcDbEntity
  8
1
  6
CONTINUOUS
 62
           7
100
AcDbLine
 10
6406.999999999999
 20
2725.0
 11
6372.5
 21
2725.0
  0
LINE
  5
308
100
AcDbEntity
  8
1
  6
CONTINUOUS
 62
           7
100
AcDbLine
 10
6372.5
 20
2175.0
 11
6406.999999999999
 21
2175.0
  0
LINE
  5
307
100
AcDbEntity
  8
1
  6
CONTINUOUS
 62
           7
100
AcDbLine
 10
5122.499999999999
 20
2724.199999999997
 11
5122.499999999999
 21
2175.799999999999
  0
LINE
  5
306
100
AcDbEntity
  8
1
  6
CONTINUOUS
 62
           7
100
AcDbLine
 10
6412.5
 20
2725.0
 11
6452.5
 21
2725.0
  0
LINE
  5
305
100
AcDbEntity
  8
1
  6
CONTINUOUS
 62
           7
100
AcDbLine
 10
6372.499999999999
 20
2170.5
 11
6372.499999999999
 21
2729.5
  0
LINE
  5
304
100
AcDbEntity
  8
1
  6
CONTINUOUS
 62
           7
100
AcDbLine
 10
6372.5
 20
2725.0
 11
6412.5
 21
2725.0
  0
LINE
  5
303
100
AcDbEntity
  8
1
  6
CONTINUOUS
 62
           7
100
AcDbLine
 10
6412.5
 20
2175.0
 11
6372.5
 21
2175.0
  0
LINE
  5
302
100
AcDbEntity
  8
1
  6
CONTINUOUS
 62
           4
100
AcDbLine
 10
6408.199999999998
 20
2725.0
 11
6408.199999999998
 21
2175.0
  0
LINE
  5
301
100
AcDbEntity
  8
1
  6
CONTINUOUS
 62
           4
100
AcDbLine
 10
6416.799999999998
 20
2175.0
 11
6416.799999999998
 21
2725.0
  0
LINE
  5
300
100
AcDbEntity
  8
1
  6
CONTINUOUS
 62
           7
100
AcDbLine
 10
6412.499999999999
 20
2765.0
 11
6412.499999999999
 21
2135.0
  0
LINE
  5
2FF
100
AcDbEntity
  8
1
  6
CONTINUOUS
 62
           4
100
AcDbLine
 10
6416.999999999999
 20
2730.5
 11
6416.999999999999
 21
2765.0
  0
LINE
  5
2FE
100
AcDbEntity
  8
1
  6
CONTINUOUS
 62
           4
100
AcDbLine
 10
6416.999999999999
 20
2765.0
 11
6412.499999999999
 21
2765.0
  0
LINE
  5
2FD
100
AcDbEntity
  8
1
  6
CONTINUOUS
 62
           4
100
AcDbLine
 10
6412.499999999999
 20
2765.0
 11
6407.999999999999
 21
2765.0
  0
LINE
  5
2FC
100
AcDbEntity
  8
1
  6
CONTINUOUS
 62
           4
100
AcDbLine
 10
6407.999999999999
 20
2765.0
 11
6407.999999999999
 21
2730.5
  0
LINE
  5
2FB
100
AcDbEntity
  8
1
  6
CONTINUOUS
 62
           4
100
AcDbLine
 10
6372.499999999999
 20
2729.5
 11
6406.999999999999
 21
2729.5
  0
LINE
  5
2FA
100
AcDbEntity
  8
1
  6
CONTINUOUS
 62
           4
100
AcDbLine
 10
6412.499999999999
 20
2135.0
 11
6416.999999999999
 21
2135.0
  0
LINE
  5
2F9
100
AcDbEntity
  8
1
  6
CONTINUOUS
 62
           4
100
AcDbLine
 10
6416.999999999999
 20
2135.0
 11
6416.999999999999
 21
2169.5
  0
LINE
  5
2F8
100
AcDbEntity
  8
1
  6
CONTINUOUS
 62
           4
100
AcDbLine
 10
6452.499999999999
 20
2170.5
 11
6417.999999999999
 21
2170.5
  0
LINE
  5
2F7
100
AcDbEntity
  8
1
  6
CONTINUOUS
 62
           4
100
AcDbLine
 10
6407.999999999999
 20
2169.5
 11
6407.999999999999
 21
2135.0
  0
LINE
  5
2F6
100
AcDbEntity
  8
1
  6
CONTINUOUS
 62
           4
100
AcDbLine
 10
6407.999999999999
 20
2135.0
 11
6412.499999999999
 21
2135.0
  0
LINE
  5
2F5
100
AcDbEntity
  8
1
  6
CONTINUOUS
 62
           7
100
AcDbLine
 10
6417.999999999999
 20
2175.0
 11
6452.5
 21
2175.0
  0
LINE
  5
2F4
100
AcDbEntity
  8
1
  6
CONTINUOUS
 62
           4
100
AcDbLine
 10
6406.999999999999
 20
2170.5
 11
6372.499999999999
 21
2170.5
  0
LINE
  5
2F3
100
AcDbEntity
  8
1
  6
CONTINUOUS
 62
           7
100
AcDbLine
 10
5877.499999999999
 20
2824.199999999997
 11
5767.499999999999
 21
2824.199999999997
  0
LINE
  5
2F2
100
AcDbEntity
  8
1
  6
CONTINUOUS
 62
           7
100
AcDbLine
 10
5767.499999999999
 20
2944.199999999997
 11
5877.499999999999
 21
2944.199999999997
  0
LINE
  5
2F1
100
AcDbEntity
  8
1
  6
CONTINUOUS
 62
           7
100
AcDbLine
 10
5887.499999999999
 20
2934.199999999997
 11
5887.499999999999
 21
2834.199999999997
  0
LINE
  5
2F0
100
AcDbEntity
  8
1
  6
CONTINUOUS
 62
           7
100
AcDbLine
 10
5757.499999999999
 20
2834.199999999997
 11
5757.499999999999
 21
2934.199999999997
  0
LINE
  5
2EF
100
AcDbEntity
  8
976
  6
CONTINUOUS
 62
           7
100
AcDbLine
 10
6372.499999999999
 20
2724.199999999997
 11
6372.500000000001
 21
2757.199999999997
  0
LINE
  5
2EE
100
AcDbEntity
  8
976
  6
CONTINUOUS
 62
           7
100
AcDbLine
 10
6284.499999999999
 20
2724.199999999997
 11
6284.500000000001
 21
2762.199999999997
  0
LINE
  5
2ED
100
AcDbEntity
  8
976
  6
CONTINUOUS
 62
           7
100
AcDbLine
 10
5930.500159772887
 20
2724.199999999997
 11
5930.500159772887
 21
2762.199999999997
  0
LINE
  5
2EC
100
AcDbEntity
  8
976
  6
CONTINUOUS
 62
           7
100
AcDbLine
 10
5747.722691958724
 20
2724.199999999997
 11
5747.722691958726
 21
2762.199999999997
  0
LINE
  5
2EB
100
AcDbEntity
  8
976
  6
CONTINUOUS
 62
           7
100
AcDbLine
 10
5747.722691958726
 20
2762.199999999997
 11
5077.288529667961
 21
2762.199999999997
  0
LINE
  5
2EA
100
AcDbEntity
  8
976
  6
CONTINUOUS
 62
           7
100
AcDbLine
 10
6284.500000000001
 20
2137.799999999999
 11
6284.499999999999
 21
2175.799999999999
  0
LINE
  5
2E9
100
AcDbEntity
  8
976
  6
CONTINUOUS
 62
           7
100
AcDbLine
 10
5930.500159772887
 20
2137.799999999999
 11
5930.500159772887
 21
2175.799999999999
  0
LINE
  5
2E8
100
AcDbEntity
  8
976
  6
CONTINUOUS
 62
           7
100
AcDbLine
 10
5747.722691958726
 20
2137.799999999999
 11
5747.722691958724
 21
2175.799999999999
  0
LINE
  5
2E7
100
AcDbEntity
  8
976
  6
CONTINUOUS
 62
           7
100
AcDbLine
 10
5930.500159772887
 20
2137.799999999999
 11
6368.940677966101
 21
2137.799999999999
  0
LINE
  5
2E6
100
AcDbEntity
  8
1
  6
CONTINUOUS
 62
           2
100
AcDbLine
 10
5546.986543999089
 20
2630.0
 11
5546.986543999089
 21
2270.0
  0
LINE
  5
2E5
100
AcDbEntity
  8
1
  6
CONTINUOUS
 62
           2
100
AcDbLine
 10
5546.986543999089
 20
2270.0
 11
5958.013456000907
 21
2270.0
  0
LINE
  5
2E4
100
AcDbEntity
  8
1
  6
CONTINUOUS
 62
           2
100
AcDbLine
 10
5958.013456000907
 20
2270.0
 11
5958.013456000907
 21
2630.0
  0
LINE
  5
2E3
100
AcDbEntity
  8
1
  6
CONTINUOUS
 62
           2
100
AcDbLine
 10
5958.013456000907
 20
2630.0
 11
5546.986543999089
 21
2630.0
  0
LINE
  5
2E2
100
AcDbEntity
  8
1
  6
DOT_CENTER
 62
           2
100
AcDbLine
 10
5822.499999999999
 20
2036.87133595567
 11
5822.499999999999
 21
3244.115495431739
  0
LINE
  5
2E1
100
AcDbEntity
  8
7
  6
CONTINUOUS
 62
           4
100
AcDbLine
 10
5961.8
 20
3174.0
 11
5683.2
 21
3174.0
  0
LINE
  5
2E0
100
AcDbEntity
  8
7
  6
CONTINUOUS
 62
           4
100
AcDbLine
 10
5680.305224999999
 20
3135.5
 11
5964.228719
 21
3135.5
  0
LINE
  5
2DF
100
AcDbEntity
  8
7
  6
CONTINUOUS
 62
           4
100
AcDbLine
 10
5967.499999999999
 20
3095.0
 11
5677.499999999999
 21
3095.0
  0
LINE
  5
2DE
100
AcDbEntity
  8
1
  6
DOT_CENTER
 62
           2
100
AcDbLine
 10
5056.271485574417
 20
2450.0
 11
6507.26458776199
 21
2450.0
  0
LINE
  5
2DD
100
AcDbEntity
  8
1
  6
CONTINUOUS
 62
           4
100
AcDbLine
 10
6417.999999999999
 20
2729.5
 11
6452.499999999999
 21
2729.5
  0
LINE
  5
2DC
100
AcDbEntity
  8
1
  6
CONTINUOUS
 62
           7
100
AcDbLine
 10
6452.5
 20
2175.0
 11
6412.5
 21
2175.0
  0
LINE
  5
2DB
100
AcDbEntity
  8
976
  6
CONTINUOUS
 62
           7
100
AcDbLine
 10
6372.499999999999
 20
2724.199999999997
 11
5077.288529667961
 21
2724.199999999997
  0
LINE
  5
2DA
100
AcDbEntity
  8
7
  6
CONTINUOUS
 62
           7
100
AcDbLine
 10
5708.039736
 20
3200.0
 11
5936.960263
 21
3200.0
  0
LINE
  5
2D9
100
AcDbEntity
  8
1
  6
CONTINUOUS
 62
           7
100
AcDbLine
 10
6452.499999999999
 20
2729.5
 11
6452.499999999999
 21
2170.5
  0
LINE
  5
2D8
100
AcDbEntity
  8
1
  6
CONTINUOUS
 62
           7
100
AcDbLine
 10
-855.999999999999
 20
2160.200000000001
 11
-855.999999999999
 21
2765.800000000001
  0
LINE
  5
2D7
100
AcDbEntity
  8
1
  6
CONTINUOUS
 62
           7
100
AcDbLine
 10
161.076192999999
 20
2945.0
 11
246.0
 21
2945.0
  0
LINE
  5
2D6
100
AcDbEntity
  8
1
  6
CONTINUOUS
 62
           7
100
AcDbLine
 10
246.0
 20
2825.0
 11
161.076192999999
 21
2825.0
  0
LINE
  5
2D5
100
AcDbEntity
  8
1
  6
CONTINUOUS
 62
           7
100
AcDbLine
 10
151.076192999999
 20
2835.0
 11
151.076192999999
 21
2935.0
  0
LINE
  5
2D4
100
AcDbEntity
  8
1
  6
CONTINUOUS
 62
           7
100
AcDbLine
 10
256.0
 20
2935.0
 11
256.0
 21
2835.0
  0
LINE
  5
2D3
100
AcDbEntity
  8
1
  6
CONTINUOUS
 62
           7
100
AcDbLine
 10
590.0
 20
2175.0
 11
590.0
 21
2725.0
  0
LINE
  5
2D2
100
AcDbEntity
  8
976
  6
CONTINUOUS
 62
           7
100
AcDbLine
 10
597.411867714181
 20
2175.0
 11
597.411867714181
 21
2160.200000000001
  0
LINE
  5
2D1
100
AcDbEntity
  8
976
  6
CONTINUOUS
 62
           7
100
AcDbLine
 10
597.411867714181
 20
2763.0
 11
597.411867714181
 21
2725.0
  0
LINE
  5
2D0
100
AcDbEntity
  8
1
  6
CONTINUOUS
 62
           4
100
AcDbLine
 10
255.0
 20
2769.0
 11
260.0
 21
2764.0
  0
LINE
  5
2CF
100
AcDbEntity
  8
1
  6
CONTINUOUS
 62
           4
100
AcDbLine
 10
255.0
 20
2769.0
 11
-255.0
 21
2769.0
  0
LINE
  5
2CE
100
AcDbEntity
  8
1
  6
CONTINUOUS
 62
           4
100
AcDbLine
 10
-260.0
 20
2764.0
 11
-255.0
 21
2769.0
  0
LINE
  5
2CD
100
AcDbEntity
  8
1
  6
CONTINUOUS
 62
           4
100
AcDbLine
 10
-260.000000000001
 20
2763.0
 11
-260.0
 21
2764.0
  0
LINE
  5
2CC
100
AcDbEntity
  8
1
  6
CONTINUOUS
 62
           4
100
AcDbLine
 10
260.0
 20
2763.0
 11
260.0
 21
2764.0
  0
LINE
  5
2CB
100
AcDbEntity
  8
2
  6
CONTINUOUS
 62
           4
100
AcDbLine
 10
-133.500000000001
 20
2785.000000000002
 11
133.5
 21
2785.000000000002
  0
LINE
  5
2CA
100
AcDbEntity
  8
7
  6
CONTINUOUS
 62
           7
100
AcDbLine
 10
145.0
 20
3133.0
 11
145.0
 21
3095.0
  0
LINE
  5
2C9
100
AcDbEntity
  8
7
  6
CONTINUOUS
 62
           7
100
AcDbLine
 10
143.239372
 20
3135.547320000001
 11
143.317005999999
 21
3135.484288000001
  0
LINE
  5
2C8
100
AcDbEntity
  8
2
  6
CONTINUOUS
 62
           7
100
AcDbLine
 10
-151.076193
 20
3081.0
 11
-151.076193
 21
2827.0
  0
LINE
  5
2C7
100
AcDbEntity
  8
2
  6
CONTINUOUS
 62
           7
100
AcDbLine
 10
-133.557986
 20
2795.000000000002
 11
-151.076193
 21
2827.0
  0
LINE
  5
2C6
100
AcDbEntity
  8
2
  6
CONTINUOUS
 62
           7
100
AcDbLine
 10
-143.411978
 20
3095.0
 11
-151.076193
 21
3081.0
  0
LINE
  5
2C5
100
AcDbEntity
  8
2
  6
CONTINUOUS
 62
           7
100
AcDbLine
 10
-150.047587000001
 20
2827.0
 11
-151.076193
 21
2827.0
  0
LINE
  5
2C4
100
AcDbEntity
  8
2
  6
CONTINUOUS
 62
           7
100
AcDbLine
 10
151.076192999999
 20
3081.0
 11
143.411978
 21
3095.0
  0
LINE
  5
2C3
100
AcDbEntity
  8
2
  6
CONTINUOUS
 62
           7
100
AcDbLine
 10
151.076192999999
 20
2827.000000000002
 11
133.557985999999
 21
2795.000000000002
  0
LINE
  5
2C2
100
AcDbEntity
  8
2
  6
CONTINUOUS
 62
           7
100
AcDbLine
 10
151.076192999999
 20
2827.000000000002
 11
151.076192999999
 21
3081.0
  0
LINE
  5
2C1
100
AcDbEntity
  8
7
  6
CONTINUOUS
 62
           7
100
AcDbLine
 10
-143.817006000001
 20
3135.484288000001
 11
-143.739372
 21
3135.547320000001
  0
LINE
  5
2C0
100
AcDbEntity
  8
7
  6
CONTINUOUS
 62
           7
100
AcDbLine
 10
-145.000000000001
 20
3095.0
 11
-145.000000000001
 21
3133.0
  0
LINE
  5
2BF
100
AcDbEntity
  8
7
  6
CONTINUOUS
 62
           7
100
AcDbLine
 10
-117.668846000001
 20
3196.856044
 11
-117.646531000001
 21
3197.096143999999
  0
LINE
  5
2BE
100
AcDbEntity
  8
7
  6
CONTINUOUS
 62
           7
100
AcDbLine
 10
-142.500000000001
 20
3137.1
 11
-142.500000000001
 21
3170.799999999998
  0
LINE
  5
2BD
100
AcDbEntity
  8
7
  6
CONTINUOUS
 62
           7
100
AcDbLine
 10
-136.444424000001
 20
3174.542544
 11
-118.513111000001
 21
3195.402829999999
  0
LINE
  5
2BC
100
AcDbEntity
  8
7
  6
CONTINUOUS
 62
           7
100
AcDbLine
 10
117.668847
 20
3196.856044
 11
117.646531
 21
3197.096143999999
  0
LINE
  5
2BB
100
AcDbEntity
  8
7
  6
CONTINUOUS
 62
           7
100
AcDbLine
 10
142.5
 20
3137.1
 11
142.499999999999
 21
3170.799999999998
  0
LINE
  5
2BA
100
AcDbEntity
  8
7
  6
CONTINUOUS
 62
           7
100
AcDbLine
 10
-114.460263
 20
3200.0
 11
114.460264
 21
3200.0
  0
LINE
  5
2B9
100
AcDbEntity
  8
7
  6
CONTINUOUS
 62
           7
100
AcDbLine
 10
136.444422999999
 20
3174.542544
 11
118.513111
 21
3195.402829999999
  0
LINE
  5
2B8
100
AcDbEntity
  8
1
  6
CONTINUOUS
 62
           7
100
AcDbLine
 10
-133.500000000001
 20
2795.000000000002
 11
-133.500000000001
 21
2769.0
  0
LINE
  5
2B7
100
AcDbEntity
  8
6
  6
CONTINUOUS
 62
           7
100
AcDbLine
 10
133.5
 20
2795.000000000002
 11
133.5
 21
2769.0
  0
LINE
  5
2B6
100
AcDbEntity
  8
976
  6
CONTINUOUS
 62
           7
100
AcDbLine
 10
600.000000000001
 20
2725.0
 11
-825.0
 21
2725.0
  0
LINE
  5
2B5
100
AcDbEntity
  8
976
  6
CONTINUOUS
 62
           7
100
AcDbLine
 10
600.000000000001
 20
2175.0
 11
-825.0
 21
2175.0
  0
LINE
  5
2B4
100
AcDbEntity
  8
1
  6
CONTINUOUS
 62
           7
100
AcDbLine
 10
-855.999999999999
 20
2725.800000000001
 11
-835.0
 21
2725.800000000001
  0
LINE
  5
2B3
100
AcDbEntity
  8
1
  6
CONTINUOUS
 62
           7
100
AcDbLine
 10
-855.999999999999
 20
2765.800000000001
 11
-835.0
 21
2765.800000000001
  0
LINE
  5
2B2
100
AcDbEntity
  8
1
  6
CONTINUOUS
 62
           4
100
AcDbLine
 10
-855.999999999999
 20
2730.300000000001
 11
-835.0
 21
2730.300000000001
  0
LINE
  5
2B1
100
AcDbEntity
  8
976
  6
CONTINUOUS
 62
           7
100
AcDbLine
 10
566.000000000001
 20
2175.0
 11
566.000000000001
 21
2160.200000000001
  0
LINE
  5
2B0
100
AcDbEntity
  8
976
  6
CONTINUOUS
 62
           7
100
AcDbLine
 10
566.000000000001
 20
2763.0
 11
566.000000000001
 21
2725.0
  0
LINE
  5
2AF
100
AcDbEntity
  8
976
  6
CONTINUOUS
 62
           7
100
AcDbLine
 10
-63.022294576589
 20
2763.0
 11
-63.022294576589
 21
2725.0
  0
LINE
  5
2AE
100
AcDbEntity
  8
976
  6
CONTINUOUS
 62
           7
100
AcDbLine
 10
-63.022294576589
 20
2175.0
 11
-63.022294576589
 21
2160.200000000001
  0
LINE
  5
2AD
100
AcDbEntity
  8
976
  6
CONTINUOUS
 62
           7
100
AcDbLine
 10
597.411867714181
 20
2763.0
 11
-816.116882454314
 21
2763.0
  0
LINE
  5
2AC
100
AcDbEntity
  8
1
  6
CONTINUOUS
 62
           2
100
AcDbLine
 10
551.093583477743
 20
2251.0
 11
590.0
 21
2251.0
  0
LINE
  5
2AB
100
AcDbEntity
  8
1
  6
CONTINUOUS
 62
           2
100
AcDbLine
 10
551.093583477743
 20
2630.0
 11
551.093583477743
 21
2251.0
  0
LINE
  5
2AA
100
AcDbEntity
  8
1
  6
CONTINUOUS
 62
           2
100
AcDbLine
 10
590.0
 20
2630.0
 11
551.093583477743
 21
2630.0
  0
LINE
  5
2A9
100
AcDbEntity
  8
1
  6
CONTINUOUS
 62
           7
100
AcDbLine
 10
-835.0
 20
2174.199999999999
 11
-855.999999999999
 21
2174.199999999999
  0
LINE
  5
2A8
100
AcDbEntity
  8
1
  6
CONTINUOUS
 62
           4
100
AcDbLine
 10
-835.0
 20
2169.700000000001
 11
-855.999999999999
 21
2169.700000000001
  0
LINE
  5
2A7
100
AcDbEntity
  8
1
  6
CONTINUOUS
 62
           7
100
AcDbLine
 10
-815.0
 20
2175.0
 11
-815.0
 21
2725.0
  0
LINE
  5
2A6
100
AcDbEntity
  8
976
  6
CONTINUOUS
 62
           7
100
AcDbLine
 10
-816.116882454314
 20
2763.0
 11
-816.116882454314
 21
2725.0
  0
LINE
  5
2A5
100
AcDbEntity
  8
976
  6
CONTINUOUS
 62
           7
100
AcDbLine
 10
-816.116882454314
 20
2175.0
 11
-816.116882454314
 21
2160.200000000001
  0
LINE
  5
2A4
100
AcDbEntity
  8
1
  6
CONTINUOUS
 62
           2
100
AcDbLine
 10
-717.593032057172
 20
2251.0
 11
-400.160800656588
 21
2251.0
  0
LINE
  5
2A3
100
AcDbEntity
  8
1
  6
CONTINUOUS
 62
           2
100
AcDbLine
 10
-400.160800656588
 20
2251.0
 11
-400.160800656588
 21
2630.0
  0
LINE
  5
2A2
100
AcDbEntity
  8
1
  6
CONTINUOUS
 62
           2
100
AcDbLine
 10
-400.160800656588
 20
2630.0
 11
-717.593032057172
 21
2630.0
  0
LINE
  5
2A1
100
AcDbEntity
  8
1
  6
CONTINUOUS
 62
           2
100
AcDbLine
 10
-717.593032057172
 20
2630.0
 11
-717.593032057172
 21
2251.0
  0
LINE
  5
2A0
100
AcDbEntity
  8
1
  6
DOT_CENTER
 62
           2
100
AcDbLine
 10
-913.409104289506
 20
2450.0
 11
646.013204171227
 21
2450.0
  0
LINE
  5
29F
100
AcDbEntity
  8
7
  6
CONTINUOUS
 62
           4
100
AcDbLine
 10
145.0
 20
3095.0
 11
-145.000000000001
 21
3095.0
  0
LINE
  5
29E
100
AcDbEntity
  8
7
  6
CONTINUOUS
 62
           4
100
AcDbLine
 10
139.299999999999
 20
3174.0
 11
-139.300000000001
 21
3174.0
  0
LINE
  5
29D
100
AcDbEntity
  8
7
  6
CONTINUOUS
 62
           4
100
AcDbLine
 10
-141.728719000001
 20
3135.5
 11
142.194775
 21
3135.5
  0
LINE
  5
29C
100
AcDbEntity
  8
1
  6
CONTINUOUS
 62
           7
100
AcDbLine
 10
-855.000000000002
 20
6555.12329172748
 11
40.999999999999
 21
6555.12329172748
  0
LINE
  5
29B
100
AcDbEntity
  8
1
  6
CONTINUOUS
 62
           7
100
AcDbLine
 10
-850.000000000001
 20
6515.12329172748
 11
-855.000000000002
 21
6520.12329172748
  0
LINE
  5
29A
100
AcDbEntity
  8
1
  6
CONTINUOUS
 62
           7
100
AcDbLine
 10
35.999999999999
 20
6515.12329172748
 11
40.999999999999
 21
6520.12329172748
  0
LINE
  5
299
100
AcDbEntity
  8
1
  6
CONTINUOUS
 62
           7
100
AcDbLine
 10
35.999999999999
 20
6515.12329172748
 11
-850.000000000001
 21
6515.12329172748
  0
LINE
  5
298
100
AcDbEntity
  8
1
  6
CONTINUOUS
 62
           7
100
AcDbLine
 10
-855.000000000002
 20
6520.12329172748
 11
-855.000000000002
 21
6555.12329172748
  0
LINE
  5
297
100
AcDbEntity
  8
1
  6
CONTINUOUS
 62
           7
100
AcDbLine
 10
40.999999999999
 20
6555.12329172748
 11
40.999999999999
 21
6520.12329172748
  0
LINE
  5
296
100
AcDbEntity
  8
1
  6
CONTINUOUS
 62
           4
100
AcDbLine
 10
40.999999999999
 20
6550.62329172748
 11
-855.000000000001
 21
6550.62329172748
  0
LINE
  5
295
100
AcDbEntity
  8
1
  6
CONTINUOUS
 62
           4
100
AcDbLine
 10
-855.000000000001
 20
6559.623291727478
 11
40.999999999999
 21
6559.62329172748
  0
LINE
  5
294
100
AcDbEntity
  8
1
  6
CONTINUOUS
 62
           7
100
AcDbLine
 10
40.999999999999
 20
6590.12329172748
 11
40.999999999999
 21
6555.12329172748
  0
LINE
  5
293
100
AcDbEntity
  8
1
  6
CONTINUOUS
 62
           7
100
AcDbLine
 10
-855.000000000002
 20
6555.12329172748
 11
-855.000000000002
 21
6590.12329172748
  0
LINE
  5
292
100
AcDbEntity
  8
1
  6
CONTINUOUS
 62
           7
100
AcDbLine
 10
-850.000000000001
 20
6595.123291727478
 11
35.999999999999
 21
6595.12329172748
  0
LINE
  5
291
100
AcDbEntity
  8
1
  6
CONTINUOUS
 62
           7
100
AcDbLine
 10
40.999999999999
 20
6590.12329172748
 11
35.999999999999
 21
6595.12329172748
  0
LINE
  5
290
100
AcDbEntity
  8
1
  6
CONTINUOUS
 62
           7
100
AcDbLine
 10
-855.000000000002
 20
6590.12329172748
 11
-850.000000000001
 21
6595.123291727478
  0
LINE
  5
28F
100
AcDbEntity
  8
1
  6
CONTINUOUS
 62
           7
100
AcDbLine
 10
587.430147030913
 20
5890.345983686205
 11
-63.022294576588
 21
5229.911821395436
  0
LINE
  5
28E
100
AcDbEntity
  8
1
  6
CONTINUOUS
 62
           7
100
AcDbLine
 10
-814.116882454316
 20
5966.006409273168
 11
-63.022294576588
 21
5229.911821395436
  0
LINE
  5
28D
100
AcDbEntity
  8
1
  6
CONTINUOUS
 62
           7
100
AcDbLine
 10
556.018279316733
 20
6073.123451500368
 11
181.999999999999
 21
6427.12329172748
  0
LINE
  5
28C
100
AcDbEntity
  8
1
  6
CONTINUOUS
 62
           7
100
AcDbLine
 10
-814.116882454316
 20
5966.006409273168
 11
-220.000000000001
 21
6515.12329172748
  0
LINE
  5
28B
100
AcDbEntity
  8
0
  6
CONTINUOUS
 62
           7
100
AcDbLine
 10
-0.000000000001
 20
6505.12329172748
 11
-0.000000000001
 21
6515.12329172748
  0
LINE
  5
28A
100
AcDbEntity
  8
1
  6
CONTINUOUS
 62
           7
100
AcDbLine
 10
-0.000000000001
 20
6505.12329172748
 11
-0.000000000001
 21
6515.12329172748
  0
LINE
  5
289
100
AcDbEntity
  8
0
  6
CONTINUOUS
 62
           7
100
AcDbLine
 10
-814.000000000002
 20
6515.12329172748
 11
-814.000000000002
 21
6505.123291727481
  0
LINE
  5
288
100
AcDbEntity
  8
0
  6
CONTINUOUS
 62
           7
100
AcDbLine
 10
-823.000000000002
 20
6495.12329172748
 11
-823.000000000002
 21
6005.12329172748
  0
LINE
  5
287
100
AcDbEntity
  8
0
  6
CONTINUOUS
 62
           7
100
AcDbLine
 10
-814.000000000002
 20
6505.123291727481
 11
-823.000000000002
 21
6495.12329172748
  0
LINE
  5
286
100
AcDbEntity
  8
0
  6
CONTINUOUS
 62
           7
100
AcDbLine
 10
30.724756890082
 20
6451.906451742985
 11
-0.000000000001
 21
6505.12329172748
  0
LINE
  5
285
100
AcDbEntity
  8
1
  6
CONTINUOUS
 62
           7
100
AcDbLine
 10
-225.999999999999
 20
6191.12329172748
 11
-225.999999999999
 21
5705.12329172748
  0
LINE
  5
284
100
AcDbEntity
  8
1
  6
CONTINUOUS
 62
           7
100
AcDbLine
 10
226.000000000001
 20
6191.12329172748
 11
-259.999999999999
 21
6191.12329172748
  0
LINE
  5
283
100
AcDbEntity
  8
1
  6
CONTINUOUS
 62
           7
100
AcDbLine
 10
226.000000000001
 20
5739.12329172748
 11
226.000000000001
 21
5900.12329172748
  0
LINE
  5
282
100
AcDbEntity
  8
1
  6
CONTINUOUS
 62
           7
100
AcDbLine
 10
-225.999999999999
 20
5739.12329172748
 11
260.000000000002
 21
5739.12329172748
  0
LINE
  5
281
100
AcDbEntity
  8
1
  6
CONTINUOUS
 62
           7
100
AcDbLine
 10
226.000000000001
 20
6030.12329172748
 11
226.000000000001
 21
6225.12329172748
  0
LINE
  5
280
100
AcDbEntity
  8
1
  6
CONTINUOUS
 62
           4
100
AcDbLine
 10
171.319409665061
 20
5929.420912646875
 11
171.31940966506
 21
5915.12329172748
  0
LINE
  5
27F
100
AcDbEntity
  8
1
  6
CONTINUOUS
 62
           4
100
AcDbLine
 10
171.31940966506
 20
6015.12329172748
 11
171.31940966506
 21
6000.825670808087
  0
LINE
  5
27E
100
AcDbEntity
  8
1
  6
CONTINUOUS
 62
           4
100
AcDbLine
 10
187.339745962156
 20
5905.12329172748
 11
181.31940966506
 21
5905.12329172748
  0
LINE
  5
27D
100
AcDbEntity
  8
1
  6
CONTINUOUS
 62
           4
100
AcDbLine
 10
187.339745962157
 20
6025.12329172748
 11
181.31940966506
 21
6025.12329172748
  0
LINE
  5
27C
100
AcDbEntity
  8
1
  6
CONTINUOUS
 62
           7
100
AcDbLine
 10
246.0
 20
5900.12329172748
 11
196.0
 21
5900.12329172748
  0
LINE
  5
27B
100
AcDbEntity
  8
1
  6
CONTINUOUS
 62
           7
100
AcDbLine
 10
196.0
 20
6030.12329172748
 11
246.0
 21
6030.12329172748
  0
LINE
  5
27A
100
AcDbEntity
  8
1
  6
CONTINUOUS
 62
           7
100
AcDbLine
 10
186.0
 20
5910.12329172748
 11
186.0
 21
6020.12329172748
  0
LINE
  5
279
100
AcDbEntity
  8
1
  6
CONTINUOUS
 62
           7
100
AcDbLine
 10
256.0
 20
6020.12329172748
 11
256.0
 21
5910.12329172748
  0
LINE
  5
278
100
AcDbEntity
  8
1
  6
DOT_CENTER
 62
           2
100
AcDbLine
 10
-407.500000000001
 20
6648.150585559096
 11
-407.500000000001
 21
6365.788387671714
  0
LINE
  5
277
100
AcDbEntity
  8
1
  6
CONTINUOUS
 62
           3
100
AcDbLine
 10
5769.466432415577
 20
1443.853989524961
 11
5609.349597227116
 21
1603.97082471342
  0
LINE
  5
276
100
AcDbEntity
  8
1
  6
CONTINUOUS
 62
           3
100
AcDbLine
 10
5603.692742977623
 20
1598.313970463931
 11
5763.809578166084
 21
1438.197135275468
  0
LINE
  5
275
100
AcDbEntity
  8
1
  6
CONTINUOUS
 62
           3
100
AcDbLine
 10
5382.399996810935
 20
1697.110868296099
 11
5384.489640809793
 21
1697.110868296099
  0
LINE
  5
274
100
AcDbEntity
  8
1
  6
CONTINUOUS
 62
           3
100
AcDbLine
 10
5382.399998122329
 20
1689.110868296101
 11
5384.489640809793
 21
1689.110868296101
  0
LINE
  5
273
100
AcDbEntity
  8
1
  6
CONTINUOUS
 62
           3
100
AcDbLine
 10
5790.420285209858
 20
1432.756717518812
 11
5784.091715893665
 21
1434.452452556337
  0
LINE
  5
272
100
AcDbEntity
  8
1
  6
CONTINUOUS
 62
           3
100
AcDbLine
 10
5793.259440871726
 20
1422.160844338134
 11
5790.420285209858
 21
1432.756717518812
  0
LINE
  5
271
100
AcDbEntity
  8
1
  6
CONTINUOUS
 62
           3
100
AcDbLine
 10
5785.502723352912
 20
1414.404126819321
 11
5793.259440871726
 21
1422.160844338134
  0
LINE
  5
270
100
AcDbEntity
  8
1
  6
CONTINUOUS
 62
           3
100
AcDbLine
 10
5774.906850172233
 20
1417.243282481186
 11
5785.502723352912
 21
1414.404126819321
  0
LINE
  5
26F
100
AcDbEntity
  8
1
  6
CONTINUOUS
 62
           3
100
AcDbLine
 10
5773.211115134715
 20
1423.571851797376
 11
5774.906850172233
 21
1417.243282481186
  0
LINE
  5
26E
100
AcDbEntity
  8
1
  6
DOT_CENTER
 62
           3
100
AcDbLine
 10
5765.731861780773
 20
1441.931705910272
 11
5795.040854995536
 21
1412.622712695509
  0
LINE
  5
26D
100
AcDbEntity
  8
1
  6
CONTINUOUS
 62
           3
100
AcDbLine
 10
5769.211318804976
 20
1426.784986996492
 11
5769.604649370288
 21
1427.178317561802
  0
LINE
  5
26C
100
AcDbEntity
  8
1
  6
CONTINUOUS
 62
           3
100
AcDbLine
 10
5769.211318804976
 20
1426.784986996492
 11
5762.37033578607
 21
1433.625970015395
  0
LINE
  5
26B
100
AcDbEntity
  8
1
  6
CONTINUOUS
 62
           3
100
AcDbLine
 10
5762.37033578607
 20
1433.625970015395
 11
5768.203966730859
 21
1439.459600960186
  0
LINE
  5
26A
100
AcDbEntity
  8
1
  6
CONTINUOUS
 62
           3
100
AcDbLine
 10
5763.961326043741
 20
1435.216960273066
 11
5763.363251223441
 21
1435.815035093365
  0
LINE
  5
269
100
AcDbEntity
  8
1
  6
CONTINUOUS
 62
           3
100
AcDbLine
 10
5762.165591531083
 20
1434.617375401007
 11
5767.60589191056
 21
1440.057675780485
  0
LINE
  5
268
100
AcDbEntity
  8
1
  6
CONTINUOUS
 62
           3
100
AcDbLine
 10
5762.165591531083
 20
1434.617375401007
 11
5761.666918125465
 21
1435.116048806625
  0
LINE
  5
267
100
AcDbEntity
  8
1
  6
CONTINUOUS
 62
           3
100
AcDbLine
 10
5766.753665114348
 20
1440.909902576697
 11
5761.666918125465
 21
1435.823155587812
  0
LINE
  5
266
100
AcDbEntity
  8
1
  6
CONTINUOUS
 62
           3
100
AcDbLine
 10
5771.840412103232
 20
1445.996649565581
 11
5766.753665114348
 21
1440.909902576697
  0
LINE
  5
265
100
AcDbEntity
  8
1
  6
CONTINUOUS
 62
           3
100
AcDbLine
 10
5772.547518884418
 20
1445.996649565581
 11
5773.046192290037
 21
1445.497976159963
  0
LINE
  5
264
100
AcDbEntity
  8
1
  6
CONTINUOUS
 62
           3
100
AcDbLine
 10
5767.60589191056
 20
1440.057675780485
 11
5773.046192290037
 21
1445.497976159963
  0
LINE
  5
263
100
AcDbEntity
  8
1
  6
CONTINUOUS
 62
           3
100
AcDbLine
 10
5771.848532597679
 20
1444.300316467605
 11
5772.446607417979
 21
1443.702241647306
  0
LINE
  5
262
100
AcDbEntity
  8
1
  6
CONTINUOUS
 62
           3
100
AcDbLine
 10
5774.03759767565
 20
1445.293231904974
 11
5780.878580694553
 21
1438.452248886069
  0
LINE
  5
261
100
AcDbEntity
  8
1
  6
CONTINUOUS
 62
           3
100
AcDbLine
 10
5768.203966730859
 20
1439.459600960186
 11
5774.03759767565
 21
1445.293231904974
  0
LINE
  5
260
100
AcDbEntity
  8
1
  6
CONTINUOUS
 62
           3
100
AcDbLine
 10
5780.485250129242
 20
1438.058918320759
 11
5780.878580694553
 21
1438.452248886069
  0
LINE
  5
25F
100
AcDbEntity
  8
1
  6
CONTINUOUS
 62
           3
100
AcDbLine
 10
5769.604649370288
 20
1427.178317561802
 11
5780.485250129242
 21
1438.058918320759
  0
LINE
  5
25E
100
AcDbEntity
  8
1
  6
CONTINUOUS
 62
           3
100
AcDbLine
 10
5773.751912345796
 20
1423.031054586296
 11
5784.63251310475
 21
1433.91165534525
  0
LINE
  5
25D
100
AcDbEntity
  8
1
  6
CONTINUOUS
 62
           3
100
AcDbLine
 10
5773.751912345796
 20
1423.031054586296
 11
5769.604649370288
 21
1427.178317561802
  0
LINE
  5
25C
100
AcDbEntity
  8
1
  6
CONTINUOUS
 62
           3
100
AcDbLine
 10
5784.63251310475
 20
1433.91165534525
 11
5780.485250129242
 21
1438.058918320759
  0
LINE
  5
25B
100
AcDbEntity
  8
1
  6
CONTINUOUS
 62
           3
100
AcDbLine
 10
5783.344227068295
 20
1432.623369308794
 11
5786.815582034067
 21
1429.152014343021
  0
LINE
  5
25A
100
AcDbEntity
  8
1
  6
DOT_CENTER
 62
           3
100
AcDbLine
 10
5792.31101852017
 20
1434.647450829123
 11
5770.294861711785
 21
1412.631294020741
  0
LINE
  5
259
100
AcDbEntity
  8
1
  6
CONTINUOUS
 62
           3
100
AcDbLine
 10
5778.511553348028
 20
1420.847985656979
 11
5775.040198382253
 21
1424.319340622753
  0
LINE
  5
258
100
AcDbEntity
  8
0
  6
CONTINUOUS
 62
           3
100
AcDbLine
 10
5277.344723494176
 20
1393.116392195192
 11
5278.399996721678
 21
1393.131740391393
  0
LINE
  5
257
100
AcDbEntity
  8
0
  6
CONTINUOUS
 62
           3
100
AcDbLine
 10
5276.403805503278
 20
1393.072016537193
 11
5277.344723494176
 21
1393.116392195192
  0
LINE
  5
256
100
AcDbEntity
  8
0
  6
CONTINUOUS
 62
           3
100
AcDbLine
 10
5275.679205573576
 20
1393.003411590991
 11
5276.403805503278
 21
1393.072016537193
  0
LINE
  5
255
100
AcDbEntity
  8
0
  6
CONTINUOUS
 62
           3
100
AcDbLine
 10
5275.249445840379
 20
1392.918020486794
 11
5275.679205573576
 21
1393.003411590991
  0
LINE
  5
254
100
AcDbEntity
  8
0
  6
CONTINUOUS
 62
           3
100
AcDbLine
 10
5275.161097088375
 20
1392.825089394992
 11
5275.249445840379
 21
1392.918020486794
  0
LINE
  5
253
100
AcDbEntity
  8
0
  6
CONTINUOUS
 62
           3
100
AcDbLine
 10
5275.399996695579
 20
1392.739541828792
 11
5275.161097088375
 21
1392.825089394992
  0
LINE
  5
252
100
AcDbEntity
  8
0
  6
CONTINUOUS
 62
           3
100
AcDbLine
 10
5281.638896354966
 20
1392.825089394992
 11
5281.399996747766
 21
1392.739541828792
  0
LINE
  5
251
100
AcDbEntity
  8
0
  6
CONTINUOUS
 62
           3
100
AcDbLine
 10
5281.550547602965
 20
1392.918020486794
 11
5281.638896354966
 21
1392.825089394992
  0
LINE
  5
250
100
AcDbEntity
  8
0
  6
CONTINUOUS
 62
           3
100
AcDbLine
 10
5281.120787869766
 20
1393.003411590991
 11
5281.550547602965
 21
1392.918020486794
  0
LINE
  5
24F
100
AcDbEntity
  8
0
  6
CONTINUOUS
 62
           3
100
AcDbLine
 10
5280.396187940065
 20
1393.072016537193
 11
5281.120787869766
 21
1393.003411590991
  0
LINE
  5
24E
100
AcDbEntity
  8
0
  6
CONTINUOUS
 62
           3
100
AcDbLine
 10
5279.455269949177
 20
1393.116392195192
 11
5280.396187940065
 21
1393.072016537193
  0
LINE
  5
24D
100
AcDbEntity
  8
0
  6
CONTINUOUS
 62
           3
100
AcDbLine
 10
5278.399996721678
 20
1393.131740391393
 11
5279.455269949177
 21
1393.116392195192
  0
LINE
  5
24C
100
AcDbEntity
  8
FORMAT
  6
CONTINUOUS
 62
           3
100
AcDbLine
 10
5274.899996721576
 20
1392.596845102893
 11
5264.399996721587
 21
1392.596845102893
  0
LINE
  5
24B
100
AcDbEntity
  8
FORMAT
  6
DOT_CENTER
 62
           3
100
AcDbLine
 10
5278.399996721678
 20
1249.759397252255
 11
5278.399996721678
 21
1725.394390768569
  0
LINE
  5
24A
100
AcDbEntity
  8
FORMAT
  6
CONTINUOUS
 62
           3
100
AcDbLine
 10
5281.899996721767
 20
1392.596845102893
 11
5274.899996721576
 21
1392.596845102893
  0
LINE
  5
249
100
AcDbEntity
  8
FORMAT
  6
CONTINUOUS
 62
           3
100
AcDbLine
 10
5292.399996721758
 20
1392.596845102893
 11
5281.899996721767
 21
1392.596845102893
  0
LINE
  5
248
100
AcDbEntity
  8
FORMAT
  6
DOT_CENTER
 62
           3
100
AcDbLine
 10
5203.499996721635
 20
1375.000000000007
 11
5189.899996721747
 21
1375.000000000007
  0
LINE
  5
247
100
AcDbEntity
  8
FORMAT
  6
DOT_CENTER
 62
           3
100
AcDbLine
 10
5203.499996721635
 20
1625.0
 11
5189.899996721747
 21
1625.0
  0
LINE
  5
246
100
AcDbEntity
  8
0
  6
CONTINUOUS
 62
           3
100
AcDbLine
 10
5213.399999106023
 20
1364.999994635815
 11
5197.999999189236
 21
1364.999994635815
  0
LINE
  5
245
100
AcDbEntity
  8
0
  6
CONTINUOUS
 62
           3
100
AcDbLine
 10
5216.899995023126
 20
1590.000003576231
 11
5216.899995023126
 21
1509.999999776395
  0
LINE
  5
244
100
AcDbEntity
  8
0
  6
CONTINUOUS
 62
           3
100
AcDbLine
 10
5219.899997377519
 20
1590.000003576231
 11
5216.899995023126
 21
1590.000003576231
  0
LINE
  5
243
100
AcDbEntity
  8
0
  6
CONTINUOUS
 62
           3
100
AcDbLine
 10
5219.899997377519
 20
1550.000000744964
 11
5219.899997377519
 21
1590.000003576231
  0
LINE
  5
242
100
AcDbEntity
  8
0
  6
CONTINUOUS
 62
           3
100
AcDbLine
 10
5219.899997377519
 20
1529.999999329481
 11
5219.899997377519
 21
1532.000001519878
  0
LINE
  5
241
100
AcDbEntity
  8
0
  6
CONTINUOUS
 62
           3
100
AcDbLine
 10
5216.899995023126
 20
1509.999999776395
 11
5218.475189322327
 21
1509.999999776395
  0
LINE
  5
240
100
AcDbEntity
  8
0
  6
CONTINUOUS
 62
           3
100
AcDbLine
 10
5338.399995380623
 20
1368.000000715314
 11
5338.399995380623
 21
1367.300003767015
  0
LINE
  5
23F
100
AcDbEntity
  8
0
  6
CONTINUOUS
 62
           3
100
AcDbLine
 10
5343.399994337317
 20
1364.999994635815
 11
5343.399994337317
 21
1368.000000715314
  0
LINE
  5
23E
100
AcDbEntity
  8
0
  6
CONTINUOUS
 62
           3
100
AcDbLine
 10
5343.399994337317
 20
1635.000005364196
 11
5343.399994337317
 21
1631.999999284697
  0
LINE
  5
23D
100
AcDbEntity
  8
0
  6
CONTINUOUS
 62
           3
100
AcDbLine
 10
5338.399995380623
 20
1631.999999284697
 11
5338.399995380623
 21
1632.699996232996
  0
LINE
  5
23C
100
AcDbEntity
  8
0
  6
CONTINUOUS
 62
           3
100
AcDbLine
 10
5218.399998062717
 20
1631.999999284697
 11
5218.399998062717
 21
1632.699996232996
  0
LINE
  5
23B
100
AcDbEntity
  8
0
  6
CONTINUOUS
 62
           3
100
AcDbLine
 10
5213.399999106023
 20
1635.000005364196
 11
5213.399999106023
 21
1631.999999284697
  0
LINE
  5
23A
100
AcDbEntity
  8
0
  6
CONTINUOUS
 62
           3
100
AcDbLine
 10
5213.399999106023
 20
1635.000005364196
 11
5197.999999189236
 21
1635.000005364196
  0
LINE
  5
239
100
AcDbEntity
  8
0
  6
CONTINUOUS
 62
           3
100
AcDbLine
 10
5213.399999106023
 20
1364.999994635815
 11
5213.399999106023
 21
1368.000000715314
  0
LINE
  5
238
100
AcDbEntity
  8
0
  6
CONTINUOUS
 62
           3
100
AcDbLine
 10
5218.399998062717
 20
1368.000000715314
 11
5218.399998062717
 21
1367.300003767015
  0
LINE
  5
237
100
AcDbEntity
  8
0
  6
CONTINUOUS
 62
           3
100
AcDbLine
 10
5216.899995023126
 20
1409.99999642378
 11
5216.899995023126
 21
1490.000000223612
  0
LINE
  5
236
100
AcDbEntity
  8
0
  6
CONTINUOUS
 62
           3
100
AcDbLine
 10
5216.899995023126
 20
1490.000000223612
 11
5218.399998062717
 21
1490.000000223612
  0
LINE
  5
235
100
AcDbEntity
  8
0
  6
CONTINUOUS
 62
           3
100
AcDbLine
 10
5219.899997377519
 20
1431.999996304558
 11
5219.899997377519
 21
1429.999999701962
  0
LINE
  5
234
100
AcDbEntity
  8
0
  6
CONTINUOUS
 62
           3
100
AcDbLine
 10
5218.475189322327
 20
1409.99999642378
 11
5216.899995023126
 21
1409.99999642378
  0
LINE
  5
233
100
AcDbEntity
  8
0
  6
CONTINUOUS
 62
           3
100
AcDbLine
 10
5339.899998420227
 20
1590.000003576231
 11
5339.899998420227
 21
1509.999999776395
  0
LINE
  5
232
100
AcDbEntity
  8
0
  6
CONTINUOUS
 62
           3
100
AcDbLine
 10
5339.899998420227
 20
1509.999999776395
 11
5338.324804121025
 21
1509.999999776395
  0
LINE
  5
231
100
AcDbEntity
  8
0
  6
CONTINUOUS
 62
           3
100
AcDbLine
 10
5336.899996066128
 20
1550.000000744964
 11
5336.899996066128
 21
1590.000003576231
  0
LINE
  5
230
100
AcDbEntity
  8
0
  6
CONTINUOUS
 62
           3
100
AcDbLine
 10
5336.899996066128
 20
1529.999999329481
 11
5336.899996066128
 21
1532.000001519878
  0
LINE
  5
22F
100
AcDbEntity
  8
0
  6
CONTINUOUS
 62
           3
100
AcDbLine
 10
5336.899996066128
 20
1590.000003576231
 11
5339.899998420227
 21
1590.000003576231
  0
LINE
  5
22E
100
AcDbEntity
  8
0
  6
CONTINUOUS
 62
           3
100
AcDbLine
 10
5339.899998420227
 20
1409.99999642378
 11
5339.899998420227
 21
1490.000000223612
  0
LINE
  5
22D
100
AcDbEntity
  8
0
  6
CONTINUOUS
 62
           3
100
AcDbLine
 10
5338.324804121025
 20
1409.99999642378
 11
5339.899998420227
 21
1409.99999642378
  0
LINE
  5
22C
100
AcDbEntity
  8
0
  6
CONTINUOUS
 62
           3
100
AcDbLine
 10
5336.899996066128
 20
1431.999996304558
 11
5336.899996066128
 21
1429.999999701962
  0
LINE
  5
22B
100
AcDbEntity
  8
0
  6
CONTINUOUS
 62
           3
100
AcDbLine
 10
5339.899998420227
 20
1490.000000223612
 11
5338.399995380623
 21
1490.000000223612
  0
LINE
  5
22A
100
AcDbEntity
  8
0
  6
CONTINUOUS
 62
           3
100
AcDbLine
 10
5197.999999189236
 20
1635.000005364196
 11
5195.899993443336
 21
1635.000005364196
  0
LINE
  5
229
100
AcDbEntity
  8
0
  6
CONTINUOUS
 62
           3
100
AcDbLine
 10
5195.899993443336
 20
1635.000005364196
 11
5195.899993443336
 21
1364.999994635815
  0
LINE
  5
228
100
AcDbEntity
  8
0
  6
CONTINUOUS
 62
           3
100
AcDbLine
 10
5197.999999189236
 20
1364.999994635815
 11
5195.899993443336
 21
1364.999994635815
  0
LINE
  5
227
100
AcDbEntity
  8
0
  6
CONTINUOUS
 62
           3
100
AcDbLine
 10
5218.399998062717
 20
1366.600006818713
 11
5218.399998062717
 21
1367.300003767015
  0
LINE
  5
226
100
AcDbEntity
  8
0
  6
CONTINUOUS
 62
           3
100
AcDbLine
 10
5338.399995380623
 20
1366.600006818713
 11
5338.399995380623
 21
1367.300003767015
  0
LINE
  5
225
100
AcDbEntity
  8
0
  6
CONTINUOUS
 62
           3
100
AcDbLine
 10
5218.399998062717
 20
1633.399993180996
 11
5218.399998062717
 21
1632.699996232996
  0
LINE
  5
224
100
AcDbEntity
  8
0
  6
CONTINUOUS
 62
           3
100
AcDbLine
 10
5338.399995380623
 20
1633.399993180996
 11
5338.399995380623
 21
1632.699996232996
  0
LINE
  5
223
100
AcDbEntity
  8
0
  6
CONTINUOUS
 62
           3
100
AcDbLine
 10
5333.399996423626
 20
1633.399993180996
 11
5338.399995380623
 21
1633.399993180996
  0
LINE
  5
222
100
AcDbEntity
  8
0
  6
CONTINUOUS
 62
           3
100
AcDbLine
 10
5338.399995380623
 20
1635.000005364196
 11
5333.399996423626
 21
1635.000005364196
  0
LINE
  5
221
100
AcDbEntity
  8
0
  6
CONTINUOUS
 62
           3
100
AcDbLine
 10
5338.399995380623
 20
1633.399993180996
 11
5338.399995380623
 21
1635.000005364196
  0
LINE
  5
220
100
AcDbEntity
  8
0
  6
CONTINUOUS
 62
           3
100
AcDbLine
 10
5333.399996423626
 20
1366.600006818713
 11
5338.399995380623
 21
1366.600006818713
  0
LINE
  5
21F
100
AcDbEntity
  8
0
  6
CONTINUOUS
 62
           3
100
AcDbLine
 10
5338.399995380623
 20
1364.999994635815
 11
5333.399996423626
 21
1364.999994635815
  0
LINE
  5
21E
100
AcDbEntity
  8
0
  6
CONTINUOUS
 62
           3
100
AcDbLine
 10
5338.399995380623
 20
1366.600006818713
 11
5338.399995380623
 21
1364.999994635815
  0
LINE
  5
21D
100
AcDbEntity
  8
0
  6
CONTINUOUS
 62
           3
100
AcDbLine
 10
5323.399998509634
 20
1366.600006818713
 11
5325.399995112236
 21
1366.600006818713
  0
LINE
  5
21C
100
AcDbEntity
  8
0
  6
CONTINUOUS
 62
           3
100
AcDbLine
 10
5325.399995112236
 20
1364.999994635815
 11
5323.399998509634
 21
1364.999994635815
  0
LINE
  5
21B
100
AcDbEntity
  8
0
  6
CONTINUOUS
 62
           3
100
AcDbLine
 10
5325.399995112236
 20
1366.600006818713
 11
5325.399995112236
 21
1364.999994635815
  0
LINE
  5
21A
100
AcDbEntity
  8
0
  6
CONTINUOUS
 62
           3
100
AcDbLine
 10
5323.399998509634
 20
1633.399993180996
 11
5325.399995112236
 21
1633.399993180996
  0
LINE
  5
219
100
AcDbEntity
  8
0
  6
CONTINUOUS
 62
           3
100
AcDbLine
 10
5325.399995112236
 20
1635.000005364196
 11
5323.399998509634
 21
1635.000005364196
  0
LINE
  5
218
100
AcDbEntity
  8
0
  6
CONTINUOUS
 62
           3
100
AcDbLine
 10
5325.399995112236
 20
1633.399993180996
 11
5325.399995112236
 21
1635.000005364196
  0
LINE
  5
217
100
AcDbEntity
  8
0
  6
CONTINUOUS
 62
           3
100
AcDbLine
 10
5331.399996095923
 20
1366.600006818713
 11
5333.399996423626
 21
1366.600006818713
  0
LINE
  5
216
100
AcDbEntity
  8
0
  6
CONTINUOUS
 62
           3
100
AcDbLine
 10
5333.399996423626
 20
1364.999994635815
 11
5331.399996095923
 21
1364.999994635815
  0
LINE
  5
215
100
AcDbEntity
  8
0
  6
CONTINUOUS
 62
           3
100
AcDbLine
 10
5331.399996095923
 20
1364.999994635815
 11
5331.399996095923
 21
1366.600006818713
  0
LINE
  5
214
100
AcDbEntity
  8
0
  6
CONTINUOUS
 62
           3
100
AcDbLine
 10
5331.399996095923
 20
1633.399993180996
 11
5333.399996423626
 21
1633.399993180996
  0
LINE
  5
213
100
AcDbEntity
  8
0
  6
CONTINUOUS
 62
           3
100
AcDbLine
 10
5333.399996423626
 20
1635.000005364196
 11
5331.399996095923
 21
1635.000005364196
  0
LINE
  5
212
100
AcDbEntity
  8
0
  6
CONTINUOUS
 62
           3
100
AcDbLine
 10
5331.399996095923
 20
1635.000005364196
 11
5331.399996095923
 21
1633.399993180996
  0
LINE
  5
211
100
AcDbEntity
  8
0
  6
CONTINUOUS
 62
           3
100
AcDbLine
 10
5223.399997019715
 20
1633.399993180996
 11
5218.399998062717
 21
1633.399993180996
  0
LINE
  5
210
100
AcDbEntity
  8
0
  6
CONTINUOUS
 62
           3
100
AcDbLine
 10
5218.399998062717
 20
1635.000005364196
 11
5223.399997019715
 21
1635.000005364196
  0
LINE
  5
20F
100
AcDbEntity
  8
0
  6
CONTINUOUS
 62
           3
100
AcDbLine
 10
5218.399998062717
 20
1633.399993180996
 11
5218.399998062717
 21
1635.000005364196
  0
LINE
  5
20E
100
AcDbEntity
  8
0
  6
CONTINUOUS
 62
           3
100
AcDbLine
 10
5223.399997019715
 20
1366.600006818713
 11
5218.399998062717
 21
1366.600006818713
  0
LINE
  5
20D
100
AcDbEntity
  8
0
  6
CONTINUOUS
 62
           3
100
AcDbLine
 10
5218.399998062717
 20
1364.999994635815
 11
5223.399997019715
 21
1364.999994635815
  0
LINE
  5
20C
100
AcDbEntity
  8
0
  6
CONTINUOUS
 62
           3
100
AcDbLine
 10
5218.399998062717
 20
1366.600006818713
 11
5218.399998062717
 21
1364.999994635815
  0
LINE
  5
20B
100
AcDbEntity
  8
0
  6
CONTINUOUS
 62
           3
100
AcDbLine
 10
5233.399994933706
 20
1633.399993180996
 11
5323.399998509634
 21
1633.399993180996
  0
LINE
  5
20A
100
AcDbEntity
  8
0
  6
CONTINUOUS
 62
           3
100
AcDbLine
 10
5233.399994933706
 20
1635.000005364196
 11
5323.399998509634
 21
1635.000005364196
  0
LINE
  5
209
100
AcDbEntity
  8
0
  6
CONTINUOUS
 62
           3
100
AcDbLine
 10
5233.399994933706
 20
1366.600006818713
 11
5323.399998509634
 21
1366.600006818713
  0
LINE
  5
208
100
AcDbEntity
  8
0
  6
CONTINUOUS
 62
           3
100
AcDbLine
 10
5233.399994933706
 20
1364.999994635815
 11
5323.399998509634
 21
1364.999994635815
  0
LINE
  5
207
100
AcDbEntity
  8
0
  6
CONTINUOUS
 62
           3
100
AcDbLine
 10
5233.399994933706
 20
1366.600006818713
 11
5231.399998331106
 21
1366.600006818713
  0
LINE
  5
206
100
AcDbEntity
  8
0
  6
CONTINUOUS
 62
           3
100
AcDbLine
 10
5231.399998331106
 20
1366.600006818713
 11
5231.399998331106
 21
1364.999994635815
  0
LINE
  5
205
100
AcDbEntity
  8
0
  6
CONTINUOUS
 62
           3
100
AcDbLine
 10
5231.399998331106
 20
1364.999994635815
 11
5233.399994933706
 21
1364.999994635815
  0
LINE
  5
204
100
AcDbEntity
  8
0
  6
CONTINUOUS
 62
           3
100
AcDbLine
 10
5233.399994933706
 20
1633.399993180996
 11
5231.399998331106
 21
1633.399993180996
  0
LINE
  5
203
100
AcDbEntity
  8
0
  6
CONTINUOUS
 62
           3
100
AcDbLine
 10
5231.399998331106
 20
1635.000005364196
 11
5233.399994933706
 21
1635.000005364196
  0
LINE
  5
202
100
AcDbEntity
  8
0
  6
CONTINUOUS
 62
           3
100
AcDbLine
 10
5231.399998331106
 20
1633.399993180996
 11
5231.399998331106
 21
1635.000005364196
  0
LINE
  5
201
100
AcDbEntity
  8
0
  6
CONTINUOUS
 62
           3
100
AcDbLine
 10
5225.399997347716
 20
1633.399993180996
 11
5223.399997019715
 21
1633.399993180996
  0
LINE
  5
200
100
AcDbEntity
  8
0
  6
CONTINUOUS
 62
           3
100
AcDbLine
 10
5225.399997347716
 20
1635.000005364196
 11
5225.399997347716
 21
1633.399993180996
  0
LINE
  5
1FF
100
AcDbEntity
  8
0
  6
CONTINUOUS
 62
           3
100
AcDbLine
 10
5223.399997019715
 20
1635.000005364196
 11
5225.399997347716
 21
1635.000005364196
  0
LINE
  5
1FE
100
AcDbEntity
  8
0
  6
CONTINUOUS
 62
           3
100
AcDbLine
 10
5225.399997347716
 20
1366.600006818713
 11
5223.399997019715
 21
1366.600006818713
  0
LINE
  5
1FD
100
AcDbEntity
  8
0
  6
CONTINUOUS
 62
           3
100
AcDbLine
 10
5223.399997019715
 20
1364.999994635815
 11
5225.399997347716
 21
1364.999994635815
  0
LINE
  5
1FC
100
AcDbEntity
  8
0
  6
CONTINUOUS
 62
           3
100
AcDbLine
 10
5225.399997347716
 20
1364.999994635815
 11
5225.399997347716
 21
1366.600006818713
  0
LINE
  5
1FB
100
AcDbEntity
  8
0
  6
CONTINUOUS
 62
           3
100
AcDbLine
 10
5338.324804121025
 20
1409.99999642378
 11
5336.699996405627
 21
1409.99999642378
  0
LINE
  5
1FA
100
AcDbEntity
  8
0
  6
CONTINUOUS
 62
           3
100
AcDbLine
 10
5336.699996405627
 20
1429.999999701962
 11
5338.399995380623
 21
1429.999999701962
  0
LINE
  5
1F9
100
AcDbEntity
  8
0
  6
CONTINUOUS
 62
           3
100
AcDbLine
 10
5338.399995380623
 20
1429.999999701962
 11
5338.399995380623
 21
1409.99999642378
  0
LINE
  5
1F8
100
AcDbEntity
  8
0
  6
CONTINUOUS
 62
           3
100
AcDbLine
 10
5218.399998062717
 20
1529.999999329481
 11
5220.099997037718
 21
1529.999999329481
  0
LINE
  5
1F7
100
AcDbEntity
  8
0
  6
CONTINUOUS
 62
           3
100
AcDbLine
 10
5218.399998062717
 20
1509.999999776395
 11
5218.399998062717
 21
1529.999999329481
  0
LINE
  5
1F6
100
AcDbEntity
  8
0
  6
CONTINUOUS
 62
           3
100
AcDbLine
 10
5220.099997037718
 20
1509.999999776395
 11
5218.475189322327
 21
1509.999999776395
  0
LINE
  5
1F5
100
AcDbEntity
  8
0
  6
CONTINUOUS
 62
           3
100
AcDbLine
 10
5218.475189322327
 20
1409.99999642378
 11
5220.099997037718
 21
1409.99999642378
  0
LINE
  5
1F4
100
AcDbEntity
  8
0
  6
CONTINUOUS
 62
           3
100
AcDbLine
 10
5220.099997037718
 20
1429.999999701962
 11
5218.399998062717
 21
1429.999999701962
  0
LINE
  5
1F3
100
AcDbEntity
  8
0
  6
CONTINUOUS
 62
           3
100
AcDbLine
 10
5218.399998062717
 20
1429.999999701962
 11
5218.399998062717
 21
1409.99999642378
  0
LINE
  5
1F2
100
AcDbEntity
  8
0
  6
CONTINUOUS
 62
           3
100
AcDbLine
 10
5220.099997037718
 20
1529.999999329481
 11
5220.399998390717
 21
1529.999999329481
  0
LINE
  5
1F1
100
AcDbEntity
  8
0
  6
CONTINUOUS
 62
           3
100
AcDbLine
 10
5220.399998390717
 20
1509.999999776395
 11
5220.099997037718
 21
1509.999999776395
  0
LINE
  5
1F0
100
AcDbEntity
  8
0
  6
CONTINUOUS
 62
           3
100
AcDbLine
 10
5218.399998062717
 20
1508.0000003799
 11
5220.399998390717
 21
1508.0000003799
  0
LINE
  5
1EF
100
AcDbEntity
  8
0
  6
CONTINUOUS
 62
           3
100
AcDbLine
 10
5218.399998062717
 20
1508.0000003799
 11
5218.399998062717
 21
1431.999996304558
  0
LINE
  5
1EE
100
AcDbEntity
  8
0
  6
CONTINUOUS
 62
           3
100
AcDbLine
 10
5218.399998062717
 20
1431.999996304558
 11
5220.399998390717
 21
1431.999996304558
  0
LINE
  5
1ED
100
AcDbEntity
  8
0
  6
CONTINUOUS
 62
           3
100
AcDbLine
 10
5220.399998390717
 20
1429.999999701962
 11
5220.099997037718
 21
1429.999999701962
  0
LINE
  5
1EC
100
AcDbEntity
  8
0
  6
CONTINUOUS
 62
           3
100
AcDbLine
 10
5220.099997037718
 20
1409.99999642378
 11
5220.399998390717
 21
1409.99999642378
  0
LINE
  5
1EB
100
AcDbEntity
  8
0
  6
CONTINUOUS
 62
           3
100
AcDbLine
 10
5220.399998390717
 20
1407.999999821182
 11
5218.399998062717
 21
1407.999999821182
  0
LINE
  5
1EA
100
AcDbEntity
  8
0
  6
CONTINUOUS
 62
           3
100
AcDbLine
 10
5218.399998062717
 20
1391.699999570792
 11
5218.399998062717
 21
1407.999999821182
  0
LINE
  5
1E9
100
AcDbEntity
  8
0
  6
CONTINUOUS
 62
           3
100
AcDbLine
 10
5338.399995380623
 20
1391.699999570792
 11
5338.399995380623
 21
1407.999999821182
  0
LINE
  5
1E8
100
AcDbEntity
  8
0
  6
CONTINUOUS
 62
           3
100
AcDbLine
 10
5336.399995052625
 20
1407.999999821182
 11
5338.399995380623
 21
1407.999999821182
  0
LINE
  5
1E7
100
AcDbEntity
  8
0
  6
CONTINUOUS
 62
           3
100
AcDbLine
 10
5336.699996405627
 20
1409.99999642378
 11
5336.399995052625
 21
1409.99999642378
  0
LINE
  5
1E6
100
AcDbEntity
  8
0
  6
CONTINUOUS
 62
           3
100
AcDbLine
 10
5336.399995052625
 20
1429.999999701962
 11
5336.699996405627
 21
1429.999999701962
  0
LINE
  5
1E5
100
AcDbEntity
  8
0
  6
CONTINUOUS
 62
           3
100
AcDbLine
 10
5338.399995380623
 20
1431.999996304558
 11
5336.399995052625
 21
1431.999996304558
  0
LINE
  5
1E4
100
AcDbEntity
  8
0
  6
CONTINUOUS
 62
           3
100
AcDbLine
 10
5338.399995380623
 20
1508.0000003799
 11
5338.399995380623
 21
1431.999996304558
  0
LINE
  5
1E3
100
AcDbEntity
  8
0
  6
CONTINUOUS
 62
           3
100
AcDbLine
 10
5338.399995380623
 20
1508.0000003799
 11
5336.399995052625
 21
1508.0000003799
  0
LINE
  5
1E2
100
AcDbEntity
  8
0
  6
CONTINUOUS
 62
           3
100
AcDbLine
 10
5336.399995052625
 20
1509.999999776395
 11
5336.699996405627
 21
1509.999999776395
  0
LINE
  5
1E1
100
AcDbEntity
  8
0
  6
CONTINUOUS
 62
           3
100
AcDbLine
 10
5336.699996405627
 20
1529.999999329481
 11
5336.399995052625
 21
1529.999999329481
  0
LINE
  5
1E0
100
AcDbEntity
  8
0
  6
CONTINUOUS
 62
           3
100
AcDbLine
 10
5336.399995052625
 20
1532.000001519878
 11
5338.399995380623
 21
1532.000001519878
  0
LINE
  5
1DF
100
AcDbEntity
  8
0
  6
CONTINUOUS
 62
           3
100
AcDbLine
 10
5338.399995380623
 20
1548.300001770265
 11
5338.399995380623
 21
1532.000001519878
  0
LINE
  5
1DE
100
AcDbEntity
  8
0
  6
CONTINUOUS
 62
           3
100
AcDbLine
 10
5218.399998062717
 20
1548.300001770265
 11
5218.399998062717
 21
1532.000001519878
  0
LINE
  5
1DD
100
AcDbEntity
  8
0
  6
CONTINUOUS
 62
           3
100
AcDbLine
 10
5220.399998390717
 20
1532.000001519878
 11
5218.399998062717
 21
1532.000001519878
  0
LINE
  5
1DC
100
AcDbEntity
  8
0
  6
CONTINUOUS
 62
           3
100
AcDbLine
 10
5336.699996405627
 20
1509.999999776395
 11
5338.324804121025
 21
1509.999999776395
  0
LINE
  5
1DB
100
AcDbEntity
  8
0
  6
CONTINUOUS
 62
           3
100
AcDbLine
 10
5338.399995380623
 20
1509.999999776395
 11
5338.399995380623
 21
1529.999999329481
  0
LINE
  5
1DA
100
AcDbEntity
  8
0
  6
CONTINUOUS
 62
           3
100
AcDbLine
 10
5338.399995380623
 20
1529.999999329481
 11
5336.699996405627
 21
1529.999999329481
  0
LINE
  5
1D9
100
AcDbEntity
  8
0
  6
CONTINUOUS
 62
           3
100
AcDbLine
 10
5338.399995380623
 20
1548.799999058067
 11
5338.399995380623
 21
1548.300001770265
  0
LINE
  5
1D8
100
AcDbEntity
  8
0
  6
CONTINUOUS
 62
           3
100
AcDbLine
 10
5218.399998062717
 20
1548.799999058067
 11
5218.399998062717
 21
1548.300001770265
  0
LINE
  5
1D7
100
AcDbEntity
  8
0
  6
CONTINUOUS
 62
           3
100
AcDbLine
 10
5218.399998062717
 20
1391.199998557593
 11
5218.399998062717
 21
1391.699999570792
  0
LINE
  5
1D6
100
AcDbEntity
  8
0
  6
CONTINUOUS
 62
           3
100
AcDbLine
 10
5338.399995380623
 20
1391.199998557593
 11
5338.399995380623
 21
1391.699999570792
  0
LINE
  5
1D5
100
AcDbEntity
  8
0
  6
CONTINUOUS
 62
           3
100
AcDbLine
 10
5281.399996747766
 20
1550.000000744964
 11
5281.649996788766
 21
1550.000000744964
  0
LINE
  5
1D4
100
AcDbEntity
  8
0
  6
CONTINUOUS
 62
           3
100
AcDbLine
 10
5275.149996654579
 20
1550.000000744964
 11
5275.399996695579
 21
1550.000000744964
  0
LINE
  5
1D3
100
AcDbEntity
  8
0
  6
CONTINUOUS
 62
           3
100
AcDbLine
 10
5281.399996747766
 20
1548.799999058067
 11
5281.649996788766
 21
1548.799999058067
  0
LINE
  5
1D2
100
AcDbEntity
  8
0
  6
CONTINUOUS
 62
           3
100
AcDbLine
 10
5275.149996654579
 20
1548.799999058067
 11
5275.399996695579
 21
1548.799999058067
  0
LINE
  5
1D1
100
AcDbEntity
  8
0
  6
CONTINUOUS
 62
           3
100
AcDbLine
 10
5275.399996695579
 20
1391.199998557593
 11
5275.149996654579
 21
1391.199998557593
  0
LINE
  5
1D0
100
AcDbEntity
  8
0
  6
CONTINUOUS
 62
           3
100
AcDbLine
 10
5281.649996788766
 20
1391.199998557593
 11
5281.399996747766
 21
1391.199998557593
  0
LINE
  5
1CF
100
AcDbEntity
  8
0
  6
CONTINUOUS
 62
           3
100
AcDbLine
 10
5223.399997019715
 20
1391.199998557593
 11
5218.399998062717
 21
1391.199998557593
  0
LINE
  5
1CE
100
AcDbEntity
  8
0
  6
CONTINUOUS
 62
           3
100
AcDbLine
 10
5218.399998062717
 20
1390.000000596097
 11
5223.399997019715
 21
1390.000000596097
  0
LINE
  5
1CD
100
AcDbEntity
  8
0
  6
CONTINUOUS
 62
           3
100
AcDbLine
 10
5218.399998062717
 20
1391.199998557593
 11
5218.399998062717
 21
1390.000000596097
  0
LINE
  5
1CC
100
AcDbEntity
  8
0
  6
CONTINUOUS
 62
           3
100
AcDbLine
 10
5218.399998062717
 20
1550.000000744964
 11
5223.399997019715
 21
1550.000000744964
  0
LINE
  5
1CB
100
AcDbEntity
  8
0
  6
CONTINUOUS
 62
           3
100
AcDbLine
 10
5223.399997019715
 20
1548.799999058067
 11
5218.399998062717
 21
1548.799999058067
  0
LINE
  5
1CA
100
AcDbEntity
  8
0
  6
CONTINUOUS
 62
           3
100
AcDbLine
 10
5218.399998062717
 20
1548.799999058067
 11
5218.399998062717
 21
1550.000000744964
  0
LINE
  5
1C9
100
AcDbEntity
  8
0
  6
CONTINUOUS
 62
           3
100
AcDbLine
 10
5323.399998509634
 20
1550.000000744964
 11
5308.399996051146
 21
1550.000000744964
  0
LINE
  5
1C8
100
AcDbEntity
  8
0
  6
CONTINUOUS
 62
           3
100
AcDbLine
 10
5323.399998509634
 20
1548.799999058067
 11
5308.399996051146
 21
1548.799999058067
  0
LINE
  5
1C7
100
AcDbEntity
  8
0
  6
CONTINUOUS
 62
           3
100
AcDbLine
 10
5338.399995380623
 20
1550.000000744964
 11
5333.399996423626
 21
1550.000000744964
  0
LINE
  5
1C6
100
AcDbEntity
  8
0
  6
CONTINUOUS
 62
           3
100
AcDbLine
 10
5333.399996423626
 20
1548.799999058067
 11
5338.399995380623
 21
1548.799999058067
  0
LINE
  5
1C5
100
AcDbEntity
  8
0
  6
CONTINUOUS
 62
           3
100
AcDbLine
 10
5338.399995380623
 20
1548.799999058067
 11
5338.399995380623
 21
1550.000000744964
  0
LINE
  5
1C4
100
AcDbEntity
  8
0
  6
CONTINUOUS
 62
           3
100
AcDbLine
 10
5323.399998509634
 20
1391.199998557593
 11
5308.399996051146
 21
1391.199998557593
  0
LINE
  5
1C3
100
AcDbEntity
  8
0
  6
CONTINUOUS
 62
           3
100
AcDbLine
 10
5323.399998509634
 20
1390.000000596097
 11
5308.399996051146
 21
1390.000000596097
  0
LINE
  5
1C2
100
AcDbEntity
  8
0
  6
CONTINUOUS
 62
           3
100
AcDbLine
 10
5233.399994933706
 20
1550.000000744964
 11
5248.399997392193
 21
1550.000000744964
  0
LINE
  5
1C1
100
AcDbEntity
  8
0
  6
CONTINUOUS
 62
           3
100
AcDbLine
 10
5233.399994933706
 20
1548.799999058067
 11
5248.399997392193
 21
1548.799999058067
  0
LINE
  5
1C0
100
AcDbEntity
  8
0
  6
CONTINUOUS
 62
           3
100
AcDbLine
 10
5333.399996423626
 20
1391.199998557593
 11
5338.399995380623
 21
1391.199998557593
  0
LINE
  5
1BF
100
AcDbEntity
  8
0
  6
CONTINUOUS
 62
           3
100
AcDbLine
 10
5338.399995380623
 20
1390.000000596097
 11
5333.399996423626
 21
1390.000000596097
  0
LINE
  5
1BE
100
AcDbEntity
  8
0
  6
CONTINUOUS
 62
           3
100
AcDbLine
 10
5338.399995380623
 20
1391.199998557593
 11
5338.399995380623
 21
1390.000000596097
  0
LINE
  5
1BD
100
AcDbEntity
  8
0
  6
CONTINUOUS
 62
           3
100
AcDbLine
 10
5233.399994933706
 20
1391.199998557593
 11
5248.399997392193
 21
1391.199998557593
  0
LINE
  5
1BC
100
AcDbEntity
  8
0
  6
CONTINUOUS
 62
           3
100
AcDbLine
 10
5233.399994933706
 20
1390.000000596097
 11
5248.399997392193
 21
1390.000000596097
  0
LINE
  5
1BB
100
AcDbEntity
  8
0
  6
CONTINUOUS
 62
           3
100
AcDbLine
 10
5231.399998331106
 20
1550.000000744964
 11
5233.399994933706
 21
1550.000000744964
  0
LINE
  5
1BA
100
AcDbEntity
  8
0
  6
CONTINUOUS
 62
           3
100
AcDbLine
 10
5233.399994933706
 20
1548.799999058067
 11
5231.399998331106
 21
1548.799999058067
  0
LINE
  5
1B9
100
AcDbEntity
  8
0
  6
CONTINUOUS
 62
           3
100
AcDbLine
 10
5231.399998331106
 20
1548.799999058067
 11
5231.399998331106
 21
1550.000000744964
  0
LINE
  5
1B8
100
AcDbEntity
  8
0
  6
CONTINUOUS
 62
           3
100
AcDbLine
 10
5223.399997019715
 20
1550.000000744964
 11
5225.399997347716
 21
1550.000000744964
  0
LINE
  5
1B7
100
AcDbEntity
  8
0
  6
CONTINUOUS
 62
           3
100
AcDbLine
 10
5225.399997347716
 20
1548.799999058067
 11
5223.399997019715
 21
1548.799999058067
  0
LINE
  5
1B6
100
AcDbEntity
  8
0
  6
CONTINUOUS
 62
           3
100
AcDbLine
 10
5225.399997347716
 20
1550.000000744964
 11
5225.399997347716
 21
1548.799999058067
  0
LINE
  5
1B5
100
AcDbEntity
  8
0
  6
CONTINUOUS
 62
           3
100
AcDbLine
 10
5323.399998509634
 20
1391.199998557593
 11
5325.399995112236
 21
1391.199998557593
  0
LINE
  5
1B4
100
AcDbEntity
  8
0
  6
CONTINUOUS
 62
           3
100
AcDbLine
 10
5325.399995112236
 20
1390.000000596097
 11
5323.399998509634
 21
1390.000000596097
  0
LINE
  5
1B3
100
AcDbEntity
  8
0
  6
CONTINUOUS
 62
           3
100
AcDbLine
 10
5325.399995112236
 20
1391.199998557593
 11
5325.399995112236
 21
1390.000000596097
  0
LINE
  5
1B2
100
AcDbEntity
  8
0
  6
CONTINUOUS
 62
           3
100
AcDbLine
 10
5331.399996095923
 20
1391.199998557593
 11
5333.399996423626
 21
1391.199998557593
  0
LINE
  5
1B1
100
AcDbEntity
  8
0
  6
CONTINUOUS
 62
           3
100
AcDbLine
 10
5333.399996423626
 20
1390.000000596097
 11
5331.399996095923
 21
1390.000000596097
  0
LINE
  5
1B0
100
AcDbEntity
  8
0
  6
CONTINUOUS
 62
           3
100
AcDbLine
 10
5331.399996095923
 20
1390.000000596097
 11
5331.399996095923
 21
1391.199998557593
  0
LINE
  5
1AF
100
AcDbEntity
  8
0
  6
CONTINUOUS
 62
           3
100
AcDbLine
 10
5325.399995112236
 20
1550.000000744964
 11
5323.399998509634
 21
1550.000000744964
  0
LINE
  5
1AE
100
AcDbEntity
  8
0
  6
CONTINUOUS
 62
           3
100
AcDbLine
 10
5323.399998509634
 20
1548.799999058067
 11
5325.399995112236
 21
1548.799999058067
  0
LINE
  5
1AD
100
AcDbEntity
  8
0
  6
CONTINUOUS
 62
           3
100
AcDbLine
 10
5325.399995112236
 20
1548.799999058067
 11
5325.399995112236
 21
1550.000000744964
  0
LINE
  5
1AC
100
AcDbEntity
  8
0
  6
CONTINUOUS
 62
           3
100
AcDbLine
 10
5333.399996423626
 20
1550.000000744964
 11
5331.399996095923
 21
1550.000000744964
  0
LINE
  5
1AB
100
AcDbEntity
  8
0
  6
CONTINUOUS
 62
           3
100
AcDbLine
 10
5331.399996095923
 20
1548.799999058067
 11
5333.399996423626
 21
1548.799999058067
  0
LINE
  5
1AA
100
AcDbEntity
  8
0
  6
CONTINUOUS
 62
           3
100
AcDbLine
 10
5331.399996095923
 20
1550.000000744964
 11
5331.399996095923
 21
1548.799999058067
  0
LINE
  5
1A9
100
AcDbEntity
  8
0
  6
CONTINUOUS
 62
           3
100
AcDbLine
 10
5233.399994933706
 20
1391.199998557593
 11
5231.399998331106
 21
1391.199998557593
  0
LINE
  5
1A8
100
AcDbEntity
  8
0
  6
CONTINUOUS
 62
           3
100
AcDbLine
 10
5231.399998331106
 20
1390.000000596097
 11
5233.399994933706
 21
1390.000000596097
  0
LINE
  5
1A7
100
AcDbEntity
  8
0
  6
CONTINUOUS
 62
           3
100
AcDbLine
 10
5231.399998331106
 20
1391.199998557593
 11
5231.399998331106
 21
1390.000000596097
  0
LINE
  5
1A6
100
AcDbEntity
  8
0
  6
CONTINUOUS
 62
           3
100
AcDbLine
 10
5225.399997347716
 20
1391.199998557593
 11
5223.399997019715
 21
1391.199998557593
  0
LINE
  5
1A5
100
AcDbEntity
  8
0
  6
CONTINUOUS
 62
           3
100
AcDbLine
 10
5223.399997019715
 20
1390.000000596097
 11
5225.399997347716
 21
1390.000000596097
  0
LINE
  5
1A4
100
AcDbEntity
  8
0
  6
CONTINUOUS
 62
           3
100
AcDbLine
 10
5225.399997347716
 20
1390.000000596097
 11
5225.399997347716
 21
1391.199998557593
  0
LINE
  5
1A3
100
AcDbEntity
  8
0
  6
CONTINUOUS
 62
           3
100
AcDbLine
 10
5274.899996613579
 20
1391.199998557593
 11
5275.149996654579
 21
1391.199998557593
  0
LINE
  5
1A2
100
AcDbEntity
  8
0
  6
CONTINUOUS
 62
           3
100
AcDbLine
 10
5275.149996654579
 20
1391.199998557593
 11
5275.149996654579
 21
1390.000000596097
  0
LINE
  5
1A1
100
AcDbEntity
  8
0
  6
CONTINUOUS
 62
           3
100
AcDbLine
 10
5308.399996051146
 20
1391.199998557593
 11
5298.399996274755
 21
1391.199998557593
  0
LINE
  5
1A0
100
AcDbEntity
  8
0
  6
CONTINUOUS
 62
           3
100
AcDbLine
 10
5308.399996051146
 20
1390.000000596097
 11
5298.399996274755
 21
1390.000000596097
  0
LINE
  5
19F
100
AcDbEntity
  8
0
  6
CONTINUOUS
 62
           3
100
AcDbLine
 10
5308.399996051146
 20
1391.199998557593
 11
5308.399996051146
 21
1390.000000596097
  0
LINE
  5
19E
100
AcDbEntity
  8
0
  6
CONTINUOUS
 62
           3
100
AcDbLine
 10
5273.149996792477
 20
1550.000000744964
 11
5275.149996654579
 21
1550.000000744964
  0
LINE
  5
19D
100
AcDbEntity
  8
0
  6
CONTINUOUS
 62
           3
100
AcDbLine
 10
5275.149996654579
 20
1548.799999058067
 11
5273.149996792477
 21
1548.799999058067
  0
LINE
  5
19C
100
AcDbEntity
  8
0
  6
CONTINUOUS
 62
           3
100
AcDbLine
 10
5275.149996654579
 20
1550.000000744964
 11
5275.149996654579
 21
1548.799999058067
  0
LINE
  5
19B
100
AcDbEntity
  8
0
  6
CONTINUOUS
 62
           3
100
AcDbLine
 10
5286.399997101566
 20
1391.199998557593
 11
5298.399996274755
 21
1391.199998557593
  0
LINE
  5
19A
100
AcDbEntity
  8
0
  6
CONTINUOUS
 62
           3
100
AcDbLine
 10
5286.399997101566
 20
1390.000000596097
 11
5298.399996274755
 21
1390.000000596097
  0
LINE
  5
199
100
AcDbEntity
  8
0
  6
CONTINUOUS
 62
           3
100
AcDbLine
 10
5298.399996274755
 20
1391.199998557593
 11
5298.399996274755
 21
1390.000000596097
  0
LINE
  5
198
100
AcDbEntity
  8
0
  6
CONTINUOUS
 62
           3
100
AcDbLine
 10
5248.399997392193
 20
1391.199998557593
 11
5258.399997168589
 21
1391.199998557593
  0
LINE
  5
197
100
AcDbEntity
  8
0
  6
CONTINUOUS
 62
           3
100
AcDbLine
 10
5248.399997392193
 20
1390.000000596097
 11
5258.399997168589
 21
1390.000000596097
  0
LINE
  5
196
100
AcDbEntity
  8
0
  6
CONTINUOUS
 62
           3
100
AcDbLine
 10
5248.399997392193
 20
1391.199998557593
 11
5248.399997392193
 21
1390.000000596097
  0
LINE
  5
195
100
AcDbEntity
  8
0
  6
CONTINUOUS
 62
           3
100
AcDbLine
 10
5281.649996788766
 20
1550.000000744964
 11
5283.649996650868
 21
1550.000000744964
  0
LINE
  5
194
100
AcDbEntity
  8
0
  6
CONTINUOUS
 62
           3
100
AcDbLine
 10
5283.649996650868
 20
1548.799999058067
 11
5281.649996788766
 21
1548.799999058067
  0
LINE
  5
193
100
AcDbEntity
  8
0
  6
CONTINUOUS
 62
           3
100
AcDbLine
 10
5281.649996788766
 20
1548.799999058067
 11
5281.649996788766
 21
1550.000000744964
  0
LINE
  5
192
100
AcDbEntity
  8
0
  6
CONTINUOUS
 62
           3
100
AcDbLine
 10
5308.399996051146
 20
1550.000000744964
 11
5298.399996274755
 21
1550.000000744964
  0
LINE
  5
191
100
AcDbEntity
  8
0
  6
CONTINUOUS
 62
           3
100
AcDbLine
 10
5308.399996051146
 20
1548.799999058067
 11
5298.399996274755
 21
1548.799999058067
  0
LINE
  5
190
100
AcDbEntity
  8
0
  6
CONTINUOUS
 62
           3
100
AcDbLine
 10
5308.399996051146
 20
1548.799999058067
 11
5308.399996051146
 21
1550.000000744964
  0
LINE
  5
18F
100
AcDbEntity
  8
0
  6
CONTINUOUS
 62
           3
100
AcDbLine
 10
5281.649996788766
 20
1391.199998557593
 11
5281.899996829766
 21
1391.199998557593
  0
LINE
  5
18E
100
AcDbEntity
  8
0
  6
CONTINUOUS
 62
           3
100
AcDbLine
 10
5281.649996788766
 20
1390.000000596097
 11
5281.649996788766
 21
1391.199998557593
  0
LINE
  5
18D
100
AcDbEntity
  8
0
  6
CONTINUOUS
 62
           3
100
AcDbLine
 10
5258.399997168589
 20
1391.199998557593
 11
5270.399996341777
 21
1391.199998557593
  0
LINE
  5
18C
100
AcDbEntity
  8
0
  6
CONTINUOUS
 62
           3
100
AcDbLine
 10
5258.399997168589
 20
1390.000000596097
 11
5270.399996341777
 21
1390.000000596097
  0
LINE
  5
18B
100
AcDbEntity
  8
0
  6
CONTINUOUS
 62
           3
100
AcDbLine
 10
5258.399997168589
 20
1391.199998557593
 11
5258.399997168589
 21
1390.000000596097
  0
LINE
  5
18A
100
AcDbEntity
  8
0
  6
CONTINUOUS
 62
           3
100
AcDbLine
 10
5258.399997168589
 20
1550.000000744964
 11
5273.149996792477
 21
1550.000000744964
  0
LINE
  5
189
100
AcDbEntity
  8
0
  6
CONTINUOUS
 62
           3
100
AcDbLine
 10
5258.399997168589
 20
1548.799999058067
 11
5273.149996792477
 21
1548.799999058067
  0
LINE
  5
188
100
AcDbEntity
  8
0
  6
CONTINUOUS
 62
           3
100
AcDbLine
 10
5283.649996650868
 20
1550.000000744964
 11
5298.399996274755
 21
1550.000000744964
  0
LINE
  5
187
100
AcDbEntity
  8
0
  6
CONTINUOUS
 62
           3
100
AcDbLine
 10
5283.649996650868
 20
1548.799999058067
 11
5298.399996274755
 21
1548.799999058067
  0
LINE
  5
186
100
AcDbEntity
  8
0
  6
CONTINUOUS
 62
           3
100
AcDbLine
 10
5298.399996274755
 20
1548.799999058067
 11
5298.399996274755
 21
1550.000000744964
  0
LINE
  5
185
100
AcDbEntity
  8
0
  6
CONTINUOUS
 62
           3
100
AcDbLine
 10
5248.399997392193
 20
1548.799999058067
 11
5248.399997392193
 21
1550.000000744964
  0
LINE
  5
184
100
AcDbEntity
  8
0
  6
CONTINUOUS
 62
           3
100
AcDbLine
 10
5248.399997392193
 20
1548.799999058067
 11
5258.399997168589
 21
1548.799999058067
  0
LINE
  5
183
100
AcDbEntity
  8
0
  6
CONTINUOUS
 62
           3
100
AcDbLine
 10
5258.399997168589
 20
1548.799999058067
 11
5258.399997168589
 21
1550.000000744964
  0
LINE
  5
182
100
AcDbEntity
  8
0
  6
CONTINUOUS
 62
           3
100
AcDbLine
 10
5248.399997392193
 20
1550.000000744964
 11
5258.399997168589
 21
1550.000000744964
  0
LINE
  5
181
100
AcDbEntity
  8
0
  6
CONTINUOUS
 62
           3
100
AcDbLine
 10
5286.399997101566
 20
1389.200001954996
 11
5286.399997101566
 21
1388.276241719796
  0
LINE
  5
180
100
AcDbEntity
  8
0
  6
CONTINUOUS
 62
           3
100
AcDbLine
 10
5270.399996341777
 20
1389.200001954996
 11
5270.399996341777
 21
1388.276241719796
  0
LINE
  5
17F
100
AcDbEntity
  8
0
  6
CONTINUOUS
 62
           3
100
AcDbLine
 10
5273.399996833477
 20
1388.276241719796
 11
5270.399996341777
 21
1388.276241719796
  0
LINE
  5
17E
100
AcDbEntity
  8
0
  6
CONTINUOUS
 62
           3
100
AcDbLine
 10
5286.399997101566
 20
1388.276241719796
 11
5283.399996609868
 21
1388.276241719796
  0
LINE
  5
17D
100
AcDbEntity
  8
0
  6
CONTINUOUS
 62
           3
100
AcDbLine
 10
5280.899996665765
 20
1384.1999992729
 11
5283.399996609915
 21
1384.1999992729
  0
LINE
  5
17C
100
AcDbEntity
  8
0
  6
CONTINUOUS
 62
           3
100
AcDbLine
 10
5273.399996833437
 20
1384.1999992729
 11
5275.899996777557
 21
1384.1999992729
  0
LINE
  5
17B
100
AcDbEntity
  8
0
  6
CONTINUOUS
 62
           3
100
AcDbLine
 10
5283.399996609868
 20
1384.646579623302
 11
5283.399996609868
 21
1389.100000262195
  0
LINE
  5
17A
100
AcDbEntity
  8
0
  6
CONTINUOUS
 62
           3
100
AcDbLine
 10
5273.399996833477
 20
1384.646579623302
 11
5273.399996833477
 21
1389.100000262195
  0
LINE
  5
179
100
AcDbEntity
  8
0
  6
CONTINUOUS
 62
           3
100
AcDbLine
 10
5273.399996833477
 20
1384.646579623302
 11
5275.899996777557
 21
1384.1999992729
  0
LINE
  5
178
100
AcDbEntity
  8
0
  6
CONTINUOUS
 62
           3
100
AcDbLine
 10
5278.399996721678
 20
1384.646579623295
 11
5278.399996721678
 21
1389.100000262195
  0
LINE
  5
177
100
AcDbEntity
  8
0
  6
CONTINUOUS
 62
           3
100
AcDbLine
 10
5275.899996777557
 20
1384.1999992729
 11
5280.899996665765
 21
1384.1999992729
  0
LINE
  5
176
100
AcDbEntity
  8
0
  6
CONTINUOUS
 62
           3
100
AcDbLine
 10
5278.399996721678
 20
1384.646579623295
 11
5280.899996665765
 21
1384.1999992729
  0
LINE
  5
175
100
AcDbEntity
  8
0
  6
CONTINUOUS
 62
           3
100
AcDbLine
 10
5274.899996613579
 20
1389.200001954996
 11
5281.899996829766
 21
1389.200001954996
  0
LINE
  5
174
100
AcDbEntity
  8
0
  6
CONTINUOUS
 62
           3
100
AcDbLine
 10
5274.899996613579
 20
1390.000000596097
 11
5281.899996829766
 21
1390.000000596097
  0
LINE
  5
173
100
AcDbEntity
  8
0
  6
CONTINUOUS
 62
           3
100
AcDbLine
 10
5281.899996829766
 20
1393.990144133491
 11
5274.899996613579
 21
1393.990144133491
  0
LINE
  5
172
100
AcDbEntity
  8
0
  6
CONTINUOUS
 62
           3
100
AcDbLine
 10
5275.399996695579
 20
1392.246469855294
 11
5274.899996613579
 21
1392.246469855294
  0
LINE
  5
171
100
AcDbEntity
  8
0
  6
CONTINUOUS
 62
           3
100
AcDbLine
 10
5281.899996829766
 20
1392.246469855294
 11
5281.399996747766
 21
1392.246469855294
  0
LINE
  5
170
100
AcDbEntity
  8
0
  6
CONTINUOUS
 62
           3
100
AcDbLine
 10
5286.399997101566
 20
1394.799999892894
 11
5286.399997101566
 21
1389.200001954996
  0
LINE
  5
16F
100
AcDbEntity
  8
0
  6
CONTINUOUS
 62
           3
100
AcDbLine
 10
5270.399996341777
 20
1394.799999892894
 11
5270.399996341777
 21
1389.200001954996
  0
LINE
  5
16E
100
AcDbEntity
  8
0
  6
CONTINUOUS
 62
           3
100
AcDbLine
 10
5274.899996613579
 20
1389.200001954996
 11
5274.899996613579
 21
1394.799999892894
  0
LINE
  5
16D
100
AcDbEntity
  8
0
  6
CONTINUOUS
 62
           3
100
AcDbLine
 10
5281.899996829766
 20
1394.799999892894
 11
5281.899996829766
 21
1389.200001954996
  0
LINE
  5
16C
100
AcDbEntity
  8
0
  6
CONTINUOUS
 62
           3
100
AcDbLine
 10
5274.899996613579
 20
1389.200001954996
 11
5270.399996341777
 21
1389.200001954996
  0
LINE
  5
16B
100
AcDbEntity
  8
0
  6
CONTINUOUS
 62
           3
100
AcDbLine
 10
5274.899996613579
 20
1394.792847335491
 11
5281.899996829766
 21
1394.792847335491
  0
LINE
  5
16A
100
AcDbEntity
  8
0
  6
CONTINUOUS
 62
           3
100
AcDbLine
 10
5286.399997101566
 20
1389.200001954996
 11
5281.899996829766
 21
1389.200001954996
  0
LINE
  5
169
100
AcDbEntity
  8
0
  6
CONTINUOUS
 62
           3
100
AcDbLine
 10
5280.399996816565
 20
1638.422653078993
 11
5276.399996626778
 21
1638.422653078993
  0
LINE
  5
168
100
AcDbEntity
  8
0
  6
CONTINUOUS
 62
           3
100
AcDbLine
 10
5275.399996695579
 20
1637.422651052293
 11
5281.399996747766
 21
1637.422651052293
  0
LINE
  5
167
100
AcDbEntity
  8
0
  6
CONTINUOUS
 62
           3
100
AcDbLine
 10
5224.399995321016
 20
1665.000006556369
 11
5228.399995976713
 21
1665.000006556369
  0
LINE
  5
166
100
AcDbEntity
  8
0
  6
CONTINUOUS
 62
           3
100
AcDbLine
 10
5228.399995976713
 20
1665.000006556369
 11
5232.399996632415
 21
1665.000006556369
  0
LINE
  5
165
100
AcDbEntity
  8
0
  6
CONTINUOUS
 62
           3
100
AcDbLine
 10
5274.069869687349
 20
1367.599993944255
 11
5273.399996833477
 21
1367.599993944114
  0
LINE
  5
164
100
AcDbEntity
  8
0
  6
CONTINUOUS
 62
           3
100
AcDbLine
 10
5283.399996609868
 20
1367.599993944114
 11
5282.730123756007
 21
1367.599993944255
  0
LINE
  5
163
100
AcDbEntity
  8
0
  6
CONTINUOUS
 62
           3
100
AcDbLine
 10
5274.069869687349
 20
1372.600004077041
 11
5273.399996833477
 21
1372.600004077011
  0
LINE
  5
162
100
AcDbEntity
  8
0
  6
CONTINUOUS
 62
           3
100
AcDbLine
 10
5282.730123756007
 20
1367.599993944255
 11
5278.399996721678
 21
1367.599993944255
  0
LINE
  5
161
100
AcDbEntity
  8
0
  6
CONTINUOUS
 62
           3
100
AcDbLine
 10
5278.399996721678
 20
1367.599993944255
 11
5274.069869687349
 21
1367.599993944255
  0
LINE
  5
160
100
AcDbEntity
  8
0
  6
CONTINUOUS
 62
           3
100
AcDbLine
 10
5272.626493853976
 20
1372.153416276109
 11
5272.626493853976
 21
1368.046581745311
  0
LINE
  5
15F
100
AcDbEntity
  8
0
  6
CONTINUOUS
 62
           3
100
AcDbLine
 10
5272.626493853976
 20
1368.046581745311
 11
5274.069869687349
 21
1367.599993944255
  0
LINE
  5
15E
100
AcDbEntity
  8
0
  6
CONTINUOUS
 62
           3
100
AcDbLine
 10
5275.513245287847
 20
1372.153416276062
 11
5274.069869687349
 21
1372.600004077041
  0
LINE
  5
15D
100
AcDbEntity
  8
0
  6
CONTINUOUS
 62
           3
100
AcDbLine
 10
5281.286748155366
 20
1368.046581745311
 11
5282.730123756007
 21
1367.599993944255
  0
LINE
  5
15C
100
AcDbEntity
  8
0
  6
CONTINUOUS
 62
           3
100
AcDbLine
 10
5284.173499589369
 20
1372.153416276109
 11
5284.173499589369
 21
1368.046581745311
  0
LINE
  5
15B
100
AcDbEntity
  8
0
  6
CONTINUOUS
 62
           3
100
AcDbLine
 10
5284.173499589369
 20
1372.153416276109
 11
5282.730123756007
 21
1372.600004077041
  0
LINE
  5
15A
100
AcDbEntity
  8
0
  6
CONTINUOUS
 62
           3
100
AcDbLine
 10
5275.513245287847
 20
1372.153416276062
 11
5275.513245287847
 21
1368.046581745235
  0
LINE
  5
159
100
AcDbEntity
  8
0
  6
CONTINUOUS
 62
           3
100
AcDbLine
 10
5281.286748155505
 20
1372.153416276062
 11
5281.286748155366
 21
1368.046581745311
  0
LINE
  5
158
100
AcDbEntity
  8
0
  6
CONTINUOUS
 62
           3
100
AcDbLine
 10
5283.399996609868
 20
1372.600004077011
 11
5282.730123756007
 21
1372.600004077041
  0
LINE
  5
157
100
AcDbEntity
  8
0
  6
CONTINUOUS
 62
           3
100
AcDbLine
 10
5283.399996609868
 20
1377.599999308603
 11
5282.730123756007
 21
1377.599999308666
  0
LINE
  5
156
100
AcDbEntity
  8
0
  6
CONTINUOUS
 62
           3
100
AcDbLine
 10
5274.069869687349
 20
1377.599999308666
 11
5273.399996833477
 21
1377.599999308603
  0
LINE
  5
155
100
AcDbEntity
  8
0
  6
CONTINUOUS
 62
           3
100
AcDbLine
 10
5278.399996721678
 20
1372.600004077041
 11
5274.069869687349
 21
1372.600004077041
  0
LINE
  5
154
100
AcDbEntity
  8
0
  6
CONTINUOUS
 62
           3
100
AcDbLine
 10
5282.730123756007
 20
1372.600004077041
 11
5278.399996721678
 21
1372.600004077041
  0
LINE
  5
153
100
AcDbEntity
  8
0
  6
CONTINUOUS
 62
           3
100
AcDbLine
 10
5278.399996721678
 20
1377.599999308666
 11
5274.069869687349
 21
1377.599999308666
  0
LINE
  5
152
100
AcDbEntity
  8
0
  6
CONTINUOUS
 62
           3
100
AcDbLine
 10
5272.626493853976
 20
1377.153418958204
 11
5272.626493853976
 21
1373.046576976911
  0
LINE
  5
151
100
AcDbEntity
  8
0
  6
CONTINUOUS
 62
           3
100
AcDbLine
 10
5272.626493853976
 20
1373.046576976911
 11
5274.069869687349
 21
1372.600004077041
  0
LINE
  5
150
100
AcDbEntity
  8
0
  6
CONTINUOUS
 62
           3
100
AcDbLine
 10
5275.513245287847
 20
1377.153418958267
 11
5274.069869687349
 21
1377.599999308666
  0
LINE
  5
14F
100
AcDbEntity
  8
0
  6
CONTINUOUS
 62
           3
100
AcDbLine
 10
5282.730123756007
 20
1377.599999308666
 11
5278.399996721678
 21
1377.599999308666
  0
LINE
  5
14E
100
AcDbEntity
  8
0
  6
CONTINUOUS
 62
           3
100
AcDbLine
 10
5281.286748155366
 20
1373.046576976911
 11
5282.730123756007
 21
1372.600004077041
  0
LINE
  5
14D
100
AcDbEntity
  8
0
  6
CONTINUOUS
 62
           3
100
AcDbLine
 10
5284.173499589369
 20
1377.153418958204
 11
5284.173499589369
 21
1373.046576976911
  0
LINE
  5
14C
100
AcDbEntity
  8
0
  6
CONTINUOUS
 62
           3
100
AcDbLine
 10
5284.173499589369
 20
1377.153418958204
 11
5282.730123756007
 21
1377.599999308666
  0
LINE
  5
14B
100
AcDbEntity
  8
0
  6
CONTINUOUS
 62
           3
100
AcDbLine
 10
5275.513245287847
 20
1377.153418958267
 11
5275.513245287847
 21
1373.04657697686
  0
LINE
  5
14A
100
AcDbEntity
  8
0
  6
CONTINUOUS
 62
           3
100
AcDbLine
 10
5281.286748155505
 20
1377.153418958267
 11
5281.286748155366
 21
1373.046576976911
  0
LINE
  5
149
100
AcDbEntity
  8
0
  6
CONTINUOUS
 62
           3
100
AcDbLine
 10
5272.626493853976
 20
1364.553421735915
 11
5272.626493853976
 21
1360.446587205121
  0
LINE
  5
148
100
AcDbEntity
  8
0
  6
CONTINUOUS
 62
           3
100
AcDbLine
 10
5272.626493853976
 20
1360.446587205121
 11
5274.069869687349
 21
1359.999999404048
  0
LINE
  5
147
100
AcDbEntity
  8
0
  6
CONTINUOUS
 62
           3
100
AcDbLine
 10
5275.513245287847
 20
1364.553421735858
 11
5274.069869687349
 21
1364.999994635673
  0
LINE
  5
146
100
AcDbEntity
  8
0
  6
CONTINUOUS
 62
           3
100
AcDbLine
 10
5281.286748155366
 20
1360.446587205121
 11
5282.730123755967
 21
1359.999999403921
  0
LINE
  5
145
100
AcDbEntity
  8
0
  6
CONTINUOUS
 62
           3
100
AcDbLine
 10
5284.173499589369
 20
1364.553421735915
 11
5284.173499589369
 21
1360.446587205121
  0
LINE
  5
144
100
AcDbEntity
  8
0
  6
CONTINUOUS
 62
           3
100
AcDbLine
 10
5284.173499589369
 20
1364.553421735915
 11
5282.730123756007
 21
1364.999994635673
  0
LINE
  5
143
100
AcDbEntity
  8
0
  6
CONTINUOUS
 62
           3
100
AcDbLine
 10
5275.513245287847
 20
1364.553421735858
 11
5275.513245287847
 21
1360.446587205024
  0
LINE
  5
142
100
AcDbEntity
  8
0
  6
CONTINUOUS
 62
           3
100
AcDbLine
 10
5281.286748155505
 20
1364.553421735858
 11
5281.286748155366
 21
1360.446587205121
  0
LINE
  5
141
100
AcDbEntity
  8
0
  6
CONTINUOUS
 62
           3
100
AcDbLine
 10
5273.399996833477
 20
1359.999999403921
 11
5274.069869687349
 21
1359.999999404048
  0
LINE
  5
140
100
AcDbEntity
  8
0
  6
CONTINUOUS
 62
           3
100
AcDbLine
 10
5283.399996609868
 20
1355.000004172322
 11
5282.730123756007
 21
1355.00000417242
  0
LINE
  5
13F
100
AcDbEntity
  8
0
  6
CONTINUOUS
 62
           3
100
AcDbLine
 10
5273.399996833477
 20
1355.000004172322
 11
5274.069869687349
 21
1355.00000417242
  0
LINE
  5
13E
100
AcDbEntity
  8
0
  6
CONTINUOUS
 62
           3
100
AcDbLine
 10
5284.173499589369
 20
1355.446577072224
 11
5282.730123756007
 21
1355.00000417242
  0
LINE
  5
13D
100
AcDbEntity
  8
0
  6
CONTINUOUS
 62
           3
100
AcDbLine
 10
5284.173499589369
 20
1355.446577072224
 11
5284.173499589369
 21
1359.553411603021
  0
LINE
  5
13C
100
AcDbEntity
  8
0
  6
CONTINUOUS
 62
           3
100
AcDbLine
 10
5272.626493853976
 20
1355.446577072224
 11
5272.626493853976
 21
1359.553411603021
  0
LINE
  5
13B
100
AcDbEntity
  8
0
  6
CONTINUOUS
 62
           3
100
AcDbLine
 10
5278.399996721678
 20
1359.999999404048
 11
5282.730123755967
 21
1359.999999403921
  0
LINE
  5
13A
100
AcDbEntity
  8
0
  6
CONTINUOUS
 62
           3
100
AcDbLine
 10
5281.286748155505
 20
1359.553411603069
 11
5282.730123755967
 21
1359.999999403921
  0
LINE
  5
139
100
AcDbEntity
  8
0
  6
CONTINUOUS
 62
           3
100
AcDbLine
 10
5274.069869687349
 20
1359.999999404048
 11
5278.399996721678
 21
1359.999999404048
  0
LINE
  5
138
100
AcDbEntity
  8
0
  6
CONTINUOUS
 62
           3
100
AcDbLine
 10
5274.069869687349
 20
1355.00000417242
 11
5278.399996721678
 21
1355.000004172322
  0
LINE
  5
137
100
AcDbEntity
  8
0
  6
CONTINUOUS
 62
           3
100
AcDbLine
 10
5278.399996721678
 20
1355.000004172322
 11
5282.730123756007
 21
1355.00000417242
  0
LINE
  5
136
100
AcDbEntity
  8
0
  6
CONTINUOUS
 62
           3
100
AcDbLine
 10
5275.513245287973
 20
1359.553411603021
 11
5278.399996721678
 21
1359.999999404048
  0
LINE
  5
135
100
AcDbEntity
  8
0
  6
CONTINUOUS
 62
           3
100
AcDbLine
 10
5275.513245287847
 20
1355.446577072242
 11
5275.513245287973
 21
1359.553411603021
  0
LINE
  5
134
100
AcDbEntity
  8
0
  6
CONTINUOUS
 62
           3
100
AcDbLine
 10
5281.286748155366
 20
1355.446577072224
 11
5278.399996721678
 21
1355.000004172322
  0
LINE
  5
133
100
AcDbEntity
  8
0
  6
CONTINUOUS
 62
           3
100
AcDbLine
 10
5281.286748155366
 20
1355.446577072224
 11
5281.286748155505
 21
1359.553411603069
  0
LINE
  5
132
100
AcDbEntity
  8
0
  6
CONTINUOUS
 62
           3
100
AcDbLine
 10
5335.399996751326
 20
1393.799997866194
 11
5335.399996751326
 21
1543.800000101368
  0
LINE
  5
131
100
AcDbEntity
  8
0
  6
CONTINUOUS
 62
           3
100
AcDbLine
 10
5224.399995321016
 20
1543.800000101368
 11
5221.399996692013
 21
1543.800000101368
  0
LINE
  5
130
100
AcDbEntity
  8
0
  6
CONTINUOUS
 62
           3
100
AcDbLine
 10
5275.399996695579
 20
1543.800000101368
 11
5232.399996632415
 21
1543.800000101368
  0
LINE
  5
12F
100
AcDbEntity
  8
0
  6
CONTINUOUS
 62
           3
100
AcDbLine
 10
5324.399996810935
 20
1543.800000101368
 11
5281.399996747766
 21
1543.800000101368
  0
LINE
  5
12E
100
AcDbEntity
  8
0
  6
CONTINUOUS
 62
           3
100
AcDbLine
 10
5335.399996751326
 20
1543.800000101368
 11
5332.399998122329
 21
1543.800000101368
  0
LINE
  5
12D
100
AcDbEntity
  8
0
  6
CONTINUOUS
 62
           3
100
AcDbLine
 10
5221.399996692013
 20
1543.800000101368
 11
5221.399996692013
 21
1393.799997866194
  0
LINE
  5
12C
100
AcDbEntity
  8
0
  6
CONTINUOUS
 62
           3
100
AcDbLine
 10
5332.399998122329
 20
1393.799997866194
 11
5335.399996751326
 21
1393.799997866194
  0
LINE
  5
12B
100
AcDbEntity
  8
0
  6
CONTINUOUS
 62
           3
100
AcDbLine
 10
5286.399997101566
 20
1393.799997866194
 11
5324.399996810935
 21
1393.799997866194
  0
LINE
  5
12A
100
AcDbEntity
  8
0
  6
CONTINUOUS
 62
           3
100
AcDbLine
 10
5232.399996632415
 20
1393.799997866194
 11
5270.399996341777
 21
1393.799997866194
  0
LINE
  5
129
100
AcDbEntity
  8
0
  6
CONTINUOUS
 62
           3
100
AcDbLine
 10
5221.399996692013
 20
1393.799997866194
 11
5224.399995321016
 21
1393.799997866194
  0
LINE
  5
128
100
AcDbEntity
  8
0
  6
CONTINUOUS
 62
           3
100
AcDbLine
 10
5271.926494029874
 20
1389.099999999995
 11
5284.873499413465
 21
1389.099999999995
  0
LINE
  5
127
100
AcDbEntity
  8
0
  6
CONTINUOUS
 62
           3
100
AcDbLine
 10
5286.399997101566
 20
1394.799999892894
 11
5281.899996829766
 21
1394.799999892894
  0
LINE
  5
126
100
AcDbEntity
  8
0
  6
CONTINUOUS
 62
           3
100
AcDbLine
 10
5274.899996613579
 20
1394.799999892894
 11
5270.399996341777
 21
1394.799999892894
  0
LINE
  5
125
100
AcDbEntity
  8
0
  6
CONTINUOUS
 62
           3
100
AcDbLine
 10
5276.399996626778
 20
1638.422653078993
 11
5275.399996695579
 21
1637.422651052293
  0
LINE
  5
124
100
AcDbEntity
  8
0
  6
CONTINUOUS
 62
           3
100
AcDbLine
 10
5281.399996747766
 20
1637.422651052293
 11
5280.399996816565
 21
1638.422653078993
  0
LINE
  5
123
100
AcDbEntity
  8
0
  6
CONTINUOUS
 62
           3
100
AcDbLine
 10
5275.399996695579
 20
1367.599993944114
 11
5275.399996695579
 21
1366.600006818713
  0
LINE
  5
122
100
AcDbEntity
  8
0
  6
CONTINUOUS
 62
           3
100
AcDbLine
 10
5275.399996695579
 20
1384.1999992729
 11
5275.399996695579
 21
1377.599999308603
  0
LINE
  5
121
100
AcDbEntity
  8
0
  6
CONTINUOUS
 62
           3
100
AcDbLine
 10
5275.399996695579
 20
1392.957426607594
 11
5275.399996695579
 21
1390.000000596097
  0
LINE
  5
120
100
AcDbEntity
  8
0
  6
CONTINUOUS
 62
           3
100
AcDbLine
 10
5275.399996695579
 20
1633.399993180996
 11
5275.399996695579
 21
1394.792847335491
  0
LINE
  5
11F
100
AcDbEntity
  8
0
  6
CONTINUOUS
 62
           3
100
AcDbLine
 10
5275.399996695579
 20
1637.422651052293
 11
5275.399996695579
 21
1635.000005364196
  0
LINE
  5
11E
100
AcDbEntity
  8
0
  6
CONTINUOUS
 62
           3
100
AcDbLine
 10
5281.399996747766
 20
1635.000005364196
 11
5281.399996747766
 21
1637.422651052293
  0
LINE
  5
11D
100
AcDbEntity
  8
0
  6
CONTINUOUS
 62
           3
100
AcDbLine
 10
5281.399996747766
 20
1394.792847335491
 11
5281.399996747766
 21
1633.399993180996
  0
LINE
  5
11C
100
AcDbEntity
  8
0
  6
CONTINUOUS
 62
           3
100
AcDbLine
 10
5281.399996747766
 20
1390.000000596097
 11
5281.399996747766
 21
1392.957426607594
  0
LINE
  5
11B
100
AcDbEntity
  8
0
  6
CONTINUOUS
 62
           3
100
AcDbLine
 10
5281.399996747766
 20
1377.599999308603
 11
5281.399996747766
 21
1384.1999992729
  0
LINE
  5
11A
100
AcDbEntity
  8
0
  6
CONTINUOUS
 62
           3
100
AcDbLine
 10
5281.399996747766
 20
1366.600006818713
 11
5281.399996747766
 21
1367.599993944114
  0
LINE
  5
119
100
AcDbEntity
  8
0
  6
CONTINUOUS
 62
           3
100
AcDbLine
 10
5232.399996632415
 20
1635.000005364196
 11
5232.399996632415
 21
1665.000006556369
  0
LINE
  5
118
100
AcDbEntity
  8
0
  6
CONTINUOUS
 62
           3
100
AcDbLine
 10
5232.399996632415
 20
1550.000000744964
 11
5232.399996632415
 21
1633.399993180996
  0
LINE
  5
117
100
AcDbEntity
  8
0
  6
CONTINUOUS
 62
           3
100
AcDbLine
 10
5232.399996632415
 20
1391.199998557593
 11
5232.399996632415
 21
1548.799999058067
  0
LINE
  5
116
100
AcDbEntity
  8
0
  6
CONTINUOUS
 62
           3
100
AcDbLine
 10
5232.399996632415
 20
1366.600006818713
 11
5232.399996632415
 21
1390.000000596097
  0
LINE
  5
115
100
AcDbEntity
  8
0
  6
CONTINUOUS
 62
           3
100
AcDbLine
 10
5224.399995321016
 20
1364.999994635815
 11
5224.399995321016
 21
1314.999997615956
  0
LINE
  5
114
100
AcDbEntity
  8
0
  6
CONTINUOUS
 62
           3
100
AcDbLine
 10
5224.399995321016
 20
1390.000000596097
 11
5224.399995321016
 21
1366.600006818713
  0
LINE
  5
113
100
AcDbEntity
  8
0
  6
CONTINUOUS
 62
           3
100
AcDbLine
 10
5224.399995321016
 20
1548.799999058067
 11
5224.399995321016
 21
1391.199998557593
  0
LINE
  5
112
100
AcDbEntity
  8
0
  6
CONTINUOUS
 62
           3
100
AcDbLine
 10
5224.399995321016
 20
1633.399993180996
 11
5224.399995321016
 21
1550.000000744964
  0
LINE
  5
111
100
AcDbEntity
  8
0
  6
CONTINUOUS
 62
           3
100
AcDbLine
 10
5224.399995321016
 20
1665.000006556369
 11
5224.399995321016
 21
1635.000005364196
  0
LINE
  5
110
100
AcDbEntity
  8
0
  6
CONTINUOUS
 62
           3
100
AcDbLine
 10
5332.399998122329
 20
1550.000000744964
 11
5332.399998122329
 21
1639.110868296101
  0
LINE
  5
10F
100
AcDbEntity
  8
0
  6
CONTINUOUS
 62
           3
100
AcDbLine
 10
5332.399998122329
 20
1391.199998557593
 11
5332.399998122329
 21
1548.799999058067
  0
LINE
  5
10E
100
AcDbEntity
  8
0
  6
CONTINUOUS
 62
           3
100
AcDbLine
 10
5332.399998122329
 20
1366.600006818713
 11
5332.399998122329
 21
1390.000000596097
  0
LINE
  5
10D
100
AcDbEntity
  8
0
  6
CONTINUOUS
 62
           3
100
AcDbLine
 10
5332.399998122329
 20
1314.999997615956
 11
5332.399998122329
 21
1364.999994635815
  0
LINE
  5
10C
100
AcDbEntity
  8
0
  6
CONTINUOUS
 62
           3
100
AcDbLine
 10
5324.399996810935
 20
1364.999994635815
 11
5324.399996810935
 21
1314.999997615956
  0
LINE
  5
10B
100
AcDbEntity
  8
0
  6
CONTINUOUS
 62
           3
100
AcDbLine
 10
5324.399996810935
 20
1390.000000596097
 11
5324.399996810935
 21
1366.600006818713
  0
LINE
  5
10A
100
AcDbEntity
  8
0
  6
CONTINUOUS
 62
           3
100
AcDbLine
 10
5324.399996810935
 20
1548.799999058067
 11
5324.399996810935
 21
1391.199998557593
  0
LINE
  5
109
100
AcDbEntity
  8
0
  6
CONTINUOUS
 62
           3
100
AcDbLine
 10
5324.399996810935
 20
1639.110868296099
 11
5324.399996810935
 21
1550.000000744964
  0
LINE
  5
108
100
AcDbEntity
  8
0
  6
CONTINUOUS
 62
           3
100
AcDbLine
 10
5272.626493853976
 20
1368.046581745311
 11
5273.399996833477
 21
1367.599993944114
  0
LINE
  5
107
100
AcDbEntity
  8
0
  6
CONTINUOUS
 62
           3
100
AcDbLine
 10
5283.399996609868
 20
1367.599993944114
 11
5284.173499589369
 21
1368.046581745311
  0
LINE
  5
106
100
AcDbEntity
  8
0
  6
CONTINUOUS
 62
           3
100
AcDbLine
 10
5284.173499589369
 20
1372.153416276109
 11
5283.399996609868
 21
1372.600004077011
  0
LINE
  5
105
100
AcDbEntity
  8
0
  6
CONTINUOUS
 62
           3
100
AcDbLine
 10
5273.399996833477
 20
1372.600004077011
 11
5272.626493853976
 21
1372.153416276109
  0
LINE
  5
104
100
AcDbEntity
  8
0
  6
CONTINUOUS
 62
           3
100
AcDbLine
 10
5272.626493853976
 20
1373.046576976911
 11
5273.399996833477
 21
1372.600004077011
  0
LINE
  5
103
100
AcDbEntity
  8
0
  6
CONTINUOUS
 62
           3
100
AcDbLine
 10
5283.399996609868
 20
1372.600004077011
 11
5284.173499589369
 21
1373.046576976911
  0
LINE
  5
102
100
AcDbEntity
  8
0
  6
CONTINUOUS
 62
           3
100
AcDbLine
 10
5284.173499589369
 20
1377.153418958204
 11
5283.399996609868
 21
1377.599999308603
  0
LINE
  5
101
100
AcDbEntity
  8
0
  6
CONTINUOUS
 62
           3
100
AcDbLine
 10
5273.399996833477
 20
1377.599999308603
 11
5272.626493853976
 21
1377.153418958204
  0
LINE
  5
100
100
AcDbEntity
  8
0
  6
CONTINUOUS
 62
           3
100
AcDbLine
 10
5272.626493853976
 20
1360.446587205121
 11
5273.399996833477
 21
1359.999999403921
  0
LINE
  5
FF
100
AcDbEntity
  8
0
  6
CONTINUOUS
 62
           3
100
AcDbLine
 10
5283.399996609868
 20
1359.999999403921
 11
5284.173499589369
 21
1360.446587205121
  0
LINE
  5
FE
100
AcDbEntity
  8
0
  6
CONTINUOUS
 62
           3
100
AcDbLine
 10
5284.173499589369
 20
1364.553421735915
 11
5283.399996609868
 21
1364.999994635815
  0
LINE
  5
FD
100
AcDbEntity
  8
0
  6
CONTINUOUS
 62
           3
100
AcDbLine
 10
5273.399996833477
 20
1364.999994635815
 11
5272.626493853976
 21
1364.553421735915
  0
LINE
  5
FC
100
AcDbEntity
  8
0
  6
CONTINUOUS
 62
           3
100
AcDbLine
 10
5284.173499589369
 20
1359.553411603021
 11
5283.399996609868
 21
1359.999999403921
  0
LINE
  5
FB
100
AcDbEntity
  8
0
  6
CONTINUOUS
 62
           3
100
AcDbLine
 10
5273.399996833477
 20
1359.999999403921
 11
5272.626493853976
 21
1359.553411603021
  0
LINE
  5
FA
100
AcDbEntity
  8
0
  6
CONTINUOUS
 62
           3
100
AcDbLine
 10
5283.399996609868
 20
1355.000004172322
 11
5284.173499589369
 21
1355.446577072224
  0
LINE
  5
F9
100
AcDbEntity
  8
0
  6
CONTINUOUS
 62
           3
100
AcDbLine
 10
5272.626493853976
 20
1355.446577072224
 11
5273.399996833477
 21
1355.000004172322
  0
LINE
  5
F8
100
AcDbEntity
  8
0
  6
CONTINUOUS
 62
           3
100
AcDbLine
 10
5232.399996632415
 20
1314.999997615956
 11
5232.399996632415
 21
1364.999994635815
  0
LINE
  5
F7
100
AcDbEntity
  8
1
  6
CONTINUOUS
 62
           7
100
AcDbLine
 10
5092.499999999999
 20
1589.999999999999
 11
5092.499999999999
 21
1350.0
  0
LINE
  5
F6
100
AcDbEntity
  8
1
  6
CONTINUOUS
 62
           7
100
AcDbLine
 10
4912.499999999999
 20
1639.999999999999
 11
4912.5
 21
1753.0
  0
LINE
  5
F5
100
AcDbEntity
  8
1
  6
CONTINUOUS
 62
           7
100
AcDbLine
 10
5092.5
 20
1753.0
 11
5092.5
 21
1640.0
  0
LINE
  5
F4
100
AcDbEntity
  8
1
  6
CONTINUOUS
 62
           7
100
AcDbLine
 10
4912.5
 20
1753.0
 11
5092.5
 21
1753.0
  0
LINE
  5
F3
100
AcDbEntity
  8
1
  6
CONTINUOUS
 62
           7
100
AcDbLine
 10
5092.5
 20
1640.0
 11
4912.499999999999
 21
1639.999999999999
  0
LINE
  5
F2
100
AcDbEntity
  8
1
  6
CONTINUOUS
 62
           4
100
AcDbLine
 10
5722.006713441553
 20
1480.0
 11
5382.499999999998
 21
1480.0
  0
LINE
  5
F1
100
AcDbEntity
  8
1
  6
CONTINUOUS
 62
           7
100
AcDbLine
 10
5702.006713441553
 20
1500.0
 11
5362.499999999998
 21
1500.0
  0
LINE
  5
F0
100
AcDbEntity
  8
1
  6
CONTINUOUS
 62
           4
100
AcDbLine
 10
5693.320421940537
 20
1520.0
 11
6342.499999999999
 21
1520.0
  0
LINE
  5
EF
100
AcDbEntity
  8
1
  6
CONTINUOUS
 62
           4
100
AcDbLine
 10
5382.499999999998
 20
1689.110868296101
 11
5382.499999999998
 21
1520.0
  0
LINE
  5
EE
100
AcDbEntity
  8
1
  6
CONTINUOUS
 62
           7
100
AcDbLine
 10
5362.499999999998
 20
1693.590131570531
 11
5362.499999999999
 21
2000.0
  0
LINE
  5
ED
100
AcDbEntity
  8
1
  6
CONTINUOUS
 62
           4
100
AcDbLine
 10
5342.499999999998
 20
1681.205882899818
 11
5342.499999999999
 21
1980.0
  0
LINE
  5
EC
100
AcDbEntity
  8
1
  6
CONTINUOUS
 62
           4
100
AcDbLine
 10
5382.499999999998
 20
1520.0
 11
5682.006713441553
 21
1520.0
  0
LINE
  5
EB
100
AcDbEntity
  8
1
  6
CONTINUOUS
 62
           4
100
AcDbLine
 10
5382.499999999999
 20
1980.0
 11
5382.499999999998
 21
1697.110868296099
  0
LINE
  5
EA
100
AcDbEntity
  8
1
  6
CONTINUOUS
 62
           7
100
AcDbLine
 10
6362.499999999998
 20
1500.0
 11
5713.320421940537
 21
1500.0
  0
LINE
  5
E9
100
AcDbEntity
  8
1
  6
CONTINUOUS
 62
           7
100
AcDbLine
 10
5362.499999999999
 20
0.0
 11
5362.499999999998
 21
1684.980139870122
  0
LINE
  5
E8
100
AcDbEntity
  8
1
  6
CONTINUOUS
 62
           4
100
AcDbLine
 10
5342.499999999999
 20
20.0
 11
5342.499999999998
 21
1669.243743197743
  0
LINE
  5
E7
100
AcDbEntity
  8
1
  6
CONTINUOUS
 62
           4
100
AcDbLine
 10
6342.499999999999
 20
1480.0
 11
5734.140300526799
 21
1480.0
  0
LINE
  5
E6
100
AcDbEntity
  8
1
  6
CONTINUOUS
 62
           4
100
AcDbLine
 10
5382.499999999998
 20
1480.0
 11
5382.499999999999
 21
20.0
  0
LINE
  5
E5
100
AcDbEntity
  8
1
  6
DOT_CENTER
 62
           3
100
AcDbLine
 10
-1241.527744678122
 20
840.200848327049
 11
-1241.527744678122
 21
750.202277327049
  0
LINE
  5
E4
100
AcDbEntity
  8
1
  6
DOT_CENTER
 62
           3
100
AcDbLine
 10
-1196.527744678122
 20
795.200848327049
 11
-1286.525199678127
 21
795.200848327049
  0
LINE
  5
E3
100
AcDbEntity
  8
1
  6
CONTINUOUS
 62
           3
100
AcDbLine
 10
-1245.063339678116
 20
823.33071132706
 11
-1247.451285678126
 21
796.073587327061
  0
LINE
  5
E2
100
AcDbEntity
  8
1
  6
CONTINUOUS
 62
           3
100
AcDbLine
 10
-1247.451285678126
 20
794.32810932706
 11
-1245.063339678116
 21
767.070985327058
  0
LINE
  5
E1
100
AcDbEntity
  8
1
  6
CONTINUOUS
 62
           3
100
AcDbLine
 10
-1237.992149678107
 20
823.33071132706
 11
-1235.604203678126
 21
796.073587327061
  0
LINE
  5
E0
100
AcDbEntity
  8
1
  6
CONTINUOUS
 62
           3
100
AcDbLine
 10
-1235.604203678126
 20
794.32810932706
 11
-1237.992149678107
 21
767.070985327058
  0
LINE
  5
DF
100
AcDbEntity
  8
1
  6
CONTINUOUS
 62
           7
100
AcDbLine
 10
-1175.0
 20
1146.282992387802
 11
-2325.0
 21
1146.282992387802
  0
LINE
  5
DE
100
AcDbEntity
  8
1
  6
CONTINUOUS
 62
           7
100
AcDbLine
 10
-2325.0
 20
441.513526798366
 11
-2325.0
 21
1146.282992387802
  0
LINE
  5
DD
100
AcDbEntity
  8
1
  6
CONTINUOUS
 62
           7
100
AcDbLine
 10
-1175.0
 20
441.513526798366
 11
-1175.0
 21
1146.282992387802
  0
LINE
  5
DC
100
AcDbEntity
  8
1
  6
CONTINUOUS
 62
           7
100
AcDbLine
 10
-2325.0
 20
441.513526798366
 11
-1175.0
 21
441.513526798366
  0
LINE
  5
DB
100
AcDbEntity
  8
___S__
  6
DOT_CENTER
 62
           3
100
AcDbLine
 10
-2324.999999999976
 20
1121.052837286497
 11
-2324.999999999977
 21
1036.057127055388
  0
LINE
  5
DA
100
AcDbEntity
  8
____
  6
CONTINUOUS
 62
           3
100
AcDbLine
 10
-2319.595947044857
 20
1114.449075506231
 11
-2319.595947044857
 21
1112.571144758107
  0
LINE
  5
D9
100
AcDbEntity
  8
____
  6
CONTINUOUS
 62
           3
100
AcDbLine
 10
-2329.91277541372
 20
1114.918558193263
 11
-2320.087224586232
 21
1114.918558193263
  0
LINE
  5
D8
100
AcDbEntity
  8
____
  6
CONTINUOUS
 62
           3
100
AcDbLine
 10
-2330.404052955095
 20
1112.571144758109
 11
-2330.404052955095
 21
1114.449075506231
  0
LINE
  5
D7
100
AcDbEntity
  8
____
  6
CONTINUOUS
 62
           3
100
AcDbLine
 10
-2319.497691536592
 20
1076.890460543777
 11
-2330.502308463369
 21
1076.890460543777
  0
LINE
  5
D6
100
AcDbEntity
  8
____
  6
CONTINUOUS
 62
           3
100
AcDbLine
 10
-2319.497691536591
 20
1112.571144758107
 11
-2319.497691536592
 21
1076.890460543777
  0
LINE
  5
D5
100
AcDbEntity
  8
____
  6
CONTINUOUS
 62
           3
100
AcDbLine
 10
-2330.502308463368
 20
1112.571144758109
 11
-2319.497691536591
 21
1112.571144758107
  0
LINE
  5
D4
100
AcDbEntity
  8
____
  6
CONTINUOUS
 62
           3
100
AcDbLine
 10
-2330.502308463369
 20
1076.890460543777
 11
-2330.502308463368
 21
1112.571144758109
  0
LINE
  5
D3
100
AcDbEntity
  8
____
  6
CONTINUOUS
 62
           3
100
AcDbLine
 10
-2330.404052955096
 20
1038.392880207259
 11
-2330.404052955096
 21
1040.270810955382
  0
LINE
  5
D2
100
AcDbEntity
  8
____
  6
CONTINUOUS
 62
           3
100
AcDbLine
 10
-2320.087224586232
 20
1037.92339752023
 11
-2329.912775413721
 21
1037.92339752023
  0
LINE
  5
D1
100
AcDbEntity
  8
____
  6
CONTINUOUS
 62
           3
100
AcDbLine
 10
-2319.595947044858
 20
1040.270810955382
 11
-2319.595947044858
 21
1038.392880207259
  0
LINE
  5
D0
100
AcDbEntity
  8
____
  6
CONTINUOUS
 62
           3
100
AcDbLine
 10
-2330.158414184408
 20
1076.890460543777
 11
-2330.158414184408
 21
1075.951495169715
  0
LINE
  5
CF
100
AcDbEntity
  8
____
  6
CONTINUOUS
 62
           3
100
AcDbLine
 10
-2319.841585815545
 20
1076.890460543777
 11
-2330.158414184408
 21
1076.890460543777
  0
LINE
  5
CE
100
AcDbEntity
  8
____
  6
CONTINUOUS
 62
           3
100
AcDbLine
 10
-2319.841585815545
 20
1075.951495169715
 11
-2319.841585815545
 21
1076.890460543777
  0
LINE
  5
CD
100
AcDbEntity
  8
____
  6
CONTINUOUS
 62
           3
100
AcDbLine
 10
-2330.404052955095
 20
1114.449075506231
 11
-2319.595947044857
 21
1114.449075506231
  0
LINE
  5
CC
100
AcDbEntity
  8
____
  6
CONTINUOUS
 62
           3
100
AcDbLine
 10
-2330.502308463369
 20
1075.951495169715
 11
-2319.497691536592
 21
1075.951495169715
  0
LINE
  5
CB
100
AcDbEntity
  8
____
  6
CONTINUOUS
 62
           3
100
AcDbLine
 10
-2330.502308463369
 20
1040.270810955382
 11
-2330.502308463369
 21
1075.951495169715
  0
LINE
  5
CA
100
AcDbEntity
  8
____
  6
CONTINUOUS
 62
           3
100
AcDbLine
 10
-2319.497691536592
 20
1040.270810955382
 11
-2330.502308463369
 21
1040.270810955382
  0
LINE
  5
C9
100
AcDbEntity
  8
____
  6
CONTINUOUS
 62
           3
100
AcDbLine
 10
-2319.497691536592
 20
1075.951495169715
 11
-2319.497691536592
 21
1040.270810955382
  0
LINE
  5
C8
100
AcDbEntity
  8
____
  6
CONTINUOUS
 62
           3
100
AcDbLine
 10
-2330.404052955095
 20
1114.449075506231
 11
-2329.91277541372
 21
1114.918558193263
  0
LINE
  5
C7
100
AcDbEntity
  8
____
  6
CONTINUOUS
 62
           3
100
AcDbLine
 10
-2320.087224586232
 20
1114.918558193263
 11
-2319.595947044857
 21
1114.449075506231
  0
LINE
  5
C6
100
AcDbEntity
  8
____
  6
CONTINUOUS
 62
           3
100
AcDbLine
 10
-2329.912775413721
 20
1037.92339752023
 11
-2330.404052955096
 21
1038.392880207259
  0
LINE
  5
C5
100
AcDbEntity
  8
____
  6
CONTINUOUS
 62
           3
100
AcDbLine
 10
-2319.595947044858
 20
1038.392880207259
 11
-2320.087224586232
 21
1037.92339752023
  0
LINE
  5
C4
100
AcDbEntity
  8
____
  6
CONTINUOUS
 62
           3
100
AcDbLine
 10
-2330.404052955096
 20
1038.392880207259
 11
-2319.595947044858
 21
1038.392880207259
  0
LINE
  5
C3
100
AcDbEntity
  8
____
  6
CONTINUOUS
 62
           3
100
AcDbLine
 10
-2330.40405295512
 20
484.403309517207
 11
-2319.595947044882
 21
484.403309517207
  0
LINE
  5
C2
100
AcDbEntity
  8
____
  6
CONTINUOUS
 62
           3
100
AcDbLine
 10
-2319.595947044882
 20
484.403309517207
 11
-2320.087224586257
 21
483.933826830174
  0
LINE
  5
C1
100
AcDbEntity
  8
____
  6
CONTINUOUS
 62
           3
100
AcDbLine
 10
-2329.912775413746
 20
483.933826830174
 11
-2330.40405295512
 21
484.403309517207
  0
LINE
  5
C0
100
AcDbEntity
  8
____
  6
CONTINUOUS
 62
           3
100
AcDbLine
 10
-2320.087224586255
 20
560.92898750321
 11
-2319.59594704488
 21
560.459504816177
  0
LINE
  5
BF
100
AcDbEntity
  8
____
  6
CONTINUOUS
 62
           3
100
AcDbLine
 10
-2330.404052955118
 20
560.459504816177
 11
-2329.912775413744
 21
560.92898750321
  0
LINE
  5
BE
100
AcDbEntity
  8
____
  6
CONTINUOUS
 62
           3
100
AcDbLine
 10
-2319.497691536608
 20
521.961924479661
 11
-2319.497691536609
 21
486.281240265329
  0
LINE
  5
BD
100
AcDbEntity
  8
____
  6
CONTINUOUS
 62
           3
100
AcDbLine
 10
-2319.497691536609
 20
486.281240265329
 11
-2330.502308463385
 21
486.281240265329
  0
LINE
  5
BC
100
AcDbEntity
  8
____
  6
CONTINUOUS
 62
           3
100
AcDbLine
 10
-2330.502308463385
 20
486.281240265329
 11
-2330.502308463385
 21
521.961924479661
  0
LINE
  5
BB
100
AcDbEntity
  8
____
  6
CONTINUOUS
 62
           3
100
AcDbLine
 10
-2330.502308463385
 20
521.961924479661
 11
-2319.497691536608
 21
521.961924479661
  0
LINE
  5
BA
100
AcDbEntity
  8
____
  6
CONTINUOUS
 62
           3
100
AcDbLine
 10
-2330.404052955118
 20
560.459504816177
 11
-2319.59594704488
 21
560.459504816177
  0
LINE
  5
B9
100
AcDbEntity
  8
____
  6
CONTINUOUS
 62
           3
100
AcDbLine
 10
-2319.841585815569
 20
521.961924479661
 11
-2319.841585815569
 21
522.900889853721
  0
LINE
  5
B8
100
AcDbEntity
  8
____
  6
CONTINUOUS
 62
           3
100
AcDbLine
 10
-2319.841585815569
 20
522.900889853721
 11
-2330.158414184432
 21
522.900889853723
  0
LINE
  5
B7
100
AcDbEntity
  8
____
  6
CONTINUOUS
 62
           3
100
AcDbLine
 10
-2330.158414184432
 20
522.900889853723
 11
-2330.158414184432
 21
521.961924479661
  0
LINE
  5
B6
100
AcDbEntity
  8
____
  6
CONTINUOUS
 62
           3
100
AcDbLine
 10
-2319.595947044882
 20
486.281240265329
 11
-2319.595947044882
 21
484.403309517207
  0
LINE
  5
B5
100
AcDbEntity
  8
____
  6
CONTINUOUS
 62
           3
100
AcDbLine
 10
-2320.087224586257
 20
483.933826830174
 11
-2329.912775413746
 21
483.933826830174
  0
LINE
  5
B4
100
AcDbEntity
  8
____
  6
CONTINUOUS
 62
           3
100
AcDbLine
 10
-2330.40405295512
 20
484.403309517207
 11
-2330.40405295512
 21
486.281240265329
  0
LINE
  5
B3
100
AcDbEntity
  8
____
  6
CONTINUOUS
 62
           3
100
AcDbLine
 10
-2330.502308463385
 20
522.900889853723
 11
-2330.502308463384
 21
558.581574068055
  0
LINE
  5
B2
100
AcDbEntity
  8
____
  6
CONTINUOUS
 62
           3
100
AcDbLine
 10
-2330.502308463384
 20
558.581574068055
 11
-2319.497691536607
 21
558.581574068055
  0
LINE
  5
B1
100
AcDbEntity
  8
____
  6
CONTINUOUS
 62
           3
100
AcDbLine
 10
-2319.497691536607
 20
558.581574068055
 11
-2319.497691536608
 21
522.900889853721
  0
LINE
  5
B0
100
AcDbEntity
  8
____
  6
CONTINUOUS
 62
           3
100
AcDbLine
 10
-2319.497691536608
 20
522.900889853721
 11
-2330.502308463385
 21
522.900889853723
  0
LINE
  5
AF
100
AcDbEntity
  8
____
  6
CONTINUOUS
 62
           3
100
AcDbLine
 10
-2330.404052955118
 20
558.581574068055
 11
-2330.404052955118
 21
560.459504816177
  0
LINE
  5
AE
100
AcDbEntity
  8
____
  6
CONTINUOUS
 62
           3
100
AcDbLine
 10
-2329.912775413744
 20
560.92898750321
 11
-2320.087224586255
 21
560.92898750321
  0
LINE
  5
AD
100
AcDbEntity
  8
____
  6
CONTINUOUS
 62
           3
100
AcDbLine
 10
-2319.59594704488
 20
560.459504816177
 11
-2319.59594704488
 21
558.581574068055
  0
LINE
  5
AC
100
AcDbEntity
  8
___S__
  6
DOT_CENTER
 62
           3
100
AcDbLine
 10
-2325.0
 20
567.06326659646
 11
-2325.000000000001
 21
482.067556365335
  0
LINE
  5
AB
100
AcDbEntity
  8
1
  6
CONTINUOUS
 62
           7
100
AcDbLine
 10
2500.0
 20
1263.744569986044
 11
-2500.0
 21
1263.744569986044
  0
LINE
  5
AA
100
AcDbEntity
  8
1
  6
CONTINUOUS
 62
           7
100
AcDbLine
 10
1000.0
 20
1500.0
 11
1000.0
 21
0.0
  0
LINE
  5
A9
100
AcDbEntity
  8
1
  6
CONTINUOUS
 62
           7
100
AcDbLine
 10
-1000.0
 20
0.0
 11
-1000.0
 21
1500.0
  0
LINE
  5
A8
100
AcDbEntity
  8
1
  6
CONTINUOUS
 62
           7
100
AcDbLine
 10
-2319.497691536609
 20
486.513526798368
 11
-1175.0
 21
486.513526798368
  0
LINE
  5
A7
100
AcDbEntity
  8
1
  6
DOT_CENTER
 62
           2
100
AcDbLine
 10
0.0
 20
6705.123291727481
 11
0.0
 21
4398.203515784629
  0
LINE
  5
A6
100
AcDbEntity
  8
1
  6
CONTINUOUS
 62
           4
100
AcDbLine
 10
520.0
 20
6485.12329172748
 11
520.0
 21
6166.322582756163
  0
LINE
  5
A5
100
AcDbEntity
  8
1
  6
CONTINUOUS
 62
           7
100
AcDbLine
 10
2485.0
 20
40.0
 11
1015.0
 21
40.0
  0
LINE
  5
A4
100
AcDbEntity
  8
1
  6
CONTINUOUS
 62
           7
100
AcDbLine
 10
-2485.0
 20
0.0
 11
-2485.0
 21
40.0
  0
LINE
  5
A3
100
AcDbEntity
  8
1
  6
CONTINUOUS
 62
           7
100
AcDbLine
 10
2670.0
 20
4905.12329172748
 11
2670.0
 21
4605.12329172748
  0
LINE
  5
A2
100
AcDbEntity
  8
1
  6
CONTINUOUS
 62
           7
100
AcDbLine
 10
2670.0
 20
1180.0
 11
2670.0
 21
1630.0
  0
LINE
  5
A1
100
AcDbEntity
  8
1
  6
LONG_DASHED
 62
           2
100
AcDbLine
 10
6312.499999999999
 20
-450.0
 11
6312.499999999999
 21
0.0
  0
LINE
  5
A0
100
AcDbEntity
  8
1
  6
LONG_DASHED
 62
           2
100
AcDbLine
 10
4912.499999999999
 20
-450.0
 11
6312.499999999999
 21
-450.0
  0
LINE
  5
9F
100
AcDbEntity
  8
1
  6
CONTINUOUS
 62
           4
100
AcDbLine
 10
6342.499999999999
 20
20.0
 11
6342.499999999999
 21
1480.0
  0
LINE
  5
9E
100
AcDbEntity
  8
1
  6
CONTINUOUS
 62
           4
100
AcDbLine
 10
5382.499999999999
 20
20.0
 11
6342.499999999999
 21
20.0
  0
LINE
  5
9D
100
AcDbEntity
  8
1
  6
CONTINUOUS
 62
           7
100
AcDbLine
 10
4212.499999999999
 20
0.0
 11
6562.499999999999
 21
0.0
  0
LINE
  5
9C
100
AcDbEntity
  8
1
  6
CONTINUOUS
 62
           7
100
AcDbLine
 10
-2550.0
 20
4505.12329172748
 11
2550.0
 21
4505.12329172748
  0
LINE
  5
9B
100
AcDbEntity
  8
1
  6
CONTINUOUS
 62
           7
100
AcDbLine
 10
-2550.0
 20
6505.12329172748
 11
-2550.0
 21
4505.12329172748
  0
LINE
  5
9A
100
AcDbEntity
  8
1
  6
CONTINUOUS
 62
           7
100
AcDbLine
 10
-2550.0
 20
5505.12329172748
 11
-623.196859705832
 21
5505.12329172748
  0
LINE
  5
99
100
AcDbEntity
  8
1
  6
CONTINUOUS
 62
           7
100
AcDbLine
 10
-2550.0
 20
4555.12329172748
 11
2550.0
 21
4555.12329172748
  0
LINE
  5
98
100
AcDbEntity
  8
1
  6
CONTINUOUS
 62
           4
100
AcDbLine
 10
-2480.0
 20
5485.12329172748
 11
-2480.0
 21
4555.12329172748
  0
LINE
  5
97
100
AcDbEntity
  8
1
  6
CONTINUOUS
 62
           7
100
AcDbLine
 10
-2500.0
 20
4555.12329172748
 11
-2500.0
 21
6505.12329172748
  0
LINE
  5
96
100
AcDbEntity
  8
1
  6
CONTINUOUS
 62
           7
100
AcDbLine
 10
2500.0
 20
4555.12329172748
 11
2500.0
 21
6505.12329172748
  0
LINE
  5
95
100
AcDbEntity
  8
1
  6
CONTINUOUS
 62
           4
100
AcDbLine
 10
-2480.0
 20
5525.12329172748
 11
-1020.0
 21
5525.12329172748
  0
LINE
  5
94
100
AcDbEntity
  8
1
  6
CONTINUOUS
 62
           4
100
AcDbLine
 10
-2480.0
 20
5525.12329172748
 11
-2480.0
 21
6485.12329172748
  0
LINE
  5
93
100
AcDbEntity
  8
1
  6
CONTINUOUS
 62
           7
100
AcDbLine
 10
2550.0
 20
4905.12329172748
 11
2670.0
 21
4905.12329172748
  0
LINE
  5
92
100
AcDbEntity
  8
1
  6
CONTINUOUS
 62
           7
100
AcDbLine
 10
2550.0
 20
4605.12329172748
 11
2670.0
 21
4605.12329172748
  0
LINE
  5
91
100
AcDbEntity
  8
1
  6
CONTINUOUS
 62
           7
100
AcDbLine
 10
2550.0
 20
6505.12329172748
 11
0.0
 21
6505.123291727481
  0
LINE
  5
90
100
AcDbEntity
  8
1
  6
CONTINUOUS
 62
           7
100
AcDbLine
 10
2550.0
 20
1180.0
 11
2670.0
 21
1180.0
  0
LINE
  5
8F
100
AcDbEntity
  8
1
  6
CONTINUOUS
 62
           7
100
AcDbLine
 10
2550.0
 20
1630.0
 11
2670.0
 21
1630.0
  0
LINE
  5
8E
100
AcDbEntity
  8
1
  6
CONTINUOUS
 62
           7
100
AcDbLine
 10
2550.0
 20
0.0
 11
2550.0
 21
2150.0
  0
LINE
  5
8D
100
AcDbEntity
  8
1
  6
CONTINUOUS
 62
           7
100
AcDbLine
 10
2550.0
 20
2150.0
 11
-2550.0
 21
2150.0
  0
LINE
  5
8C
100
AcDbEntity
  8
1
  6
CONTINUOUS
 62
           7
100
AcDbLine
 10
-2550.0
 20
2150.0
 11
-2550.0
 21
0.0
  0
LINE
  5
8B
100
AcDbEntity
  8
1
  6
CONTINUOUS
 62
           7
100
AcDbLine
 10
2550.0
 20
2000.0
 11
-2550.0
 21
2000.0
  0
LINE
  5
8A
100
AcDbEntity
  8
1
  6
CONTINUOUS
 62
           7
100
AcDbLine
 10
6362.499999999999
 20
0.0
 11
6362.499999999999
 21
2075.0
  0
LINE
  5
89
100
AcDbEntity
  8
1
  6
CONTINUOUS
 62
           7
100
AcDbLine
 10
6362.499999999999
 20
2000.0
 11
4362.5
 21
2000.0
  0
LINE
  5
88
100
AcDbEntity
  8
1
  6
CONTINUOUS
 62
           4
100
AcDbLine
 10
4362.5
 20
2003.0
 11
6362.499999999999
 21
2003.0
  0
LINE
  5
87
100
AcDbEntity
  8
1
  6
CONTINUOUS
 62
           7
100
AcDbLine
 10
4362.5
 20
2050.0
 11
6362.499999999999
 21
2050.0
  0
LINE
  5
86
100
AcDbEntity
  8
1
  6
CONTINUOUS
 62
           7
100
AcDbLine
 10
5362.499999999999
 20
2075.0
 11
6362.499999999999
 21
2075.0
  0
LINE
  5
85
100
AcDbEntity
  8
1
  6
LONG_DASHED
 62
           2
100
AcDbLine
 10
-2500.0
 20
-450.0
 11
-2500.0
 21
0.0
  0
LINE
  5
84
100
AcDbEntity
  8
1
  6
LONG_DASHED
 62
           2
100
AcDbLine
 10
2500.0
 20
-450.0
 11
2500.0
 21
0.0
  0
LINE
  5
83
100
AcDbEntity
  8
1
  6
CONTINUOUS
 62
           7
100
AcDbLine
 10
2500.0
 20
1400.0
 11
-2500.0
 21
1400.0
  0
LINE
  5
82
100
AcDbEntity
  8
1
  6
LONG_DASHED
 62
           2
100
AcDbLine
 10
2500.0
 20
-450.0
 11
-2500.0
 21
-450.0
  0
LINE
  5
81
100
AcDbEntity
  8
1
  6
CONTINUOUS
 62
           7
100
AcDbLine
 10
2485.0
 20
40.0
 11
2485.0
 21
0.0
  0
LINE
  5
80
100
AcDbEntity
  8
1
  6
CONTINUOUS
 62
           7
100
AcDbLine
 10
-2500.0
 20
13.85332266763
 11
-2500.0
 21
72.607085651512
  0
LINE
  5
7F
100
AcDbEntity
  8
1
  6
CONTINUOUS
 62
           7
100
AcDbLine
 10
-2500.0
 20
300.0
 11
2500.0
 21
300.0
  0
LINE
  5
7E
100
AcDbEntity
  8
1
  6
DOT_CENTER
 62
           2
100
AcDbLine
 10
5587.5
 20
100.0
 11
5737.499999999999
 21
100.0
  0
LINE
  5
7D
100
AcDbEntity
  8
1
  6
DOT_CENTER
 62
           2
100
AcDbLine
 10
5662.499999999999
 20
175.0
 11
5662.499999999999
 21
25.0
  0
LINE
  5
7C
100
AcDbEntity
  8
1
  6
CONTINUOUS
 62
           7
100
AcDbLine
 10
2550.0
 20
4505.12329172748
 11
2550.0
 21
6505.12329172748
  0
LINE
  5
7B
100
AcDbEntity
  8
1
  6
CONTINUOUS
 62
           4
100
AcDbLine
 10
2480.0
 20
6485.12329172748
 11
2480.0
 21
5525.12329172748
  0
LINE
  5
7A
100
AcDbEntity
  8
1
  6
CONTINUOUS
 62
           4
100
AcDbLine
 10
2480.0
 20
5485.12329172748
 11
2480.0
 21
4555.12329172748
  0
LINE
  5
79
100
AcDbEntity
  8
1
  6
CONTINUOUS
 62
           4
100
AcDbLine
 10
2503.0
 20
6505.12329172748
 11
2503.0
 21
4555.12329172748
  0
LINE
  5
78
100
AcDbEntity
  8
1
  6
CONTINUOUS
 62
           4
100
AcDbLine
 10
2480.0
 20
6485.12329172748
 11
1020.0
 21
6485.12329172748
  0
LINE
  5
77
100
AcDbEntity
  8
1
  6
CONTINUOUS
 62
           4
100
AcDbLine
 10
2480.0
 20
5525.12329172748
 11
1020.0
 21
5525.12329172748
  0
LINE
  5
76
100
AcDbEntity
  8
1
  6
CONTINUOUS
 62
           4
100
AcDbLine
 10
-2503.0
 20
6505.12329172748
 11
-2503.0
 21
4555.12329172748
  0
LINE
  5
75
100
AcDbEntity
  8
1
  6
CONTINUOUS
 62
           4
100
AcDbLine
 10
-2480.0
 20
5485.12329172748
 11
-1020.0
 21
5485.12329172748
  0
LINE
  5
74
100
AcDbEntity
  8
1
  6
CONTINUOUS
 62
           4
100
AcDbLine
 10
2480.0
 20
5485.12329172748
 11
1020.0
 21
5485.12329172748
  0
LINE
  5
73
100
AcDbEntity
  8
1
  6
CONTINUOUS
 62
           4
100
AcDbLine
 10
4362.5
 20
2040.0
 11
6362.499999999999
 21
2040.0
  0
LINE
  5
72
100
AcDbEntity
  8
1
  6
CONTINUOUS
 62
           4
100
AcDbLine
 10
2540.0
 20
6505.12329172748
 11
2540.0
 21
4555.12329172748
  0
LINE
  5
71
100
AcDbEntity
  8
1
  6
CONTINUOUS
 62
           4
100
AcDbLine
 10
-2540.0
 20
6505.12329172748
 11
-2540.0
 21
4555.12329172748
  0
LINE
  5
70
100
AcDbEntity
  8
1
  6
CONTINUOUS
 62
           4
100
AcDbLine
 10
980.0
 20
4555.12329172748
 11
980.0
 21
5485.12329172748
  0
LINE
  5
6F
100
AcDbEntity
  8
1
  6
CONTINUOUS
 62
           7
100
AcDbLine
 10
1000.0
 20
6505.12329172748
 11
1000.0
 21
4555.12329172748
  0
LINE
  5
6E
100
AcDbEntity
  8
1
  6
CONTINUOUS
 62
           4
100
AcDbLine
 10
-1020.0
 20
4555.12329172748
 11
-1020.0
 21
5485.12329172748
  0
LINE
  5
6D
100
AcDbEntity
  8
1
  6
CONTINUOUS
 62
           7
100
AcDbLine
 10
-1000.0
 20
6505.12329172748
 11
-1000.0
 21
4555.12329172748
  0
LINE
  5
6C
100
AcDbEntity
  8
1
  6
CONTINUOUS
 62
           4
100
AcDbLine
 10
-1020.0
 20
5525.12329172748
 11
-1020.0
 21
6485.12329172748
  0
LINE
  5
6B
100
AcDbEntity
  8
1
  6
CONTINUOUS
 62
           4
100
AcDbLine
 10
-980.0
 20
5485.12329172748
 11
-980.0
 21
4555.12329172748
  0
LINE
  5
6A
100
AcDbEntity
  8
1
  6
CONTINUOUS
 62
           4
100
AcDbLine
 10
-980.0
 20
5485.12329172748
 11
-603.938614456555
 21
5485.12329172748
  0
LINE
  5
69
100
AcDbEntity
  8
1
  6
CONTINUOUS
 62
           4
100
AcDbLine
 10
-980.0
 20
5525.12329172748
 11
-641.099621146523
 21
5525.12329172748
  0
LINE
  5
68
100
AcDbEntity
  8
1
  6
CONTINUOUS
 62
           4
100
AcDbLine
 10
980.0
 20
5525.12329172748
 11
520.0
 21
5525.12329172748
  0
LINE
  5
67
100
AcDbEntity
  8
1
  6
CONTINUOUS
 62
           4
100
AcDbLine
 10
980.0
 20
5525.12329172748
 11
980.0
 21
6485.12329172748
  0
LINE
  5
66
100
AcDbEntity
  8
1
  6
CONTINUOUS
 62
           4
100
AcDbLine
 10
1020.0
 20
5485.12329172748
 11
1020.0
 21
4555.12329172748
  0
LINE
  5
65
100
AcDbEntity
  8
1
  6
CONTINUOUS
 62
           7
100
AcDbLine
 10
985.0
 20
0.0
 11
985.0
 21
40.0
  0
LINE
  5
64
100
AcDbEntity
  8
1
  6
CONTINUOUS
 62
           7
100
AcDbLine
 10
1015.0
 20
40.0
 11
1015.0
 21
0.0
  0
LINE
  5
63
100
AcDbEntity
  8
1
  6
CONTINUOUS
 62
           7
100
AcDbLine
 10
-1015.0
 20
0.0
 11
-1015.0
 21
40.0
  0
LINE
  5
62
100
AcDbEntity
  8
1
  6
CONTINUOUS
 62
           7
100
AcDbLine
 10
-985.0
 20
40.0
 11
-985.0
 21
0.0
  0
LINE
  5
61
100
AcDbEntity
  8
1
  6
CONTINUOUS
 62
           4
100
AcDbLine
 10
-1020.0
 20
6485.12329172748
 11
-2480.0
 21
6485.12329172748
  0
LINE
  5
60
100
AcDbEntity
  8
1
  6
CONTINUOUS
 62
           4
100
AcDbLine
 10
-980.0
 20
6485.12329172748
 11
-980.0
 21
5525.12329172748
  0
LINE
  5
5F
100
AcDbEntity
  8
1
  6
CONTINUOUS
 62
           4
100
AcDbLine
 10
980.0
 20
6485.12329172748
 11
520.0
 21
6485.12329172748
  0
LINE
  5
5E
100
AcDbEntity
  8
1
  6
CONTINUOUS
 62
           4
100
AcDbLine
 10
1020.0
 20
6485.12329172748
 11
1020.0
 21
5525.12329172748
  0
LINE
  5
5D
100
AcDbEntity
  8
1
  6
CONTINUOUS
 62
           7
100
AcDbLine
 10
1000.0
 20
300.0
 11
1000.0
 21
0.0
  0
LINE
  5
5C
100
AcDbEntity
  8
1
  6
CONTINUOUS
 62
           7
100
AcDbLine
 10
985.0
 20
40.0
 11
-985.0
 21
40.0
  0
LINE
  5
5B
100
AcDbEntity
  8
1
  6
CONTINUOUS
 62
           7
100
AcDbLine
 10
-1000.0
 20
0.0
 11
-1000.0
 21
300.0
  0
LINE
  5
5A
100
AcDbEntity
  8
1
  6
CONTINUOUS
 62
           7
100
AcDbLine
 10
-1015.0
 20
40.0
 11
-2485.0
 21
40.0
  0
LINE
  5
59
100
AcDbEntity
  8
1
  6
LONG_DASHED
 62
           2
100
AcDbLine
 10
4912.499999999999
 20
0.0
 11
4912.499999999999
 21
-450.0
  0
LINE
  5
58
100
AcDbEntity
  8
1
  6
CONTINUOUS
 62
           4
100
AcDbLine
 10
4382.5
 20
1980.0
 11
4382.499999999999
 21
20.0
  0
LINE
  5
57
100
AcDbEntity
  8
1
  6
CONTINUOUS
 62
           7
100
AcDbLine
 10
4362.5
 20
0.0
 11
4362.5
 21
2150.0
  0
LINE
  5
56
100
AcDbEntity
  8
1
  6
CONTINUOUS
 62
           7
100
AcDbLine
 10
4362.5
 20
2150.0
 11
4412.500000000001
 21
2150.0
  0
LINE
  5
55
100
AcDbEntity
  8
1
  6
CONTINUOUS
 62
           7
100
AcDbLine
 10
4412.500000000001
 20
2130.0
 11
4412.500000000001
 21
2150.0
  0
LINE
  5
54
100
AcDbEntity
  8
1
  6
CONTINUOUS
 62
           7
100
AcDbLine
 10
4462.499999999999
 20
1180.0
 11
4762.499999999999
 21
1180.0
  0
LINE
  5
53
100
AcDbEntity
  8
1
  6
CONTINUOUS
 62
           7
100
AcDbLine
 10
4462.499999999999
 20
1630.0
 11
4462.499999999999
 21
1180.0
  0
LINE
  5
52
100
AcDbEntity
  8
1
  6
CONTINUOUS
 62
           7
100
AcDbLine
 10
4762.499999999999
 20
1630.0
 11
4462.499999999999
 21
1630.0
  0
LINE
  5
51
100
AcDbEntity
  8
1
  6
CONTINUOUS
 62
           7
100
AcDbLine
 10
4762.499999999999
 20
1180.0
 11
4762.499999999999
 21
1630.0
  0
LINE
  5
50
100
AcDbEntity
  8
1
  6
CONTINUOUS
 62
           7
100
AcDbLine
 10
4484.999999999999
 20
1112.5
 11
4484.999999999999
 21
1180.0
  0
LINE
  5
4F
100
AcDbEntity
  8
1
  6
CONTINUOUS
 62
           7
100
AcDbLine
 10
4499.999999999999
 20
1112.5
 11
4499.999999999999
 21
1180.0
  0
LINE
  5
4E
100
AcDbEntity
  8
1
  6
CONTINUOUS
 62
           7
100
AcDbLine
 10
4479.999999999998
 20
1107.5
 11
4382.499999999999
 21
1107.5
  0
LINE
  5
4D
100
AcDbEntity
  8
1
  6
CONTINUOUS
 62
           7
100
AcDbLine
 10
4479.999999999998
 20
1092.5
 11
4382.499999999999
 21
1092.5
  0
LINE
  5
4C
100
AcDbEntity
  8
1
  6
CONTINUOUS
 62
           7
100
AcDbLine
 10
4602.499999999999
 20
1865.0
 11
4602.499999999999
 21
1953.0
  0
LINE
  5
4B
100
AcDbEntity
  8
1
  6
CONTINUOUS
 62
           7
100
AcDbLine
 10
4412.499999999999
 20
1865.0
 11
4602.499999999999
 21
1865.0
  0
LINE
  5
4A
100
AcDbEntity
  8
1
  6
CONTINUOUS
 62
           7
100
AcDbLine
 10
4412.499999999999
 20
1953.0
 11
4412.499999999999
 21
1865.0
  0
LINE
  5
49
100
AcDbEntity
  8
1
  6
CONTINUOUS
 62
           7
100
AcDbLine
 10
4602.499999999999
 20
1953.0
 11
4412.499999999999
 21
1953.0
  0
LINE
  5
48
100
AcDbEntity
  8
1
  6
CONTINUOUS
 62
           7
100
AcDbLine
 10
5092.499999999999
 20
1350.0
 11
4912.499999999999
 21
1350.0
  0
LINE
  5
47
100
AcDbEntity
  8
1
  6
CONTINUOUS
 62
           7
100
AcDbLine
 10
4912.499999999999
 20
1589.999999999999
 11
5092.499999999999
 21
1589.999999999999
  0
LINE
  5
46
100
AcDbEntity
  8
1
  6
CONTINUOUS
 62
           7
100
AcDbLine
 10
4912.499999999999
 20
1350.0
 11
4912.499999999999
 21
1589.999999999999
  0
LINE
  5
45
100
AcDbEntity
  8
1
  6
CONTINUOUS
 62
           4
100
AcDbLine
 10
5342.499999999999
 20
1980.0
 11
4382.5
 21
1980.0
  0
LINE
  5
44
100
AcDbEntity
  8
1
  6
CONTINUOUS
 62
           7
100
AcDbLine
 10
5362.499999999999
 20
2000.0
 11
5362.499999999999
 21
2075.0
  0
LINE
  5
43
100
AcDbEntity
  8
1
  6
CONTINUOUS
 62
           7
100
AcDbLine
 10
500.0
 20
5505.12329172748
 11
500.0
 21
5578.414897206728
  0
LINE
  5
42
100
AcDbEntity
  8
1
  6
DOT_CENTER
 62
           2
100
AcDbLine
 10
671.568555727025
 20
5965.12329172748
 11
-894.501607203426
 21
5965.12329172748
  0
LINE
  5
41
100
AcDbEntity
  8
1
  6
CONTINUOUS
 62
           7
100
AcDbLine
 10
-814.000000000002
 20
6505.123291727481
 11
-2550.0
 21
6505.12329172748
  0
LINE
  5
40
100
AcDbEntity
  8
1
  6
CONTINUOUS
 62
           4
100
AcDbLine
 10
-824.000000000002
 20
6485.12329172748
 11
-980.0
 21
6485.12329172748
  0
LINE
  5
3F
100
AcDbEntity
  8
1
  6
CONTINUOUS
 62
           7
100
AcDbLine
 10
500.0
 20
6209.77968897038
 11
500.0
 21
6505.12329172748
  0
LINE
  5
3E
100
AcDbEntity
  8
1
  6
CONTINUOUS
 62
           7
100
AcDbLine
 10
449.065321133574
 20
5505.12329172748
 11
2550.0
 21
5505.12329172748
  0
LINE
  5
3D
100
AcDbEntity
  8
1
  6
CONTINUOUS
 62
           4
100
AcDbLine
 10
431.697247696054
 20
5485.12329172748
 11
980.0
 21
5485.12329172748
  0
LINE
  5
3C
100
AcDbEntity
  8
1
  6
CONTINUOUS
 62
           4
100
AcDbLine
 10
520.0
 20
5613.49922817444
 11
520.0
 21
5525.12329172748
  0
LINE
  5
3B
100
AcDbEntity
  8
1
  6
DOT_CENTER
 62
           2
100
AcDbLine
 10
0.0
 20
3260.421142646936
 11
0.0
 21
-630.0
  0
LINE
  5
3A
100
AcDbEntity
  8
1
  6
CONTINUOUS
 62
           4
100
AcDbLine
 10
5342.499999999999
 20
20.0
 11
4382.499999999999
 21
20.0
  0
LINE
  5
39
100
AcDbEntity
  8
1
  6
CONTINUOUS
 62
           4
100
AcDbLine
 10
6342.499999999999
 20
1520.0
 11
6342.499999999999
 21
1980.0
  0
LINE
  5
38
100
AcDbEntity
  8
1
  6
CONTINUOUS
 62
           4
100
AcDbLine
 10
6342.499999999999
 20
1980.0
 11
5382.499999999999
 21
1980.0
  0
LINE
  5
37
100
AcDbEntity
  8
1
  6
CONTINUOUS
 62
           7
100
AcDbLine
 10
2771.37744842163
 20
0.0
 11
-2787.61636554325
 21
0.0
  0
LINE
  5
36
100
AcDbEntity
  8
1
  6
CONTINUOUS
 62
           7
100
AcDbLine
 10
2500.0
 20
0.0
 11
2500.0
 21
2000.0
  0
LINE
  5
35
100
AcDbEntity
  8
1
  6
CONTINUOUS
 62
           7
100
AcDbLine
 10
-2500.0
 20
0.0
 11
-2500.0
 21
2000.0
  0
LINE
  5
34
100
AcDbEntity
  8
1
  6
CONTINUOUS
 62
           7
100
AcDbLine
 10
2500.0
 20
1500.0
 11
-2500.0
 21
1500.0
  0
LINE
  5
33
100
AcDbEntity
  8
1
  6
CONTINUOUS
 62
           7
100
AcDbLine
 10
1500.0
 20
2000.0
 11
1500.0
 21
1500.0
  0
LINE
  5
32
100
AcDbEntity
  8
1
  6
CONTINUOUS
 62
           7
100
AcDbLine
 10
500.0
 20
2000.0
 11
500.0
 21
1500.0
  0
LINE
  5
31
100
AcDbEntity
  8
1
  6
CONTINUOUS
 62
           7
100
AcDbLine
 10
-500.0
 20
2000.0
 11
-500.0
 21
1500.0
  0
LINE
  5
30
100
AcDbEntity
  8
1
  6
CONTINUOUS
 62
           7
100
AcDbLine
 10
-1500.0
 20
2000.0
 11
-1500.0
 21
1500.0
  0
POINT
  5
2F
100
AcDbEntity
  8
0
 62
           3
100
AcDbPoint
 10
5195.899996721736
 20
1365.000000000116
  0
ENDSEC
  0
SECTION
  2
OBJECTS
  0
DICTIONARY
  5
19
100
AcDbDictionary
  3
ACAD_GROUP
350
1A
  3
ACAD_MLINESTYLE
350
1B
  0
DICTIONARY
  5
1A
102
{ACAD_REACTORS
330
19
102
}
100
AcDbDictionary
  0
DICTIONARY
  5
1B
102
{ACAD_REACTORS
330
19
102
}
100
AcDbDictionary
  3
STANDARD
350
1C
  0
MLINESTYLE
  5
1C
102
{ACAD_REACTORS
330
1B
102
}
100
AcDbMlineStyle
  2
STANDARD
 70
           0
  3

 62
           0
 51
90.0
 52
90.0
 71
           2
 49
0.5
 62
         256
  6
BYLAYER
 49
-0.5
 62
         256
  6
BYLAYER
  0
ENDSEC
  0
EOF
