  0
SECTION
  2
HEADER
  9
$ACADVER
  1
AC1014
  9
$ACADMAINTVER
 70
           0
  9
$DWGCODEPAGE
  3
DOS932
  9
$INSBASE
 10
0.0
 20
0.0
 30
0.0
  9
$EXTMIN
 10
1.000000000000E+20
 20
1.000000000000E+20
 30
1.000000000000E+20
  9
$EXTMAX
 10
-1.000000000000E+20
 20
-1.000000000000E+20
 30
-1.000000000000E+20
  9
$LIMMIN
 10
0.0
 20
0.0
  9
$LIMMAX
 10
0.0
 20
0.0
  9
$ORTHOMODE
 70
           0
  9
$REGENMODE
 70
           1
  9
$FILLMODE
 70
           1
  9
$QTEXTMODE
 70
           0
  9
$MIRRTEXT
 70
           1
  9
$DRAGMODE
 70
           2
  9
$LTSCALE
 40
1.0
  9
$OSMODE
 70
           0
  9
$ATTMODE
 70
           1
  9
$TEXTSIZE
 40
0.2
  9
$TRACEWID
 40
0.05
  9
$TEXTSTYLE
  7
STANDARD
  9
$CLAYER
  8
0
  9
$CELTYPE
  6
CONTINUOUS
  9
$CECOLOR
 62
         256
  9
$CELTSCALE
 40
1.0
  9
$DELOBJ
 70
           1
  9
$DISPSILH
 70
           0
  9
$DIMSCALE
 40
1.0
  9
$DIMASZ
 40
0.18
  9
$DIMEXO
 40
0.0625
  9
$DIMDLI
 40
0.38
  9
$DIMRND
 40
0.0
  9
$DIMDLE
 40
0.0
  9
$DIMEXE
 40
0.18
  9
$DIMTP
 40
0.0
  9
$DIMTM
 40
0.0
  9
$DIMTXT
 40
0.18
  9
$DIMCEN
 40
0.09
  9
$DIMTSZ
 40
0.0
  9
$DIMTOL
 70
           0
  9
$DIMLIM
 70
           0
  9
$DIMTIH
 70
           1
  9
$DIMTOH
 70
           1
  9
$DIMSE1
 70
           0
  9
$DIMSE2
 70
           0
  9
$DIMTAD
 70
           0
  9
$DIMZIN
 70
           0
  9
$DIMBLK
  1

  9
$DIMASO
 70
           1
  9
$DIMSHO
 70
           1
  9
$DIMPOST
  1

  9
$DIMAPOST
  1

  9
$DIMALT
 70
           0
  9
$DIMALTD
 70
           2
  9
$DIMALTF
 40
25.4
  9
$DIMLFAC
 40
1.0
  9
$DIMTOFL
 70
           0
  9
$DIMTVP
 40
0.0
  9
$DIMTIX
 70
           0
  9
$DIMSOXD
 70
           0
  9
$DIMSAH
 70
           0
  9
$DIMBLK1
  1

  9
$DIMBLK2
  1

  9
$DIMSTYLE
  2
STANDARD
  9
$DIMCLRD
 70
           0
  9
$DIMCLRE
 70
           0
  9
$DIMCLRT
 70
           0
  9
$DIMTFAC
 40
1.0
  9
$DIMGAP
 40
0.09
  9
$DIMJUST
 70
           0
  9
$DIMSD1
 70
           0
  9
$DIMSD2
 70
           0
  9
$DIMTOLJ
 70
           1
  9
$DIMTZIN
 70
           0
  9
$DIMALTZ
 70
           0
  9
$DIMALTTZ
 70
           0
  9
$DIMFIT
 70
           3
  9
$DIMUPT
 70
           0
  9
$DIMUNIT
 70
           2
  9
$DIMDEC
 70
           4
  9
$DIMTDEC
 70
           4
  9
$DIMALTU
 70
           2
  9
$DIMALTTD
 70
           2
  9
$DIMTXSTY
  7
STANDARD
  9
$DIMAUNIT
 70
           0
  9
$LUNITS
 70
           2
  9
$LUPREC
 70
           4
  9
$SKETCHINC
 40
0.1
  9
$FILLETRAD
 40
0.0
  9
$AUNITS
 70
           0
  9
$AUPREC
 70
           0
  9
$MENU
  1
acad
  9
$ELEVATION
 40
0.0
  9
$PELEVATION
 40
0.0
  9
$THICKNESS
 40
0.0
  9
$LIMCHECK
 70
           0
  9
$BLIPMODE
 70
           1
  9
$CHAMFERA
 40
0.0
  9
$CHAMFERB
 40
0.0
  9
$CHAMFERC
 40
0.0
  9
$CHAMFERD
 40
0.0
  9
$SKPOLY
 70
           0
  9
$TDCREATE
 40
0.000000000
  9
$TDUPDATE
 40
0.000000000
  9
$TDINDWG
 40
0.0000000000
  9
$TDUSRTIMER
 40
0.0000000000
  9
$USRTIMER
 70
           1
  9
$ANGBASE
 50
0.0
  9
$ANGDIR
 70
           0
  9
$PDMODE
 70
           0
  9
$PDSIZE
 40
0.0
  9
$PLINEWID
 40
0.0
  9
$COORDS
 70
           0
  9
$SPLFRAME
 70
           0
  9
$SPLINETYPE
 70
           6
  9
$SPLINESEGS
 70
           8
  9
$ATTDIA
 70
           0
  9
$ATTREQ
 70
           1
  9
$HANDLING
 70
           1
  9
$HANDSEED
  5
1CB
  9
$SURFTAB1
 70
           6
  9
$SURFTAB2
 70
           6
  9
$SURFTYPE
 70
           6
  9
$SURFU
 70
           6
  9
$SURFV
 70
           6
  9
$UCSNAME
  2

  9
$UCSORG
 10
0.0
 20
0.0
 30
0.0
  9
$UCSXDIR
 10
1.0
 20
0.0
 30
0.0
  9
$UCSYDIR
 10
0.0
 20
1.0
 30
0.0
  9
$PUCSNAME
  2

  9
$PUCSORG
 10
0.0
 20
0.0
 30
0.0
  9
$PUCSXDIR
 10
1.0
 20
0.0
 30
0.0
  9
$PUCSYDIR
 10
0.0
 20
1.0
 30
0.0
  9
$USERI1
 70
           0
  9
$USERI2
 70
           0
  9
$USERI3
 70
           0
  9
$USERI4
 70
           0
  9
$USERI5
 70
           0
  9
$USERR1
 40
0.0
  9
$USERR2
 40
0.0
  9
$USERR3
 40
0.0
  9
$USERR4
 40
0.0
  9
$USERR5
 40
0.0
  9
$WORLDVIEW
 70
           1
  9
$SHADEDGE
 70
           3
  9
$SHADEDIF
 70
          70
  9
$TILEMODE
 70
           1
  9
$MAXACTVP
 70
          16
  9
$PINSBASE
 10
0.0
 20
0.0
 30
0.0
  9
$PLIMCHECK
 70
           0
  9
$PEXTMIN
 10
1.000000000000E+20
 20
1.000000000000E+20
 30
1.000000000000E+20
  9
$PEXTMAX
 10
-1.000000000000E+20
 20
-1.000000000000E+20
 30
-1.000000000000E+20
  9
$PLIMMIN
 10
0.0
 20
0.0
  9
$PLIMMAX
 10
12.0
 20
9.0
  9
$UNITMODE
 70
           0
  9
$VISRETAIN
 70
           0
  9
$PLINEGEN
 70
           1
  9
$PSLTSCALE
 70
           0
  9
$TREEDEPTH
 70
        3020
  9
$PICKSTYLE
 70
           1
  9
$CMLSTYLE
  2
STANDARD
  9
$CMLJUST
 70
           0
  9
$CMLSCALE
 40
1.0
  9
$PROXYGRAPHICS
 70
           0
  9
$MEASUREMENT
 70
           0
  0
ENDSEC
  0
SECTION
  2
CLASSES
  0
CLASS
  1
LWPOLYLINE
  2
AcDbPolyline
  3
"AutoCAD"
 90
        0
280
           0
281
           1
  0
CLASS
  1
IMAGE
  2
AcDbRasterImage
  3
ISM
 90
      127
280
           0
281
           1
  0
CLASS
  1
OLE2FRAME
  2
AcDbOle2Frame
  3
""
 90
        0
280
           0
281
           1
  0
CLASS
  1
HATCH
  2
AcDbHatch
  3
"ACAD_SEDONA"
 90
        0
280
           0
281
           1
  0
CLASS
  1
DICTIONARYVAR
  2
AcDbDictionaryVar
  3
"AutoCAD"
 90
        0
280
           0
281
           0
  0
CLASS
  1
RASTERVARIABLES
  2
AcDbRasterVariables
  3
ISM
 90
        0
280
           0
281
           0
  0
CLASS
  1
IMAGEDEF
  2
AcDbRasterImageDef
  3
ISM
 90
        0
280
           0
281
           0
  0
CLASS
  1
IMAGEDEF_REACTOR
  2
AcDbRasterImageDefReactor
  3
ISM
 90
        1
280
           0
281
           0
  0
CLASS
  1
IDBUFFER
  2
AcDbIdBuffer
  3
"Acad"
 90
        0
280
           0
281
           0
  0
CLASS
  1
SPATIAL_FILTER
  2
AcDbSpatialFilter
  3
"Acad"
 90
        0
280
           0
281
           0
  0
CLASS
  1
XRECORD
  2
AcDbXrecord
  3
"<Built In>"
 90
        0
280
           0
281
           0
  0
CLASS
  1
SORTENTSTABLE
  2
AcDbSortentsTable
  3
"AutoCAD"
 90
        0
280
           0
281
           0
  0
CLASS
  1
LAYER_INDEX
  2
AcDbLayerIndex
  3
"Acad"
 90
        0
280
           0
281
           0
  0
CLASS
  1
SPATIAL_INDEX
  2
AcDbSpatialIndex
  3
"Acad"
 90
        0
280
           0
281
           0
  0
CLASS
  1
OBJECT_PTR
  2
CAseDLPNTableRecord
  3
"ASE-LPNTableRecord"
 90
        1
280
           0
281
           0
  0
CLASS
  1
LAYOUT
  2
AcDbLayout
  3
"AutoCAD 2000"
 90
        1
280
           0
281
           0
  0
CLASS
  1
PLOTSETTINGS
  2
AcDbPlotSettings
  3
"AutoCAD 2000"
 90
        1
280
           0
281
           0
  0
CLASS
  1
ACDBDICTIONARYWDFLT
  2
AcDbDictionaryWithDefault
  3
"AutoCAD 2000"
 90
        1
280
           0
281
           0
  0
CLASS
  1
ACDBPLACEHOLDER
  2
AcDbPlaceHolder
  3
"AutoCAD 2000"
 90
        1
280
           0
281
           0
  0
CLASS
  1
VBA_PROJECT
  2
AcDbVbaProject
  3
"acadvba"
 90
        1
280
           0
281
           0
  0
CLASS
  1
WIPEOUT
  2
AcDbWipeout
  3
WipeOut|AutoCAD Express Tool|expresstools@autodesk.com
 90
      127
280
           0
281
           1
  0
CLASS
  1
WIPEOUTVARIABLES
  2
AcDbWipeoutVariables
  3
WipeOut|AutoCAD Express Tool|expresstools@autodesk.com
 90
        0
280
           0
281
           0
  0
CLASS
  1
RTEXT
  2
RText
  3
RText|AutoCAD Express Tool|expresstools@autodesk.com
 90
        0
280
           0
281
           1
  0
CLASS
  1
ARCALIGNEDTEXT
  2
AcDbArcAlignedText
  3
ATEXT|AutoCAD Express Tool|expresstools@autodesk.com
 90
        0
280
           0
281
           1
  0
ENDSEC
  0
SECTION
  2
TABLES
  0
TABLE
  2
VPORT
  5
7
100
AcDbSymbolTable
 70
           1
  0
VPORT
  5
15
100
AcDbSymbolTableRecord
100
AcDbViewportTableRecord
  2
*ACTIVE
 70
           0
 10
0.0
 20
0.0
 11
1.0
 21
1.0
 12
6.591288
 22
4.579184
 13
0.0
 23
0.0
 14
1.0
 24
1.0
 15
0.0
 25
0.0
 16
0.0
 26
0.0
 36
1.0
 17
0.0
 27
0.0
 37
0.0
 40
9.158369
 41
0.688564
 42
50.0
 43
0.0
 44
0.0
 50
0.0
 51
0.0
 71
           0
 72
         100
 73
           1
 74
           1
 75
           0
 76
           0
 77
           0
 78
           0
  0
ENDTAB
  0
TABLE
  2
LTYPE
  5
4
100
AcDbSymbolTable
 70
          10
  0
LTYPE
  5
11
100
AcDbSymbolTableRecord
100
AcDbLinetypeTableRecord
  2
BYBLOCK
 70
          64
  3

 72
          65
 73
           0
 40
0.0
  0
LTYPE
  5
12
100
AcDbSymbolTableRecord
100
AcDbLinetypeTableRecord
  2
BYLAYER
 70
          64
  3

 72
          65
 73
           0
 40
0.0
  0
LTYPE
  5
13
100
AcDbSymbolTableRecord
100
AcDbLinetypeTableRecord
  2
CONTINUOUS
 70
          64
  3
Solid line
 72
          65
 73
           0
 40
0.0
  0
LTYPE
  5
1D
100
AcDbSymbolTableRecord
100
AcDbLinetypeTableRecord
  2
DASHED
 70
          64
  3
Dashed
 72
          65
 73
           2
 40
15.0
 49
12.0
 74
           0
 49
-3.0
 74
           0
  0
LTYPE
  5
1E
100
AcDbSymbolTableRecord
100
AcDbLinetypeTableRecord
  2
DOTTED
 70
          64
  3
Dotted
 72
          65
 73
           2
 40
3.5
 49
0.5
 74
           0
 49
-3.0
 74
           0
  0
LTYPE
  5
1F
100
AcDbSymbolTableRecord
100
AcDbLinetypeTableRecord
  2
DOT_CENTER
 70
          64
  3
Dot_Center
 72
          65
 73
           4
 40
2.0
 49
1.25
 74
           0
 49
-0.25
 74
           0
 49
0.25
 74
           0
 49
-0.25
 74
           0
  0
LTYPE
  5
20
100
AcDbSymbolTableRecord
100
AcDbLinetypeTableRecord
  2
LONG_DASHED
 70
          64
  3
Long_Dashed
 72
          65
 73
           2
 40
2.0
 49
1.5
 74
           0
 49
-0.5
 74
           0
  0
LTYPE
  5
21
100
AcDbSymbolTableRecord
100
AcDbLinetypeTableRecord
  2
DASH_CENTER
 70
          64
  3
Dash_Center
 72
          65
 73
           4
 40
36.0
 49
24.0
 74
           0
 49
-3.0
 74
           0
 49
6.0
 74
           0
 49
-3.0
 74
           0
  0
LTYPE
  5
22
100
AcDbSymbolTableRecord
100
AcDbLinetypeTableRecord
  2
PHANTOM
 70
          64
  3
Phantom
 72
          65
 73
           6
 40
2.5
 49
1.25
 74
           0
 49
-0.25
 74
           0
 49
0.25
 74
           0
 49
-0.25
 74
           0
 49
0.25
 74
           0
 49
-0.25
 74
           0
  0
LTYPE
  5
23
100
AcDbSymbolTableRecord
100
AcDbLinetypeTableRecord
  2
CENTER_DASH_DASH
 70
          64
  3
Center_Dash_Dash
 72
          65
 73
           6
 40
22.0
 49
12.0
 74
           0
 49
-3.0
 74
           0
 49
0.5
 74
           0
 49
-3.0
 74
           0
 49
0.5
 74
           0
 49
-3.0
 74
           0
  0
ENDTAB
  0
TABLE
  2
LAYER
  5
2
100
AcDbSymbolTable
 70
           2
  0
LAYER
  5
14
100
AcDbSymbolTableRecord
100
AcDbLayerTableRecord
  2
0
 70
           0
 62
           7
  6
CONTINUOUS
  0
LAYER
  5
24
100
AcDbSymbolTableRecord
100
AcDbLayerTableRecord
  2
1
 70
           0
 62
           7
  6
CONTINUOUS
  0
ENDTAB
  0
TABLE
  2
STYLE
  5
3
100
AcDbSymbolTable
 70
           1
  0
STYLE
  5
17
100
AcDbSymbolTableRecord
100
AcDbTextStyleTableRecord
  2
STANDARD
 70
           0
 40
0.0
 41
1.0
 50
0.0
 71
           0
 42
0.0
  3
txt
  4

  0
ENDTAB
  0
TABLE
  2
VIEW
  5
5
100
AcDbSymbolTable
 70
           0
  0
ENDTAB
  0
TABLE
  2
UCS
  5
6
100
AcDbSymbolTable
 70
           0
  0
ENDTAB
  0
TABLE
  2
APPID
  5
8
100
AcDbSymbolTable
 70
           1
  0
APPID
  5
16
100
AcDbSymbolTableRecord
100
AcDbRegAppTableRecord
  2
ACAD
 70
           0
  0
ENDTAB
  0
TABLE
  2
DIMSTYLE
  5
9
100
AcDbSymbolTable
 70
           1
  0
DIMSTYLE
105
18
100
AcDbSymbolTableRecord
100
AcDbDimStyleTableRecord
  2
STANDARD
 70
           0
  3

  4

  5

  6

  7

 40
1.0
 41
0.18
 42
0.0625
 43
0.38
 44
0.18
 45
0.0
 46
0.0
 47
0.0
 48
0.0
 71
           0
 72
           0
 73
           1
 74
           1
 75
           0
 76
           0
 77
           0
 78
           0
140
0.18
141
0.09
142
0.0
143
25.4
144
1.0
145
0.0
146
1.0
147
0.09
170
           0
171
           2
172
           0
173
           0
174
           0
175
           0
176
           0
177
           0
178
           0
270
           2
271
           4
272
           4
273
           2
274
           2
275
           0
280
           0
281
           0
282
           0
283
           1
284
           0
285
           0
286
           0
287
           0
288
           0
340
17
  0
ENDTAB
  0
TABLE
  2
BLOCK_RECORD
  5
1
100
AcDbSymbolTable
 70
           0
  0
BLOCK_RECORD
  5
A
100
AcDbSymbolTableRecord
100
AcDbBlockTableRecord
  2
*MODEL_SPACE
  0
BLOCK_RECORD
  5
B
100
AcDbSymbolTableRecord
100
AcDbBlockTableRecord
  2
*PAPER_SPACE
  0
ENDTAB
  0
ENDSEC
  0
SECTION
  2
BLOCKS
  0
BLOCK
  5
D
100
AcDbEntity
  8
0
100
AcDbBlockBegin
  2
*MODEL_SPACE
 70
           0
 10
0.0
 20
0.0
 30
0.0
  3
*MODEL_SPACE
  1

  0
ENDBLK
  5
E
100
AcDbEntity
  8
0
100
AcDbBlockEnd
  0
BLOCK
  5
F
100
AcDbEntity
 67
           1
  8
0
100
AcDbBlockBegin
  2
*PAPER_SPACE
 70
           0
 10
0.0
 20
0.0
 30
0.0
  3
*PAPER_SPACE
  1

  0
ENDBLK
  5
10
100
AcDbEntity
 67
           1
  8
0
100
AcDbBlockEnd
  0
ENDSEC
  0
SECTION
  2
ENTITIES
  0
ARC
  5
1C9
100
AcDbEntity
  8
1
  6
CONTINUOUS
 62
           7
100
AcDbCircle
 10
224.969246945904
 20
-646.925047630674
 40
1.0
100
AcDbArc
 50
90.0
 51
180.0
  0
ARC
  5
1C8
100
AcDbEntity
  8
1
  6
CONTINUOUS
 62
           7
100
AcDbCircle
 10
224.969246945904
 20
-657.425047630674
 40
1.0
100
AcDbArc
 50
180.0
 51
-159.352077953606
  0
ARC
  5
1C7
100
AcDbEntity
  8
1
  6
CONTINUOUS
 62
           7
100
AcDbCircle
 10
228.469246945904
 20
-645.175047630674
 40
1.0
100
AcDbArc
 50
90.0
 51
180.0
  0
ARC
  5
1C6
100
AcDbEntity
  8
1
  6
CONTINUOUS
 62
           7
100
AcDbCircle
 10
226.769246945904
 20
-645.225047630674
 40
0.7
100
AcDbArc
 50
-90.0
 51
0.0
  0
ARC
  5
1C5
100
AcDbEntity
  8
1
  6
CONTINUOUS
 62
           7
100
AcDbCircle
 10
281.469246945904
 20
-608.036891905959
 40
1.0
100
AcDbArc
 50
90.0
 51
180.0
  0
ARC
  5
1C4
100
AcDbEntity
  8
1
  6
CONTINUOUS
 62
           7
100
AcDbCircle
 10
329.469246945904
 20
-608.036891905959
 40
1.0
100
AcDbArc
 50
0.0
 51
90.0
  0
ARC
  5
1C3
100
AcDbEntity
  8
1
  6
CONTINUOUS
 62
           7
100
AcDbCircle
 10
584.697215528072
 20
-655.036891905959
 40
0.5
100
AcDbArc
 50
162.50000000001
 51
-90.0
  0
ARC
  5
1C2
100
AcDbEntity
  8
1
  6
CONTINUOUS
 62
           7
100
AcDbCircle
 10
584.697215528072
 20
-638.036891905959
 40
0.5
100
AcDbArc
 50
90.0
 51
-162.499999999985
  0
ARC
  5
1C1
100
AcDbEntity
  8
1
  6
CONTINUOUS
 62
           7
100
AcDbCircle
 10
525.707069119413
 20
-675.036891905959
 40
10.0
100
AcDbArc
 50
-90.0
 51
-60.0
  0
ARC
  5
1C0
100
AcDbEntity
  8
1
  6
CONTINUOUS
 62
           7
100
AcDbCircle
 10
525.707069119413
 20
-618.036891905959
 40
10.0
100
AcDbArc
 50
60.0
 51
90.0
  0
ARC
  5
1BF
100
AcDbEntity
  8
1
  6
CONTINUOUS
 62
           7
100
AcDbCircle
 10
576.738158032659
 20
-624.286891905959
 40
1.0
100
AcDbArc
 50
0.0
 51
90.0
  0
ARC
  5
1BE
100
AcDbEntity
  8
1
  6
CONTINUOUS
 62
           7
100
AcDbCircle
 10
576.738158032659
 20
-668.786891905959
 40
1.0
100
AcDbArc
 50
-90.0
 51
0.0
  0
ARC
  5
1BD
100
AcDbEntity
  8
1
  6
CONTINUOUS
 62
           7
100
AcDbCircle
 10
281.469246945904
 20
-685.036891905959
 40
1.0
100
AcDbArc
 50
180.0
 51
-90.0
  0
ARC
  5
1BC
100
AcDbEntity
  8
1
  6
CONTINUOUS
 62
           7
100
AcDbCircle
 10
329.469246945904
 20
-685.036891905959
 40
1.0
100
AcDbArc
 50
-90.0
 51
0.0
  0
ARC
  5
1BB
100
AcDbEntity
  8
1
  6
CONTINUOUS
 62
           7
100
AcDbCircle
 10
35.637723045506
 20
-717.553368554672
 40
6.0
100
AcDbArc
 50
-178.919505816628
 51
-135.0
  0
ARC
  5
1BA
100
AcDbEntity
  8
1
  6
CONTINUOUS
 62
           7
100
AcDbCircle
 10
44.123004419744
 20
-726.038649928911
 40
6.0
100
AcDbArc
 50
-134.999999999999
 51
-44.999999999998
  0
ARC
  5
1B9
100
AcDbEntity
  8
1
  6
CONTINUOUS
 62
           7
100
AcDbCircle
 10
88.269423383369
 20
-688.963298777153
 40
1.0
100
AcDbArc
 50
-44.999999999995
 51
45.0
  0
ARC
  5
1B8
100
AcDbEntity
  8
1
  6
CONTINUOUS
 62
           7
100
AcDbCircle
 10
72.713074197265
 20
-673.406949591049
 40
1.0
100
AcDbArc
 50
45.000000000009
 51
135.000000000027
  0
ARC
  5
1B7
100
AcDbEntity
  8
1
  6
CONTINUOUS
 62
           7
100
AcDbCircle
 10
35.637723045506
 20
-717.553368554672
 40
5.999999999999
100
AcDbArc
 50
135.000000000002
 51
-178.919505816628
  0
SPLINE
  5
1B6
100
AcDbEntity
  8
1
  6
CONTINUOUS
 62
           7
100
AcDbSpline
210
0.0
220
0.0
230
1.0
 70
           0
 71
           4
 72
          11
 73
           7
 74
           9
 42
0.00000000001
 43
0.00000000001
 44
0.00000000001
 40
0.0
 40
0.0
 40
0.0
 40
0.0
 40
2.1332040204707639
 40
4.0973310869796604
 40
6.2587516924323809
 40
8.5155938548513728
 40
8.5155938548513728
 40
8.5155938548513728
 40
8.5155938548513728
 10
197.79730899355269
 20
-649.02504763067441
 30
0.0
 10
198.65624502294909
 20
-649.35237613369759
 30
0.0
 10
198.20230370546651
 20
-650.47832506181237
 30
0.0
 10
197.23624456647309
 20
-652.1884492892766
 30
0.0
 10
198.84317140248581
 20
-653.63396828859061
 30
0.0
 10
197.73507017184099
 20
-654.7929482528782
 30
0.0
 10
197.35590972833171
 20
-655.32504763067436
 30
0.0
 11
197.79730899355269
 21
-649.02504763067441
 31
0.0
 11
198.39511979147693
 21
-649.67762159606639
 31
0.0
 11
198.13518910698434
 21
-650.52305127790032
 31
0.0
 11
197.76379595280648
 21
-651.32388358889636
 31
0.0
 11
197.64646772844577
 21
-652.09082384797068
 31
0.0
 11
197.99391987911847
 21
-652.87617898330871
 31
0.0
 11
198.28773851487577
 21
-653.650242493375
 31
0.0
 11
197.9690148425037
 21
-654.49462047840757
 31
0.0
 11
197.35590972833171
 21
-655.32504763067436
 31
0.0
  0
SPLINE
  5
1B5
100
AcDbEntity
  8
1
  6
CONTINUOUS
 62
           7
100
AcDbSpline
210
0.0
220
0.0
230
1.0
 70
           0
 71
           3
 72
           6
 73
           3
 74
           3
 42
0.00000000001
 43
0.00000000001
 44
0.00000000001
 40
0.0
 40
0.0
 40
0.0
 40
9.4056280800158056
 40
9.4056280800158056
 40
9.4056280800158056
 10
584.22035705269798
 20
-654.88653900620727
 30
0.0
 10
581.23586283231123
 20
-651.19514163083556
 30
0.0
 10
581.17336065669372
 20
-646.53689190595935
 30
0.0
 11
584.22035705269798
 21
-654.88653900620727
 31
0.0
 11
581.96636084350348
 21
-650.95342854345938
 31
0.0
 11
581.17336065669372
 21
-646.53689190595935
 31
0.0
  0
SPLINE
  5
1B4
100
AcDbEntity
  8
1
  6
CONTINUOUS
 62
           7
100
AcDbSpline
210
0.0
220
0.0
230
1.0
 70
           0
 71
           3
 72
           6
 73
           3
 74
           3
 42
0.00000000001
 43
0.00000000001
 44
0.00000000001
 40
0.0
 40
0.0
 40
0.0
 40
9.4056280800155037
 40
9.4056280800155037
 40
9.4056280800155037
 10
584.22035705269798
 20
-638.18724480571166
 30
0.0
 10
581.23586283231123
 20
-641.87864218108371
 30
0.0
 10
581.17336065669372
 20
-646.53689190595935
 30
0.0
 11
584.22035705269798
 21
-638.18724480571166
 31
0.0
 11
581.96636084350348
 21
-642.12035526845955
 31
0.0
 11
581.17336065669372
 21
-646.53689190595935
 31
0.0
  0
CIRCLE
  5
1B3
100
AcDbEntity
  8
1
  6
CONTINUOUS
 62
           7
100
AcDbCircle
 10
95.836049531189
 20
-629.401328568677
 40
6.0
  0
CIRCLE
  5
1B2
100
AcDbEntity
  8
1
  6
CONTINUOUS
 62
           7
100
AcDbCircle
 10
95.836049531189
 20
-629.401328568677
 40
5.0
  0
CIRCLE
  5
1B1
100
AcDbEntity
  8
1
  6
CONTINUOUS
 62
           7
100
AcDbCircle
 10
95.836049531189
 20
-629.401328568677
 40
9.0
  0
CIRCLE
  5
1B0
100
AcDbEntity
  8
1
  6
CONTINUOUS
 62
           7
100
AcDbCircle
 10
104.127449686758
 20
-615.39230706608
 40
6.0
  0
CIRCLE
  5
1AF
100
AcDbEntity
  8
1
  6
CONTINUOUS
 62
           7
100
AcDbCircle
 10
104.127449686758
 20
-615.39230706608
 40
3.428571428572
  0
CIRCLE
  5
1AE
100
AcDbEntity
  8
1
  6
CONTINUOUS
 62
           7
100
AcDbCircle
 10
83.95688896414
 20
-641.572423187579
 40
6.967958455857
  0
CIRCLE
  5
1AD
100
AcDbEntity
  8
1
  6
CONTINUOUS
 62
           7
100
AcDbCircle
 10
83.97880667118
 20
-641.5122047824
 40
5.0
  0
CIRCLE
  5
1AC
100
AcDbEntity
  8
1
  6
CONTINUOUS
 62
           7
100
AcDbCircle
 10
83.97880667118
 20
-641.5122047824
 40
4.0
  0
CIRCLE
  5
1AB
100
AcDbEntity
  8
1
  6
CONTINUOUS
 62
           7
100
AcDbCircle
 10
142.217831452866
 20
-662.77767207377
 40
7.0
  0
CIRCLE
  5
1AA
100
AcDbEntity
  8
1
  6
CONTINUOUS
 62
           7
100
AcDbCircle
 10
142.217831452866
 20
-662.77767207377
 40
5.0
  0
CIRCLE
  5
1A9
100
AcDbEntity
  8
1
  6
CONTINUOUS
 62
           7
100
AcDbCircle
 10
142.217831452866
 20
-662.77767207377
 40
4.0
  0
CIRCLE
  5
1A8
100
AcDbEntity
  8
1
  6
CONTINUOUS
 62
           3
100
AcDbCircle
 10
91.55734664618
 20
-652.852185730449
 40
4.0
  0
CIRCLE
  5
1A7
100
AcDbEntity
  8
1
  6
CONTINUOUS
 62
           3
100
AcDbCircle
 10
91.55734664618
 20
-652.852185730449
 40
4.25
  0
CIRCLE
  5
1A6
100
AcDbEntity
  8
1
  6
CONTINUOUS
 62
           3
100
AcDbCircle
 10
129.827366217548
 20
-670.505955922877
 40
4.25
  0
CIRCLE
  5
1A5
100
AcDbEntity
  8
1
  6
CONTINUOUS
 62
           3
100
AcDbCircle
 10
129.827366217548
 20
-670.505955922877
 40
4.0
  0
CIRCLE
  5
1A4
100
AcDbEntity
  8
1
  6
CONTINUOUS
 62
           3
100
AcDbCircle
 10
141.970806852328
 20
-631.294518184004
 40
4.0
  0
CIRCLE
  5
1A3
100
AcDbEntity
  8
1
  6
CONTINUOUS
 62
           3
100
AcDbCircle
 10
141.970806852328
 20
-631.294518184004
 40
4.25
  0
CIRCLE
  5
1A2
100
AcDbEntity
  8
1
  6
CONTINUOUS
 62
           7
100
AcDbCircle
 10
113.087360208503
 20
-652.175047630674
 40
7.475
  0
CIRCLE
  5
1A1
100
AcDbEntity
  8
1
  6
CONTINUOUS
 62
           7
100
AcDbCircle
 10
113.087360208503
 20
-652.175047630674
 40
8.331
  0
CIRCLE
  5
1A0
100
AcDbEntity
  8
1
  6
CONTINUOUS
 62
           7
100
AcDbCircle
 10
113.087360208503
 20
-652.175047630674
 40
10.5
  0
CIRCLE
  5
19F
100
AcDbEntity
  8
1
  6
CONTINUOUS
 62
           3
100
AcDbCircle
 10
126.255135726541
 20
-615.996881730418
 40
0.6
  0
CIRCLE
  5
19E
100
AcDbEntity
  8
1
  6
CONTINUOUS
 62
           3
100
AcDbCircle
 10
120.098773146679
 20
-632.911348904563
 40
0.6
  0
CIRCLE
  5
19D
100
AcDbEntity
  8
1
  6
CONTINUOUS
 62
           3
100
AcDbCircle
 10
123.17695443661
 20
-624.45411531749
 40
14.000000000012
  0
CIRCLE
  5
19C
100
AcDbEntity
  8
1
  6
CONTINUOUS
 62
           3
100
AcDbCircle
 10
123.17695443661
 20
-624.45411531749
 40
13.000000000003
  0
ARC
  5
19B
100
AcDbEntity
  8
1
  6
CONTINUOUS
 62
           7
100
AcDbCircle
 10
271.985746107325
 20
-651.30178721555
 40
13.5446791521
100
AcDbArc
 50
-176.303429297361
 51
-163.946647906996
  0
ARC
  5
19A
100
AcDbEntity
  8
1
  6
CONTINUOUS
 62
           7
100
AcDbCircle
 10
252.952747784482
 20
-651.30178721555
 40
13.5446791521
100
AcDbArc
 50
-16.053352093004
 51
-3.696570702639
  0
ARC
  5
199
100
AcDbEntity
  8
1
  6
CONTINUOUS
 62
           7
100
AcDbCircle
 10
271.985746107325
 20
-653.048308045798
 40
13.5446791521
100
AcDbArc
 50
163.946647906996
 51
176.303429297361
  0
ARC
  5
198
100
AcDbEntity
  8
1
  6
CONTINUOUS
 62
           7
100
AcDbCircle
 10
252.952747784482
 20
-653.048308045798
 40
13.5446791521
100
AcDbArc
 50
3.696570702639
 51
16.053352093004
  0
ARC
  5
197
100
AcDbEntity
  8
1
  6
CONTINUOUS
 62
           7
100
AcDbCircle
 10
263.957325048161
 20
-645.179016346354
 40
2.511921897742
100
AcDbArc
 50
-36.779157474613
 51
36.779157474615
  0
ARC
  5
196
100
AcDbEntity
  8
1
  6
CONTINUOUS
 62
           7
100
AcDbCircle
 10
260.981168843646
 20
-645.179016346354
 40
2.511921897743
100
AcDbArc
 50
143.220842525389
 51
-143.220842525391
  0
ARC
  5
195
100
AcDbEntity
  8
1
  6
CONTINUOUS
 62
           7
100
AcDbCircle
 10
254.084233305538
 20
-646.067104318321
 40
2.13213572819
100
AcDbArc
 50
139.239914582872
 51
-139.239914582872
  0
ARC
  5
194
100
AcDbEntity
  8
1
  6
CONTINUOUS
 62
           7
100
AcDbCircle
 10
254.098323251212
 20
-658.282990943028
 40
2.142827904928
100
AcDbArc
 50
139.485887938047
 51
166.360113354638
  0
ARC
  5
193
100
AcDbEntity
  8
1
  6
CONTINUOUS
 62
           7
100
AcDbCircle
 10
259.469246945904
 20
-652.175047630674
 40
7.5
100
AcDbArc
 50
158.960530218682
 51
-158.960530218682
  0
ARC
  5
192
100
AcDbEntity
  8
1
  6
CONTINUOUS
 62
           7
100
AcDbCircle
 10
240.429633015025
 20
-658.726672349512
 40
2.340971743017
100
AcDbArc
 50
23.915401271763
 51
38.221764059043
  0
ARC
  5
191
100
AcDbEntity
  8
1
  6
CONTINUOUS
 62
           7
100
AcDbCircle
 10
234.768751756848
 20
-652.175047630674
 40
8.0
100
AcDbArc
 50
-20.364134806319
 51
20.364134806318
  0
ARC
  5
190
100
AcDbEntity
  8
1
  6
CONTINUOUS
 62
           7
100
AcDbCircle
 10
240.559451669156
 20
-645.623422911836
 40
2.240423563718
100
AcDbArc
 50
-40.276270978837
 51
40.276270978839
  0
ARC
  5
18F
100
AcDbEntity
  8
1
  6
CONTINUOUS
 62
           7
100
AcDbCircle
 10
309.469287449673
 20
-701.367135914127
 40
17.330244008167
100
AcDbArc
 50
69.743841999583
 51
110.256158000417
  0
ARC
  5
18E
100
AcDbEntity
  8
1
  6
CONTINUOUS
 62
           7
100
AcDbCircle
 10
297.469206442134
 20
-701.367135914127
 40
17.330244008167
100
AcDbArc
 50
69.743841999583
 51
110.256158000417
  0
ARC
  5
18D
100
AcDbEntity
  8
1
  6
CONTINUOUS
 62
           7
100
AcDbCircle
 10
309.469287449673
 20
-679.706647897793
 40
17.330244008167
100
AcDbArc
 50
-110.256158000417
 51
-69.743841999583
  0
ARC
  5
18C
100
AcDbEntity
  8
1
  6
CONTINUOUS
 62
           7
100
AcDbCircle
 10
297.469206442134
 20
-679.706647897793
 40
17.330244008167
100
AcDbArc
 50
-110.256158000417
 51
-69.743841999583
  0
ARC
  5
18B
100
AcDbEntity
  8
1
  6
CONTINUOUS
 62
           7
100
AcDbCircle
 10
91.607520345089
 20
-684.78958142675
 40
6.18836802561
100
AcDbArc
 50
20.97932291897
 51
31.355315962402
  0
ARC
  5
18A
100
AcDbEntity
  8
1
  6
CONTINUOUS
 62
           7
100
AcDbCircle
 10
78.567365390969
 20
-668.388278786025
 40
6.18836802561
100
AcDbArc
 50
-159.020677081028
 51
-100.771504196938
  0
ARC
  5
189
100
AcDbEntity
  8
1
  6
CONTINUOUS
 62
           7
100
AcDbCircle
 10
97.764596946647
 20
-663.91177602777
 40
22.928203230275
100
AcDbArc
 50
-152.587953773994
 51
-117.412046226006
  0
ARC
  5
188
100
AcDbEntity
  8
1
  6
CONTINUOUS
 62
           7
100
AcDbCircle
 10
93.288094188392
 20
-683.109007583448
 40
6.18836802561
100
AcDbArc
 50
-169.22849580306
 51
-110.979322918972
  0
ARC
  5
187
100
AcDbEntity
  8
1
  6
CONTINUOUS
 62
           7
100
AcDbCircle
 10
76.886791547666
 20
-670.068852629328
 40
6.18836802561
100
AcDbArc
 50
58.644684037598
 51
69.020677081027
  0
ARC
  5
186
100
AcDbEntity
  8
1
  6
CONTINUOUS
 62
           7
100
AcDbCircle
 10
104.127449686758
 20
-615.39230706608
 40
6.5
100
AcDbArc
 50
-27.380135051962
 51
-12.619864948038
  0
ARC
  5
185
100
AcDbEntity
  8
1
  6
CONTINUOUS
 62
           7
100
AcDbCircle
 10
104.127449686758
 20
-615.39230706608
 40
6.5
100
AcDbArc
 50
32.61986494804
 51
47.380135051961
  0
ARC
  5
184
100
AcDbEntity
  8
1
  6
CONTINUOUS
 62
           7
100
AcDbCircle
 10
104.127449686758
 20
-615.39230706608
 40
6.5
100
AcDbArc
 50
92.619864948044
 51
107.380135051961
  0
ARC
  5
183
100
AcDbEntity
  8
1
  6
CONTINUOUS
 62
           7
100
AcDbCircle
 10
104.127449686758
 20
-615.39230706608
 40
6.5
100
AcDbArc
 50
152.619864948043
 51
167.380135051961
  0
ARC
  5
182
100
AcDbEntity
  8
1
  6
CONTINUOUS
 62
           7
100
AcDbCircle
 10
104.127449686758
 20
-615.39230706608
 40
6.5
100
AcDbArc
 50
-147.380135051959
 51
-132.619864948041
  0
ARC
  5
181
100
AcDbEntity
  8
1
  6
CONTINUOUS
 62
           7
100
AcDbCircle
 10
104.127449686758
 20
-615.39230706608
 40
6.5
100
AcDbArc
 50
-87.380135051957
 51
-72.61986494804
  0
ARC
  5
180
100
AcDbEntity
  8
1
  6
CONTINUOUS
 62
           7
100
AcDbCircle
 10
83.97880667118
 20
-641.5122047824
 40
7.7
100
AcDbArc
 50
-85.380022671342
 51
-74.619977328657
  0
ARC
  5
17F
100
AcDbEntity
  8
1
  6
CONTINUOUS
 62
           7
100
AcDbCircle
 10
83.97880667118
 20
-641.5122047824
 40
7.7
100
AcDbArc
 50
-145.380022671342
 51
-134.619977328656
  0
ARC
  5
17E
100
AcDbEntity
  8
1
  6
CONTINUOUS
 62
           7
100
AcDbCircle
 10
83.97880667118
 20
-641.5122047824
 40
7.7
100
AcDbArc
 50
154.619977328658
 51
165.38002267134
  0
ARC
  5
17D
100
AcDbEntity
  8
1
  6
CONTINUOUS
 62
           7
100
AcDbCircle
 10
83.97880667118
 20
-641.5122047824
 40
7.7
100
AcDbArc
 50
94.619977328659
 51
105.380022671343
  0
ARC
  5
17C
100
AcDbEntity
  8
1
  6
CONTINUOUS
 62
           7
100
AcDbCircle
 10
83.97880667118
 20
-641.5122047824
 40
7.7
100
AcDbArc
 50
34.619977328657
 51
45.380022671344
  0
ARC
  5
17B
100
AcDbEntity
  8
1
  6
CONTINUOUS
 62
           7
100
AcDbCircle
 10
83.97880667118
 20
-641.5122047824
 40
7.7
100
AcDbArc
 50
-25.380022671341
 51
-14.619977328657
  0
ARC
  5
17A
100
AcDbEntity
  8
1
  6
CONTINUOUS
 62
           7
100
AcDbCircle
 10
142.217831452866
 20
-662.77767207377
 40
7.7
100
AcDbArc
 50
64.619977328657
 51
75.380022671345
  0
ARC
  5
179
100
AcDbEntity
  8
1
  6
CONTINUOUS
 62
           7
100
AcDbCircle
 10
142.217831452866
 20
-662.77767207377
 40
7.7
100
AcDbArc
 50
124.619977328658
 51
135.380022671344
  0
ARC
  5
178
100
AcDbEntity
  8
1
  6
CONTINUOUS
 62
           7
100
AcDbCircle
 10
142.217831452866
 20
-662.77767207377
 40
7.7
100
AcDbArc
 50
-175.380022671343
 51
-164.619977328656
  0
ARC
  5
177
100
AcDbEntity
  8
1
  6
CONTINUOUS
 62
           7
100
AcDbCircle
 10
142.217831452866
 20
-662.77767207377
 40
7.7
100
AcDbArc
 50
-115.380022671342
 51
-104.619977328657
  0
ARC
  5
176
100
AcDbEntity
  8
1
  6
CONTINUOUS
 62
           7
100
AcDbCircle
 10
142.217831452866
 20
-662.77767207377
 40
7.7
100
AcDbArc
 50
-55.380022671345
 51
-44.619977328658
  0
ARC
  5
175
100
AcDbEntity
  8
1
  6
CONTINUOUS
 62
           7
100
AcDbCircle
 10
142.217831452866
 20
-662.77767207377
 40
7.7
100
AcDbArc
 50
4.619977328656
 51
15.380022671344
  0
ARC
  5
174
100
AcDbEntity
  8
1
  6
CONTINUOUS
 62
           7
100
AcDbCircle
 10
125.548608225123
 20
-690.225237066843
 40
6.18836802561
100
AcDbArc
 50
65.97932291897
 51
76.355315962407
  0
ARC
  5
173
100
AcDbEntity
  8
1
  6
CONTINUOUS
 62
           7
100
AcDbCircle
 10
104.730353911792
 20
-690.225237066844
 40
6.18836802561
100
AcDbArc
 50
103.644684037596
 51
114.02067708103
  0
ARC
  5
172
100
AcDbEntity
  8
1
  6
CONTINUOUS
 62
           7
100
AcDbCircle
 10
125.548608225123
 20
-690.848546745076
 40
6.18836802561
100
AcDbArc
 50
-124.228495803062
 51
-65.97932291897
  0
ARC
  5
171
100
AcDbEntity
  8
1
  6
CONTINUOUS
 62
           7
100
AcDbCircle
 10
115.139481068457
 20
-674.108688675684
 40
22.928203230275
100
AcDbArc
 50
-107.587953773994
 51
-72.412046226006
  0
ARC
  5
170
100
AcDbEntity
  8
1
  6
CONTINUOUS
 62
           7
100
AcDbCircle
 10
104.730353911792
 20
-690.848546745076
 40
6.18836802561
100
AcDbArc
 50
-114.020677081031
 51
-55.771504196936
  0
ARC
  5
16F
100
AcDbEntity
  8
1
  6
CONTINUOUS
 62
           7
100
AcDbCircle
 10
113.087360208503
 20
-652.175047630674
 40
11.5
100
AcDbArc
 50
64.070614622566
 51
75.929385377432
  0
ARC
  5
16E
100
AcDbEntity
  8
1
  6
CONTINUOUS
 62
           7
100
AcDbCircle
 10
113.087360208503
 20
-652.175047630674
 40
11.5
100
AcDbArc
 50
4.070614622569
 51
15.929385377428
  0
ARC
  5
16D
100
AcDbEntity
  8
1
  6
CONTINUOUS
 62
           7
100
AcDbCircle
 10
113.087360208503
 20
-652.175047630674
 40
11.5
100
AcDbArc
 50
-55.929385377434
 51
-44.070614622569
  0
ARC
  5
16C
100
AcDbEntity
  8
1
  6
CONTINUOUS
 62
           7
100
AcDbCircle
 10
113.087360208503
 20
-652.175047630674
 40
11.5
100
AcDbArc
 50
-115.929385377432
 51
-104.070614622561
  0
ARC
  5
16B
100
AcDbEntity
  8
1
  6
CONTINUOUS
 62
           7
100
AcDbCircle
 10
113.087360208503
 20
-652.175047630674
 40
11.5
100
AcDbArc
 50
-175.929385377436
 51
-164.070614622562
  0
ARC
  5
16A
100
AcDbEntity
  8
1
  6
CONTINUOUS
 62
           7
100
AcDbCircle
 10
113.087360208503
 20
-652.175047630674
 40
11.499999999999
100
AcDbArc
 50
124.070614622563
 51
135.929385377439
  0
ARC
  5
169
100
AcDbEntity
  8
1
  6
CONTINUOUS
 62
           3
100
AcDbCircle
 10
123.17695443661
 20
-624.45411531749
 40
14.25
100
AcDbArc
 50
-1.328281935993
 51
21.328281935992
  0
ARC
  5
168
100
AcDbEntity
  8
1
  6
CONTINUOUS
 62
           3
100
AcDbCircle
 10
123.17695443661
 20
-624.45411531749
 40
14.25
100
AcDbArc
 50
-61.328281935992
 51
-38.671718064008
  0
ARC
  5
167
100
AcDbEntity
  8
1
  6
CONTINUOUS
 62
           3
100
AcDbCircle
 10
123.17695443661
 20
-624.45411531749
 40
14.25
100
AcDbArc
 50
-121.328281935992
 51
-98.671718064007
  0
ARC
  5
166
100
AcDbEntity
  8
1
  6
CONTINUOUS
 62
           3
100
AcDbCircle
 10
123.17695443661
 20
-624.45411531749
 40
14.25
100
AcDbArc
 50
178.671718064008
 51
-158.671718064007
  0
ARC
  5
165
100
AcDbEntity
  8
1
  6
CONTINUOUS
 62
           3
100
AcDbCircle
 10
123.17695443661
 20
-624.45411531749
 40
14.25
100
AcDbArc
 50
118.671718064008
 51
141.328281935992
  0
ARC
  5
164
100
AcDbEntity
  8
1
  6
CONTINUOUS
 62
           3
100
AcDbCircle
 10
123.17695443661
 20
-624.45411531749
 40
14.25
100
AcDbArc
 50
58.671718064007
 51
81.328281935992
  0
ARC
  5
163
100
AcDbEntity
  8
1
  6
CONTINUOUS
 62
           3
100
AcDbCircle
 10
76.923584402809
 20
-656.736841293233
 40
2.208644403071
100
AcDbArc
 50
-125.841248845268
 51
-73.603326328846
  0
ARC
  5
162
100
AcDbEntity
  8
1
  6
CONTINUOUS
 62
           3
100
AcDbCircle
 10
76.909381241638
 20
-656.717941665442
 40
2.208644403071
100
AcDbArc
 50
103.383326328852
 51
-125.841248845258
  0
ARC
  5
161
100
AcDbEntity
  8
1
  6
CONTINUOUS
 62
           3
100
AcDbCircle
 10
79.296279317886
 20
-629.810955984537
 40
2.208644403071
100
AcDbArc
 50
63.603326328841
 51
115.841248845263
  0
ARC
  5
160
100
AcDbEntity
  8
1
  6
CONTINUOUS
 62
           3
100
AcDbCircle
 10
79.279010048723
 20
-629.82710213146
 40
2.208644403071
100
AcDbArc
 50
115.841248845261
 51
-113.383326328847
  0
ARC
  5
15F
100
AcDbEntity
  8
1
  6
CONTINUOUS
 62
           7
100
AcDbCircle
 10
115.139481068457
 20
-646.536891905959
 40
39.5
100
AcDbArc
 50
-110.0
 51
0.0
  0
ARC
  5
15E
100
AcDbEntity
  8
1
  6
CONTINUOUS
 62
           7
100
AcDbCircle
 10
115.139481068457
 20
-646.536891905959
 40
39.5
100
AcDbArc
 50
90.0
 51
-110.0
  0
ARC
  5
15D
100
AcDbEntity
  8
1
  6
CONTINUOUS
 62
           7
100
AcDbCircle
 10
115.139481068457
 20
-646.536891905959
 40
39.5
100
AcDbArc
 50
0.0
 51
90.0
  0
LINE
  5
15C
100
AcDbEntity
  8
1
  6
CONTINUOUS
 62
           7
100
AcDbLine
 10
276.769246945914
 20
-640.675047630675
 11
276.769246945914
 21
-638.70411531749
  0
LINE
  5
15B
100
AcDbEntity
  8
1
  6
CONTINUOUS
 62
           7
100
AcDbLine
 10
275.479246945914
 20
-643.175047630674
 11
275.479246945914
 21
-638.70411531749
  0
LINE
  5
15A
100
AcDbEntity
  8
1
  6
CONTINUOUS
 62
           7
100
AcDbLine
 10
267.671769646549
 20
-638.70411531749
 11
267.671769646549
 21
-645.37757033132
  0
LINE
  5
159
100
AcDbEntity
  8
1
  6
CONTINUOUS
 62
           7
100
AcDbLine
 10
266.171769646549
 20
-643.675047630674
 11
266.171769646549
 21
-638.70411531749
  0
LINE
  5
158
100
AcDbEntity
  8
1
  6
CONTINUOUS
 62
           7
100
AcDbLine
 10
263.479246945914
 20
-638.70411531749
 11
263.479246945914
 21
-643.675047630674
  0
LINE
  5
157
100
AcDbEntity
  8
1
  6
CONTINUOUS
 62
           7
100
AcDbLine
 10
261.979246945914
 20
-638.70411531749
 11
261.979246945914
 21
-643.675047630674
  0
LINE
  5
156
100
AcDbEntity
  8
1
  6
DOT_CENTER
 62
           2
100
AcDbLine
 10
286.854049482417
 20
-641.5122047824
 11
232.197906047688
 21
-641.5122047824
  0
LINE
  5
155
100
AcDbEntity
  8
1
  6
CONTINUOUS
 62
           7
100
AcDbLine
 10
261.979246945914
 20
-646.5122047824
 11
199.133170877667
 21
-646.5122047824
  0
LINE
  5
154
100
AcDbEntity
  8
1
  6
CONTINUOUS
 62
           7
100
AcDbLine
 10
199.133170877667
 20
-636.5122047824
 11
239.969246945909
 21
-636.5122047824
  0
LINE
  5
153
100
AcDbEntity
  8
1
  6
CONTINUOUS
 62
           7
100
AcDbLine
 10
265.969246945903
 20
-655.047328953943
 11
265.969246945903
 21
-656.77767207377
  0
LINE
  5
152
100
AcDbEntity
  8
1
  6
CONTINUOUS
 62
           7
100
AcDbLine
 10
266.469246945903
 20
-655.77767207377
 11
266.469246945903
 21
-652.175047630674
  0
LINE
  5
151
100
AcDbEntity
  8
1
  6
DOT_CENTER
 62
           2
100
AcDbLine
 10
286.854049482417
 20
-662.77767207377
 11
232.197906047688
 21
-662.77767207377
  0
LINE
  5
150
100
AcDbEntity
  8
1
  6
CONTINUOUS
 62
           7
100
AcDbLine
 10
268.469246945904
 20
-644.175047630674
 11
269.469246945904
 21
-643.175047630674
  0
LINE
  5
14F
100
AcDbEntity
  8
1
  6
CONTINUOUS
 62
           7
100
AcDbLine
 10
275.969246945904
 20
-643.175047630674
 11
269.469246945904
 21
-643.175047630674
  0
LINE
  5
14E
100
AcDbEntity
  8
1
  6
CONTINUOUS
 62
           7
100
AcDbLine
 10
268.469246945904
 20
-654.694768305116
 11
268.469246945904
 21
-644.175047630674
  0
LINE
  5
14D
100
AcDbEntity
  8
1
  6
CONTINUOUS
 62
           7
100
AcDbLine
 10
267.969246945904
 20
-644.425047630674
 11
268.469246945904
 21
-644.425047630674
  0
LINE
  5
14C
100
AcDbEntity
  8
1
  6
CONTINUOUS
 62
           7
100
AcDbLine
 10
266.469246945903
 20
-644.425047630674
 11
267.969246945904
 21
-644.425047630674
  0
LINE
  5
14B
100
AcDbEntity
  8
1
  6
CONTINUOUS
 62
           7
100
AcDbLine
 10
266.469246945903
 20
-655.77767207377
 11
266.469246945903
 21
-644.425047630674
  0
LINE
  5
14A
100
AcDbEntity
  8
1
  6
CONTINUOUS
 62
           7
100
AcDbLine
 10
267.969246945904
 20
-654.694768305116
 11
267.969246945904
 21
-644.425047630674
  0
LINE
  5
149
100
AcDbEntity
  8
1
  6
CONTINUOUS
 62
           7
100
AcDbLine
 10
275.969246945904
 20
-641.675047630674
 11
276.546597215093
 21
-640.675047630675
  0
LINE
  5
148
100
AcDbEntity
  8
1
  6
CONTINUOUS
 62
           7
100
AcDbLine
 10
280.157246945904
 20
-640.675047630675
 11
276.546597215093
 21
-640.675047630675
  0
LINE
  5
147
100
AcDbEntity
  8
1
  6
CONTINUOUS
 62
           7
100
AcDbLine
 10
275.969246945904
 20
-641.675047630674
 11
275.969246945904
 21
-656.05854707377
  0
LINE
  5
146
100
AcDbEntity
  8
1
  6
CONTINUOUS
 62
           7
100
AcDbLine
 10
276.769246945914
 20
-656.08354707377
 11
275.479246945914
 21
-656.04323457377
  0
LINE
  5
145
100
AcDbEntity
  8
1
  6
CONTINUOUS
 62
           7
100
AcDbLine
 10
275.479246945914
 20
-669.51210957377
 11
276.769246945914
 21
-669.47179707377
  0
LINE
  5
144
100
AcDbEntity
  8
1
  6
CONTINUOUS
 62
           7
100
AcDbLine
 10
276.769246945914
 20
-669.47179707377
 11
276.769246945914
 21
-662.77767207377
  0
LINE
  5
143
100
AcDbEntity
  8
1
  6
CONTINUOUS
 62
           2
100
AcDbLine
 10
275.479246945914
 20
-669.06912573176
 11
276.769246945914
 21
-668.61579707377
  0
LINE
  5
142
100
AcDbEntity
  8
1
  6
CONTINUOUS
 62
           2
100
AcDbLine
 10
275.479246945914
 20
-656.486218415781
 11
276.769246945914
 21
-656.93954707377
  0
LINE
  5
141
100
AcDbEntity
  8
1
  6
CONTINUOUS
 62
           2
100
AcDbLine
 10
276.769246945914
 20
-668.61579707377
 11
280.469246945914
 21
-668.50017207377
  0
LINE
  5
140
100
AcDbEntity
  8
1
  6
CONTINUOUS
 62
           7
100
AcDbLine
 10
276.769246945914
 20
-669.47179707377
 11
280.469246945914
 21
-669.35617207377
  0
LINE
  5
13F
100
AcDbEntity
  8
1
  6
CONTINUOUS
 62
           2
100
AcDbLine
 10
276.769246945914
 20
-656.93954707377
 11
280.469246945914
 21
-657.05517207377
  0
LINE
  5
13E
100
AcDbEntity
  8
1
  6
CONTINUOUS
 62
           7
100
AcDbLine
 10
276.769246945914
 20
-656.08354707377
 11
280.469246945914
 21
-656.19917207377
  0
LINE
  5
13D
100
AcDbEntity
  8
1
  6
CONTINUOUS
 62
           7
100
AcDbLine
 10
276.769246945914
 20
-656.08354707377
 11
276.769246945914
 21
-662.77767207377
  0
LINE
  5
13C
100
AcDbEntity
  8
1
  6
CONTINUOUS
 62
           7
100
AcDbLine
 10
267.671769646549
 20
-666.77767207377
 11
275.479246945914
 21
-666.77767207377
  0
LINE
  5
13B
100
AcDbEntity
  8
1
  6
CONTINUOUS
 62
           7
100
AcDbLine
 10
275.479246945914
 20
-658.77767207377
 11
267.671769646549
 21
-658.77767207377
  0
LINE
  5
13A
100
AcDbEntity
  8
1
  6
CONTINUOUS
 62
           7
100
AcDbLine
 10
266.171769646549
 20
-668.77767207377
 11
266.171769646549
 21
-656.77767207377
  0
LINE
  5
139
100
AcDbEntity
  8
1
  6
CONTINUOUS
 62
           7
100
AcDbLine
 10
263.479246945914
 20
-656.77767207377
 11
263.479246945914
 21
-668.77767207377
  0
LINE
  5
138
100
AcDbEntity
  8
1
  6
CONTINUOUS
 62
           7
100
AcDbLine
 10
261.979246945914
 20
-655.77767207377
 11
261.979246945914
 21
-662.77767207377
  0
LINE
  5
137
100
AcDbEntity
  8
1
  6
CONTINUOUS
 62
           7
100
AcDbLine
 10
263.479246945914
 20
-655.77767207377
 11
261.979246945914
 21
-655.77767207377
  0
LINE
  5
136
100
AcDbEntity
  8
1
  6
CONTINUOUS
 62
           7
100
AcDbLine
 10
263.479246945914
 20
-656.77767207377
 11
263.479246945914
 21
-655.77767207377
  0
LINE
  5
135
100
AcDbEntity
  8
1
  6
CONTINUOUS
 62
           7
100
AcDbLine
 10
266.171769646549
 20
-656.77767207377
 11
263.479246945914
 21
-656.77767207377
  0
LINE
  5
134
100
AcDbEntity
  8
1
  6
CONTINUOUS
 62
           7
100
AcDbLine
 10
266.171769646549
 20
-655.77767207377
 11
266.171769646549
 21
-656.77767207377
  0
LINE
  5
133
100
AcDbEntity
  8
1
  6
CONTINUOUS
 62
           7
100
AcDbLine
 10
267.671769646549
 20
-655.77767207377
 11
266.171769646549
 21
-655.77767207377
  0
LINE
  5
132
100
AcDbEntity
  8
1
  6
CONTINUOUS
 62
           7
100
AcDbLine
 10
261.979246945914
 20
-662.77767207377
 11
261.979246945914
 21
-669.77767207377
  0
LINE
  5
131
100
AcDbEntity
  8
1
  6
CONTINUOUS
 62
           7
100
AcDbLine
 10
261.979246945914
 20
-669.77767207377
 11
263.479246945914
 21
-669.77767207377
  0
LINE
  5
130
100
AcDbEntity
  8
1
  6
CONTINUOUS
 62
           7
100
AcDbLine
 10
263.479246945914
 20
-669.77767207377
 11
263.479246945914
 21
-668.77767207377
  0
LINE
  5
12F
100
AcDbEntity
  8
1
  6
CONTINUOUS
 62
           7
100
AcDbLine
 10
263.479246945914
 20
-668.77767207377
 11
266.171769646549
 21
-668.77767207377
  0
LINE
  5
12E
100
AcDbEntity
  8
1
  6
CONTINUOUS
 62
           7
100
AcDbLine
 10
266.171769646549
 20
-668.77767207377
 11
266.171769646549
 21
-669.77767207377
  0
LINE
  5
12D
100
AcDbEntity
  8
1
  6
CONTINUOUS
 62
           7
100
AcDbLine
 10
266.171769646549
 20
-669.77767207377
 11
267.671769646549
 21
-669.77767207377
  0
LINE
  5
12C
100
AcDbEntity
  8
1
  6
CONTINUOUS
 62
           7
100
AcDbLine
 10
275.479246945914
 20
-670.860575842425
 11
275.479246945914
 21
-654.694768305116
  0
LINE
  5
12B
100
AcDbEntity
  8
1
  6
CONTINUOUS
 62
           7
100
AcDbLine
 10
275.479246945914
 20
-654.694768305116
 11
267.671769646549
 21
-654.694768305116
  0
LINE
  5
12A
100
AcDbEntity
  8
1
  6
CONTINUOUS
 62
           7
100
AcDbLine
 10
267.671769646549
 20
-654.694768305116
 11
267.671769646549
 21
-670.860575842425
  0
LINE
  5
129
100
AcDbEntity
  8
1
  6
CONTINUOUS
 62
           7
100
AcDbLine
 10
267.671769646549
 20
-670.860575842425
 11
275.479246945914
 21
-670.860575842425
  0
LINE
  5
128
100
AcDbEntity
  8
1
  6
CONTINUOUS
 62
           7
100
AcDbLine
 10
250.402259647801
 20
-638.70411531749
 11
260.4022596478
 21
-638.70411531749
  0
LINE
  5
127
100
AcDbEntity
  8
1
  6
CONTINUOUS
 62
           7
100
AcDbLine
 10
250.402259647801
 20
-610.20411531749
 11
260.4022596478
 21
-610.20411531749
  0
LINE
  5
126
100
AcDbEntity
  8
1
  6
CONTINUOUS
 62
           7
100
AcDbLine
 10
250.402259647801
 20
-638.70411531749
 11
250.402259647801
 21
-610.20411531749
  0
LINE
  5
125
100
AcDbEntity
  8
1
  6
CONTINUOUS
 62
           7
100
AcDbLine
 10
280.469246945907
 20
-610.204115317491
 11
260.4022596478
 21
-610.20411531749
  0
LINE
  5
124
100
AcDbEntity
  8
1
  6
CONTINUOUS
 62
           7
100
AcDbLine
 10
249.969246945909
 20
-638.454115317494
 11
249.969246945909
 21
-610.95411531749
  0
LINE
  5
123
100
AcDbEntity
  8
1
  6
CONTINUOUS
 62
           7
100
AcDbLine
 10
250.402259647801
 20
-610.20411531749
 11
249.969246945909
 21
-610.95411531749
  0
LINE
  5
122
100
AcDbEntity
  8
1
  6
CONTINUOUS
 62
           7
100
AcDbLine
 10
250.402259647801
 20
-638.70411531749
 11
249.969246945909
 21
-637.95411531749
  0
LINE
  5
121
100
AcDbEntity
  8
1
  6
CONTINUOUS
 62
           7
100
AcDbLine
 10
260.4022596478
 20
-638.70411531749
 11
280.469246945907
 21
-638.70411531749
  0
LINE
  5
120
100
AcDbEntity
  8
1
  6
CONTINUOUS
 62
           7
100
AcDbLine
 10
240.969246945909
 20
-610.454115317486
 11
240.969246945909
 21
-638.454115317495
  0
LINE
  5
11F
100
AcDbEntity
  8
1
  6
CONTINUOUS
 62
           7
100
AcDbLine
 10
239.969246945909
 20
-611.454115317486
 11
239.969246945909
 21
-637.454115317495
  0
LINE
  5
11E
100
AcDbEntity
  8
1
  6
CONTINUOUS
 62
           7
100
AcDbLine
 10
249.969246945908
 20
-610.454115317487
 11
249.969246945909
 21
-610.95411531749
  0
LINE
  5
11D
100
AcDbEntity
  8
1
  6
CONTINUOUS
 62
           7
100
AcDbLine
 10
240.969246945909
 20
-610.454115317486
 11
239.969246945909
 21
-611.454115317486
  0
LINE
  5
11C
100
AcDbEntity
  8
1
  6
CONTINUOUS
 62
           7
100
AcDbLine
 10
249.969246945908
 20
-610.454115317487
 11
240.969246945909
 21
-610.454115317486
  0
LINE
  5
11B
100
AcDbEntity
  8
1
  6
CONTINUOUS
 62
           7
100
AcDbLine
 10
239.969246945909
 20
-637.454115317495
 11
240.969246945909
 21
-638.454115317495
  0
LINE
  5
11A
100
AcDbEntity
  8
1
  6
CONTINUOUS
 62
           7
100
AcDbLine
 10
240.969246945909
 20
-638.454115317495
 11
249.969246945908
 21
-638.454115317494
  0
LINE
  5
119
100
AcDbEntity
  8
1
  6
DOT_CENTER
 62
           2
100
AcDbLine
 10
255.469246945904
 20
-652.175047630674
 11
269.469246945903
 21
-652.175047630674
  0
LINE
  5
118
100
AcDbEntity
  8
1
  6
CONTINUOUS
 62
           7
100
AcDbLine
 10
258.969246945903
 20
-655.047328953943
 11
265.969246945903
 21
-655.047328953943
  0
LINE
  5
117
100
AcDbEntity
  8
1
  6
CONTINUOUS
 62
           7
100
AcDbLine
 10
258.969246945903
 20
-655.047328953943
 11
258.969246945903
 21
-657.667110199315
  0
LINE
  5
116
100
AcDbEntity
  8
1
  6
CONTINUOUS
 62
           7
100
AcDbLine
 10
258.469246945903
 20
-657.77767207377
 11
258.469246945903
 21
-652.175047630674
  0
LINE
  5
115
100
AcDbEntity
  8
1
  6
CONTINUOUS
 62
           7
100
AcDbLine
 10
265.969246945903
 20
-649.302766307405
 11
258.969246945903
 21
-649.302766307405
  0
LINE
  5
114
100
AcDbEntity
  8
1
  6
CONTINUOUS
 62
           7
100
AcDbLine
 10
265.969246945903
 20
-643.675047630674
 11
258.969246945903
 21
-643.675047630674
  0
LINE
  5
113
100
AcDbEntity
  8
1
  6
CONTINUOUS
 62
           7
100
AcDbLine
 10
258.469246945903
 20
-644.175047630674
 11
258.969246945903
 21
-643.675047630674
  0
LINE
  5
112
100
AcDbEntity
  8
1
  6
CONTINUOUS
 62
           7
100
AcDbLine
 10
265.969246945903
 20
-643.675047630674
 11
266.469246945903
 21
-644.175047630674
  0
LINE
  5
111
100
AcDbEntity
  8
1
  6
CONTINUOUS
 62
           7
100
AcDbLine
 10
265.969246945903
 20
-646.682985062033
 11
258.969246945903
 21
-646.682985062033
  0
LINE
  5
110
100
AcDbEntity
  8
1
  6
CONTINUOUS
 62
           7
100
AcDbLine
 10
265.969246945903
 20
-646.682985062033
 11
265.969246945903
 21
-649.302766307405
  0
LINE
  5
10F
100
AcDbEntity
  8
1
  6
CONTINUOUS
 62
           7
100
AcDbLine
 10
258.969246945903
 20
-646.682985062033
 11
258.969246945903
 21
-649.302766307405
  0
LINE
  5
10E
100
AcDbEntity
  8
1
  6
CONTINUOUS
 62
           7
100
AcDbLine
 10
258.469246945903
 20
-652.175047630674
 11
258.469246945903
 21
-644.175047630674
  0
LINE
  5
10D
100
AcDbEntity
  8
1
  6
CONTINUOUS
 62
           7
100
AcDbLine
 10
266.469246945903
 20
-652.175047630674
 11
266.469246945903
 21
-644.175047630674
  0
LINE
  5
10C
100
AcDbEntity
  8
1
  6
CONTINUOUS
 62
           7
100
AcDbLine
 10
252.469246945904
 20
-654.867630034242
 11
252.469246945904
 21
-656.890934255382
  0
LINE
  5
10B
100
AcDbEntity
  8
1
  6
CONTINUOUS
 62
           7
100
AcDbLine
 10
252.469246945904
 20
-647.459161005967
 11
252.469246945904
 21
-649.482465227107
  0
LINE
  5
10A
100
AcDbEntity
  8
1
  6
CONTINUOUS
 62
           7
100
AcDbLine
 10
257.969246945904
 20
-656.890934255382
 11
252.469246945904
 21
-656.890934255382
  0
LINE
  5
109
100
AcDbEntity
  8
1
  6
CONTINUOUS
 62
           7
100
AcDbLine
 10
257.969246945904
 20
-654.867630034242
 11
252.469246945904
 21
-654.867630034242
  0
LINE
  5
108
100
AcDbEntity
  8
1
  6
CONTINUOUS
 62
           7
100
AcDbLine
 10
252.469246945904
 20
-649.482465227107
 11
257.969246945904
 21
-649.482465227107
  0
LINE
  5
107
100
AcDbEntity
  8
1
  6
CONTINUOUS
 62
           7
100
AcDbLine
 10
252.469246945904
 20
-647.459161005967
 11
257.969246945904
 21
-647.459161005967
  0
LINE
  5
106
100
AcDbEntity
  8
1
  6
CONTINUOUS
 62
           7
100
AcDbLine
 10
242.268751756848
 20
-647.071798192998
 11
242.268751756848
 21
-649.391165449259
  0
LINE
  5
105
100
AcDbEntity
  8
1
  6
CONTINUOUS
 62
           7
100
AcDbLine
 10
242.268751756848
 20
-654.958929812089
 11
242.268751756848
 21
-657.27829706835
  0
LINE
  5
104
100
AcDbEntity
  8
1
  6
CONTINUOUS
 62
           7
100
AcDbLine
 10
242.268751756848
 20
-649.391165449259
 11
227.469246945904
 21
-649.391165449259
  0
LINE
  5
103
100
AcDbEntity
  8
1
  6
CONTINUOUS
 62
           7
100
AcDbLine
 10
242.268751756848
 20
-647.071798192998
 11
227.469246945904
 21
-647.071798192998
  0
LINE
  5
102
100
AcDbEntity
  8
1
  6
CONTINUOUS
 62
           7
100
AcDbLine
 10
227.469246945904
 20
-657.27829706835
 11
242.268751756848
 21
-657.27829706835
  0
LINE
  5
101
100
AcDbEntity
  8
1
  6
CONTINUOUS
 62
           7
100
AcDbLine
 10
227.469246945904
 20
-654.958929812089
 11
242.268751756848
 21
-654.958929812089
  0
LINE
  5
100
100
AcDbEntity
  8
1
  6
CONTINUOUS
 62
           7
100
AcDbLine
 10
243.269246945904
 20
-652.175047630674
 11
243.269246945904
 21
-657.77767207377
  0
LINE
  5
FF
100
AcDbEntity
  8
1
  6
CONTINUOUS
 62
           7
100
AcDbLine
 10
243.269246945904
 20
-645.362264796055
 11
243.269246945904
 21
-652.175047630674
  0
LINE
  5
FE
100
AcDbEntity
  8
1
  6
CONTINUOUS
 62
           7
100
AcDbLine
 10
243.269246945904
 20
-645.175047630674
 11
243.269246945904
 21
-645.362264796055
  0
LINE
  5
FD
100
AcDbEntity
  8
1
  6
CONTINUOUS
 62
           7
100
AcDbLine
 10
251.969246945904
 20
-645.175047630674
 11
251.969246945904
 21
-657.77767207377
  0
LINE
  5
FC
100
AcDbEntity
  8
1
  6
CONTINUOUS
 62
           2
100
AcDbLine
 10
242.768751756848
 20
-645.716547630674
 11
243.269246945904
 21
-645.716547630674
  0
LINE
  5
FB
100
AcDbEntity
  8
1
  6
CONTINUOUS
 62
           7
100
AcDbLine
 10
242.768751756848
 20
-645.175047630674
 11
243.269246945904
 21
-645.175047630674
  0
LINE
  5
FA
100
AcDbEntity
  8
1
  6
CONTINUOUS
 62
           7
100
AcDbLine
 10
243.269246945904
 20
-645.175047630674
 11
242.769246945905
 21
-645.175047630674
  0
LINE
  5
F9
100
AcDbEntity
  8
1
  6
CONTINUOUS
 62
           7
100
AcDbLine
 10
223.969246945904
 20
-656.425047630674
 11
205.269246945904
 21
-656.425047630674
  0
LINE
  5
F8
100
AcDbEntity
  8
1
  6
CONTINUOUS
 62
           7
100
AcDbLine
 10
257.969246945903
 20
-657.77767207377
 11
257.969246945903
 21
-646.275047630674
  0
LINE
  5
F7
100
AcDbEntity
  8
1
  6
CONTINUOUS
 62
           7
100
AcDbLine
 10
257.969246945903
 20
-646.275047630674
 11
258.469246945903
 21
-646.275047630674
  0
LINE
  5
F6
100
AcDbEntity
  8
1
  6
CONTINUOUS
 62
           7
100
AcDbLine
 10
205.269246945904
 20
-652.175047630674
 11
205.269246945904
 21
-647.925047630674
  0
LINE
  5
F5
100
AcDbEntity
  8
1
  6
CONTINUOUS
 62
           7
100
AcDbLine
 10
205.269246945904
 20
-656.425047630674
 11
205.269246945904
 21
-652.175047630674
  0
LINE
  5
F4
100
AcDbEntity
  8
1
  6
CONTINUOUS
 62
           7
100
AcDbLine
 10
205.269246945904
 20
-647.925047630674
 11
223.969246945904
 21
-647.925047630674
  0
LINE
  5
F3
100
AcDbEntity
  8
1
  6
CONTINUOUS
 62
           7
100
AcDbLine
 10
257.969246945904
 20
-652.175047630674
 11
257.969246945904
 21
-644.675047630674
  0
LINE
  5
F2
100
AcDbEntity
  8
1
  6
CONTINUOUS
 62
           7
100
AcDbLine
 10
257.969246945904
 20
-644.675047630674
 11
252.469246945904
 21
-644.675047630674
  0
LINE
  5
F1
100
AcDbEntity
  8
1
  6
CONTINUOUS
 62
           7
100
AcDbLine
 10
243.269246945904
 20
-645.716547630674
 11
243.269246945904
 21
-645.175047630674
  0
LINE
  5
F0
100
AcDbEntity
  8
1
  6
CONTINUOUS
 62
           7
100
AcDbLine
 10
251.969246945904
 20
-645.175047630674
 11
243.269246945904
 21
-645.175047630674
  0
LINE
  5
EF
100
AcDbEntity
  8
1
  6
CONTINUOUS
 62
           2
100
AcDbLine
 10
244.769246945904
 20
-645.175047630674
 11
243.269246945904
 21
-645.716547630674
  0
LINE
  5
EE
100
AcDbEntity
  8
1
  6
CONTINUOUS
 62
           7
100
AcDbLine
 10
252.469246945904
 20
-644.675047630674
 11
251.969246945904
 21
-645.175047630674
  0
LINE
  5
ED
100
AcDbEntity
  8
1
  6
CONTINUOUS
 62
           7
100
AcDbLine
 10
242.268751756848
 20
-644.175047630674
 11
242.768751756848
 21
-644.675047630674
  0
LINE
  5
EC
100
AcDbEntity
  8
1
  6
CONTINUOUS
 62
           7
100
AcDbLine
 10
224.969246945904
 20
-645.925047630674
 11
226.769246945904
 21
-645.925047630674
  0
LINE
  5
EB
100
AcDbEntity
  8
1
  6
CONTINUOUS
 62
           7
100
AcDbLine
 10
227.469246945904
 20
-657.77767207377
 11
227.469246945904
 21
-652.175047630674
  0
LINE
  5
EA
100
AcDbEntity
  8
1
  6
CONTINUOUS
 62
           7
100
AcDbLine
 10
242.768751756848
 20
-644.675047630674
 11
242.768751756848
 21
-652.175047630674
  0
LINE
  5
E9
100
AcDbEntity
  8
1
  6
CONTINUOUS
 62
           7
100
AcDbLine
 10
242.768751756848
 20
-645.716547630674
 11
242.768751756848
 21
-645.175047630674
  0
LINE
  5
E8
100
AcDbEntity
  8
1
  6
CONTINUOUS
 62
           7
100
AcDbLine
 10
223.969246945904
 20
-652.175047630674
 11
223.969246945904
 21
-646.925047630674
  0
LINE
  5
E7
100
AcDbEntity
  8
1
  6
CONTINUOUS
 62
           7
100
AcDbLine
 10
242.768751756848
 20
-657.77767207377
 11
242.768751756848
 21
-652.175047630674
  0
LINE
  5
E6
100
AcDbEntity
  8
1
  6
CONTINUOUS
 62
           7
100
AcDbLine
 10
223.969246945904
 20
-657.425047630674
 11
223.969246945904
 21
-652.175047630674
  0
LINE
  5
E5
100
AcDbEntity
  8
1
  6
CONTINUOUS
 62
           7
100
AcDbLine
 10
227.469246945904
 20
-652.175047630674
 11
227.469246945904
 21
-645.175047630674
  0
LINE
  5
E4
100
AcDbEntity
  8
1
  6
CONTINUOUS
 62
           7
100
AcDbLine
 10
242.268751756848
 20
-644.175047630674
 11
228.469246945904
 21
-644.175047630674
  0
LINE
  5
E3
100
AcDbEntity
  8
1
  6
CONTINUOUS
 62
           7
100
AcDbLine
 10
197.797308993553
 20
-649.025047630674
 11
205.269246945904
 21
-649.025047630674
  0
LINE
  5
E2
100
AcDbEntity
  8
1
  6
CONTINUOUS
 62
           7
100
AcDbLine
 10
205.269246945904
 20
-655.325047630674
 11
197.355909728332
 21
-655.325047630674
  0
LINE
  5
E1
100
AcDbEntity
  8
1
  6
CONTINUOUS
 62
           7
100
AcDbLine
 10
261.979246945914
 20
-667.77767207377
 11
199.133170877667
 21
-667.77767207377
  0
LINE
  5
E0
100
AcDbEntity
  8
1
  6
CONTINUOUS
 62
           7
100
AcDbLine
 10
199.133170877667
 20
-657.77767207377
 11
261.979246945914
 21
-657.77767207377
  0
LINE
  5
DF
100
AcDbEntity
  8
1
  6
DOT_CENTER
 62
           2
100
AcDbLine
 10
303.469246945904
 20
-672.973582041105
 11
303.469246945904
 21
-760.874984433811
  0
LINE
  5
DE
100
AcDbEntity
  8
1
  6
CONTINUOUS
 62
           7
100
AcDbLine
 10
291.469165938365
 20
-684.03689190596
 11
315.469327953443
 21
-684.03689190596
  0
LINE
  5
DD
100
AcDbEntity
  8
1
  6
CONTINUOUS
 62
           7
100
AcDbLine
 10
315.469327953443
 20
-684.03689190596
 11
315.469327953443
 21
-697.036891905959
  0
LINE
  5
DC
100
AcDbEntity
  8
1
  6
CONTINUOUS
 62
           7
100
AcDbLine
 10
315.469327953443
 20
-697.036891905959
 11
291.469165938365
 21
-697.036891905959
  0
LINE
  5
DB
100
AcDbEntity
  8
1
  6
CONTINUOUS
 62
           7
100
AcDbLine
 10
291.469165938365
 20
-697.036891905959
 11
291.469165938365
 21
-684.03689190596
  0
LINE
  5
DA
100
AcDbEntity
  8
1
  6
CONTINUOUS
 62
           7
100
AcDbLine
 10
303.469246945904
 20
-685.108695910986
 11
303.469246945904
 21
-695.965087900933
  0
LINE
  5
D9
100
AcDbEntity
  8
1
  6
CONTINUOUS
 62
           7
100
AcDbLine
 10
313.469246945904
 20
-756.036891905959
 11
293.469246945904
 21
-756.036891905959
  0
LINE
  5
D8
100
AcDbEntity
  8
1
  6
CONTINUOUS
 62
           7
100
AcDbLine
 10
294.469246945904
 20
-757.036891905959
 11
293.469246945904
 21
-756.036891905959
  0
LINE
  5
D7
100
AcDbEntity
  8
1
  6
CONTINUOUS
 62
           7
100
AcDbLine
 10
313.469246945904
 20
-756.036891905959
 11
312.469246945904
 21
-757.036891905959
  0
LINE
  5
D6
100
AcDbEntity
  8
1
  6
CONTINUOUS
 62
           7
100
AcDbLine
 10
313.469246945904
 20
-756.036891905959
 11
313.469246945904
 21
-699.53689190596
  0
LINE
  5
D5
100
AcDbEntity
  8
1
  6
CONTINUOUS
 62
           7
100
AcDbLine
 10
294.469246945904
 20
-757.036891905959
 11
312.469246945904
 21
-757.036891905959
  0
LINE
  5
D4
100
AcDbEntity
  8
1
  6
CONTINUOUS
 62
           7
100
AcDbLine
 10
293.469246945904
 20
-699.53689190596
 11
293.469246945904
 21
-756.036891905959
  0
LINE
  5
D3
100
AcDbEntity
  8
1
  6
CONTINUOUS
 62
           7
100
AcDbLine
 10
313.469246945904
 20
-699.53689190596
 11
293.469246945904
 21
-699.53689190596
  0
LINE
  5
D2
100
AcDbEntity
  8
1
  6
CONTINUOUS
 62
           7
100
AcDbLine
 10
296.551746945904
 20
-699.53689190596
 11
296.551746945904
 21
-697.03689190596
  0
LINE
  5
D1
100
AcDbEntity
  8
1
  6
CONTINUOUS
 62
           7
100
AcDbLine
 10
310.386746945904
 20
-699.53689190596
 11
310.386746945904
 21
-697.03689190596
  0
LINE
  5
D0
100
AcDbEntity
  8
1
  6
CONTINUOUS
 62
           7
100
AcDbLine
 10
281.469246945904
 20
-607.036891905959
 11
329.469246945904
 21
-607.036891905959
  0
LINE
  5
CF
100
AcDbEntity
  8
1
  6
CONTINUOUS
 62
           7
100
AcDbLine
 10
330.469246945904
 20
-608.036891905959
 11
525.707069119413
 21
-608.036891905959
  0
LINE
  5
CE
100
AcDbEntity
  8
1
  6
DOT_CENTER
 62
           2
100
AcDbLine
 10
188.30688255532
 20
-646.536891905959
 11
597.675612677238
 21
-646.536891905959
  0
LINE
  5
CD
100
AcDbEntity
  8
1
  6
CONTINUOUS
 62
           7
100
AcDbLine
 10
592.238158032659
 20
-664.786891905959
 11
593.238158032659
 21
-663.786891905959
  0
LINE
  5
CC
100
AcDbEntity
  8
1
  6
CONTINUOUS
 62
           7
100
AcDbLine
 10
593.238158032659
 20
-663.786891905959
 11
593.238158032659
 21
-661.036891905959
  0
LINE
  5
CB
100
AcDbEntity
  8
1
  6
CONTINUOUS
 62
           7
100
AcDbLine
 10
592.053083477292
 20
-658.984282565307
 11
593.238158032659
 21
-661.036891905959
  0
LINE
  5
CA
100
AcDbEntity
  8
1
  6
CONTINUOUS
 62
           7
100
AcDbLine
 10
590.038158032659
 20
-658.044707399863
 11
592.053083477292
 21
-658.984282565307
  0
LINE
  5
C9
100
AcDbEntity
  8
1
  6
CONTINUOUS
 62
           7
100
AcDbLine
 10
585.694494181209
 20
-655.536891905959
 11
590.038158032659
 21
-658.044707399863
  0
LINE
  5
C8
100
AcDbEntity
  8
1
  6
CONTINUOUS
 62
           7
100
AcDbLine
 10
586.238158032659
 20
-648.486891905959
 11
586.238158032659
 21
-646.536891905959
  0
LINE
  5
C7
100
AcDbEntity
  8
1
  6
CONTINUOUS
 62
           7
100
AcDbLine
 10
584.697215528072
 20
-655.536891905959
 11
585.694494181209
 21
-655.536891905959
  0
LINE
  5
C6
100
AcDbEntity
  8
1
  6
CONTINUOUS
 62
           7
100
AcDbLine
 10
586.238158032659
 20
-646.536891905959
 11
586.238158032659
 21
-644.586891905959
  0
LINE
  5
C5
100
AcDbEntity
  8
1
  6
CONTINUOUS
 62
           7
100
AcDbLine
 10
590.038158032659
 20
-635.029076412055
 11
585.694494181209
 21
-637.536891905959
  0
LINE
  5
C4
100
AcDbEntity
  8
1
  6
CONTINUOUS
 62
           7
100
AcDbLine
 10
592.053083477292
 20
-634.089501246611
 11
590.038158032659
 21
-635.029076412055
  0
LINE
  5
C3
100
AcDbEntity
  8
1
  6
CONTINUOUS
 62
           7
100
AcDbLine
 10
593.238158032659
 20
-632.036891905959
 11
592.053083477292
 21
-634.089501246611
  0
LINE
  5
C2
100
AcDbEntity
  8
1
  6
CONTINUOUS
 62
           7
100
AcDbLine
 10
577.738158032659
 20
-628.286891905959
 11
592.238158032659
 21
-628.286891905959
  0
LINE
  5
C1
100
AcDbEntity
  8
1
  6
CONTINUOUS
 62
           7
100
AcDbLine
 10
593.238158032659
 20
-632.036891905959
 11
593.238158032659
 21
-629.286891905959
  0
LINE
  5
C0
100
AcDbEntity
  8
1
  6
CONTINUOUS
 62
           7
100
AcDbLine
 10
593.238158032659
 20
-629.286891905959
 11
592.238158032659
 21
-628.286891905959
  0
LINE
  5
BF
100
AcDbEntity
  8
1
  6
CONTINUOUS
 62
           7
100
AcDbLine
 10
592.238158032659
 20
-664.786891905959
 11
577.738158032659
 21
-664.786891905959
  0
LINE
  5
BE
100
AcDbEntity
  8
1
  6
CONTINUOUS
 62
           7
100
AcDbLine
 10
584.220357052698
 20
-654.886539006207
 11
586.238158032659
 21
-648.486891905959
  0
LINE
  5
BD
100
AcDbEntity
  8
1
  6
CONTINUOUS
 62
           7
100
AcDbLine
 10
585.694494181209
 20
-637.536891905959
 11
584.697215528072
 21
-637.536891905959
  0
LINE
  5
BC
100
AcDbEntity
  8
1
  6
CONTINUOUS
 62
           7
100
AcDbLine
 10
586.238158032659
 20
-644.586891905959
 11
584.220357052698
 21
-638.187244805712
  0
LINE
  5
BB
100
AcDbEntity
  8
1
  6
CONTINUOUS
 62
           2
100
AcDbLine
 10
527.806142928628
 20
-646.536891905959
 11
527.806142928628
 21
-614.256177358304
  0
LINE
  5
BA
100
AcDbEntity
  8
1
  6
CONTINUOUS
 62
           2
100
AcDbLine
 10
527.806142928628
 20
-679.289091540935
 11
527.806142928628
 21
-646.536891905959
  0
LINE
  5
B9
100
AcDbEntity
  8
1
  6
CONTINUOUS
 62
           7
100
AcDbLine
 10
551.769246945904
 20
-646.536891905959
 11
551.769246945904
 21
-671.536891905959
  0
LINE
  5
B8
100
AcDbEntity
  8
1
  6
CONTINUOUS
 62
           7
100
AcDbLine
 10
551.769246945904
 20
-671.536891905959
 11
530.707069119413
 21
-683.697145943804
  0
LINE
  5
B7
100
AcDbEntity
  8
1
  6
CONTINUOUS
 62
           7
100
AcDbLine
 10
525.707069119413
 20
-685.036891905959
 11
330.469246945904
 21
-685.036891905959
  0
LINE
  5
B6
100
AcDbEntity
  8
1
  6
CONTINUOUS
 62
           7
100
AcDbLine
 10
330.469246945904
 20
-608.036891905959
 11
330.469246945904
 21
-685.036891905959
  0
LINE
  5
B5
100
AcDbEntity
  8
1
  6
CONTINUOUS
 62
           7
100
AcDbLine
 10
530.707069119413
 20
-609.376637868115
 11
551.769246945904
 21
-621.536891905959
  0
LINE
  5
B4
100
AcDbEntity
  8
1
  6
CONTINUOUS
 62
           7
100
AcDbLine
 10
551.769246945904
 20
-646.536891905959
 11
551.769246945904
 21
-621.536891905959
  0
LINE
  5
B3
100
AcDbEntity
  8
1
  6
CONTINUOUS
 62
           7
100
AcDbLine
 10
553.238158032659
 20
-623.286891905959
 11
551.769246945904
 21
-623.286891905959
  0
LINE
  5
B2
100
AcDbEntity
  8
1
  6
CONTINUOUS
 62
           7
100
AcDbLine
 10
574.738158032659
 20
-623.286891905959
 11
576.738158032659
 21
-623.286891905959
  0
LINE
  5
B1
100
AcDbEntity
  8
1
  6
CONTINUOUS
 62
           7
100
AcDbLine
 10
574.738158032659
 20
-622.836891905959
 11
574.438158032659
 21
-622.536891905959
  0
LINE
  5
B0
100
AcDbEntity
  8
1
  6
CONTINUOUS
 62
           7
100
AcDbLine
 10
574.738158032659
 20
-646.536891905959
 11
574.738158032659
 21
-622.836891905959
  0
LINE
  5
AF
100
AcDbEntity
  8
1
  6
CONTINUOUS
 62
           7
100
AcDbLine
 10
574.438158032659
 20
-622.536891905959
 11
553.538158032659
 21
-622.536891905959
  0
LINE
  5
AE
100
AcDbEntity
  8
1
  6
CONTINUOUS
 62
           7
100
AcDbLine
 10
553.238158032659
 20
-622.836891905959
 11
553.538158032659
 21
-622.536891905959
  0
LINE
  5
AD
100
AcDbEntity
  8
1
  6
CONTINUOUS
 62
           7
100
AcDbLine
 10
553.238158032659
 20
-646.536891905959
 11
553.238158032659
 21
-622.836891905959
  0
LINE
  5
AC
100
AcDbEntity
  8
1
  6
CONTINUOUS
 62
           7
100
AcDbLine
 10
577.738158032659
 20
-646.536891905959
 11
577.738158032659
 21
-624.288481366154
  0
LINE
  5
AB
100
AcDbEntity
  8
1
  6
CONTINUOUS
 62
           2
100
AcDbLine
 10
574.738158032659
 20
-642.369335641953
 11
553.238158032659
 21
-642.369335641953
  0
LINE
  5
AA
100
AcDbEntity
  8
1
  6
CONTINUOUS
 62
           2
100
AcDbLine
 10
553.238158032659
 20
-638.328408466143
 11
574.738158032659
 21
-638.328408466143
  0
LINE
  5
A9
100
AcDbEntity
  8
1
  6
CONTINUOUS
 62
           2
100
AcDbLine
 10
574.738158032659
 20
-634.536891905959
 11
553.238158032659
 21
-634.536891905959
  0
LINE
  5
A8
100
AcDbEntity
  8
1
  6
CONTINUOUS
 62
           2
100
AcDbLine
 10
553.238158032659
 20
-631.109989273483
 11
574.738158032659
 21
-631.109989273483
  0
LINE
  5
A7
100
AcDbEntity
  8
1
  6
CONTINUOUS
 62
           2
100
AcDbLine
 10
574.738158032659
 20
-628.151825271104
 11
553.238158032659
 21
-628.151825271104
  0
LINE
  5
A6
100
AcDbEntity
  8
1
  6
CONTINUOUS
 62
           2
100
AcDbLine
 10
553.238158032659
 20
-625.752282215133
 11
574.738158032659
 21
-625.752282215133
  0
LINE
  5
A5
100
AcDbEntity
  8
1
  6
CONTINUOUS
 62
           2
100
AcDbLine
 10
574.738158032659
 20
-623.984269007098
 11
553.238158032659
 21
-623.984269007098
  0
LINE
  5
A4
100
AcDbEntity
  8
1
  6
CONTINUOUS
 62
           2
100
AcDbLine
 10
553.238158032659
 20
-622.901505833666
 11
574.738158032659
 21
-622.901505833666
  0
LINE
  5
A3
100
AcDbEntity
  8
1
  6
CONTINUOUS
 62
           2
100
AcDbLine
 10
574.738158032659
 20
-670.172277978253
 11
553.238158032659
 21
-670.172277978253
  0
LINE
  5
A2
100
AcDbEntity
  8
1
  6
CONTINUOUS
 62
           2
100
AcDbLine
 10
553.238158032659
 20
-669.089514804821
 11
574.738158032659
 21
-669.089514804821
  0
LINE
  5
A1
100
AcDbEntity
  8
1
  6
CONTINUOUS
 62
           2
100
AcDbLine
 10
574.738158032659
 20
-667.321501596786
 11
553.238158032659
 21
-667.321501596786
  0
LINE
  5
A0
100
AcDbEntity
  8
1
  6
CONTINUOUS
 62
           2
100
AcDbLine
 10
553.238158032659
 20
-664.921958540815
 11
574.738158032659
 21
-664.921958540815
  0
LINE
  5
9F
100
AcDbEntity
  8
1
  6
CONTINUOUS
 62
           2
100
AcDbLine
 10
574.738158032659
 20
-661.963794538436
 11
553.238158032659
 21
-661.963794538436
  0
LINE
  5
9E
100
AcDbEntity
  8
1
  6
CONTINUOUS
 62
           2
100
AcDbLine
 10
553.238158032659
 20
-658.536891905959
 11
574.738158032659
 21
-658.536891905959
  0
LINE
  5
9D
100
AcDbEntity
  8
1
  6
CONTINUOUS
 62
           2
100
AcDbLine
 10
574.738158032659
 20
-654.745375345775
 11
553.238158032659
 21
-654.745375345775
  0
LINE
  5
9C
100
AcDbEntity
  8
1
  6
CONTINUOUS
 62
           2
100
AcDbLine
 10
553.238158032659
 20
-650.704448169966
 11
574.738158032659
 21
-650.704448169966
  0
LINE
  5
9B
100
AcDbEntity
  8
1
  6
CONTINUOUS
 62
           7
100
AcDbLine
 10
577.738158032659
 20
-668.785302445765
 11
577.738158032659
 21
-646.536891905959
  0
LINE
  5
9A
100
AcDbEntity
  8
1
  6
CONTINUOUS
 62
           7
100
AcDbLine
 10
553.238158032659
 20
-670.236891905959
 11
553.238158032659
 21
-646.536891905959
  0
LINE
  5
99
100
AcDbEntity
  8
1
  6
CONTINUOUS
 62
           7
100
AcDbLine
 10
553.538158032659
 20
-670.536891905959
 11
553.238158032659
 21
-670.236891905959
  0
LINE
  5
98
100
AcDbEntity
  8
1
  6
CONTINUOUS
 62
           7
100
AcDbLine
 10
553.538158032659
 20
-670.536891905959
 11
574.438158032659
 21
-670.536891905959
  0
LINE
  5
97
100
AcDbEntity
  8
1
  6
CONTINUOUS
 62
           7
100
AcDbLine
 10
574.738158032659
 20
-670.236891905959
 11
574.738158032659
 21
-646.536891905959
  0
LINE
  5
96
100
AcDbEntity
  8
1
  6
CONTINUOUS
 62
           7
100
AcDbLine
 10
574.438158032659
 20
-670.536891905959
 11
574.738158032659
 21
-670.236891905959
  0
LINE
  5
95
100
AcDbEntity
  8
1
  6
CONTINUOUS
 62
           7
100
AcDbLine
 10
576.738158032659
 20
-669.786891905959
 11
574.738158032659
 21
-669.786891905959
  0
LINE
  5
94
100
AcDbEntity
  8
1
  6
CONTINUOUS
 62
           7
100
AcDbLine
 10
551.769246945904
 20
-669.786891905959
 11
553.238158032659
 21
-669.786891905959
  0
LINE
  5
93
100
AcDbEntity
  8
1
  6
CONTINUOUS
 62
           7
100
AcDbLine
 10
329.469246945904
 20
-686.036891905959
 11
315.469327953443
 21
-686.036891905959
  0
LINE
  5
92
100
AcDbEntity
  8
1
  6
CONTINUOUS
 62
           7
100
AcDbLine
 10
280.469246945904
 20
-685.036891905959
 11
280.469246945904
 21
-608.036891905959
  0
LINE
  5
91
100
AcDbEntity
  8
1
  6
CONTINUOUS
 62
           7
100
AcDbLine
 10
291.469165938365
 20
-686.036891905959
 11
281.469246945904
 21
-686.036891905959
  0
LINE
  5
90
100
AcDbEntity
  8
1
  6
CONTINUOUS
 62
           7
100
AcDbLine
 10
86.089766730361
 20
-685.369428561772
 11
76.306944412646
 21
-675.586606244057
  0
LINE
  5
8F
100
AcDbEntity
  8
1
  6
CONTINUOUS
 62
           7
100
AcDbLine
 10
88.976530164556
 20
-689.670405558339
 11
48.365645106864
 21
-730.28129061603
  0
LINE
  5
8E
100
AcDbEntity
  8
1
  6
CONTINUOUS
 62
           7
100
AcDbLine
 10
72.005967416078
 20
-672.699842809862
 11
31.395082358387
 21
-713.310727867554
  0
LINE
  5
8D
100
AcDbEntity
  8
1
  6
CONTINUOUS
 62
           7
100
AcDbLine
 10
31.395082358387
 20
-721.796009241792
 11
39.880363732625
 21
-730.28129061603
  0
LINE
  5
8C
100
AcDbEntity
  8
1
  6
CONTINUOUS
 62
           7
100
AcDbLine
 10
73.420180978451
 20
-672.699842809862
 11
76.306944412646
 21
-675.586606244057
  0
LINE
  5
8B
100
AcDbEntity
  8
1
  6
CONTINUOUS
 62
           7
100
AcDbLine
 10
86.089766730361
 20
-685.369428561772
 11
88.976530164555
 21
-688.256191995966
  0
LINE
  5
8A
100
AcDbEntity
  8
1
  6
CONTINUOUS
 62
           7
100
AcDbLine
 10
104.073109788745
 20
-625.774920109416
 11
99.814993343851
 21
-637.473998891172
  0
LINE
  5
89
100
AcDbEntity
  8
1
  6
CONTINUOUS
 62
           7
100
AcDbLine
 10
87.763379208695
 20
-633.380272381339
 11
99.46245799045
 21
-637.638388826233
  0
LINE
  5
88
100
AcDbEntity
  8
1
  6
CONTINUOUS
 62
           7
100
AcDbLine
 10
91.857105718528
 20
-621.328658246183
 11
87.598989273634
 21
-633.027737027938
  0
LINE
  5
87
100
AcDbEntity
  8
1
  6
CONTINUOUS
 62
           7
100
AcDbLine
 10
103.908719853684
 20
-625.422384756016
 11
92.209641071929
 21
-621.164268311122
  0
LINE
  5
86
100
AcDbEntity
  8
1
  6
CONTINUOUS
 62
           7
100
AcDbLine
 10
97.152534264304
 20
-681.703918289556
 11
97.663060981169
 21
-683.609229935514
  0
LINE
  5
85
100
AcDbEntity
  8
1
  6
CONTINUOUS
 62
           7
100
AcDbLine
 10
92.540733375218
 20
-678.933598570331
 11
87.208763211589
 21
-684.265568733961
  0
LINE
  5
84
100
AcDbEntity
  8
1
  6
CONTINUOUS
 62
           7
100
AcDbLine
 10
82.742774404086
 20
-669.135639599199
 11
77.410804240456
 21
-674.467609762828
  0
LINE
  5
83
100
AcDbEntity
  8
1
  6
CONTINUOUS
 62
           7
100
AcDbLine
 10
79.972454684861
 20
-664.523838710112
 11
80.137695399723
 21
-664.568114826217
  0
LINE
  5
82
100
AcDbEntity
  8
1
  6
CONTINUOUS
 62
           7
100
AcDbLine
 10
72.51182475489
 20
-669.568630277262
 11
78.067143038903
 21
-664.013311993249
  0
LINE
  5
81
100
AcDbEntity
  8
1
  6
CONTINUOUS
 62
           7
100
AcDbLine
 10
90.037190336335
 20
-688.609745386559
 11
73.066627587858
 21
-671.639182638082
  0
LINE
  5
80
100
AcDbEntity
  8
1
  6
CONTINUOUS
 62
           7
100
AcDbLine
 10
97.663060981169
 20
-683.609229935514
 11
92.107742697155
 21
-689.164548219527
  0
LINE
  5
7F
100
AcDbEntity
  8
1
  6
CONTINUOUS
 62
           7
100
AcDbLine
 10
78.067143038903
 20
-664.013311993249
 11
79.972454684861
 21
-664.523838710112
  0
LINE
  5
7E
100
AcDbEntity
  8
1
  6
CONTINUOUS
 62
           7
100
AcDbLine
 10
73.066627587858
 20
-671.639182638082
 11
72.51182475489
 21
-669.568630277262
  0
LINE
  5
7D
100
AcDbEntity
  8
1
  6
CONTINUOUS
 62
           7
100
AcDbLine
 10
92.107742697155
 20
-689.164548219527
 11
90.037190336335
 21
-688.609745386559
  0
LINE
  5
7C
100
AcDbEntity
  8
1
  6
CONTINUOUS
 62
           7
100
AcDbLine
 10
86.443320120954
 20
-685.015875171179
 11
86.089766730361
 21
-685.369428561772
  0
LINE
  5
7B
100
AcDbEntity
  8
1
  6
CONTINUOUS
 62
           7
100
AcDbLine
 10
86.089766730361
 20
-685.369428561772
 11
76.306944412646
 21
-675.586606244057
  0
LINE
  5
7A
100
AcDbEntity
  8
1
  6
CONTINUOUS
 62
           7
100
AcDbLine
 10
76.306944412646
 20
-675.586606244057
 11
76.660497803239
 21
-675.233052853464
  0
LINE
  5
79
100
AcDbEntity
  8
1
  6
CONTINUOUS
 62
           7
100
AcDbLine
 10
110.470416648998
 20
-616.812437382609
 11
109.602175760663
 21
-611.888398617548
  0
LINE
  5
78
100
AcDbEntity
  8
1
  6
CONTINUOUS
 62
           7
100
AcDbLine
 10
108.528802098676
 20
-610.609201699679
 11
103.830338994746
 21
-608.899100983051
  0
LINE
  5
77
100
AcDbEntity
  8
1
  6
CONTINUOUS
 62
           7
100
AcDbLine
 10
102.185835136436
 20
-609.18907138315
 11
98.355612920841
 21
-612.403009431583
  0
LINE
  5
76
100
AcDbEntity
  8
1
  6
CONTINUOUS
 62
           7
100
AcDbLine
 10
97.784482724517
 20
-613.972176749552
 11
98.652723612851
 21
-618.896215514613
  0
LINE
  5
75
100
AcDbEntity
  8
1
  6
CONTINUOUS
 62
           7
100
AcDbLine
 10
99.726097274839
 20
-620.175412432482
 11
104.424560378769
 21
-621.88551314911
  0
LINE
  5
74
100
AcDbEntity
  8
1
  6
CONTINUOUS
 62
           7
100
AcDbLine
 10
106.069064237079
 20
-621.59554274901
 11
109.899286452674
 21
-618.381604700578
  0
LINE
  5
73
100
AcDbEntity
  8
1
  6
CONTINUOUS
 62
           7
100
AcDbLine
 10
78.570316872581
 20
-646.992919890709
 11
84.59901446322
 21
-649.187186365094
  0
LINE
  5
72
100
AcDbEntity
  8
1
  6
CONTINUOUS
 62
           7
100
AcDbLine
 10
76.52812325718
 20
-639.568672774858
 11
77.642181543009
 21
-645.886811277279
  0
LINE
  5
71
100
AcDbEntity
  8
1
  6
CONTINUOUS
 62
           7
100
AcDbLine
 10
81.936613055779
 20
-634.08795766655
 11
77.021973750969
 21
-638.211829694586
  0
LINE
  5
70
100
AcDbEntity
  8
1
  6
CONTINUOUS
 62
           7
100
AcDbLine
 10
89.38729646978
 20
-636.031489674091
 11
83.35859887914
 21
-633.837223199706
  0
LINE
  5
6F
100
AcDbEntity
  8
1
  6
CONTINUOUS
 62
           7
100
AcDbLine
 10
91.429490085181
 20
-643.455736789942
 11
90.315431799351
 21
-637.137598287521
  0
LINE
  5
6E
100
AcDbEntity
  8
1
  6
CONTINUOUS
 62
           7
100
AcDbLine
 10
86.021000286581
 20
-648.936451898251
 11
90.935639591391
 21
-644.812579870215
  0
LINE
  5
6D
100
AcDbEntity
  8
1
  6
CONTINUOUS
 62
           7
100
AcDbLine
 10
144.161363460408
 20
-655.32698865977
 11
137.843224957987
 21
-656.4410469456
  0
LINE
  5
6C
100
AcDbEntity
  8
1
  6
CONTINUOUS
 62
           7
100
AcDbLine
 10
136.737116344558
 20
-657.369182275171
 11
134.542849870172
 21
-663.397879865811
  0
LINE
  5
6B
100
AcDbEntity
  8
1
  6
CONTINUOUS
 62
           7
100
AcDbLine
 10
134.793584337016
 20
-664.819865689171
 11
138.917456365051
 21
-669.734504993981
  0
LINE
  5
6A
100
AcDbEntity
  8
1
  6
CONTINUOUS
 62
           7
100
AcDbLine
 10
140.274299445324
 20
-670.228355487771
 11
146.592437947745
 21
-669.114297201941
  0
LINE
  5
69
100
AcDbEntity
  8
1
  6
CONTINUOUS
 62
           7
100
AcDbLine
 10
147.698546561175
 20
-668.18616187237
 11
149.89281303556
 21
-662.15746428173
  0
LINE
  5
68
100
AcDbEntity
  8
1
  6
CONTINUOUS
 62
           7
100
AcDbLine
 10
149.642078568717
 20
-660.73547845837
 11
145.518206540681
 21
-655.820839153559
  0
LINE
  5
67
100
AcDbEntity
  8
1
  6
CONTINUOUS
 62
           3
100
AcDbLine
 10
93.041801044117
 20
-654.621289592233
 11
90.76748495891
 21
-655.022312880714
  0
LINE
  5
66
100
AcDbEntity
  8
1
  6
CONTINUOUS
 62
           3
100
AcDbLine
 10
93.831662731386
 20
-652.451162441968
 11
93.041801044117
 21
-654.621289592233
  0
LINE
  5
65
100
AcDbEntity
  8
1
  6
CONTINUOUS
 62
           3
100
AcDbLine
 10
92.347208333449
 20
-650.682058580184
 11
93.831662731386
 21
-652.451162441968
  0
LINE
  5
64
100
AcDbEntity
  8
1
  6
CONTINUOUS
 62
           3
100
AcDbLine
 10
90.072892248243
 20
-651.083081868665
 11
92.347208333449
 21
-650.682058580184
  0
LINE
  5
63
100
AcDbEntity
  8
1
  6
CONTINUOUS
 62
           3
100
AcDbLine
 10
89.283030560973
 20
-653.25320901893
 11
90.072892248243
 21
-651.083081868665
  0
LINE
  5
62
100
AcDbEntity
  8
1
  6
CONTINUOUS
 62
           3
100
AcDbLine
 10
90.76748495891
 20
-655.022312880714
 11
89.283030560973
 21
-653.25320901893
  0
LINE
  5
61
100
AcDbEntity
  8
1
  6
CONTINUOUS
 62
           3
100
AcDbLine
 10
129.037504530278
 20
-672.676083073142
 11
127.553050132341
 21
-670.906979211359
  0
LINE
  5
60
100
AcDbEntity
  8
1
  6
CONTINUOUS
 62
           3
100
AcDbLine
 10
127.553050132341
 20
-670.906979211359
 11
128.342911819611
 21
-668.736852061094
  0
LINE
  5
5F
100
AcDbEntity
  8
1
  6
CONTINUOUS
 62
           3
100
AcDbLine
 10
128.342911819611
 20
-668.736852061094
 11
130.617227904817
 21
-668.335828772612
  0
LINE
  5
5E
100
AcDbEntity
  8
1
  6
CONTINUOUS
 62
           3
100
AcDbLine
 10
130.617227904817
 20
-668.335828772612
 11
132.101682302754
 21
-670.104932634396
  0
LINE
  5
5D
100
AcDbEntity
  8
1
  6
CONTINUOUS
 62
           3
100
AcDbLine
 10
132.101682302754
 20
-670.104932634396
 11
131.311820615485
 21
-672.275059784661
  0
LINE
  5
5C
100
AcDbEntity
  8
1
  6
CONTINUOUS
 62
           3
100
AcDbLine
 10
131.311820615485
 20
-672.275059784661
 11
129.037504530278
 21
-672.676083073142
  0
LINE
  5
5B
100
AcDbEntity
  8
1
  6
CONTINUOUS
 62
           3
100
AcDbLine
 10
143.455261250265
 20
-633.063622045788
 11
141.180945165059
 21
-633.464645334269
  0
LINE
  5
5A
100
AcDbEntity
  8
1
  6
CONTINUOUS
 62
           3
100
AcDbLine
 10
144.245122937535
 20
-630.893494895523
 11
143.455261250265
 21
-633.063622045788
  0
LINE
  5
59
100
AcDbEntity
  8
1
  6
CONTINUOUS
 62
           3
100
AcDbLine
 10
142.760668539598
 20
-629.124391033739
 11
144.245122937535
 21
-630.893494895523
  0
LINE
  5
58
100
AcDbEntity
  8
1
  6
CONTINUOUS
 62
           3
100
AcDbLine
 10
140.486352454391
 20
-629.52541432222
 11
142.760668539598
 21
-629.124391033739
  0
LINE
  5
57
100
AcDbEntity
  8
1
  6
CONTINUOUS
 62
           3
100
AcDbLine
 10
139.696490767122
 20
-631.695541472485
 11
140.486352454391
 21
-629.52541432222
  0
LINE
  5
56
100
AcDbEntity
  8
1
  6
CONTINUOUS
 62
           3
100
AcDbLine
 10
141.180945165059
 20
-633.464645334269
 11
139.696490767122
 21
-631.695541472485
  0
LINE
  5
55
100
AcDbEntity
  8
1
  6
CONTINUOUS
 62
           7
100
AcDbLine
 10
127.287631840406
 20
-684.122426794025
 11
128.995887529008
 21
-685.108688675684
  0
LINE
  5
54
100
AcDbEntity
  8
1
  6
CONTINUOUS
 62
           7
100
AcDbLine
 10
102.991330296508
 20
-684.122426794025
 11
103.139481068457
 21
-684.03689190596
  0
LINE
  5
53
100
AcDbEntity
  8
1
  6
CONTINUOUS
 62
           7
100
AcDbLine
 10
122.067684298733
 20
-695.965095136235
 11
122.067684298733
 21
-685.424550616661
  0
LINE
  5
52
100
AcDbEntity
  8
1
  6
CONTINUOUS
 62
           7
100
AcDbLine
 10
108.211277838182
 20
-695.965095136235
 11
108.211277838182
 21
-685.424550616661
  0
LINE
  5
51
100
AcDbEntity
  8
1
  6
CONTINUOUS
 62
           7
100
AcDbLine
 10
128.995887529008
 20
-685.108688675684
 11
128.995887529008
 21
-695.965095136235
  0
LINE
  5
50
100
AcDbEntity
  8
1
  6
CONTINUOUS
 62
           7
100
AcDbLine
 10
101.283074607906
 20
-695.965095136235
 11
101.283074607906
 21
-685.108688675684
  0
LINE
  5
4F
100
AcDbEntity
  8
1
  6
CONTINUOUS
 62
           7
100
AcDbLine
 10
128.995887529008
 20
-695.965095136235
 11
127.139481068457
 21
-697.036891905959
  0
LINE
  5
4E
100
AcDbEntity
  8
1
  6
CONTINUOUS
 62
           7
100
AcDbLine
 10
101.283074607906
 20
-685.108688675684
 11
102.991330296508
 21
-684.122426794025
  0
LINE
  5
4D
100
AcDbEntity
  8
1
  6
CONTINUOUS
 62
           7
100
AcDbLine
 10
103.139481068457
 20
-697.03689190596
 11
101.283074607906
 21
-695.965095136235
  0
LINE
  5
4C
100
AcDbEntity
  8
1
  6
CONTINUOUS
 62
           7
100
AcDbLine
 10
103.139481068457
 20
-697.03689190596
 11
127.139481068457
 21
-697.036891905959
  0
LINE
  5
4B
100
AcDbEntity
  8
1
  6
CONTINUOUS
 62
           7
100
AcDbLine
 10
122.056981068457
 20
-699.53689190596
 11
122.056981068457
 21
-697.03689190596
  0
LINE
  5
4A
100
AcDbEntity
  8
1
  6
CONTINUOUS
 62
           7
100
AcDbLine
 10
108.221981068457
 20
-699.53689190596
 11
108.221981068457
 21
-697.03689190596
  0
LINE
  5
49
100
AcDbEntity
  8
1
  6
CONTINUOUS
 62
           7
100
AcDbLine
 10
125.139481068457
 20
-699.53689190596
 11
105.139481068457
 21
-699.53689190596
  0
LINE
  5
48
100
AcDbEntity
  8
1
  6
CONTINUOUS
 62
           7
100
AcDbLine
 10
105.139481068457
 20
-699.53689190596
 11
105.139481068457
 21
-756.036891905959
  0
LINE
  5
47
100
AcDbEntity
  8
1
  6
CONTINUOUS
 62
           7
100
AcDbLine
 10
106.139481068457
 20
-757.036891905959
 11
124.139481068457
 21
-757.036891905959
  0
LINE
  5
46
100
AcDbEntity
  8
1
  6
CONTINUOUS
 62
           7
100
AcDbLine
 10
125.139481068457
 20
-756.036891905959
 11
125.139481068457
 21
-699.53689190596
  0
LINE
  5
45
100
AcDbEntity
  8
1
  6
CONTINUOUS
 62
           7
100
AcDbLine
 10
125.139481068457
 20
-756.036891905959
 11
124.139481068457
 21
-757.036891905959
  0
LINE
  5
44
100
AcDbEntity
  8
1
  6
CONTINUOUS
 62
           7
100
AcDbLine
 10
106.139481068457
 20
-757.036891905959
 11
105.139481068457
 21
-756.036891905959
  0
LINE
  5
43
100
AcDbEntity
  8
1
  6
CONTINUOUS
 62
           7
100
AcDbLine
 10
125.139481068457
 20
-756.036891905959
 11
105.139481068457
 21
-756.036891905959
  0
LINE
  5
42
100
AcDbEntity
  8
1
  6
CONTINUOUS
 62
           7
100
AcDbLine
 10
115.883212148125
 20
-641.020084074853
 11
106.644896537876
 21
-642.64904837324
  0
LINE
  5
41
100
AcDbEntity
  8
1
  6
CONTINUOUS
 62
           7
100
AcDbLine
 10
124.145767995946
 20
-649.018844657697
 11
118.115885726559
 21
-641.832710800235
  0
LINE
  5
40
100
AcDbEntity
  8
1
  6
CONTINUOUS
 62
           7
100
AcDbLine
 10
121.349916056323
 20
-660.173808213519
 11
124.558349397187
 21
-651.358710057669
  0
LINE
  5
3F
100
AcDbEntity
  8
1
  6
CONTINUOUS
 62
           7
100
AcDbLine
 10
110.291508268882
 20
-663.330011186497
 11
119.529823879131
 21
-661.701046888109
  0
LINE
  5
3E
100
AcDbEntity
  8
1
  6
CONTINUOUS
 62
           7
100
AcDbLine
 10
102.028952421062
 20
-655.331250603653
 11
108.058834690447
 21
-662.517384461113
  0
LINE
  5
3D
100
AcDbEntity
  8
1
  6
CONTINUOUS
 62
           7
100
AcDbLine
 10
104.824804360682
 20
-644.176287047832
 11
101.616371019819
 21
-652.991385203678
  0
LINE
  5
3C
100
AcDbEntity
  8
1
  6
CONTINUOUS
 62
           3
100
AcDbLine
 10
137.423125301541
 20
-624.784441954601
 11
137.13104945198
 21
-625.58691375604
  0
LINE
  5
3B
100
AcDbEntity
  8
1
  6
CONTINUOUS
 62
           3
100
AcDbLine
 10
136.450997709072
 20
-619.271232413083
 11
135.902074667986
 21
-618.617051406811
  0
LINE
  5
3A
100
AcDbEntity
  8
1
  6
CONTINUOUS
 62
           3
100
AcDbLine
 10
130.013968609791
 20
-636.95682451173
 11
129.172969719144
 21
-637.105115306897
  0
LINE
  5
39
100
AcDbEntity
  8
1
  6
CONTINUOUS
 62
           3
100
AcDbLine
 10
134.302484332899
 20
-633.358332550173
 11
134.59456018246
 21
-632.555860748734
  0
LINE
  5
38
100
AcDbEntity
  8
1
  6
CONTINUOUS
 62
           3
100
AcDbLine
 10
115.76779774486
 20
-636.626497874619
 11
115.218874703774
 21
-635.972316868347
  0
LINE
  5
37
100
AcDbEntity
  8
1
  6
CONTINUOUS
 62
           7
100
AcDbLine
 10
121.028441060437
 20
-638.541215454581
 11
121.869439951084
 21
-638.392924659413
  0
LINE
  5
36
100
AcDbEntity
  8
1
  6
CONTINUOUS
 62
           3
100
AcDbLine
 10
108.930783571679
 20
-624.12378868038
 11
109.222859421241
 21
-623.321316878941
  0
LINE
  5
35
100
AcDbEntity
  8
1
  6
CONTINUOUS
 62
           3
100
AcDbLine
 10
109.902911164148
 20
-629.636998221898
 11
110.451834205234
 21
-630.29117922817
  0
LINE
  5
34
100
AcDbEntity
  8
1
  6
CONTINUOUS
 62
           3
100
AcDbLine
 10
116.339940263429
 20
-611.951406123251
 11
117.180939154077
 21
-611.803115328084
  0
LINE
  5
33
100
AcDbEntity
  8
1
  6
CONTINUOUS
 62
           3
100
AcDbLine
 10
112.051424540322
 20
-615.549898084808
 11
111.75934869076
 21
-616.352369886247
  0
LINE
  5
32
100
AcDbEntity
  8
1
  6
CONTINUOUS
 62
           3
100
AcDbLine
 10
130.586111128361
 20
-612.281732760362
 11
131.135034169446
 21
-612.935913766633
  0
LINE
  5
31
100
AcDbEntity
  8
1
  6
CONTINUOUS
 62
           3
100
AcDbLine
 10
125.325467812784
 20
-610.3670151804
 11
124.484468922136
 21
-610.515305975567
  0
LINE
  5
30
100
AcDbEntity
  8
1
  6
DOT_CENTER
 62
           3
100
AcDbLine
 10
127.644678438469
 20
-616.502633916801
 11
124.803524103845
 21
-615.468538308042
  0
LINE
  5
2F
100
AcDbEntity
  8
1
  6
DOT_CENTER
 62
           3
100
AcDbLine
 10
118.647161523983
 20
-632.383005482187
 11
121.488315858608
 21
-633.417101090947
  0
LINE
  5
2E
100
AcDbEntity
  8
1
  6
CONTINUOUS
 62
           3
100
AcDbLine
 10
76.398157793956
 20
-654.569276804242
 11
77.54705327337
 21
-658.855660933188
  0
LINE
  5
2D
100
AcDbEntity
  8
1
  6
CONTINUOUS
 62
           3
100
AcDbLine
 10
80.278205464659
 20
-627.83259020908
 11
78.402441496359
 21
-631.854350925324
  0
LINE
  5
2C
100
AcDbEntity
  8
1
  6
DOT_CENTER
 62
           3
100
AcDbLine
 10
76.895209435905
 20
-628.703060396919
 11
79.764524641621
 21
-630.041319546658
  0
LINE
  5
2B
100
AcDbEntity
  8
1
  6
DOT_CENTER
 62
           3
100
AcDbLine
 10
74.420365176294
 20
-657.447762940452
 11
77.245717418257
 21
-656.690473271376
  0
LINE
  5
2A
100
AcDbEntity
  8
1
  6
DOT_CENTER
 62
           2
100
AcDbLine
 10
28.804270563144
 20
-732.872102411273
 11
149.870952847231
 21
-611.805420127186
  0
LINE
  5
29
100
AcDbEntity
  8
1
  6
DOT_CENTER
 62
           2
100
AcDbLine
 10
115.139481068457
 20
-761.981024561211
 11
115.139481068457
 21
-598.157788283853
  0
LINE
  5
28
100
AcDbEntity
  8
1
  6
DOT_CENTER
 62
           2
100
AcDbLine
 10
61.137986487488
 20
-646.536891905959
 11
168.564727864453
 21
-646.536891905959
  0
ENDSEC
  0
SECTION
  2
OBJECTS
  0
DICTIONARY
  5
19
100
AcDbDictionary
  3
ACAD_GROUP
350
1A
  3
ACAD_MLINESTYLE
350
1B
  0
DICTIONARY
  5
1A
102
{ACAD_REACTORS
330
19
102
}
100
AcDbDictionary
  0
DICTIONARY
  5
1B
102
{ACAD_REACTORS
330
19
102
}
100
AcDbDictionary
  3
STANDARD
350
1C
  0
MLINESTYLE
  5
1C
102
{ACAD_REACTORS
330
1B
102
}
100
AcDbMlineStyle
  2
STANDARD
 70
           0
  3

 62
           0
 51
90.0
 52
90.0
 71
           2
 49
0.5
 62
         256
  6
BYLAYER
 49
-0.5
 62
         256
  6
BYLAYER
  0
ENDSEC
  0
EOF
