  0
SECTION
  2
HEADER
  9
$ACADVER
  1
AC1014
  9
$ACADMAINTVER
 70
           0
  9
$DWGCODEPAGE
  3
DOS932
  9
$INSBASE
 10
0.0
 20
0.0
 30
0.0
  9
$EXTMIN
 10
1.000000000000E+20
 20
1.000000000000E+20
 30
1.000000000000E+20
  9
$EXTMAX
 10
-1.000000000000E+20
 20
-1.000000000000E+20
 30
-1.000000000000E+20
  9
$LIMMIN
 10
0.0
 20
0.0
  9
$LIMMAX
 10
0.0
 20
0.0
  9
$ORTHOMODE
 70
           0
  9
$REGENMODE
 70
           1
  9
$FILLMODE
 70
           1
  9
$QTEXTMODE
 70
           0
  9
$MIRRTEXT
 70
           1
  9
$DRAGMODE
 70
           2
  9
$LTSCALE
 40
1.0
  9
$OSMODE
 70
           0
  9
$ATTMODE
 70
           1
  9
$TEXTSIZE
 40
0.2
  9
$TRACEWID
 40
0.05
  9
$TEXTSTYLE
  7
STANDARD
  9
$CLAYER
  8
0
  9
$CELTYPE
  6
CONTINUOUS
  9
$CECOLOR
 62
         256
  9
$CELTSCALE
 40
1.0
  9
$DELOBJ
 70
           1
  9
$DISPSILH
 70
           0
  9
$DIMSCALE
 40
1.0
  9
$DIMASZ
 40
0.18
  9
$DIMEXO
 40
0.0625
  9
$DIMDLI
 40
0.38
  9
$DIMRND
 40
0.0
  9
$DIMDLE
 40
0.0
  9
$DIMEXE
 40
0.18
  9
$DIMTP
 40
0.0
  9
$DIMTM
 40
0.0
  9
$DIMTXT
 40
0.18
  9
$DIMCEN
 40
0.09
  9
$DIMTSZ
 40
0.0
  9
$DIMTOL
 70
           0
  9
$DIMLIM
 70
           0
  9
$DIMTIH
 70
           1
  9
$DIMTOH
 70
           1
  9
$DIMSE1
 70
           0
  9
$DIMSE2
 70
           0
  9
$DIMTAD
 70
           0
  9
$DIMZIN
 70
           0
  9
$DIMBLK
  1

  9
$DIMASO
 70
           1
  9
$DIMSHO
 70
           1
  9
$DIMPOST
  1

  9
$DIMAPOST
  1

  9
$DIMALT
 70
           0
  9
$DIMALTD
 70
           2
  9
$DIMALTF
 40
25.4
  9
$DIMLFAC
 40
1.0
  9
$DIMTOFL
 70
           0
  9
$DIMTVP
 40
0.0
  9
$DIMTIX
 70
           0
  9
$DIMSOXD
 70
           0
  9
$DIMSAH
 70
           0
  9
$DIMBLK1
  1

  9
$DIMBLK2
  1

  9
$DIMSTYLE
  2
STANDARD
  9
$DIMCLRD
 70
           0
  9
$DIMCLRE
 70
           0
  9
$DIMCLRT
 70
           0
  9
$DIMTFAC
 40
1.0
  9
$DIMGAP
 40
0.09
  9
$DIMJUST
 70
           0
  9
$DIMSD1
 70
           0
  9
$DIMSD2
 70
           0
  9
$DIMTOLJ
 70
           1
  9
$DIMTZIN
 70
           0
  9
$DIMALTZ
 70
           0
  9
$DIMALTTZ
 70
           0
  9
$DIMFIT
 70
           3
  9
$DIMUPT
 70
           0
  9
$DIMUNIT
 70
           2
  9
$DIMDEC
 70
           4
  9
$DIMTDEC
 70
           4
  9
$DIMALTU
 70
           2
  9
$DIMALTTD
 70
           2
  9
$DIMTXSTY
  7
STANDARD
  9
$DIMAUNIT
 70
           0
  9
$LUNITS
 70
           2
  9
$LUPREC
 70
           4
  9
$SKETCHINC
 40
0.1
  9
$FILLETRAD
 40
0.0
  9
$AUNITS
 70
           0
  9
$AUPREC
 70
           0
  9
$MENU
  1
acad
  9
$ELEVATION
 40
0.0
  9
$PELEVATION
 40
0.0
  9
$THICKNESS
 40
0.0
  9
$LIMCHECK
 70
           0
  9
$BLIPMODE
 70
           1
  9
$CHAMFERA
 40
0.0
  9
$CHAMFERB
 40
0.0
  9
$CHAMFERC
 40
0.0
  9
$CHAMFERD
 40
0.0
  9
$SKPOLY
 70
           0
  9
$TDCREATE
 40
0.000000000
  9
$TDUPDATE
 40
0.000000000
  9
$TDINDWG
 40
0.0000000000
  9
$TDUSRTIMER
 40
0.0000000000
  9
$USRTIMER
 70
           1
  9
$ANGBASE
 50
0.0
  9
$ANGDIR
 70
           0
  9
$PDMODE
 70
           0
  9
$PDSIZE
 40
0.0
  9
$PLINEWID
 40
0.0
  9
$COORDS
 70
           0
  9
$SPLFRAME
 70
           0
  9
$SPLINETYPE
 70
           6
  9
$SPLINESEGS
 70
           8
  9
$ATTDIA
 70
           0
  9
$ATTREQ
 70
           1
  9
$HANDLING
 70
           1
  9
$HANDSEED
  5
329
  9
$SURFTAB1
 70
           6
  9
$SURFTAB2
 70
           6
  9
$SURFTYPE
 70
           6
  9
$SURFU
 70
           6
  9
$SURFV
 70
           6
  9
$UCSNAME
  2

  9
$UCSORG
 10
0.0
 20
0.0
 30
0.0
  9
$UCSXDIR
 10
1.0
 20
0.0
 30
0.0
  9
$UCSYDIR
 10
0.0
 20
1.0
 30
0.0
  9
$PUCSNAME
  2

  9
$PUCSORG
 10
0.0
 20
0.0
 30
0.0
  9
$PUCSXDIR
 10
1.0
 20
0.0
 30
0.0
  9
$PUCSYDIR
 10
0.0
 20
1.0
 30
0.0
  9
$USERI1
 70
           0
  9
$USERI2
 70
           0
  9
$USERI3
 70
           0
  9
$USERI4
 70
           0
  9
$USERI5
 70
           0
  9
$USERR1
 40
0.0
  9
$USERR2
 40
0.0
  9
$USERR3
 40
0.0
  9
$USERR4
 40
0.0
  9
$USERR5
 40
0.0
  9
$WORLDVIEW
 70
           1
  9
$SHADEDGE
 70
           3
  9
$SHADEDIF
 70
          70
  9
$TILEMODE
 70
           1
  9
$MAXACTVP
 70
          16
  9
$PINSBASE
 10
0.0
 20
0.0
 30
0.0
  9
$PLIMCHECK
 70
           0
  9
$PEXTMIN
 10
1.000000000000E+20
 20
1.000000000000E+20
 30
1.000000000000E+20
  9
$PEXTMAX
 10
-1.000000000000E+20
 20
-1.000000000000E+20
 30
-1.000000000000E+20
  9
$PLIMMIN
 10
0.0
 20
0.0
  9
$PLIMMAX
 10
12.0
 20
9.0
  9
$UNITMODE
 70
           0
  9
$VISRETAIN
 70
           0
  9
$PLINEGEN
 70
           1
  9
$PSLTSCALE
 70
           0
  9
$TREEDEPTH
 70
        3020
  9
$PICKSTYLE
 70
           1
  9
$CMLSTYLE
  2
STANDARD
  9
$CMLJUST
 70
           0
  9
$CMLSCALE
 40
1.0
  9
$PROXYGRAPHICS
 70
           0
  9
$MEASUREMENT
 70
           0
  0
ENDSEC
  0
SECTION
  2
CLASSES
  0
CLASS
  1
LWPOLYLINE
  2
AcDbPolyline
  3
"AutoCAD"
 90
        0
280
           0
281
           1
  0
CLASS
  1
IMAGE
  2
AcDbRasterImage
  3
ISM
 90
      127
280
           0
281
           1
  0
CLASS
  1
OLE2FRAME
  2
AcDbOle2Frame
  3
""
 90
        0
280
           0
281
           1
  0
CLASS
  1
HATCH
  2
AcDbHatch
  3
"ACAD_SEDONA"
 90
        0
280
           0
281
           1
  0
CLASS
  1
DICTIONARYVAR
  2
AcDbDictionaryVar
  3
"AutoCAD"
 90
        0
280
           0
281
           0
  0
CLASS
  1
RASTERVARIABLES
  2
AcDbRasterVariables
  3
ISM
 90
        0
280
           0
281
           0
  0
CLASS
  1
IMAGEDEF
  2
AcDbRasterImageDef
  3
ISM
 90
        0
280
           0
281
           0
  0
CLASS
  1
IMAGEDEF_REACTOR
  2
AcDbRasterImageDefReactor
  3
ISM
 90
        1
280
           0
281
           0
  0
CLASS
  1
IDBUFFER
  2
AcDbIdBuffer
  3
"Acad"
 90
        0
280
           0
281
           0
  0
CLASS
  1
SPATIAL_FILTER
  2
AcDbSpatialFilter
  3
"Acad"
 90
        0
280
           0
281
           0
  0
CLASS
  1
XRECORD
  2
AcDbXrecord
  3
"<Built In>"
 90
        0
280
           0
281
           0
  0
CLASS
  1
SORTENTSTABLE
  2
AcDbSortentsTable
  3
"AutoCAD"
 90
        0
280
           0
281
           0
  0
CLASS
  1
LAYER_INDEX
  2
AcDbLayerIndex
  3
"Acad"
 90
        0
280
           0
281
           0
  0
CLASS
  1
SPATIAL_INDEX
  2
AcDbSpatialIndex
  3
"Acad"
 90
        0
280
           0
281
           0
  0
CLASS
  1
OBJECT_PTR
  2
CAseDLPNTableRecord
  3
"ASE-LPNTableRecord"
 90
        1
280
           0
281
           0
  0
CLASS
  1
LAYOUT
  2
AcDbLayout
  3
"AutoCAD 2000"
 90
        1
280
           0
281
           0
  0
CLASS
  1
PLOTSETTINGS
  2
AcDbPlotSettings
  3
"AutoCAD 2000"
 90
        1
280
           0
281
           0
  0
CLASS
  1
ACDBDICTIONARYWDFLT
  2
AcDbDictionaryWithDefault
  3
"AutoCAD 2000"
 90
        1
280
           0
281
           0
  0
CLASS
  1
ACDBPLACEHOLDER
  2
AcDbPlaceHolder
  3
"AutoCAD 2000"
 90
        1
280
           0
281
           0
  0
CLASS
  1
VBA_PROJECT
  2
AcDbVbaProject
  3
"acadvba"
 90
        1
280
           0
281
           0
  0
CLASS
  1
WIPEOUT
  2
AcDbWipeout
  3
WipeOut|AutoCAD Express Tool|expresstools@autodesk.com
 90
      127
280
           0
281
           1
  0
CLASS
  1
WIPEOUTVARIABLES
  2
AcDbWipeoutVariables
  3
WipeOut|AutoCAD Express Tool|expresstools@autodesk.com
 90
        0
280
           0
281
           0
  0
CLASS
  1
RTEXT
  2
RText
  3
RText|AutoCAD Express Tool|expresstools@autodesk.com
 90
        0
280
           0
281
           1
  0
CLASS
  1
ARCALIGNEDTEXT
  2
AcDbArcAlignedText
  3
ATEXT|AutoCAD Express Tool|expresstools@autodesk.com
 90
        0
280
           0
281
           1
  0
ENDSEC
  0
SECTION
  2
TABLES
  0
TABLE
  2
VPORT
  5
7
100
AcDbSymbolTable
 70
           1
  0
VPORT
  5
15
100
AcDbSymbolTableRecord
100
AcDbViewportTableRecord
  2
*ACTIVE
 70
           0
 10
0.0
 20
0.0
 11
1.0
 21
1.0
 12
6.591288
 22
4.579184
 13
0.0
 23
0.0
 14
1.0
 24
1.0
 15
0.0
 25
0.0
 16
0.0
 26
0.0
 36
1.0
 17
0.0
 27
0.0
 37
0.0
 40
9.158369
 41
0.688564
 42
50.0
 43
0.0
 44
0.0
 50
0.0
 51
0.0
 71
           0
 72
         100
 73
           1
 74
           1
 75
           0
 76
           0
 77
           0
 78
           0
  0
ENDTAB
  0
TABLE
  2
LTYPE
  5
4
100
AcDbSymbolTable
 70
          10
  0
LTYPE
  5
11
100
AcDbSymbolTableRecord
100
AcDbLinetypeTableRecord
  2
BYBLOCK
 70
          64
  3

 72
          65
 73
           0
 40
0.0
  0
LTYPE
  5
12
100
AcDbSymbolTableRecord
100
AcDbLinetypeTableRecord
  2
BYLAYER
 70
          64
  3

 72
          65
 73
           0
 40
0.0
  0
LTYPE
  5
13
100
AcDbSymbolTableRecord
100
AcDbLinetypeTableRecord
  2
CONTINUOUS
 70
          64
  3
Solid line
 72
          65
 73
           0
 40
0.0
  0
LTYPE
  5
1D
100
AcDbSymbolTableRecord
100
AcDbLinetypeTableRecord
  2
DASHED
 70
          64
  3
Dashed
 72
          65
 73
           2
 40
15.0
 49
12.0
 74
           0
 49
-3.0
 74
           0
  0
LTYPE
  5
1E
100
AcDbSymbolTableRecord
100
AcDbLinetypeTableRecord
  2
DOTTED
 70
          64
  3
Dotted
 72
          65
 73
           2
 40
3.5
 49
0.5
 74
           0
 49
-3.0
 74
           0
  0
LTYPE
  5
1F
100
AcDbSymbolTableRecord
100
AcDbLinetypeTableRecord
  2
DOT_CENTER
 70
          64
  3
Dot_Center
 72
          65
 73
           4
 40
2.0
 49
1.25
 74
           0
 49
-0.25
 74
           0
 49
0.25
 74
           0
 49
-0.25
 74
           0
  0
LTYPE
  5
20
100
AcDbSymbolTableRecord
100
AcDbLinetypeTableRecord
  2
LONG_DASHED
 70
          64
  3
Long_Dashed
 72
          65
 73
           2
 40
2.0
 49
1.5
 74
           0
 49
-0.5
 74
           0
  0
LTYPE
  5
21
100
AcDbSymbolTableRecord
100
AcDbLinetypeTableRecord
  2
DASH_CENTER
 70
          64
  3
Dash_Center
 72
          65
 73
           4
 40
36.0
 49
24.0
 74
           0
 49
-3.0
 74
           0
 49
6.0
 74
           0
 49
-3.0
 74
           0
  0
LTYPE
  5
22
100
AcDbSymbolTableRecord
100
AcDbLinetypeTableRecord
  2
PHANTOM
 70
          64
  3
Phantom
 72
          65
 73
           6
 40
2.5
 49
1.25
 74
           0
 49
-0.25
 74
           0
 49
0.25
 74
           0
 49
-0.25
 74
           0
 49
0.25
 74
           0
 49
-0.25
 74
           0
  0
LTYPE
  5
23
100
AcDbSymbolTableRecord
100
AcDbLinetypeTableRecord
  2
CENTER_DASH_DASH
 70
          64
  3
Center_Dash_Dash
 72
          65
 73
           6
 40
22.0
 49
12.0
 74
           0
 49
-3.0
 74
           0
 49
0.5
 74
           0
 49
-3.0
 74
           0
 49
0.5
 74
           0
 49
-3.0
 74
           0
  0
ENDTAB
  0
TABLE
  2
LAYER
  5
2
100
AcDbSymbolTable
 70
           2
  0
LAYER
  5
14
100
AcDbSymbolTableRecord
100
AcDbLayerTableRecord
  2
0
 70
           0
 62
           7
  6
CONTINUOUS
  0
LAYER
  5
24
100
AcDbSymbolTableRecord
100
AcDbLayerTableRecord
  2
1
 70
           0
 62
           7
  6
CONTINUOUS
  0
ENDTAB
  0
TABLE
  2
STYLE
  5
3
100
AcDbSymbolTable
 70
           6
  0
STYLE
  5
17
100
AcDbSymbolTableRecord
100
AcDbTextStyleTableRecord
  2
STANDARD
 70
           0
 40
0.0
 41
1.0
 50
0.0
 71
           0
 42
0.0
  3
txt
  4

  0
STYLE
  5
2E7
100
AcDbSymbolTableRecord
100
AcDbTextStyleTableRecord
  2
CONVERTER_1
 70
           0
 40
0.0
 41
0.95
 50
0.0
 71
           0
 42
0.0
  3
complex.shx
  4

  0
STYLE
  5
2EC
100
AcDbSymbolTableRecord
100
AcDbTextStyleTableRecord
  2
CONVERTER_2
 70
           0
 40
0.0
 41
0.855
 50
0.0
 71
           0
 42
0.0
  3
complex.shx
  4

  0
STYLE
  5
2EF
100
AcDbSymbolTableRecord
100
AcDbTextStyleTableRecord
  2
CONVERTER_3
 70
           0
 40
0.0
 41
0.89
 50
0.0
 71
           0
 42
0.0
  3
MS Mincho.ttf
  4

1001
ACAD
1000
MS Mincho
1071
    32785
  0
STYLE
  5
30E
100
AcDbSymbolTableRecord
100
AcDbTextStyleTableRecord
  2
CONVERTER_4
 70
           0
 40
0.0
 41
0.76
 50
0.0
 71
           0
 42
0.0
  3
complex.shx
  4

  0
STYLE
  5
312
100
AcDbSymbolTableRecord
100
AcDbTextStyleTableRecord
  2
CONVERTER_5
 70
           0
 40
0.0
 41
0.801
 50
0.0
 71
           0
 42
0.0
  3
MS Mincho.ttf
  4

1001
ACAD
1000
MS Mincho
1071
    32785
  0
ENDTAB
  0
TABLE
  2
VIEW
  5
5
100
AcDbSymbolTable
 70
           0
  0
ENDTAB
  0
TABLE
  2
UCS
  5
6
100
AcDbSymbolTable
 70
           0
  0
ENDTAB
  0
TABLE
  2
APPID
  5
8
100
AcDbSymbolTable
 70
           1
  0
APPID
  5
16
100
AcDbSymbolTableRecord
100
AcDbRegAppTableRecord
  2
ACAD
 70
           0
  0
ENDTAB
  0
TABLE
  2
DIMSTYLE
  5
9
100
AcDbSymbolTable
 70
           1
  0
DIMSTYLE
105
18
100
AcDbSymbolTableRecord
100
AcDbDimStyleTableRecord
  2
STANDARD
 70
           0
  3

  4

  5

  6

  7

 40
1.0
 41
0.18
 42
0.0625
 43
0.38
 44
0.18
 45
0.0
 46
0.0
 47
0.0
 48
0.0
 71
           0
 72
           0
 73
           1
 74
           1
 75
           0
 76
           0
 77
           0
 78
           0
140
0.18
141
0.09
142
0.0
143
25.4
144
1.0
145
0.0
146
1.0
147
0.09
170
           0
171
           2
172
           0
173
           0
174
           0
175
           0
176
           0
177
           0
178
           0
270
           2
271
           4
272
           4
273
           2
274
           2
275
           0
280
           0
281
           0
282
           0
283
           1
284
           0
285
           0
286
           0
287
           0
288
           0
340
17
  0
ENDTAB
  0
TABLE
  2
BLOCK_RECORD
  5
1
100
AcDbSymbolTable
 70
           0
  0
BLOCK_RECORD
  5
A
100
AcDbSymbolTableRecord
100
AcDbBlockTableRecord
  2
*MODEL_SPACE
  0
BLOCK_RECORD
  5
B
100
AcDbSymbolTableRecord
100
AcDbBlockTableRecord
  2
*PAPER_SPACE
  0
ENDTAB
  0
ENDSEC
  0
SECTION
  2
BLOCKS
  0
BLOCK
  5
D
100
AcDbEntity
  8
0
100
AcDbBlockBegin
  2
*MODEL_SPACE
 70
           0
 10
0.0
 20
0.0
 30
0.0
  3
*MODEL_SPACE
  1

  0
ENDBLK
  5
E
100
AcDbEntity
  8
0
100
AcDbBlockEnd
  0
BLOCK
  5
F
100
AcDbEntity
 67
           1
  8
0
100
AcDbBlockBegin
  2
*PAPER_SPACE
 70
           0
 10
0.0
 20
0.0
 30
0.0
  3
*PAPER_SPACE
  1

  0
ENDBLK
  5
10
100
AcDbEntity
 67
           1
  8
0
100
AcDbBlockEnd
  0
ENDSEC
  0
SECTION
  2
ENTITIES
  0
HATCH
  5
327
100
AcDbEntity
  8
0
  6
CONTINUOUS
 62
           5
100
AcDbHatch
 10
0.0
 20
0.0
 30
0.0
210
0.0
220
0.0
230
1.0
  2
USER
 70
           0
 71
           1
 91
        2
 92
        1
 93
        8
 72
           1
 10
195.02974348802621
 20
-250.51305183070011
 11
195.02974348802621
 21
-356.7930518307021
 72
           2
 10
188.78974348802461
 20
-356.7930518307021
 40
6.2400000000000091
 50
-90.0
 51
0.0
 73
           1
 72
           1
 10
188.78974348802461
 20
-363.03305183070211
 11
11.50974348802581
 21
-363.03305183070211
 72
           2
 10
11.50974348802581
 20
-356.7930518307021
 40
6.240000000001606
 50
180.0
 51
-90.0
 73
           1
 72
           1
 10
5.2697434880242042
 20
-356.7930518307021
 11
5.2697434880242042
 21
-250.51305183070011
 72
           2
 10
11.50974348802581
 20
-250.51305183070011
 40
6.2399999999980196
 50
90.0
 51
180.0
 73
           1
 72
           1
 10
11.50974348802581
 20
-244.27305183070209
 11
188.78974348802461
 21
-244.27305183070209
 72
           2
 10
188.78974348802461
 20
-250.51305183070011
 40
6.2400000000016007
 50
0.0
 51
90.0
 73
           1
 97
        8
330
1DE
330
2D0
330
1DD
330
2D4
330
1DC
330
2D5
330
1DF
330
2D3
 92
       16
 93
       12
 72
           1
 10
18.863163287410522
 20
-360.16399945021612
 11
24.848163287410518
 21
-360.16399945021612
 72
           1
 10
24.848163287410518
 20
-360.16399945021612
 11
24.848163287410518
 21
-357.16399945021612
 72
           1
 10
24.848163287410518
 20
-357.16399945021612
 11
18.863163287410522
 21
-357.16399945021612
 72
           1
 10
18.863163287410522
 20
-357.16399945021612
 11
18.863163287410522
 21
-360.16399945021612
 72
           2
 10
11.50974348802581
 20
-250.51305183070011
 40
4.1599999999980071
 50
90.0
 51
180.0
 73
           1
 72
           1
 10
11.50974348802581
 20
-246.3530518307021
 11
188.78974348802461
 21
-246.3530518307021
 72
           2
 10
188.78974348802461
 20
-250.51305183070011
 40
4.1599999999998829
 50
0.0
 51
90.0
 73
           1
 72
           1
 10
192.9497434880245
 20
-250.51305183070011
 11
192.9497434880245
 21
-356.7930518307021
 72
           2
 10
188.78974348802461
 20
-356.7930518307021
 40
4.1599999999999113
 50
-90.0
 51
0.0
 73
           1
 72
           1
 10
188.78974348802461
 20
-360.95305183070201
 11
11.50974348802581
 21
-360.95305183070201
 72
           2
 10
11.50974348802581
 20
-356.7930518307021
 40
4.1599999999998589
 50
180.0
 51
-90.0
 73
           1
 72
           1
 10
7.3497434880259513
 20
-356.7930518307021
 11
7.3497434880259513
 21
-250.51305183070011
 97
        9
330
323
330
2D6
330
1D9
330
2CF
330
1D8
330
2D1
330
1DB
330
2D2
330
1DA
 75
           1
 76
           0
 52
45.0
 41
0.01
 77
           0
 78
           1
 53
45.0
 43
0.0
 44
0.0
 45
-0.0070710678118655
 46
0.0070710678118655
 79
           0
 98
        1
 10
0.0
 20
0.0
  0
HATCH
  5
326
100
AcDbEntity
  8
0
  6
CONTINUOUS
 62
           4
100
AcDbHatch
 10
0.0
 20
0.0
 30
0.0
210
0.0
220
0.0
230
1.0
  2
USER
 70
           0
 71
           1
 91
        1
 92
        1
 93
       20
 72
           2
 10
52.381760299352642
 20
-285.95313219884912
 40
2.0799999999999201
 50
0.0
 51
90.0
 73
           1
 72
           1
 10
54.461760299352562
 20
-285.95313219884912
 11
54.461760299352562
 21
-328.17730285339212
 72
           2
 10
52.381760299352642
 20
-328.17730285339212
 40
2.0799999999999841
 50
-90.0
 51
0.0
 73
           1
 72
           1
 10
52.381760299352642
 20
-330.2573028533921
 11
19.829501299750952
 21
-330.2573028533921
 72
           2
 10
19.829501299750952
 20
-328.17730285339212
 40
2.0799999999999308
 50
180.0
 51
-90.0
 73
           1
 72
           1
 10
17.749501299751021
 20
-328.17730285339212
 11
17.749501299751021
 21
-285.95313219884912
 72
           2
 10
19.829501299750952
 20
-285.95313219884912
 40
2.0800000000020304
 50
90.0
 51
180.0
 73
           1
 72
           1
 10
19.829501299750952
 20
-283.87313219884709
 11
20.349501299751381
 21
-283.87313219884709
 72
           1
 10
20.349501299751381
 20
-283.87313219884709
 11
20.349501299751381
 21
-284.18513219884812
 72
           1
 10
19.829501299750952
 20
-284.18513219884812
 11
20.349501299751381
 21
-284.18513219884812
 72
           2
 10
19.829501299750952
 20
-285.95313219884912
 40
1.7680000000009954
 50
90.0
 51
180.0
 73
           1
 72
           1
 10
18.061501299750919
 20
-285.95313219884912
 11
18.061501299750919
 21
-328.17730285339212
 72
           2
 10
19.829501299750952
 20
-328.17730285339212
 40
1.7680000000000327
 50
180.0
 51
-90.0
 73
           1
 72
           1
 10
19.829501299750952
 20
-329.94530285339192
 11
52.381760299352642
 21
-329.94530285339192
 72
           2
 10
52.381760299352642
 20
-328.17730285339212
 40
1.7679999999998017
 50
-90.0
 51
0.0
 73
           1
 72
           1
 10
54.149760299352657
 20
-285.95313219884912
 11
54.149760299352657
 21
-328.17730285339212
 72
           2
 10
52.381760299352642
 20
-285.95313219884912
 40
1.7680000000000149
 50
0.0
 51
90.0
 73
           1
 72
           1
 10
45.829501299750952
 20
-284.18513219884812
 11
52.381760299352642
 21
-284.18513219884812
 72
           1
 10
45.829501299750952
 20
-283.87313219884709
 11
45.829501299750952
 21
-284.18513219884812
 72
           1
 10
45.829501299750952
 20
-283.87313219884709
 11
52.381760299352642
 21
-283.87313219884709
 97
       20
330
2D9
330
1E0
330
2D8
330
1E1
330
2D7
330
1E2
330
2DA
330
1E3
330
1E8
330
1E4
330
2DE
330
1E7
330
2DD
330
1E6
330
2DC
330
1E5
330
2DB
330
1EA
330
1E9
330
1EB
 75
           1
 76
           0
 52
45.0
 41
0.01
 77
           0
 78
           1
 53
45.0
 43
0.0
 44
0.0
 45
-0.0070710678118655
 46
0.0070710678118655
 79
           0
 98
        1
 10
0.0
 20
0.0
  0
HATCH
  5
325
100
AcDbEntity
  8
0
  6
CONTINUOUS
 62
           4
100
AcDbHatch
 10
0.0
 20
0.0
 30
0.0
210
0.0
220
0.0
230
1.0
  2
USER
 70
           0
 71
           1
 91
        1
 92
        1
 93
        4
 72
           1
 10
164.45001508120151
 20
-261.89163523575598
 11
164.45001508120151
 21
-252.5316384217781
 72
           1
 10
160.1570362648086
 20
-261.89164671726297
 11
164.45001508120151
 21
-261.89163523575598
 72
           1
 10
160.1570362648086
 20
-252.53156731950421
 11
160.1570362648086
 21
-261.89164671726297
 72
           1
 10
164.45001508120151
 20
-252.5316384217781
 11
160.1570362648086
 21
-252.53156731950421
 97
        4
330
7C
330
7D
330
7E
330
7B
 75
           1
 76
           0
 52
46.0
 41
0.01
 77
           0
 78
           1
 53
46.0
 43
0.0
 44
0.0
 45
-0.0071933980033865
 46
0.00694658370459
 79
           0
 98
        1
 10
0.0
 20
0.0
  0
HATCH
  5
324
100
AcDbEntity
  8
0
  6
CONTINUOUS
 62
           4
100
AcDbHatch
 10
0.0
 20
0.0
 30
0.0
210
0.0
220
0.0
230
1.0
  2
USER
 70
           0
 71
           1
 91
        1
 92
        1
 93
        4
 72
           1
 10
179.53033872263001
 20
-255.0495080088881
 11
179.53033872263001
 21
-254.23174851556999
 72
           1
 10
177.79484656724301
 20
-255.0488164280751
 11
179.53033872263001
 21
-255.0495080088881
 72
           1
 10
177.53284783215491
 20
-254.23175389829299
 11
177.79484656724301
 21
-255.0488164280751
 72
           1
 10
179.53033872263001
 20
-254.23174851556999
 11
177.53284783215491
 21
-254.23175389829299
 97
        4
330
41
330
44
330
43
330
42
 75
           1
 76
           0
 52
46.0
 41
0.01
 77
           0
 78
           1
 53
46.0
 43
0.0
 44
0.0
 45
-0.0071933980033865
 46
0.00694658370459
 79
           0
 98
        1
 10
0.0
 20
0.0
  0
TEXT
  5
323
100
AcDbEntity
  8
1
 62
           2
100
AcDbText
 10
19.290663287411
 20
-359.663999450216
 40
2.0
  1
OFF
 41
0.855
  7
CONVERTER_2
100
AcDbText
  0
MTEXT
  5
322
100
AcDbEntity
  8
1
 62
           2
100
AcDbMText
 10
121.989743488025
 20
-325.264328091046
 30
0.0
 40
1.25
 41
0.0
 71
           8
 72
           1
  1
VOLTAGE3
  7
CONVERTER_2
  0
MTEXT
  5
321
100
AcDbEntity
  8
1
 62
           2
100
AcDbMText
 10
104.309743488025
 20
-325.264328091046
 30
0.0
 40
1.25
 41
0.0
 71
           8
 72
           1
  1
VOLTAGE2
  7
CONVERTER_2
  0
MTEXT
  5
320
100
AcDbEntity
  8
1
 62
           2
100
AcDbMText
 10
86.629743488025
 20
-325.264328091046
 30
0.0
 40
1.25
 41
0.0
 71
           8
 72
           1
  1
VOLTAGE1
  7
CONVERTER_2
  0
TEXT
  5
31F
100
AcDbEntity
  8
1
 62
           2
100
AcDbText
 10
29.299257362114
 20
-285.167612656648
 40
2.0
  1
ABNORMAL
 41
0.855
  7
CONVERTER_2
100
AcDbText
  0
TEXT
  5
31E
100
AcDbEntity
  8
1
 62
           2
100
AcDbText
 10
27.615504716086
 20
-324.81502742685
 40
2.0
  1
２ガン荷電
 41
0.89
  7
CONVERTER_3
100
AcDbText
  0
TEXT
  5
31D
100
AcDbEntity
  8
1
 62
           2
100
AcDbText
 10
27.749187529432
 20
-316.387555573307
 40
2.0
  1
タイムオーバー
 41
0.89
  7
CONVERTER_3
100
AcDbText
  0
TEXT
  5
31C
100
AcDbEntity
  8
1
 62
           2
100
AcDbText
 10
27.48182190274
 20
-308.282832485752
 40
2.0
  1
ケーブル断線
 41
0.89
  7
CONVERTER_3
100
AcDbText
  0
TEXT
  5
31B
100
AcDbEntity
  8
1
 62
           2
100
AcDbText
 10
27.878599300869
 20
-299.58876155886
 40
2.0
  1
過電流
 41
0.89
  7
CONVERTER_3
100
AcDbText
  0
TEXT
  5
31A
100
AcDbEntity
  8
1
 62
           2
100
AcDbText
 10
27.807486852287
 20
-290.738675982684
 40
2.0
  1
アース
 41
0.89
  7
CONVERTER_3
100
AcDbText
  0
TEXT
  5
319
100
AcDbEntity
  8
1
 62
           2
100
AcDbText
 10
16.182240237569
 20
-256.864494178537
 40
5.0
  1
E-SC12BH
 41
0.95
  7
CONVERTER_1
100
AcDbText
  0
TEXT
  5
318
100
AcDbEntity
  8
1
 62
           2
100
AcDbText
 10
20.9015627484
 20
-285.952895574858
 40
3.5
  1
異常
 41
0.89
  7
CONVERTER_3
100
AcDbText
  0
TEXT
  5
317
100
AcDbEntity
  8
1
 62
           2
100
AcDbText
 10
28.281870313143
 20
-293.819128734432
 40
2.0
  1
GROUND
 41
0.76
  7
CONVERTER_4
100
AcDbText
  0
TEXT
  5
316
100
AcDbEntity
  8
1
 62
           2
100
AcDbText
 10
28.05707294456
 20
-302.457077364896
 40
2.0
  1
OVER CURRENT
 41
0.76
  7
CONVERTER_4
100
AcDbText
  0
TEXT
  5
315
100
AcDbEntity
  8
1
 62
           2
100
AcDbText
 10
28.102001291892
 20
-310.977833329138
 40
2.0
  1
GROUNDING WIRE
 41
0.76
  7
CONVERTER_4
100
AcDbText
  0
TEXT
  5
314
100
AcDbEntity
  8
1
 62
           2
100
AcDbText
 10
28.01694802369
 20
-319.054406430501
 40
2.0
  1
TIME OVER
 41
0.76
  7
CONVERTER_4
100
AcDbText
  0
TEXT
  5
313
100
AcDbEntity
  8
1
 62
           2
100
AcDbText
 10
62.550732941315
 20
-252.863222383867
 40
3.5
  1
静電コントローラ
 41
0.801
  7
CONVERTER_5
100
AcDbText
  0
TEXT
  5
311
100
AcDbEntity
  8
1
 62
           2
100
AcDbText
 10
62.277342798606
 20
-257.547981866344
 40
3.5
  1
ELECTROSTATIC CONTROLLER
 41
0.855
  7
CONVERTER_2
100
AcDbText
  0
TEXT
  5
310
100
AcDbEntity
  8
1
 62
           2
100
AcDbText
 10
139.819367368114
 20
-296.93364873489
 40
2.0
  1
異常ガン番号
 41
0.89
  7
CONVERTER_3
100
AcDbText
  0
TEXT
  5
30F
100
AcDbEntity
  8
1
 62
           2
100
AcDbText
 10
27.731370535471
 20
-327.665710785249
 40
2.0
  1
2 GUNS CHARGE
 41
0.76
  7
CONVERTER_4
100
AcDbText
  0
MTEXT
  5
30D
100
AcDbEntity
  8
1
 62
           2
100
AcDbMText
 10
121.989743488025
 20
-323.44071636925
 30
0.0
 40
3.5
 41
0.0
 71
           8
 72
           1
  1
電圧３
  7
CONVERTER_3
  0
MTEXT
  5
30C
100
AcDbEntity
  8
1
 62
           2
100
AcDbMText
 10
104.309743488025
 20
-323.351922980565
 30
0.0
 40
3.5
 41
0.0
 71
           8
 72
           1
  1
電圧２
  7
CONVERTER_3
  0
MTEXT
  5
30B
100
AcDbEntity
  8
1
 62
           2
100
AcDbMText
 10
86.629743488025
 20
-323.263129591876
 30
0.0
 40
3.5
 41
0.0
 71
           8
 72
           1
  1
電圧１
  7
CONVERTER_3
  0
TEXT
  5
30A
100
AcDbEntity
  8
1
 62
           2
100
AcDbText
 10
139.800788258764
 20
-299.620856612517
 40
2.0
  1
ABNORMAL GUN No.
 41
0.855
  7
CONVERTER_2
100
AcDbText
  0
TEXT
  5
309
100
AcDbEntity
  8
1
 62
           2
100
AcDbText
 10
139.413313136008
 20
-281.309894312814
 40
2.0
  1
電流値
 41
0.89
  7
CONVERTER_3
100
AcDbText
  0
TEXT
  5
308
100
AcDbEntity
  8
1
 62
           2
100
AcDbText
 10
139.545788830355
 20
-273.098106206466
 40
2.0
  1
電圧値
 41
0.89
  7
CONVERTER_3
100
AcDbText
  0
TEXT
  5
307
100
AcDbEntity
  8
1
 62
           2
100
AcDbText
 10
139.878252142243
 20
-275.887410864096
 40
2.0
  1
VOLTAGE
 41
0.855
  7
CONVERTER_2
100
AcDbText
  0
TEXT
  5
306
100
AcDbEntity
  8
1
 62
           2
100
AcDbText
 10
154.423693030561
 20
-283.59408255764
 40
2.0
  1
(uA)
 41
0.95
  7
CONVERTER_1
100
AcDbText
  0
TEXT
  5
305
100
AcDbEntity
  8
1
 62
           2
100
AcDbText
 10
154.276845133828
 20
-274.734890240184
 40
2.0
  1
(-kV)
 41
0.95
  7
CONVERTER_1
100
AcDbText
  0
TEXT
  5
304
100
AcDbEntity
  8
1
 62
           2
100
AcDbText
 10
37.072688424666
 20
-347.496297798857
 40
2.7
  1
RESET
 41
0.855
  7
CONVERTER_2
100
AcDbText
  0
TEXT
  5
303
100
AcDbEntity
  8
1
 62
           2
100
AcDbText
 10
36.565232377663
 20
-342.831777462089
 40
2.7
  1
リセット
 41
0.89
  7
CONVERTER_3
100
AcDbText
  0
TEXT
  5
302
100
AcDbEntity
  8
1
 62
           2
100
AcDbText
 10
19.394383488175
 20
-334.648830062086
 40
2.0
  1
ON
 41
0.855
  7
CONVERTER_2
100
AcDbText
  0
TEXT
  5
301
100
AcDbEntity
  8
1
 62
           2
100
AcDbText
 10
32.483020075686
 20
-267.127773284525
 40
2.7
  1
POWER
 41
0.855
  7
CONVERTER_2
100
AcDbText
  0
TEXT
  5
300
100
AcDbEntity
  8
1
 62
           2
100
AcDbText
 10
32.483020075686
 20
-277.570216960576
 40
2.7
  1
CHARGE
 41
0.855
  7
CONVERTER_2
100
AcDbText
  0
TEXT
  5
2FF
100
AcDbEntity
  8
1
 62
           2
100
AcDbText
 10
22.85778053175
 20
-278.021800535576
 40
2.7
  1
荷電
 41
0.89
  7
CONVERTER_3
100
AcDbText
  0
TEXT
  5
2FE
100
AcDbEntity
  8
1
 62
           2
100
AcDbText
 10
22.969869159911
 20
-267.763249824187
 40
2.7
  1
電源
 41
0.89
  7
CONVERTER_3
100
AcDbText
  0
TEXT
  5
2FD
100
AcDbEntity
  8
1
 62
           2
100
AcDbText
 10
65.267599586299
 20
-346.841817663599
 40
2.0
  1
 0
 41
0.95
  7
CONVERTER_1
100
AcDbText
  0
TEXT
  5
2FC
100
AcDbEntity
  8
1
 62
           2
100
AcDbText
 10
66.774470243233
 20
-337.561511678199
 40
2.0
  1
30
 41
0.95
  7
CONVERTER_1
100
AcDbText
  0
TEXT
  5
2FB
100
AcDbEntity
  8
1
 62
           2
100
AcDbText
 10
66.774470243233
 20
-327.454160374601
 40
2.0
  1
60
 41
0.95
  7
CONVERTER_1
100
AcDbText
  0
TEXT
  5
2FA
100
AcDbEntity
  8
1
 62
           2
100
AcDbText
 10
66.774470243233
 20
-316.826809071002
 40
2.0
  1
90
 41
0.95
  7
CONVERTER_1
100
AcDbText
  0
TEXT
  5
2F9
100
AcDbEntity
  8
1
 62
           2
100
AcDbText
 10
66.774470243233
 20
-306.459457767405
 40
2.0
  1
120
 41
0.95
  7
CONVERTER_1
100
AcDbText
  0
TEXT
  5
2F8
100
AcDbEntity
  8
1
 62
           2
100
AcDbText
 10
66.774470243233
 20
-296.352106463806
 40
2.0
  1
150
 41
0.95
  7
CONVERTER_1
100
AcDbText
  0
TEXT
  5
2F7
100
AcDbEntity
  8
1
 62
           2
100
AcDbText
 10
66.774470243233
 20
-285.984755160208
 40
2.0
  1
180
 41
0.95
  7
CONVERTER_1
100
AcDbText
  0
TEXT
  5
2F6
100
AcDbEntity
  8
1
 62
           2
100
AcDbText
 10
66.774470243233
 20
-274.57740385661
 40
2.0
  1
210
 41
0.95
  7
CONVERTER_1
100
AcDbText
  0
TEXT
  5
2F5
100
AcDbEntity
  8
1
 62
           2
100
AcDbText
 10
70.754435041222
 20
-267.714554550102
 40
2.0
  1
 uA
 41
0.95
  7
CONVERTER_1
100
AcDbText
  0
TEXT
  5
2F4
100
AcDbEntity
  8
1
 62
           2
100
AcDbText
 10
59.015723646378
 20
-267.02794680885
 40
2.0
  1
CURRENT
 41
0.855
  7
CONVERTER_2
100
AcDbText
  0
TEXT
  5
2F3
100
AcDbEntity
  8
1
 62
           2
100
AcDbText
 10
57.87236631019
 20
-263.586432857193
 40
2.0
  1
塗装電流
 41
0.89
  7
CONVERTER_3
100
AcDbText
  0
TEXT
  5
2F2
100
AcDbEntity
  8
1
 62
           2
100
AcDbText
 10
137.698764876669
 20
-323.991809869067
 40
2.7
  1
ENTER
 41
0.855
  7
CONVERTER_2
100
AcDbText
  0
TEXT
  5
2F1
100
AcDbEntity
  8
1
 62
           2
100
AcDbText
 10
140.052322318604
 20
-320.076088389122
 40
2.7
  1
確定
 41
0.89
  7
CONVERTER_3
100
AcDbText
  0
TEXT
  5
2F0
100
AcDbEntity
  8
1
 62
           2
100
AcDbText
 10
139.573909774644
 20
-289.169330833135
 40
2.0
  1
荷電ガン番号
 41
0.89
  7
CONVERTER_3
100
AcDbText
  0
TEXT
  5
2EE
100
AcDbEntity
  8
1
 62
           2
100
AcDbText
 10
139.868689153181
 20
-291.733023524523
 40
2.0
  1
GUN No.
 41
0.855
  7
CONVERTER_2
100
AcDbText
  0
TEXT
  5
2ED
100
AcDbEntity
  8
1
 62
           2
100
AcDbText
 10
139.497554101441
 20
-284.045226024179
 40
2.0
  1
CURRENT
 41
0.855
  7
CONVERTER_2
100
AcDbText
  0
TEXT
  5
2EB
100
AcDbEntity
  8
1
 62
           2
100
AcDbText
 10
70.754435041222
 20
-267.714554550102
 40
2.0
  1
 uA
 41
0.95
  7
CONVERTER_1
100
AcDbText
  0
MTEXT
  5
2EA
100
AcDbEntity
  8
1
 62
           2
100
AcDbMText
 10
121.989743488025
 20
-341.315323686493
 30
0.0
 40
3.5
 41
0.0
 71
           8
 72
           1
  1
C
  7
CONVERTER_1
  0
MTEXT
  5
2E9
100
AcDbEntity
  8
1
 62
           2
100
AcDbMText
 10
104.309743488025
 20
-341.226530297808
 30
0.0
 40
3.5
 41
0.0
 71
           8
 72
           1
  1
B
  7
CONVERTER_1
  0
MTEXT
  5
2E8
100
AcDbEntity
  8
1
 62
           2
100
AcDbMText
 10
86.629743488025
 20
-341.137736909119
 30
0.0
 40
3.5
 41
0.0
 71
           8
 72
           1
  1
A
  7
CONVERTER_1
  0
ARC
  5
2E6
100
AcDbEntity
  8
1
  6
CONTINUOUS
 62
           7
100
AcDbCircle
 10
386.357850086095
 20
-355.3030518307
 40
0.385714285714
100
AcDbArc
 50
90.0
 51
180.0
  0
ARC
  5
2E5
100
AcDbEntity
  8
1
  6
CONTINUOUS
 62
           7
100
AcDbCircle
 10
384.557850086096
 20
-355.3030518307
 40
0.385714285715
100
AcDbArc
 50
0.0
 51
90.0
  0
ARC
  5
2E4
100
AcDbEntity
  8
1
  6
CONTINUOUS
 62
           7
100
AcDbCircle
 10
384.557850086096
 20
-353.503051830701
 40
0.385714285714
100
AcDbArc
 50
-90.0
 51
0.0
  0
ARC
  5
2E3
100
AcDbEntity
  8
1
  6
CONTINUOUS
 62
           7
100
AcDbCircle
 10
386.357850086095
 20
-353.503051830701
 40
0.385714285713
100
AcDbArc
 50
180.0
 51
-90.0
  0
ARC
  5
2E2
100
AcDbEntity
  8
1
  6
CONTINUOUS
 62
           7
100
AcDbCircle
 10
386.357850086095
 20
-255.3030518307
 40
0.385714285714
100
AcDbArc
 50
90.0
 51
180.0
  0
ARC
  5
2E1
100
AcDbEntity
  8
1
  6
CONTINUOUS
 62
           7
100
AcDbCircle
 10
384.557850086096
 20
-255.3030518307
 40
0.385714285715
100
AcDbArc
 50
0.0
 51
90.0
  0
ARC
  5
2E0
100
AcDbEntity
  8
1
  6
CONTINUOUS
 62
           7
100
AcDbCircle
 10
384.557850086096
 20
-253.503051830701
 40
0.385714285714
100
AcDbArc
 50
-90.0
 51
0.0
  0
ARC
  5
2DF
100
AcDbEntity
  8
1
  6
CONTINUOUS
 62
           7
100
AcDbCircle
 10
386.357850086095
 20
-253.503051830701
 40
0.385714285713
100
AcDbArc
 50
180.0
 51
-90.0
  0
ARC
  5
2DE
100
AcDbEntity
  8
1
  6
CONTINUOUS
 62
           7
100
AcDbCircle
 10
19.829501299751
 20
-285.953132198849
 40
1.768000000001
100
AcDbArc
 50
90.0
 51
180.0
  0
ARC
  5
2DD
100
AcDbEntity
  8
1
  6
CONTINUOUS
 62
           7
100
AcDbCircle
 10
19.829501299751
 20
-328.177302853392
 40
1.768
100
AcDbArc
 50
180.0
 51
-90.0
  0
ARC
  5
2DC
100
AcDbEntity
  8
1
  6
CONTINUOUS
 62
           7
100
AcDbCircle
 10
52.381760299353
 20
-328.177302853392
 40
1.768
100
AcDbArc
 50
-90.0
 51
0.0
  0
ARC
  5
2DB
100
AcDbEntity
  8
1
  6
CONTINUOUS
 62
           7
100
AcDbCircle
 10
52.381760299353
 20
-285.953132198849
 40
1.768
100
AcDbArc
 50
0.0
 51
90.0
  0
ARC
  5
2DA
100
AcDbEntity
  8
1
  6
CONTINUOUS
 62
           7
100
AcDbCircle
 10
19.829501299751
 20
-285.953132198849
 40
2.080000000002
100
AcDbArc
 50
90.0
 51
180.0
  0
ARC
  5
2D9
100
AcDbEntity
  8
1
  6
CONTINUOUS
 62
           7
100
AcDbCircle
 10
52.381760299353
 20
-285.953132198849
 40
2.08
100
AcDbArc
 50
0.0
 51
90.0
  0
ARC
  5
2D8
100
AcDbEntity
  8
1
  6
CONTINUOUS
 62
           7
100
AcDbCircle
 10
52.381760299353
 20
-328.177302853392
 40
2.08
100
AcDbArc
 50
-90.0
 51
0.0
  0
ARC
  5
2D7
100
AcDbEntity
  8
1
  6
CONTINUOUS
 62
           7
100
AcDbCircle
 10
19.829501299751
 20
-328.177302853392
 40
2.08
100
AcDbArc
 50
180.0
 51
-90.0
  0
ARC
  5
2D6
100
AcDbEntity
  8
1
  6
CONTINUOUS
 62
           2
100
AcDbCircle
 10
11.509743488026
 20
-250.5130518307
 40
4.159999999998
100
AcDbArc
 50
90.0
 51
180.0
  0
ARC
  5
2D5
100
AcDbEntity
  8
1
  6
CONTINUOUS
 62
           2
100
AcDbCircle
 10
11.509743488026
 20
-250.5130518307
 40
6.239999999998
100
AcDbArc
 50
90.0
 51
180.0
  0
ARC
  5
2D4
100
AcDbEntity
  8
1
  6
CONTINUOUS
 62
           2
100
AcDbCircle
 10
11.509743488026
 20
-356.793051830702
 40
6.240000000002
100
AcDbArc
 50
180.0
 51
-90.0
  0
ARC
  5
2D3
100
AcDbEntity
  8
1
  6
CONTINUOUS
 62
           2
100
AcDbCircle
 10
188.789743488025
 20
-250.5130518307
 40
6.240000000002
100
AcDbArc
 50
0.0
 51
90.0
  0
ARC
  5
2D2
100
AcDbEntity
  8
1
  6
CONTINUOUS
 62
           2
100
AcDbCircle
 10
11.509743488026
 20
-356.793051830702
 40
4.16
100
AcDbArc
 50
180.0
 51
-90.0
  0
ARC
  5
2D1
100
AcDbEntity
  8
1
  6
CONTINUOUS
 62
           2
100
AcDbCircle
 10
188.789743488025
 20
-356.793051830702
 40
4.16
100
AcDbArc
 50
-90.0
 51
0.0
  0
ARC
  5
2D0
100
AcDbEntity
  8
1
  6
CONTINUOUS
 62
           2
100
AcDbCircle
 10
188.789743488025
 20
-356.793051830702
 40
6.24
100
AcDbArc
 50
-90.0
 51
0.0
  0
ARC
  5
2CF
100
AcDbEntity
  8
1
  6
CONTINUOUS
 62
           2
100
AcDbCircle
 10
188.789743488025
 20
-250.5130518307
 40
4.16
100
AcDbArc
 50
0.0
 51
90.0
  0
ARC
  5
2CE
100
AcDbEntity
  8
1
  6
CONTINUOUS
 62
           7
100
AcDbCircle
 10
128.22999139342
 20
-287.033051830702
 40
1.040000000001
100
AcDbArc
 50
0.0
 51
90.0
  0
ARC
  5
2CD
100
AcDbEntity
  8
1
  6
CONTINUOUS
 62
           7
100
AcDbCircle
 10
148.669743488026
 20
-314.553107505932
 40
1.040000000001
100
AcDbArc
 50
0.0
 51
90.0
  0
ARC
  5
2CC
100
AcDbEntity
  8
1
  6
CONTINUOUS
 62
           7
100
AcDbCircle
 10
148.669743488026
 20
-325.993107505934
 40
1.040000000001
100
AcDbArc
 50
-90.0
 51
0.0
  0
ARC
  5
2CB
100
AcDbEntity
  8
1
  6
CONTINUOUS
 62
           7
100
AcDbCircle
 10
137.229743488025
 20
-325.993107505934
 40
1.039999999999
100
AcDbArc
 50
180.0
 51
-90.0
  0
ARC
  5
2CA
100
AcDbEntity
  8
1
  6
CONTINUOUS
 62
           7
100
AcDbCircle
 10
137.229743488025
 20
-314.553107505932
 40
1.039999999998
100
AcDbArc
 50
90.0
 51
180.0
  0
ARC
  5
2C9
100
AcDbEntity
  8
1
  6
CONTINUOUS
 62
           7
100
AcDbCircle
 10
47.909743488025
 20
-338.073051830701
 40
1.040000000001
100
AcDbArc
 50
0.0
 51
90.0
  0
ARC
  5
2C8
100
AcDbEntity
  8
1
  6
CONTINUOUS
 62
           7
100
AcDbCircle
 10
47.909743488025
 20
-349.5130518307
 40
1.04
100
AcDbArc
 50
-90.0
 51
0.0
  0
ARC
  5
2C7
100
AcDbEntity
  8
1
  6
CONTINUOUS
 62
           7
100
AcDbCircle
 10
36.469743488025
 20
-349.5130518307
 40
1.039999999999
100
AcDbArc
 50
180.0
 51
-90.0
  0
ARC
  5
2C6
100
AcDbEntity
  8
1
  6
CONTINUOUS
 62
           7
100
AcDbCircle
 10
36.469743488025
 20
-338.073051830701
 40
1.039999999999
100
AcDbArc
 50
90.0
 51
180.0
  0
ARC
  5
2C5
100
AcDbEntity
  8
1
  6
CONTINUOUS
 62
           7
100
AcDbCircle
 10
128.22999139342
 20
-298.473051830702
 40
1.039999999998
100
AcDbArc
 50
-90.0
 51
0.0
  0
ARC
  5
2C4
100
AcDbEntity
  8
1
  6
CONTINUOUS
 62
           7
100
AcDbCircle
 10
118.869991393421
 20
-298.473051830702
 40
1.040000000001
100
AcDbArc
 50
180.0
 51
-90.0
  0
ARC
  5
2C3
100
AcDbEntity
  8
1
  6
CONTINUOUS
 62
           7
100
AcDbCircle
 10
118.869991393421
 20
-287.033051830702
 40
1.040000000002
100
AcDbArc
 50
90.0
 51
180.0
  0
ARC
  5
2C2
100
AcDbEntity
  8
1
  6
CONTINUOUS
 62
           7
100
AcDbCircle
 10
128.22999139342
 20
-271.953051830702
 40
1.040000000001
100
AcDbArc
 50
0.0
 51
90.0
  0
ARC
  5
2C1
100
AcDbEntity
  8
1
  6
CONTINUOUS
 62
           7
100
AcDbCircle
 10
128.22999139342
 20
-283.393051830701
 40
1.04
100
AcDbArc
 50
-90.0
 51
0.0
  0
ARC
  5
2C0
100
AcDbEntity
  8
1
  6
CONTINUOUS
 62
           7
100
AcDbCircle
 10
118.869991393421
 20
-283.393051830701
 40
1.040000000001
100
AcDbArc
 50
180.0
 51
-90.0
  0
ARC
  5
2BF
100
AcDbEntity
  8
1
  6
CONTINUOUS
 62
           7
100
AcDbCircle
 10
118.869991393421
 20
-271.953051830702
 40
1.040000000001
100
AcDbArc
 50
90.0
 51
180.0
  0
ARC
  5
2BE
100
AcDbEntity
  8
1
  6
CONTINUOUS
 62
           7
100
AcDbCircle
 10
93.389743488025
 20
-314.033051830702
 40
1.040000000001
100
AcDbArc
 50
0.0
 51
90.0
  0
ARC
  5
2BD
100
AcDbEntity
  8
1
  6
CONTINUOUS
 62
           7
100
AcDbCircle
 10
93.389743488025
 20
-327.5530518307
 40
1.040000000001
100
AcDbArc
 50
-90.0
 51
0.0
  0
ARC
  5
2BC
100
AcDbEntity
  8
1
  6
CONTINUOUS
 62
           7
100
AcDbCircle
 10
79.869743488025
 20
-327.5530518307
 40
1.039999999999
100
AcDbArc
 50
180.0
 51
-90.0
  0
ARC
  5
2BB
100
AcDbEntity
  8
1
  6
CONTINUOUS
 62
           7
100
AcDbCircle
 10
79.869743488025
 20
-314.033051830702
 40
1.040000000002
100
AcDbArc
 50
90.0
 51
180.0
  0
ARC
  5
2BA
100
AcDbEntity
  8
1
  6
CONTINUOUS
 62
           7
100
AcDbCircle
 10
128.749743488026
 20
-331.713051830702
 40
1.039999999999
100
AcDbArc
 50
0.0
 51
90.0
  0
ARC
  5
2B9
100
AcDbEntity
  8
1
  6
CONTINUOUS
 62
           7
100
AcDbCircle
 10
128.749743488026
 20
-345.2330518307
 40
1.040000000002
100
AcDbArc
 50
-90.0
 51
0.0
  0
ARC
  5
2B8
100
AcDbEntity
  8
1
  6
CONTINUOUS
 62
           7
100
AcDbCircle
 10
115.229743488025
 20
-345.2330518307
 40
1.039999999999
100
AcDbArc
 50
180.0
 51
-90.0
  0
ARC
  5
2B7
100
AcDbEntity
  8
1
  6
CONTINUOUS
 62
           7
100
AcDbCircle
 10
115.229743488025
 20
-331.713051830702
 40
1.040000000001
100
AcDbArc
 50
90.0
 51
180.0
  0
ARC
  5
2B6
100
AcDbEntity
  8
1
  6
CONTINUOUS
 62
           7
100
AcDbCircle
 10
111.069743488025
 20
-331.713051830702
 40
1.039999999999
100
AcDbArc
 50
0.0
 51
90.0
  0
ARC
  5
2B5
100
AcDbEntity
  8
1
  6
CONTINUOUS
 62
           7
100
AcDbCircle
 10
111.069743488025
 20
-345.2330518307
 40
1.040000000002
100
AcDbArc
 50
-90.0
 51
0.0
  0
ARC
  5
2B4
100
AcDbEntity
  8
1
  6
CONTINUOUS
 62
           7
100
AcDbCircle
 10
97.549743488025
 20
-345.2330518307
 40
1.039999999999
100
AcDbArc
 50
180.0
 51
-90.0
  0
ARC
  5
2B3
100
AcDbEntity
  8
1
  6
CONTINUOUS
 62
           7
100
AcDbCircle
 10
97.549743488025
 20
-331.713051830702
 40
1.040000000001
100
AcDbArc
 50
90.0
 51
180.0
  0
ARC
  5
2B2
100
AcDbEntity
  8
1
  6
CONTINUOUS
 62
           7
100
AcDbCircle
 10
93.389743488025
 20
-331.713051830702
 40
1.040000000001
100
AcDbArc
 50
0.0
 51
90.0
  0
ARC
  5
2B1
100
AcDbEntity
  8
1
  6
CONTINUOUS
 62
           7
100
AcDbCircle
 10
93.389743488025
 20
-345.2330518307
 40
1.040000000002
100
AcDbArc
 50
-90.0
 51
0.0
  0
ARC
  5
2B0
100
AcDbEntity
  8
1
  6
CONTINUOUS
 62
           7
100
AcDbCircle
 10
79.869743488025
 20
-345.2330518307
 40
1.039999999999
100
AcDbArc
 50
180.0
 51
-90.0
  0
ARC
  5
2AF
100
AcDbEntity
  8
1
  6
CONTINUOUS
 62
           7
100
AcDbCircle
 10
79.869743488025
 20
-331.713051830702
 40
1.040000000001
100
AcDbArc
 50
90.0
 51
180.0
  0
ARC
  5
2AE
100
AcDbEntity
  8
1
  6
CONTINUOUS
 62
           7
100
AcDbCircle
 10
128.749743488026
 20
-314.033051830702
 40
1.039999999999
100
AcDbArc
 50
0.0
 51
90.0
  0
ARC
  5
2AD
100
AcDbEntity
  8
1
  6
CONTINUOUS
 62
           7
100
AcDbCircle
 10
128.749743488026
 20
-327.5530518307
 40
1.040000000001
100
AcDbArc
 50
-90.0
 51
0.0
  0
ARC
  5
2AC
100
AcDbEntity
  8
1
  6
CONTINUOUS
 62
           7
100
AcDbCircle
 10
111.069743488025
 20
-314.033051830702
 40
1.039999999999
100
AcDbArc
 50
0.0
 51
90.0
  0
ARC
  5
2AB
100
AcDbEntity
  8
1
  6
CONTINUOUS
 62
           7
100
AcDbCircle
 10
111.069743488025
 20
-327.5530518307
 40
1.040000000001
100
AcDbArc
 50
-90.0
 51
0.0
  0
ARC
  5
2AA
100
AcDbEntity
  8
1
  6
CONTINUOUS
 62
           7
100
AcDbCircle
 10
97.549743488025
 20
-327.5530518307
 40
1.039999999999
100
AcDbArc
 50
180.0
 51
-90.0
  0
ARC
  5
2A9
100
AcDbEntity
  8
1
  6
CONTINUOUS
 62
           7
100
AcDbCircle
 10
97.549743488025
 20
-314.033051830702
 40
1.040000000002
100
AcDbArc
 50
90.0
 51
180.0
  0
ARC
  5
2A8
100
AcDbEntity
  8
1
  6
LONG_DASHED
 62
           2
100
AcDbCircle
 10
28.27799413757
 20
-356.121051830702
 40
0.311999999999
100
AcDbArc
 50
-90.0
 51
0.0
  0
ARC
  5
2A7
100
AcDbEntity
  8
1
  6
LONG_DASHED
 62
           2
100
AcDbCircle
 10
28.27799413757
 20
-335.745051830701
 40
0.312
100
AcDbArc
 50
0.0
 51
90.0
  0
ARC
  5
2A6
100
AcDbEntity
  8
1
  6
CONTINUOUS
 62
           2
100
AcDbCircle
 10
13.90199413757
 20
-335.745051830701
 40
0.312
100
AcDbArc
 50
90.0
 51
180.0
  0
ARC
  5
2A5
100
AcDbEntity
  8
1
  6
CONTINUOUS
 62
           7
100
AcDbCircle
 10
197.109743488024
 20
-242.193051830702
 40
1.040000000001
100
AcDbArc
 50
0.0
 51
90.0
  0
ARC
  5
2A4
100
AcDbEntity
  8
1
  6
CONTINUOUS
 62
           7
100
AcDbCircle
 10
197.109743488024
 20
-365.113051830701
 40
1.04
100
AcDbArc
 50
-90.0
 51
0.0
  0
ARC
  5
2A3
100
AcDbEntity
  8
1
  6
CONTINUOUS
 62
           7
100
AcDbCircle
 10
3.189743488026
 20
-365.113051830701
 40
1.040000000001
100
AcDbArc
 50
180.0
 51
-90.0
  0
ARC
  5
2A2
100
AcDbEntity
  8
1
  6
CONTINUOUS
 62
           7
100
AcDbCircle
 10
3.189743488026
 20
-242.193051830702
 40
1.040000000001
100
AcDbArc
 50
90.0
 51
180.0
  0
ARC
  5
2A1
100
AcDbEntity
  8
1
  6
CONTINUOUS
 62
           7
100
AcDbCircle
 10
123.549991393421
 20
-297.401975940718
 40
0.52
100
AcDbArc
 50
-150.945395900895
 51
-29.054604099104
  0
ARC
  5
2A0
100
AcDbEntity
  8
1
  6
CONTINUOUS
 62
           7
100
AcDbCircle
 10
119.233738912678
 20
-289.632721475382
 40
0.520000000002
100
AcDbArc
 50
90.0
 51
-150.945395901189
  0
ARC
  5
29F
100
AcDbEntity
  8
1
  6
CONTINUOUS
 62
           7
100
AcDbCircle
 10
127.866243874163
 20
-289.632721475382
 40
0.519999999999
100
AcDbArc
 50
-29.054604098913
 51
90.0
  0
ARC
  5
29E
100
AcDbEntity
  8
1
  6
CONTINUOUS
 62
           7
100
AcDbCircle
 10
127.866243874163
 20
-280.792820299186
 40
0.52
100
AcDbArc
 50
-90.0
 51
29.054604099017
  0
ARC
  5
29D
100
AcDbEntity
  8
1
  6
CONTINUOUS
 62
           7
100
AcDbCircle
 10
119.233738912678
 20
-280.792820299186
 40
0.520000000001
100
AcDbArc
 50
150.945395901085
 51
-90.0
  0
ARC
  5
29C
100
AcDbEntity
  8
1
  6
CONTINUOUS
 62
           7
100
AcDbCircle
 10
123.549991393421
 20
-273.023565833848
 40
0.52
100
AcDbArc
 50
29.054604099104
 51
150.945395900895
  0
ARC
  5
29B
100
AcDbEntity
  8
1
  6
CONTINUOUS
 62
           2
100
AcDbCircle
 10
13.90199413757
 20
-356.121051830702
 40
0.312
100
AcDbArc
 50
180.0
 51
-90.0
  0
ARC
  5
29A
100
AcDbEntity
  8
1
  6
CONTINUOUS
 62
           2
100
AcDbCircle
 10
11.509743488026
 20
-356.793051830702
 40
4.16
100
AcDbArc
 50
180.0
 51
-90.0
  0
ARC
  5
299
100
AcDbEntity
  8
1
  6
CONTINUOUS
 62
           7
100
AcDbCircle
 10
516.357850086094
 20
-253.503051830701
 40
0.385714285713
100
AcDbArc
 50
180.0
 51
-90.0
  0
ARC
  5
298
100
AcDbEntity
  8
1
  6
CONTINUOUS
 62
           7
100
AcDbCircle
 10
514.557850086095
 20
-253.503051830701
 40
0.385714285714
100
AcDbArc
 50
-90.0
 51
0.0
  0
ARC
  5
297
100
AcDbEntity
  8
1
  6
CONTINUOUS
 62
           7
100
AcDbCircle
 10
514.557850086095
 20
-255.3030518307
 40
0.385714285715
100
AcDbArc
 50
0.0
 51
90.0
  0
ARC
  5
296
100
AcDbEntity
  8
1
  6
CONTINUOUS
 62
           7
100
AcDbCircle
 10
516.357850086094
 20
-255.3030518307
 40
0.385714285714
100
AcDbArc
 50
90.0
 51
180.0
  0
ARC
  5
295
100
AcDbEntity
  8
1
  6
CONTINUOUS
 62
           7
100
AcDbCircle
 10
516.357850086094
 20
-353.503051830701
 40
0.385714285713
100
AcDbArc
 50
180.0
 51
-90.0
  0
ARC
  5
294
100
AcDbEntity
  8
1
  6
CONTINUOUS
 62
           7
100
AcDbCircle
 10
514.557850086095
 20
-353.503051830701
 40
0.385714285714
100
AcDbArc
 50
-90.0
 51
0.0
  0
ARC
  5
293
100
AcDbEntity
  8
1
  6
CONTINUOUS
 62
           7
100
AcDbCircle
 10
514.557850086095
 20
-355.3030518307
 40
0.385714285715
100
AcDbArc
 50
0.0
 51
90.0
  0
ARC
  5
292
100
AcDbEntity
  8
1
  6
CONTINUOUS
 62
           7
100
AcDbCircle
 10
516.357850086094
 20
-355.3030518307
 40
0.385714285714
100
AcDbArc
 50
90.0
 51
180.0
  0
ARC
  5
291
100
AcDbEntity
  8
1
  6
CONTINUOUS
 62
           7
100
AcDbCircle
 10
115.229743488025
 20
-327.553051830701
 40
1.039999999999
100
AcDbArc
 50
179.999999999971
 51
-90.0
  0
ARC
  5
290
100
AcDbEntity
  8
1
  6
CONTINUOUS
 62
           7
100
AcDbCircle
 10
115.229743488025
 20
-314.033051830702
 40
1.040000000002
100
AcDbArc
 50
90.0
 51
179.99999999999
  0
ARC
  5
28F
100
AcDbEntity
  8
1
  6
CONTINUOUS
 62
           7
100
AcDbCircle
 10
203.449743488025
 20
216.942996407594
 40
1.0
100
AcDbArc
 50
90.0
 51
180.0
  0
ARC
  5
28E
100
AcDbEntity
  8
1
  6
CONTINUOUS
 62
           7
100
AcDbCircle
 10
203.449743488025
 20
216.942996407594
 40
3.3
100
AcDbArc
 50
90.0
 51
179.999999999998
  0
ARC
  5
28D
100
AcDbEntity
  8
1
  6
CONTINUOUS
 62
           7
100
AcDbCircle
 10
-3.150256511975
 20
216.942996407594
 40
3.3
100
AcDbArc
 50
0.000000000002
 51
90.000000000001
  0
ARC
  5
28C
100
AcDbEntity
  8
1
  6
CONTINUOUS
 62
           7
100
AcDbCircle
 10
-3.150256511975
 20
216.942996407594
 40
1.0
100
AcDbArc
 50
0.0
 51
90.0
  0
SPLINE
  5
28B
100
AcDbEntity
  8
1
  6
CONTINUOUS
 62
           2
100
AcDbSpline
210
0.0
220
0.0
230
1.0
 70
           0
 71
           4
 72
           8
 73
           4
 74
           3
 42
0.00000000001
 43
0.00000000001
 44
0.00000000001
 40
0.0
 40
0.0
 40
0.0
 40
0.0
 40
0.506545393955591
 40
0.506545393955591
 40
0.506545393955591
 40
0.506545393955591
 10
158.56947284517591
 20
-256.63054364691698
 30
0.0
 10
158.42896847379919
 20
-256.72343976801989
 30
0.0
 10
158.30744288886811
 20
-256.8421057490421
 30
0.0
 10
158.21136103437641
 20
-256.98022877180892
 30
0.0
 11
158.56947284517591
 21
-256.63054364691698
 31
0.0
 11
158.37375849594429
 21
-256.78842612123901
 31
0.0
 11
158.21136103437641
 21
-256.98022877180892
 31
0.0
  0
SPLINE
  5
28A
100
AcDbEntity
  8
1
  6
CONTINUOUS
 62
           2
100
AcDbSpline
210
0.0
220
0.0
230
1.0
 70
           0
 71
           4
 72
           8
 73
           4
 74
           3
 42
0.00000000001
 43
0.00000000001
 44
0.00000000001
 40
0.0
 40
0.0
 40
0.0
 40
0.0
 40
1.4122500714148081
 40
1.4122500714148081
 40
1.4122500714148081
 40
1.4122500714148081
 10
157.78256451064911
 20
-252.54237220603
 30
0.0
 10
157.3050775682637
 20
-252.62231496474811
 30
0.0
 10
156.89460465468761
 20
-252.79334960005011
 30
0.0
 10
156.48351637480619
 20
-253.04774566811901
 30
0.0
 11
157.78256451064911
 21
-252.54237220603
 31
0.0
 11
157.10814094428866
 21
-252.72963894606798
 31
0.0
 11
156.48351637480619
 21
-253.04774566811901
 31
0.0
  0
SPLINE
  5
289
100
AcDbEntity
  8
1
  6
CONTINUOUS
 62
           2
100
AcDbSpline
210
0.0
220
0.0
230
1.0
 70
           0
 71
           4
 72
           8
 73
           4
 74
           3
 42
0.00000000001
 43
0.00000000001
 44
0.00000000001
 40
0.0
 40
0.0
 40
0.0
 40
0.0
 40
2.0847561884900658
 40
2.0847561884900658
 40
2.0847561884900658
 40
2.0847561884900658
 10
156.48351637480619
 20
-253.04774566811901
 30
0.0
 10
155.9413701037661
 20
-253.4351456196442
 30
0.0
 10
155.40452930357381
 20
-253.92627206852109
 30
0.0
 10
155.01541708249309
 20
-254.4970831259412
 30
0.0
 11
156.48351637480619
 21
-253.04774566811901
 31
0.0
 11
155.69207895991488
 21
-253.7036352323195
 31
0.0
 11
155.01541708249309
 21
-254.4970831259412
 31
0.0
  0
SPLINE
  5
288
100
AcDbEntity
  8
1
  6
CONTINUOUS
 62
           2
100
AcDbSpline
210
0.0
220
0.0
230
1.0
 70
           0
 71
           4
 72
          14
 73
          10
 74
          15
 42
0.00000000001
 43
0.00000000001
 44
0.00000000001
 40
0.0
 40
0.0
 40
0.0
 40
0.0
 40
0.1321146320860289
 40
0.2635704190287779
 40
0.3298763012179304
 40
0.461198251420441
 40
0.5274310506786574
 40
0.658618445781664
 40
0.7903718919197398
 40
0.7903718919197398
 40
0.7903718919197398
 40
0.7903718919197398
 10
186.9350491239089
 20
-253.3338523593161
 30
0.0
 10
187.00080318390019
 20
-253.33326825938801
 30
0.0
 10
187.06582411378579
 20
-253.32001458444901
 30
0.0
 10
187.18723980316611
 20
-253.2696275395561
 30
0.0
 10
187.2424903468233
 20
-253.232969014784
 30
0.0
 10
187.33599280757659
 20
-253.1407586876071
 30
0.0
 10
187.37336356180961
 20
-253.08607587105899
 30
0.0
 10
187.42522896239419
 20
-252.96557644012211
 30
0.0
 10
187.43923483161009
 20
-252.9008954067981
 30
0.0
 10
187.440943488025
 20
-252.83534428658601
 30
0.0
 11
186.9350491239089
 21
-253.3338523593161
 31
0.0
 11
187.01395844777338
 21
-253.32834100031394
 31
0.0
 11
187.07402416149964
 21
-253.31319629445474
 31
0.0
 11
187.13745117075786
 21
-253.28940701286956
 31
0.0
 11
187.19372789962097
 21
-253.26328936241811
 31
0.0
 11
187.21483858669023
 21
-253.25074370854804
 31
0.0
 11
187.23572293353433
 21
-253.23491536948814
 31
0.0
 11
187.28866219924146
 21
-253.18625250541029
 31
0.0
 11
187.33804750352476
 21
-253.13399818662592
 31
0.0
 11
187.3541396609383
 21
-253.11335963314102
 31
0.0
 11
187.36695478795346
 21
-253.09244234800337
 31
0.0
 11
187.39375936382493
 21
-253.03662461482082
 31
0.0
 11
187.41831332817907
 21
-252.97364290226344
 31
0.0
 11
187.43420147186598
 21
-252.91394875558279
 31
0.0
 11
187.440943488025
 21
-252.83534428658601
 31
0.0
  0
SPLINE
  5
287
100
AcDbEntity
  8
1
  6
CONTINUOUS
 62
           2
100
AcDbSpline
210
0.0
220
0.0
230
1.0
 70
           0
 71
           4
 72
           8
 73
           4
 74
           3
 42
0.00000000001
 43
0.00000000001
 44
0.00000000001
 40
0.0
 40
0.0
 40
0.0
 40
0.0
 40
0.6565836041310142
 40
0.6565836041310142
 40
0.6565836041310142
 40
0.6565836041310142
 10
181.725669144134
 20
-252.532186316447
 30
0.0
 10
181.50698817581321
 20
-252.5288860073411
 30
0.0
 10
181.28843635462141
 20
-252.5455184021171
 30
0.0
 10
181.07285541835481
 20
-252.58228658733199
 30
0.0
 11
181.725669144134
 21
-252.532186316447
 31
0.0
 11
181.39809976922407
 21
-252.54221076651919
 31
0.0
 11
181.07285541835481
 21
-252.58228658733199
 31
0.0
  0
SPLINE
  5
286
100
AcDbEntity
  8
1
  6
CONTINUOUS
 62
           2
100
AcDbSpline
210
0.0
220
0.0
230
1.0
 70
           0
 71
           4
 72
           8
 73
           4
 74
           3
 42
0.00000000001
 43
0.00000000001
 44
0.00000000001
 40
0.0
 40
0.0
 40
0.0
 40
0.0
 40
0.4966975685042926
 40
0.4966975685042926
 40
0.4966975685042926
 40
0.4966975685042926
 10
181.07285541835481
 20
-252.58228658733199
 30
0.0
 10
180.89219944776369
 20
-252.618225731846
 30
0.0
 10
180.78243052758219
 20
-252.68489326281701
 30
0.0
 10
180.62445243415601
 20
-252.77937040478699
 30
0.0
 11
181.07285541835481
 21
-252.58228658733199
 31
0.0
 11
180.84014972231856
 21
-252.65887674701349
 31
0.0
 11
180.62445243415601
 21
-252.77937040478699
 31
0.0
  0
SPLINE
  5
285
100
AcDbEntity
  8
1
  6
CONTINUOUS
 62
           2
100
AcDbSpline
210
0.0
220
0.0
230
1.0
 70
           0
 71
           4
 72
           8
 73
           4
 74
           3
 42
0.00000000001
 43
0.00000000001
 44
0.00000000001
 40
0.0
 40
0.0
 40
0.0
 40
0.0
 40
0.8686120251933135
 40
0.8686120251933135
 40
0.8686120251933135
 40
0.8686120251933135
 10
180.68350681593941
 20
-254.68904656311199
 30
0.0
 10
180.9325158365169
 20
-254.809772906624
 30
0.0
 10
181.20302943691021
 20
-254.906619668677
 30
0.0
 10
181.49896813311861
 20
-254.97854332484221
 30
0.0
 11
180.68350681593941
 21
-254.68904656311199
 31
0.0
 11
181.0736388461674
 21
-254.85209595173211
 31
0.0
 11
181.49896813311861
 21
-254.97854332484221
 31
0.0
  0
SPLINE
  5
284
100
AcDbEntity
  8
1
  6
CONTINUOUS
 62
           2
100
AcDbSpline
210
0.0
220
0.0
230
1.0
 70
           0
 71
           4
 72
           8
 73
           4
 74
           3
 42
0.00000000001
 43
0.00000000001
 44
0.00000000001
 40
0.0
 40
0.0
 40
0.0
 40
0.0
 40
0.6392842380773727
 40
0.6392842380773727
 40
0.6392842380773727
 40
0.6392842380773727
 10
182.1159736883379
 20
-255.14091381630811
 30
0.0
 10
181.91255292686361
 20
-255.07124279061719
 30
0.0
 10
181.7133031695117
 20
-255.01695069390399
 30
0.0
 10
181.49896813311861
 20
-254.97854332484221
 30
0.0
 11
182.1159736883379
 21
-255.14091381630811
 31
0.0
 11
181.81156376382279
 21
-255.04800469933923
 31
0.0
 11
181.49896813311861
 21
-254.97854332484221
 31
0.0
  0
SPLINE
  5
283
100
AcDbEntity
  8
1
  6
CONTINUOUS
 62
           2
100
AcDbSpline
210
0.0
220
0.0
230
1.0
 70
           0
 71
           4
 72
          10
 73
           6
 74
           7
 42
0.00000000001
 43
0.00000000001
 44
0.00000000001
 40
0.0
 40
0.0
 40
0.0
 40
0.0
 40
0.1132715001828703
 40
0.2362402173563195
 40
0.3496341362971512
 40
0.3496341362971512
 40
0.3496341362971512
 40
0.3496341362971512
 10
182.40492200531261
 20
-255.32790610044009
 30
0.0
 10
182.36846451579871
 20
-255.2847554677451
 30
0.0
 10
182.3262015547331
 20
-255.246834822804
 30
0.0
 10
182.22073411876369
 20
-255.18360567325001
 30
0.0
 10
182.16970827582151
 20
-255.15860033515699
 30
0.0
 10
182.1159736883379
 20
-255.14091381630811
 30
0.0
 11
182.40492200531261
 21
-255.32790610044009
 31
0.0
 11
182.35952330491429
 21
-255.27864753023434
 31
0.0
 11
182.32126955810818
 21
-255.24728744555136
 31
0.0
 11
182.27319005753043
 21
-255.21566886268326
 31
0.0
 11
182.22333309847619
 21
-255.18667555174969
 31
0.0
 11
182.17887433780794
 21
-255.16439749709812
 31
0.0
 11
182.1159736883379
 21
-255.14091381630811
 31
0.0
  0
SPLINE
  5
282
100
AcDbEntity
  8
1
  6
CONTINUOUS
 62
           2
100
AcDbSpline
210
0.0
220
0.0
230
1.0
 70
           0
 71
           4
 72
           8
 73
           4
 74
           3
 42
0.00000000001
 43
0.00000000001
 44
0.00000000001
 40
0.0
 40
0.0
 40
0.0
 40
0.0
 40
0.4249545173465898
 40
0.4249545173465898
 40
0.4249545173465898
 40
0.4249545173465898
 10
181.9342951554859
 20
-255.952234672928
 30
0.0
 10
182.07789268097221
 20
-255.94548085530101
 30
0.0
 10
182.2080761516423
 20
-255.90545962265699
 30
0.0
 10
182.33740873785021
 20
-255.83989556600619
 30
0.0
 11
181.9342951554859
 21
-255.952234672928
 31
0.0
 11
182.14120129889744
 21
-255.91811895910101
 31
0.0
 11
182.33740873785021
 21
-255.83989556600619
 31
0.0
  0
SPLINE
  5
281
100
AcDbEntity
  8
1
  6
CONTINUOUS
 62
           2
100
AcDbSpline
210
0.0
220
0.0
230
1.0
 70
           0
 71
           4
 72
           8
 73
           4
 74
           3
 42
0.00000000001
 43
0.00000000001
 44
0.00000000001
 40
0.0
 40
0.0
 40
0.0
 40
0.0
 40
0.606517530388019
 40
0.606517530388019
 40
0.606517530388019
 40
0.606517530388019
 10
182.0600588599969
 20
-256.78433594689199
 30
0.0
 10
182.2617148520217
 20
-256.77178941118001
 30
0.0
 10
182.46178936612671
 20
-256.74080839155801
 30
0.0
 10
182.6577628836545
 20
-256.69178302895813
 30
0.0
 11
182.0600588599969
 21
-256.78433594689199
 31
0.0
 11
182.36104179976206
 21
-256.75173904800806
 31
0.0
 11
182.6577628836545
 21
-256.69178302895813
 31
0.0
  0
SPLINE
  5
280
100
AcDbEntity
  8
1
  6
CONTINUOUS
 62
           2
100
AcDbSpline
210
0.0
220
0.0
230
1.0
 70
           0
 71
           4
 72
           8
 73
           4
 74
           3
 42
0.00000000001
 43
0.00000000001
 44
0.00000000001
 40
0.0
 40
0.0
 40
0.0
 40
0.0
 40
0.6977077396270425
 40
0.6977077396270425
 40
0.6977077396270425
 40
0.6977077396270425
 10
182.6577628836545
 20
-256.69178302895813
 30
0.0
 10
182.8832000959662
 20
-256.63766912555087
 30
0.0
 10
183.09487289355781
 20
-256.5373574549381
 30
0.0
 10
183.27930867668289
 20
-256.397232677803
 30
0.0
 11
182.6577628836545
 21
-256.69178302895813
 31
0.0
 11
182.98391131611368
 21
-256.5767619310285
 31
0.0
 11
183.27930867668289
 21
-256.397232677803
 31
0.0
  0
SPLINE
  5
27F
100
AcDbEntity
  8
1
  6
CONTINUOUS
 62
           2
100
AcDbSpline
210
0.0
220
0.0
230
1.0
 70
           0
 71
           4
 72
          10
 73
           6
 74
           7
 42
0.00000000001
 43
0.00000000001
 44
0.00000000001
 40
0.0
 40
0.0
 40
0.0
 40
0.0
 40
0.1951378890298094
 40
0.3897318473640263
 40
0.584661666394547
 40
0.584661666394547
 40
0.584661666394547
 40
0.584661666394547
 10
183.27930867668289
 20
-256.397232677803
 30
0.0
 10
183.35472621736841
 20
-256.33564129031203
 30
0.0
 10
183.4215610697625
 20
-256.26428812991298
 30
0.0
 10
183.53452414487731
 20
-256.10583891949909
 30
0.0
 10
183.5801471656919
 20
-256.01945149788708
 30
0.0
 10
183.6137029990073
 20
-255.92818988408411
 30
0.0
 11
183.27930867668289
 21
-256.397232677803
 31
0.0
 11
183.36647935565358
 21
-256.31993736159444
 31
0.0
 11
183.42377666828068
 21
-256.25559759013277
 31
0.0
 11
183.47740195311007
 21
-256.18456570139421
 31
0.0
 11
183.52706270843208
 21
-256.11071603999187
 31
0.0
 11
183.56914439547256
 21
-256.0356634716365
 31
0.0
 11
183.6137029990073
 21
-255.92818988408411
 31
0.0
  0
SPLINE
  5
27E
100
AcDbEntity
  8
1
  6
CONTINUOUS
 62
           2
100
AcDbSpline
210
0.0
220
0.0
230
1.0
 70
           0
 71
           4
 72
          10
 73
           6
 74
           7
 42
0.00000000001
 43
0.00000000001
 44
0.00000000001
 40
0.0
 40
0.0
 40
0.0
 40
0.0
 40
0.2137104283424095
 40
0.4270380639624133
 40
0.6407242875092482
 40
0.6407242875092482
 40
0.6407242875092482
 40
0.6407242875092482
 10
183.6137029990073
 20
-255.92818988408411
 30
0.0
 10
183.6442747722682
 20
-255.82597599829299
 30
0.0
 10
183.66297500733299
 20
-255.72059991463499
 30
0.0
 10
183.67589758698119
 20
-255.50766403918311
 30
0.0
 10
183.67007721292211
 20
-255.40080815724701
 30
0.0
 10
183.6520895289683
 20
-255.2956637487801
 30
0.0
 11
183.6137029990073
 21
-255.92818988408411
 31
0.0
 11
183.64598656483165
 21
-255.8046491375641
 31
0.0
 11
183.66046538937923
 21
-255.71135303928594
 31
0.0
 11
183.66867160953515
 21
-255.61408166706329
 31
0.0
 11
183.67228823942145
 21
-255.51653256815558
 31
0.0
 11
183.66919736732024
 21
-255.42218296035031
 31
0.0
 11
183.6520895289683
 21
-255.2956637487801
 31
0.0
  0
SPLINE
  5
27D
100
AcDbEntity
  8
1
  6
CONTINUOUS
 62
           2
100
AcDbSpline
210
0.0
220
0.0
230
1.0
 70
           0
 71
           4
 72
          10
 73
           6
 74
           7
 42
0.00000000001
 43
0.00000000001
 44
0.00000000001
 40
0.0
 40
0.0
 40
0.0
 40
0.0
 40
0.2919805687303689
 40
0.5827339981044228
 40
0.8751198294262681
 40
0.8751198294262681
 40
0.8751198294262681
 40
0.8751198294262681
 10
183.6520895289683
 20
-255.2956637487801
 30
0.0
 10
183.63278530296481
 20
-255.15167571498711
 30
0.0
 10
183.58529353004229
 20
-255.0128712832971
 30
0.0
 10
183.43933376840101
 20
-254.76140895078109
 30
0.0
 10
183.34228703461989
 20
-254.651199615764
 30
0.0
 10
183.2266895978133
 20
-254.5627764260251
 30
0.0
 11
183.6520895289683
 21
-255.2956637487801
 31
0.0
 11
183.61876618057548
 21
-255.12530765631746
 31
0.0
 11
183.57271577170695
 21
-255.00538830739879
 31
0.0
 11
183.51080746264844
 21
-254.88808932351299
 31
0.0
 11
183.43965925495672
 21
-254.77613622650813
 31
0.0
 11
183.35825608257375
 21
-254.67648588985762
 31
0.0
 11
183.2266895978133
 21
-254.5627764260251
 31
0.0
  0
SPLINE
  5
27C
100
AcDbEntity
  8
1
  6
CONTINUOUS
 62
           2
100
AcDbSpline
210
0.0
220
0.0
230
1.0
 70
           0
 71
           4
 72
           8
 73
           4
 74
           3
 42
0.00000000001
 43
0.00000000001
 44
0.00000000001
 40
0.0
 40
0.0
 40
0.0
 40
0.0
 40
0.9502752685062841
 40
0.9502752685062841
 40
0.9502752685062841
 40
0.9502752685062841
 10
183.2266895978133
 20
-254.5627764260251
 30
0.0
 10
182.96268710484361
 20
-254.3898493962941
 30
0.0
 10
182.66684227361799
 20
-254.270968691832
 30
0.0
 10
182.356356590171
 20
-254.2130464657771
 30
0.0
 11
183.2266895978133
 21
-254.5627764260251
 31
0.0
 11
182.80895429042107
 21
-254.34478464452252
 31
0.0
 11
182.356356590171
 21
-254.2130464657771
 31
0.0
  0
SPLINE
  5
27B
100
AcDbEntity
  8
1
  6
CONTINUOUS
 62
           2
100
AcDbSpline
210
0.0
220
0.0
230
1.0
 70
           0
 71
           4
 72
           8
 73
           4
 74
           3
 42
0.00000000001
 43
0.00000000001
 44
0.00000000001
 40
0.0
 40
0.0
 40
0.0
 40
0.0
 40
0.8839839298253631
 40
0.8839839298253631
 40
0.8839839298253631
 40
0.8839839298253631
 10
181.50702414836411
 20
-253.97295535147401
 30
0.0
 10
181.77273791671499
 20
-254.06961189927901
 30
0.0
 10
182.06258864219811
 20
-254.14977622604101
 30
0.0
 10
182.356356590171
 20
-254.2130464657771
 30
0.0
 11
181.50702414836411
 21
-253.97295535147401
 31
0.0
 11
181.92117005190931
 21
-254.10552077415139
 31
0.0
 11
182.356356590171
 21
-254.2130464657771
 31
0.0
  0
SPLINE
  5
27A
100
AcDbEntity
  8
1
  6
CONTINUOUS
 62
           2
100
AcDbSpline
210
0.0
220
0.0
230
1.0
 70
           0
 71
           4
 72
          10
 73
           6
 74
           7
 42
0.00000000001
 43
0.00000000001
 44
0.00000000001
 40
0.0
 40
0.0
 40
0.0
 40
0.0
 40
0.0910410293599236
 40
0.1817552611628203
 40
0.2729355712483617
 40
0.2729355712483617
 40
0.2729355712483617
 40
0.2729355712483617
 10
181.31106368001161
 20
-253.79453921478401
 30
0.0
 10
181.33103749063011
 20
-253.83520938099309
 30
0.0
 10
181.35851140163649
 20
-253.87176743960919
 30
0.0
 10
181.4255884329464
 20
-253.93283906740999
 30
0.0
 10
181.46459248966821
 20
-253.95680720714819
 30
0.0
 10
181.50702414836411
 20
-253.97295535147401
 30
0.0
 11
181.31106368001161
 21
-253.79453921478401
 31
0.0
 11
181.33768106115744
 21
-253.84169948237528
 31
0.0
 11
181.36287490145747
 21
-253.87286467276942
 31
0.0
 11
181.39239103068843
 21
-253.90189547662663
 31
0.0
 11
181.42405652978465
 21
-253.92857311488467
 31
0.0
 11
181.45749745221869
 21
-253.95079092216713
 31
0.0
 11
181.50702414836411
 21
-253.97295535147401
 31
0.0
  0
SPLINE
  5
279
100
AcDbEntity
  8
1
  6
CONTINUOUS
 62
           2
100
AcDbSpline
210
0.0
220
0.0
230
1.0
 70
           0
 71
           4
 72
          14
 73
          10
 74
          15
 42
0.00000000001
 43
0.00000000001
 44
0.00000000001
 40
0.0
 40
0.0
 40
0.0
 40
0.0
 40
0.0705293140439286
 40
0.1406740463561605
 40
0.1760549232774244
 40
0.24613921211082
 40
0.2815010743667445
 40
0.3515760178569329
 40
0.4220091685497343
 40
0.4220091685497343
 40
0.4220091685497343
 40
0.4220091685497343
 10
181.40732228985291
 20
-253.42823197280501
 30
0.0
 10
181.3772226399247
 20
-253.44630930396809
 30
0.0
 10
181.35091937384601
 20
-253.470028466835
 30
0.0
 10
181.30881245449891
 20
-253.5261291871
 30
0.0
 10
181.29340707900121
 20
-253.55798010321701
 30
0.0
 10
181.27559498609079
 20
-253.62576311648311
 30
0.0
 10
181.273356748368
 20
-253.66105407274819
 30
0.0
 10
181.28246324409301
 20
-253.73053478547311
 30
0.0
 10
181.2937218417006
 20
-253.76406734297399
 30
0.0
 10
181.31106368001161
 20
-253.79453921478401
 30
0.0
 11
181.40732228985291
 21
-253.42823197280501
 31
0.0
 11
181.37251217161133
 21
-253.45214535374075
 31
0.0
 11
181.34900200638066
 21
-253.47539902206441
 31
0.0
 11
181.32631719175851
 21
-253.50353481566984
 31
0.0
 11
181.307559315926
 21
-253.53080590251699
 31
0.0
 11
181.30127417773321
 21
-253.54230158696205
 31
0.0
 11
181.2959914126489
 21
-253.55524603376031
 31
0.0
 11
181.28493641234888
 21
-253.59199052353409
 31
0.0
 11
181.27650090590856
 21
-253.62942103893624
 31
0.0
 11
181.27474006172088
 21
-253.64328170377672
 31
0.0
 11
181.27456474199619
 21
-253.65637538654977
 31
0.0
 11
181.27750152292657
 21
-253.68931275725188
 31
0.0
 11
181.28343540769623
 21
-253.72492680039505
 31
0.0
 11
181.29248739849919
 21
-253.75668037579973
 31
0.0
 11
181.31106368001161
 21
-253.79453921478401
 31
0.0
  0
SPLINE
  5
278
100
AcDbEntity
  8
1
  6
CONTINUOUS
 62
           2
100
AcDbSpline
210
0.0
220
0.0
230
1.0
 70
           0
 71
           4
 72
          10
 73
           6
 74
           7
 42
0.00000000001
 43
0.00000000001
 44
0.00000000001
 40
0.0
 40
0.0
 40
0.0
 40
0.0
 40
0.0982192759664033
 40
0.214739568328057
 40
0.3314572345271521
 40
0.3314572345271521
 40
0.3314572345271521
 40
0.3314572345271521
 10
181.7230134943089
 20
-253.34260050608219
 30
0.0
 10
181.664743535795
 20
-253.3422656961161
 30
0.0
 10
181.6254394867843
 20
-253.34941152320201
 30
0.0
 10
181.51256018795681
 20
-253.3783120842391
 30
0.0
 10
181.45822105673099
 20
-253.3999466223591
 30
0.0
 10
181.40732228985291
 20
-253.42823197280501
 30
0.0
 11
181.7230134943089
 21
-253.34260050608219
 31
0.0
 11
181.65990695462744
 21
-253.34465307231142
 31
0.0
 11
181.62171251492907
 21
-253.3512246516018
 31
0.0
 11
181.57168753173718
 21
-253.3635219411988
 31
0.0
 11
181.51888957692535
 21
-253.3786188143373
 31
0.0
 11
181.46963948492686
 21
-253.39675640653772
 31
0.0
 11
181.40732228985291
 21
-253.42823197280501
 31
0.0
  0
SPLINE
  5
277
100
AcDbEntity
  8
1
  6
CONTINUOUS
 62
           2
100
AcDbSpline
210
0.0
220
0.0
230
1.0
 70
           0
 71
           4
 72
          12
 73
           8
 74
          11
 42
0.00000000001
 43
0.00000000001
 44
0.00000000001
 40
0.0
 40
0.0
 40
0.0
 40
0.0
 40
0.1755260940675765
 40
0.3502868648703933
 40
0.4386305177281836
 40
0.6135752902116037
 40
0.7660806339779537
 40
0.7660806339779537
 40
0.7660806339779537
 40
0.7660806339779537
 10
169.79001339363421
 20
-252.92583070501999
 30
0.0
 10
169.7566579807677
 20
-252.84516994122899
 30
0.0
 10
169.70704823101869
 20
-252.77219534650499
 30
0.0
 10
169.5814670694522
 20
-252.65066058246109
 30
0.0
 10
169.50683179680669
 20
-252.60339350007399
 30
0.0
 10
169.3431197252481
 20
-252.5417166726161
 30
0.0
 10
169.25578476490921
 20
-252.52796314718199
 30
0.0
 10
169.19183995505921
 20
-252.532334653276
 30
0.0
 11
169.79001339363421
 21
-252.92583070501999
 31
0.0
 11
169.74369986178212
 21
-252.83164229344226
 31
0.0
 11
169.69421482522205
 21
-252.76598904473519
 31
0.0
 11
169.63188260821909
 21
-252.70105525603699
 31
0.0
 11
169.57018187985068
 21
-252.6463541648522
 31
0.0
 11
169.54376733956497
 21
-252.62751444304646
 31
0.0
 11
169.51496618670552
 21
-252.61153956858675
 31
0.0
 11
169.43584568544486
 21
-252.57796863984876
 31
0.0
 11
169.3461568465471
 21
-252.54832673168795
 31
0.0
 11
169.2743413156839
 21
-252.53345710105128
 31
0.0
 11
169.19183995505921
 21
-252.532334653276
 31
0.0
  0
SPLINE
  5
276
100
AcDbEntity
  8
1
  6
CONTINUOUS
 62
           2
100
AcDbSpline
210
0.0
220
0.0
230
1.0
 70
           0
 71
           4
 72
          14
 73
          10
 74
          15
 42
0.00000000001
 43
0.00000000001
 44
0.00000000001
 40
0.0
 40
0.0
 40
0.0
 40
0.0
 40
0.0118460208652272
 40
0.0236580096069598
 40
0.0296081047761343
 40
0.0414314629872335
 40
0.047386894984692
 40
0.059218910029773
 40
0.0710943588533148
 40
0.0710943588533148
 40
0.0710943588533148
 40
0.0710943588533148
 10
168.67096037825431
 20
-255.9119897898432
 30
0.0
 10
168.6727031078986
 20
-255.91762800363321
 30
0.0
 10
168.6753813538285
 20
-255.92293511926101
 30
0.0
 10
168.6823862038905
 20
-255.932445910692
 30
0.0
 10
168.6866632903089
 20
-255.9365823541271
 30
0.0
 10
168.69641118097351
 20
-255.94327342481711
 30
0.0
 10
168.7018130767789
 20
-255.945780752475
 30
0.0
 10
168.71322364564691
 20
-255.94891052852699
 30
0.0
 10
168.7191516566923
 20
-255.94951085234109
 30
0.0
 10
168.7250559614036
 20
-255.9491216559241
 30
0.0
 11
168.67096037825431
 21
-255.9119897898432
 31
0.0
 11
168.67341490066846
 21
-255.91865592910241
 31
0.0
 11
168.6761170318087
 21
-255.92351749628068
 31
0.0
 11
168.67958182590988
 21
-255.9285307743219
 31
0.0
 11
168.68305022965782
 21
-255.93290389526825
 31
0.0
 11
168.68456728934879
 21
-255.9345035375905
 31
0.0
 11
168.68634453349341
 21
-255.93604437981347
 31
0.0
 11
168.69157343149237
 21
-255.93987298694424
 31
0.0
 11
168.6970260817493
 21
-255.94337669354422
 31
0.0
 11
168.69910479933012
 21
-255.94448271465234
 31
0.0
 11
168.70114427742988
 21
-255.94532469087895
 31
0.0
 11
168.7064793182642
 21
-255.94699463235673
 31
0.0
 11
168.71241194547144
 21
-255.94843241418437
 31
0.0
 11
168.71793369245589
 21
-255.94921463108494
 31
0.0
 11
168.7250559614036
 21
-255.9491216559241
 31
0.0
  0
SPLINE
  5
275
100
AcDbEntity
  8
1
  6
CONTINUOUS
 62
           2
100
AcDbSpline
210
0.0
220
0.0
230
1.0
 70
           0
 71
           4
 72
          14
 73
          10
 74
          15
 42
0.00000000001
 43
0.00000000001
 44
0.00000000001
 40
0.0
 40
0.0
 40
0.0
 40
0.0
 40
0.0968187832837527
 40
0.1930811617311551
 40
0.2416663554877534
 40
0.3378620628910874
 40
0.3864332472093046
 40
0.4826444887547271
 40
0.5793939482829996
 40
0.5793939482829996
 40
0.5793939482829996
 40
0.5793939482829996
 10
182.33740873785021
 20
-255.83989556600619
 30
0.0
 10
182.3759805974037
 20
-255.811015492237
 30
0.0
 10
182.40838224268151
 20
-255.77474808285299
 30
0.0
 10
182.4570452887597
 20
-255.691691755877
 30
0.0
 10
182.472817444404
 20
-255.64573786421701
 30
0.0
 10
182.48539338372171
 20
-255.5503677437751
 30
0.0
 10
182.48207073228471
 20
-255.50191034048621
 30
0.0
 10
182.45659384224891
 20
-255.4091335595881
 30
0.0
 10
182.43469574143961
 20
-255.36574693474
 30
0.0
 10
182.40492200531261
 20
-255.32790610044009
 30
0.0
 11
182.33740873785021
 21
-255.83989556600619
 31
0.0
 11
182.38151741585691
 21
-255.80231350252842
 31
0.0
 11
182.41010447821628
 21
-255.7670773833693
 31
0.0
 11
182.43668430055624
 21
-255.72522026801533
 31
0.0
 11
182.45794972127831
 21
-255.68509626452592
 31
0.0
 11
182.46465584763482
 21
-255.66840349788856
 31
0.0
 11
182.46969577287419
 21
-255.64988098996653
 31
0.0
 11
182.47847288582847
 21
-255.59796616229792
 31
0.0
 11
182.48345209578551
 21
-255.5455522147339
 31
0.0
 11
182.48338482593397
 21
-255.52636294082632
 31
0.0
 11
182.48123352110414
 21
-255.50850768798284
 31
0.0
 11
182.47109243457029
 21
-255.46426732574812
 31
0.0
 11
182.4562666345609
 21
-255.4169807679981
 31
0.0
 11
182.43778773238014
 21
-255.37557874239462
 31
0.0
 11
182.40492200531261
 21
-255.32790610044009
 31
0.0
  0
SPLINE
  5
274
100
AcDbEntity
  8
1
  6
CONTINUOUS
 62
           2
100
AcDbSpline
210
0.0
220
0.0
230
1.0
 70
           0
 71
           4
 72
          12
 73
           8
 74
          11
 42
0.00000000001
 43
0.00000000001
 44
0.00000000001
 40
0.0
 40
0.0
 40
0.0
 40
0.0
 40
0.160634675442802
 40
0.3205808637006483
 40
0.401418963250181
 40
0.5615381781646256
 40
0.7228802051283277
 40
0.7228802051283277
 40
0.7228802051283277
 40
0.7228802051283277
 10
184.9306180866657
 20
-258.00343543133113
 30
0.0
 10
184.9028253521206
 20
-257.9285358020411
 30
0.0
 10
184.86005783112671
 20
-257.86004738309612
 30
0.0
 10
184.74976615781591
 20
-257.74420900458313
 30
0.0
 10
184.6833912453981
 20
-257.69806608161213
 30
0.0
 10
184.53624268035631
 20
-257.63493555974702
 30
0.0
 10
184.4570023166612
 20
-257.61718455761411
 30
0.0
 10
184.37690665541919
 20
-257.61458738792908
 30
0.0
 11
184.9306180866657
 21
-258.00343543133113
 31
0.0
 11
184.89148375466803
 21
-257.91569573438511
 31
0.0
 11
184.84858889228332
 21
-257.85386889098783
 31
0.0
 11
184.79398995254181
 21
-257.79217109252534
 31
0.0
 11
184.73963217019593
 21
-257.73981192155918
 31
0.0
 11
184.71628475076886
 21
-257.7215942123695
 31
0.0
 11
184.69108768571274
 21
-257.70605677409208
 31
0.0
 11
184.62306614354759
 21
-257.67327495658407
 31
0.0
 11
184.54620220000987
 21
-257.64323889954659
 31
0.0
 11
184.47305442958131
 21
-257.62345767767272
 31
0.0
 11
184.37690665541919
 21
-257.61458738792908
 31
0.0
  0
SPLINE
  5
273
100
AcDbEntity
  8
1
  6
CONTINUOUS
 62
           2
100
AcDbSpline
210
0.0
220
0.0
230
1.0
 70
           0
 71
           4
 72
           8
 73
           4
 74
           3
 42
0.00000000001
 43
0.00000000001
 44
0.00000000001
 40
0.0
 40
0.0
 40
0.0
 40
0.0
 40
0.1438264132612524
 40
0.1438264132612524
 40
0.1438264132612524
 40
0.1438264132612524
 10
157.9257305430888
 20
-252.53165587319
 30
0.0
 10
157.87777249145401
 20
-252.53157205522211
 30
0.0
 10
157.82989345597849
 20
-252.53545023845211
 30
0.0
 10
157.78256451064911
 20
-252.54237220603
 30
0.0
 11
157.9257305430888
 21
-252.53165587319
 31
0.0
 11
157.85391161200442
 21
-252.53438687003035
 31
0.0
 11
157.78256451064911
 21
-252.54237220603
 31
0.0
  0
SPLINE
  5
272
100
AcDbEntity
  8
1
  6
CONTINUOUS
 62
           2
100
AcDbSpline
210
0.0
220
0.0
230
1.0
 70
           0
 71
           4
 72
          10
 73
           6
 74
           7
 42
0.00000000001
 43
0.00000000001
 44
0.00000000001
 40
0.0
 40
0.0
 40
0.0
 40
0.0
 40
0.186343649831493
 40
0.3722378113053737
 40
0.558472829094163
 40
0.558472829094163
 40
0.558472829094163
 40
0.558472829094163
 10
159.1002199194514
 20
-256.48543629779692
 30
0.0
 10
159.0072534325279
 20
-256.48543476291587
 30
0.0
 10
158.91470610807619
 20
-256.49785600630003
 30
0.0
 10
158.73539289730209
 20
-256.54688060942908
 30
0.0
 10
158.64943548907789
 20
-256.5832629295881
 30
0.0
 10
158.56947284517591
 20
-256.63054364691698
 30
0.0
 11
159.1002199194514
 21
-256.48543629779692
 31
0.0
 11
158.98907343349455
 21
-256.48995577980639
 31
0.0
 11
158.90783557053365
 21
-256.5029469995452
 31
0.0
 11
158.82523702378785
 21
-256.5231204172095
 31
0.0
 11
158.74386824163633
 21
-256.54777788269712
 31
0.0
 11
158.66737602927992
 21
-256.5779094549564
 31
0.0
 11
158.56947284517591
 21
-256.63054364691698
 31
0.0
  0
SPLINE
  5
271
100
AcDbEntity
  8
1
  6
CONTINUOUS
 62
           2
100
AcDbSpline
210
0.0
220
0.0
230
1.0
 70
           0
 71
           4
 72
          14
 73
          10
 74
          15
 42
0.00000000001
 43
0.00000000001
 44
0.00000000001
 40
0.0
 40
0.0
 40
0.0
 40
0.0
 40
0.1433978098515616
 40
0.2764345844882081
 40
0.3437829960755929
 40
0.47712222852818
 40
0.5443950904826443
 40
0.6742743327348603
 40
0.808065963031791
 40
0.808065963031791
 40
0.808065963031791
 40
0.808065963031791
 10
181.98082222811681
 20
-258.43712444439598
 30
0.0
 10
182.0475897892243
 20
-258.43688423503801
 30
0.0
 10
182.12310411293001
 20
-258.42385673664512
 30
0.0
 10
182.2465394732786
 20
-258.37423320169108
 30
0.0
 10
182.30263606505611
 20
-258.33696416716788
 30
0.0
 10
182.3971797488735
 20
-258.24293841132788
 30
0.0
 10
182.43470175278671
 20
-258.18710171033399
 30
0.0
 10
182.47657699960251
 20
-258.06415830354808
 30
0.0
 10
182.489812030693
 20
-257.99825456764711
 30
0.0
 10
182.48989694953119
 20
-257.93168254561311
 30
0.0
 11
181.98082222811681
 21
-258.43712444439598
 31
0.0
 11
182.06452506983086
 21
-258.43178661317961
 31
0.0
 11
182.13232258494608
 21
-258.4161367232349
 31
0.0
 11
182.19705359864895
 21
-258.39313890487239
 31
0.0
 11
182.253258786103
 21
-258.36763687029634
 31
0.0
 11
182.27454395260057
 21
-258.35503217824919
 31
0.0
 11
182.29571874242262
 21
-258.33892711721109
 31
0.0
 11
182.34931605445149
 21
-258.28930453420207
 31
0.0
 11
182.39928228356439
 21
-258.23588095067572
 31
0.0
 11
182.41549968211015
 21
-258.21465966575471
 31
0.0
 11
182.42789218873844
 21
-258.19302971236641
 31
0.0
 11
182.45095952523417
 21
-258.13679142348599
 31
0.0
 11
182.47119817969627
 21
-258.07338778746089
 31
0.0
 11
182.4849775239598
 21
-258.01186502213989
 31
0.0
 11
182.48989694953119
 21
-257.93168254561311
 31
0.0
  0
SPLINE
  5
270
100
AcDbEntity
  8
1
  6
CONTINUOUS
 62
           2
100
AcDbSpline
210
0.0
220
0.0
230
1.0
 70
           0
 71
           4
 72
          12
 73
           8
 74
          11
 42
0.00000000001
 43
0.00000000001
 44
0.00000000001
 40
0.0
 40
0.0
 40
0.0
 40
0.0
 40
0.1608647158618281
 40
0.3210376916831697
 40
0.4019928015093237
 40
0.5741185130256636
 40
0.7353508300445283
 40
0.7353508300445283
 40
0.7353508300445283
 40
0.7353508300445283
 10
177.7998836683997
 20
-258.02622008754292
 30
0.0
 10
177.7721805065317
 20
-257.95116651948803
 30
0.0
 10
177.7294493493097
 20
-257.88251783560509
 30
0.0
 10
177.61913403372779
 20
-257.76638897040988
 30
0.0
 10
177.5527026604646
 20
-257.720122325261
 30
0.0
 10
177.40538123519909
 20
-257.63110739267808
 30
0.0
 10
177.32603067880299
 20
-257.61473132024997
 30
0.0
 10
177.24582118124599
 20
-257.61462827968597
 30
0.0
 11
177.7998836683997
 21
-258.02622008754292
 31
0.0
 11
177.76083726463901
 21
-257.93829310349901
 31
0.0
 11
177.71796625461712
 21
-257.87632052536458
 31
0.0
 11
177.66342735260704
 21
-257.81451451313347
 31
0.0
 11
177.60948906834085
 21
-257.76232872912709
 31
0.0
 11
177.58663459025527
 21
-257.74419277761911
 31
0.0
 11
177.56231329271745
 21
-257.72766502840921
 31
0.0
 11
177.49176931743071
 21
-257.68457406173877
 31
0.0
 11
177.41195467526254
 21
-257.64349578031397
 31
0.0
 11
177.34113703324519
 21
-257.62128417375408
 31
0.0
 11
177.24582118124599
 21
-257.61462827968597
 31
0.0
  0
SPLINE
  5
26F
100
AcDbEntity
  8
1
  6
CONTINUOUS
 62
           2
100
AcDbSpline
210
0.0
220
0.0
230
1.0
 70
           0
 71
           4
 72
          14
 73
          10
 74
          15
 42
0.00000000001
 43
0.00000000001
 44
0.00000000001
 40
0.0
 40
0.0
 40
0.0
 40
0.0
 40
0.1360449885693514
 40
0.2716616886746071
 40
0.3342845154424318
 40
0.4700340463507969
 40
0.5384417958001447
 40
0.6743062440380039
 40
0.8174302068843614
 40
0.8174302068843614
 40
0.8174302068843614
 40
0.8174302068843614
 10
174.51499975041909
 20
-258.11213483978707
 30
0.0
 10
174.5019262922284
 20
-258.04564471326512
 30
0.0
 10
174.4774535724205
 20
-257.98189922190801
 30
0.0
 10
174.4078605966275
 20
-257.86550030839197
 30
0.0
 10
174.37264435211691
 20
-257.8137177384001
 30
0.0
 10
174.26775898618101
 20
-257.72753772241998
 30
0.0
 10
174.2082579213089
 20
-257.69378504158112
 30
0.0
 10
174.08036877015689
 20
-257.64792096726802
 30
0.0
 10
174.01293750490149
 20
-257.6147027128041
 30
0.0
 10
173.9449829267374
 20
-257.61461541543298
 30
0.0
 11
174.51499975041909
 21
-258.11213483978707
 31
0.0
 11
174.4948949308932
 21
-258.03303706673216
 31
0.0
 11
174.46936889679827
 21
-257.97406239852711
 31
0.0
 11
174.43520647232927
 21
-257.91219597411316
 31
0.0
 11
174.40219652260984
 21
-257.8580042824243
 31
0.0
 11
174.38980256888965
 21
-257.8396818274424
 31
0.0
 11
174.37466716471167
 21
-257.82173441339381
 31
0.0
 11
174.32045944748745
 21
-257.77213615043968
 31
0.0
 11
174.26097532335376
 21
-257.72598216436592
 31
0.0
 11
174.23809049738003
 21
-257.71121443638691
 31
0.0
 11
174.21563760439454
 21
-257.69973081248997
 31
0.0
 11
174.15693023271078
 21
-257.67552225852472
 31
0.0
 11
174.09140692282438
 21
-257.64973658808117
 31
0.0
 11
174.02722421309414
 21
-257.62546152658535
 31
0.0
 11
173.9449829267374
 21
-257.61461541543298
 31
0.0
  0
SPLINE
  5
26E
100
AcDbEntity
  8
1
  6
CONTINUOUS
 62
           2
100
AcDbSpline
210
0.0
220
0.0
230
1.0
 70
           0
 71
           4
 72
          12
 73
           8
 74
          11
 42
0.00000000001
 43
0.00000000001
 44
0.00000000001
 40
0.0
 40
0.0
 40
0.0
 40
0.0
 40
0.1810114368465056
 40
0.3609790970172361
 40
0.4518861235079947
 40
0.6316526100460953
 40
0.812241875628246
 40
0.812241875628246
 40
0.812241875628246
 40
0.812241875628246
 10
175.2285800338901
 20
-261.89166488556788
 30
0.0
 10
175.3186025179526
 20
-261.89242751450411
 30
0.0
 10
175.40779435354449
 20
-261.87444924521702
 30
0.0
 10
175.57310533702139
 20
-261.80331108773998
 30
0.0
 10
175.64740658399529
 20
-261.75093349555101
 30
0.0
 10
175.76979433084091
 20
-261.61926258340901
 30
0.0
 10
175.81653495040661
 20
-261.54141722938198
 30
0.0
 10
175.84583226960561
 20
-261.45654182643898
 30
0.0
 11
175.2285800338901
 21
-261.89166488556788
 31
0.0
 11
175.33664998012298
 21
-261.88547667404572
 31
0.0
 11
175.41883009661956
 21
-261.86462880037169
 31
0.0
 11
175.50525941113162
 21
-261.83119653072043
 31
0.0
 11
175.58165893710742
 21
-261.79421649764015
 31
0.0
 11
175.60991203032657
 21
-261.77659771265786
 31
0.0
 11
175.63600203455837
 21
-261.75590160040622
 31
0.0
 11
175.69643968397864
 21
-261.69641122331399
 31
0.0
 11
175.75688131123482
 21
-261.6262966284304
 31
0.0
 11
175.80395653422246
 21
-261.55604705897031
 31
0.0
 11
175.84583226960561
 21
-261.45654182643898
 31
0.0
  0
SPLINE
  5
26D
100
AcDbEntity
  8
1
  6
CONTINUOUS
 62
           2
100
AcDbSpline
210
0.0
220
0.0
230
1.0
 70
           0
 71
           4
 72
          12
 73
           8
 74
          11
 42
0.00000000001
 43
0.00000000001
 44
0.00000000001
 40
0.0
 40
0.0
 40
0.0
 40
0.0
 40
0.1345518925042666
 40
0.2684628940756183
 40
0.3362094860611382
 40
0.4702746381526139
 40
0.6051477674047811
 40
0.6051477674047811
 40
0.6051477674047811
 40
0.6051477674047811
 10
171.55674702509671
 20
-257.94770146124893
 30
0.0
 10
171.53704993704881
 20
-257.88378109045698
 30
0.0
 10
171.50394362246109
 20
-257.82476759833798
 30
0.0
 10
171.41530778452719
 20
-257.72438909179601
 30
0.0
 10
171.3607908755836
 20
-257.68417084512998
 30
0.0
 10
171.23859682490331
 20
-257.62901580017802
 30
0.0
 10
171.1723156812001
 20
-257.61470911713701
 30
0.0
 10
171.1052502115086
 20
-257.6146229619531
 30
0.0
 11
171.55674702509671
 21
-257.94770146124893
 31
0.0
 11
171.52795885901782
 21
-257.87262165536242
 31
0.0
 11
171.49440224674328
 21
-257.81931679797856
 31
0.0
 11
171.45077351626452
 21
-257.76593527713072
 31
0.0
 11
171.40686786158241
 21
-257.7205314024344
 31
0.0
 11
171.38777978045886
 21
-257.70467262619917
 31
0.0
 11
171.36699930577294
 21
-257.6911143965271
 31
0.0
 11
171.31061551915417
 21
-257.66252563006583
 31
0.0
 11
171.24667443962019
 21
-257.63654110141044
 31
0.0
 11
171.18569239358982
 21
-257.62011790794605
 31
0.0
 11
171.1052502115086
 21
-257.6146229619531
 31
0.0
  0
SPLINE
  5
26C
100
AcDbEntity
  8
1
  6
CONTINUOUS
 62
           2
100
AcDbSpline
210
0.0
220
0.0
230
1.0
 70
           0
 71
           4
 72
          14
 73
          10
 74
          15
 42
0.00000000001
 43
0.00000000001
 44
0.00000000001
 40
0.0
 40
0.0
 40
0.0
 40
0.0
 40
0.1499263902229002
 40
0.2992565377390452
 40
0.3744460302567955
 40
0.5236495285977147
 40
0.5987660247175888
 40
0.747823355594365
 40
0.8973534525058911
 40
0.8973534525058911
 40
0.8973534525058911
 40
0.8973534525058911
 10
172.5103979774191
 20
-261.89162000828202
 30
0.0
 10
172.5850870712525
 20
-261.89194264287488
 30
0.0
 10
172.65927113642061
 20
-261.87940189381402
 30
0.0
 10
172.80008722054441
 20
-261.82969954568807
 30
0.0
 10
172.8656621210645
 20
-261.79291106642
 30
0.0
 10
172.98136285711331
 20
-261.6987037227841
 30
0.0
 10
173.0306201172821
 20
-261.641992081034
 30
0.0
 10
173.10760462587459
 20
-261.51435402509111
 30
0.0
 10
173.13475394497939
 20
-261.44438580074211
 30
0.0
 10
173.1493632352645
 20
-261.37135348558598
 30
0.0
 11
172.5103979774191
 21
-261.89162000828202
 31
0.0
 11
172.60018304619541
 21
-261.88712271838119
 31
0.0
 11
172.66904615889968
 21
-261.87255448464265
 31
0.0
 11
172.74243551038941
 21
-261.84917037217787
 31
0.0
 11
172.80804503640675
 21
-261.82326493289418
 31
0.0
 11
172.8329183735151
 21
-261.81072645782052
 31
0.0
 11
172.85798725983176
 21
-261.79475229454016
 31
0.0
 11
172.92298561599517
 21
-261.74513372816148
 31
0.0
 11
172.98473813790872
 21
-261.6915420437291
 31
0.0
 11
173.00543438830357
 21
-261.67025148766885
 31
0.0
 11
173.02273019654373
 21
-261.64844904954367
 31
0.0
 11
173.06129501465404
 21
-261.58952857515203
 31
0.0
 11
173.0989441927278
 21
-261.52249364744313
 31
0.0
 11
173.12700532990286
 21
-261.45816005618178
 31
0.0
 11
173.1493632352645
 21
-261.37135348558598
 31
0.0
  0
SPLINE
  5
26B
100
AcDbEntity
  8
1
  6
CONTINUOUS
 62
           2
100
AcDbSpline
210
0.0
220
0.0
230
1.0
 70
           0
 71
           4
 72
          14
 73
          10
 74
          15
 42
0.00000000001
 43
0.00000000001
 44
0.00000000001
 40
0.0
 40
0.0
 40
0.0
 40
0.0
 40
0.1379189446355893
 40
0.2751995486116801
 40
0.3445256858060408
 40
0.4819277588024696
 40
0.5513289273363144
 40
0.6888841469887383
 40
0.8271783231534391
 40
0.8271783231534391
 40
0.8271783231534391
 40
0.8271783231534391
 10
169.91883429927799
 20
-258.20466576680002
 30
0.0
 10
169.92838223357791
 20
-258.13670210928899
 30
0.0
 10
169.9244108594572
 20
-258.06752812750602
 30
0.0
 10
169.88988310261229
 20
-257.93466053087201
 30
0.0
 10
169.8596645660252
 20
-257.87226699478992
 30
0.0
 10
169.77676972172191
 20
-257.76268700368001
 30
0.0
 10
169.72490452092791
 20
-257.71657276357502
 30
0.0
 10
169.60626257776639
 20
-257.64696293828803
 30
0.0
 10
169.540646719433
 20
-257.62414846918409
 30
0.0
 10
169.472483278601
 20
-257.61462737189601
 30
0.0
 11
169.91883429927799
 21
-258.20466576680002
 31
0.0
 11
169.92520361213292
 21
-258.12237026235232
 31
0.0
 11
169.91847207523369
 21
-258.05808532830662
 31
0.0
 11
169.90311661555282
 21
-257.98904745343572
 31
0.0
 11
169.88420171368531
 21
-257.92708752871289
 31
0.0
 11
169.87419802345889
 21
-257.90344261076962
 31
0.0
 11
169.86070745770724
 21
-257.87960468725311
 31
0.0
 11
169.81751121367091
 21
-257.81803256216386
 31
0.0
 11
169.77001181453824
 21
-257.75970448767856
 31
0.0
 11
169.75072261167685
 21
-257.74020863182932
 31
0.0
 11
169.73067715284171
 21
-257.72412373998543
 31
0.0
 11
169.67612167519371
 21
-257.68895880202166
 31
0.0
 11
169.61377174971508
 21
-257.65526870265683
 31
0.0
 11
169.55360284925433
 21
-257.63113753347454
 31
0.0
 11
169.472483278601
 21
-257.61462737189601
 31
0.0
  0
SPLINE
  5
26A
100
AcDbEntity
  8
1
  6
CONTINUOUS
 62
           2
100
AcDbSpline
210
0.0
220
0.0
230
1.0
 70
           0
 71
           4
 72
          14
 73
          10
 74
          15
 42
0.00000000001
 43
0.00000000001
 44
0.00000000001
 40
0.0
 40
0.0
 40
0.0
 40
0.0
 40
0.1696166898921195
 40
0.3384872451391361
 40
0.4237755324304579
 40
0.5928229488574491
 40
0.6782069908376179
 40
0.8474280418436837
 40
1.0175232497285858
 40
1.0175232497285858
 40
1.0175232497285858
 40
1.0175232497285858
 10
176.1853078660275
 20
-256.14706332883497
 30
0.0
 10
176.18459678244071
 20
-256.23145793155601
 30
0.0
 10
176.20191140053029
 20
-256.314899513292
 30
0.0
 10
176.2678936531189
 20
-256.47034598888013
 30
0.0
 10
176.31591566650201
 20
-256.54082987483798
 30
0.0
 10
176.4365364185721
 20
-256.65926831104298
 30
0.0
 10
176.50795491103381
 20
-256.70606396852708
 30
0.0
 10
176.66485074651021
 20
-256.76946318708502
 30
0.0
 10
176.7487928999831
 20
-256.7854464014431
 30
0.0
 10
176.83343537508301
 20
-256.78480042374798
 30
0.0
 11
176.1853078660275
 21
-256.14706332883497
 31
0.0
 11
176.19121917425372
 21
-256.24831969611455
 31
0.0
 11
176.21083565575125
 21
-256.32530838005704
 31
0.0
 11
176.24197626723625
 21
-256.40654724297815
 31
0.0
 11
176.27616928423788
 21
-256.47853473380161
 31
0.0
 11
176.2926072363924
 21
-256.50550772030221
 31
0.0
 11
176.31332085435494
 21
-256.53208780475086
 31
0.0
 11
176.37698399071709
 21
-256.59924588364032
 31
0.0
 11
176.44529681201988
 21
-256.66168485724211
 31
0.0
 11
176.47228199953997
 21
-256.68194241698274
 31
0.0
 11
176.49957300839196
 21
-256.69791517770852
 31
0.0
 11
176.57229182712763
 21
-256.73090868061632
 31
0.0
 11
176.65422845798776
 21
-256.76070982357959
 31
0.0
 11
176.73177295265776
 21
-256.77926900872296
 31
0.0
 11
176.83343537508301
 21
-256.78480042374798
 31
0.0
  0
SPLINE
  5
269
100
AcDbEntity
  8
1
  6
CONTINUOUS
 62
           2
100
AcDbSpline
210
0.0
220
0.0
230
1.0
 70
           0
 71
           4
 72
          14
 73
          10
 74
          15
 42
0.00000000001
 43
0.00000000001
 44
0.00000000001
 40
0.0
 40
0.0
 40
0.0
 40
0.0
 40
0.0186686321461431
 40
0.0372549470613553
 40
0.0466419366001413
 40
0.0652475792641237
 40
0.074645110524162
 40
0.0940601871728656
 40
0.1127815540193899
 40
0.1127815540193899
 40
0.1127815540193899
 40
0.1127815540193899
 10
177.36441942481139
 20
-255.88061302758501
 30
0.0
 10
177.3644075756707
 20
-255.8899021469411
 30
0.0
 10
177.36623085779641
 20
-255.8991027317432
 30
0.0
 10
177.37333943026491
 20
-255.91627594633999
 30
0.0
 10
177.3785551648667
 20
-255.92408054019009
 30
0.0
 10
177.39171379236501
 20
-255.93723426442699
 30
0.0
 10
177.39952793112889
 20
-255.94245468865901
 30
0.0
 10
177.41673333190329
 20
-255.95145020895899
 30
0.0
 10
177.4259562430376
 20
-255.953291701306
 30
0.0
 10
177.43527264691471
 20
-255.9533036695571
 30
0.0
 11
177.36441942481139
 21
-255.88061302758501
 31
0.0
 11
177.36510108197891
 21
-255.89176430488283
 31
0.0
 11
177.3672028108162
 21
-255.90025715869115
 31
0.0
 11
177.37054995303652
 21
-255.90922885467123
 31
0.0
 11
177.37424217851992
 21
-255.91718534883915
 31
0.0
 11
177.37602471098629
 21
-255.92017011795858
 31
0.0
 11
177.37827821672093
 21
-255.92311585069487
 31
0.0
 11
177.38521437530352
 21
-255.93056686173867
 31
0.0
 11
177.39264104377727
 21
-255.9374857549812
 31
0.0
 11
177.3955559390962
 21
-255.93973496324782
 31
0.0
 11
177.39848146275546
 21
-255.94159443113705
 31
0.0
 11
177.40661722845161
 21
-255.94602549205257
 31
0.0
 11
177.41579714427294
 21
-255.95018825271427
 31
0.0
 11
177.42415306658827
 21
-255.95256626715965
 31
0.0
 11
177.43527264691471
 21
-255.9533036695571
 31
0.0
  0
SPLINE
  5
268
100
AcDbEntity
  8
1
  6
CONTINUOUS
 62
           2
100
AcDbSpline
210
0.0
220
0.0
230
1.0
 70
           0
 71
           4
 72
          12
 73
           8
 74
          11
 42
0.00000000001
 43
0.00000000001
 44
0.00000000001
 40
0.0
 40
0.0
 40
0.0
 40
0.0
 40
0.1650138648298751
 40
0.3294132433791169
 40
0.412403239917499
 40
0.576963871264068
 40
0.7423260280607268
 40
0.7423260280607268
 40
0.7423260280607268
 40
0.7423260280607268
 10
173.74891773795349
 20
-256.41367614589808
 30
0.0
 10
173.78376038581661
 20
-256.48803156487003
 30
0.0
 10
173.83254674582309
 20
-256.55505580630393
 30
0.0
 10
173.95274555233991
 20
-256.66721374217701
 30
0.0
 10
174.02304923881599
 20
-256.71131284866811
 30
0.0
 10
174.17648331635391
 20
-256.77079549520698
 30
0.0
 10
174.25819837245911
 20
-256.78563034444102
 30
0.0
 10
174.34050518857441
 20
-256.78475879162193
 30
0.0
 11
173.74891773795349
 21
-256.41367614589808
 31
0.0
 11
173.79616049977102
 21
-256.50042902889248
 31
0.0
 11
173.8444878964545
 21
-256.56084279370202
 31
0.0
 11
173.90442007101512
 21
-256.62073886771759
 31
0.0
 11
173.96327589149104
 21
-256.67133742098167
 31
0.0
 11
173.98816203401276
 21
-256.68880946769673
 31
0.0
 11
174.014718565701
 21
-256.70361033422614
 31
0.0
 11
174.08593815038139
 21
-256.73461040697373
 31
0.0
 11
174.1660148747398
 21
-256.76254655102434
 31
0.0
 11
174.24160499149724
 21
-256.77984763437792
 31
0.0
 11
174.34050518857441
 21
-256.78475879162193
 31
0.0
  0
SPLINE
  5
267
100
AcDbEntity
  8
1
  6
CONTINUOUS
 62
           2
100
AcDbSpline
210
0.0
220
0.0
230
1.0
 70
           0
 71
           4
 72
          12
 73
           8
 74
          11
 42
0.00000000001
 43
0.00000000001
 44
0.00000000001
 40
0.0
 40
0.0
 40
0.0
 40
0.0
 40
0.1663545862704762
 40
0.3320881270265042
 40
0.4157527150809341
 40
0.5816507953637538
 40
0.7483643382147709
 40
0.7483643382147709
 40
0.7483643382147709
 40
0.7483643382147709
 10
173.24062329326949
 20
-252.91360879710899
 30
0.0
 10
173.20643976286701
 20
-252.83821504361421
 30
0.0
 10
173.15809993290131
 20
-252.77004051066501
 30
0.0
 10
173.0383262644805
 20
-252.65548975822509
 30
0.0
 10
172.96799844065711
 20
-252.61017132389
 30
0.0
 10
172.81405314752519
 20
-252.5483407508371
 30
0.0
 10
172.73185724064709
 20
-252.532399568318
 30
0.0
 10
172.6488748576736
 20
-252.531616484062
 30
0.0
 11
173.24062329326949
 21
-252.91360879710899
 31
0.0
 11
173.19409362532133
 21
-252.82556326174875
 31
0.0
 11
173.14613247916094
 21
-252.76406007672264
 31
0.0
 11
173.08646325906216
 21
-252.70293820171699
 31
0.0
 11
173.0277611689541
 21
-252.65120450537472
 31
0.0
 11
173.00289002467278
 21
-252.63328514495385
 31
0.0
 11
172.97630132178625
 21
-252.618039542692
 31
0.0
 11
172.90488767344911
 21
-252.58592108901786
 31
0.0
 11
172.82450699010846
 21
-252.5567865226455
 31
0.0
 11
172.74851517887987
 21
-252.5383463518491
 31
0.0
 11
172.6488748576736
 21
-252.531616484062
 31
0.0
  0
SPLINE
  5
266
100
AcDbEntity
  8
1
  6
CONTINUOUS
 62
           2
100
AcDbSpline
210
0.0
220
0.0
230
1.0
 70
           0
 71
           4
 72
          12
 73
           8
 74
          11
 42
0.00000000001
 43
0.00000000001
 44
0.00000000001
 40
0.0
 40
0.0
 40
0.0
 40
0.0
 40
0.0092236932543469
 40
0.0184068537739039
 40
0.0230495237785446
 40
0.032241992122386
 40
0.041485296716553
 40
0.041485296716553
 40
0.041485296716553
 40
0.041485296716553
 10
170.0154110323526
 20
-256.76535862930808
 30
0.0
 10
170.01732101861089
 20
-256.76952843511708
 30
0.0
 10
170.02007377421569
 20
-256.77326026568107
 30
0.0
 10
170.02692007461479
 20
-256.77938060946008
 30
0.0
 10
170.030939971191
 20
-256.78170328384289
 30
0.0
 10
170.03966981342961
 20
-256.78458275058892
 30
0.0
 10
170.04428584891099
 20
-256.78510856744612
 30
0.0
 10
170.04886394730741
 20
-256.78468754167312
 30
0.0
 11
170.0154110323526
 21
-256.76535862930808
 31
0.0
 11
170.01802960451244
 21
-256.77021225070854
 31
0.0
 11
170.02076146613339
 21
-256.77355869331916
 31
0.0
 11
170.02416840993843
 21
-256.77683907996817
 31
0.0
 11
170.02752222228952
 21
-256.7795821214682
 31
0.0
 11
170.0289450155349
 21
-256.78051404313072
 31
0.0
 11
170.03046264110441
 21
-256.78128136130249
 31
0.0
 11
170.03451694933966
 21
-256.78281908408661
 31
0.0
 11
170.03906442174446
 21
-256.78413525333974
 31
0.0
 11
170.04333753954586
 21
-256.78483541243884
 31
0.0
 11
170.04886394730741
 21
-256.78468754167312
 31
0.0
  0
SPLINE
  5
265
100
AcDbEntity
  8
1
  6
CONTINUOUS
 62
           2
100
AcDbSpline
210
0.0
220
0.0
230
1.0
 70
           0
 71
           4
 72
          12
 73
           8
 74
          11
 42
0.00000000001
 43
0.00000000001
 44
0.00000000001
 40
0.0
 40
0.0
 40
0.0
 40
0.0
 40
0.2265828156495107
 40
0.4523359196786677
 40
0.5661645961665688
 40
0.7921032592818011
 40
1.0190935995801116
 40
1.0190935995801116
 40
1.0190935995801116
 40
1.0190935995801116
 10
180.1320700456177
 20
-253.89687208676611
 30
0.0
 10
180.13976649292411
 20
-254.00943873883401
 30
0.0
 10
180.16772254447969
 20
-254.11970335551911
 30
0.0
 10
180.2614764088917
 20
-254.325068096618
 30
0.0
 10
180.32650844138661
 20
-254.41849080446019
 30
0.0
 10
180.4866543655767
 20
-254.57786948074909
 30
0.0
 10
180.5804601874184
 20
-254.64252364620901
 30
0.0
 10
180.68350681593941
 20
-254.68904656311199
 30
0.0
 11
180.1320700456177
 21
-253.89687208676611
 31
0.0
 11
180.14902925217353
 21
-254.03157657603103
 31
0.0
 11
180.17955401797053
 21
-254.13340777885332
 31
0.0
 11
180.22444773020641
 21
-254.24080509668735
 31
0.0
 11
180.27241649526655
 21
-254.33602079689848
 31
0.0
 11
180.2945392046469
 21
-254.37137502269135
 31
0.0
 11
180.32000660618402
 21
-254.4043946432314
 31
0.0
 11
180.3926776540672
 21
-254.48249703610131
 31
0.0
 11
180.47785280624817
 21
-254.56196781311289
 31
0.0
 11
180.56288566196278
 21
-254.62611872749522
 31
0.0
 11
180.68350681593941
 21
-254.68904656311199
 31
0.0
  0
SPLINE
  5
264
100
AcDbEntity
  8
1
  6
CONTINUOUS
 62
           2
100
AcDbSpline
210
0.0
220
0.0
230
1.0
 70
           0
 71
           4
 72
           8
 73
           4
 74
           3
 42
0.00000000001
 43
0.00000000001
 44
0.00000000001
 40
0.0
 40
0.0
 40
0.0
 40
0.0
 40
0.5699373049888582
 40
0.5699373049888582
 40
0.5699373049888582
 40
0.5699373049888582
 10
180.18120643398979
 20
-253.33562103635319
 30
0.0
 10
180.1300567165687
 20
-253.51804228233101
 30
0.0
 10
180.11339407271549
 20
-253.70836816251321
 30
0.0
 10
180.1320700456177
 20
-253.89687208676611
 30
0.0
 11
180.18120643398979
 21
-253.33562103635319
 31
0.0
 11
180.13045360593253
 21
-253.61396555720648
 31
0.0
 11
180.1320700456177
 21
-253.89687208676611
 31
0.0
  0
SPLINE
  5
263
100
AcDbEntity
  8
1
  6
CONTINUOUS
 62
           2
100
AcDbSpline
210
0.0
220
0.0
230
1.0
 70
           0
 71
           4
 72
          10
 73
           6
 74
           7
 42
0.00000000001
 43
0.00000000001
 44
0.00000000001
 40
0.0
 40
0.0
 40
0.0
 40
0.0
 40
0.2471289758185787
 40
0.4926485534855077
 40
0.7394253829868307
 40
0.7394253829868307
 40
0.7394253829868307
 40
0.7394253829868307
 10
180.62445243415601
 20
-252.77937040478699
 30
0.0
 10
180.51476051694189
 20
-252.83476332887199
 30
0.0
 10
180.41836250156439
 20
-252.91314712171109
 30
0.0
 10
180.26535721597571
 20
-253.10516078164099
 30
0.0
 10
180.2105550992124
 20
-253.21652527522801
 30
0.0
 10
180.18120643398979
 20
-253.33562103635319
 30
0.0
 11
180.62445243415601
 21
-252.77937040478699
 31
0.0
 11
180.49807486078714
 21
-252.8539726449799
 31
0.0
 11
180.41665274717863
 21
-252.9258709929928
 31
0.0
 11
180.34311464664282
 21
-253.01022570530515
 31
0.0
 11
180.27732387652819
 21
-253.10073660378751
 31
0.0
 11
180.22553425195321
 21
-253.19600449232354
 31
0.0
 11
180.18120643398979
 21
-253.33562103635319
 31
0.0
  0
CIRCLE
  5
262
100
AcDbEntity
  8
1
  6
CONTINUOUS
 62
           6
100
AcDbCircle
 10
515.457850086093
 20
-354.403051830701
 40
2.0
  0
CIRCLE
  5
261
100
AcDbEntity
  8
1
  6
CONTINUOUS
 62
           7
100
AcDbCircle
 10
385.457850086094
 20
-354.403051830701
 40
2.950000000002
  0
CIRCLE
  5
260
100
AcDbEntity
  8
1
  6
CONTINUOUS
 62
           7
100
AcDbCircle
 10
385.457850086094
 20
-354.403051830701
 40
3.5
  0
CIRCLE
  5
25F
100
AcDbEntity
  8
1
  6
CONTINUOUS
 62
           7
100
AcDbCircle
 10
385.457850086094
 20
-354.403051830701
 40
2.75
  0
CIRCLE
  5
25E
100
AcDbEntity
  8
1
  6
CONTINUOUS
 62
           7
100
AcDbCircle
 10
385.457850086094
 20
-254.403051830701
 40
2.950000000002
  0
CIRCLE
  5
25D
100
AcDbEntity
  8
1
  6
CONTINUOUS
 62
           7
100
AcDbCircle
 10
385.457850086094
 20
-254.403051830701
 40
3.5
  0
CIRCLE
  5
25C
100
AcDbEntity
  8
1
  6
CONTINUOUS
 62
           7
100
AcDbCircle
 10
385.457850086094
 20
-254.403051830701
 40
2.75
  0
CIRCLE
  5
25B
100
AcDbEntity
  8
1
  6
CONTINUOUS
 62
           7
100
AcDbCircle
 10
23.989743488025
 20
-291.673051830701
 40
2.08
  0
CIRCLE
  5
25A
100
AcDbEntity
  8
1
  6
CONTINUOUS
 62
           7
100
AcDbCircle
 10
23.989743488025
 20
-299.993508201905
 40
2.08
  0
CIRCLE
  5
259
100
AcDbEntity
  8
1
  6
CONTINUOUS
 62
           7
100
AcDbCircle
 10
23.989743488025
 20
-308.313964573105
 40
2.08
  0
CIRCLE
  5
258
100
AcDbEntity
  8
1
  6
CONTINUOUS
 62
           7
100
AcDbCircle
 10
23.989743488025
 20
-316.634420944309
 40
2.08
  0
CIRCLE
  5
257
100
AcDbEntity
  8
1
  6
CONTINUOUS
 62
           7
100
AcDbCircle
 10
23.989743488025
 20
-324.954877315513
 40
2.08
  0
CIRCLE
  5
256
100
AcDbEntity
  8
1
  6
CONTINUOUS
 62
           7
100
AcDbCircle
 10
17.749743488026
 20
-276.593508201904
 40
2.08
  0
CIRCLE
  5
255
100
AcDbEntity
  8
1
  6
CONTINUOUS
 62
           7
100
AcDbCircle
 10
17.749743488026
 20
-266.193051830702
 40
2.08
  0
CIRCLE
  5
254
100
AcDbEntity
  8
1
  6
CONTINUOUS
 62
           7
100
AcDbCircle
 10
136.189487898171
 20
-273.5130518307
 40
2.08
  0
CIRCLE
  5
253
100
AcDbEntity
  8
1
  6
CONTINUOUS
 62
           7
100
AcDbCircle
 10
136.189487898171
 20
-281.313051830702
 40
2.08
  0
CIRCLE
  5
252
100
AcDbEntity
  8
1
  6
CONTINUOUS
 62
           7
100
AcDbCircle
 10
136.189487898171
 20
-289.113051830701
 40
2.08
  0
CIRCLE
  5
251
100
AcDbEntity
  8
1
  6
CONTINUOUS
 62
           7
100
AcDbCircle
 10
136.189487898171
 20
-296.913051830701
 40
2.08
  0
CIRCLE
  5
250
100
AcDbEntity
  8
1
  6
CONTINUOUS
 62
           7
100
AcDbCircle
 10
82.157840277939
 20
-316.217051830701
 40
1.300000000001
  0
CIRCLE
  5
24F
100
AcDbEntity
  8
1
  6
CONTINUOUS
 62
           7
100
AcDbCircle
 10
99.837840277939
 20
-316.217051830701
 40
1.300000000001
  0
CIRCLE
  5
24E
100
AcDbEntity
  8
1
  6
CONTINUOUS
 62
           7
100
AcDbCircle
 10
117.56464027794
 20
-316.217051830701
 40
1.300000000001
  0
CIRCLE
  5
24D
100
AcDbEntity
  8
1
  6
CONTINUOUS
 62
           7
100
AcDbCircle
 10
117.51784027794
 20
-333.8970518307
 40
1.300000000001
  0
CIRCLE
  5
24C
100
AcDbEntity
  8
1
  6
CONTINUOUS
 62
           7
100
AcDbCircle
 10
99.837840277939
 20
-333.8970518307
 40
1.300000000001
  0
CIRCLE
  5
24B
100
AcDbEntity
  8
1
  6
CONTINUOUS
 62
           7
100
AcDbCircle
 10
82.157840277939
 20
-333.8970518307
 40
1.300000000001
  0
CIRCLE
  5
24A
100
AcDbEntity
  8
1
  6
CONTINUOUS
 62
           7
100
AcDbCircle
 10
515.457850086093
 20
-254.403051830701
 40
2.75
  0
CIRCLE
  5
249
100
AcDbEntity
  8
1
  6
CONTINUOUS
 62
           7
100
AcDbCircle
 10
515.457850086093
 20
-254.403051830701
 40
3.5
  0
CIRCLE
  5
248
100
AcDbEntity
  8
1
  6
CONTINUOUS
 62
           7
100
AcDbCircle
 10
515.457850086093
 20
-254.403051830701
 40
2.950000000002
  0
CIRCLE
  5
247
100
AcDbEntity
  8
1
  6
CONTINUOUS
 62
           7
100
AcDbCircle
 10
515.457850086093
 20
-354.403051830701
 40
2.75
  0
CIRCLE
  5
246
100
AcDbEntity
  8
1
  6
CONTINUOUS
 62
           7
100
AcDbCircle
 10
515.457850086093
 20
-354.403051830701
 40
3.5
  0
CIRCLE
  5
245
100
AcDbEntity
  8
1
  6
CONTINUOUS
 62
           7
100
AcDbCircle
 10
515.457850086093
 20
-354.403051830701
 40
2.950000000002
  0
CIRCLE
  5
244
100
AcDbEntity
  8
1
  6
CONTINUOUS
 62
           7
100
AcDbCircle
 10
215.149743488025
 20
-254.403051830701
 40
3.5
  0
CIRCLE
  5
243
100
AcDbEntity
  8
1
  6
CONTINUOUS
 62
           7
100
AcDbCircle
 10
215.149743488025
 20
-354.403051830701
 40
3.5
  0
CIRCLE
  5
242
100
AcDbEntity
  8
1
  6
CONTINUOUS
 62
           7
100
AcDbCircle
 10
-14.850256511975
 20
-254.403051830701
 40
3.5
  0
CIRCLE
  5
241
100
AcDbEntity
  8
1
  6
CONTINUOUS
 62
           7
100
AcDbCircle
 10
-14.850256511975
 20
-354.403051830701
 40
3.5
  0
ARC
  5
240
100
AcDbEntity
  8
1
  6
CONTINUOUS
 62
           7
100
AcDbCircle
 10
198.649743488025
 20
-254.403051830702
 40
6.999999999999
100
AcDbArc
 50
-16.257027896606
 51
16.257027896605
  0
ARC
  5
23F
100
AcDbEntity
  8
1
  6
CONTINUOUS
 62
           7
100
AcDbCircle
 10
204.409836628155
 20
-252.72337120123
 40
1.0
100
AcDbArc
 50
16.257027896581
 51
84.999999999989
  0
ARC
  5
23E
100
AcDbEntity
  8
1
  6
CONTINUOUS
 62
           7
100
AcDbCircle
 10
204.409836628155
 20
-256.082732460174
 40
1.0
100
AcDbArc
 50
-84.999999999989
 51
-16.257027896589
  0
ARC
  5
23D
100
AcDbEntity
  8
1
  6
CONTINUOUS
 62
           7
100
AcDbCircle
 10
204.409836628155
 20
-356.082732460174
 40
1.0
100
AcDbArc
 50
-84.999999999989
 51
-16.257027896589
  0
ARC
  5
23C
100
AcDbEntity
  8
1
  6
CONTINUOUS
 62
           7
100
AcDbCircle
 10
204.409836628155
 20
-352.72337120123
 40
1.0
100
AcDbArc
 50
16.257027896589
 51
84.999999999989
  0
ARC
  5
23B
100
AcDbEntity
  8
1
  6
CONTINUOUS
 62
           7
100
AcDbCircle
 10
198.649743488025
 20
-354.403051830702
 40
6.999999999999
100
AcDbArc
 50
-16.257027896606
 51
16.257027896606
  0
ARC
  5
23A
100
AcDbEntity
  8
1
  6
CONTINUOUS
 62
           7
100
AcDbCircle
 10
1.649743488025
 20
-354.403051830702
 40
6.999999999999
100
AcDbArc
 50
163.742972103394
 51
-163.742972103394
  0
ARC
  5
239
100
AcDbEntity
  8
1
  6
CONTINUOUS
 62
           7
100
AcDbCircle
 10
-4.110349652105
 20
-352.72337120123
 40
1.0
100
AcDbArc
 50
95.000000000009
 51
163.74297210341
  0
ARC
  5
238
100
AcDbEntity
  8
1
  6
CONTINUOUS
 62
           7
100
AcDbCircle
 10
-4.110349652105
 20
-356.082732460174
 40
1.0
100
AcDbArc
 50
-163.74297210341
 51
-95.000000000009
  0
ARC
  5
237
100
AcDbEntity
  8
1
  6
CONTINUOUS
 62
           7
100
AcDbCircle
 10
-4.110349652105
 20
-256.082732460174
 40
1.0
100
AcDbArc
 50
-163.74297210341
 51
-95.000000000009
  0
ARC
  5
236
100
AcDbEntity
  8
1
  6
CONTINUOUS
 62
           7
100
AcDbCircle
 10
-4.110349652105
 20
-252.72337120123
 40
0.999999999999
100
AcDbArc
 50
95.000000000009
 51
163.742972103418
  0
ARC
  5
235
100
AcDbEntity
  8
1
  6
CONTINUOUS
 62
           7
100
AcDbCircle
 10
1.649743488025
 20
-254.403051830702
 40
6.999999999999
100
AcDbArc
 50
163.742972103395
 51
-163.742972103394
  0
ARC
  5
234
100
AcDbEntity
  8
1
  6
CONTINUOUS
 62
           7
100
AcDbCircle
 10
204.409836628155
 20
158.563315778121
 40
0.999999999999
100
AcDbArc
 50
-84.999999999989
 51
-16.257027896586
  0
ARC
  5
233
100
AcDbEntity
  8
1
  6
CONTINUOUS
 62
           7
100
AcDbCircle
 10
204.409836628155
 20
161.922677037065
 40
1.0
100
AcDbArc
 50
16.257027896587
 51
84.999999999989
  0
ARC
  5
232
100
AcDbEntity
  8
1
  6
CONTINUOUS
 62
           7
100
AcDbCircle
 10
198.649743488025
 20
160.242996407593
 40
6.999999999999
100
AcDbArc
 50
-16.257027896606
 51
16.257027896606
  0
ARC
  5
231
100
AcDbEntity
  8
1
  6
CONTINUOUS
 62
           7
100
AcDbCircle
 10
196.349743488025
 20
30.242996407594
 40
6.999999999999
100
AcDbArc
 50
-16.257027896606
 51
16.257027896606
  0
ARC
  5
230
100
AcDbEntity
  8
1
  6
CONTINUOUS
 62
           7
100
AcDbCircle
 10
202.109836628155
 20
31.922677037066
 40
1.0
100
AcDbArc
 50
16.257027896582
 51
84.999999999989
  0
ARC
  5
22F
100
AcDbEntity
  8
1
  6
CONTINUOUS
 62
           7
100
AcDbCircle
 10
202.109836628155
 20
28.563315778122
 40
0.999999999999
100
AcDbArc
 50
-84.999999999989
 51
-16.257027896583
  0
ARC
  5
22E
100
AcDbEntity
  8
1
  6
CONTINUOUS
 62
           7
100
AcDbCircle
 10
-1.810349652105
 20
28.563315778122
 40
1.0
100
AcDbArc
 50
-163.742972103416
 51
-95.000000000009
  0
ARC
  5
22D
100
AcDbEntity
  8
1
  6
CONTINUOUS
 62
           7
100
AcDbCircle
 10
-1.810349652105
 20
31.922677037066
 40
0.999999999999
100
AcDbArc
 50
95.000000000009
 51
163.742972103417
  0
ARC
  5
22C
100
AcDbEntity
  8
1
  6
CONTINUOUS
 62
           7
100
AcDbCircle
 10
3.949743488026
 20
30.242996407594
 40
6.999999999999
100
AcDbArc
 50
163.742972103394
 51
-163.742972103394
  0
ARC
  5
22B
100
AcDbEntity
  8
1
  6
CONTINUOUS
 62
           7
100
AcDbCircle
 10
1.649743488026
 20
160.242996407593
 40
6.999999999999
100
AcDbArc
 50
163.742972103394
 51
-163.742972103394
  0
ARC
  5
22A
100
AcDbEntity
  8
1
  6
CONTINUOUS
 62
           7
100
AcDbCircle
 10
-4.110349652105
 20
161.922677037065
 40
0.999999999999
100
AcDbArc
 50
95.000000000009
 51
163.742972103412
  0
ARC
  5
229
100
AcDbEntity
  8
1
  6
CONTINUOUS
 62
           7
100
AcDbCircle
 10
-4.110349652105
 20
158.563315778121
 40
1.0
100
AcDbArc
 50
-163.742972103414
 51
-95.000000000009
  0
LINE
  5
228
100
AcDbEntity
  8
1
  6
DOT_CENTER
 62
           2
100
AcDbLine
 10
385.457850086094
 20
-350.028051830701
 11
385.457850086094
 21
-358.778051830701
  0
LINE
  5
227
100
AcDbEntity
  8
1
  6
CONTINUOUS
 62
           7
100
AcDbLine
 10
202.449743488025
 20
-257.903051830702
 11
202.949743488025
 21
-257.903051830702
  0
LINE
  5
226
100
AcDbEntity
  8
1
  6
CONTINUOUS
 62
           7
100
AcDbLine
 10
202.449743488025
 20
-250.903051830702
 11
202.449743488025
 21
-257.903051830702
  0
LINE
  5
225
100
AcDbEntity
  8
1
  6
CONTINUOUS
 62
           7
100
AcDbLine
 10
202.949743488025
 20
-250.903051830702
 11
202.449743488025
 21
-250.903051830702
  0
LINE
  5
224
100
AcDbEntity
  8
1
  6
CONTINUOUS
 62
           7
100
AcDbLine
 10
202.949743488025
 20
-257.903051830702
 11
202.949743488025
 21
-250.903051830702
  0
LINE
  5
223
100
AcDbEntity
  8
1
  6
CONTINUOUS
 62
           7
100
AcDbLine
 10
203.649743488025
 20
-254.006385164035
 11
202.949743488025
 21
-254.206385164035
  0
LINE
  5
222
100
AcDbEntity
  8
1
  6
CONTINUOUS
 62
           7
100
AcDbLine
 10
203.649743488025
 20
-254.59971849737
 11
202.949743488025
 21
-254.799718497369
  0
LINE
  5
221
100
AcDbEntity
  8
1
  6
CONTINUOUS
 62
           7
100
AcDbLine
 10
203.649743488025
 20
-251.453051830702
 11
202.949743488025
 21
-251.453051830702
  0
LINE
  5
220
100
AcDbEntity
  8
1
  6
CONTINUOUS
 62
           7
100
AcDbLine
 10
203.649743488025
 20
-257.353051830703
 11
203.649743488025
 21
-251.453051830702
  0
LINE
  5
21F
100
AcDbEntity
  8
1
  6
CONTINUOUS
 62
           7
100
AcDbLine
 10
202.949743488025
 20
-257.353051830703
 11
203.649743488025
 21
-257.353051830703
  0
LINE
  5
21E
100
AcDbEntity
  8
1
  6
CONTINUOUS
 62
           7
100
AcDbLine
 10
204.496992370903
 20
-257.078927158265
 11
203.649743488025
 21
-257.153051830702
  0
LINE
  5
21D
100
AcDbEntity
  8
1
  6
CONTINUOUS
 62
           7
100
AcDbLine
 10
204.496992370903
 20
-251.727176503139
 11
203.649743488025
 21
-251.653051830702
  0
LINE
  5
21C
100
AcDbEntity
  8
1
  6
DOT_CENTER
 62
           2
100
AcDbLine
 10
206.336934844038
 20
-254.403051830702
 11
196.271995472228
 21
-254.403051830702
  0
LINE
  5
21B
100
AcDbEntity
  8
1
  6
DOT_CENTER
 62
           2
100
AcDbLine
 10
206.336934844038
 20
-354.403051830702
 11
196.271995472228
 21
-354.403051830702
  0
LINE
  5
21A
100
AcDbEntity
  8
1
  6
CONTINUOUS
 62
           7
100
AcDbLine
 10
204.496992370903
 20
-351.727176503139
 11
203.649743488025
 21
-351.653051830702
  0
LINE
  5
219
100
AcDbEntity
  8
1
  6
CONTINUOUS
 62
           7
100
AcDbLine
 10
204.496992370903
 20
-357.078927158265
 11
203.649743488025
 21
-357.153051830702
  0
LINE
  5
218
100
AcDbEntity
  8
1
  6
CONTINUOUS
 62
           7
100
AcDbLine
 10
202.949743488025
 20
-357.353051830703
 11
203.649743488025
 21
-357.353051830703
  0
LINE
  5
217
100
AcDbEntity
  8
1
  6
CONTINUOUS
 62
           7
100
AcDbLine
 10
203.649743488025
 20
-357.353051830703
 11
203.649743488025
 21
-351.453051830702
  0
LINE
  5
216
100
AcDbEntity
  8
1
  6
CONTINUOUS
 62
           7
100
AcDbLine
 10
203.649743488025
 20
-351.453051830702
 11
202.949743488025
 21
-351.453051830702
  0
LINE
  5
215
100
AcDbEntity
  8
1
  6
CONTINUOUS
 62
           7
100
AcDbLine
 10
203.649743488025
 20
-354.59971849737
 11
202.949743488025
 21
-354.799718497369
  0
LINE
  5
214
100
AcDbEntity
  8
1
  6
CONTINUOUS
 62
           7
100
AcDbLine
 10
203.649743488025
 20
-354.006385164035
 11
202.949743488025
 21
-354.206385164035
  0
LINE
  5
213
100
AcDbEntity
  8
1
  6
CONTINUOUS
 62
           7
100
AcDbLine
 10
202.949743488025
 20
-357.903051830702
 11
202.949743488025
 21
-350.903051830702
  0
LINE
  5
212
100
AcDbEntity
  8
1
  6
CONTINUOUS
 62
           7
100
AcDbLine
 10
202.949743488025
 20
-350.903051830702
 11
202.449743488025
 21
-350.903051830702
  0
LINE
  5
211
100
AcDbEntity
  8
1
  6
CONTINUOUS
 62
           7
100
AcDbLine
 10
202.449743488025
 20
-350.903051830702
 11
202.449743488025
 21
-357.903051830702
  0
LINE
  5
210
100
AcDbEntity
  8
1
  6
CONTINUOUS
 62
           7
100
AcDbLine
 10
202.449743488025
 20
-357.903051830702
 11
202.949743488025
 21
-357.903051830702
  0
LINE
  5
20F
100
AcDbEntity
  8
1
  6
LONG_DASHED
 62
           2
100
AcDbLine
 10
525.457850086095
 20
-239.403051830701
 11
525.457850086095
 21
-369.403051830701
  0
LINE
  5
20E
100
AcDbEntity
  8
1
  6
CONTINUOUS
 62
           7
100
AcDbLine
 10
375.457850086094
 20
-369.403051830701
 11
375.457850086094
 21
-239.403051830701
  0
LINE
  5
20D
100
AcDbEntity
  8
1
  6
DOT_CENTER
 62
           2
100
AcDbLine
 10
389.832850086094
 20
-354.403051830701
 11
381.082850086094
 21
-354.403051830701
  0
LINE
  5
20C
100
AcDbEntity
  8
1
  6
CONTINUOUS
 62
           7
100
AcDbLine
 10
387.257850086094
 20
-354.917337544986
 11
387.257850086094
 21
-353.888766116415
  0
LINE
  5
20B
100
AcDbEntity
  8
1
  6
CONTINUOUS
 62
           7
100
AcDbLine
 10
386.357850086095
 20
-354.917337544986
 11
387.257850086094
 21
-354.917337544986
  0
LINE
  5
20A
100
AcDbEntity
  8
1
  6
CONTINUOUS
 62
           7
100
AcDbLine
 10
385.972135800382
 20
-356.203051830702
 11
385.972135800382
 21
-355.3030518307
  0
LINE
  5
209
100
AcDbEntity
  8
1
  6
CONTINUOUS
 62
           7
100
AcDbLine
 10
384.943564371811
 20
-356.203051830702
 11
385.972135800382
 21
-356.203051830702
  0
LINE
  5
208
100
AcDbEntity
  8
1
  6
CONTINUOUS
 62
           7
100
AcDbLine
 10
384.943564371811
 20
-355.3030518307
 11
384.943564371811
 21
-356.203051830702
  0
LINE
  5
207
100
AcDbEntity
  8
1
  6
CONTINUOUS
 62
           7
100
AcDbLine
 10
383.657850086096
 20
-354.917337544986
 11
384.557850086096
 21
-354.917337544986
  0
LINE
  5
206
100
AcDbEntity
  8
1
  6
CONTINUOUS
 62
           7
100
AcDbLine
 10
383.657850086096
 20
-353.888766116415
 11
383.657850086096
 21
-354.917337544986
  0
LINE
  5
205
100
AcDbEntity
  8
1
  6
CONTINUOUS
 62
           7
100
AcDbLine
 10
384.557850086096
 20
-353.888766116415
 11
383.657850086096
 21
-353.888766116415
  0
LINE
  5
204
100
AcDbEntity
  8
1
  6
CONTINUOUS
 62
           7
100
AcDbLine
 10
384.943564371811
 20
-352.603051830702
 11
384.943564371811
 21
-353.503051830701
  0
LINE
  5
203
100
AcDbEntity
  8
1
  6
CONTINUOUS
 62
           7
100
AcDbLine
 10
385.972135800382
 20
-352.603051830702
 11
384.943564371811
 21
-352.603051830702
  0
LINE
  5
202
100
AcDbEntity
  8
1
  6
CONTINUOUS
 62
           7
100
AcDbLine
 10
385.972135800382
 20
-353.503051830701
 11
385.972135800382
 21
-352.603051830702
  0
LINE
  5
201
100
AcDbEntity
  8
1
  6
CONTINUOUS
 62
           7
100
AcDbLine
 10
387.257850086094
 20
-353.888766116415
 11
386.357850086095
 21
-353.888766116415
  0
LINE
  5
200
100
AcDbEntity
  8
1
  6
DOT_CENTER
 62
           2
100
AcDbLine
 10
385.457850086094
 20
-250.028051830701
 11
385.457850086094
 21
-258.778051830701
  0
LINE
  5
1FF
100
AcDbEntity
  8
1
  6
DOT_CENTER
 62
           2
100
AcDbLine
 10
389.832850086094
 20
-254.403051830701
 11
381.082850086094
 21
-254.403051830701
  0
LINE
  5
1FE
100
AcDbEntity
  8
1
  6
CONTINUOUS
 62
           7
100
AcDbLine
 10
387.257850086094
 20
-254.917337544986
 11
387.257850086094
 21
-253.888766116415
  0
LINE
  5
1FD
100
AcDbEntity
  8
1
  6
CONTINUOUS
 62
           7
100
AcDbLine
 10
386.357850086095
 20
-254.917337544986
 11
387.257850086094
 21
-254.917337544986
  0
LINE
  5
1FC
100
AcDbEntity
  8
1
  6
CONTINUOUS
 62
           7
100
AcDbLine
 10
385.972135800382
 20
-256.203051830702
 11
385.972135800382
 21
-255.3030518307
  0
LINE
  5
1FB
100
AcDbEntity
  8
1
  6
CONTINUOUS
 62
           7
100
AcDbLine
 10
384.943564371811
 20
-256.203051830702
 11
385.972135800382
 21
-256.203051830702
  0
LINE
  5
1FA
100
AcDbEntity
  8
1
  6
CONTINUOUS
 62
           7
100
AcDbLine
 10
384.943564371811
 20
-255.3030518307
 11
384.943564371811
 21
-256.203051830702
  0
LINE
  5
1F9
100
AcDbEntity
  8
1
  6
CONTINUOUS
 62
           7
100
AcDbLine
 10
383.657850086096
 20
-254.917337544986
 11
384.557850086096
 21
-254.917337544986
  0
LINE
  5
1F8
100
AcDbEntity
  8
1
  6
CONTINUOUS
 62
           7
100
AcDbLine
 10
383.657850086096
 20
-253.888766116415
 11
383.657850086096
 21
-254.917337544986
  0
LINE
  5
1F7
100
AcDbEntity
  8
1
  6
CONTINUOUS
 62
           7
100
AcDbLine
 10
384.557850086096
 20
-253.888766116415
 11
383.657850086096
 21
-253.888766116415
  0
LINE
  5
1F6
100
AcDbEntity
  8
1
  6
CONTINUOUS
 62
           7
100
AcDbLine
 10
384.943564371811
 20
-252.603051830702
 11
384.943564371811
 21
-253.503051830701
  0
LINE
  5
1F5
100
AcDbEntity
  8
1
  6
CONTINUOUS
 62
           7
100
AcDbLine
 10
385.972135800382
 20
-252.603051830702
 11
384.943564371811
 21
-252.603051830702
  0
LINE
  5
1F4
100
AcDbEntity
  8
1
  6
CONTINUOUS
 62
           7
100
AcDbLine
 10
385.972135800382
 20
-253.503051830701
 11
385.972135800382
 21
-252.603051830702
  0
LINE
  5
1F3
100
AcDbEntity
  8
1
  6
CONTINUOUS
 62
           7
100
AcDbLine
 10
387.257850086094
 20
-253.888766116415
 11
386.357850086095
 21
-253.888766116415
  0
LINE
  5
1F2
100
AcDbEntity
  8
1
  6
CONTINUOUS
 62
           7
100
AcDbLine
 10
375.457850086094
 20
-369.403051830701
 11
575.457850086093
 21
-369.403051830701
  0
LINE
  5
1F1
100
AcDbEntity
  8
1
  6
CONTINUOUS
 62
           7
100
AcDbLine
 10
375.457850086094
 20
-239.403051830701
 11
575.457850086093
 21
-239.403051830701
  0
LINE
  5
1F0
100
AcDbEntity
  8
1
  6
CONTINUOUS
 62
           7
100
AcDbLine
 10
-29.850256511975
 20
-368.403051830701
 11
-29.850256511975
 21
-240.403051830701
  0
LINE
  5
1EF
100
AcDbEntity
  8
1
  6
CONTINUOUS
 62
           7
100
AcDbLine
 10
230.149743488025
 20
-240.403051830701
 11
230.149743488025
 21
-368.403051830701
  0
LINE
  5
1EE
100
AcDbEntity
  8
1
  6
CONTINUOUS
 62
           7
100
AcDbLine
 10
200.149743488025
 20
-239.403051830701
 11
229.149743488025
 21
-239.403051830701
  0
LINE
  5
1ED
100
AcDbEntity
  8
1
  6
CONTINUOUS
 62
           7
100
AcDbLine
 10
229.149743488025
 20
-369.403051830701
 11
200.149743488025
 21
-369.403051830701
  0
LINE
  5
1EC
100
AcDbEntity
  8
1
  6
CONTINUOUS
 62
           7
100
AcDbLine
 10
202.449743488025
 20
-239.403051830701
 11
202.449743488025
 21
-369.403051830701
  0
LINE
  5
1EB
100
AcDbEntity
  8
1
  6
CONTINUOUS
 62
           7
100
AcDbLine
 10
45.829501299751
 20
-283.873132198847
 11
52.381760299353
 21
-283.873132198847
  0
LINE
  5
1EA
100
AcDbEntity
  8
1
  6
CONTINUOUS
 62
           7
100
AcDbLine
 10
45.829501299751
 20
-284.185132198848
 11
52.381760299353
 21
-284.185132198848
  0
LINE
  5
1E9
100
AcDbEntity
  8
1
  6
CONTINUOUS
 62
           7
100
AcDbLine
 10
45.829501299751
 20
-283.873132198847
 11
45.829501299751
 21
-284.185132198848
  0
LINE
  5
1E8
100
AcDbEntity
  8
1
  6
CONTINUOUS
 62
           7
100
AcDbLine
 10
20.349501299751
 20
-283.873132198847
 11
20.349501299751
 21
-284.185132198848
  0
LINE
  5
1E7
100
AcDbEntity
  8
1
  6
CONTINUOUS
 62
           7
100
AcDbLine
 10
18.061501299751
 20
-285.953132198849
 11
18.061501299751
 21
-328.177302853392
  0
LINE
  5
1E6
100
AcDbEntity
  8
1
  6
CONTINUOUS
 62
           7
100
AcDbLine
 10
19.829501299751
 20
-329.945302853392
 11
52.381760299353
 21
-329.945302853392
  0
LINE
  5
1E5
100
AcDbEntity
  8
1
  6
CONTINUOUS
 62
           7
100
AcDbLine
 10
54.149760299353
 20
-285.953132198849
 11
54.149760299353
 21
-328.177302853392
  0
LINE
  5
1E4
100
AcDbEntity
  8
1
  6
CONTINUOUS
 62
           7
100
AcDbLine
 10
19.829501299751
 20
-284.185132198848
 11
20.349501299751
 21
-284.185132198848
  0
LINE
  5
1E3
100
AcDbEntity
  8
1
  6
CONTINUOUS
 62
           7
100
AcDbLine
 10
19.829501299751
 20
-283.873132198847
 11
20.349501299751
 21
-283.873132198847
  0
LINE
  5
1E2
100
AcDbEntity
  8
1
  6
CONTINUOUS
 62
           7
100
AcDbLine
 10
17.749501299751
 20
-328.177302853392
 11
17.749501299751
 21
-285.953132198849
  0
LINE
  5
1E1
100
AcDbEntity
  8
1
  6
CONTINUOUS
 62
           7
100
AcDbLine
 10
52.381760299353
 20
-330.257302853392
 11
19.829501299751
 21
-330.257302853392
  0
LINE
  5
1E0
100
AcDbEntity
  8
1
  6
CONTINUOUS
 62
           7
100
AcDbLine
 10
54.461760299353
 20
-285.953132198849
 11
54.461760299353
 21
-328.177302853392
  0
LINE
  5
1DF
100
AcDbEntity
  8
1
  6
CONTINUOUS
 62
           2
100
AcDbLine
 10
11.509743488026
 20
-244.273051830702
 11
188.789743488025
 21
-244.273051830702
  0
LINE
  5
1DE
100
AcDbEntity
  8
1
  6
CONTINUOUS
 62
           2
100
AcDbLine
 10
195.029743488026
 20
-250.5130518307
 11
195.029743488026
 21
-356.793051830702
  0
LINE
  5
1DD
100
AcDbEntity
  8
1
  6
CONTINUOUS
 62
           2
100
AcDbLine
 10
188.789743488025
 20
-363.033051830702
 11
11.509743488026
 21
-363.033051830702
  0
LINE
  5
1DC
100
AcDbEntity
  8
1
  6
CONTINUOUS
 62
           2
100
AcDbLine
 10
5.269743488024
 20
-356.793051830702
 11
5.269743488024
 21
-250.5130518307
  0
LINE
  5
1DB
100
AcDbEntity
  8
1
  6
CONTINUOUS
 62
           2
100
AcDbLine
 10
188.789743488025
 20
-360.953051830702
 11
11.509743488026
 21
-360.953051830702
  0
LINE
  5
1DA
100
AcDbEntity
  8
1
  6
CONTINUOUS
 62
           2
100
AcDbLine
 10
7.349743488026
 20
-356.793051830702
 11
7.349743488026
 21
-250.5130518307
  0
LINE
  5
1D9
100
AcDbEntity
  8
1
  6
CONTINUOUS
 62
           2
100
AcDbLine
 10
11.509743488026
 20
-246.353051830702
 11
188.789743488025
 21
-246.353051830702
  0
LINE
  5
1D8
100
AcDbEntity
  8
1
  6
CONTINUOUS
 62
           2
100
AcDbLine
 10
192.949743488025
 20
-250.5130518307
 11
192.949743488025
 21
-356.793051830702
  0
LINE
  5
1D7
100
AcDbEntity
  8
1
  6
CONTINUOUS
 62
           7
100
AcDbLine
 10
60.029743488026
 20
-294.4810518307
 11
66.269743488024
 21
-294.4810518307
  0
LINE
  5
1D6
100
AcDbEntity
  8
1
  6
CONTINUOUS
 62
           7
100
AcDbLine
 10
60.029743488026
 20
-284.0810518307
 11
66.269743488024
 21
-284.0810518307
  0
LINE
  5
1D5
100
AcDbEntity
  8
1
  6
CONTINUOUS
 62
           7
100
AcDbLine
 10
60.029743488026
 20
-304.881051830702
 11
66.269743488024
 21
-304.881051830702
  0
LINE
  5
1D4
100
AcDbEntity
  8
1
  6
CONTINUOUS
 62
           7
100
AcDbLine
 10
66.269743488024
 20
-284.601051830702
 11
66.269743488024
 21
-294.4810518307
  0
LINE
  5
1D3
100
AcDbEntity
  8
1
  6
CONTINUOUS
 62
           7
100
AcDbLine
 10
60.029743488026
 20
-284.0810518307
 11
60.029743488026
 21
-274.201051830701
  0
LINE
  5
1D2
100
AcDbEntity
  8
1
  6
CONTINUOUS
 62
           7
100
AcDbLine
 10
60.029743488026
 20
-294.4810518307
 11
60.029743488026
 21
-284.601051830702
  0
LINE
  5
1D1
100
AcDbEntity
  8
1
  6
CONTINUOUS
 62
           7
100
AcDbLine
 10
66.269743488024
 20
-295.001051830701
 11
66.269743488024
 21
-304.881051830702
  0
LINE
  5
1D0
100
AcDbEntity
  8
1
  6
CONTINUOUS
 62
           7
100
AcDbLine
 10
66.269743488024
 20
-305.401051830702
 11
66.269743488024
 21
-315.2810518307
  0
LINE
  5
1CF
100
AcDbEntity
  8
1
  6
CONTINUOUS
 62
           7
100
AcDbLine
 10
60.029743488026
 20
-304.881051830702
 11
60.029743488026
 21
-295.001051830701
  0
LINE
  5
1CE
100
AcDbEntity
  8
1
  6
CONTINUOUS
 62
           7
100
AcDbLine
 10
60.029743488026
 20
-315.2810518307
 11
66.269743488024
 21
-315.2810518307
  0
LINE
  5
1CD
100
AcDbEntity
  8
1
  6
CONTINUOUS
 62
           7
100
AcDbLine
 10
60.029743488026
 20
-315.2810518307
 11
60.029743488026
 21
-305.401051830702
  0
LINE
  5
1CC
100
AcDbEntity
  8
1
  6
CONTINUOUS
 62
           7
100
AcDbLine
 10
66.269743488024
 20
-315.801051830702
 11
66.269743488024
 21
-325.681051830701
  0
LINE
  5
1CB
100
AcDbEntity
  8
1
  6
CONTINUOUS
 62
           7
100
AcDbLine
 10
60.029743488026
 20
-325.681051830701
 11
66.269743488024
 21
-325.681051830701
  0
LINE
  5
1CA
100
AcDbEntity
  8
1
  6
CONTINUOUS
 62
           7
100
AcDbLine
 10
60.029743488026
 20
-325.681051830701
 11
60.029743488026
 21
-315.801051830702
  0
LINE
  5
1C9
100
AcDbEntity
  8
1
  6
CONTINUOUS
 62
           7
100
AcDbLine
 10
66.269743488024
 20
-326.201051830701
 11
66.269743488024
 21
-336.081051830702
  0
LINE
  5
1C8
100
AcDbEntity
  8
1
  6
CONTINUOUS
 62
           7
100
AcDbLine
 10
60.029743488026
 20
-336.081051830702
 11
66.269743488024
 21
-336.081051830702
  0
LINE
  5
1C7
100
AcDbEntity
  8
1
  6
CONTINUOUS
 62
           7
100
AcDbLine
 10
60.029743488026
 20
-336.081051830702
 11
60.029743488026
 21
-326.201051830701
  0
LINE
  5
1C6
100
AcDbEntity
  8
1
  6
CONTINUOUS
 62
           7
100
AcDbLine
 10
66.269743488024
 20
-336.601051830702
 11
66.269743488024
 21
-346.481051830701
  0
LINE
  5
1C5
100
AcDbEntity
  8
1
  6
CONTINUOUS
 62
           7
100
AcDbLine
 10
128.22999139342
 20
-284.433051830701
 11
118.869991393421
 21
-284.433051830701
  0
LINE
  5
1C4
100
AcDbEntity
  8
1
  6
CONTINUOUS
 62
           7
100
AcDbLine
 10
136.189743488026
 20
-314.553107505932
 11
136.189743488026
 21
-325.993107505934
  0
LINE
  5
1C3
100
AcDbEntity
  8
1
  6
CONTINUOUS
 62
           7
100
AcDbLine
 10
148.669743488026
 20
-327.033107505935
 11
137.229743488025
 21
-327.033107505935
  0
LINE
  5
1C2
100
AcDbEntity
  8
1
  6
CONTINUOUS
 62
           7
100
AcDbLine
 10
149.709743488027
 20
-314.553107505932
 11
149.709743488027
 21
-325.993107505934
  0
LINE
  5
1C1
100
AcDbEntity
  8
1
  6
CONTINUOUS
 62
           7
100
AcDbLine
 10
137.229743488025
 20
-313.513107505934
 11
148.669743488026
 21
-313.513107505934
  0
LINE
  5
1C0
100
AcDbEntity
  8
1
  6
CONTINUOUS
 62
           7
100
AcDbLine
 10
35.429743488026
 20
-338.073051830701
 11
35.429743488026
 21
-349.5130518307
  0
LINE
  5
1BF
100
AcDbEntity
  8
1
  6
CONTINUOUS
 62
           7
100
AcDbLine
 10
47.909743488025
 20
-350.5530518307
 11
36.469743488025
 21
-350.5530518307
  0
LINE
  5
1BE
100
AcDbEntity
  8
1
  6
CONTINUOUS
 62
           7
100
AcDbLine
 10
48.949743488026
 20
-338.073051830701
 11
48.949743488026
 21
-349.5130518307
  0
LINE
  5
1BD
100
AcDbEntity
  8
1
  6
CONTINUOUS
 62
           7
100
AcDbLine
 10
36.469743488025
 20
-337.033051830702
 11
47.909743488025
 21
-337.033051830702
  0
LINE
  5
1BC
100
AcDbEntity
  8
1
  6
CONTINUOUS
 62
           7
100
AcDbLine
 10
117.82999139342
 20
-298.473051830702
 11
117.82999139342
 21
-287.033051830702
  0
LINE
  5
1BB
100
AcDbEntity
  8
1
  6
CONTINUOUS
 62
           7
100
AcDbLine
 10
128.22999139342
 20
-299.5130518307
 11
118.869991393421
 21
-299.5130518307
  0
LINE
  5
1BA
100
AcDbEntity
  8
1
  6
CONTINUOUS
 62
           7
100
AcDbLine
 10
129.269991393421
 20
-287.033051830702
 11
129.269991393421
 21
-298.473051830702
  0
LINE
  5
1B9
100
AcDbEntity
  8
1
  6
CONTINUOUS
 62
           7
100
AcDbLine
 10
118.869991393421
 20
-285.9930518307
 11
128.22999139342
 21
-285.9930518307
  0
LINE
  5
1B8
100
AcDbEntity
  8
1
  6
CONTINUOUS
 62
           7
100
AcDbLine
 10
117.82999139342
 20
-283.393051830701
 11
117.82999139342
 21
-271.953051830702
  0
LINE
  5
1B7
100
AcDbEntity
  8
1
  6
CONTINUOUS
 62
           7
100
AcDbLine
 10
129.269991393421
 20
-271.953051830702
 11
129.269991393421
 21
-283.393051830701
  0
LINE
  5
1B6
100
AcDbEntity
  8
1
  6
CONTINUOUS
 62
           7
100
AcDbLine
 10
118.869991393421
 20
-270.913051830701
 11
128.22999139342
 21
-270.913051830701
  0
LINE
  5
1B5
100
AcDbEntity
  8
1
  6
CONTINUOUS
 62
           7
100
AcDbLine
 10
78.829743488026
 20
-327.5530518307
 11
78.829743488026
 21
-314.033051830702
  0
LINE
  5
1B4
100
AcDbEntity
  8
1
  6
CONTINUOUS
 62
           7
100
AcDbLine
 10
93.389743488025
 20
-328.593051830701
 11
79.869743488025
 21
-328.593051830701
  0
LINE
  5
1B3
100
AcDbEntity
  8
1
  6
CONTINUOUS
 62
           7
100
AcDbLine
 10
94.429743488026
 20
-314.033051830702
 11
94.429743488026
 21
-327.5530518307
  0
LINE
  5
1B2
100
AcDbEntity
  8
1
  6
CONTINUOUS
 62
           7
100
AcDbLine
 10
79.869743488025
 20
-312.9930518307
 11
93.389743488025
 21
-312.9930518307
  0
LINE
  5
1B1
100
AcDbEntity
  8
1
  6
DOT_CENTER
 62
           2
100
AcDbLine
 10
82.157840277939
 20
-314.169260141538
 11
82.157840277939
 21
-318.055580135571
  0
LINE
  5
1B0
100
AcDbEntity
  8
1
  6
DOT_CENTER
 62
           2
100
AcDbLine
 10
80.095101204184
 20
-316.217051830701
 11
84.698895658655
 21
-316.217051830701
  0
LINE
  5
1AF
100
AcDbEntity
  8
1
  6
CONTINUOUS
 62
           7
100
AcDbLine
 10
114.189743488026
 20
-345.2330518307
 11
114.189743488026
 21
-331.713051830702
  0
LINE
  5
1AE
100
AcDbEntity
  8
1
  6
CONTINUOUS
 62
           7
100
AcDbLine
 10
128.749743488026
 20
-346.273051830702
 11
115.229743488025
 21
-346.273051830702
  0
LINE
  5
1AD
100
AcDbEntity
  8
1
  6
CONTINUOUS
 62
           7
100
AcDbLine
 10
129.789743488025
 20
-331.713051830702
 11
129.789743488025
 21
-345.2330518307
  0
LINE
  5
1AC
100
AcDbEntity
  8
1
  6
CONTINUOUS
 62
           7
100
AcDbLine
 10
115.229743488025
 20
-330.673051830701
 11
128.749743488026
 21
-330.673051830701
  0
LINE
  5
1AB
100
AcDbEntity
  8
1
  6
DOT_CENTER
 62
           2
100
AcDbLine
 10
117.51784027794
 20
-331.849260141535
 11
117.51784027794
 21
-335.735580135572
  0
LINE
  5
1AA
100
AcDbEntity
  8
1
  6
DOT_CENTER
 62
           2
100
AcDbLine
 10
115.455101204184
 20
-333.8970518307
 11
120.058895658654
 21
-333.8970518307
  0
LINE
  5
1A9
100
AcDbEntity
  8
1
  6
CONTINUOUS
 62
           7
100
AcDbLine
 10
96.509743488026
 20
-345.2330518307
 11
96.509743488026
 21
-331.713051830702
  0
LINE
  5
1A8
100
AcDbEntity
  8
1
  6
CONTINUOUS
 62
           7
100
AcDbLine
 10
111.069743488025
 20
-346.273051830702
 11
97.549743488025
 21
-346.273051830702
  0
LINE
  5
1A7
100
AcDbEntity
  8
1
  6
CONTINUOUS
 62
           7
100
AcDbLine
 10
112.109743488024
 20
-331.713051830702
 11
112.109743488024
 21
-345.2330518307
  0
LINE
  5
1A6
100
AcDbEntity
  8
1
  6
CONTINUOUS
 62
           7
100
AcDbLine
 10
97.549743488025
 20
-330.673051830701
 11
111.069743488025
 21
-330.673051830701
  0
LINE
  5
1A5
100
AcDbEntity
  8
1
  6
DOT_CENTER
 62
           2
100
AcDbLine
 10
99.837840277939
 20
-331.849260141535
 11
99.837840277939
 21
-335.735580135572
  0
LINE
  5
1A4
100
AcDbEntity
  8
1
  6
DOT_CENTER
 62
           2
100
AcDbLine
 10
97.775101204184
 20
-333.8970518307
 11
102.378895658654
 21
-333.8970518307
  0
LINE
  5
1A3
100
AcDbEntity
  8
1
  6
CONTINUOUS
 62
           7
100
AcDbLine
 10
78.829743488026
 20
-345.2330518307
 11
78.829743488026
 21
-331.713051830702
  0
LINE
  5
1A2
100
AcDbEntity
  8
1
  6
CONTINUOUS
 62
           7
100
AcDbLine
 10
93.389743488025
 20
-346.273051830702
 11
79.869743488025
 21
-346.273051830702
  0
LINE
  5
1A1
100
AcDbEntity
  8
1
  6
CONTINUOUS
 62
           7
100
AcDbLine
 10
94.429743488026
 20
-331.713051830702
 11
94.429743488026
 21
-345.2330518307
  0
LINE
  5
1A0
100
AcDbEntity
  8
1
  6
CONTINUOUS
 62
           7
100
AcDbLine
 10
79.869743488025
 20
-330.673051830701
 11
93.389743488025
 21
-330.673051830701
  0
LINE
  5
19F
100
AcDbEntity
  8
1
  6
DOT_CENTER
 62
           2
100
AcDbLine
 10
82.157840277939
 20
-331.849260141535
 11
82.157840277939
 21
-335.735580135572
  0
LINE
  5
19E
100
AcDbEntity
  8
1
  6
DOT_CENTER
 62
           2
100
AcDbLine
 10
80.095101204184
 20
-333.8970518307
 11
84.698895658655
 21
-333.8970518307
  0
LINE
  5
19D
100
AcDbEntity
  8
1
  6
CONTINUOUS
 62
           7
100
AcDbLine
 10
114.189743488026
 20
-327.5530518307
 11
114.189743488026
 21
-314.033051830702
  0
LINE
  5
19C
100
AcDbEntity
  8
1
  6
CONTINUOUS
 62
           7
100
AcDbLine
 10
128.749743488026
 20
-328.593051830701
 11
115.229743488025
 21
-328.593051830701
  0
LINE
  5
19B
100
AcDbEntity
  8
1
  6
CONTINUOUS
 62
           7
100
AcDbLine
 10
129.789743488025
 20
-314.033051830702
 11
129.789743488025
 21
-327.5530518307
  0
LINE
  5
19A
100
AcDbEntity
  8
1
  6
CONTINUOUS
 62
           7
100
AcDbLine
 10
115.229743488025
 20
-312.9930518307
 11
128.749743488026
 21
-312.9930518307
  0
LINE
  5
199
100
AcDbEntity
  8
1
  6
DOT_CENTER
 62
           2
100
AcDbLine
 10
117.56464027794
 20
-314.169260141538
 11
117.56464027794
 21
-318.055580135571
  0
LINE
  5
198
100
AcDbEntity
  8
1
  6
DOT_CENTER
 62
           2
100
AcDbLine
 10
115.501901204184
 20
-316.217051830701
 11
120.105695658654
 21
-316.217051830701
  0
LINE
  5
197
100
AcDbEntity
  8
1
  6
CONTINUOUS
 62
           7
100
AcDbLine
 10
96.509743488026
 20
-327.5530518307
 11
96.509743488026
 21
-314.033051830702
  0
LINE
  5
196
100
AcDbEntity
  8
1
  6
CONTINUOUS
 62
           7
100
AcDbLine
 10
111.069743488025
 20
-328.593051830701
 11
97.549743488025
 21
-328.593051830701
  0
LINE
  5
195
100
AcDbEntity
  8
1
  6
CONTINUOUS
 62
           7
100
AcDbLine
 10
112.109743488024
 20
-314.033051830702
 11
112.109743488024
 21
-327.5530518307
  0
LINE
  5
194
100
AcDbEntity
  8
1
  6
CONTINUOUS
 62
           7
100
AcDbLine
 10
97.549743488025
 20
-312.9930518307
 11
111.069743488025
 21
-312.9930518307
  0
LINE
  5
193
100
AcDbEntity
  8
1
  6
DOT_CENTER
 62
           2
100
AcDbLine
 10
99.837840277939
 20
-314.169260141538
 11
99.837840277939
 21
-318.055580135571
  0
LINE
  5
192
100
AcDbEntity
  8
1
  6
DOT_CENTER
 62
           2
100
AcDbLine
 10
97.775101204184
 20
-316.217051830701
 11
102.378895658654
 21
-316.217051830701
  0
LINE
  5
191
100
AcDbEntity
  8
1
  6
CONTINUOUS
 62
           7
100
AcDbLine
 10
60.029743488026
 20
-274.201051830701
 11
66.269743488024
 21
-274.201051830701
  0
LINE
  5
190
100
AcDbEntity
  8
1
  6
CONTINUOUS
 62
           7
100
AcDbLine
 10
60.029743488026
 20
-295.001051830701
 11
66.269743488024
 21
-295.001051830701
  0
LINE
  5
18F
100
AcDbEntity
  8
1
  6
CONTINUOUS
 62
           7
100
AcDbLine
 10
66.269743488024
 20
-305.401051830702
 11
60.029743488026
 21
-305.401051830702
  0
LINE
  5
18E
100
AcDbEntity
  8
1
  6
CONTINUOUS
 62
           7
100
AcDbLine
 10
60.029743488026
 20
-315.801051830702
 11
66.269743488024
 21
-315.801051830702
  0
LINE
  5
18D
100
AcDbEntity
  8
1
  6
CONTINUOUS
 62
           7
100
AcDbLine
 10
66.269743488024
 20
-326.201051830701
 11
60.029743488026
 21
-326.201051830701
  0
LINE
  5
18C
100
AcDbEntity
  8
1
  6
CONTINUOUS
 62
           7
100
AcDbLine
 10
60.029743488026
 20
-336.601051830702
 11
66.269743488024
 21
-336.601051830702
  0
LINE
  5
18B
100
AcDbEntity
  8
1
  6
CONTINUOUS
 62
           7
100
AcDbLine
 10
60.029743488026
 20
-346.481051830701
 11
60.029743488026
 21
-336.601051830702
  0
LINE
  5
18A
100
AcDbEntity
  8
1
  6
CONTINUOUS
 62
           7
100
AcDbLine
 10
66.269743488024
 20
-346.481051830701
 11
60.029743488026
 21
-346.481051830701
  0
LINE
  5
189
100
AcDbEntity
  8
1
  6
CONTINUOUS
 62
           7
100
AcDbLine
 10
66.269743488024
 20
-274.201051830701
 11
66.269743488024
 21
-284.0810518307
  0
LINE
  5
188
100
AcDbEntity
  8
1
  6
CONTINUOUS
 62
           7
100
AcDbLine
 10
60.029743488026
 20
-284.601051830702
 11
66.269743488024
 21
-284.601051830702
  0
LINE
  5
187
100
AcDbEntity
  8
1
  6
CONTINUOUS
 62
           7
100
AcDbLine
 10
104.517571307395
 20
-278.297051830703
 11
114.501571307395
 21
-278.297051830703
  0
LINE
  5
186
100
AcDbEntity
  8
1
  6
CONTINUOUS
 62
           7
100
AcDbLine
 10
114.501571307395
 20
-291.713051830702
 11
104.517571307395
 21
-291.713051830702
  0
LINE
  5
185
100
AcDbEntity
  8
1
  6
LONG_DASHED
 62
           2
100
AcDbLine
 10
112.091167980772
 20
-280.845051830701
 11
111.449337770995
 21
-284.485051830701
  0
LINE
  5
184
100
AcDbEntity
  8
1
  6
LONG_DASHED
 62
           2
100
AcDbLine
 10
107.753184903729
 20
-284.485051830701
 11
108.395015113508
 21
-280.845051830701
  0
LINE
  5
183
100
AcDbEntity
  8
1
  6
LONG_DASHED
 62
           2
100
AcDbLine
 10
112.091167980772
 20
-280.845051830701
 11
112.710879848922
 21
-280.325051830701
  0
LINE
  5
182
100
AcDbEntity
  8
1
  6
LONG_DASHED
 62
           2
100
AcDbLine
 10
108.395015113508
 20
-280.845051830701
 11
112.091167980772
 21
-280.845051830701
  0
LINE
  5
181
100
AcDbEntity
  8
1
  6
LONG_DASHED
 62
           2
100
AcDbLine
 10
107.958683305296
 20
-280.325051830701
 11
108.395015113508
 21
-280.845051830701
  0
LINE
  5
180
100
AcDbEntity
  8
1
  6
LONG_DASHED
 62
           2
100
AcDbLine
 10
112.274548040709
 20
-279.805051830701
 11
113.147211657134
 21
-280.845051830701
  0
LINE
  5
17F
100
AcDbEntity
  8
1
  6
LONG_DASHED
 62
           2
100
AcDbLine
 10
108.578395173446
 20
-279.805051830701
 11
107.338971437147
 21
-280.845051830701
  0
LINE
  5
17E
100
AcDbEntity
  8
1
  6
LONG_DASHED
 62
           2
100
AcDbLine
 10
106.697141227368
 20
-284.485051830701
 11
107.338971437147
 21
-280.845051830701
  0
LINE
  5
17D
100
AcDbEntity
  8
1
  6
LONG_DASHED
 62
           2
100
AcDbLine
 10
112.322001387419
 20
-285.525051830702
 11
111.684249291382
 21
-289.141923698384
  0
LINE
  5
17C
100
AcDbEntity
  8
1
  6
LONG_DASHED
 62
           2
100
AcDbLine
 10
107.753184903729
 20
-284.485051830701
 11
111.449337770995
 21
-284.485051830701
  0
LINE
  5
17B
100
AcDbEntity
  8
1
  6
LONG_DASHED
 62
           2
100
AcDbLine
 10
107.569804843793
 20
-285.525051830702
 11
111.265957711057
 21
-285.525051830702
  0
LINE
  5
17A
100
AcDbEntity
  8
1
  6
LONG_DASHED
 62
           2
100
AcDbLine
 10
111.265957711057
 20
-285.525051830702
 11
110.628205615019
 21
-289.141923698384
  0
LINE
  5
179
100
AcDbEntity
  8
1
  6
LONG_DASHED
 62
           2
100
AcDbLine
 10
111.265957711057
 20
-285.525051830702
 11
112.505381447355
 21
-284.485051830701
  0
LINE
  5
178
100
AcDbEntity
  8
1
  6
LONG_DASHED
 62
           2
100
AcDbLine
 10
111.449337770995
 20
-284.485051830701
 11
112.322001387419
 21
-285.525051830702
  0
LINE
  5
177
100
AcDbEntity
  8
1
  6
LONG_DASHED
 62
           2
100
AcDbLine
 10
107.569804843793
 20
-285.525051830702
 11
106.932052747755
 21
-289.141923698384
  0
LINE
  5
176
100
AcDbEntity
  8
1
  6
LONG_DASHED
 62
           2
100
AcDbLine
 10
107.569804843793
 20
-285.525051830702
 11
106.697141227368
 21
-284.485051830701
  0
LINE
  5
175
100
AcDbEntity
  8
1
  6
LONG_DASHED
 62
           2
100
AcDbLine
 10
106.513761167432
 20
-285.525051830702
 11
107.753184903729
 21
-284.485051830701
  0
LINE
  5
174
100
AcDbEntity
  8
1
  6
LONG_DASHED
 62
           2
100
AcDbLine
 10
106.932052747755
 20
-289.141923698384
 11
106.319749771588
 21
-289.685051830702
  0
LINE
  5
173
100
AcDbEntity
  8
1
  6
LONG_DASHED
 62
           2
100
AcDbLine
 10
106.744594574078
 20
-290.2050518307
 11
105.876009071395
 21
-289.141923698384
  0
LINE
  5
172
100
AcDbEntity
  8
1
  6
LONG_DASHED
 62
           2
100
AcDbLine
 10
111.048972303768
 20
-289.685051830702
 11
110.628205615019
 21
-289.141923698384
  0
LINE
  5
171
100
AcDbEntity
  8
1
  6
LONG_DASHED
 62
           2
100
AcDbLine
 10
111.684249291382
 20
-289.141923698384
 11
110.440747441342
 21
-290.2050518307
  0
LINE
  5
170
100
AcDbEntity
  8
1
  6
LONG_DASHED
 62
           2
100
AcDbLine
 10
106.932052747755
 20
-289.141923698384
 11
110.628205615019
 21
-289.141923698384
  0
LINE
  5
16F
100
AcDbEntity
  8
1
  6
LONG_DASHED
 62
           2
100
AcDbLine
 10
105.876009071395
 20
-289.141923698384
 11
106.513761167432
 21
-285.525051830702
  0
LINE
  5
16E
100
AcDbEntity
  8
1
  6
LONG_DASHED
 62
           2
100
AcDbLine
 10
110.440747441342
 20
-290.2050518307
 11
106.744594574078
 21
-290.2050518307
  0
LINE
  5
16D
100
AcDbEntity
  8
1
  6
LONG_DASHED
 62
           2
100
AcDbLine
 10
113.147211657134
 20
-280.845051830701
 11
112.505381447355
 21
-284.485051830701
  0
LINE
  5
16C
100
AcDbEntity
  8
1
  6
LONG_DASHED
 62
           2
100
AcDbLine
 10
108.578395173446
 20
-279.805051830701
 11
112.274548040709
 21
-279.805051830701
  0
LINE
  5
16B
100
AcDbEntity
  8
1
  6
CONTINUOUS
 62
           7
100
AcDbLine
 10
114.501571307395
 20
-278.297051830703
 11
114.501571307395
 21
-291.713051830702
  0
LINE
  5
16A
100
AcDbEntity
  8
1
  6
CONTINUOUS
 62
           7
100
AcDbLine
 10
104.517571307395
 20
-291.713051830702
 11
104.517571307395
 21
-278.297051830703
  0
LINE
  5
169
100
AcDbEntity
  8
1
  6
CONTINUOUS
 62
           7
100
AcDbLine
 10
92.453571307394
 20
-278.297051830703
 11
102.437571307394
 21
-278.297051830701
  0
LINE
  5
168
100
AcDbEntity
  8
1
  6
CONTINUOUS
 62
           7
100
AcDbLine
 10
102.437571307395
 20
-291.713051830702
 11
92.453571307394
 21
-291.713051830702
  0
LINE
  5
167
100
AcDbEntity
  8
1
  6
LONG_DASHED
 62
           2
100
AcDbLine
 10
100.027167980772
 20
-280.845051830701
 11
99.385337770994
 21
-284.485051830701
  0
LINE
  5
166
100
AcDbEntity
  8
1
  6
LONG_DASHED
 62
           2
100
AcDbLine
 10
95.689184903731
 20
-284.485051830701
 11
96.33101511351
 21
-280.845051830701
  0
LINE
  5
165
100
AcDbEntity
  8
1
  6
LONG_DASHED
 62
           2
100
AcDbLine
 10
100.027167980772
 20
-280.845051830701
 11
100.646879848922
 21
-280.325051830701
  0
LINE
  5
164
100
AcDbEntity
  8
1
  6
LONG_DASHED
 62
           2
100
AcDbLine
 10
96.33101511351
 20
-280.845051830701
 11
100.027167980772
 21
-280.845051830701
  0
LINE
  5
163
100
AcDbEntity
  8
1
  6
LONG_DASHED
 62
           2
100
AcDbLine
 10
95.894683305297
 20
-280.325051830701
 11
96.33101511351
 21
-280.845051830701
  0
LINE
  5
162
100
AcDbEntity
  8
1
  6
LONG_DASHED
 62
           2
100
AcDbLine
 10
100.210548040709
 20
-279.805051830701
 11
101.083211657134
 21
-280.845051830701
  0
LINE
  5
161
100
AcDbEntity
  8
1
  6
LONG_DASHED
 62
           2
100
AcDbLine
 10
96.514395173446
 20
-279.805051830701
 11
95.274971437147
 21
-280.845051830701
  0
LINE
  5
160
100
AcDbEntity
  8
1
  6
LONG_DASHED
 62
           2
100
AcDbLine
 10
94.633141227368
 20
-284.485051830702
 11
95.274971437147
 21
-280.845051830701
  0
LINE
  5
15F
100
AcDbEntity
  8
1
  6
LONG_DASHED
 62
           2
100
AcDbLine
 10
100.258001387417
 20
-285.525051830702
 11
99.620249291381
 21
-289.141923698384
  0
LINE
  5
15E
100
AcDbEntity
  8
1
  6
LONG_DASHED
 62
           2
100
AcDbLine
 10
95.689184903731
 20
-284.485051830701
 11
99.385337770994
 21
-284.485051830701
  0
LINE
  5
15D
100
AcDbEntity
  8
1
  6
LONG_DASHED
 62
           2
100
AcDbLine
 10
95.505804843793
 20
-285.525051830702
 11
99.201957711056
 21
-285.525051830702
  0
LINE
  5
15C
100
AcDbEntity
  8
1
  6
LONG_DASHED
 62
           2
100
AcDbLine
 10
99.201957711056
 20
-285.525051830702
 11
98.56420561502
 21
-289.141923698383
  0
LINE
  5
15B
100
AcDbEntity
  8
1
  6
LONG_DASHED
 62
           2
100
AcDbLine
 10
99.201957711056
 20
-285.525051830702
 11
100.441381447355
 21
-284.485051830701
  0
LINE
  5
15A
100
AcDbEntity
  8
1
  6
LONG_DASHED
 62
           2
100
AcDbLine
 10
99.385337770994
 20
-284.485051830701
 11
100.258001387417
 21
-285.525051830702
  0
LINE
  5
159
100
AcDbEntity
  8
1
  6
LONG_DASHED
 62
           2
100
AcDbLine
 10
95.505804843793
 20
-285.525051830702
 11
94.868052747755
 21
-289.141923698384
  0
LINE
  5
158
100
AcDbEntity
  8
1
  6
LONG_DASHED
 62
           2
100
AcDbLine
 10
95.505804843793
 20
-285.525051830702
 11
94.633141227368
 21
-284.485051830702
  0
LINE
  5
157
100
AcDbEntity
  8
1
  6
LONG_DASHED
 62
           2
100
AcDbLine
 10
94.449761167432
 20
-285.525051830702
 11
95.689184903731
 21
-284.485051830701
  0
LINE
  5
156
100
AcDbEntity
  8
1
  6
LONG_DASHED
 62
           2
100
AcDbLine
 10
94.868052747755
 20
-289.141923698384
 11
94.255749771589
 21
-289.685051830702
  0
LINE
  5
155
100
AcDbEntity
  8
1
  6
LONG_DASHED
 62
           2
100
AcDbLine
 10
94.680594574078
 20
-290.2050518307
 11
93.812009071394
 21
-289.141923698384
  0
LINE
  5
154
100
AcDbEntity
  8
1
  6
LONG_DASHED
 62
           2
100
AcDbLine
 10
98.984972303767
 20
-289.685051830702
 11
98.56420561502
 21
-289.141923698383
  0
LINE
  5
153
100
AcDbEntity
  8
1
  6
LONG_DASHED
 62
           2
100
AcDbLine
 10
99.620249291381
 20
-289.141923698384
 11
98.376747441341
 21
-290.2050518307
  0
LINE
  5
152
100
AcDbEntity
  8
1
  6
LONG_DASHED
 62
           2
100
AcDbLine
 10
94.868052747755
 20
-289.141923698384
 11
98.56420561502
 21
-289.141923698383
  0
LINE
  5
151
100
AcDbEntity
  8
1
  6
LONG_DASHED
 62
           2
100
AcDbLine
 10
93.812009071394
 20
-289.141923698384
 11
94.449761167432
 21
-285.525051830702
  0
LINE
  5
150
100
AcDbEntity
  8
1
  6
LONG_DASHED
 62
           2
100
AcDbLine
 10
98.376747441341
 20
-290.2050518307
 11
94.680594574078
 21
-290.2050518307
  0
LINE
  5
14F
100
AcDbEntity
  8
1
  6
LONG_DASHED
 62
           2
100
AcDbLine
 10
101.083211657134
 20
-280.845051830701
 11
100.441381447355
 21
-284.485051830701
  0
LINE
  5
14E
100
AcDbEntity
  8
1
  6
LONG_DASHED
 62
           2
100
AcDbLine
 10
96.514395173446
 20
-279.805051830701
 11
100.210548040709
 21
-279.805051830701
  0
LINE
  5
14D
100
AcDbEntity
  8
1
  6
CONTINUOUS
 62
           7
100
AcDbLine
 10
102.437571307394
 20
-278.297051830701
 11
102.437571307395
 21
-291.713051830702
  0
LINE
  5
14C
100
AcDbEntity
  8
1
  6
LONG_DASHED
 62
           2
100
AcDbLine
 10
87.963167980773
 20
-280.845051830701
 11
87.321337770994
 21
-284.485051830701
  0
LINE
  5
14B
100
AcDbEntity
  8
1
  6
LONG_DASHED
 62
           2
100
AcDbLine
 10
83.62518490373
 20
-284.485051830701
 11
84.267015113509
 21
-280.845051830701
  0
LINE
  5
14A
100
AcDbEntity
  8
1
  6
LONG_DASHED
 62
           2
100
AcDbLine
 10
87.963167980773
 20
-280.845051830701
 11
88.582879848921
 21
-280.325051830701
  0
LINE
  5
149
100
AcDbEntity
  8
1
  6
LONG_DASHED
 62
           2
100
AcDbLine
 10
84.267015113509
 20
-280.845051830701
 11
87.963167980773
 21
-280.845051830701
  0
LINE
  5
148
100
AcDbEntity
  8
1
  6
LONG_DASHED
 62
           2
100
AcDbLine
 10
83.830683305297
 20
-280.325051830701
 11
84.267015113509
 21
-280.845051830701
  0
LINE
  5
147
100
AcDbEntity
  8
1
  6
LONG_DASHED
 62
           2
100
AcDbLine
 10
88.146548040709
 20
-279.805051830701
 11
89.019211657134
 21
-280.845051830701
  0
LINE
  5
146
100
AcDbEntity
  8
1
  6
LONG_DASHED
 62
           2
100
AcDbLine
 10
84.450395173445
 20
-279.805051830701
 11
83.210971437147
 21
-280.845051830701
  0
LINE
  5
145
100
AcDbEntity
  8
1
  6
LONG_DASHED
 62
           2
100
AcDbLine
 10
82.569141227369
 20
-284.485051830701
 11
83.210971437147
 21
-280.845051830701
  0
LINE
  5
144
100
AcDbEntity
  8
1
  6
LONG_DASHED
 62
           2
100
AcDbLine
 10
88.194001387419
 20
-285.525051830702
 11
87.556249291381
 21
-289.141923698384
  0
LINE
  5
143
100
AcDbEntity
  8
1
  6
LONG_DASHED
 62
           2
100
AcDbLine
 10
83.62518490373
 20
-284.485051830701
 11
87.321337770994
 21
-284.485051830701
  0
LINE
  5
142
100
AcDbEntity
  8
1
  6
LONG_DASHED
 62
           2
100
AcDbLine
 10
83.441804843792
 20
-285.525051830702
 11
87.137957711056
 21
-285.525051830702
  0
LINE
  5
141
100
AcDbEntity
  8
1
  6
LONG_DASHED
 62
           2
100
AcDbLine
 10
87.137957711056
 20
-285.525051830702
 11
86.500205615019
 21
-289.141923698384
  0
LINE
  5
140
100
AcDbEntity
  8
1
  6
LONG_DASHED
 62
           2
100
AcDbLine
 10
87.137957711056
 20
-285.525051830702
 11
88.377381447355
 21
-284.485051830701
  0
LINE
  5
13F
100
AcDbEntity
  8
1
  6
LONG_DASHED
 62
           2
100
AcDbLine
 10
87.321337770994
 20
-284.485051830701
 11
88.194001387419
 21
-285.525051830702
  0
LINE
  5
13E
100
AcDbEntity
  8
1
  6
LONG_DASHED
 62
           2
100
AcDbLine
 10
83.441804843792
 20
-285.525051830702
 11
82.804052747756
 21
-289.141923698384
  0
LINE
  5
13D
100
AcDbEntity
  8
1
  6
LONG_DASHED
 62
           2
100
AcDbLine
 10
83.441804843792
 20
-285.525051830702
 11
82.569141227369
 21
-284.485051830701
  0
LINE
  5
13C
100
AcDbEntity
  8
1
  6
LONG_DASHED
 62
           2
100
AcDbLine
 10
82.385761167432
 20
-285.525051830702
 11
83.62518490373
 21
-284.485051830701
  0
LINE
  5
13B
100
AcDbEntity
  8
1
  6
LONG_DASHED
 62
           2
100
AcDbLine
 10
82.804052747756
 20
-289.141923698384
 11
82.191749771589
 21
-289.685051830702
  0
LINE
  5
13A
100
AcDbEntity
  8
1
  6
LONG_DASHED
 62
           2
100
AcDbLine
 10
82.616594574077
 20
-290.2050518307
 11
81.748009071394
 21
-289.141923698384
  0
LINE
  5
139
100
AcDbEntity
  8
1
  6
LONG_DASHED
 62
           2
100
AcDbLine
 10
86.920972303767
 20
-289.685051830702
 11
86.500205615019
 21
-289.141923698384
  0
LINE
  5
138
100
AcDbEntity
  8
1
  6
LONG_DASHED
 62
           2
100
AcDbLine
 10
87.556249291381
 20
-289.141923698384
 11
86.312747441341
 21
-290.2050518307
  0
LINE
  5
137
100
AcDbEntity
  8
1
  6
LONG_DASHED
 62
           2
100
AcDbLine
 10
82.804052747756
 20
-289.141923698384
 11
86.500205615019
 21
-289.141923698384
  0
LINE
  5
136
100
AcDbEntity
  8
1
  6
LONG_DASHED
 62
           2
100
AcDbLine
 10
81.748009071394
 20
-289.141923698384
 11
82.385761167432
 21
-285.525051830702
  0
LINE
  5
135
100
AcDbEntity
  8
1
  6
LONG_DASHED
 62
           2
100
AcDbLine
 10
86.312747441341
 20
-290.2050518307
 11
82.616594574077
 21
-290.2050518307
  0
LINE
  5
134
100
AcDbEntity
  8
1
  6
LONG_DASHED
 62
           2
100
AcDbLine
 10
89.019211657134
 20
-280.845051830701
 11
88.377381447355
 21
-284.485051830701
  0
LINE
  5
133
100
AcDbEntity
  8
1
  6
LONG_DASHED
 62
           2
100
AcDbLine
 10
84.450395173445
 20
-279.805051830701
 11
88.146548040709
 21
-279.805051830701
  0
LINE
  5
132
100
AcDbEntity
  8
1
  6
CONTINUOUS
 62
           2
100
AcDbLine
 10
13.58999413757
 20
-356.121051830702
 11
13.58999413757
 21
-335.745051830701
  0
LINE
  5
131
100
AcDbEntity
  8
1
  6
CONTINUOUS
 62
           2
100
AcDbLine
 10
28.58999413757
 20
-335.745051830701
 11
28.58999413757
 21
-356.121051830702
  0
LINE
  5
130
100
AcDbEntity
  8
1
  6
CONTINUOUS
 62
           2
100
AcDbLine
 10
13.90199413757
 20
-335.433051830701
 11
28.27799413757
 21
-335.433051830701
  0
LINE
  5
12F
100
AcDbEntity
  8
1
  6
CONTINUOUS
 62
           7
100
AcDbLine
 10
92.453571307394
 20
-291.713051830702
 11
92.453571307394
 21
-278.297051830703
  0
LINE
  5
12E
100
AcDbEntity
  8
1
  6
CONTINUOUS
 62
           7
100
AcDbLine
 10
80.389571307394
 20
-291.713051830702
 11
80.389571307394
 21
-278.297051830703
  0
LINE
  5
12D
100
AcDbEntity
  8
1
  6
CONTINUOUS
 62
           7
100
AcDbLine
 10
90.373571307394
 20
-291.713051830702
 11
80.389571307394
 21
-291.713051830702
  0
LINE
  5
12C
100
AcDbEntity
  8
1
  6
CONTINUOUS
 62
           7
100
AcDbLine
 10
90.373571307394
 20
-278.297051830701
 11
90.373571307394
 21
-291.713051830702
  0
LINE
  5
12B
100
AcDbEntity
  8
1
  6
CONTINUOUS
 62
           7
100
AcDbLine
 10
80.389571307394
 20
-278.297051830703
 11
90.373571307394
 21
-278.297051830701
  0
LINE
  5
12A
100
AcDbEntity
  8
1
  6
CONTINUOUS
 62
           7
100
AcDbLine
 10
2.149743488025
 20
-365.113051830701
 11
2.149743488025
 21
-242.193051830702
  0
LINE
  5
129
100
AcDbEntity
  8
1
  6
CONTINUOUS
 62
           7
100
AcDbLine
 10
197.109743488024
 20
-366.153051830701
 11
3.189743488026
 21
-366.153051830701
  0
LINE
  5
128
100
AcDbEntity
  8
1
  6
CONTINUOUS
 62
           7
100
AcDbLine
 10
198.149743488025
 20
-242.193051830702
 11
198.149743488025
 21
-365.113051830701
  0
LINE
  5
127
100
AcDbEntity
  8
1
  6
CONTINUOUS
 62
           7
100
AcDbLine
 10
3.189743488026
 20
-241.153051830701
 11
197.109743488024
 21
-241.153051830701
  0
LINE
  5
126
100
AcDbEntity
  8
1
  6
CONTINUOUS
 62
           2
100
AcDbLine
 10
28.27799413757
 20
-356.433051830701
 11
13.90199413757
 21
-356.433051830701
  0
LINE
  5
125
100
AcDbEntity
  8
1
  6
CONTINUOUS
 62
           7
100
AcDbLine
 10
124.004553177004
 20
-297.654510264931
 11
128.320805657746
 21
-289.885255799593
  0
LINE
  5
124
100
AcDbEntity
  8
1
  6
CONTINUOUS
 62
           7
100
AcDbLine
 10
129.269991393421
 20
-271.888340299187
 11
129.269991393421
 21
-283.328340299186
  0
LINE
  5
123
100
AcDbEntity
  8
1
  6
CONTINUOUS
 62
           7
100
AcDbLine
 10
124.004553177004
 20
-297.654510264931
 11
128.320805657746
 21
-289.885255799593
  0
LINE
  5
122
100
AcDbEntity
  8
1
  6
CONTINUOUS
 62
           7
100
AcDbLine
 10
127.866243874163
 20
-289.11272147538
 11
119.233738912678
 21
-289.11272147538
  0
LINE
  5
121
100
AcDbEntity
  8
1
  6
CONTINUOUS
 62
           7
100
AcDbLine
 10
118.779177129094
 20
-289.885255799593
 11
123.095429609838
 21
-297.654510264931
  0
LINE
  5
120
100
AcDbEntity
  8
1
  6
CONTINUOUS
 62
           7
100
AcDbLine
 10
123.095429609838
 20
-272.771031509635
 11
118.779177129094
 21
-280.540285974974
  0
LINE
  5
11F
100
AcDbEntity
  8
1
  6
CONTINUOUS
 62
           7
100
AcDbLine
 10
128.320805657746
 20
-280.540285974974
 11
124.004553177004
 21
-272.771031509635
  0
LINE
  5
11E
100
AcDbEntity
  8
1
  6
CONTINUOUS
 62
           7
100
AcDbLine
 10
119.233738912678
 20
-281.312820299186
 11
127.866243874163
 21
-281.312820299186
  0
LINE
  5
11D
100
AcDbEntity
  8
1
  6
CONTINUOUS
 62
           7
100
AcDbLine
 10
200.149743488025
 20
-369.403051830701
 11
0.149743488025
 21
-369.403051830701
  0
LINE
  5
11C
100
AcDbEntity
  8
1
  6
CONTINUOUS
 62
           7
100
AcDbLine
 10
0.149743488025
 20
-369.403051830701
 11
0.149743488025
 21
-239.403051830701
  0
LINE
  5
11B
100
AcDbEntity
  8
1
  6
CONTINUOUS
 62
           7
100
AcDbLine
 10
0.149743488025
 20
-239.403051830701
 11
200.149743488025
 21
-239.403051830701
  0
LINE
  5
11A
100
AcDbEntity
  8
1
  6
CONTINUOUS
 62
           7
100
AcDbLine
 10
200.149743488025
 20
-239.403051830701
 11
200.149743488025
 21
-369.403051830701
  0
LINE
  5
119
100
AcDbEntity
  8
1
  6
CONTINUOUS
 62
           7
100
AcDbLine
 10
-2.650256511975
 20
-357.903051830702
 11
-2.150256511975
 21
-357.903051830702
  0
LINE
  5
118
100
AcDbEntity
  8
1
  6
CONTINUOUS
 62
           7
100
AcDbLine
 10
-2.150256511975
 20
-357.903051830702
 11
-2.150256511975
 21
-350.903051830702
  0
LINE
  5
117
100
AcDbEntity
  8
1
  6
CONTINUOUS
 62
           7
100
AcDbLine
 10
-2.150256511975
 20
-350.903051830702
 11
-2.650256511975
 21
-350.903051830702
  0
LINE
  5
116
100
AcDbEntity
  8
1
  6
CONTINUOUS
 62
           7
100
AcDbLine
 10
-2.650256511975
 20
-350.903051830702
 11
-2.650256511975
 21
-357.903051830702
  0
LINE
  5
115
100
AcDbEntity
  8
1
  6
CONTINUOUS
 62
           7
100
AcDbLine
 10
-2.650256511975
 20
-354.206385164035
 11
-3.350256511975
 21
-354.006385164035
  0
LINE
  5
114
100
AcDbEntity
  8
1
  6
CONTINUOUS
 62
           7
100
AcDbLine
 10
-2.650256511975
 20
-354.799718497369
 11
-3.350256511975
 21
-354.59971849737
  0
LINE
  5
113
100
AcDbEntity
  8
1
  6
CONTINUOUS
 62
           7
100
AcDbLine
 10
-2.650256511975
 20
-351.453051830702
 11
-3.350256511975
 21
-351.453051830702
  0
LINE
  5
112
100
AcDbEntity
  8
1
  6
CONTINUOUS
 62
           7
100
AcDbLine
 10
-3.350256511975
 20
-351.453051830702
 11
-3.350256511975
 21
-357.353051830703
  0
LINE
  5
111
100
AcDbEntity
  8
1
  6
CONTINUOUS
 62
           7
100
AcDbLine
 10
-3.350256511975
 20
-357.353051830703
 11
-2.650256511975
 21
-357.353051830703
  0
LINE
  5
110
100
AcDbEntity
  8
1
  6
CONTINUOUS
 62
           7
100
AcDbLine
 10
-3.350256511975
 20
-357.153051830702
 11
-4.197505394853
 21
-357.078927158265
  0
LINE
  5
10F
100
AcDbEntity
  8
1
  6
CONTINUOUS
 62
           7
100
AcDbLine
 10
-3.350256511975
 20
-351.653051830702
 11
-4.197505394853
 21
-351.727176503139
  0
LINE
  5
10E
100
AcDbEntity
  8
1
  6
DOT_CENTER
 62
           2
100
AcDbLine
 10
4.027491503822
 20
-354.403051830702
 11
-6.037447867988
 21
-354.403051830702
  0
LINE
  5
10D
100
AcDbEntity
  8
1
  6
CONTINUOUS
 62
           7
100
AcDbLine
 10
-3.350256511975
 20
-251.653051830702
 11
-4.197505394853
 21
-251.727176503139
  0
LINE
  5
10C
100
AcDbEntity
  8
1
  6
CONTINUOUS
 62
           7
100
AcDbLine
 10
-3.350256511975
 20
-257.153051830702
 11
-4.197505394853
 21
-257.078927158265
  0
LINE
  5
10B
100
AcDbEntity
  8
1
  6
CONTINUOUS
 62
           7
100
AcDbLine
 10
-3.350256511975
 20
-257.353051830703
 11
-2.650256511975
 21
-257.353051830703
  0
LINE
  5
10A
100
AcDbEntity
  8
1
  6
CONTINUOUS
 62
           7
100
AcDbLine
 10
-3.350256511975
 20
-251.453051830702
 11
-3.350256511975
 21
-257.353051830703
  0
LINE
  5
109
100
AcDbEntity
  8
1
  6
CONTINUOUS
 62
           7
100
AcDbLine
 10
-2.650256511975
 20
-251.453051830702
 11
-3.350256511975
 21
-251.453051830702
  0
LINE
  5
108
100
AcDbEntity
  8
1
  6
CONTINUOUS
 62
           7
100
AcDbLine
 10
-2.650256511975
 20
-254.799718497369
 11
-3.350256511975
 21
-254.59971849737
  0
LINE
  5
107
100
AcDbEntity
  8
1
  6
CONTINUOUS
 62
           7
100
AcDbLine
 10
-2.650256511975
 20
-254.206385164035
 11
-3.350256511975
 21
-254.006385164035
  0
LINE
  5
106
100
AcDbEntity
  8
1
  6
CONTINUOUS
 62
           7
100
AcDbLine
 10
-2.650256511975
 20
-250.903051830702
 11
-2.650256511975
 21
-257.903051830702
  0
LINE
  5
105
100
AcDbEntity
  8
1
  6
CONTINUOUS
 62
           7
100
AcDbLine
 10
-2.150256511975
 20
-250.903051830702
 11
-2.650256511975
 21
-250.903051830702
  0
LINE
  5
104
100
AcDbEntity
  8
1
  6
CONTINUOUS
 62
           7
100
AcDbLine
 10
-2.150256511975
 20
-257.903051830702
 11
-2.150256511975
 21
-250.903051830702
  0
LINE
  5
103
100
AcDbEntity
  8
1
  6
CONTINUOUS
 62
           7
100
AcDbLine
 10
-2.650256511975
 20
-257.903051830702
 11
-2.150256511975
 21
-257.903051830702
  0
LINE
  5
102
100
AcDbEntity
  8
1
  6
CONTINUOUS
 62
           7
100
AcDbLine
 10
-2.150256511975
 20
-369.403051830701
 11
-2.150256511975
 21
-239.403051830701
  0
LINE
  5
101
100
AcDbEntity
  8
1
  6
CONTINUOUS
 62
           7
100
AcDbLine
 10
-28.850256511975
 20
-239.403051830701
 11
0.149743488025
 21
-239.403051830701
  0
LINE
  5
100
100
AcDbEntity
  8
1
  6
CONTINUOUS
 62
           7
100
AcDbLine
 10
0.149743488025
 20
-369.403051830701
 11
-28.850256511975
 21
-369.403051830701
  0
LINE
  5
FF
100
AcDbEntity
  8
1
  6
CONTINUOUS
 62
           7
100
AcDbLine
 10
517.257850086093
 20
-253.888766116415
 11
516.357850086094
 21
-253.888766116415
  0
LINE
  5
FE
100
AcDbEntity
  8
1
  6
CONTINUOUS
 62
           7
100
AcDbLine
 10
515.972135800381
 20
-253.503051830701
 11
515.972135800381
 21
-252.603051830702
  0
LINE
  5
FD
100
AcDbEntity
  8
1
  6
CONTINUOUS
 62
           7
100
AcDbLine
 10
515.972135800381
 20
-252.603051830702
 11
514.94356437181
 21
-252.603051830702
  0
LINE
  5
FC
100
AcDbEntity
  8
1
  6
CONTINUOUS
 62
           7
100
AcDbLine
 10
514.94356437181
 20
-252.603051830702
 11
514.94356437181
 21
-253.503051830701
  0
LINE
  5
FB
100
AcDbEntity
  8
1
  6
CONTINUOUS
 62
           7
100
AcDbLine
 10
514.557850086095
 20
-253.888766116415
 11
513.657850086095
 21
-253.888766116415
  0
LINE
  5
FA
100
AcDbEntity
  8
1
  6
CONTINUOUS
 62
           7
100
AcDbLine
 10
513.657850086095
 20
-253.888766116415
 11
513.657850086095
 21
-254.917337544986
  0
LINE
  5
F9
100
AcDbEntity
  8
1
  6
CONTINUOUS
 62
           7
100
AcDbLine
 10
513.657850086095
 20
-254.917337544986
 11
514.557850086095
 21
-254.917337544986
  0
LINE
  5
F8
100
AcDbEntity
  8
1
  6
CONTINUOUS
 62
           7
100
AcDbLine
 10
514.94356437181
 20
-255.3030518307
 11
514.94356437181
 21
-256.203051830702
  0
LINE
  5
F7
100
AcDbEntity
  8
1
  6
CONTINUOUS
 62
           7
100
AcDbLine
 10
514.94356437181
 20
-256.203051830702
 11
515.972135800381
 21
-256.203051830702
  0
LINE
  5
F6
100
AcDbEntity
  8
1
  6
CONTINUOUS
 62
           7
100
AcDbLine
 10
515.972135800381
 20
-256.203051830702
 11
515.972135800381
 21
-255.3030518307
  0
LINE
  5
F5
100
AcDbEntity
  8
1
  6
CONTINUOUS
 62
           7
100
AcDbLine
 10
516.357850086094
 20
-254.917337544986
 11
517.257850086093
 21
-254.917337544986
  0
LINE
  5
F4
100
AcDbEntity
  8
1
  6
CONTINUOUS
 62
           7
100
AcDbLine
 10
517.257850086093
 20
-254.917337544986
 11
517.257850086093
 21
-253.888766116415
  0
LINE
  5
F3
100
AcDbEntity
  8
1
  6
DOT_CENTER
 62
           2
100
AcDbLine
 10
519.832850086093
 20
-254.403051830701
 11
511.082850086093
 21
-254.403051830701
  0
LINE
  5
F2
100
AcDbEntity
  8
1
  6
DOT_CENTER
 62
           2
100
AcDbLine
 10
515.457850086093
 20
-250.028051830701
 11
515.457850086093
 21
-258.778051830701
  0
LINE
  5
F1
100
AcDbEntity
  8
1
  6
CONTINUOUS
 62
           7
100
AcDbLine
 10
517.257850086093
 20
-353.888766116415
 11
516.357850086094
 21
-353.888766116415
  0
LINE
  5
F0
100
AcDbEntity
  8
1
  6
CONTINUOUS
 62
           7
100
AcDbLine
 10
515.972135800381
 20
-353.503051830701
 11
515.972135800381
 21
-352.603051830702
  0
LINE
  5
EF
100
AcDbEntity
  8
1
  6
CONTINUOUS
 62
           7
100
AcDbLine
 10
515.972135800381
 20
-352.603051830702
 11
514.94356437181
 21
-352.603051830702
  0
LINE
  5
EE
100
AcDbEntity
  8
1
  6
CONTINUOUS
 62
           7
100
AcDbLine
 10
514.94356437181
 20
-352.603051830702
 11
514.94356437181
 21
-353.503051830701
  0
LINE
  5
ED
100
AcDbEntity
  8
1
  6
CONTINUOUS
 62
           7
100
AcDbLine
 10
514.557850086095
 20
-353.888766116415
 11
513.657850086095
 21
-353.888766116415
  0
LINE
  5
EC
100
AcDbEntity
  8
1
  6
CONTINUOUS
 62
           7
100
AcDbLine
 10
513.657850086095
 20
-353.888766116415
 11
513.657850086095
 21
-354.917337544986
  0
LINE
  5
EB
100
AcDbEntity
  8
1
  6
CONTINUOUS
 62
           7
100
AcDbLine
 10
513.657850086095
 20
-354.917337544986
 11
514.557850086095
 21
-354.917337544986
  0
LINE
  5
EA
100
AcDbEntity
  8
1
  6
CONTINUOUS
 62
           7
100
AcDbLine
 10
514.94356437181
 20
-355.3030518307
 11
514.94356437181
 21
-356.203051830702
  0
LINE
  5
E9
100
AcDbEntity
  8
1
  6
CONTINUOUS
 62
           7
100
AcDbLine
 10
514.94356437181
 20
-356.203051830702
 11
515.972135800381
 21
-356.203051830702
  0
LINE
  5
E8
100
AcDbEntity
  8
1
  6
CONTINUOUS
 62
           7
100
AcDbLine
 10
515.972135800381
 20
-356.203051830702
 11
515.972135800381
 21
-355.3030518307
  0
LINE
  5
E7
100
AcDbEntity
  8
1
  6
CONTINUOUS
 62
           7
100
AcDbLine
 10
516.357850086094
 20
-354.917337544986
 11
517.257850086093
 21
-354.917337544986
  0
LINE
  5
E6
100
AcDbEntity
  8
1
  6
CONTINUOUS
 62
           7
100
AcDbLine
 10
517.257850086093
 20
-354.917337544986
 11
517.257850086093
 21
-353.888766116415
  0
LINE
  5
E5
100
AcDbEntity
  8
1
  6
DOT_CENTER
 62
           2
100
AcDbLine
 10
519.832850086093
 20
-354.403051830701
 11
511.082850086093
 21
-354.403051830701
  0
LINE
  5
E4
100
AcDbEntity
  8
1
  6
DOT_CENTER
 62
           2
100
AcDbLine
 10
515.457850086093
 20
-350.028051830701
 11
515.457850086093
 21
-358.778051830701
  0
LINE
  5
E3
100
AcDbEntity
  8
1
  6
CONTINUOUS
 62
           7
100
AcDbLine
 10
229.149743488025
 20
-369.403051830701
 11
230.149743488025
 21
-368.403051830701
  0
LINE
  5
E2
100
AcDbEntity
  8
1
  6
CONTINUOUS
 62
           7
100
AcDbLine
 10
229.149743488025
 20
-239.403051830701
 11
230.149743488025
 21
-240.403051830701
  0
LINE
  5
E1
100
AcDbEntity
  8
1
  6
CONTINUOUS
 62
           7
100
AcDbLine
 10
-28.850256511975
 20
-239.403051830701
 11
-29.850256511975
 21
-240.403051830701
  0
LINE
  5
E0
100
AcDbEntity
  8
1
  6
CONTINUOUS
 62
           7
100
AcDbLine
 10
-28.850256511975
 20
-369.403051830701
 11
-29.850256511975
 21
-368.403051830701
  0
LINE
  5
DF
100
AcDbEntity
  8
1
  6
DOT_CENTER
 62
           2
100
AcDbLine
 10
204.649743488025
 20
-254.403051830701
 11
225.649743488025
 21
-254.403051830701
  0
LINE
  5
DE
100
AcDbEntity
  8
1
  6
DOT_CENTER
 62
           2
100
AcDbLine
 10
215.149743488025
 20
-264.903051830701
 11
215.149743488025
 21
-243.903051830701
  0
LINE
  5
DD
100
AcDbEntity
  8
1
  6
DOT_CENTER
 62
           2
100
AcDbLine
 10
204.649743488025
 20
-354.403051830701
 11
225.649743488025
 21
-354.403051830701
  0
LINE
  5
DC
100
AcDbEntity
  8
1
  6
DOT_CENTER
 62
           2
100
AcDbLine
 10
215.149743488025
 20
-364.903051830701
 11
215.149743488025
 21
-343.903051830701
  0
LINE
  5
DB
100
AcDbEntity
  8
1
  6
DOT_CENTER
 62
           2
100
AcDbLine
 10
-25.350256511975
 20
-254.403051830701
 11
-4.350256511975
 21
-254.403051830701
  0
LINE
  5
DA
100
AcDbEntity
  8
1
  6
DOT_CENTER
 62
           2
100
AcDbLine
 10
-14.850256511975
 20
-264.903051830701
 11
-14.850256511975
 21
-243.903051830701
  0
LINE
  5
D9
100
AcDbEntity
  8
1
  6
DOT_CENTER
 62
           2
100
AcDbLine
 10
-25.350256511975
 20
-354.403051830701
 11
-4.350256511975
 21
-354.403051830701
  0
LINE
  5
D8
100
AcDbEntity
  8
1
  6
DOT_CENTER
 62
           2
100
AcDbLine
 10
-14.850256511975
 20
-364.903051830701
 11
-14.850256511975
 21
-343.903051830701
  0
LINE
  5
D7
100
AcDbEntity
  8
1
  6
CONTINUOUS
 62
           7
100
AcDbLine
 10
575.457850086093
 20
-239.403051830701
 11
575.457850086093
 21
-369.403051830701
  0
LINE
  5
D6
100
AcDbEntity
  8
1
  6
CONTINUOUS
 62
           7
100
AcDbLine
 10
495.457850086093
 20
-369.403051830701
 11
495.457850086093
 21
-239.403051830701
  0
LINE
  5
D5
100
AcDbEntity
  8
1
  6
CONTINUOUS
 62
           7
100
AcDbLine
 10
573.157850086093
 20
-239.403051830701
 11
573.157850086093
 21
-369.403051830701
  0
LINE
  5
D4
100
AcDbEntity
  8
1
  6
DOT_CENTER
 62
           2
100
AcDbLine
 10
562.033166202145
 20
-254.403051830701
 11
588.173005521168
 21
-254.403051830701
  0
LINE
  5
D3
100
AcDbEntity
  8
1
  6
DOT_CENTER
 62
           2
100
AcDbLine
 10
561.279132375634
 20
-354.403051830701
 11
587.921660912332
 21
-354.403051830701
  0
LINE
  5
D2
100
AcDbEntity
  8
1
  6
CONTINUOUS
 62
           7
100
AcDbLine
 10
200.149743488025
 20
20.242996407595
 11
0.149743488025
 21
20.242996407595
  0
LINE
  5
D1
100
AcDbEntity
  8
1
  6
CONTINUOUS
 62
           7
100
AcDbLine
 10
0.149743488025
 20
20.242996407595
 11
0.149743488025
 21
170.242996407596
  0
LINE
  5
D0
100
AcDbEntity
  8
1
  6
CONTINUOUS
 62
           7
100
AcDbLine
 10
0.149743488025
 20
170.242996407596
 11
200.149743488025
 21
170.242996407595
  0
LINE
  5
CF
100
AcDbEntity
  8
1
  6
CONTINUOUS
 62
           7
100
AcDbLine
 10
200.149743488025
 20
170.242996407595
 11
200.149743488025
 21
20.242996407595
  0
LINE
  5
CE
100
AcDbEntity
  8
1
  6
CONTINUOUS
 62
           7
100
AcDbLine
 10
200.149743488025
 20
140.242996407594
 11
202.449743488025
 21
140.242996407594
  0
LINE
  5
CD
100
AcDbEntity
  8
1
  6
CONTINUOUS
 62
           7
100
AcDbLine
 10
202.449743488025
 20
140.242996407594
 11
202.449743488025
 21
216.942996407594
  0
LINE
  5
CC
100
AcDbEntity
  8
1
  6
CONTINUOUS
 62
           7
100
AcDbLine
 10
200.149743488025
 20
216.942996407594
 11
200.149743488025
 21
140.242996407594
  0
LINE
  5
CB
100
AcDbEntity
  8
1
  6
CONTINUOUS
 62
           7
100
AcDbLine
 10
230.149743488025
 20
217.942996407594
 11
203.449743488025
 21
217.942996407594
  0
LINE
  5
CA
100
AcDbEntity
  8
1
  6
CONTINUOUS
 62
           7
100
AcDbLine
 10
203.449743488025
 20
220.242996407594
 11
230.149743488025
 21
220.242996407594
  0
LINE
  5
C9
100
AcDbEntity
  8
1
  6
CONTINUOUS
 62
           7
100
AcDbLine
 10
230.149743488025
 20
220.242996407594
 11
230.149743488025
 21
217.942996407594
  0
LINE
  5
C8
100
AcDbEntity
  8
1
  6
DOT_CENTER
 62
           2
100
AcDbLine
 10
215.149743488025
 20
229.592709763801
 11
215.149743488025
 21
204.576430815614
  0
LINE
  5
C7
100
AcDbEntity
  8
1
  6
CONTINUOUS
 62
           7
100
AcDbLine
 10
204.496992370903
 20
162.918871735156
 11
203.649743488025
 21
162.992996407593
  0
LINE
  5
C6
100
AcDbEntity
  8
1
  6
CONTINUOUS
 62
           7
100
AcDbLine
 10
204.496992370903
 20
157.56712108003
 11
203.649743488025
 21
157.492996407593
  0
LINE
  5
C5
100
AcDbEntity
  8
1
  6
CONTINUOUS
 62
           7
100
AcDbLine
 10
202.949743488025
 20
157.292996407592
 11
203.649743488025
 21
157.292996407592
  0
LINE
  5
C4
100
AcDbEntity
  8
1
  6
CONTINUOUS
 62
           7
100
AcDbLine
 10
203.649743488025
 20
157.292996407592
 11
203.649743488025
 21
163.192996407593
  0
LINE
  5
C3
100
AcDbEntity
  8
1
  6
CONTINUOUS
 62
           7
100
AcDbLine
 10
203.649743488025
 20
163.192996407593
 11
202.949743488025
 21
163.192996407593
  0
LINE
  5
C2
100
AcDbEntity
  8
1
  6
CONTINUOUS
 62
           7
100
AcDbLine
 10
203.649743488025
 20
160.046329740925
 11
202.949743488025
 21
159.846329740926
  0
LINE
  5
C1
100
AcDbEntity
  8
1
  6
CONTINUOUS
 62
           7
100
AcDbLine
 10
203.649743488025
 20
160.63966307426
 11
202.949743488025
 21
160.43966307426
  0
LINE
  5
C0
100
AcDbEntity
  8
1
  6
CONTINUOUS
 62
           7
100
AcDbLine
 10
202.949743488025
 20
156.742996407593
 11
202.949743488025
 21
163.742996407593
  0
LINE
  5
BF
100
AcDbEntity
  8
1
  6
CONTINUOUS
 62
           7
100
AcDbLine
 10
202.949743488025
 20
163.742996407593
 11
202.449743488025
 21
163.742996407593
  0
LINE
  5
BE
100
AcDbEntity
  8
1
  6
CONTINUOUS
 62
           7
100
AcDbLine
 10
202.449743488025
 20
163.742996407593
 11
202.449743488025
 21
156.742996407593
  0
LINE
  5
BD
100
AcDbEntity
  8
1
  6
CONTINUOUS
 62
           7
100
AcDbLine
 10
202.449743488025
 20
156.742996407593
 11
202.949743488025
 21
156.742996407593
  0
LINE
  5
BC
100
AcDbEntity
  8
1
  6
DOT_CENTER
 62
           2
100
AcDbLine
 10
208.481241913498
 20
160.242996407594
 11
194.20302851415
 21
160.242996407594
  0
LINE
  5
BB
100
AcDbEntity
  8
1
  6
DOT_CENTER
 62
           2
100
AcDbLine
 10
208.481241913498
 20
30.242996407595
 11
194.20302851415
 21
30.242996407595
  0
LINE
  5
BA
100
AcDbEntity
  8
1
  6
CONTINUOUS
 62
           7
100
AcDbLine
 10
200.149743488025
 20
26.742996407594
 11
200.649743488025
 21
26.742996407594
  0
LINE
  5
B9
100
AcDbEntity
  8
1
  6
CONTINUOUS
 62
           7
100
AcDbLine
 10
200.149743488025
 20
33.742996407594
 11
200.149743488025
 21
26.742996407594
  0
LINE
  5
B8
100
AcDbEntity
  8
1
  6
CONTINUOUS
 62
           7
100
AcDbLine
 10
200.649743488025
 20
33.742996407594
 11
200.149743488025
 21
33.742996407594
  0
LINE
  5
B7
100
AcDbEntity
  8
1
  6
CONTINUOUS
 62
           7
100
AcDbLine
 10
200.649743488025
 20
26.742996407594
 11
200.649743488025
 21
33.742996407594
  0
LINE
  5
B6
100
AcDbEntity
  8
1
  6
CONTINUOUS
 62
           7
100
AcDbLine
 10
201.349743488025
 20
30.639663074261
 11
200.649743488025
 21
30.439663074261
  0
LINE
  5
B5
100
AcDbEntity
  8
1
  6
CONTINUOUS
 62
           7
100
AcDbLine
 10
201.349743488025
 20
30.046329740926
 11
200.649743488025
 21
29.846329740927
  0
LINE
  5
B4
100
AcDbEntity
  8
1
  6
CONTINUOUS
 62
           7
100
AcDbLine
 10
201.349743488025
 20
33.192996407594
 11
200.649743488025
 21
33.192996407594
  0
LINE
  5
B3
100
AcDbEntity
  8
1
  6
CONTINUOUS
 62
           7
100
AcDbLine
 10
201.349743488025
 20
27.292996407593
 11
201.349743488025
 21
33.192996407594
  0
LINE
  5
B2
100
AcDbEntity
  8
1
  6
CONTINUOUS
 62
           7
100
AcDbLine
 10
200.649743488025
 20
27.292996407593
 11
201.349743488025
 21
27.292996407593
  0
LINE
  5
B1
100
AcDbEntity
  8
1
  6
CONTINUOUS
 62
           7
100
AcDbLine
 10
202.196992370903
 20
27.567121080031
 11
201.349743488025
 21
27.492996407594
  0
LINE
  5
B0
100
AcDbEntity
  8
1
  6
CONTINUOUS
 62
           7
100
AcDbLine
 10
202.196992370903
 20
32.918871735157
 11
201.349743488025
 21
32.992996407594
  0
LINE
  5
AF
100
AcDbEntity
  8
1
  6
CONTINUOUS
 62
           7
100
AcDbLine
 10
-1.050256511974
 20
32.992996407594
 11
-1.897505394852
 21
32.918871735157
  0
LINE
  5
AE
100
AcDbEntity
  8
1
  6
CONTINUOUS
 62
           7
100
AcDbLine
 10
-1.050256511974
 20
27.492996407594
 11
-1.897505394852
 21
27.567121080031
  0
LINE
  5
AD
100
AcDbEntity
  8
1
  6
CONTINUOUS
 62
           7
100
AcDbLine
 10
-1.050256511974
 20
27.292996407593
 11
-0.350256511974
 21
27.292996407593
  0
LINE
  5
AC
100
AcDbEntity
  8
1
  6
CONTINUOUS
 62
           7
100
AcDbLine
 10
-1.050256511974
 20
33.192996407594
 11
-1.050256511974
 21
27.292996407593
  0
LINE
  5
AB
100
AcDbEntity
  8
1
  6
CONTINUOUS
 62
           7
100
AcDbLine
 10
-0.350256511974
 20
33.192996407594
 11
-1.050256511974
 21
33.192996407594
  0
LINE
  5
AA
100
AcDbEntity
  8
1
  6
CONTINUOUS
 62
           7
100
AcDbLine
 10
-0.350256511974
 20
29.846329740927
 11
-1.050256511974
 21
30.046329740926
  0
LINE
  5
A9
100
AcDbEntity
  8
1
  6
CONTINUOUS
 62
           7
100
AcDbLine
 10
-0.350256511974
 20
30.439663074261
 11
-1.050256511974
 21
30.639663074261
  0
LINE
  5
A8
100
AcDbEntity
  8
1
  6
CONTINUOUS
 62
           7
100
AcDbLine
 10
-0.350256511974
 20
33.742996407594
 11
-0.350256511974
 21
26.742996407594
  0
LINE
  5
A7
100
AcDbEntity
  8
1
  6
CONTINUOUS
 62
           7
100
AcDbLine
 10
0.149743488026
 20
33.742996407594
 11
-0.350256511974
 21
33.742996407594
  0
LINE
  5
A6
100
AcDbEntity
  8
1
  6
CONTINUOUS
 62
           7
100
AcDbLine
 10
0.149743488026
 20
26.742996407594
 11
0.149743488026
 21
33.742996407594
  0
LINE
  5
A5
100
AcDbEntity
  8
1
  6
CONTINUOUS
 62
           7
100
AcDbLine
 10
-0.350256511974
 20
26.742996407594
 11
0.149743488026
 21
26.742996407594
  0
LINE
  5
A4
100
AcDbEntity
  8
1
  6
DOT_CENTER
 62
           2
100
AcDbLine
 10
6.0964584619
 20
30.242996407595
 11
-8.181754937447
 21
30.242996407595
  0
LINE
  5
A3
100
AcDbEntity
  8
1
  6
DOT_CENTER
 62
           2
100
AcDbLine
 10
6.0964584619
 20
160.242996407594
 11
-8.181754937447
 21
160.242996407594
  0
LINE
  5
A2
100
AcDbEntity
  8
1
  6
CONTINUOUS
 62
           7
100
AcDbLine
 10
-2.650256511974
 20
156.742996407593
 11
-2.150256511974
 21
156.742996407593
  0
LINE
  5
A1
100
AcDbEntity
  8
1
  6
CONTINUOUS
 62
           7
100
AcDbLine
 10
-2.150256511974
 20
156.742996407593
 11
-2.150256511974
 21
163.742996407593
  0
LINE
  5
A0
100
AcDbEntity
  8
1
  6
CONTINUOUS
 62
           7
100
AcDbLine
 10
-2.150256511974
 20
163.742996407593
 11
-2.650256511974
 21
163.742996407593
  0
LINE
  5
9F
100
AcDbEntity
  8
1
  6
CONTINUOUS
 62
           7
100
AcDbLine
 10
-2.650256511974
 20
163.742996407593
 11
-2.650256511974
 21
156.742996407593
  0
LINE
  5
9E
100
AcDbEntity
  8
1
  6
CONTINUOUS
 62
           7
100
AcDbLine
 10
-2.650256511974
 20
160.43966307426
 11
-3.350256511974
 21
160.63966307426
  0
LINE
  5
9D
100
AcDbEntity
  8
1
  6
CONTINUOUS
 62
           7
100
AcDbLine
 10
-2.650256511974
 20
159.846329740926
 11
-3.350256511974
 21
160.046329740925
  0
LINE
  5
9C
100
AcDbEntity
  8
1
  6
CONTINUOUS
 62
           7
100
AcDbLine
 10
-2.650256511974
 20
163.192996407593
 11
-3.350256511974
 21
163.192996407593
  0
LINE
  5
9B
100
AcDbEntity
  8
1
  6
CONTINUOUS
 62
           7
100
AcDbLine
 10
-3.350256511974
 20
163.192996407593
 11
-3.350256511974
 21
157.292996407592
  0
LINE
  5
9A
100
AcDbEntity
  8
1
  6
CONTINUOUS
 62
           7
100
AcDbLine
 10
-3.350256511974
 20
157.292996407592
 11
-2.650256511974
 21
157.292996407592
  0
LINE
  5
99
100
AcDbEntity
  8
1
  6
CONTINUOUS
 62
           7
100
AcDbLine
 10
-3.350256511974
 20
157.492996407593
 11
-4.197505394852
 21
157.56712108003
  0
LINE
  5
98
100
AcDbEntity
  8
1
  6
CONTINUOUS
 62
           7
100
AcDbLine
 10
-3.350256511974
 20
162.992996407593
 11
-4.197505394852
 21
162.918871735156
  0
LINE
  5
97
100
AcDbEntity
  8
1
  6
DOT_CENTER
 62
           2
100
AcDbLine
 10
-14.850256511975
 20
204.576430815614
 11
-14.850256511975
 21
229.592709763801
  0
LINE
  5
96
100
AcDbEntity
  8
1
  6
CONTINUOUS
 62
           7
100
AcDbLine
 10
-29.850256511975
 20
217.942996407594
 11
-29.850256511975
 21
220.242996407594
  0
LINE
  5
95
100
AcDbEntity
  8
1
  6
CONTINUOUS
 62
           7
100
AcDbLine
 10
-29.850256511975
 20
220.242996407594
 11
-3.150256511975
 21
220.242996407594
  0
LINE
  5
94
100
AcDbEntity
  8
1
  6
CONTINUOUS
 62
           7
100
AcDbLine
 10
-3.150256511975
 20
217.942996407594
 11
-29.850256511975
 21
217.942996407594
  0
LINE
  5
93
100
AcDbEntity
  8
1
  6
CONTINUOUS
 62
           7
100
AcDbLine
 10
0.149743488025
 20
140.242996407594
 11
0.149743488025
 21
216.942996407594
  0
LINE
  5
92
100
AcDbEntity
  8
1
  6
CONTINUOUS
 62
           7
100
AcDbLine
 10
-2.150256511975
 20
216.942996407594
 11
-2.150256511975
 21
140.242996407594
  0
LINE
  5
91
100
AcDbEntity
  8
1
  6
CONTINUOUS
 62
           7
100
AcDbLine
 10
-2.150256511975
 20
140.242996407594
 11
0.149743488025
 21
140.242996407594
  0
LINE
  5
90
100
AcDbEntity
  8
1
  6
CONTINUOUS
 62
           2
100
AcDbLine
 10
169.439651196993
 20
-255.133156277163
 11
168.877850609038
 21
-253.323638640467
  0
LINE
  5
8F
100
AcDbEntity
  8
1
  6
CONTINUOUS
 62
           2
100
AcDbLine
 10
184.007557123086
 20
-258.43642740945
 11
182.833909674194
 21
-261.891585893789
  0
LINE
  5
8E
100
AcDbEntity
  8
1
  6
CONTINUOUS
 62
           2
100
AcDbLine
 10
184.565422054027
 20
-260.218012050102
 11
184.007557123086
 21
-258.43642740945
  0
LINE
  5
8D
100
AcDbEntity
  8
1
  6
CONTINUOUS
 62
           2
100
AcDbLine
 10
183.5478111915
 20
-260.21670478348
 11
184.565422054027
 21
-260.218012050102
  0
LINE
  5
8C
100
AcDbEntity
  8
1
  6
CONTINUOUS
 62
           2
100
AcDbLine
 10
183.5478111915
 20
-260.21670478348
 11
183.813393730492
 21
-261.055127652079
  0
LINE
  5
8B
100
AcDbEntity
  8
1
  6
CONTINUOUS
 62
           2
100
AcDbLine
 10
183.813393730492
 20
-261.055127652079
 11
184.8533540815
 21
-261.054896918315
  0
LINE
  5
8A
100
AcDbEntity
  8
1
  6
CONTINUOUS
 62
           2
100
AcDbLine
 10
184.8533540815
 20
-261.054896918315
 11
185.137883475094
 21
-261.891556056261
  0
LINE
  5
89
100
AcDbEntity
  8
1
  6
CONTINUOUS
 62
           2
100
AcDbLine
 10
185.137883475094
 20
-261.891556056261
 11
186.373330865335
 21
-261.891576453543
  0
LINE
  5
88
100
AcDbEntity
  8
1
  6
CONTINUOUS
 62
           2
100
AcDbLine
 10
186.373330865335
 20
-261.891576453543
 11
184.930618086666
 21
-258.003435431331
  0
LINE
  5
87
100
AcDbEntity
  8
1
  6
CONTINUOUS
 62
           2
100
AcDbLine
 10
184.376906655419
 20
-257.614587387929
 11
183.272880804112
 21
-257.614590332556
  0
LINE
  5
86
100
AcDbEntity
  8
1
  6
CONTINUOUS
 62
           2
100
AcDbLine
 10
183.272880804112
 20
-257.614590332556
 11
181.681628577706
 21
-261.891588967123
  0
LINE
  5
85
100
AcDbEntity
  8
1
  6
CONTINUOUS
 62
           2
100
AcDbLine
 10
181.681628577706
 20
-261.891588967123
 11
182.833909674194
 21
-261.891585893789
  0
LINE
  5
84
100
AcDbEntity
  8
1
  6
CONTINUOUS
 62
           2
100
AcDbLine
 10
149.813743488026
 20
-261.891576445857
 11
154.813677353075
 21
-261.891562834812
  0
LINE
  5
83
100
AcDbEntity
  8
1
  6
CONTINUOUS
 62
           2
100
AcDbLine
 10
154.813677353075
 20
-261.891562834812
 11
158.211361034376
 21
-256.980228771809
  0
LINE
  5
82
100
AcDbEntity
  8
1
  6
CONTINUOUS
 62
           2
100
AcDbLine
 10
159.100219919451
 20
-256.485436297797
 11
160.016691116618
 21
-256.48545142877
  0
LINE
  5
81
100
AcDbEntity
  8
1
  6
CONTINUOUS
 62
           2
100
AcDbLine
 10
160.016691116618
 20
-256.48545142877
 11
158.755930522711
 21
-252.531653640272
  0
LINE
  5
80
100
AcDbEntity
  8
1
  6
CONTINUOUS
 62
           2
100
AcDbLine
 10
149.813743488026
 20
-261.891576445857
 11
155.015417082493
 21
-254.497083125941
  0
LINE
  5
7F
100
AcDbEntity
  8
1
  6
CONTINUOUS
 62
           2
100
AcDbLine
 10
157.925730543089
 20
-252.53165587319
 11
158.755930522711
 21
-252.531653640272
  0
LINE
  5
7E
100
AcDbEntity
  8
1
  6
CONTINUOUS
 62
           2
100
AcDbLine
 10
160.157036264809
 20
-252.531567319504
 11
160.157036264809
 21
-261.891646717263
  0
LINE
  5
7D
100
AcDbEntity
  8
1
  6
CONTINUOUS
 62
           2
100
AcDbLine
 10
160.157036264809
 20
-261.891646717263
 11
164.450015081202
 21
-261.891635235756
  0
LINE
  5
7C
100
AcDbEntity
  8
1
  6
CONTINUOUS
 62
           2
100
AcDbLine
 10
164.450015081202
 20
-261.891635235756
 11
164.450015081202
 21
-252.531638421778
  0
LINE
  5
7B
100
AcDbEntity
  8
1
  6
CONTINUOUS
 62
           2
100
AcDbLine
 10
164.450015081202
 20
-252.531638421778
 11
160.157036264809
 21
-252.531567319504
  0
LINE
  5
7A
100
AcDbEntity
  8
1
  6
CONTINUOUS
 62
           2
100
AcDbLine
 10
179.837095621491
 20
-261.89157127411
 11
181.003957385986
 21
-261.891590829659
  0
LINE
  5
79
100
AcDbEntity
  8
1
  6
CONTINUOUS
 62
           2
100
AcDbLine
 10
179.837095621491
 20
-258.434038154452
 11
179.837095621491
 21
-261.89157127411
  0
LINE
  5
78
100
AcDbEntity
  8
1
  6
CONTINUOUS
 62
           2
100
AcDbLine
 10
178.520898743414
 20
-258.434041664973
 11
179.837095621491
 21
-258.434038154452
  0
LINE
  5
77
100
AcDbEntity
  8
1
  6
CONTINUOUS
 62
           2
100
AcDbLine
 10
178.520898743414
 20
-257.6145937763
 11
178.520898743414
 21
-258.434041664973
  0
LINE
  5
76
100
AcDbEntity
  8
1
  6
CONTINUOUS
 62
           2
100
AcDbLine
 10
182.489896949531
 20
-257.614592508081
 11
178.520898743414
 21
-257.6145937763
  0
LINE
  5
75
100
AcDbEntity
  8
1
  6
CONTINUOUS
 62
           2
100
AcDbLine
 10
182.489896949531
 20
-257.931682545613
 11
182.489896949531
 21
-257.614592508081
  0
LINE
  5
74
100
AcDbEntity
  8
1
  6
CONTINUOUS
 62
           2
100
AcDbLine
 10
181.003957385986
 20
-258.437127016819
 11
181.980822228117
 21
-258.437124444396
  0
LINE
  5
73
100
AcDbEntity
  8
1
  6
CONTINUOUS
 62
           2
100
AcDbLine
 10
181.003957385986
 20
-261.891590829659
 11
181.003957385986
 21
-258.437127016819
  0
LINE
  5
72
100
AcDbEntity
  8
1
  6
CONTINUOUS
 62
           2
100
AcDbLine
 10
177.731480600918
 20
-261.05348001
 11
176.701117605578
 21
-261.053692929835
  0
LINE
  5
71
100
AcDbEntity
  8
1
  6
CONTINUOUS
 62
           2
100
AcDbLine
 10
178.018586396032
 20
-261.891575450159
 11
177.731480600918
 21
-261.05348001
  0
LINE
  5
70
100
AcDbEntity
  8
1
  6
CONTINUOUS
 62
           2
100
AcDbLine
 10
179.228003174677
 20
-261.891595654551
 11
178.018586396032
 21
-261.891575450159
  0
LINE
  5
6F
100
AcDbEntity
  8
1
  6
CONTINUOUS
 62
           2
100
AcDbLine
 10
177.7998836684
 20
-258.026220087543
 11
179.228003174677
 21
-261.891595654551
  0
LINE
  5
6E
100
AcDbEntity
  8
1
  6
CONTINUOUS
 62
           2
100
AcDbLine
 10
176.126846280436
 20
-257.614609568493
 11
177.245821181246
 21
-257.614628279686
  0
LINE
  5
6D
100
AcDbEntity
  8
1
  6
CONTINUOUS
 62
           2
100
AcDbLine
 10
175.010186901499
 20
-260.641361218045
 11
174.514999750419
 21
-258.112134839787
  0
LINE
  5
6C
100
AcDbEntity
  8
1
  6
CONTINUOUS
 62
           2
100
AcDbLine
 10
176.126846280436
 20
-257.614609568493
 11
175.010186901499
 21
-260.641361218045
  0
LINE
  5
6B
100
AcDbEntity
  8
1
  6
CONTINUOUS
 62
           2
100
AcDbLine
 10
175.22858003389
 20
-261.891664885568
 11
174.320895521619
 21
-261.891649504871
  0
LINE
  5
6A
100
AcDbEntity
  8
1
  6
CONTINUOUS
 62
           2
100
AcDbLine
 10
176.877570464726
 20
-258.39604715856
 11
175.845832269606
 21
-261.456541826439
  0
LINE
  5
69
100
AcDbEntity
  8
1
  6
CONTINUOUS
 62
           2
100
AcDbLine
 10
177.439809619485
 20
-260.220894183959
 11
176.877570464726
 21
-258.39604715856
  0
LINE
  5
68
100
AcDbEntity
  8
1
  6
CONTINUOUS
 62
           2
100
AcDbLine
 10
176.436607381643
 20
-260.221141995668
 11
177.439809619485
 21
-260.220894183959
  0
LINE
  5
67
100
AcDbEntity
  8
1
  6
CONTINUOUS
 62
           2
100
AcDbLine
 10
176.701117605578
 20
-261.053692929835
 11
176.436607381643
 21
-260.221141995668
  0
LINE
  5
66
100
AcDbEntity
  8
1
  6
CONTINUOUS
 62
           2
100
AcDbLine
 10
173.717391389647
 20
-258.62899378865
 11
174.320895521619
 21
-261.891649504871
  0
LINE
  5
65
100
AcDbEntity
  8
1
  6
CONTINUOUS
 62
           2
100
AcDbLine
 10
173.149363235265
 20
-261.371353485586
 11
173.717391389647
 21
-258.62899378865
  0
LINE
  5
64
100
AcDbEntity
  8
1
  6
CONTINUOUS
 62
           2
100
AcDbLine
 10
171.735881186476
 20
-261.891606826187
 11
172.510397977419
 21
-261.891620008282
  0
LINE
  5
63
100
AcDbEntity
  8
1
  6
CONTINUOUS
 62
           2
100
AcDbLine
 10
170.283688260177
 20
-257.614625208273
 11
171.735881186476
 21
-261.891606826187
  0
LINE
  5
62
100
AcDbEntity
  8
1
  6
CONTINUOUS
 62
           2
100
AcDbLine
 10
171.105250211509
 20
-257.614622961953
 11
170.283688260177
 21
-257.614625208273
  0
LINE
  5
61
100
AcDbEntity
  8
1
  6
CONTINUOUS
 62
           2
100
AcDbLine
 10
172.407706464828
 20
-260.649721441775
 11
171.556747025097
 21
-257.947701461249
  0
LINE
  5
60
100
AcDbEntity
  8
1
  6
CONTINUOUS
 62
           2
100
AcDbLine
 10
172.944893508995
 20
-257.61461811038
 11
172.407706464828
 21
-260.649721441775
  0
LINE
  5
5F
100
AcDbEntity
  8
1
  6
CONTINUOUS
 62
           2
100
AcDbLine
 10
173.944982926737
 20
-257.614615415433
 11
172.944893508995
 21
-257.61461811038
  0
LINE
  5
5E
100
AcDbEntity
  8
1
  6
CONTINUOUS
 62
           2
100
AcDbLine
 10
169.918834299278
 20
-261.891620571824
 11
168.742953574565
 21
-261.891623983371
  0
LINE
  5
5D
100
AcDbEntity
  8
1
  6
CONTINUOUS
 62
           2
100
AcDbLine
 10
169.918834299278
 20
-258.2046657668
 11
169.918834299278
 21
-261.891620571824
  0
LINE
  5
5C
100
AcDbEntity
  8
1
  6
CONTINUOUS
 62
           2
100
AcDbLine
 10
168.742953574565
 20
-257.614629315913
 11
169.472483278601
 21
-257.614627371896
  0
LINE
  5
5B
100
AcDbEntity
  8
1
  6
CONTINUOUS
 62
           2
100
AcDbLine
 10
168.742953574565
 20
-261.891623983371
 11
168.742953574565
 21
-257.614629315913
  0
LINE
  5
5A
100
AcDbEntity
  8
1
  6
CONTINUOUS
 62
           2
100
AcDbLine
 10
187.440943488025
 20
-252.531576746897
 11
183.70178085985
 21
-252.53158679148
  0
LINE
  5
59
100
AcDbEntity
  8
1
  6
CONTINUOUS
 62
           2
100
AcDbLine
 10
187.440943488025
 20
-252.531576746897
 11
187.440943488025
 21
-252.835344286586
  0
LINE
  5
58
100
AcDbEntity
  8
1
  6
CONTINUOUS
 62
           2
100
AcDbLine
 10
186.047342044803
 20
-253.332711972675
 11
186.935049123909
 21
-253.333852359316
  0
LINE
  5
57
100
AcDbEntity
  8
1
  6
CONTINUOUS
 62
           2
100
AcDbLine
 10
183.70178085985
 20
-253.33118414729
 11
183.70178085985
 21
-252.53158679148
  0
LINE
  5
56
100
AcDbEntity
  8
1
  6
CONTINUOUS
 62
           2
100
AcDbLine
 10
184.886087010356
 20
-253.331180988543
 11
183.70178085985
 21
-253.33118414729
  0
LINE
  5
55
100
AcDbEntity
  8
1
  6
CONTINUOUS
 62
           2
100
AcDbLine
 10
184.886087010356
 20
-256.784934423477
 11
184.886087010356
 21
-253.331180988543
  0
LINE
  5
54
100
AcDbEntity
  8
1
  6
CONTINUOUS
 62
           2
100
AcDbLine
 10
186.047342044803
 20
-256.784954109074
 11
184.886087010356
 21
-256.784934423477
  0
LINE
  5
53
100
AcDbEntity
  8
1
  6
CONTINUOUS
 62
           2
100
AcDbLine
 10
186.047342044803
 20
-253.332711972675
 11
186.047342044803
 21
-256.784954109074
  0
LINE
  5
52
100
AcDbEntity
  8
1
  6
CONTINUOUS
 62
           2
100
AcDbLine
 10
183.142762755334
 20
-252.531819313148
 11
181.725669144134
 21
-252.532186316447
  0
LINE
  5
51
100
AcDbEntity
  8
1
  6
CONTINUOUS
 62
           2
100
AcDbLine
 10
180.17500611276
 20
-255.952235235075
 11
181.934295155486
 21
-255.952234672928
  0
LINE
  5
50
100
AcDbEntity
  8
1
  6
CONTINUOUS
 62
           2
100
AcDbLine
 10
180.17500611276
 20
-256.783422409046
 11
182.060058859997
 21
-256.784335946892
  0
LINE
  5
4F
100
AcDbEntity
  8
1
  6
CONTINUOUS
 62
           2
100
AcDbLine
 10
183.142762755334
 20
-253.342623610088
 11
181.723013494309
 21
-253.342600506082
  0
LINE
  5
4E
100
AcDbEntity
  8
1
  6
CONTINUOUS
 62
           2
100
AcDbLine
 10
180.17500611276
 20
-255.952235235075
 11
180.17500611276
 21
-256.783422409046
  0
LINE
  5
4D
100
AcDbEntity
  8
1
  6
CONTINUOUS
 62
           2
100
AcDbLine
 10
183.142762755334
 20
-252.531819313148
 11
183.142762755334
 21
-253.342623610088
  0
LINE
  5
4C
100
AcDbEntity
  8
1
  6
CONTINUOUS
 62
           2
100
AcDbLine
 10
177.435272646915
 20
-255.953303669557
 11
179.683855904748
 21
-255.953297617127
  0
LINE
  5
4B
100
AcDbEntity
  8
1
  6
CONTINUOUS
 62
           2
100
AcDbLine
 10
177.364419424811
 20
-253.340012267915
 11
177.364419424811
 21
-255.880613027585
  0
LINE
  5
4A
100
AcDbEntity
  8
1
  6
CONTINUOUS
 62
           2
100
AcDbLine
 10
179.6871909055
 20
-253.339888743007
 11
177.364419424811
 21
-253.340012267915
  0
LINE
  5
49
100
AcDbEntity
  8
1
  6
CONTINUOUS
 62
           2
100
AcDbLine
 10
179.688209449594
 20
-252.531597587786
 11
179.6871909055
 21
-253.339888743007
  0
LINE
  5
48
100
AcDbEntity
  8
1
  6
CONTINUOUS
 62
           2
100
AcDbLine
 10
176.185307866028
 20
-252.531606985702
 11
179.688209449594
 21
-252.531597587786
  0
LINE
  5
47
100
AcDbEntity
  8
1
  6
CONTINUOUS
 62
           2
100
AcDbLine
 10
176.185307866028
 20
-256.147063328835
 11
176.185307866028
 21
-252.531606985702
  0
LINE
  5
46
100
AcDbEntity
  8
1
  6
CONTINUOUS
 62
           2
100
AcDbLine
 10
179.683855904748
 20
-256.784847858404
 11
176.833435375083
 21
-256.784800423748
  0
LINE
  5
45
100
AcDbEntity
  8
1
  6
CONTINUOUS
 62
           2
100
AcDbLine
 10
179.683855904748
 20
-255.953297617127
 11
179.683855904748
 21
-256.784847858404
  0
LINE
  5
44
100
AcDbEntity
  8
1
  6
CONTINUOUS
 62
           2
100
AcDbLine
 10
177.794846567243
 20
-255.048816428075
 11
179.53033872263
 21
-255.049508008888
  0
LINE
  5
43
100
AcDbEntity
  8
1
  6
CONTINUOUS
 62
           2
100
AcDbLine
 10
177.532847832155
 20
-254.231753898293
 11
177.794846567243
 21
-255.048816428075
  0
LINE
  5
42
100
AcDbEntity
  8
1
  6
CONTINUOUS
 62
           2
100
AcDbLine
 10
179.53033872263
 20
-254.23174851557
 11
177.532847832155
 21
-254.231753898293
  0
LINE
  5
41
100
AcDbEntity
  8
1
  6
CONTINUOUS
 62
           2
100
AcDbLine
 10
179.53033872263
 20
-255.049508008888
 11
179.53033872263
 21
-254.23174851557
  0
LINE
  5
40
100
AcDbEntity
  8
1
  6
CONTINUOUS
 62
           2
100
AcDbLine
 10
172.45230757727
 20
-256.784727513234
 11
171.393571459764
 21
-256.78471003346
  0
LINE
  5
3F
100
AcDbEntity
  8
1
  6
CONTINUOUS
 62
           2
100
AcDbLine
 10
172.45230757727
 20
-253.554059178762
 11
172.45230757727
 21
-256.784727513234
  0
LINE
  5
3E
100
AcDbEntity
  8
1
  6
CONTINUOUS
 62
           2
100
AcDbLine
 10
173.748917737953
 20
-256.413676145898
 11
172.45230757727
 21
-253.554059178762
  0
LINE
  5
3D
100
AcDbEntity
  8
1
  6
CONTINUOUS
 62
           2
100
AcDbLine
 10
175.551432671407
 20
-256.784778877302
 11
174.340505188574
 21
-256.784758791622
  0
LINE
  5
3C
100
AcDbEntity
  8
1
  6
CONTINUOUS
 62
           2
100
AcDbLine
 10
175.551432671407
 20
-252.531608714908
 11
175.551432671407
 21
-256.784778877302
  0
LINE
  5
3B
100
AcDbEntity
  8
1
  6
CONTINUOUS
 62
           2
100
AcDbLine
 10
174.504425730956
 20
-252.531611534991
 11
175.551432671407
 21
-252.531608714908
  0
LINE
  5
3A
100
AcDbEntity
  8
1
  6
CONTINUOUS
 62
           2
100
AcDbLine
 10
174.504425730956
 20
-255.692115036364
 11
174.504425730956
 21
-252.531611534991
  0
LINE
  5
39
100
AcDbEntity
  8
1
  6
CONTINUOUS
 62
           2
100
AcDbLine
 10
173.240623293269
 20
-252.913608797109
 11
174.504425730956
 21
-255.692115036364
  0
LINE
  5
38
100
AcDbEntity
  8
1
  6
CONTINUOUS
 62
           2
100
AcDbLine
 10
171.393571459764
 20
-252.531619832173
 11
172.648874857674
 21
-252.531616484062
  0
LINE
  5
37
100
AcDbEntity
  8
1
  6
CONTINUOUS
 62
           2
100
AcDbLine
 10
171.393571459764
 20
-256.78471003346
 11
171.393571459764
 21
-252.531619832173
  0
LINE
  5
36
100
AcDbEntity
  8
1
  6
CONTINUOUS
 62
           2
100
AcDbLine
 10
169.730733602773
 20
-255.948846881115
 11
168.725055961404
 21
-255.949121655924
  0
LINE
  5
35
100
AcDbEntity
  8
1
  6
CONTINUOUS
 62
           2
100
AcDbLine
 10
170.015411032353
 20
-256.765358629308
 11
169.730733602773
 21
-255.948846881115
  0
LINE
  5
34
100
AcDbEntity
  8
1
  6
CONTINUOUS
 62
           2
100
AcDbLine
 10
171.226603843843
 20
-256.784707380994
 11
170.048863947307
 21
-256.784687541673
  0
LINE
  5
33
100
AcDbEntity
  8
1
  6
CONTINUOUS
 62
           2
100
AcDbLine
 10
169.790013393634
 20
-252.92583070502
 11
169.803861225467
 21
-252.96306991356
  0
LINE
  5
32
100
AcDbEntity
  8
1
  6
CONTINUOUS
 62
           2
100
AcDbLine
 10
169.191839955059
 20
-252.532334653276
 11
168.153235123722
 21
-252.53162852978
  0
LINE
  5
31
100
AcDbEntity
  8
1
  6
CONTINUOUS
 62
           2
100
AcDbLine
 10
166.574237518485
 20
-256.784630175459
 11
168.153235123722
 21
-252.53162852978
  0
LINE
  5
30
100
AcDbEntity
  8
1
  6
CONTINUOUS
 62
           2
100
AcDbLine
 10
167.713834068867
 20
-256.784527438635
 11
166.574237518485
 21
-256.784630175459
  0
LINE
  5
2F
100
AcDbEntity
  8
1
  6
CONTINUOUS
 62
           2
100
AcDbLine
 10
168.877850609038
 20
-253.323638640467
 11
167.713834068867
 21
-256.784527438635
  0
LINE
  5
2E
100
AcDbEntity
  8
1
  6
CONTINUOUS
 62
           2
100
AcDbLine
 10
168.419196030305
 20
-255.133156603232
 11
169.439651196993
 21
-255.133156277163
  0
LINE
  5
2D
100
AcDbEntity
  8
1
  6
CONTINUOUS
 62
           2
100
AcDbLine
 10
168.670960378254
 20
-255.911989789843
 11
168.419196030305
 21
-255.133156603232
  0
LINE
  5
2C
100
AcDbEntity
  8
1
  6
CONTINUOUS
 62
           2
100
AcDbLine
 10
169.803861225467
 20
-252.96306991356
 11
171.226603843843
 21
-256.784707380994
  0
LINE
  5
2B
100
AcDbEntity
  8
1
  6
CONTINUOUS
 62
           2
100
AcDbLine
 10
145.549743488025
 20
-248.267325386272
 11
191.704943488026
 21
-248.267325386272
  0
LINE
  5
2A
100
AcDbEntity
  8
1
  6
CONTINUOUS
 62
           2
100
AcDbLine
 10
191.704943488026
 20
-248.267325386272
 11
191.704943488026
 21
-266.155462407769
  0
LINE
  5
29
100
AcDbEntity
  8
1
  6
CONTINUOUS
 62
           2
100
AcDbLine
 10
191.704943488026
 20
-266.155462407769
 11
145.549743488025
 21
-266.155462407769
  0
LINE
  5
28
100
AcDbEntity
  8
1
  6
CONTINUOUS
 62
           2
100
AcDbLine
 10
145.549743488025
 20
-266.155462407769
 11
145.549743488025
 21
-248.267325386272
  0
ENDSEC
  0
SECTION
  2
OBJECTS
  0
DICTIONARY
  5
19
100
AcDbDictionary
  3
ACAD_GROUP
350
1A
  3
ACAD_MLINESTYLE
350
1B
  0
DICTIONARY
  5
1A
102
{ACAD_REACTORS
330
19
102
}
100
AcDbDictionary
  0
DICTIONARY
  5
1B
102
{ACAD_REACTORS
330
19
102
}
100
AcDbDictionary
  3
STANDARD
350
1C
  0
MLINESTYLE
  5
1C
102
{ACAD_REACTORS
330
1B
102
}
100
AcDbMlineStyle
  2
STANDARD
 70
           0
  3

 62
           0
 51
90.0
 52
90.0
 71
           2
 49
0.5
 62
         256
  6
BYLAYER
 49
-0.5
 62
         256
  6
BYLAYER
  0
ENDSEC
  0
EOF
