  0
SECTION
  2
HEADER
  9
$ACADVER
  1
AC1014
  9
$ACADMAINTVER
 70
           0
  9
$DWGCODEPAGE
  3
DOS932
  9
$INSBASE
 10
0.0
 20
0.0
 30
0.0
  9
$EXTMIN
 10
1.000000000000E+20
 20
1.000000000000E+20
 30
1.000000000000E+20
  9
$EXTMAX
 10
-1.000000000000E+20
 20
-1.000000000000E+20
 30
-1.000000000000E+20
  9
$LIMMIN
 10
0.0
 20
0.0
  9
$LIMMAX
 10
0.0
 20
0.0
  9
$ORTHOMODE
 70
           0
  9
$REGENMODE
 70
           1
  9
$FILLMODE
 70
           1
  9
$QTEXTMODE
 70
           0
  9
$MIRRTEXT
 70
           1
  9
$DRAGMODE
 70
           2
  9
$LTSCALE
 40
1.0
  9
$OSMODE
 70
           0
  9
$ATTMODE
 70
           1
  9
$TEXTSIZE
 40
0.2
  9
$TRACEWID
 40
0.05
  9
$TEXTSTYLE
  7
STANDARD
  9
$CLAYER
  8
0
  9
$CELTYPE
  6
CONTINUOUS
  9
$CECOLOR
 62
         256
  9
$CELTSCALE
 40
1.0
  9
$DELOBJ
 70
           1
  9
$DISPSILH
 70
           0
  9
$DIMSCALE
 40
1.0
  9
$DIMASZ
 40
0.18
  9
$DIMEXO
 40
0.0625
  9
$DIMDLI
 40
0.38
  9
$DIMRND
 40
0.0
  9
$DIMDLE
 40
0.0
  9
$DIMEXE
 40
0.18
  9
$DIMTP
 40
0.0
  9
$DIMTM
 40
0.0
  9
$DIMTXT
 40
0.18
  9
$DIMCEN
 40
0.09
  9
$DIMTSZ
 40
0.0
  9
$DIMTOL
 70
           0
  9
$DIMLIM
 70
           0
  9
$DIMTIH
 70
           1
  9
$DIMTOH
 70
           1
  9
$DIMSE1
 70
           0
  9
$DIMSE2
 70
           0
  9
$DIMTAD
 70
           0
  9
$DIMZIN
 70
           0
  9
$DIMBLK
  1

  9
$DIMASO
 70
           1
  9
$DIMSHO
 70
           1
  9
$DIMPOST
  1

  9
$DIMAPOST
  1

  9
$DIMALT
 70
           0
  9
$DIMALTD
 70
           2
  9
$DIMALTF
 40
25.4
  9
$DIMLFAC
 40
1.0
  9
$DIMTOFL
 70
           0
  9
$DIMTVP
 40
0.0
  9
$DIMTIX
 70
           0
  9
$DIMSOXD
 70
           0
  9
$DIMSAH
 70
           0
  9
$DIMBLK1
  1

  9
$DIMBLK2
  1

  9
$DIMSTYLE
  2
STANDARD
  9
$DIMCLRD
 70
           0
  9
$DIMCLRE
 70
           0
  9
$DIMCLRT
 70
           0
  9
$DIMTFAC
 40
1.0
  9
$DIMGAP
 40
0.09
  9
$DIMJUST
 70
           0
  9
$DIMSD1
 70
           0
  9
$DIMSD2
 70
           0
  9
$DIMTOLJ
 70
           1
  9
$DIMTZIN
 70
           0
  9
$DIMALTZ
 70
           0
  9
$DIMALTTZ
 70
           0
  9
$DIMFIT
 70
           3
  9
$DIMUPT
 70
           0
  9
$DIMUNIT
 70
           2
  9
$DIMDEC
 70
           4
  9
$DIMTDEC
 70
           4
  9
$DIMALTU
 70
           2
  9
$DIMALTTD
 70
           2
  9
$DIMTXSTY
  7
STANDARD
  9
$DIMAUNIT
 70
           0
  9
$LUNITS
 70
           2
  9
$LUPREC
 70
           4
  9
$SKETCHINC
 40
0.1
  9
$FILLETRAD
 40
0.0
  9
$AUNITS
 70
           0
  9
$AUPREC
 70
           0
  9
$MENU
  1
acad
  9
$ELEVATION
 40
0.0
  9
$PELEVATION
 40
0.0
  9
$THICKNESS
 40
0.0
  9
$LIMCHECK
 70
           0
  9
$BLIPMODE
 70
           1
  9
$CHAMFERA
 40
0.0
  9
$CHAMFERB
 40
0.0
  9
$CHAMFERC
 40
0.0
  9
$CHAMFERD
 40
0.0
  9
$SKPOLY
 70
           0
  9
$TDCREATE
 40
0.000000000
  9
$TDUPDATE
 40
0.000000000
  9
$TDINDWG
 40
0.0000000000
  9
$TDUSRTIMER
 40
0.0000000000
  9
$USRTIMER
 70
           1
  9
$ANGBASE
 50
0.0
  9
$ANGDIR
 70
           0
  9
$PDMODE
 70
           0
  9
$PDSIZE
 40
0.0
  9
$PLINEWID
 40
0.0
  9
$COORDS
 70
           0
  9
$SPLFRAME
 70
           0
  9
$SPLINETYPE
 70
           6
  9
$SPLINESEGS
 70
           8
  9
$ATTDIA
 70
           0
  9
$ATTREQ
 70
           1
  9
$HANDLING
 70
           1
  9
$HANDSEED
  5
504
  9
$SURFTAB1
 70
           6
  9
$SURFTAB2
 70
           6
  9
$SURFTYPE
 70
           6
  9
$SURFU
 70
           6
  9
$SURFV
 70
           6
  9
$UCSNAME
  2

  9
$UCSORG
 10
0.0
 20
0.0
 30
0.0
  9
$UCSXDIR
 10
1.0
 20
0.0
 30
0.0
  9
$UCSYDIR
 10
0.0
 20
1.0
 30
0.0
  9
$PUCSNAME
  2

  9
$PUCSORG
 10
0.0
 20
0.0
 30
0.0
  9
$PUCSXDIR
 10
1.0
 20
0.0
 30
0.0
  9
$PUCSYDIR
 10
0.0
 20
1.0
 30
0.0
  9
$USERI1
 70
           0
  9
$USERI2
 70
           0
  9
$USERI3
 70
           0
  9
$USERI4
 70
           0
  9
$USERI5
 70
           0
  9
$USERR1
 40
0.0
  9
$USERR2
 40
0.0
  9
$USERR3
 40
0.0
  9
$USERR4
 40
0.0
  9
$USERR5
 40
0.0
  9
$WORLDVIEW
 70
           1
  9
$SHADEDGE
 70
           3
  9
$SHADEDIF
 70
          70
  9
$TILEMODE
 70
           1
  9
$MAXACTVP
 70
          16
  9
$PINSBASE
 10
0.0
 20
0.0
 30
0.0
  9
$PLIMCHECK
 70
           0
  9
$PEXTMIN
 10
1.000000000000E+20
 20
1.000000000000E+20
 30
1.000000000000E+20
  9
$PEXTMAX
 10
-1.000000000000E+20
 20
-1.000000000000E+20
 30
-1.000000000000E+20
  9
$PLIMMIN
 10
0.0
 20
0.0
  9
$PLIMMAX
 10
12.0
 20
9.0
  9
$UNITMODE
 70
           0
  9
$VISRETAIN
 70
           0
  9
$PLINEGEN
 70
           1
  9
$PSLTSCALE
 70
           0
  9
$TREEDEPTH
 70
        3020
  9
$PICKSTYLE
 70
           1
  9
$CMLSTYLE
  2
STANDARD
  9
$CMLJUST
 70
           0
  9
$CMLSCALE
 40
1.0
  9
$PROXYGRAPHICS
 70
           0
  9
$MEASUREMENT
 70
           0
  0
ENDSEC
  0
SECTION
  2
CLASSES
  0
CLASS
  1
LWPOLYLINE
  2
AcDbPolyline
  3
"AutoCAD"
 90
        0
280
           0
281
           1
  0
CLASS
  1
IMAGE
  2
AcDbRasterImage
  3
ISM
 90
      127
280
           0
281
           1
  0
CLASS
  1
OLE2FRAME
  2
AcDbOle2Frame
  3
""
 90
        0
280
           0
281
           1
  0
CLASS
  1
HATCH
  2
AcDbHatch
  3
"ACAD_SEDONA"
 90
        0
280
           0
281
           1
  0
CLASS
  1
DICTIONARYVAR
  2
AcDbDictionaryVar
  3
"AutoCAD"
 90
        0
280
           0
281
           0
  0
CLASS
  1
RASTERVARIABLES
  2
AcDbRasterVariables
  3
ISM
 90
        0
280
           0
281
           0
  0
CLASS
  1
IMAGEDEF
  2
AcDbRasterImageDef
  3
ISM
 90
        0
280
           0
281
           0
  0
CLASS
  1
IMAGEDEF_REACTOR
  2
AcDbRasterImageDefReactor
  3
ISM
 90
        1
280
           0
281
           0
  0
CLASS
  1
IDBUFFER
  2
AcDbIdBuffer
  3
"Acad"
 90
        0
280
           0
281
           0
  0
CLASS
  1
SPATIAL_FILTER
  2
AcDbSpatialFilter
  3
"Acad"
 90
        0
280
           0
281
           0
  0
CLASS
  1
XRECORD
  2
AcDbXrecord
  3
"<Built In>"
 90
        0
280
           0
281
           0
  0
CLASS
  1
SORTENTSTABLE
  2
AcDbSortentsTable
  3
"AutoCAD"
 90
        0
280
           0
281
           0
  0
CLASS
  1
LAYER_INDEX
  2
AcDbLayerIndex
  3
"Acad"
 90
        0
280
           0
281
           0
  0
CLASS
  1
SPATIAL_INDEX
  2
AcDbSpatialIndex
  3
"Acad"
 90
        0
280
           0
281
           0
  0
CLASS
  1
OBJECT_PTR
  2
CAseDLPNTableRecord
  3
"ASE-LPNTableRecord"
 90
        1
280
           0
281
           0
  0
CLASS
  1
LAYOUT
  2
AcDbLayout
  3
"AutoCAD 2000"
 90
        1
280
           0
281
           0
  0
CLASS
  1
PLOTSETTINGS
  2
AcDbPlotSettings
  3
"AutoCAD 2000"
 90
        1
280
           0
281
           0
  0
CLASS
  1
ACDBDICTIONARYWDFLT
  2
AcDbDictionaryWithDefault
  3
"AutoCAD 2000"
 90
        1
280
           0
281
           0
  0
CLASS
  1
ACDBPLACEHOLDER
  2
AcDbPlaceHolder
  3
"AutoCAD 2000"
 90
        1
280
           0
281
           0
  0
CLASS
  1
VBA_PROJECT
  2
AcDbVbaProject
  3
"acadvba"
 90
        1
280
           0
281
           0
  0
CLASS
  1
WIPEOUT
  2
AcDbWipeout
  3
WipeOut|AutoCAD Express Tool|expresstools@autodesk.com
 90
      127
280
           0
281
           1
  0
CLASS
  1
WIPEOUTVARIABLES
  2
AcDbWipeoutVariables
  3
WipeOut|AutoCAD Express Tool|expresstools@autodesk.com
 90
        0
280
           0
281
           0
  0
CLASS
  1
RTEXT
  2
RText
  3
RText|AutoCAD Express Tool|expresstools@autodesk.com
 90
        0
280
           0
281
           1
  0
CLASS
  1
ARCALIGNEDTEXT
  2
AcDbArcAlignedText
  3
ATEXT|AutoCAD Express Tool|expresstools@autodesk.com
 90
        0
280
           0
281
           1
  0
ENDSEC
  0
SECTION
  2
TABLES
  0
TABLE
  2
VPORT
  5
7
100
AcDbSymbolTable
 70
           1
  0
VPORT
  5
15
100
AcDbSymbolTableRecord
100
AcDbViewportTableRecord
  2
*ACTIVE
 70
           0
 10
0.0
 20
0.0
 11
1.0
 21
1.0
 12
6.591288
 22
4.579184
 13
0.0
 23
0.0
 14
1.0
 24
1.0
 15
0.0
 25
0.0
 16
0.0
 26
0.0
 36
1.0
 17
0.0
 27
0.0
 37
0.0
 40
9.158369
 41
0.688564
 42
50.0
 43
0.0
 44
0.0
 50
0.0
 51
0.0
 71
           0
 72
         100
 73
           1
 74
           1
 75
           0
 76
           0
 77
           0
 78
           0
  0
ENDTAB
  0
TABLE
  2
LTYPE
  5
4
100
AcDbSymbolTable
 70
          10
  0
LTYPE
  5
11
100
AcDbSymbolTableRecord
100
AcDbLinetypeTableRecord
  2
BYBLOCK
 70
          64
  3

 72
          65
 73
           0
 40
0.0
  0
LTYPE
  5
12
100
AcDbSymbolTableRecord
100
AcDbLinetypeTableRecord
  2
BYLAYER
 70
          64
  3

 72
          65
 73
           0
 40
0.0
  0
LTYPE
  5
13
100
AcDbSymbolTableRecord
100
AcDbLinetypeTableRecord
  2
CONTINUOUS
 70
          64
  3
Solid line
 72
          65
 73
           0
 40
0.0
  0
LTYPE
  5
1D
100
AcDbSymbolTableRecord
100
AcDbLinetypeTableRecord
  2
DASHED
 70
          64
  3
Dashed
 72
          65
 73
           2
 40
15.0
 49
12.0
 74
           0
 49
-3.0
 74
           0
  0
LTYPE
  5
1E
100
AcDbSymbolTableRecord
100
AcDbLinetypeTableRecord
  2
DOTTED
 70
          64
  3
Dotted
 72
          65
 73
           2
 40
3.5
 49
0.5
 74
           0
 49
-3.0
 74
           0
  0
LTYPE
  5
1F
100
AcDbSymbolTableRecord
100
AcDbLinetypeTableRecord
  2
DOT_CENTER
 70
          64
  3
Dot_Center
 72
          65
 73
           4
 40
2.0
 49
1.25
 74
           0
 49
-0.25
 74
           0
 49
0.25
 74
           0
 49
-0.25
 74
           0
  0
LTYPE
  5
20
100
AcDbSymbolTableRecord
100
AcDbLinetypeTableRecord
  2
LONG_DASHED
 70
          64
  3
Long_Dashed
 72
          65
 73
           2
 40
2.0
 49
1.5
 74
           0
 49
-0.5
 74
           0
  0
LTYPE
  5
21
100
AcDbSymbolTableRecord
100
AcDbLinetypeTableRecord
  2
DASH_CENTER
 70
          64
  3
Dash_Center
 72
          65
 73
           4
 40
36.0
 49
24.0
 74
           0
 49
-3.0
 74
           0
 49
6.0
 74
           0
 49
-3.0
 74
           0
  0
LTYPE
  5
22
100
AcDbSymbolTableRecord
100
AcDbLinetypeTableRecord
  2
PHANTOM
 70
          64
  3
Phantom
 72
          65
 73
           6
 40
2.5
 49
1.25
 74
           0
 49
-0.25
 74
           0
 49
0.25
 74
           0
 49
-0.25
 74
           0
 49
0.25
 74
           0
 49
-0.25
 74
           0
  0
LTYPE
  5
23
100
AcDbSymbolTableRecord
100
AcDbLinetypeTableRecord
  2
CENTER_DASH_DASH
 70
          64
  3
Center_Dash_Dash
 72
          65
 73
           6
 40
22.0
 49
12.0
 74
           0
 49
-3.0
 74
           0
 49
0.5
 74
           0
 49
-3.0
 74
           0
 49
0.5
 74
           0
 49
-3.0
 74
           0
  0
ENDTAB
  0
TABLE
  2
LAYER
  5
2
100
AcDbSymbolTable
 70
           2
  0
LAYER
  5
14
100
AcDbSymbolTableRecord
100
AcDbLayerTableRecord
  2
0
 70
           0
 62
           7
  6
CONTINUOUS
  0
LAYER
  5
24
100
AcDbSymbolTableRecord
100
AcDbLayerTableRecord
  2
1
 70
           0
 62
           7
  6
CONTINUOUS
  0
ENDTAB
  0
TABLE
  2
STYLE
  5
3
100
AcDbSymbolTable
 70
           1
  0
STYLE
  5
17
100
AcDbSymbolTableRecord
100
AcDbTextStyleTableRecord
  2
STANDARD
 70
           0
 40
0.0
 41
1.0
 50
0.0
 71
           0
 42
0.0
  3
txt
  4

  0
ENDTAB
  0
TABLE
  2
VIEW
  5
5
100
AcDbSymbolTable
 70
           0
  0
ENDTAB
  0
TABLE
  2
UCS
  5
6
100
AcDbSymbolTable
 70
           0
  0
ENDTAB
  0
TABLE
  2
APPID
  5
8
100
AcDbSymbolTable
 70
           1
  0
APPID
  5
16
100
AcDbSymbolTableRecord
100
AcDbRegAppTableRecord
  2
ACAD
 70
           0
  0
ENDTAB
  0
TABLE
  2
DIMSTYLE
  5
9
100
AcDbSymbolTable
 70
           1
  0
DIMSTYLE
105
18
100
AcDbSymbolTableRecord
100
AcDbDimStyleTableRecord
  2
STANDARD
 70
           0
  3

  4

  5

  6

  7

 40
1.0
 41
0.18
 42
0.0625
 43
0.38
 44
0.18
 45
0.0
 46
0.0
 47
0.0
 48
0.0
 71
           0
 72
           0
 73
           1
 74
           1
 75
           0
 76
           0
 77
           0
 78
           0
140
0.18
141
0.09
142
0.0
143
25.4
144
1.0
145
0.0
146
1.0
147
0.09
170
           0
171
           2
172
           0
173
           0
174
           0
175
           0
176
           0
177
           0
178
           0
270
           2
271
           4
272
           4
273
           2
274
           2
275
           0
280
           0
281
           0
282
           0
283
           1
284
           0
285
           0
286
           0
287
           0
288
           0
340
17
  0
ENDTAB
  0
TABLE
  2
BLOCK_RECORD
  5
1
100
AcDbSymbolTable
 70
           0
  0
BLOCK_RECORD
  5
A
100
AcDbSymbolTableRecord
100
AcDbBlockTableRecord
  2
*MODEL_SPACE
  0
BLOCK_RECORD
  5
B
100
AcDbSymbolTableRecord
100
AcDbBlockTableRecord
  2
*PAPER_SPACE
  0
ENDTAB
  0
ENDSEC
  0
SECTION
  2
BLOCKS
  0
BLOCK
  5
D
100
AcDbEntity
  8
0
100
AcDbBlockBegin
  2
*MODEL_SPACE
 70
           0
 10
0.0
 20
0.0
 30
0.0
  3
*MODEL_SPACE
  1

  0
ENDBLK
  5
E
100
AcDbEntity
  8
0
100
AcDbBlockEnd
  0
BLOCK
  5
F
100
AcDbEntity
 67
           1
  8
0
100
AcDbBlockBegin
  2
*PAPER_SPACE
 70
           0
 10
0.0
 20
0.0
 30
0.0
  3
*PAPER_SPACE
  1

  0
ENDBLK
  5
10
100
AcDbEntity
 67
           1
  8
0
100
AcDbBlockEnd
  0
ENDSEC
  0
SECTION
  2
ENTITIES
  0
ARC
  5
502
100
AcDbEntity
  8
1
  6
CONTINUOUS
 62
           2
100
AcDbCircle
 10
-634.262032195966
 20
-623.986210835505
 40
1.0
100
AcDbArc
 50
180.0
 51
-90.0
  0
ARC
  5
501
100
AcDbEntity
  8
1
  6
CONTINUOUS
 62
           2
100
AcDbCircle
 10
-634.262032195966
 20
-645.835160419558
 40
1.0
100
AcDbArc
 50
90.0
 51
180.0
  0
ARC
  5
500
100
AcDbEntity
  8
1
  6
CONTINUOUS
 62
           7
100
AcDbCircle
 10
-635.592159214891
 20
-605.916265623165
 40
3.0
100
AcDbArc
 50
90.0
 51
120.000000000001
  0
ARC
  5
4FF
100
AcDbEntity
  8
1
  6
CONTINUOUS
 62
           7
100
AcDbCircle
 10
-631.726133811102
 20
-672.416265623165
 40
10.0
100
AcDbArc
 50
-120.0
 51
-90.0
  0
ARC
  5
4FE
100
AcDbEntity
  8
1
  6
CONTINUOUS
 62
           2
100
AcDbCircle
 10
-637.262032195966
 20
-665.180967872641
 40
2.0
100
AcDbArc
 50
-90.0
 51
0.0
  0
ARC
  5
4FD
100
AcDbEntity
  8
1
  6
CONTINUOUS
 62
           7
100
AcDbCircle
 10
-637.762032195966
 20
-664.945839011018
 40
0.5
100
AcDbArc
 50
-90.0
 51
0.0
  0
ARC
  5
4FC
100
AcDbEntity
  8
1
  6
CONTINUOUS
 62
           7
100
AcDbCircle
 10
-566.062032196004
 20
-637.916265623166
 40
2.000000000001
100
AcDbArc
 50
-131.409622109245
 51
-90.0
  0
ARC
  5
4FB
100
AcDbEntity
  8
1
  6
CONTINUOUS
 62
           7
100
AcDbCircle
 10
-567.062032196004
 20
-669.416265623162
 40
1.5
100
AcDbArc
 50
90.0
 51
180.0
  0
ARC
  5
4FA
100
AcDbEntity
  8
1
  6
CONTINUOUS
 62
           7
100
AcDbCircle
 10
-555.712032196004
 20
-640.666265623167
 40
0.790569415042
100
AcDbArc
 50
-18.434948822922
 51
71.565051177078
  0
ARC
  5
4F9
100
AcDbEntity
  8
1
  6
CONTINUOUS
 62
           7
100
AcDbCircle
 10
-555.712032196004
 20
-667.166265623162
 40
0.790569415042
100
AcDbArc
 50
-71.565051177078
 51
18.434948822922
  0
ARC
  5
4F8
100
AcDbEntity
  8
1
  6
CONTINUOUS
 62
           7
100
AcDbCircle
 10
-569.062032196004
 20
-681.150717856509
 40
0.5
100
AcDbArc
 50
-90.0
 51
0.0
  0
ARC
  5
4F7
100
AcDbEntity
  8
1
  6
CONTINUOUS
 62
           7
100
AcDbCircle
 10
-773.354862087175
 20
-619.766265623166
 40
2.000000000001
100
AcDbArc
 50
90.0
 51
179.999999999967
  0
ARC
  5
4F6
100
AcDbEntity
  8
1
  6
CONTINUOUS
 62
           7
100
AcDbCircle
 10
-773.354862087175
 20
-655.066265623165
 40
2.0
100
AcDbArc
 50
180.0
 51
-90.0
  0
ARC
  5
4F5
100
AcDbEntity
  8
1
  6
CONTINUOUS
 62
           7
100
AcDbCircle
 10
-745.406396811575
 20
-609.416265623167
 40
5.0
100
AcDbArc
 50
90.0
 51
164.999999999999
  0
ARC
  5
4F4
100
AcDbEntity
  8
1
  6
CONTINUOUS
 62
           7
100
AcDbCircle
 10
-745.406396811575
 20
-665.416265623164
 40
5.0
100
AcDbArc
 50
-164.999999999997
 51
-90.0
  0
ARC
  5
4F3
100
AcDbEntity
  8
1
  6
CONTINUOUS
 62
           7
100
AcDbCircle
 10
-754.796923613894
 20
-657.416265623166
 40
2.0
100
AcDbArc
 50
14.999999999998
 51
90.0
  0
ARC
  5
4F2
100
AcDbEntity
  8
1
  6
CONTINUOUS
 62
           7
100
AcDbCircle
 10
-754.796923613894
 20
-617.416265623166
 40
2.0
100
AcDbArc
 50
-90.000000000013
 51
-15.000000000036
  0
ARC
  5
4F1
100
AcDbEntity
  8
1
  6
CONTINUOUS
 62
           2
100
AcDbCircle
 10
-621.686765173631
 20
-803.71264314873
 40
6.0
100
AcDbArc
 50
-90.0
 51
-30.565516353129
  0
ARC
  5
4F0
100
AcDbEntity
  8
1
  6
CONTINUOUS
 62
           7
100
AcDbCircle
 10
-602.119896572272
 20
-790.01264314873
 40
10.0
100
AcDbArc
 50
90.0
 51
135.0
  0
ARC
  5
4EF
100
AcDbEntity
  8
1
  6
CONTINUOUS
 62
           7
100
AcDbCircle
 10
-622.404167819734
 20
-782.01264314873
 40
10.0
100
AcDbArc
 50
-90.0
 51
-45.0
  0
ARC
  5
4EE
100
AcDbEntity
  8
1
  6
CONTINUOUS
 62
           7
100
AcDbCircle
 10
-628.762032196004
 20
-835.21264314873
 40
2.0
100
AcDbArc
 50
180.0
 51
-90.0
  0
ARC
  5
4ED
100
AcDbEntity
  8
1
  6
CONTINUOUS
 62
           7
100
AcDbCircle
 10
-628.762032196004
 20
-784.21264314873
 40
2.0
100
AcDbArc
 50
90.0
 51
180.0
  0
ARC
  5
4EC
100
AcDbEntity
  8
1
  6
CONTINUOUS
 62
           7
100
AcDbCircle
 10
-612.190964384139
 20
-785.312643148731
 40
5.0
100
AcDbArc
 50
90.0
 51
134.999999999996
  0
ARC
  5
4EB
100
AcDbEntity
  8
1
  6
CONTINUOUS
 62
           7
100
AcDbCircle
 10
-625.88310000787
 20
-784.86264314873
 40
5.0
100
AcDbArc
 50
-90.0
 51
-44.999999999998
  0
ARC
  5
4EA
100
AcDbEntity
  8
1
  6
CONTINUOUS
 62
           7
100
AcDbCircle
 10
-636.262032196004
 20
-788.862643148731
 40
1.0
100
AcDbArc
 50
180.0
 51
-90.0
  0
ARC
  5
4E9
100
AcDbEntity
  8
1
  6
CONTINUOUS
 62
           7
100
AcDbCircle
 10
-636.262032196004
 20
-830.562643148731
 40
1.0
100
AcDbArc
 50
90.0
 51
180.0
  0
ARC
  5
4E8
100
AcDbEntity
  8
1
  6
CONTINUOUS
 62
           7
100
AcDbCircle
 10
-625.88310000787
 20
-834.562643148731
 40
5.0
100
AcDbArc
 50
44.999999999998
 51
90.0
  0
ARC
  5
4E7
100
AcDbEntity
  8
1
  6
CONTINUOUS
 62
           7
100
AcDbCircle
 10
-612.190964384139
 20
-834.112643148731
 40
5.0
100
AcDbArc
 50
-134.999999999998
 51
-90.0
  0
ARC
  5
4E6
100
AcDbEntity
  8
1
  6
CONTINUOUS
 62
           7
100
AcDbCircle
 10
-636.262032196004
 20
-828.38564314873
 40
1.0
100
AcDbArc
 50
103.34447671404
 51
180.0
  0
ARC
  5
4E5
100
AcDbEntity
  8
1
  6
CONTINUOUS
 62
           7
100
AcDbCircle
 10
-636.262032196004
 20
-791.03964314873
 40
1.0
100
AcDbArc
 50
180.0
 51
-76.655523285972
  0
ARC
  5
4E4
100
AcDbEntity
  8
1
  6
CONTINUOUS
 62
           7
100
AcDbCircle
 10
-754.796923613894
 20
-829.712643148731
 40
2.0
100
AcDbArc
 50
14.999999999998
 51
90.0
  0
ARC
  5
4E3
100
AcDbEntity
  8
1
  6
CONTINUOUS
 62
           7
100
AcDbCircle
 10
-754.796923613894
 20
-789.712643148731
 40
2.0
100
AcDbArc
 50
-90.000000000013
 51
-15.000000000036
  0
ARC
  5
4E2
100
AcDbEntity
  8
1
  6
CONTINUOUS
 62
           7
100
AcDbCircle
 10
-773.354862087175
 20
-827.36264314873
 40
2.0
100
AcDbArc
 50
180.0
 51
-90.0
  0
ARC
  5
4E1
100
AcDbEntity
  8
1
  6
CONTINUOUS
 62
           7
100
AcDbCircle
 10
-773.354862087175
 20
-792.062643148731
 40
2.000000000001
100
AcDbArc
 50
90.0
 51
179.999999999967
  0
ARC
  5
4E0
100
AcDbEntity
  8
1
  6
CONTINUOUS
 62
           7
100
AcDbCircle
 10
-371.997313666746
 20
-672.416265623165
 40
2.0
100
AcDbArc
 50
180.0
 51
-90.0
  0
ARC
  5
4DF
100
AcDbEntity
  8
1
  6
CONTINUOUS
 62
           7
100
AcDbCircle
 10
-412.497313666746
 20
-672.416265623165
 40
2.0
100
AcDbArc
 50
-90.0
 51
0.0
  0
ARC
  5
4DE
100
AcDbEntity
  8
1
  6
CONTINUOUS
 62
           7
100
AcDbCircle
 10
-409.497313666746
 20
-680.416265623166
 40
1.0
100
AcDbArc
 50
180.0
 51
-90.0
  0
ARC
  5
4DD
100
AcDbEntity
  8
1
  6
CONTINUOUS
 62
           7
100
AcDbCircle
 10
-374.997313666746
 20
-680.416265623166
 40
1.0
100
AcDbArc
 50
-90.0
 51
0.0
  0
ARC
  5
4DC
100
AcDbEntity
  8
1
  6
CONTINUOUS
 62
           7
100
AcDbCircle
 10
-402.997313666746
 20
-680.416265623166
 40
1.0
100
AcDbArc
 50
180.0
 51
-90.0
  0
ARC
  5
4DB
100
AcDbEntity
  8
1
  6
CONTINUOUS
 62
           7
100
AcDbCircle
 10
-409.497313666746
 20
-673.566265623164
 40
1.0
100
AcDbArc
 50
180.0
 51
-90.0
  0
ARC
  5
4DA
100
AcDbEntity
  8
1
  6
CONTINUOUS
 62
           7
100
AcDbCircle
 10
-381.497313666746
 20
-680.416265623166
 40
1.0
100
AcDbArc
 50
-90.0
 51
0.0
  0
ARC
  5
4D9
100
AcDbEntity
  8
1
  6
CONTINUOUS
 62
           7
100
AcDbCircle
 10
-374.997313666746
 20
-673.566265623164
 40
1.0
100
AcDbArc
 50
-90.0
 51
0.0
  0
ARC
  5
4D8
100
AcDbEntity
  8
1
  6
CONTINUOUS
 62
           7
100
AcDbCircle
 10
-409.497313666746
 20
-649.966265623164
 40
1.0
100
AcDbArc
 50
90.0
 51
180.0
  0
ARC
  5
4D7
100
AcDbEntity
  8
1
  6
CONTINUOUS
 62
           7
100
AcDbCircle
 10
-402.997313666746
 20
-641.947528831115
 40
1.0
100
AcDbArc
 50
132.37811077129
 51
180.0
  0
ARC
  5
4D6
100
AcDbEntity
  8
1
  6
CONTINUOUS
 62
           7
100
AcDbCircle
 10
-374.997313666746
 20
-649.966265623164
 40
1.0
100
AcDbArc
 50
0.0
 51
90.0
  0
ARC
  5
4D5
100
AcDbEntity
  8
1
  6
CONTINUOUS
 62
           7
100
AcDbCircle
 10
-381.497313666746
 20
-641.947528831115
 40
1.0
100
AcDbArc
 50
0.0
 51
47.621889228672
  0
SPLINE
  5
4D4
100
AcDbEntity
  8
1
  6
CONTINUOUS
 62
           2
100
AcDbSpline
210
0.0
220
0.0
230
1.0
 70
           0
 71
           4
 72
           8
 73
           4
 74
           3
 42
0.00000000001
 43
0.00000000001
 44
0.00000000001
 40
0.0
 40
0.0
 40
0.0
 40
0.0
 40
5.5980265633413619
 40
5.5980265633413619
 40
5.5980265633413619
 40
5.5980265633413619
 10
-619.13975513229229
 20
-633.97736311690915
 30
0.0
 10
-619.60559871593341
 20
-635.78521751640096
 30
0.0
 10
-619.36680275477033
 20
-637.66949407637367
 30
0.0
 10
-619.01209860597737
 20
-639.46659374843512
 30
0.0
 11
-619.13975513229229
 21
-633.97736311690915
 31
0.0
 11
-619.38363226879767
 21
-636.72601145545855
 31
0.0
 11
-619.01209860597737
 21
-639.46659374843512
 31
0.0
  0
SPLINE
  5
4D3
100
AcDbEntity
  8
1
  6
CONTINUOUS
 62
           2
100
AcDbSpline
210
0.0
220
0.0
230
1.0
 70
           0
 71
           3
 72
           6
 73
           3
 74
           3
 42
0.00000000001
 43
0.00000000001
 44
0.00000000001
 40
0.0
 40
0.0
 40
0.0
 40
3.233989569323537
 40
3.233989569323537
 40
3.233989569323537
 10
-620.32403908107744
 20
-632.9890837620685
 30
0.0
 10
-618.84817273972362
 20
-633.38266629492045
 30
0.0
 10
-618.37381597440412
 20
-631.74337390640449
 30
0.0
 11
-620.32403908107744
 21
-632.9890837620685
 31
0.0
 11
-619.09855013373203
 21
-632.87444756457842
 31
0.0
 11
-618.37381597440412
 21
-631.74337390640449
 31
0.0
  0
SPLINE
  5
4D2
100
AcDbEntity
  8
1
  6
CONTINUOUS
 62
           2
100
AcDbSpline
210
0.0
220
0.0
230
1.0
 70
           0
 71
           3
 72
           6
 73
           3
 74
           3
 42
0.00000000001
 43
0.00000000001
 44
0.00000000001
 40
0.0
 40
0.0
 40
0.0
 40
2.9367240568132096
 40
2.9367240568132096
 40
2.9367240568132096
 10
-619.90265133554112
 20
-640.7135521993398
 30
0.0
 10
-618.50052730461289
 20
-640.68781848125832
 30
0.0
 10
-617.86318986914648
 20
-642.08355253788341
 30
0.0
 11
-619.90265133554112
 21
-640.7135521993398
 31
0.0
 11
-618.69172395347834
 21
-641.04318542493502
 31
0.0
 11
-617.86318986914648
 21
-642.08355253788341
 31
0.0
  0
SPLINE
  5
4D1
100
AcDbEntity
  8
1
  6
CONTINUOUS
 62
           2
100
AcDbSpline
210
0.0
220
0.0
230
1.0
 70
           0
 71
           4
 72
           8
 73
           4
 74
           3
 42
0.00000000001
 43
0.00000000001
 44
0.00000000001
 40
0.0
 40
0.0
 40
0.0
 40
0.0
 40
5.7812845709830452
 40
5.7812845709830452
 40
5.7812845709830452
 40
5.7812845709830452
 10
-621.36025426616425
 20
-624.98621083550529
 30
0.0
 10
-619.45249538426049
 20
-624.95657592352745
 30
0.0
 10
-617.70659628012459
 20
-623.9495455068045
 30
0.0
 10
-616.37332444904882
 20
-622.65580697019482
 30
0.0
 11
-621.36025426616425
 21
-624.98621083550529
 31
0.0
 11
-618.65135671354597
 21
-624.29504776208705
 31
0.0
 11
-616.37332444904882
 21
-622.65580697019482
 31
0.0
  0
SPLINE
  5
4D0
100
AcDbEntity
  8
1
  6
CONTINUOUS
 62
           2
100
AcDbSpline
210
0.0
220
0.0
230
1.0
 70
           0
 71
           4
 72
           8
 73
           4
 74
           3
 42
0.00000000001
 43
0.00000000001
 44
0.00000000001
 40
0.0
 40
0.0
 40
0.0
 40
0.0
 40
2.168338773975266
 40
2.168338773975266
 40
2.168338773975266
 40
2.168338773975266
 10
-619.64486271916428
 20
-644.83516041955795
 30
0.0
 10
-618.93166859016208
 20
-644.92202018892658
 30
0.0
 10
-618.53795531994024
 20
-645.61330812138431
 30
0.0
 10
-618.17902901862385
 20
-646.16041105232603
 30
0.0
 11
-619.64486271916428
 21
-644.83516041955795
 31
0.0
 11
-618.77909543351188
 21
-645.32519455035208
 31
0.0
 11
-618.17902901862385
 21
-646.16041105232603
 31
0.0
  0
SPLINE
  5
4CF
100
AcDbEntity
  8
1
  6
CONTINUOUS
 62
           2
100
AcDbSpline
210
0.0
220
0.0
230
1.0
 70
           0
 71
           4
 72
          10
 73
           6
 74
           7
 42
0.00000000001
 43
0.00000000001
 44
0.00000000001
 40
0.0
 40
0.0
 40
0.0
 40
0.0
 40
0.6271573478900163
 40
2.2056679910135264
 40
4.7448940602362271
 40
4.7448940602362271
 40
4.7448940602362271
 40
4.7448940602362271
 10
-636.26557591698725
 20
-632.9890837620685
 30
0.0
 10
-636.42010789759934
 20
-633.05400226773168
 30
0.0
 10
-636.72290124142478
 20
-633.39968424029826
 30
0.0
 10
-637.27239407535035
 20
-634.87946580388075
 30
0.0
 10
-637.21176670769046
 20
-636.31517599616359
 30
0.0
 10
-637.26203219596641
 20
-637.41626562316515
 30
0.0
 11
-636.26557591698725
 21
-632.9890837620685
 31
0.0
 11
-636.45412273028501
 21
-633.11077749555784
 31
0.0
 11
-636.58847070411207
 21
-633.27825003583973
 31
0.0
 11
-636.8740266608911
 21
-633.86610940626986
 31
0.0
 11
-637.08215053283288
 21
-634.60211536551355
 31
0.0
 11
-637.21586770271404
 21
-635.90667750983039
 31
0.0
 11
-637.26203219596641
 21
-637.41626562316515
 31
0.0
  0
SPLINE
  5
4CE
100
AcDbEntity
  8
1
  6
CONTINUOUS
 62
           2
100
AcDbSpline
210
0.0
220
0.0
230
1.0
 70
           0
 71
           4
 72
          12
 73
           8
 74
          11
 42
0.00000000001
 43
0.00000000001
 44
0.00000000001
 40
0.0
 40
0.0
 40
0.0
 40
0.0
 40
0.398324153920967
 40
0.8054324062349503
 40
1.3427344216881445
 40
2.2405780857210069
 40
3.4012745748538826
 40
3.4012745748538826
 40
3.4012745748538826
 40
3.4012745748538826
 10
-636.92573289020197
 20
-640.7135521993398
 30
0.0
 10
-637.07057017984903
 20
-640.64486913926703
 30
0.0
 10
-637.12124163163139
 20
-640.41229824985203
 30
0.0
 10
-637.18480954722781
 20
-640.01018352839947
 30
0.0
 10
-637.22027956160969
 20
-639.47405356851118
 30
0.0
 10
-637.22170465961744
 20
-638.57621103546899
 30
0.0
 10
-637.25174226665854
 20
-637.86353617035593
 30
0.0
 10
-637.26203219596641
 20
-637.41626562316515
 30
0.0
 11
-636.92573289020197
 21
-640.7135521993398
 31
0.0
 11
-637.06774426050879
 21
-640.58130474656446
 31
0.0
 11
-637.11762187634213
 21
-640.41272262174721
 31
0.0
 11
-637.14871918107838
 21
-640.23196076784984
 31
0.0
 11
-637.17371656216937
 21
-640.05065720893037
 31
0.0
 11
-637.19627673114894
 21
-639.8124687798047
 31
0.0
 11
-637.20957522574736
 21
-639.56794250128542
 31
0.0
 11
-637.22019508077403
 21
-639.12907348589192
 31
0.0
 11
-637.22705947352529
 21
-638.66699783206866
 31
0.0
 11
-637.24359195665602
 21
-638.05874922874534
 31
0.0
 11
-637.26203219596641
 21
-637.41626562316515
 31
0.0
  0
SPLINE
  5
4CD
100
AcDbEntity
  8
1
  6
CONTINUOUS
 62
           2
100
AcDbSpline
210
0.0
220
0.0
230
1.0
 70
           0
 71
           4
 72
           8
 73
           4
 74
           3
 42
0.00000000001
 43
0.00000000001
 44
0.00000000001
 40
0.0
 40
0.0
 40
0.0
 40
0.0
 40
12.414278147031649
 40
12.414278147031649
 40
12.414278147031649
 40
12.414278147031649
 10
-609.19096438410133
 20
-652.52437773409088
 30
0.0
 10
-613.56973583471949
 20
-652.58531229589971
 30
0.0
 10
-616.44201100197097
 20
-649.80602657047666
 30
0.0
 10
-618.17902901862567
 20
-646.16041105232239
 30
0.0
 11
-609.19096438410133
 21
-652.52437773409088
 31
0.0
 11
-614.6756542390998
 21
-650.73235067319274
 31
0.0
 11
-618.17902901862567
 21
-646.16041105232239
 31
0.0
  0
SPLINE
  5
4CC
100
AcDbEntity
  8
1
  6
CONTINUOUS
 62
           2
100
AcDbSpline
210
0.0
220
0.0
230
1.0
 70
           0
 71
           4
 72
           8
 73
           4
 74
           3
 42
0.00000000001
 43
0.00000000001
 44
0.00000000001
 40
13.57992051407888
 40
13.57992051407888
 40
13.57992051407888
 40
13.57992051407888
 40
22.227979597942422
 40
22.227979597942422
 40
22.227979597942422
 40
22.227979597942422
 10
-616.37332444904337
 20
-622.655806970188
 30
0.0
 10
-614.56057424897313
 20
-620.49940042178446
 30
0.0
 10
-612.12825434477054
 20
-618.93218503396565
 30
0.0
 10
-609.19096438410133
 20
-618.96197150117519
 30
0.0
 11
-616.37332444904337
 21
-622.655806970188
 31
0.0
 11
-613.20384682679696
 21
-619.98906685482677
 31
0.0
 11
-609.19096438410133
 21
-618.96197150117519
 31
0.0
  0
SPLINE
  5
4CB
100
AcDbEntity
  8
1
  6
CONTINUOUS
 62
           2
100
AcDbSpline
210
0.0
220
0.0
230
1.0
 70
           0
 71
           4
 72
           9
 73
           5
 74
           5
 42
0.00000000001
 43
0.00000000001
 44
0.00000000001
 40
0.0
 40
0.0
 40
0.0
 40
0.0
 40
7.2010783582453586
 40
12.864981356014162
 40
12.864981356014162
 40
12.864981356014162
 40
12.864981356014162
 10
-616.76203219596687
 20
-635.41626562316515
 30
0.0
 10
-617.01186125723848
 20
-632.91613079733816
 30
0.0
 10
-614.59209674339399
 20
-628.90032456054246
 30
0.0
 10
-610.71079832237842
 20
-627.46674543402969
 30
0.0
 10
-609.19096438410133
 20
-627.32622784998102
 30
0.0
 11
-616.76203219596687
 21
-635.41626562316515
 31
0.0
 11
-616.07686481821429
 21
-631.92489174055925
 31
0.0
 11
-613.84505478570668
 21
-629.22953721902468
 31
0.0
 11
-611.55338999208038
 21
-627.90620863100662
 31
0.0
 11
-609.19096438410133
 21
-627.32622784998102
 31
0.0
  0
SPLINE
  5
4CA
100
AcDbEntity
  8
1
  6
CONTINUOUS
 62
           2
100
AcDbSpline
210
0.0
220
0.0
230
1.0
 70
           0
 71
           4
 72
          10
 73
           6
 74
           7
 42
0.00000000001
 43
0.00000000001
 44
0.00000000001
 40
0.0
 40
0.0
 40
0.0
 40
0.0
 40
4.5215853058760924
 40
8.9055648365555555
 40
12.973375807438654
 40
12.973375807438654
 40
12.973375807438654
 40
12.973375807438654
 10
-609.19096438410133
 20
-643.37565468012008
 30
0.0
 10
-610.77745184938794
 20
-643.13176903398198
 30
0.0
 10
-613.68172499462617
 20
-642.86541453741688
 30
0.0
 10
-616.43830774799312
 20
-639.45652497492642
 30
0.0
 10
-616.80764330374382
 20
-636.93118965198892
 30
0.0
 10
-616.76203219596687
 20
-635.41626562316515
 30
0.0
 11
-609.19096438410133
 21
-643.37565468012008
 31
0.0
 11
-611.46813950128637
 21
-643.01091239278912
 31
0.0
 11
-613.46571704277221
 21
-642.32673543251292
 31
0.0
 11
-615.02959381781068
 21
-641.02829537606226
 31
0.0
 11
-616.12168137425738
 21
-639.29151083158968
 31
0.0
 11
-616.64953680958695
 21
-637.49265174391758
 31
0.0
 11
-616.76203219596687
 21
-635.41626562316515
 31
0.0
  0
SPLINE
  5
4C9
100
AcDbEntity
  8
1
  6
CONTINUOUS
 62
           2
100
AcDbSpline
210
0.0
220
0.0
230
1.0
 70
           0
 71
           3
 72
           6
 73
           3
 74
           3
 42
0.00000000001
 43
0.00000000001
 44
0.00000000001
 40
0.0
 40
0.0
 40
0.0
 40
8.495181648241843
 40
8.495181648241843
 40
8.495181648241843
 10
-636.72613381110205
 20
-681.07651966100957
 30
0.0
 10
-634.50321489636804
 20
-677.49321165339484
 30
0.0
 10
-633.47637135973287
 20
-673.33989028042538
 30
0.0
 11
-636.72613381110205
 21
-681.07651966100957
 31
0.0
 11
-634.80223374089269
 21
-677.35070831205621
 31
0.0
 11
-633.47637135973287
 21
-673.33989028042538
 31
0.0
  0
SPLINE
  5
4C8
100
AcDbEntity
  8
1
  6
CONTINUOUS
 62
           2
100
AcDbSpline
210
0.0
220
0.0
230
1.0
 70
           0
 71
           3
 72
           6
 73
           3
 74
           3
 42
0.00000000001
 43
0.00000000001
 44
0.00000000001
 40
0.0
 40
0.0
 40
0.0
 40
6.925977983572972
 40
6.925977983572972
 40
6.925977983572972
 10
-646.76203219596664
 20
-675.28229102694831
 30
0.0
 10
-646.09816004103322
 20
-671.88599723580478
 30
0.0
 10
-645.86110340513142
 20
-668.42870586469098
 30
0.0
 11
-646.76203219596664
 21
-675.28229102694831
 31
0.0
 11
-646.20486392079113
 21
-671.87074784081221
 31
0.0
 11
-645.86110340513142
 21
-668.42870586469098
 31
0.0
  0
SPLINE
  5
4C7
100
AcDbEntity
  8
1
  6
CONTINUOUS
 62
           2
100
AcDbSpline
210
0.0
220
0.0
230
1.0
 70
           0
 71
           4
 72
          10
 73
           6
 74
           7
 42
0.00000000001
 43
0.00000000001
 44
0.00000000001
 40
0.0
 40
0.0
 40
0.0
 40
0.0
 40
2.8382890873651947
 40
5.9690651658625455
 40
9.3876123285208806
 40
9.3876123285208806
 40
9.3876123285208806
 40
9.3876123285208806
 10
-636.72613381110205
 20
-681.07651966100957
 30
0.0
 10
-636.22284725353211
 20
-680.26547316716915
 30
0.0
 10
-635.31675465376793
 20
-678.61392507531264
 30
0.0
 10
-634.10916817038401
 20
-675.72541443160026
 30
0.0
 10
-633.52617695542449
 20
-673.62965151675826
 30
0.0
 10
-633.25551012970732
 20
-672.41626562316537
 30
0.0
 11
-636.72613381110205
 21
-681.07651966100957
 31
0.0
 11
-636.02038624177862
 21
-679.87080347925667
 31
0.0
 11
-635.39241305839982
 21
-678.65300136181463
 31
0.0
 11
-634.76244881982063
 21
-677.25027406021763
 31
0.0
 11
-634.20548250068293
 21
-675.79554706377166
 31
0.0
 11
-633.6913706639134
 21
-674.1589368659437
 31
0.0
 11
-633.25551012970732
 21
-672.41626562316537
 31
0.0
  0
SPLINE
  5
4C6
100
AcDbEntity
  8
1
  6
CONTINUOUS
 62
           2
100
AcDbSpline
210
0.0
220
0.0
230
1.0
 70
           0
 71
           4
 72
          11
 73
           7
 74
           9
 42
0.00000000001
 43
0.00000000001
 44
0.00000000001
 40
0.0
 40
0.0
 40
0.0
 40
0.0
 40
2.6527676618639218
 40
4.8255674597191023
 40
6.5305965082680828
 40
8.1973685552011943
 40
8.1973685552011943
 40
8.1973685552011943
 40
8.1973685552011943
 10
-641.11713139907829
 20
-670.30993521219762
 30
0.0
 10
-640.16349676051664
 20
-670.67558093466869
 30
0.0
 10
-638.60755991231463
 20
-671.1661398121455
 30
0.0
 10
-636.55734130296446
 20
-671.88562755730436
 30
0.0
 10
-634.88931065814199
 20
-672.23889491261616
 30
0.0
 10
-633.81894203532602
 20
-672.4874853587155
 30
0.0
 10
-633.25551012970732
 20
-672.41626562316537
 30
0.0
 11
-641.11713139907829
 21
-670.30993521219762
 31
0.0
 11
-639.74965730271981
 21
-670.7999745141384
 31
0.0
 11
-638.46519013585328
 21
-671.22734791698394
 31
0.0
 11
-637.43671663579073
 21
-671.57206183641449
 31
0.0
 11
-636.42643985315624
 21
-671.88060238388789
 31
0.0
 11
-635.6466474265801
 21
-672.07510721068104
 31
0.0
 11
-634.86348190128876
 21
-672.24996510396261
 31
0.0
 11
-634.07749753917642
 21
-672.40281100393736
 31
0.0
 11
-633.25551012970732
 21
-672.41626562316537
 31
0.0
  0
SPLINE
  5
4C5
100
AcDbEntity
  8
1
  6
CONTINUOUS
 62
           7
100
AcDbSpline
210
0.0
220
0.0
230
1.0
 70
           0
 71
           4
 72
           9
 73
           5
 74
           5
 42
0.00000000001
 43
0.00000000001
 44
0.00000000001
 40
0.0
 40
0.0
 40
0.0
 40
0.0
 40
16.158805797286504
 40
28.086945611537562
 40
28.086945611537562
 40
28.086945611537562
 40
28.086945611537562
 10
-752.32444746442775
 20
-637.41626562316537
 30
0.0
 10
-751.78089793657523
 20
-644.43941704069061
 30
0.0
 10
-752.46167604389279
 20
-653.52860970456936
 30
0.0
 10
-747.46061316146029
 20
-661.98053979225642
 30
0.0
 10
-745.40639681157495
 20
-662.45126562316545
 30
0.0
 11
-752.32444746442775
 21
-637.41626562316537
 31
0.0
 11
-751.85855359463903
 21
-646.80336840267285
 31
0.0
 11
-750.68361067087994
 21
-654.68676700873721
 31
0.0
 11
-748.40316681090894
 21
-659.78162696432241
 31
0.0
 11
-745.40639681157495
 21
-662.45126562316545
 31
0.0
  0
SPLINE
  5
4C4
100
AcDbEntity
  8
1
  6
CONTINUOUS
 62
           7
100
AcDbSpline
210
0.0
220
0.0
230
1.0
 70
           0
 71
           4
 72
           9
 73
           5
 74
           5
 42
0.00000000001
 43
0.00000000001
 44
0.00000000001
 40
0.0
 40
0.0
 40
0.0
 40
0.0
 40
16.158805797286504
 40
28.086945611537509
 40
28.086945611537509
 40
28.086945611537509
 40
28.086945611537509
 10
-752.32444746442775
 20
-637.41626562316537
 30
0.0
 10
-751.78089793657523
 20
-630.39311420564013
 30
0.0
 10
-752.46167604389279
 20
-621.30392154176138
 30
0.0
 10
-747.46061316146029
 20
-612.85199145407432
 30
0.0
 10
-745.40639681157495
 20
-612.38126562316552
 30
0.0
 11
-752.32444746442775
 21
-637.41626562316537
 31
0.0
 11
-751.85855359463903
 21
-628.02916284365801
 31
0.0
 11
-750.68361067087994
 21
-620.14576423759377
 31
0.0
 11
-748.40316681090906
 21
-615.05090428200833
 31
0.0
 11
-745.40639681157495
 21
-612.38126562316552
 31
0.0
  0
SPLINE
  5
4C3
100
AcDbEntity
  8
1
  6
CONTINUOUS
 62
           7
100
AcDbSpline
210
0.0
220
0.0
230
1.0
 70
           0
 71
           4
 72
           9
 73
           5
 74
           5
 42
0.00000000001
 43
0.00000000001
 44
0.00000000001
 40
0.0
 40
0.0
 40
0.0
 40
0.0
 40
2.3972026466818708
 40
4.4944720909292739
 40
4.4944720909292739
 40
4.4944720909292739
 40
4.4944720909292739
 10
-745.25534662749874
 20
-604.65626562316675
 30
0.0
 10
-746.11612568066857
 20
-604.67164866251596
 30
0.0
 10
-747.58637278804599
 20
-605.11723655994092
 30
0.0
 10
-748.73595703807769
 20
-606.05101547326467
 30
0.0
 10
-749.3055120958411
 20
-606.28626562316686
 30
0.0
 11
-745.25534662749874
 21
-604.65626562316675
 31
0.0
 11
-746.48723873155791
 21
-604.83562451761509
 31
0.0
 11
-747.5932657148669
 21
-605.28585303595605
 31
0.0
 11
-748.46315223157194
 21
-605.821376881481
 31
0.0
 11
-749.3055120958411
 21
-606.28626562316686
 31
0.0
  0
SPLINE
  5
4C2
100
AcDbEntity
  8
1
  6
CONTINUOUS
 62
           7
100
AcDbSpline
210
0.0
220
0.0
230
1.0
 70
           0
 71
           4
 72
           8
 73
           4
 74
           3
 42
0.00000000001
 43
0.00000000001
 44
0.00000000001
 40
0.0
 40
0.0
 40
0.0
 40
0.0
 40
4.0126163588257642
 40
4.0126163588257642
 40
4.0126163588257642
 40
4.0126163588257642
 10
-741.25534662749874
 20
-604.41626562316674
 30
0.0
 10
-742.58089162118563
 20
-604.59414860325865
 30
0.0
 10
-743.92019300068546
 20
-604.62938528925088
 30
0.0
 10
-745.25534662749874
 20
-604.65626562316675
 30
0.0
 11
-741.25534662749874
 21
-604.41626562316674
 31
0.0
 11
-743.25174339007629
 21
-604.59289161548281
 31
0.0
 11
-745.25534662749874
 21
-604.65626562316675
 31
0.0
  0
SPLINE
  5
4C1
100
AcDbEntity
  8
1
  6
CONTINUOUS
 62
           7
100
AcDbSpline
210
0.0
220
0.0
230
1.0
 70
           0
 71
           4
 72
           8
 73
           4
 74
           3
 42
0.00000000001
 43
0.00000000001
 44
0.00000000001
 40
0.0
 40
0.0
 40
0.0
 40
0.0
 40
4.0126163588257624
 40
4.0126163588257624
 40
4.0126163588257624
 40
4.0126163588257624
 10
-723.2622437922837
 20
-670.41626562316424
 30
0.0
 10
-724.58778878597059
 20
-670.23838264307233
 30
0.0
 10
-725.92709016547042
 20
-670.20314595708032
 30
0.0
 10
-727.2622437922837
 20
-670.17626562316423
 30
0.0
 11
-723.2622437922837
 21
-670.41626562316424
 31
0.0
 11
-725.25864055486136
 21
-670.23963963084827
 31
0.0
 11
-727.2622437922837
 21
-670.17626562316423
 31
0.0
  0
SPLINE
  5
4C0
100
AcDbEntity
  8
1
  6
CONTINUOUS
 62
           7
100
AcDbSpline
210
0.0
220
0.0
230
1.0
 70
           0
 71
           4
 72
           8
 73
           4
 74
           3
 42
0.00000000001
 43
0.00000000001
 44
0.00000000001
 40
0.0
 40
0.0
 40
0.0
 40
0.0
 40
4.0126163588257624
 40
4.0126163588257624
 40
4.0126163588257624
 40
4.0126163588257624
 10
-731.2622437922837
 20
-670.41626562316424
 30
0.0
 10
-729.93669879859681
 20
-670.23838264307233
 30
0.0
 10
-728.59739741909698
 20
-670.20314595708032
 30
0.0
 10
-727.2622437922837
 20
-670.17626562316423
 30
0.0
 11
-731.2622437922837
 21
-670.41626562316424
 31
0.0
 11
-729.26584702970604
 21
-670.23963963084827
 31
0.0
 11
-727.2622437922837
 21
-670.17626562316423
 31
0.0
  0
SPLINE
  5
4BF
100
AcDbEntity
  8
1
  6
CONTINUOUS
 62
           7
100
AcDbSpline
210
0.0
220
0.0
230
1.0
 70
           0
 71
           4
 72
           9
 73
           5
 74
           5
 42
0.00000000001
 43
0.00000000001
 44
0.00000000001
 40
0.0
 40
0.0
 40
0.0
 40
0.0
 40
6.2130128441339068
 40
11.375545428979079
 40
11.375545428979079
 40
11.375545428979079
 40
11.375545428979079
 10
-662.26203219600438
 20
-663.75526562316554
 30
0.0
 10
-659.91876222019346
 20
-663.45566674317479
 30
0.0
 10
-656.12165752481314
 20
-662.81563615480877
 30
0.0
 10
-653.47126327044452
 20
-660.02205256512889
 30
0.0
 10
-653.33174664625835
 20
-658.71776562316518
 30
0.0
 11
-662.26203219600438
 21
-663.75526562316554
 31
0.0
 11
-658.95825767326494
 21
-663.19433520137341
 31
0.0
 11
-656.11308112381562
 21
-662.11411731392673
 31
0.0
 11
-654.23510885752182
 21
-660.59595143316881
 31
0.0
 11
-653.33174664625835
 21
-658.71776562316518
 31
0.0
  0
SPLINE
  5
4BE
100
AcDbEntity
  8
1
  6
CONTINUOUS
 62
           7
100
AcDbSpline
210
0.0
220
0.0
230
1.0
 70
           0
 71
           4
 72
           9
 73
           5
 74
           5
 42
0.00000000001
 43
0.00000000001
 44
0.00000000001
 40
0.0
 40
0.0
 40
0.0
 40
0.0
 40
6.213012844133937
 40
11.375545428978779
 40
11.375545428978779
 40
11.375545428978779
 40
11.375545428978779
 10
-662.26203219600438
 20
-611.07726562316543
 30
0.0
 10
-659.91876222019346
 20
-611.37686450315641
 30
0.0
 10
-656.12165752481314
 20
-612.01689509152243
 30
0.0
 10
-653.47126327044452
 20
-614.81047868120186
 30
0.0
 10
-653.33174664625835
 20
-616.11476562316557
 30
0.0
 11
-662.26203219600438
 21
-611.07726562316543
 31
0.0
 11
-658.95825767326494
 21
-611.63819604495791
 31
0.0
 11
-656.1130811238155
 21
-612.71841393240447
 31
0.0
 11
-654.23510885752171
 21
-614.23657981316205
 31
0.0
 11
-653.33174664625835
 21
-616.11476562316557
 31
0.0
  0
SPLINE
  5
4BD
100
AcDbEntity
  8
1
  6
CONTINUOUS
 62
           7
100
AcDbSpline
210
0.0
220
0.0
230
1.0
 70
           0
 71
           4
 72
           8
 73
           4
 74
           3
 42
0.00000000001
 43
0.00000000001
 44
0.00000000001
 40
0.0
 40
0.0
 40
0.0
 40
0.0
 40
4.0087972224018333
 40
4.0087972224018333
 40
4.0087972224018333
 40
4.0087972224018333
 10
-727.20983016559057
 20
-670.41626562316424
 30
0.0
 10
-728.54424490334554
 20
-670.34960547964715
 30
0.0
 10
-729.87495061102368
 20
-670.22458586228845
 30
0.0
 10
-731.2098301655908
 20
-670.16626562316424
 30
0.0
 11
-727.20983016559057
 21
-670.41626562316424
 31
0.0
 11
-729.20965585928616
 21
-670.28813815901685
 31
0.0
 11
-731.2098301655908
 21
-670.16626562316424
 31
0.0
  0
SPLINE
  5
4BC
100
AcDbEntity
  8
1
  6
CONTINUOUS
 62
           7
100
AcDbSpline
210
0.0
220
0.0
230
1.0
 70
           0
 71
           4
 72
           8
 73
           4
 74
           3
 42
0.00000000001
 43
0.00000000001
 44
0.00000000001
 40
0.0
 40
0.0
 40
0.0
 40
0.0
 40
4.008797222401606
 40
4.008797222401606
 40
4.008797222401606
 40
4.008797222401606
 10
-735.2098301655908
 20
-670.41626562316424
 30
0.0
 10
-733.87541542783583
 20
-670.34960547964715
 30
0.0
 10
-732.5447097201577
 20
-670.22458586228845
 30
0.0
 10
-731.2098301655908
 20
-670.16626562316424
 30
0.0
 11
-735.2098301655908
 21
-670.41626562316424
 31
0.0
 11
-733.21000447189522
 21
-670.28813815901685
 31
0.0
 11
-731.2098301655908
 21
-670.16626562316424
 31
0.0
  0
SPLINE
  5
4BB
100
AcDbEntity
  8
1
  6
CONTINUOUS
 62
           7
100
AcDbSpline
210
0.0
220
0.0
230
1.0
 70
           0
 71
           4
 72
           8
 73
           4
 74
           5
 42
0.00000000001
 43
0.00000000001
 44
0.00000000001
 40
0.0
 40
0.0
 40
0.0
 40
0.0
 40
18.389801440112535
 40
18.389801440112535
 40
18.389801440112535
 40
18.389801440112535
 10
-466.22521992104652
 20
-650.76626562316358
 30
0.0
 10
-459.70126784491919
 20
-651.80657276449006
 30
0.0
 10
-467.71701495508307
 20
-654.7515698528241
 30
0.0
 10
-465.44447754537907
 20
-657.06626562316421
 30
0.0
 11
-466.22521992104652
 21
-650.76626562316358
 31
0.0
 11
-463.67051221597183
 21
-651.8640161057067
 31
0.0
 11
-464.24056823330403
 21
-653.43836988728378
 31
0.0
 11
-465.60776450059058
 21
-655.25167153680093
 31
0.0
 11
-465.44447754537907
 21
-657.06626562316421
 31
0.0
  0
SPLINE
  5
4BA
100
AcDbEntity
  8
1
  6
CONTINUOUS
 62
           7
100
AcDbSpline
210
0.0
220
0.0
230
1.0
 70
           0
 71
           4
 72
           8
 73
           4
 74
           5
 42
0.00000000001
 43
0.00000000001
 44
0.00000000001
 40
0.0
 40
0.0
 40
0.0
 40
0.0
 40
18.389801440111995
 40
18.389801440111995
 40
18.389801440111995
 40
18.389801440111995
 10
-459.02429773110828
 20
-806.56264314872976
 30
0.0
 10
-452.50034565498112
 20
-807.60295029005624
 30
0.0
 10
-460.51609276514478
 20
-810.54794737839029
 30
0.0
 10
-458.243555355441
 20
-812.8626431487304
 30
0.0
 11
-459.02429773110828
 21
-806.56264314872976
 31
0.0
 11
-456.46959002603381
 21
-807.66039363127288
 31
0.0
 11
-457.03964604336585
 21
-809.23474741284986
 31
0.0
 11
-458.40684231065245
 21
-811.04804906236711
 31
0.0
 11
-458.243555355441
 21
-812.8626431487304
 31
0.0
  0
SPLINE
  5
4B9
100
AcDbEntity
  8
1
  6
CONTINUOUS
 62
           7
100
AcDbSpline
210
0.0
220
0.0
230
1.0
 70
           0
 71
           4
 72
           8
 73
           4
 74
           3
 42
0.00000000001
 43
0.00000000001
 44
0.00000000001
 40
0.0
 40
0.0
 40
0.0
 40
0.0
 40
5.1996369056309799
 40
5.1996369056309799
 40
5.1996369056309799
 40
5.1996369056309799
 10
-364.74731366674632
 20
-625.73976562316409
 30
0.0
 10
-364.29457859570812
 20
-624.07514550593385
 30
0.0
 10
-364.5079356491936
 20
-622.31341645959833
 30
0.0
 10
-364.41046937207699
 20
-620.61626562316405
 30
0.0
 11
-364.74731366674632
 21
-625.73976562316409
 31
0.0
 11
-364.44566572169106
 21
-623.19021464286561
 31
0.0
 11
-364.41046937207699
 21
-620.61626562316405
 31
0.0
  0
SPLINE
  5
4B8
100
AcDbEntity
  8
1
  6
CONTINUOUS
 62
           7
100
AcDbSpline
210
0.0
220
0.0
230
1.0
 70
           0
 71
           4
 72
           8
 73
           4
 74
           3
 42
0.00000000001
 43
0.00000000001
 44
0.00000000001
 40
0.0
 40
0.0
 40
0.0
 40
0.0
 40
5.1996369056309879
 40
5.1996369056309879
 40
5.1996369056309879
 40
5.1996369056309879
 10
-364.74731366674632
 20
-615.49276562316402
 30
0.0
 10
-364.29457859570812
 20
-617.15738574039403
 30
0.0
 10
-364.5079356491936
 20
-618.91911478672955
 30
0.0
 10
-364.41046937207699
 20
-620.61626562316405
 30
0.0
 11
-364.74731366674632
 21
-615.49276562316402
 31
0.0
 11
-364.44566572169106
 21
-618.04231660346227
 31
0.0
 11
-364.41046937207699
 21
-620.61626562316405
 31
0.0
  0
CIRCLE
  5
4B7
100
AcDbEntity
  8
1
  6
CONTINUOUS
 62
           7
100
AcDbCircle
 10
-624.262032196004
 20
-786.21264314873
 40
2.0
  0
CIRCLE
  5
4B6
100
AcDbEntity
  8
1
  6
CONTINUOUS
 62
           7
100
AcDbCircle
 10
-624.262032196004
 20
-833.21264314873
 40
2.0
  0
CIRCLE
  5
4B5
100
AcDbEntity
  8
1
  6
CONTINUOUS
 62
           7
100
AcDbCircle
 10
-392.247313666746
 20
-620.616265623164
 40
15.0
  0
CIRCLE
  5
4B4
100
AcDbEntity
  8
1
  6
CONTINUOUS
 62
           7
100
AcDbCircle
 10
-392.247313666746
 20
-620.616265623164
 40
14.0
  0
CIRCLE
  5
4B3
100
AcDbEntity
  8
1
  6
CONTINUOUS
 62
           7
100
AcDbCircle
 10
-352.247313666746
 20
-620.616265623164
 40
10.0
  0
CIRCLE
  5
4B2
100
AcDbEntity
  8
1
  6
CONTINUOUS
 62
           2
100
AcDbCircle
 10
-352.247313666746
 20
-620.616265623164
 40
7.188
  0
CIRCLE
  5
4B1
100
AcDbEntity
  8
1
  6
CONTINUOUS
 62
           7
100
AcDbCircle
 10
-352.247313666746
 20
-620.616265623164
 40
8.0
  0
CIRCLE
  5
4B0
100
AcDbEntity
  8
1
  6
CONTINUOUS
 62
           7
100
AcDbCircle
 10
-352.247313666746
 20
-620.616265623164
 40
4.85
  0
CIRCLE
  5
4AF
100
AcDbEntity
  8
1
  6
CONTINUOUS
 62
           7
100
AcDbCircle
 10
-352.247313666746
 20
-620.616265623164
 40
6.0045
  0
CIRCLE
  5
4AE
100
AcDbEntity
  8
1
  6
CONTINUOUS
 62
           7
100
AcDbCircle
 10
-352.247313666746
 20
-620.616265623164
 40
10.5
  0
CIRCLE
  5
4AD
100
AcDbEntity
  8
1
  6
CONTINUOUS
 62
           7
100
AcDbCircle
 10
-371.547313666746
 20
-635.416265623165
 40
4.0
  0
CIRCLE
  5
4AC
100
AcDbEntity
  8
1
  6
CONTINUOUS
 62
           7
100
AcDbCircle
 10
-371.547313666746
 20
-635.416265623165
 40
7.0
  0
CIRCLE
  5
4AB
100
AcDbEntity
  8
1
  6
CONTINUOUS
 62
           7
100
AcDbCircle
 10
-412.947313666746
 20
-635.416265623165
 40
7.0
  0
CIRCLE
  5
4AA
100
AcDbEntity
  8
1
  6
CONTINUOUS
 62
           7
100
AcDbCircle
 10
-412.947313666746
 20
-635.416265623165
 40
4.0
  0
CIRCLE
  5
4A9
100
AcDbEntity
  8
1
  6
CONTINUOUS
 62
           7
100
AcDbCircle
 10
-369.771772044956
 20
-610.133421123354
 40
3.0
  0
CIRCLE
  5
4A8
100
AcDbEntity
  8
1
  6
CONTINUOUS
 62
           7
100
AcDbCircle
 10
-369.771772044956
 20
-610.133421123354
 40
5.9
  0
CIRCLE
  5
4A7
100
AcDbEntity
  8
1
  6
CONTINUOUS
 62
           7
100
AcDbCircle
 10
-392.247313666746
 20
-653.916265623164
 40
13.999999999997
  0
CIRCLE
  5
4A6
100
AcDbEntity
  8
1
  6
CONTINUOUS
 62
           7
100
AcDbCircle
 10
-392.247313666746
 20
-653.916265623164
 40
6.25
  0
CIRCLE
  5
4A5
100
AcDbEntity
  8
1
  6
CONTINUOUS
 62
           2
100
AcDbCircle
 10
-392.247313666746
 20
-653.916265623164
 40
7.0
  0
CIRCLE
  5
4A4
100
AcDbEntity
  8
1
  6
CONTINUOUS
 62
           7
100
AcDbCircle
 10
-392.247313666746
 20
-653.916265623164
 40
7.75
  0
CIRCLE
  5
4A3
100
AcDbEntity
  8
1
  6
CONTINUOUS
 62
           7
100
AcDbCircle
 10
-392.247313666746
 20
-653.916265623164
 40
5.634949178801
  0
CIRCLE
  5
4A2
100
AcDbEntity
  8
1
  6
CONTINUOUS
 62
           7
100
AcDbCircle
 10
-392.247313666746
 20
-649.874813738837
 40
0.5
  0
CIRCLE
  5
4A1
100
AcDbEntity
  8
1
  6
CONTINUOUS
 62
           2
100
AcDbCircle
 10
-392.247313666746
 20
-649.874813738837
 40
0.3
  0
CIRCLE
  5
4A0
100
AcDbEntity
  8
1
  6
CONTINUOUS
 62
           7
100
AcDbCircle
 10
-388.747313666747
 20
-651.895539681001
 40
0.5
  0
CIRCLE
  5
49F
100
AcDbEntity
  8
1
  6
CONTINUOUS
 62
           2
100
AcDbCircle
 10
-388.747313666747
 20
-651.895539681001
 40
0.3
  0
CIRCLE
  5
49E
100
AcDbEntity
  8
1
  6
CONTINUOUS
 62
           7
100
AcDbCircle
 10
-395.747313666746
 20
-651.895539681001
 40
0.5
  0
CIRCLE
  5
49D
100
AcDbEntity
  8
1
  6
CONTINUOUS
 62
           2
100
AcDbCircle
 10
-395.747313666746
 20
-651.895539681001
 40
0.3
  0
CIRCLE
  5
49C
100
AcDbEntity
  8
1
  6
CONTINUOUS
 62
           7
100
AcDbCircle
 10
-392.247313666746
 20
-657.957717507491
 40
0.5
  0
CIRCLE
  5
49B
100
AcDbEntity
  8
1
  6
CONTINUOUS
 62
           2
100
AcDbCircle
 10
-392.247313666746
 20
-657.957717507491
 40
0.3
  0
CIRCLE
  5
49A
100
AcDbEntity
  8
1
  6
CONTINUOUS
 62
           7
100
AcDbCircle
 10
-388.747313666747
 20
-655.936991565328
 40
0.5
  0
CIRCLE
  5
499
100
AcDbEntity
  8
1
  6
CONTINUOUS
 62
           2
100
AcDbCircle
 10
-388.747313666747
 20
-655.936991565328
 40
0.3
  0
CIRCLE
  5
498
100
AcDbEntity
  8
1
  6
CONTINUOUS
 62
           7
100
AcDbCircle
 10
-395.747313666746
 20
-655.936991565328
 40
0.5
  0
CIRCLE
  5
497
100
AcDbEntity
  8
1
  6
CONTINUOUS
 62
           2
100
AcDbCircle
 10
-395.747313666746
 20
-655.936991565328
 40
0.3
  0
ARC
  5
496
100
AcDbEntity
  8
1
  6
CONTINUOUS
 62
           7
100
AcDbCircle
 10
-645.262032195967
 20
-672.684214815595
 40
3.0
100
AcDbArc
 50
180.0
 51
-120.000000000001
  0
ARC
  5
495
100
AcDbEntity
  8
1
  6
CONTINUOUS
 62
           7
100
AcDbCircle
 10
-574.765557709924
 20
-634.557744233661
 40
5.00352551392
100
AcDbArc
 50
-41.394361020439
 51
41.394361020431
  0
ARC
  5
494
100
AcDbEntity
  8
1
  6
CONTINUOUS
 62
           7
100
AcDbCircle
 10
-595.673630140364
 20
-618.936853815218
 40
25.965964878102
100
AcDbArc
 50
-18.237709155151
 51
-3.708332120373
  0
ARC
  5
493
100
AcDbEntity
  8
1
  6
CONTINUOUS
 62
           7
100
AcDbCircle
 10
-574.765557709924
 20
-606.674787012667
 40
5.00352551392
100
AcDbArc
 50
-41.394361020439
 51
41.394361020443
  0
ARC
  5
492
100
AcDbEntity
  8
1
  6
CONTINUOUS
 62
           7
100
AcDbCircle
 10
-595.673630140364
 20
-622.29567743111
 40
25.965964878101
100
AcDbArc
 50
3.708332120373
 51
18.23770915515
  0
ARC
  5
491
100
AcDbEntity
  8
1
  6
CONTINUOUS
 62
           7
100
AcDbCircle
 10
-782.554948392538
 20
-642.916265623166
 40
1.499999999999
100
AcDbArc
 50
-89.999999999982
 51
0.908374706887
  0
ARC
  5
490
100
AcDbEntity
  8
1
  6
CONTINUOUS
 62
           7
100
AcDbCircle
 10
-782.554948392538
 20
-631.916265623165
 40
1.5
100
AcDbArc
 50
-0.000000000035
 51
89.999999999991
  0
ARC
  5
48F
100
AcDbEntity
  8
1
  6
CONTINUOUS
 62
           7
100
AcDbCircle
 10
-523.23716795995
 20
-653.916265623164
 40
7.5
100
AcDbArc
 50
-21.03946978132
 51
21.039469781314
  0
ARC
  5
48E
100
AcDbEntity
  8
1
  6
CONTINUOUS
 62
           7
100
AcDbCircle
 10
-517.866244265258
 20
-660.024208935518
 40
2.142827904928
100
AcDbArc
 50
-40.514112061952
 51
40.514112061963
  0
ARC
  5
48D
100
AcDbEntity
  8
1
  6
CONTINUOUS
 62
           7
100
AcDbCircle
 10
-517.852154319583
 20
-647.80832231081
 40
2.13213572819
100
AcDbArc
 50
-40.760085417132
 51
40.760085417121
  0
ARC
  5
48C
100
AcDbEntity
  8
1
  6
CONTINUOUS
 62
           7
100
AcDbCircle
 10
-536.149768981229
 20
-653.097133992602
 40
13.937359864767
100
AcDbArc
 50
-15.772458922043
 51
-3.415677531677
  0
ARC
  5
48B
100
AcDbEntity
  8
1
  6
CONTINUOUS
 62
           7
100
AcDbCircle
 10
-516.324566938669
 20
-653.097133992602
 40
13.937359864766
100
AcDbArc
 50
-176.584322468322
 51
-164.227541077956
  0
ARC
  5
48A
100
AcDbEntity
  8
1
  6
CONTINUOUS
 62
           7
100
AcDbCircle
 10
-527.651759499504
 20
-661.368613116782
 40
2.60367123764
100
AcDbArc
 50
143.220842525396
 51
-143.220842525388
  0
ARC
  5
489
100
AcDbEntity
  8
1
  6
CONTINUOUS
 62
           7
100
AcDbCircle
 10
-524.822576420394
 20
-661.368613116782
 40
2.60367123764
100
AcDbArc
 50
-36.779157474605
 51
36.779157474614
  0
ARC
  5
488
100
AcDbEntity
  8
1
  6
CONTINUOUS
 62
           7
100
AcDbCircle
 10
-536.149768981229
 20
-654.757896254569
 40
13.937359864766
100
AcDbArc
 50
3.415677531678
 51
15.772458922042
  0
ARC
  5
487
100
AcDbEntity
  8
1
  6
CONTINUOUS
 62
           7
100
AcDbCircle
 10
-516.324566938669
 20
-654.757896254569
 40
13.937359864767
100
AcDbArc
 50
164.227541077957
 51
176.584322468321
  0
ARC
  5
486
100
AcDbEntity
  8
1
  6
CONTINUOUS
 62
           7
100
AcDbCircle
 10
-527.651759499504
 20
-646.486417130389
 40
2.603671237639
100
AcDbArc
 50
143.220842525387
 51
-143.220842525382
  0
ARC
  5
485
100
AcDbEntity
  8
1
  6
CONTINUOUS
 62
           7
100
AcDbCircle
 10
-524.822576420395
 20
-646.486417130389
 40
2.60367123764
100
AcDbArc
 50
-36.779157474603
 51
36.779157474594
  0
ARC
  5
484
100
AcDbEntity
  8
1
  6
CONTINUOUS
 62
           7
100
AcDbCircle
 10
-509.786672770894
 20
-653.916265623164
 40
9.000000000001
100
AcDbArc
 50
-0.000000000001
 51
19.188136453717
  0
ARC
  5
483
100
AcDbEntity
  8
1
  6
CONTINUOUS
 62
           7
100
AcDbCircle
 10
-503.46684823771
 20
-646.475167629968
 40
2.680175466816
100
AcDbArc
 50
-35.566099148745
 51
35.566099148741
  0
ARC
  5
482
100
AcDbEntity
  8
1
  6
CONTINUOUS
 62
           7
100
AcDbCircle
 10
-497.536672770893
 20
-653.916265623164
 40
9.000000000001
100
AcDbArc
 50
160.811863546281
 51
-179.999999999999
  0
ARC
  5
481
100
AcDbEntity
  8
1
  6
CONTINUOUS
 62
           7
100
AcDbCircle
 10
-503.856497304077
 20
-646.475167629968
 40
2.680175466816
100
AcDbArc
 50
144.433900851253
 51
-144.433900851256
  0
ARC
  5
480
100
AcDbEntity
  8
1
  6
CONTINUOUS
 62
           7
100
AcDbCircle
 10
-509.786672770894
 20
-653.916265623164
 40
9.0
100
AcDbArc
 50
-19.18813645372
 51
-0.000000000001
  0
ARC
  5
47F
100
AcDbEntity
  8
1
  6
CONTINUOUS
 62
           7
100
AcDbCircle
 10
-503.46684823771
 20
-661.35736361636
 40
2.680175466817
100
AcDbArc
 50
-35.566099148735
 51
35.566099148722
  0
ARC
  5
47E
100
AcDbEntity
  8
1
  6
CONTINUOUS
 62
           7
100
AcDbCircle
 10
-497.536672770893
 20
-653.916265623164
 40
9.0
100
AcDbArc
 50
-179.999999999999
 51
-160.811863546279
  0
ARC
  5
47D
100
AcDbEntity
  8
1
  6
CONTINUOUS
 62
           7
100
AcDbCircle
 10
-503.856497304076
 20
-661.35736361636
 40
2.680175466817
100
AcDbArc
 50
144.433900851267
 51
-144.433900851249
  0
ARC
  5
47C
100
AcDbEntity
  8
1
  6
CONTINUOUS
 62
           2
100
AcDbCircle
 10
-602.119896572272
 20
-792.21264314873
 40
5.0
100
AcDbArc
 50
90.0
 51
149.43448364687
  0
ARC
  5
47B
100
AcDbEntity
  8
1
  6
CONTINUOUS
 62
           7
100
AcDbCircle
 10
-662.262032196004
 20
-778.21264314873
 40
10.0
100
AcDbArc
 50
-89.999999999999
 51
-26.743683950401
  0
ARC
  5
47A
100
AcDbEntity
  8
1
  6
CONTINUOUS
 62
           7
100
AcDbCircle
 10
-662.262032196004
 20
-841.21264314873
 40
10.0
100
AcDbArc
 50
26.743683950397
 51
90.0
  0
ARC
  5
479
100
AcDbEntity
  8
1
  6
CONTINUOUS
 62
           7
100
AcDbCircle
 10
-782.554948392538
 20
-804.21264314873
 40
1.5
100
AcDbArc
 50
-0.000000000035
 51
89.999999999991
  0
ARC
  5
478
100
AcDbEntity
  8
1
  6
CONTINUOUS
 62
           7
100
AcDbCircle
 10
-782.554948392538
 20
-815.212643148731
 40
1.499999999999
100
AcDbArc
 50
-89.999999999982
 51
0.908374706887
  0
ARC
  5
477
100
AcDbEntity
  8
1
  6
CONTINUOUS
 62
           7
100
AcDbCircle
 10
-521.152154319583
 20
-803.604699836376
 40
2.13213572819
100
AcDbArc
 50
-40.760085417134
 51
40.760085417121
  0
ARC
  5
476
100
AcDbEntity
  8
1
  6
CONTINUOUS
 62
           7
100
AcDbCircle
 10
-521.166244265258
 20
-815.820586461084
 40
2.142827904928
100
AcDbArc
 50
-40.514112061952
 51
40.514112061965
  0
ARC
  5
475
100
AcDbEntity
  8
1
  6
CONTINUOUS
 62
           7
100
AcDbCircle
 10
-526.53716795995
 20
-809.71264314873
 40
7.5
100
AcDbArc
 50
-21.03946978132
 51
21.039469781314
  0
ARC
  5
474
100
AcDbEntity
  8
1
  6
CONTINUOUS
 62
           7
100
AcDbCircle
 10
-507.156497304076
 20
-817.153741141927
 40
2.680175466817
100
AcDbArc
 50
144.433900851266
 51
-144.433900851251
  0
ARC
  5
473
100
AcDbEntity
  8
1
  6
CONTINUOUS
 62
           7
100
AcDbCircle
 10
-500.836672770893
 20
-809.71264314873
 40
9.0
100
AcDbArc
 50
-179.999999999999
 51
-160.811863546279
  0
ARC
  5
472
100
AcDbEntity
  8
1
  6
CONTINUOUS
 62
           7
100
AcDbCircle
 10
-506.76684823771
 20
-817.153741141926
 40
2.680175466817
100
AcDbArc
 50
-35.566099148734
 51
35.566099148722
  0
ARC
  5
471
100
AcDbEntity
  8
1
  6
CONTINUOUS
 62
           7
100
AcDbCircle
 10
-513.086672770894
 20
-809.71264314873
 40
9.0
100
AcDbArc
 50
-19.18813645372
 51
-0.000000000001
  0
ARC
  5
470
100
AcDbEntity
  8
1
  6
CONTINUOUS
 62
           7
100
AcDbCircle
 10
-507.156497304077
 20
-802.271545155534
 40
2.680175466816
100
AcDbArc
 50
144.433900851252
 51
-144.433900851253
  0
ARC
  5
46F
100
AcDbEntity
  8
1
  6
CONTINUOUS
 62
           7
100
AcDbCircle
 10
-500.836672770893
 20
-809.71264314873
 40
9.0
100
AcDbArc
 50
160.811863546281
 51
-179.999999999999
  0
ARC
  5
46E
100
AcDbEntity
  8
1
  6
CONTINUOUS
 62
           7
100
AcDbCircle
 10
-506.76684823771
 20
-802.271545155534
 40
2.680175466816
100
AcDbArc
 50
-35.566099148746
 51
35.566099148742
  0
ARC
  5
46D
100
AcDbEntity
  8
1
  6
CONTINUOUS
 62
           7
100
AcDbCircle
 10
-513.086672770894
 20
-809.71264314873
 40
9.000000000001
100
AcDbArc
 50
-0.000000000001
 51
19.188136453717
  0
ARC
  5
46C
100
AcDbEntity
  8
1
  6
CONTINUOUS
 62
           7
100
AcDbCircle
 10
-528.122576420395
 20
-802.282794655955
 40
2.60367123764
100
AcDbArc
 50
-36.779157474602
 51
36.779157474594
  0
ARC
  5
46B
100
AcDbEntity
  8
1
  6
CONTINUOUS
 62
           7
100
AcDbCircle
 10
-530.951759499504
 20
-802.282794655955
 40
2.603671237639
100
AcDbArc
 50
143.220842525387
 51
-143.220842525382
  0
ARC
  5
46A
100
AcDbEntity
  8
1
  6
CONTINUOUS
 62
           7
100
AcDbCircle
 10
-519.624566938669
 20
-810.554273780135
 40
13.937359864767
100
AcDbArc
 50
164.227541077957
 51
176.584322468321
  0
ARC
  5
469
100
AcDbEntity
  8
1
  6
CONTINUOUS
 62
           7
100
AcDbCircle
 10
-539.449768981229
 20
-810.554273780135
 40
13.937359864766
100
AcDbArc
 50
3.415677531678
 51
15.772458922042
  0
ARC
  5
468
100
AcDbEntity
  8
1
  6
CONTINUOUS
 62
           7
100
AcDbCircle
 10
-528.122576420394
 20
-817.164990642348
 40
2.60367123764
100
AcDbArc
 50
-36.779157474605
 51
36.779157474614
  0
ARC
  5
467
100
AcDbEntity
  8
1
  6
CONTINUOUS
 62
           7
100
AcDbCircle
 10
-530.951759499504
 20
-817.164990642348
 40
2.60367123764
100
AcDbArc
 50
143.220842525395
 51
-143.220842525386
  0
ARC
  5
466
100
AcDbEntity
  8
1
  6
CONTINUOUS
 62
           7
100
AcDbCircle
 10
-519.62456693867
 20
-808.893511518168
 40
13.937359864766
100
AcDbArc
 50
-176.584322468322
 51
-164.227541077956
  0
ARC
  5
465
100
AcDbEntity
  8
1
  6
CONTINUOUS
 62
           7
100
AcDbCircle
 10
-539.449768981229
 20
-808.893511518168
 40
13.937359864767
100
AcDbArc
 50
-15.772458922043
 51
-3.415677531677
  0
ARC
  5
464
100
AcDbEntity
  8
1
  6
CONTINUOUS
 62
           7
100
AcDbCircle
 10
-392.247313666746
 20
-620.616265623164
 40
17.25
100
AcDbArc
 50
141.94604127552
 51
158.053958724479
  0
ARC
  5
463
100
AcDbEntity
  8
1
  6
CONTINUOUS
 62
           7
100
AcDbCircle
 10
-392.247313666746
 20
-620.616265623164
 40
17.25
100
AcDbArc
 50
21.946041275521
 51
38.053958724479
  0
ARC
  5
462
100
AcDbEntity
  8
1
  6
CONTINUOUS
 62
           7
100
AcDbCircle
 10
-392.247313666746
 20
-620.616265623164
 40
17.25
100
AcDbArc
 50
-38.053958724478
 51
-21.946041275521
  0
ARC
  5
461
100
AcDbEntity
  8
1
  6
CONTINUOUS
 62
           7
100
AcDbCircle
 10
-392.247313666746
 20
-620.616265623164
 40
17.25
100
AcDbArc
 50
-98.053958724479
 51
-81.946041275521
  0
ARC
  5
460
100
AcDbEntity
  8
1
  6
CONTINUOUS
 62
           7
100
AcDbCircle
 10
-392.247313666746
 20
-620.616265623164
 40
17.25
100
AcDbArc
 50
-158.053958724479
 51
-141.94604127552
  0
ARC
  5
45F
100
AcDbEntity
  8
1
  6
CONTINUOUS
 62
           7
100
AcDbCircle
 10
-392.247313666746
 20
-620.616265623164
 40
17.25
100
AcDbArc
 50
81.94604127552
 51
98.053958724479
  0
ARC
  5
45E
100
AcDbEntity
  8
1
  6
CONTINUOUS
 62
           7
100
AcDbCircle
 10
-407.747313666746
 20
-678.316265623164
 40
2.75
100
AcDbArc
 50
-33.054321625987
 51
0.0
  0
ARC
  5
45D
100
AcDbEntity
  8
1
  6
CONTINUOUS
 62
           7
100
AcDbCircle
 10
-407.747313666746
 20
-678.316265623164
 40
2.75
100
AcDbArc
 50
0.0
 51
-33.054321625987
  0
ARC
  5
45C
100
AcDbEntity
  8
1
  6
CONTINUOUS
 62
           7
100
AcDbCircle
 10
-407.747313666746
 20
-645.216265623164
 40
2.75
100
AcDbArc
 50
-33.054321625987
 51
0.0
  0
ARC
  5
45B
100
AcDbEntity
  8
1
  6
CONTINUOUS
 62
           7
100
AcDbCircle
 10
-407.747313666746
 20
-645.216265623164
 40
2.75
100
AcDbArc
 50
0.0
 51
-33.054321625987
  0
ARC
  5
45A
100
AcDbEntity
  8
1
  6
CONTINUOUS
 62
           7
100
AcDbCircle
 10
-376.747313666746
 20
-678.316265623164
 40
2.75
100
AcDbArc
 50
-146.945678374013
 51
180.0
  0
ARC
  5
459
100
AcDbEntity
  8
1
  6
CONTINUOUS
 62
           7
100
AcDbCircle
 10
-376.747313666746
 20
-678.316265623164
 40
2.75
100
AcDbArc
 50
180.0
 51
-146.945678374013
  0
ARC
  5
458
100
AcDbEntity
  8
1
  6
CONTINUOUS
 62
           7
100
AcDbCircle
 10
-369.747313666746
 20
-653.916265623164
 40
2.75
100
AcDbArc
 50
180.0
 51
-146.945678374013
  0
ARC
  5
457
100
AcDbEntity
  8
1
  6
CONTINUOUS
 62
           7
100
AcDbCircle
 10
-369.747313666746
 20
-653.916265623164
 40
2.75
100
AcDbArc
 50
-146.945678374013
 51
180.0
  0
ARC
  5
456
100
AcDbEntity
  8
1
  6
CONTINUOUS
 62
           7
100
AcDbCircle
 10
-414.747313666746
 20
-653.916265623164
 40
2.75
100
AcDbArc
 50
0.0
 51
-33.054321625988
  0
ARC
  5
455
100
AcDbEntity
  8
1
  6
CONTINUOUS
 62
           7
100
AcDbCircle
 10
-414.747313666746
 20
-653.916265623164
 40
2.75
100
AcDbArc
 50
-33.054321625988
 51
0.0
  0
ARC
  5
454
100
AcDbEntity
  8
1
  6
CONTINUOUS
 62
           7
100
AcDbCircle
 10
-369.747313666746
 20
-620.616265623164
 40
2.75
100
AcDbArc
 50
-157.965098473677
 51
-146.945678374013
  0
ARC
  5
453
100
AcDbEntity
  8
1
  6
CONTINUOUS
 62
           7
100
AcDbCircle
 10
-369.747313666746
 20
-620.616265623164
 40
2.75
100
AcDbArc
 50
-146.945678374013
 51
94.436663323356
  0
ARC
  5
452
100
AcDbEntity
  8
1
  6
CONTINUOUS
 62
           7
100
AcDbCircle
 10
-414.747313666746
 20
-620.616265623164
 40
2.75
100
AcDbArc
 50
-33.054321625987
 51
0.0
  0
ARC
  5
451
100
AcDbEntity
  8
1
  6
CONTINUOUS
 62
           7
100
AcDbCircle
 10
-414.747313666746
 20
-620.616265623164
 40
2.75
100
AcDbArc
 50
0.0
 51
-33.054321625987
  0
ARC
  5
450
100
AcDbEntity
  8
1
  6
CONTINUOUS
 62
           7
100
AcDbCircle
 10
-392.247313666746
 20
-637.416265623164
 40
34.0
100
AcDbArc
 50
-57.536331251416
 51
-39.460868900273
  0
ARC
  5
44F
100
AcDbEntity
  8
1
  6
CONTINUOUS
 62
           7
100
AcDbCircle
 10
-392.247313666746
 20
-637.416265623164
 40
34.0
100
AcDbArc
 50
100.025638932571
 51
140.539131099726
  0
ARC
  5
44E
100
AcDbEntity
  8
1
  6
CONTINUOUS
 62
           7
100
AcDbCircle
 10
-367.129893731531
 20
-622.236872575078
 40
5.2
100
AcDbArc
 50
102.185782558919
 51
-108.52992998432
  0
ARC
  5
44D
100
AcDbEntity
  8
1
  6
CONTINUOUS
 62
           7
100
AcDbCircle
 10
-392.247313666746
 20
-620.616265623164
 40
17.69984478736
100
AcDbArc
 50
5.362906569047
 51
90.0
  0
ARC
  5
44C
100
AcDbEntity
  8
1
  6
CONTINUOUS
 62
           7
100
AcDbCircle
 10
-364.668719910751
 20
-618.027333857816
 40
10.0
100
AcDbArc
 50
-174.637093430952
 51
-125.139041169672
  0
ARC
  5
44B
100
AcDbEntity
  8
1
  6
CONTINUOUS
 62
           7
100
AcDbCircle
 10
-392.247313666746
 20
-620.616265623164
 40
17.69984478736
100
AcDbArc
 50
90.0
 51
174.637093430952
  0
ARC
  5
44A
100
AcDbEntity
  8
1
  6
CONTINUOUS
 62
           7
100
AcDbCircle
 10
-419.825907422741
 20
-618.027333857816
 40
10.0
100
AcDbArc
 50
-68.417580911428
 51
-5.362906569047
  0
ARC
  5
449
100
AcDbEntity
  8
1
  6
CONTINUOUS
 62
           7
100
AcDbCircle
 10
-369.747313666746
 20
-610.116265623166
 40
7.2
100
AcDbArc
 50
-77.814217441078
 51
90.376214648916
  0
ARC
  5
448
100
AcDbEntity
  8
1
  6
CONTINUOUS
 62
           7
100
AcDbCircle
 10
-392.247313666746
 20
-637.416265623164
 40
34.0
100
AcDbArc
 50
-140.539131099726
 51
-122.463668748584
  0
ARC
  5
447
100
AcDbEntity
  8
1
  6
CONTINUOUS
 62
           7
100
AcDbCircle
 10
-420.497313666746
 20
-652.524377734091
 40
10.0
100
AcDbArc
 50
0.0
 51
47.348189323326
  0
ARC
  5
446
100
AcDbEntity
  8
1
  6
CONTINUOUS
 62
           7
100
AcDbCircle
 10
-363.997313666746
 20
-652.524377734091
 40
10.0
100
AcDbArc
 50
113.812400769034
 51
132.651810676673
  0
ARC
  5
445
100
AcDbEntity
  8
1
  6
CONTINUOUS
 62
           7
100
AcDbCircle
 10
-371.547313666746
 20
-635.416265623165
 40
8.7
100
AcDbArc
 50
-66.187599230965
 51
0.0
  0
ARC
  5
444
100
AcDbEntity
  8
1
  6
CONTINUOUS
 62
           7
100
AcDbCircle
 10
-363.997313666746
 20
-652.524377734091
 40
10.0
100
AcDbArc
 50
132.651810676673
 51
180.0
  0
ARC
  5
443
100
AcDbEntity
  8
1
  6
CONTINUOUS
 62
           7
100
AcDbCircle
 10
-371.547313666746
 20
-635.416265623165
 40
8.7
100
AcDbArc
 50
0.0
 51
71.470070015681
  0
ARC
  5
442
100
AcDbEntity
  8
1
  6
CONTINUOUS
 62
           7
100
AcDbCircle
 10
-420.497313666746
 20
-652.524377734091
 40
10.0
100
AcDbArc
 50
47.348189323326
 51
66.187599230965
  0
ARC
  5
441
100
AcDbEntity
  8
1
  6
CONTINUOUS
 62
           7
100
AcDbCircle
 10
-412.947313666746
 20
-635.416265623165
 40
8.7
100
AcDbArc
 50
180.0
 51
-113.812400769034
  0
ARC
  5
440
100
AcDbEntity
  8
1
  6
CONTINUOUS
 62
           7
100
AcDbCircle
 10
-412.947313666746
 20
-635.416265623165
 40
8.7
100
AcDbArc
 50
110.043492213341
 51
180.0
  0
ARC
  5
43F
100
AcDbEntity
  8
1
  6
CONTINUOUS
 62
           7
100
AcDbCircle
 10
-376.747313666746
 20
-645.216265623164
 40
3.755329546125
100
AcDbArc
 50
-176.94711748513
 51
-93.052882514834
  0
ARC
  5
43E
100
AcDbEntity
  8
1
  6
CONTINUOUS
 62
           7
100
AcDbCircle
 10
-407.747313666746
 20
-678.316265623164
 40
3.750027874997
100
AcDbArc
 50
-0.22091645522
 51
89.779083544372
  0
ARC
  5
43D
100
AcDbEntity
  8
1
  6
CONTINUOUS
 62
           2
100
AcDbCircle
 10
-392.247313666746
 20
-653.916265623164
 40
15.499999999998
100
AcDbArc
 50
40.706134267896
 51
62.448266344208
  0
ARC
  5
43C
100
AcDbEntity
  8
1
  6
CONTINUOUS
 62
           2
100
AcDbCircle
 10
-392.247313666746
 20
-653.916265623164
 40
15.499999999997
100
AcDbArc
 50
161.023170672845
 51
-90.0
  0
ARC
  5
43B
100
AcDbEntity
  8
1
  6
CONTINUOUS
 62
           2
100
AcDbCircle
 10
-392.247313666746
 20
-653.916265623164
 40
15.499999999997
100
AcDbArc
 50
116.262763402615
 51
139.293865732104
  0
ARC
  5
43A
100
AcDbEntity
  8
1
  6
CONTINUOUS
 62
           2
100
AcDbCircle
 10
-392.247313666746
 20
-653.916265623164
 40
15.499999999998
100
AcDbArc
 50
-90.0
 51
18.976829327154
  0
ARC
  5
439
100
AcDbEntity
  8
1
  6
CONTINUOUS
 62
           7
100
AcDbCircle
 10
-407.747313666746
 20
-678.316265623164
 40
3.75
100
AcDbArc
 50
0.0
 51
90.000000000001
  0
ARC
  5
438
100
AcDbEntity
  8
1
  6
CONTINUOUS
 62
           7
100
AcDbCircle
 10
-407.747313666746
 20
-645.216265623164
 40
3.75
100
AcDbArc
 50
-90.000000000001
 51
0.0
  0
ARC
  5
437
100
AcDbEntity
  8
1
  6
CONTINUOUS
 62
           7
100
AcDbCircle
 10
-407.747313666746
 20
-678.316265623164
 40
3.0
100
AcDbArc
 50
-156.443535690903
 51
156.443535690903
  0
ARC
  5
436
100
AcDbEntity
  8
1
  6
CONTINUOUS
 62
           7
100
AcDbCircle
 10
-376.747313666746
 20
-678.316265623164
 40
3.0
100
AcDbArc
 50
23.556464309096
 51
-23.556464309096
  0
ARC
  5
435
100
AcDbEntity
  8
1
  6
CONTINUOUS
 62
           7
100
AcDbCircle
 10
-376.747313666746
 20
-678.316265623164
 40
3.750027874997
100
AcDbArc
 50
90.220916455627
 51
-179.77908354478
  0
ARC
  5
434
100
AcDbEntity
  8
1
  6
CONTINUOUS
 62
           7
100
AcDbCircle
 10
-407.747313666746
 20
-645.216265623164
 40
3.0
100
AcDbArc
 50
-156.443535690899
 51
73.48439896405
  0
ARC
  5
433
100
AcDbEntity
  8
1
  6
CONTINUOUS
 62
           7
100
AcDbCircle
 10
-376.747313666746
 20
-645.216265623164
 40
3.0
100
AcDbArc
 50
106.51560103595
 51
-23.5564643091
  0
ARC
  5
432
100
AcDbEntity
  8
1
  6
CONTINUOUS
 62
           7
100
AcDbCircle
 10
-392.247313666746
 20
-678.916265623166
 40
39.400000000002
100
AcDbArc
 50
67.545281666771
 51
90.0
  0
ARC
  5
431
100
AcDbEntity
  8
1
  6
CONTINUOUS
 62
           7
100
AcDbCircle
 10
-392.247313666746
 20
-678.916265623166
 40
39.400000000002
100
AcDbArc
 50
116.944529016313
 51
117.593659943052
  0
ARC
  5
430
100
AcDbEntity
  8
1
  6
CONTINUOUS
 62
           7
100
AcDbCircle
 10
-392.247313666746
 20
-653.916265623164
 40
9.0
100
AcDbArc
 50
87.26604445073
 51
92.733955549269
  0
ARC
  5
42F
100
AcDbEntity
  8
1
  6
CONTINUOUS
 62
           7
100
AcDbCircle
 10
-392.247313666746
 20
-653.916265623164
 40
9.0
100
AcDbArc
 50
147.266044450733
 51
152.733955549267
  0
ARC
  5
42E
100
AcDbEntity
  8
1
  6
CONTINUOUS
 62
           7
100
AcDbCircle
 10
-392.247313666746
 20
-653.916265623164
 40
9.0
100
AcDbArc
 50
27.266044450732
 51
32.733955549268
  0
ARC
  5
42D
100
AcDbEntity
  8
1
  6
CONTINUOUS
 62
           7
100
AcDbCircle
 10
-392.247313666746
 20
-653.916265623164
 40
9.0
100
AcDbArc
 50
-32.733955549269
 51
-27.26604445073
  0
ARC
  5
42C
100
AcDbEntity
  8
1
  6
CONTINUOUS
 62
           7
100
AcDbCircle
 10
-392.247313666746
 20
-653.916265623164
 40
9.0
100
AcDbArc
 50
-152.733955549267
 51
-147.266044450728
  0
ARC
  5
42B
100
AcDbEntity
  8
1
  6
CONTINUOUS
 62
           7
100
AcDbCircle
 10
-392.247313666746
 20
-653.916265623164
 40
9.0
100
AcDbArc
 50
-92.733955549269
 51
-87.26604445073
  0
ARC
  5
42A
100
AcDbEntity
  8
1
  6
CONTINUOUS
 62
           7
100
AcDbCircle
 10
-392.247313666746
 20
-678.916265623166
 40
39.400000000002
100
AcDbArc
 50
62.406340056948
 51
63.055470983686
  0
ARC
  5
429
100
AcDbEntity
  8
1
  6
CONTINUOUS
 62
           7
100
AcDbCircle
 10
-392.247313666746
 20
-678.916265623166
 40
39.400000000002
100
AcDbArc
 50
90.0
 51
112.454718333229
  0
ARC
  5
428
100
AcDbEntity
  8
1
  6
CONTINUOUS
 62
           7
100
AcDbCircle
 10
-376.747313666746
 20
-645.216265623164
 40
2.75
100
AcDbArc
 50
-146.945678374013
 51
180.0
  0
ARC
  5
427
100
AcDbEntity
  8
1
  6
CONTINUOUS
 62
           7
100
AcDbCircle
 10
-376.747313666746
 20
-645.216265623164
 40
2.75
100
AcDbArc
 50
180.0
 51
-146.945678374013
  0
LINE
  5
426
100
AcDbEntity
  8
1
  6
DOT_CENTER
 62
           2
100
AcDbLine
 10
-628.331683574734
 20
-786.212643148722
 11
-620.741372589865
 21
-786.212643148722
  0
LINE
  5
425
100
AcDbEntity
  8
1
  6
DOT_CENTER
 62
           2
100
AcDbLine
 10
-627.491154433172
 20
-833.21264314873
 11
-621.109650387342
 21
-833.21264314873
  0
LINE
  5
424
100
AcDbEntity
  8
1
  6
DOT_CENTER
 62
           2
100
AcDbLine
 10
-624.254862087175
 20
-829.835187038558
 11
-624.254862087175
 21
-838.863364894256
  0
LINE
  5
423
100
AcDbEntity
  8
1
  6
DOT_CENTER
 62
           2
100
AcDbLine
 10
-624.254862087175
 20
-780.33599711052
 11
-624.254862087175
 21
-789.106983078746
  0
LINE
  5
422
100
AcDbEntity
  8
1
  6
CONTINUOUS
 62
           7
100
AcDbLine
 10
-573.485430316385
 20
-674.416265623165
 11
-573.485430316385
 21
-682.416265623165
  0
LINE
  5
421
100
AcDbEntity
  8
1
  6
CONTINUOUS
 62
           7
100
AcDbLine
 10
-590.129772067496
 20
-682.416265623165
 11
-573.485430316385
 21
-682.416265623165
  0
LINE
  5
420
100
AcDbEntity
  8
1
  6
CONTINUOUS
 62
           7
100
AcDbLine
 10
-630.762032195966
 20
-682.416265623165
 11
-615.394292324437
 21
-682.416265623165
  0
LINE
  5
41F
100
AcDbEntity
  8
1
  6
CONTINUOUS
 62
           7
100
AcDbLine
 10
-630.762032195966
 20
-682.416265623165
 11
-630.762032195966
 21
-674.416265623165
  0
LINE
  5
41E
100
AcDbEntity
  8
1
  6
CONTINUOUS
 62
           7
100
AcDbLine
 10
-630.762032195966
 20
-682.416265623165
 11
-631.726133811102
 21
-682.416265623165
  0
LINE
  5
41D
100
AcDbEntity
  8
1
  6
CONTINUOUS
 62
           7
100
AcDbLine
 10
-585.762032196005
 20
-680.916265623165
 11
-619.762032195966
 21
-680.916265623165
  0
LINE
  5
41C
100
AcDbEntity
  8
1
  6
CONTINUOUS
 62
           2
100
AcDbLine
 10
-617.602305147818
 20
-680.916265623165
 11
-617.602305147818
 21
-682.416265623165
  0
LINE
  5
41B
100
AcDbEntity
  8
1
  6
CONTINUOUS
 62
           2
100
AcDbLine
 10
-587.921759244115
 20
-680.916265623165
 11
-587.921759244115
 21
-682.416265623165
  0
LINE
  5
41A
100
AcDbEntity
  8
1
  6
CONTINUOUS
 62
           2
100
AcDbLine
 10
-619.762032195966
 20
-680.916265623165
 11
-619.762032195966
 21
-682.416265623165
  0
LINE
  5
419
100
AcDbEntity
  8
1
  6
CONTINUOUS
 62
           7
100
AcDbLine
 10
-615.394292324437
 20
-680.916265623165
 11
-615.394292324437
 21
-682.416265623165
  0
LINE
  5
418
100
AcDbEntity
  8
1
  6
CONTINUOUS
 62
           7
100
AcDbLine
 10
-590.129772067496
 20
-680.916265623165
 11
-590.129772067496
 21
-682.416265623165
  0
LINE
  5
417
100
AcDbEntity
  8
1
  6
CONTINUOUS
 62
           2
100
AcDbLine
 10
-585.762032196005
 20
-682.416265623165
 11
-585.762032196005
 21
-680.916265623165
  0
LINE
  5
416
100
AcDbEntity
  8
1
  6
CONTINUOUS
 62
           2
100
AcDbLine
 10
-628.762032195966
 20
-674.416265623165
 11
-628.762032195966
 21
-682.416265623165
  0
LINE
  5
415
100
AcDbEntity
  8
1
  6
CONTINUOUS
 62
           2
100
AcDbLine
 10
-634.262032195966
 20
-624.986210835505
 11
-621.360254266164
 21
-624.986210835505
  0
LINE
  5
414
100
AcDbEntity
  8
1
  6
CONTINUOUS
 62
           2
100
AcDbLine
 10
-634.262032195966
 20
-644.835160419558
 11
-619.644862719164
 21
-644.835160419558
  0
LINE
  5
413
100
AcDbEntity
  8
1
  6
CONTINUOUS
 62
           2
100
AcDbLine
 10
-636.265575916987
 20
-632.989083762069
 11
-620.324039081077
 21
-632.989083762069
  0
LINE
  5
412
100
AcDbEntity
  8
1
  6
CONTINUOUS
 62
           2
100
AcDbLine
 10
-636.925732890202
 20
-640.71355219934
 11
-619.902651335541
 21
-640.71355219934
  0
LINE
  5
411
100
AcDbEntity
  8
1
  6
CONTINUOUS
 62
           2
100
AcDbLine
 10
-609.190964384101
 20
-618.961971501175
 11
-574.262032196005
 21
-618.961971501175
  0
LINE
  5
410
100
AcDbEntity
  8
1
  6
CONTINUOUS
 62
           7
100
AcDbLine
 10
-637.262032195966
 20
-603.416265623164
 11
-637.092159214891
 21
-603.318189411812
  0
LINE
  5
40F
100
AcDbEntity
  8
1
  6
DOT_CENTER
 62
           2
100
AcDbLine
 10
-648.262032195967
 20
-674.416265623164
 11
-647.632752700246
 21
-674.788316426103
  0
LINE
  5
40E
100
AcDbEntity
  8
1
  6
CONTINUOUS
 62
           7
100
AcDbLine
 10
-648.262032195967
 20
-666.103152871522
 11
-648.262032195967
 21
-672.684214815595
  0
LINE
  5
40D
100
AcDbEntity
  8
1
  6
CONTINUOUS
 62
           7
100
AcDbLine
 10
-641.262032195966
 20
-666.103152871522
 11
-648.262032195967
 21
-666.103152871522
  0
LINE
  5
40C
100
AcDbEntity
  8
1
  6
CONTINUOUS
 62
           7
100
AcDbLine
 10
-630.762032195966
 20
-674.416265623165
 11
-573.485430316385
 21
-674.416265623165
  0
LINE
  5
40B
100
AcDbEntity
  8
1
  6
CONTINUOUS
 62
           7
100
AcDbLine
 10
-641.262032195966
 20
-658.717674027305
 11
-637.262032195966
 21
-658.717674027305
  0
LINE
  5
40A
100
AcDbEntity
  8
1
  6
CONTINUOUS
 62
           7
100
AcDbLine
 10
-641.262032195966
 20
-616.114857219023
 11
-637.262032195966
 21
-616.114857219023
  0
LINE
  5
409
100
AcDbEntity
  8
1
  6
CONTINUOUS
 62
           7
100
AcDbLine
 10
-637.262032195966
 20
-603.416265623164
 11
-637.262032195966
 21
-664.945839011018
  0
LINE
  5
408
100
AcDbEntity
  8
1
  6
CONTINUOUS
 62
           7
100
AcDbLine
 10
-574.262032196005
 20
-646.294362770336
 11
-574.262032196005
 21
-602.916265623165
  0
LINE
  5
407
100
AcDbEntity
  8
1
  6
CONTINUOUS
 62
           7
100
AcDbLine
 10
-574.262032196005
 20
-602.916265623165
 11
-635.592159214891
 21
-602.916265623165
  0
LINE
  5
406
100
AcDbEntity
  8
1
  6
CONTINUOUS
 62
           7
100
AcDbLine
 10
-641.262032195966
 20
-666.103152871522
 11
-641.262032195966
 21
-603.416265623164
  0
LINE
  5
405
100
AcDbEntity
  8
1
  6
CONTINUOUS
 62
           7
100
AcDbLine
 10
-637.262032195966
 20
-603.416265623164
 11
-641.262032196004
 21
-603.416265623164
  0
LINE
  5
404
100
AcDbEntity
  8
1
  6
CONTINUOUS
 62
           2
100
AcDbLine
 10
-648.262032195967
 20
-667.476613884209
 11
-641.117131399078
 21
-670.309935212198
  0
LINE
  5
403
100
AcDbEntity
  8
1
  6
DOT_CENTER
 62
           2
100
AcDbLine
 10
-648.262032195967
 20
-673.483827274699
 11
-648.262032195967
 21
-674.416265623164
  0
LINE
  5
402
100
AcDbEntity
  8
1
  6
CONTINUOUS
 62
           7
100
AcDbLine
 10
-646.762032195967
 20
-675.282291026948
 11
-636.726133811102
 21
-681.07651966101
  0
LINE
  5
401
100
AcDbEntity
  8
1
  6
CONTINUOUS
 62
           2
100
AcDbLine
 10
-577.562032195967
 20
-672.416265623165
 11
-633.255510129707
 21
-672.416265623165
  0
LINE
  5
400
100
AcDbEntity
  8
1
  6
CONTINUOUS
 62
           2
100
AcDbLine
 10
-635.262032195966
 20
-603.316265623164
 11
-635.262032195966
 21
-623.986210835505
  0
LINE
  5
3FF
100
AcDbEntity
  8
1
  6
CONTINUOUS
 62
           2
100
AcDbLine
 10
-635.262032195966
 20
-645.835160419558
 11
-635.262032195966
 21
-665.180967872641
  0
LINE
  5
3FE
100
AcDbEntity
  8
1
  6
CONTINUOUS
 62
           2
100
AcDbLine
 10
-648.262032195967
 20
-667.180967872641
 11
-637.262032195966
 21
-667.180967872641
  0
LINE
  5
3FD
100
AcDbEntity
  8
1
  6
CONTINUOUS
 62
           2
100
AcDbLine
 10
-641.262032195966
 20
-665.445839011018
 11
-637.762032195966
 21
-665.445839011018
  0
LINE
  5
3FC
100
AcDbEntity
  8
1
  6
CONTINUOUS
 62
           2
100
AcDbLine
 10
-574.262032196005
 20
-627.326227849981
 11
-609.190964384101
 21
-627.326227849981
  0
LINE
  5
3FB
100
AcDbEntity
  8
1
  6
CONTINUOUS
 62
           2
100
AcDbLine
 10
-574.262032196005
 20
-643.37565468012
 11
-609.190964384101
 21
-643.37565468012
  0
LINE
  5
3FA
100
AcDbEntity
  8
1
  6
CONTINUOUS
 62
           2
100
AcDbLine
 10
-577.562032195967
 20
-652.524377734091
 11
-609.190964384101
 21
-652.524377734091
  0
LINE
  5
3F9
100
AcDbEntity
  8
1
  6
CONTINUOUS
 62
           7
100
AcDbLine
 10
-577.062032196004
 20
-674.416265623165
 11
-577.562032196005
 21
-674.416265623165
  0
LINE
  5
3F8
100
AcDbEntity
  8
1
  6
CONTINUOUS
 62
           7
100
AcDbLine
 10
-574.262032196005
 20
-646.294362770336
 11
-574.262032196005
 21
-674.416265623165
  0
LINE
  5
3F7
100
AcDbEntity
  8
1
  6
CONTINUOUS
 62
           2
100
AcDbLine
 10
-577.562032196005
 20
-652.524377734091
 11
-574.262032196005
 21
-652.524377734091
  0
LINE
  5
3F6
100
AcDbEntity
  8
1
  6
CONTINUOUS
 62
           2
100
AcDbLine
 10
-577.562032196005
 20
-672.416265623165
 11
-574.262032196005
 21
-672.416265623165
  0
LINE
  5
3F5
100
AcDbEntity
  8
1
  6
CONTINUOUS
 62
           7
100
AcDbLine
 10
-574.262032196005
 20
-639.416265623167
 11
-567.384907851536
 21
-639.416265623167
  0
LINE
  5
3F4
100
AcDbEntity
  8
1
  6
CONTINUOUS
 62
           7
100
AcDbLine
 10
-555.962032196004
 20
-667.916265623162
 11
-555.462032196004
 21
-667.916265623162
  0
LINE
  5
3F3
100
AcDbEntity
  8
1
  6
CONTINUOUS
 62
           7
100
AcDbLine
 10
-555.962032196004
 20
-639.916265623167
 11
-555.462032196004
 21
-639.916265623167
  0
LINE
  5
3F2
100
AcDbEntity
  8
1
  6
CONTINUOUS
 62
           7
100
AcDbLine
 10
-554.962032196004
 20
-640.916265623167
 11
-554.962032196004
 21
-653.916265623164
  0
LINE
  5
3F1
100
AcDbEntity
  8
1
  6
CONTINUOUS
 62
           7
100
AcDbLine
 10
-555.962032196004
 20
-667.916265623162
 11
-567.062032196004
 21
-667.916265623162
  0
LINE
  5
3F0
100
AcDbEntity
  8
1
  6
CONTINUOUS
 62
           7
100
AcDbLine
 10
-568.562032196004
 20
-639.416265623167
 11
-568.562032196004
 21
-681.150717856509
  0
LINE
  5
3EF
100
AcDbEntity
  8
1
  6
CONTINUOUS
 62
           7
100
AcDbLine
 10
-569.062032196004
 20
-681.650717856509
 11
-573.485430316385
 21
-681.650717856509
  0
LINE
  5
3EE
100
AcDbEntity
  8
1
  6
CONTINUOUS
 62
           7
100
AcDbLine
 10
-566.062032196004
 20
-639.916265623166
 11
-555.962032196004
 21
-639.916265623167
  0
LINE
  5
3ED
100
AcDbEntity
  8
1
  6
CONTINUOUS
 62
           7
100
AcDbLine
 10
-554.962032196004
 20
-653.916265623164
 11
-554.962032196004
 21
-666.916265623162
  0
LINE
  5
3EC
100
AcDbEntity
  8
1
  6
CONTINUOUS
 62
           7
100
AcDbLine
 10
-540.253478400025
 20
-646.916265623164
 11
-540.253478400025
 21
-660.916265623164
  0
LINE
  5
3EB
100
AcDbEntity
  8
1
  6
CONTINUOUS
 62
           7
100
AcDbLine
 10
-540.667381986423
 20
-646.916265623164
 11
-540.667381986423
 21
-660.916265623164
  0
LINE
  5
3EA
100
AcDbEntity
  8
1
  6
CONTINUOUS
 62
           7
100
AcDbLine
 10
-541.081285572822
 20
-646.916265623164
 11
-541.081285572822
 21
-660.916265623164
  0
LINE
  5
3E9
100
AcDbEntity
  8
1
  6
CONTINUOUS
 62
           7
100
AcDbLine
 10
-541.49518915922
 20
-646.916265623164
 11
-541.49518915922
 21
-660.916265623164
  0
LINE
  5
3E8
100
AcDbEntity
  8
1
  6
CONTINUOUS
 62
           7
100
AcDbLine
 10
-541.909092745619
 20
-646.916265623164
 11
-541.909092745619
 21
-660.916265623164
  0
LINE
  5
3E7
100
AcDbEntity
  8
1
  6
CONTINUOUS
 62
           7
100
AcDbLine
 10
-542.322996332018
 20
-646.916265623164
 11
-542.322996332018
 21
-660.916265623164
  0
LINE
  5
3E6
100
AcDbEntity
  8
1
  6
CONTINUOUS
 62
           7
100
AcDbLine
 10
-542.736899918416
 20
-646.916265623164
 11
-542.736899918416
 21
-660.916265623164
  0
LINE
  5
3E5
100
AcDbEntity
  8
1
  6
CONTINUOUS
 62
           7
100
AcDbLine
 10
-543.150803504815
 20
-646.916265623164
 11
-543.150803504815
 21
-660.916265623164
  0
LINE
  5
3E4
100
AcDbEntity
  8
1
  6
CONTINUOUS
 62
           7
100
AcDbLine
 10
-543.564707091214
 20
-646.916265623164
 11
-543.564707091214
 21
-660.916265623164
  0
LINE
  5
3E3
100
AcDbEntity
  8
1
  6
CONTINUOUS
 62
           7
100
AcDbLine
 10
-543.978610677612
 20
-646.916265623164
 11
-543.978610677612
 21
-660.916265623164
  0
LINE
  5
3E2
100
AcDbEntity
  8
1
  6
CONTINUOUS
 62
           7
100
AcDbLine
 10
-544.392514264011
 20
-646.916265623164
 11
-544.392514264011
 21
-660.916265623164
  0
LINE
  5
3E1
100
AcDbEntity
  8
1
  6
CONTINUOUS
 62
           7
100
AcDbLine
 10
-544.80641785041
 20
-646.916265623164
 11
-544.80641785041
 21
-660.916265623164
  0
LINE
  5
3E0
100
AcDbEntity
  8
1
  6
CONTINUOUS
 62
           7
100
AcDbLine
 10
-545.220321436808
 20
-646.916265623164
 11
-545.220321436808
 21
-660.916265623164
  0
LINE
  5
3DF
100
AcDbEntity
  8
1
  6
CONTINUOUS
 62
           7
100
AcDbLine
 10
-545.634225023207
 20
-646.916265623164
 11
-545.634225023207
 21
-660.916265623164
  0
LINE
  5
3DE
100
AcDbEntity
  8
1
  6
CONTINUOUS
 62
           7
100
AcDbLine
 10
-546.048128609606
 20
-646.916265623164
 11
-546.048128609606
 21
-660.916265623164
  0
LINE
  5
3DD
100
AcDbEntity
  8
1
  6
CONTINUOUS
 62
           7
100
AcDbLine
 10
-547.962032196004
 20
-646.166265623164
 11
-547.962032196004
 21
-661.666265623164
  0
LINE
  5
3DC
100
AcDbEntity
  8
1
  6
CONTINUOUS
 62
           7
100
AcDbLine
 10
-546.462032196004
 20
-646.166265623164
 11
-546.462032196004
 21
-661.666265623164
  0
LINE
  5
3DB
100
AcDbEntity
  8
1
  6
CONTINUOUS
 62
           7
100
AcDbLine
 10
-546.462032196004
 20
-646.916265623164
 11
-539.962032196004
 21
-646.916265623164
  0
LINE
  5
3DA
100
AcDbEntity
  8
1
  6
CONTINUOUS
 62
           7
100
AcDbLine
 10
-538.962032196004
 20
-647.666265623164
 11
-538.962032196004
 21
-660.166265623164
  0
LINE
  5
3D9
100
AcDbEntity
  8
1
  6
CONTINUOUS
 62
           7
100
AcDbLine
 10
-539.962032196004
 20
-660.916265623164
 11
-546.462032196004
 21
-660.916265623164
  0
LINE
  5
3D8
100
AcDbEntity
  8
1
  6
CONTINUOUS
 62
           7
100
AcDbLine
 10
-547.962032196004
 20
-646.166265623164
 11
-546.462032196004
 21
-646.166265623164
  0
LINE
  5
3D7
100
AcDbEntity
  8
1
  6
CONTINUOUS
 62
           7
100
AcDbLine
 10
-546.462032196004
 20
-661.666265623164
 11
-547.962032196004
 21
-661.666265623164
  0
LINE
  5
3D6
100
AcDbEntity
  8
1
  6
CONTINUOUS
 62
           7
100
AcDbLine
 10
-539.962032196004
 20
-646.916265623164
 11
-539.962032196004
 21
-647.666265623164
  0
LINE
  5
3D5
100
AcDbEntity
  8
1
  6
CONTINUOUS
 62
           7
100
AcDbLine
 10
-539.962032196004
 20
-660.916265623164
 11
-539.962032196004
 21
-660.166265623164
  0
LINE
  5
3D4
100
AcDbEntity
  8
1
  6
CONTINUOUS
 62
           7
100
AcDbLine
 10
-538.962032196004
 20
-647.666265623164
 11
-539.962032196004
 21
-647.666265623164
  0
LINE
  5
3D3
100
AcDbEntity
  8
1
  6
CONTINUOUS
 62
           7
100
AcDbLine
 10
-538.962032196004
 20
-660.166265623164
 11
-539.962032196004
 21
-660.166265623164
  0
LINE
  5
3D2
100
AcDbEntity
  8
1
  6
CONTINUOUS
 62
           7
100
AcDbLine
 10
-539.962032196004
 20
-647.666265623164
 11
-539.962032196004
 21
-660.166265623164
  0
LINE
  5
3D1
100
AcDbEntity
  8
1
  6
CONTINUOUS
 62
           7
100
AcDbLine
 10
-547.962032196004
 20
-646.166265623164
 11
-548.462032196004
 21
-646.166265623164
  0
LINE
  5
3D0
100
AcDbEntity
  8
1
  6
CONTINUOUS
 62
           7
100
AcDbLine
 10
-547.962032196004
 20
-661.666265623164
 11
-548.462032196004
 21
-661.666265623164
  0
LINE
  5
3CF
100
AcDbEntity
  8
1
  6
CONTINUOUS
 62
           7
100
AcDbLine
 10
-554.962032196004
 20
-662.916265623164
 11
-549.462032196004
 21
-662.916265623164
  0
LINE
  5
3CE
100
AcDbEntity
  8
1
  6
CONTINUOUS
 62
           7
100
AcDbLine
 10
-549.462032196004
 20
-644.916265623164
 11
-554.962032196004
 21
-644.916265623164
  0
LINE
  5
3CD
100
AcDbEntity
  8
1
  6
CONTINUOUS
 62
           7
100
AcDbLine
 10
-548.462032196004
 20
-645.916265623164
 11
-548.462032196004
 21
-661.916265623164
  0
LINE
  5
3CC
100
AcDbEntity
  8
1
  6
CONTINUOUS
 62
           7
100
AcDbLine
 10
-548.462032196004
 20
-661.916265623164
 11
-549.462032196004
 21
-662.916265623164
  0
LINE
  5
3CB
100
AcDbEntity
  8
1
  6
CONTINUOUS
 62
           7
100
AcDbLine
 10
-549.462032196004
 20
-644.916265623164
 11
-548.462032196004
 21
-645.916265623164
  0
LINE
  5
3CA
100
AcDbEntity
  8
1
  6
CONTINUOUS
 62
           7
100
AcDbLine
 10
-574.262032196005
 20
-620.616265623164
 11
-574.262032196005
 21
-637.866265623164
  0
LINE
  5
3C9
100
AcDbEntity
  8
1
  6
CONTINUOUS
 62
           7
100
AcDbLine
 10
-574.262032196005
 20
-635.116265623164
 11
-574.262032196005
 21
-636.116265623164
  0
LINE
  5
3C8
100
AcDbEntity
  8
1
  6
CONTINUOUS
 62
           7
100
AcDbLine
 10
-549.507576218094
 20
-620.616265623164
 11
-549.507576218094
 21
-634.616265623164
  0
LINE
  5
3C7
100
AcDbEntity
  8
1
  6
CONTINUOUS
 62
           7
100
AcDbLine
 10
-574.262032196005
 20
-634.966265623164
 11
-574.262032196005
 21
-637.866265623164
  0
LINE
  5
3C6
100
AcDbEntity
  8
1
  6
CONTINUOUS
 62
           7
100
AcDbLine
 10
-574.262032196005
 20
-634.966265623164
 11
-574.262032196005
 21
-637.866265623164
  0
LINE
  5
3C5
100
AcDbEntity
  8
1
  6
CONTINUOUS
 62
           7
100
AcDbLine
 10
-569.262032196005
 20
-632.616265623164
 11
-566.707576218094
 21
-632.616265623164
  0
LINE
  5
3C4
100
AcDbEntity
  8
1
  6
CONTINUOUS
 62
           7
100
AcDbLine
 10
-550.507576218094
 20
-635.616265623164
 11
-565.707576218094
 21
-635.616265623164
  0
LINE
  5
3C3
100
AcDbEntity
  8
1
  6
CONTINUOUS
 62
           7
100
AcDbLine
 10
-566.707576218094
 20
-620.616265623164
 11
-566.707576218094
 21
-634.616265623164
  0
LINE
  5
3C2
100
AcDbEntity
  8
1
  6
CONTINUOUS
 62
           7
100
AcDbLine
 10
-549.507576218094
 20
-634.616265623164
 11
-550.507576218094
 21
-635.616265623164
  0
LINE
  5
3C1
100
AcDbEntity
  8
1
  6
CONTINUOUS
 62
           7
100
AcDbLine
 10
-565.707576218094
 20
-635.616265623164
 11
-566.707576218094
 21
-634.616265623164
  0
LINE
  5
3C0
100
AcDbEntity
  8
1
  6
CONTINUOUS
 62
           7
100
AcDbLine
 10
-565.707576218094
 20
-620.616265623164
 11
-565.707576218094
 21
-635.616265623164
  0
LINE
  5
3BF
100
AcDbEntity
  8
1
  6
CONTINUOUS
 62
           7
100
AcDbLine
 10
-550.507576218094
 20
-620.616265623164
 11
-550.507576218094
 21
-635.616265623164
  0
LINE
  5
3BE
100
AcDbEntity
  8
1
  6
CONTINUOUS
 62
           2
100
AcDbLine
 10
-565.707576218094
 20
-621.92360176438
 11
-550.507576218094
 21
-621.92360176438
  0
LINE
  5
3BD
100
AcDbEntity
  8
1
  6
CONTINUOUS
 62
           2
100
AcDbLine
 10
-565.707576218094
 20
-623.220988288168
 11
-550.507576218094
 21
-623.220988288168
  0
LINE
  5
3BC
100
AcDbEntity
  8
1
  6
CONTINUOUS
 62
           2
100
AcDbLine
 10
-565.707576218094
 20
-624.498551299702
 11
-550.507576218094
 21
-624.498551299702
  0
LINE
  5
3BB
100
AcDbEntity
  8
1
  6
CONTINUOUS
 62
           2
100
AcDbLine
 10
-550.507576218094
 20
-625.746567773049
 11
-565.707576218094
 21
-625.746567773049
  0
LINE
  5
3BA
100
AcDbEntity
  8
1
  6
CONTINUOUS
 62
           2
100
AcDbLine
 10
-565.707576218094
 20
-626.955539549275
 11
-550.507576218094
 21
-626.955539549275
  0
LINE
  5
3B9
100
AcDbEntity
  8
1
  6
CONTINUOUS
 62
           2
100
AcDbLine
 10
-550.507576218094
 20
-628.116265623164
 11
-565.707576218094
 21
-628.116265623164
  0
LINE
  5
3B8
100
AcDbEntity
  8
1
  6
CONTINUOUS
 62
           2
100
AcDbLine
 10
-565.707576218094
 20
-629.21991216843
 11
-550.507576218094
 21
-629.21991216843
  0
LINE
  5
3B7
100
AcDbEntity
  8
1
  6
CONTINUOUS
 62
           2
100
AcDbLine
 10
-565.707576218094
 20
-630.258079768462
 11
-550.507576218094
 21
-630.258079768462
  0
LINE
  5
3B6
100
AcDbEntity
  8
1
  6
CONTINUOUS
 62
           2
100
AcDbLine
 10
-550.507576218094
 20
-631.222867340962
 11
-565.707576218094
 21
-631.222867340962
  0
LINE
  5
3B5
100
AcDbEntity
  8
1
  6
CONTINUOUS
 62
           2
100
AcDbLine
 10
-565.707576218094
 20
-632.10693226995
 11
-550.507576218094
 21
-632.10693226995
  0
LINE
  5
3B4
100
AcDbEntity
  8
1
  6
CONTINUOUS
 62
           2
100
AcDbLine
 10
-550.507576218094
 20
-632.903546287499
 11
-565.707576218094
 21
-632.903546287499
  0
LINE
  5
3B3
100
AcDbEntity
  8
1
  6
CONTINUOUS
 62
           2
100
AcDbLine
 10
-565.707576218094
 20
-633.60664667993
 11
-550.507576218094
 21
-633.60664667993
  0
LINE
  5
3B2
100
AcDbEntity
  8
1
  6
CONTINUOUS
 62
           2
100
AcDbLine
 10
-550.507576218094
 20
-634.210882428714
 11
-565.707576218094
 21
-634.210882428714
  0
LINE
  5
3B1
100
AcDbEntity
  8
1
  6
CONTINUOUS
 62
           2
100
AcDbLine
 10
-565.707576218094
 20
-634.711654934953
 11
-550.507576218094
 21
-634.711654934953
  0
LINE
  5
3B0
100
AcDbEntity
  8
1
  6
CONTINUOUS
 62
           2
100
AcDbLine
 10
-550.507576218094
 20
-635.1051530175
 11
-565.707576218094
 21
-635.1051530175
  0
LINE
  5
3AF
100
AcDbEntity
  8
1
  6
CONTINUOUS
 62
           2
100
AcDbLine
 10
-565.707576218094
 20
-635.388381918347
 11
-550.507576218094
 21
-635.388381918347
  0
LINE
  5
3AE
100
AcDbEntity
  8
1
  6
CONTINUOUS
 62
           7
100
AcDbLine
 10
-574.262032196005
 20
-637.866265623164
 11
-571.012032196005
 21
-637.866265623164
  0
LINE
  5
3AD
100
AcDbEntity
  8
1
  6
CONTINUOUS
 62
           7
100
AcDbLine
 10
-569.262032196005
 20
-636.116265623164
 11
-569.262032196005
 21
-635.616265623164
  0
LINE
  5
3AC
100
AcDbEntity
  8
1
  6
CONTINUOUS
 62
           7
100
AcDbLine
 10
-569.262032196005
 20
-635.616265623164
 11
-569.262032196005
 21
-620.616265623164
  0
LINE
  5
3AB
100
AcDbEntity
  8
1
  6
CONTINUOUS
 62
           7
100
AcDbLine
 10
-574.262032196005
 20
-627.063164102278
 11
-571.012032196005
 21
-627.063164102278
  0
LINE
  5
3AA
100
AcDbEntity
  8
1
  6
CONTINUOUS
 62
           7
100
AcDbLine
 10
-574.262032196005
 20
-631.249222844159
 11
-571.012032196005
 21
-631.249222844159
  0
LINE
  5
3A9
100
AcDbEntity
  8
1
  6
CONTINUOUS
 62
           7
100
AcDbLine
 10
-569.262032196005
 20
-636.116265623164
 11
-571.012032196005
 21
-637.866265623164
  0
LINE
  5
3A8
100
AcDbEntity
  8
1
  6
CONTINUOUS
 62
           7
100
AcDbLine
 10
-571.012032196005
 20
-627.063164102278
 11
-571.012032196005
 21
-631.249222844159
  0
LINE
  5
3A7
100
AcDbEntity
  8
1
  6
CONTINUOUS
 62
           7
100
AcDbLine
 10
-569.262032196005
 20
-632.616265623164
 11
-568.653500679352
 21
-632.616265623164
  0
LINE
  5
3A6
100
AcDbEntity
  8
1
  6
CONTINUOUS
 62
           7
100
AcDbLine
 10
-574.262032196005
 20
-634.716265623164
 11
-574.262032196005
 21
-638.116265623164
  0
LINE
  5
3A5
100
AcDbEntity
  8
1
  6
CONTINUOUS
 62
           7
100
AcDbLine
 10
-549.507576218094
 20
-606.616265623164
 11
-549.507576218094
 21
-620.616265623164
  0
LINE
  5
3A4
100
AcDbEntity
  8
1
  6
CONTINUOUS
 62
           7
100
AcDbLine
 10
-574.262032196005
 20
-603.366265623164
 11
-574.262032196005
 21
-606.266265623164
  0
LINE
  5
3A3
100
AcDbEntity
  8
1
  6
CONTINUOUS
 62
           7
100
AcDbLine
 10
-574.262032196005
 20
-603.366265623164
 11
-574.262032196005
 21
-606.266265623164
  0
LINE
  5
3A2
100
AcDbEntity
  8
1
  6
CONTINUOUS
 62
           7
100
AcDbLine
 10
-566.707576218094
 20
-608.616265623164
 11
-569.262032196005
 21
-608.616265623164
  0
LINE
  5
3A1
100
AcDbEntity
  8
1
  6
CONTINUOUS
 62
           7
100
AcDbLine
 10
-565.707576218094
 20
-605.616265623164
 11
-550.507576218094
 21
-605.616265623164
  0
LINE
  5
3A0
100
AcDbEntity
  8
1
  6
CONTINUOUS
 62
           7
100
AcDbLine
 10
-566.707576218094
 20
-606.616265623164
 11
-566.707576218094
 21
-620.616265623164
  0
LINE
  5
39F
100
AcDbEntity
  8
1
  6
CONTINUOUS
 62
           7
100
AcDbLine
 10
-550.507576218094
 20
-605.616265623164
 11
-549.507576218094
 21
-606.616265623164
  0
LINE
  5
39E
100
AcDbEntity
  8
1
  6
CONTINUOUS
 62
           7
100
AcDbLine
 10
-566.707576218094
 20
-606.616265623164
 11
-565.707576218094
 21
-605.616265623164
  0
LINE
  5
39D
100
AcDbEntity
  8
1
  6
CONTINUOUS
 62
           7
100
AcDbLine
 10
-565.707576218094
 20
-605.616265623164
 11
-565.707576218094
 21
-620.616265623164
  0
LINE
  5
39C
100
AcDbEntity
  8
1
  6
CONTINUOUS
 62
           7
100
AcDbLine
 10
-550.507576218094
 20
-605.616265623164
 11
-550.507576218094
 21
-620.616265623164
  0
LINE
  5
39B
100
AcDbEntity
  8
1
  6
CONTINUOUS
 62
           2
100
AcDbLine
 10
-550.507576218094
 20
-619.308929481949
 11
-565.707576218094
 21
-619.308929481949
  0
LINE
  5
39A
100
AcDbEntity
  8
1
  6
CONTINUOUS
 62
           2
100
AcDbLine
 10
-550.507576218094
 20
-618.01154295816
 11
-565.707576218094
 21
-618.01154295816
  0
LINE
  5
399
100
AcDbEntity
  8
1
  6
CONTINUOUS
 62
           2
100
AcDbLine
 10
-550.507576218094
 20
-616.733979946626
 11
-565.707576218094
 21
-616.733979946626
  0
LINE
  5
398
100
AcDbEntity
  8
1
  6
CONTINUOUS
 62
           2
100
AcDbLine
 10
-565.707576218094
 20
-615.485963473279
 11
-550.507576218094
 21
-615.485963473279
  0
LINE
  5
397
100
AcDbEntity
  8
1
  6
CONTINUOUS
 62
           2
100
AcDbLine
 10
-550.507576218094
 20
-614.276991697054
 11
-565.707576218094
 21
-614.276991697054
  0
LINE
  5
396
100
AcDbEntity
  8
1
  6
CONTINUOUS
 62
           2
100
AcDbLine
 10
-565.707576218094
 20
-613.116265623164
 11
-550.507576218094
 21
-613.116265623164
  0
LINE
  5
395
100
AcDbEntity
  8
1
  6
CONTINUOUS
 62
           2
100
AcDbLine
 10
-550.507576218094
 20
-612.012619077899
 11
-565.707576218094
 21
-612.012619077899
  0
LINE
  5
394
100
AcDbEntity
  8
1
  6
CONTINUOUS
 62
           2
100
AcDbLine
 10
-550.507576218094
 20
-610.974451477866
 11
-565.707576218094
 21
-610.974451477866
  0
LINE
  5
393
100
AcDbEntity
  8
1
  6
CONTINUOUS
 62
           2
100
AcDbLine
 10
-565.707576218094
 20
-610.009663905366
 11
-550.507576218094
 21
-610.009663905366
  0
LINE
  5
392
100
AcDbEntity
  8
1
  6
CONTINUOUS
 62
           2
100
AcDbLine
 10
-550.507576218094
 20
-609.125598976379
 11
-565.707576218094
 21
-609.125598976379
  0
LINE
  5
391
100
AcDbEntity
  8
1
  6
CONTINUOUS
 62
           2
100
AcDbLine
 10
-565.707576218094
 20
-608.328984958829
 11
-550.507576218094
 21
-608.328984958829
  0
LINE
  5
390
100
AcDbEntity
  8
1
  6
CONTINUOUS
 62
           2
100
AcDbLine
 10
-550.507576218094
 20
-607.625884566398
 11
-565.707576218094
 21
-607.625884566398
  0
LINE
  5
38F
100
AcDbEntity
  8
1
  6
CONTINUOUS
 62
           2
100
AcDbLine
 10
-565.707576218094
 20
-607.021648817614
 11
-550.507576218094
 21
-607.021648817614
  0
LINE
  5
38E
100
AcDbEntity
  8
1
  6
CONTINUOUS
 62
           2
100
AcDbLine
 10
-550.507576218094
 20
-606.520876311376
 11
-565.707576218094
 21
-606.520876311376
  0
LINE
  5
38D
100
AcDbEntity
  8
1
  6
CONTINUOUS
 62
           2
100
AcDbLine
 10
-565.707576218094
 20
-606.127378228828
 11
-550.507576218094
 21
-606.127378228828
  0
LINE
  5
38C
100
AcDbEntity
  8
1
  6
CONTINUOUS
 62
           2
100
AcDbLine
 10
-550.507576218094
 20
-605.844149327981
 11
-565.707576218094
 21
-605.844149327981
  0
LINE
  5
38B
100
AcDbEntity
  8
1
  6
CONTINUOUS
 62
           7
100
AcDbLine
 10
-549.507576218094
 20
-620.616265623164
 11
-549.507576218094
 21
-634.616265623164
  0
LINE
  5
38A
100
AcDbEntity
  8
1
  6
CONTINUOUS
 62
           7
100
AcDbLine
 10
-574.262032196005
 20
-603.366265623164
 11
-574.262032196005
 21
-620.616265623164
  0
LINE
  5
389
100
AcDbEntity
  8
1
  6
CONTINUOUS
 62
           7
100
AcDbLine
 10
-571.012032196005
 20
-603.366265623164
 11
-574.262032196005
 21
-603.366265623164
  0
LINE
  5
388
100
AcDbEntity
  8
1
  6
CONTINUOUS
 62
           7
100
AcDbLine
 10
-569.262032196005
 20
-605.616265623164
 11
-569.262032196005
 21
-605.116265623164
  0
LINE
  5
387
100
AcDbEntity
  8
1
  6
CONTINUOUS
 62
           7
100
AcDbLine
 10
-569.262032196005
 20
-620.616265623164
 11
-569.262032196005
 21
-605.616265623164
  0
LINE
  5
386
100
AcDbEntity
  8
1
  6
CONTINUOUS
 62
           7
100
AcDbLine
 10
-571.012032196005
 20
-614.16936714405
 11
-574.262032196005
 21
-614.16936714405
  0
LINE
  5
385
100
AcDbEntity
  8
1
  6
CONTINUOUS
 62
           7
100
AcDbLine
 10
-571.012032196005
 20
-609.98330840217
 11
-574.262032196005
 21
-609.98330840217
  0
LINE
  5
384
100
AcDbEntity
  8
1
  6
CONTINUOUS
 62
           7
100
AcDbLine
 10
-571.012032196005
 20
-603.366265623164
 11
-569.262032196005
 21
-605.116265623164
  0
LINE
  5
383
100
AcDbEntity
  8
1
  6
CONTINUOUS
 62
           7
100
AcDbLine
 10
-571.012032196005
 20
-609.98330840217
 11
-571.012032196005
 21
-614.16936714405
  0
LINE
  5
382
100
AcDbEntity
  8
1
  6
CONTINUOUS
 62
           7
100
AcDbLine
 10
-568.653500679352
 20
-608.616265623164
 11
-569.262032196005
 21
-608.616265623164
  0
LINE
  5
381
100
AcDbEntity
  8
1
  6
CONTINUOUS
 62
           7
100
AcDbLine
 10
-574.262032196005
 20
-603.116265623164
 11
-574.262032196005
 21
-606.516265623164
  0
LINE
  5
380
100
AcDbEntity
  8
1
  6
CONTINUOUS
 62
           7
100
AcDbLine
 10
-775.354862087175
 20
-621.916265623166
 11
-775.354862087175
 21
-652.916265623165
  0
LINE
  5
37F
100
AcDbEntity
  8
1
  6
CONTINUOUS
 62
           7
100
AcDbLine
 10
-791.754862087175
 20
-652.416265623165
 11
-791.254862087175
 21
-652.916265623165
  0
LINE
  5
37E
100
AcDbEntity
  8
1
  6
CONTINUOUS
 62
           7
100
AcDbLine
 10
-791.754862087175
 20
-622.416265623165
 11
-791.254862087175
 21
-621.916265623165
  0
LINE
  5
37D
100
AcDbEntity
  8
1
  6
CONTINUOUS
 62
           7
100
AcDbLine
 10
-781.167678581449
 20
-642.827509457215
 11
-782.254862087175
 21
-640.266265623167
  0
LINE
  5
37C
100
AcDbEntity
  8
1
  6
CONTINUOUS
 62
           7
100
AcDbLine
 10
-781.055136903655
 20
-642.892485425186
 11
-781.167678581449
 21
-642.827509457215
  0
LINE
  5
37B
100
AcDbEntity
  8
1
  6
CONTINUOUS
 62
           7
100
AcDbLine
 10
-782.254862087175
 20
-640.266265623167
 11
-782.254862087175
 21
-637.416265623165
  0
LINE
  5
37A
100
AcDbEntity
  8
1
  6
CONTINUOUS
 62
           7
100
AcDbLine
 10
-782.254862087175
 20
-634.566265623165
 11
-781.154368863636
 21
-631.973666058919
  0
LINE
  5
379
100
AcDbEntity
  8
1
  6
CONTINUOUS
 62
           7
100
AcDbLine
 10
-784.592439941544
 20
-630.416265623165
 11
-782.554948392537
 21
-630.416265623166
  0
LINE
  5
378
100
AcDbEntity
  8
1
  6
CONTINUOUS
 62
           7
100
AcDbLine
 10
-781.154368863636
 20
-631.973666058919
 11
-781.054948392538
 21
-631.916265623166
  0
LINE
  5
377
100
AcDbEntity
  8
1
  6
CONTINUOUS
 62
           7
100
AcDbLine
 10
-782.254862087175
 20
-637.416265623165
 11
-782.254862087175
 21
-634.566265623165
  0
LINE
  5
376
100
AcDbEntity
  8
1
  6
CONTINUOUS
 62
           7
100
AcDbLine
 10
-791.754862087175
 20
-625.916265623165
 11
-791.754862087175
 21
-622.416265623165
  0
LINE
  5
375
100
AcDbEntity
  8
1
  6
CONTINUOUS
 62
           7
100
AcDbLine
 10
-791.063580826018
 20
-627.398723071736
 11
-788.104862087175
 21
-628.778396277984
  0
LINE
  5
374
100
AcDbEntity
  8
1
  6
CONTINUOUS
 62
           7
100
AcDbLine
 10
-791.254862087175
 20
-621.916265623165
 11
-775.354862087175
 21
-621.916265623166
  0
LINE
  5
373
100
AcDbEntity
  8
1
  6
CONTINUOUS
 62
           7
100
AcDbLine
 10
-782.554948392537
 20
-644.416265623165
 11
-784.592439941544
 21
-644.416265623165
  0
LINE
  5
372
100
AcDbEntity
  8
1
  6
CONTINUOUS
 62
           7
100
AcDbLine
 10
-791.754862087175
 20
-652.416265623165
 11
-791.754862087175
 21
-648.916265623165
  0
LINE
  5
371
100
AcDbEntity
  8
1
  6
CONTINUOUS
 62
           7
100
AcDbLine
 10
-784.592439941544
 20
-644.416265623165
 11
-791.063580826018
 21
-647.433808174594
  0
LINE
  5
370
100
AcDbEntity
  8
1
  6
CONTINUOUS
 62
           7
100
AcDbLine
 10
-775.354862087175
 20
-652.916265623165
 11
-791.254862087175
 21
-652.916265623165
  0
LINE
  5
36F
100
AcDbEntity
  8
1
  6
CONTINUOUS
 62
           7
100
AcDbLine
 10
-791.754862087175
 20
-625.916265623165
 11
-791.063580826018
 21
-627.398723071736
  0
LINE
  5
36E
100
AcDbEntity
  8
1
  6
CONTINUOUS
 62
           7
100
AcDbLine
 10
-791.063580826018
 20
-647.433808174594
 11
-791.754862087175
 21
-648.916265623165
  0
LINE
  5
36D
100
AcDbEntity
  8
1
  6
DOT_CENTER
 62
           2
100
AcDbLine
 10
-793.640597310341
 20
-637.416265623165
 11
-541.769147834528
 21
-637.416265623165
  0
LINE
  5
36C
100
AcDbEntity
  8
1
  6
CONTINUOUS
 62
           7
100
AcDbLine
 10
-788.104862087175
 20
-628.778396277984
 11
-785.854862087175
 21
-629.827588508834
  0
LINE
  5
36B
100
AcDbEntity
  8
1
  6
CONTINUOUS
 62
           7
100
AcDbLine
 10
-785.854862087175
 20
-629.827588508834
 11
-784.592439941544
 21
-630.416265623165
  0
LINE
  5
36A
100
AcDbEntity
  8
1
  6
CONTINUOUS
 62
           7
100
AcDbLine
 10
-758.754862087176
 20
-617.416265623166
 11
-758.754862087176
 21
-657.416265623165
  0
LINE
  5
369
100
AcDbEntity
  8
1
  6
CONTINUOUS
 62
           7
100
AcDbLine
 10
-773.054862087175
 20
-657.416265623165
 11
-773.054862087175
 21
-617.416265623166
  0
LINE
  5
368
100
AcDbEntity
  8
1
  6
CONTINUOUS
 62
           7
100
AcDbLine
 10
-773.354862087175
 20
-617.766265623165
 11
-773.354862087175
 21
-657.066265623165
  0
LINE
  5
367
100
AcDbEntity
  8
1
  6
CONTINUOUS
 62
           7
100
AcDbLine
 10
-773.354862087175
 20
-617.766265623165
 11
-773.354862087175
 21
-617.716265623166
  0
LINE
  5
366
100
AcDbEntity
  8
1
  6
CONTINUOUS
 62
           7
100
AcDbLine
 10
-775.354862087175
 20
-637.416265623165
 11
-775.354862087175
 21
-619.766265623165
  0
LINE
  5
365
100
AcDbEntity
  8
1
  6
CONTINUOUS
 62
           7
100
AcDbLine
 10
-758.754862087176
 20
-617.416265623166
 11
-773.054862087175
 21
-617.416265623166
  0
LINE
  5
364
100
AcDbEntity
  8
1
  6
CONTINUOUS
 62
           7
100
AcDbLine
 10
-758.454862087176
 20
-617.716265623166
 11
-758.454862087176
 21
-637.416265623165
  0
LINE
  5
363
100
AcDbEntity
  8
1
  6
CONTINUOUS
 62
           7
100
AcDbLine
 10
-773.054862087175
 20
-617.416265623166
 11
-773.354862087175
 21
-617.716265623166
  0
LINE
  5
362
100
AcDbEntity
  8
1
  6
CONTINUOUS
 62
           7
100
AcDbLine
 10
-758.454862087176
 20
-617.716265623166
 11
-758.754862087176
 21
-617.416265623166
  0
LINE
  5
361
100
AcDbEntity
  8
1
  6
CONTINUOUS
 62
           7
100
AcDbLine
 10
-773.354862087175
 20
-657.116265623165
 11
-773.354862087175
 21
-657.066265623165
  0
LINE
  5
360
100
AcDbEntity
  8
1
  6
CONTINUOUS
 62
           7
100
AcDbLine
 10
-775.354862087175
 20
-655.066265623165
 11
-775.354862087175
 21
-637.416265623165
  0
LINE
  5
35F
100
AcDbEntity
  8
1
  6
CONTINUOUS
 62
           7
100
AcDbLine
 10
-773.054862087175
 20
-657.416265623165
 11
-758.754862087176
 21
-657.416265623165
  0
LINE
  5
35E
100
AcDbEntity
  8
1
  6
CONTINUOUS
 62
           7
100
AcDbLine
 10
-758.454862087176
 20
-637.416265623165
 11
-758.454862087176
 21
-657.116265623165
  0
LINE
  5
35D
100
AcDbEntity
  8
1
  6
DOT_CENTER
 62
           2
100
AcDbLine
 10
-758.454862087176
 20
-637.416265623165
 11
-774.554862087175
 21
-637.416265623165
  0
LINE
  5
35C
100
AcDbEntity
  8
1
  6
CONTINUOUS
 62
           7
100
AcDbLine
 10
-773.354862087175
 20
-657.116265623165
 11
-773.054862087175
 21
-657.416265623165
  0
LINE
  5
35B
100
AcDbEntity
  8
1
  6
CONTINUOUS
 62
           7
100
AcDbLine
 10
-758.754862087176
 20
-657.416265623165
 11
-758.454862087176
 21
-657.116265623165
  0
LINE
  5
35A
100
AcDbEntity
  8
1
  6
CONTINUOUS
 62
           7
100
AcDbLine
 10
-773.054862087175
 20
-635.671449116559
 11
-758.454862087176
 21
-635.671449116559
  0
LINE
  5
359
100
AcDbEntity
  8
1
  6
CONTINUOUS
 62
           7
100
AcDbLine
 10
-758.454862087176
 20
-637.416265623165
 11
-773.054862087175
 21
-637.416265623165
  0
LINE
  5
358
100
AcDbEntity
  8
1
  6
CONTINUOUS
 62
           7
100
AcDbLine
 10
-773.054862087175
 20
-633.939911717118
 11
-758.454862087176
 21
-633.939911717118
  0
LINE
  5
357
100
AcDbEntity
  8
1
  6
CONTINUOUS
 62
           7
100
AcDbLine
 10
-773.054862087175
 20
-632.234831469981
 11
-758.454862087176
 21
-632.234831469981
  0
LINE
  5
356
100
AcDbEntity
  8
1
  6
CONTINUOUS
 62
           7
100
AcDbLine
 10
-773.054862087175
 20
-630.672883388511
 11
-758.754862087176
 21
-630.672883388511
  0
LINE
  5
355
100
AcDbEntity
  8
1
  6
CONTINUOUS
 62
           7
100
AcDbLine
 10
-773.054862087175
 20
-628.955649078215
 11
-758.454862087176
 21
-628.955649078215
  0
LINE
  5
354
100
AcDbEntity
  8
1
  6
CONTINUOUS
 62
           7
100
AcDbLine
 10
-773.054862087175
 20
-627.406503491612
 11
-758.288852538993
 21
-627.406503491612
  0
LINE
  5
353
100
AcDbEntity
  8
1
  6
CONTINUOUS
 62
           7
100
AcDbLine
 10
-773.054862087175
 20
-625.933538238889
 11
-758.454862087176
 21
-625.933538238889
  0
LINE
  5
352
100
AcDbEntity
  8
1
  6
CONTINUOUS
 62
           7
100
AcDbLine
 10
-773.054862087175
 20
-624.547963475021
 11
-758.454862087176
 21
-624.547963475021
  0
LINE
  5
351
100
AcDbEntity
  8
1
  6
CONTINUOUS
 62
           7
100
AcDbLine
 10
-773.054862087175
 20
-623.477442224674
 11
-758.454862087176
 21
-623.477442224674
  0
LINE
  5
350
100
AcDbEntity
  8
1
  6
CONTINUOUS
 62
           7
100
AcDbLine
 10
-773.054862087175
 20
-622.080420307526
 11
-758.454862087176
 21
-622.080420307526
  0
LINE
  5
34F
100
AcDbEntity
  8
1
  6
CONTINUOUS
 62
           7
100
AcDbLine
 10
-773.054862087175
 20
-621.017231397348
 11
-758.454862087176
 21
-621.017231397348
  0
LINE
  5
34E
100
AcDbEntity
  8
1
  6
CONTINUOUS
 62
           7
100
AcDbLine
 10
-773.054862087175
 20
-620.078849039635
 11
-758.454862087176
 21
-620.078849039635
  0
LINE
  5
34D
100
AcDbEntity
  8
1
  6
CONTINUOUS
 62
           7
100
AcDbLine
 10
-773.054862087175
 20
-619.415532189672
 11
-758.454862087176
 21
-619.415532189672
  0
LINE
  5
34C
100
AcDbEntity
  8
1
  6
CONTINUOUS
 62
           7
100
AcDbLine
 10
-773.054862087175
 20
-618.604066401479
 11
-758.454862087176
 21
-618.604066401479
  0
LINE
  5
34B
100
AcDbEntity
  8
1
  6
CONTINUOUS
 62
           7
100
AcDbLine
 10
-773.054862087175
 20
-618.078890107409
 11
-758.454862087176
 21
-618.078890107409
  0
LINE
  5
34A
100
AcDbEntity
  8
1
  6
CONTINUOUS
 62
           7
100
AcDbLine
 10
-773.054862087175
 20
-617.700882917241
 11
-758.454862087176
 21
-617.700882917241
  0
LINE
  5
349
100
AcDbEntity
  8
1
  6
CONTINUOUS
 62
           7
100
AcDbLine
 10
-773.354862087175
 20
-657.116265623165
 11
-773.354862087175
 21
-657.066265623165
  0
LINE
  5
348
100
AcDbEntity
  8
1
  6
CONTINUOUS
 62
           7
100
AcDbLine
 10
-773.054862087175
 20
-657.416265623165
 11
-758.754862087176
 21
-657.416265623165
  0
LINE
  5
347
100
AcDbEntity
  8
1
  6
CONTINUOUS
 62
           7
100
AcDbLine
 10
-773.354862087175
 20
-657.116265623165
 11
-773.054862087175
 21
-657.416265623165
  0
LINE
  5
346
100
AcDbEntity
  8
1
  6
CONTINUOUS
 62
           7
100
AcDbLine
 10
-758.754862087176
 20
-657.416265623165
 11
-758.454862087176
 21
-657.116265623165
  0
LINE
  5
345
100
AcDbEntity
  8
1
  6
CONTINUOUS
 62
           7
100
AcDbLine
 10
-758.454862087176
 20
-639.161082129771
 11
-773.054862087175
 21
-639.161082129771
  0
LINE
  5
344
100
AcDbEntity
  8
1
  6
CONTINUOUS
 62
           7
100
AcDbLine
 10
-758.454862087176
 20
-640.892619529213
 11
-773.054862087175
 21
-640.892619529213
  0
LINE
  5
343
100
AcDbEntity
  8
1
  6
CONTINUOUS
 62
           7
100
AcDbLine
 10
-758.454862087176
 20
-642.59769977635
 11
-773.054862087175
 21
-642.59769977635
  0
LINE
  5
342
100
AcDbEntity
  8
1
  6
CONTINUOUS
 62
           7
100
AcDbLine
 10
-758.754862087176
 20
-644.159647857819
 11
-773.054862087175
 21
-644.159647857819
  0
LINE
  5
341
100
AcDbEntity
  8
1
  6
CONTINUOUS
 62
           7
100
AcDbLine
 10
-758.454862087176
 20
-645.876882168116
 11
-773.054862087175
 21
-645.876882168116
  0
LINE
  5
340
100
AcDbEntity
  8
1
  6
CONTINUOUS
 62
           7
100
AcDbLine
 10
-758.288852538993
 20
-647.426027754719
 11
-773.054862087175
 21
-647.426027754719
  0
LINE
  5
33F
100
AcDbEntity
  8
1
  6
CONTINUOUS
 62
           7
100
AcDbLine
 10
-758.454862087176
 20
-648.898993007442
 11
-773.054862087175
 21
-648.898993007442
  0
LINE
  5
33E
100
AcDbEntity
  8
1
  6
CONTINUOUS
 62
           7
100
AcDbLine
 10
-758.454862087176
 20
-650.28456777131
 11
-773.054862087175
 21
-650.28456777131
  0
LINE
  5
33D
100
AcDbEntity
  8
1
  6
CONTINUOUS
 62
           7
100
AcDbLine
 10
-758.454862087176
 20
-651.355089021657
 11
-773.054862087175
 21
-651.355089021657
  0
LINE
  5
33C
100
AcDbEntity
  8
1
  6
CONTINUOUS
 62
           7
100
AcDbLine
 10
-758.454862087176
 20
-652.752110938804
 11
-773.054862087175
 21
-652.752110938804
  0
LINE
  5
33B
100
AcDbEntity
  8
1
  6
CONTINUOUS
 62
           7
100
AcDbLine
 10
-758.454862087176
 20
-653.815299848983
 11
-773.054862087175
 21
-653.815299848983
  0
LINE
  5
33A
100
AcDbEntity
  8
1
  6
CONTINUOUS
 62
           7
100
AcDbLine
 10
-758.454862087176
 20
-654.753682206695
 11
-773.054862087175
 21
-654.753682206695
  0
LINE
  5
339
100
AcDbEntity
  8
1
  6
CONTINUOUS
 62
           7
100
AcDbLine
 10
-758.454862087176
 20
-655.416999056659
 11
-773.054862087175
 21
-655.416999056659
  0
LINE
  5
338
100
AcDbEntity
  8
1
  6
CONTINUOUS
 62
           7
100
AcDbLine
 10
-758.454862087176
 20
-656.228464844852
 11
-773.054862087175
 21
-656.228464844852
  0
LINE
  5
337
100
AcDbEntity
  8
1
  6
CONTINUOUS
 62
           7
100
AcDbLine
 10
-758.454862087176
 20
-656.753641138921
 11
-773.054862087175
 21
-656.753641138921
  0
LINE
  5
336
100
AcDbEntity
  8
1
  6
CONTINUOUS
 62
           7
100
AcDbLine
 10
-758.454862087176
 20
-657.13164832909
 11
-773.054862087175
 21
-657.13164832909
  0
LINE
  5
335
100
AcDbEntity
  8
1
  6
CONTINUOUS
 62
           7
100
AcDbLine
 10
-642.262032196004
 20
-603.416265623164
 11
-641.262032196004
 21
-603.416265623164
  0
LINE
  5
334
100
AcDbEntity
  8
1
  6
CONTINUOUS
 62
           7
100
AcDbLine
 10
-648.262032195967
 20
-671.416265623164
 11
-704.962032196004
 21
-671.416265623164
  0
LINE
  5
333
100
AcDbEntity
  8
1
  6
CONTINUOUS
 62
           2
100
AcDbLine
 10
-758.454862087176
 20
-620.157002157917
 11
-755.262032196004
 21
-619.416265623164
  0
LINE
  5
332
100
AcDbEntity
  8
1
  6
CONTINUOUS
 62
           7
100
AcDbLine
 10
-758.40415554789
 20
-619.416265623166
 11
-754.796923613894
 21
-619.416265623166
  0
LINE
  5
331
100
AcDbEntity
  8
1
  6
CONTINUOUS
 62
           2
100
AcDbLine
 10
-753.262269637936
 20
-655.416265623166
 11
-753.067549434961
 21
-656.142971313931
  0
LINE
  5
330
100
AcDbEntity
  8
1
  6
CONTINUOUS
 62
           2
100
AcDbLine
 10
-754.003284115838
 20
-655.416265623166
 11
-753.262269637936
 21
-655.416265623166
  0
LINE
  5
32F
100
AcDbEntity
  8
1
  6
CONTINUOUS
 62
           2
100
AcDbLine
 10
-752.865071961316
 20
-656.898627532961
 11
-752.865071961316
 21
-617.933903713373
  0
LINE
  5
32E
100
AcDbEntity
  8
1
  6
CONTINUOUS
 62
           2
100
AcDbLine
 10
-754.796923613894
 20
-619.416265623166
 11
-754.796923613894
 21
-655.416265623166
  0
LINE
  5
32D
100
AcDbEntity
  8
1
  6
CONTINUOUS
 62
           2
100
AcDbLine
 10
-745.406396811575
 20
-612.381265623166
 11
-745.406396811575
 21
-604.416265623167
  0
LINE
  5
32C
100
AcDbEntity
  8
1
  6
CONTINUOUS
 62
           7
100
AcDbLine
 10
-706.694083003574
 20
-662.451265623165
 11
-704.962032196004
 21
-663.755265623166
  0
LINE
  5
32B
100
AcDbEntity
  8
1
  6
CONTINUOUS
 62
           7
100
AcDbLine
 10
-706.694083003574
 20
-612.381265623166
 11
-704.962032196
 21
-611.077265623166
  0
LINE
  5
32A
100
AcDbEntity
  8
1
  6
CONTINUOUS
 62
           7
100
AcDbLine
 10
-745.406396811575
 20
-612.381265623166
 11
-706.694083003574
 21
-612.381265623166
  0
LINE
  5
329
100
AcDbEntity
  8
1
  6
CONTINUOUS
 62
           7
100
AcDbLine
 10
-745.406396811575
 20
-662.451265623165
 11
-706.694083003574
 21
-662.451265623165
  0
LINE
  5
328
100
AcDbEntity
  8
1
  6
CONTINUOUS
 62
           7
100
AcDbLine
 10
-704.962032196004
 20
-671.416265623164
 11
-704.962032196004
 21
-663.755265623166
  0
LINE
  5
327
100
AcDbEntity
  8
1
  6
CONTINUOUS
 62
           7
100
AcDbLine
 10
-706.694083003574
 20
-670.416265623164
 11
-706.694083003574
 21
-662.451265623165
  0
LINE
  5
326
100
AcDbEntity
  8
1
  6
CONTINUOUS
 62
           7
100
AcDbLine
 10
-704.962032196
 20
-603.416265623164
 11
-704.962032196
 21
-611.077265623166
  0
LINE
  5
325
100
AcDbEntity
  8
1
  6
CONTINUOUS
 62
           7
100
AcDbLine
 10
-706.694083003574
 20
-604.416265623167
 11
-706.694083003574
 21
-612.381265623166
  0
LINE
  5
324
100
AcDbEntity
  8
1
  6
CONTINUOUS
 62
           7
100
AcDbLine
 10
-662.262032196004
 20
-663.755265623166
 11
-704.962032196004
 21
-663.755265623166
  0
LINE
  5
323
100
AcDbEntity
  8
1
  6
CONTINUOUS
 62
           7
100
AcDbLine
 10
-704.962032196
 20
-611.077265623166
 11
-662.262032196004
 21
-611.077265623165
  0
LINE
  5
322
100
AcDbEntity
  8
1
  6
CONTINUOUS
 62
           2
100
AcDbLine
 10
-750.23602594302
 20
-655.995163756134
 11
-750.23602594302
 21
-666.710360848677
  0
LINE
  5
321
100
AcDbEntity
  8
1
  6
CONTINUOUS
 62
           7
100
AcDbLine
 10
-653.331746646258
 20
-616.114765623166
 11
-653.331746646258
 21
-658.717765623165
  0
LINE
  5
320
100
AcDbEntity
  8
1
  6
CONTINUOUS
 62
           7
100
AcDbLine
 10
-653.331746646258
 20
-616.114765623166
 11
-642.262032196004
 21
-616.114765623166
  0
LINE
  5
31F
100
AcDbEntity
  8
1
  6
CONTINUOUS
 62
           7
100
AcDbLine
 10
-653.331746646258
 20
-658.717765623165
 11
-642.262032196004
 21
-658.717765623165
  0
LINE
  5
31E
100
AcDbEntity
  8
1
  6
CONTINUOUS
 62
           2
100
AcDbLine
 10
-750.23602594302
 20
-608.122170397654
 11
-750.23602594302
 21
-618.837367490196
  0
LINE
  5
31D
100
AcDbEntity
  8
1
  6
CONTINUOUS
 62
           2
100
AcDbLine
 10
-745.406396811575
 20
-670.416265623164
 11
-745.406396811575
 21
-662.451265623165
  0
LINE
  5
31C
100
AcDbEntity
  8
1
  6
CONTINUOUS
 62
           7
100
AcDbLine
 10
-755.262032196004
 20
-655.416265623166
 11
-755.262032196004
 21
-619.416265623166
  0
LINE
  5
31B
100
AcDbEntity
  8
1
  6
CONTINUOUS
 62
           2
100
AcDbLine
 10
-755.262032196004
 20
-655.416265623166
 11
-758.454862087176
 21
-654.675529088415
  0
LINE
  5
31A
100
AcDbEntity
  8
1
  6
CONTINUOUS
 62
           7
100
AcDbLine
 10
-706.694083003574
 20
-604.416265623167
 11
-745.406396811575
 21
-604.416265623167
  0
LINE
  5
319
100
AcDbEntity
  8
1
  6
CONTINUOUS
 62
           7
100
AcDbLine
 10
-704.962032196
 20
-603.416265623164
 11
-706.694083003574
 21
-604.416265623167
  0
LINE
  5
318
100
AcDbEntity
  8
1
  6
CONTINUOUS
 62
           7
100
AcDbLine
 10
-706.694083003574
 20
-670.416265623164
 11
-704.962032196004
 21
-671.416265623164
  0
LINE
  5
317
100
AcDbEntity
  8
1
  6
CONTINUOUS
 62
           7
100
AcDbLine
 10
-723.262243792279
 20
-670.416265623164
 11
-706.694083003574
 21
-670.416265623164
  0
LINE
  5
316
100
AcDbEntity
  8
1
  6
CONTINUOUS
 62
           7
100
AcDbLine
 10
-745.406396811575
 20
-670.416265623164
 11
-723.262243792279
 21
-670.416265623164
  0
LINE
  5
315
100
AcDbEntity
  8
1
  6
CONTINUOUS
 62
           7
100
AcDbLine
 10
-642.262032196004
 20
-645.416265623164
 11
-642.262032196004
 21
-666.103152871522
  0
LINE
  5
314
100
AcDbEntity
  8
1
  6
CONTINUOUS
 62
           7
100
AcDbLine
 10
-642.262032196004
 20
-603.416265623164
 11
-642.262032196004
 21
-637.416265623165
  0
LINE
  5
313
100
AcDbEntity
  8
1
  6
CONTINUOUS
 62
           7
100
AcDbLine
 10
-642.262032196004
 20
-637.416265623165
 11
-642.262032196004
 21
-645.416265623164
  0
LINE
  5
312
100
AcDbEntity
  8
1
  6
CONTINUOUS
 62
           7
100
AcDbLine
 10
-642.262032196004
 20
-603.416265623164
 11
-704.962032196
 21
-603.416265623164
  0
LINE
  5
311
100
AcDbEntity
  8
1
  6
CONTINUOUS
 62
           7
100
AcDbLine
 10
-750.23602594302
 20
-666.710360848677
 11
-752.865071961316
 21
-656.898627532961
  0
LINE
  5
310
100
AcDbEntity
  8
1
  6
CONTINUOUS
 62
           7
100
AcDbLine
 10
-752.865071961316
 20
-617.933903713373
 11
-750.23602594302
 21
-608.122170397654
  0
LINE
  5
30F
100
AcDbEntity
  8
1
  6
CONTINUOUS
 62
           7
100
AcDbLine
 10
-754.796923613894
 20
-655.416265623166
 11
-758.372234771353
 21
-655.416265623166
  0
LINE
  5
30E
100
AcDbEntity
  8
1
  6
CONTINUOUS
 62
           7
100
AcDbLine
 10
-642.262032196004
 20
-639.916265623165
 11
-642.262032196004
 21
-645.416265623164
  0
LINE
  5
30D
100
AcDbEntity
  8
1
  6
CONTINUOUS
 62
           7
100
AcDbLine
 10
-487.53716795995
 20
-658.166265623164
 11
-487.537167959949
 21
-649.666265623164
  0
LINE
  5
30C
100
AcDbEntity
  8
1
  6
CONTINUOUS
 62
           7
100
AcDbLine
 10
-465.444477545379
 20
-657.066265623164
 11
-469.037167959949
 21
-657.066265623164
  0
LINE
  5
30B
100
AcDbEntity
  8
1
  6
CONTINUOUS
 62
           7
100
AcDbLine
 10
-469.037167959949
 20
-650.766265623164
 11
-466.225219921047
 21
-650.766265623164
  0
LINE
  5
30A
100
AcDbEntity
  8
1
  6
DOT_CENTER
 62
           2
100
AcDbLine
 10
-586.598178905629
 20
-653.916265623164
 11
-536.981581409459
 21
-653.916265623164
  0
LINE
  5
309
100
AcDbEntity
  8
1
  6
CONTINUOUS
 62
           7
100
AcDbLine
 10
-515.737167959949
 20
-646.916265623164
 11
-516.237167959949
 21
-646.416265623164
  0
LINE
  5
308
100
AcDbEntity
  8
1
  6
CONTINUOUS
 62
           7
100
AcDbLine
 10
-515.737167959949
 20
-660.916265623164
 11
-516.237167959949
 21
-661.416265623164
  0
LINE
  5
307
100
AcDbEntity
  8
1
  6
CONTINUOUS
 62
           2
100
AcDbLine
 10
-507.03716795995
 20
-647.457765623164
 11
-508.53716795995
 21
-646.916265623164
  0
LINE
  5
306
100
AcDbEntity
  8
1
  6
CONTINUOUS
 62
           7
100
AcDbLine
 10
-507.037167959949
 20
-646.916265623164
 11
-515.737167959949
 21
-646.916265623164
  0
LINE
  5
305
100
AcDbEntity
  8
1
  6
CONTINUOUS
 62
           7
100
AcDbLine
 10
-507.037167959949
 20
-646.916265623164
 11
-507.03716795995
 21
-647.457765623164
  0
LINE
  5
304
100
AcDbEntity
  8
1
  6
CONTINUOUS
 62
           7
100
AcDbLine
 10
-516.237167959949
 20
-646.416265623164
 11
-521.737167959949
 21
-646.416265623164
  0
LINE
  5
303
100
AcDbEntity
  8
1
  6
CONTINUOUS
 62
           7
100
AcDbLine
 10
-521.737167959949
 20
-646.416265623164
 11
-521.737167959949
 21
-653.916265623164
  0
LINE
  5
302
100
AcDbEntity
  8
1
  6
CONTINUOUS
 62
           2
100
AcDbLine
 10
-508.537167959949
 20
-660.916265623164
 11
-507.03716795995
 21
-660.374765623164
  0
LINE
  5
301
100
AcDbEntity
  8
1
  6
CONTINUOUS
 62
           7
100
AcDbLine
 10
-515.737167959949
 20
-660.916265623164
 11
-506.536672770894
 21
-660.916265623164
  0
LINE
  5
300
100
AcDbEntity
  8
1
  6
CONTINUOUS
 62
           2
100
AcDbLine
 10
-506.536672770894
 20
-660.374765623164
 11
-507.03716795995
 21
-660.374765623164
  0
LINE
  5
2FF
100
AcDbEntity
  8
1
  6
CONTINUOUS
 62
           7
100
AcDbLine
 10
-507.03716795995
 20
-660.374765623164
 11
-507.037167959949
 21
-660.916265623164
  0
LINE
  5
2FE
100
AcDbEntity
  8
1
  6
CONTINUOUS
 62
           7
100
AcDbLine
 10
-521.737167959949
 20
-661.416265623164
 11
-516.237167959949
 21
-661.416265623164
  0
LINE
  5
2FD
100
AcDbEntity
  8
1
  6
CONTINUOUS
 62
           7
100
AcDbLine
 10
-521.737167959949
 20
-653.916265623164
 11
-521.737167959949
 21
-661.416265623164
  0
LINE
  5
2FC
100
AcDbEntity
  8
1
  6
CONTINUOUS
 62
           7
100
AcDbLine
 10
-487.537167959949
 20
-649.666265623164
 11
-469.037167959949
 21
-649.666265623164
  0
LINE
  5
2FB
100
AcDbEntity
  8
1
  6
CONTINUOUS
 62
           7
100
AcDbLine
 10
-469.037167959949
 20
-653.916265623164
 11
-469.037167959949
 21
-658.166265623164
  0
LINE
  5
2FA
100
AcDbEntity
  8
1
  6
CONTINUOUS
 62
           7
100
AcDbLine
 10
-469.037167959949
 20
-649.666265623164
 11
-469.037167959949
 21
-653.916265623164
  0
LINE
  5
2F9
100
AcDbEntity
  8
1
  6
CONTINUOUS
 62
           7
100
AcDbLine
 10
-522.237167959949
 20
-648.016265623164
 11
-521.737167959949
 21
-648.016265623164
  0
LINE
  5
2F8
100
AcDbEntity
  8
1
  6
CONTINUOUS
 62
           7
100
AcDbLine
 10
-521.737167959949
 20
-648.016265623164
 11
-521.737167959949
 21
-659.816265623164
  0
LINE
  5
2F7
100
AcDbEntity
  8
1
  6
CONTINUOUS
 62
           7
100
AcDbLine
 10
-469.037167959949
 20
-658.166265623164
 11
-487.53716795995
 21
-658.166265623164
  0
LINE
  5
2F6
100
AcDbEntity
  8
1
  6
CONTINUOUS
 62
           7
100
AcDbLine
 10
-506.537167959951
 20
-646.916265623164
 11
-507.037167959949
 21
-646.916265623164
  0
LINE
  5
2F5
100
AcDbEntity
  8
1
  6
CONTINUOUS
 62
           7
100
AcDbLine
 10
-507.037167959949
 20
-646.916265623164
 11
-506.536672770893
 21
-646.916265623164
  0
LINE
  5
2F4
100
AcDbEntity
  8
1
  6
CONTINUOUS
 62
           2
100
AcDbLine
 10
-507.03716795995
 20
-647.457765623164
 11
-506.536672770894
 21
-647.457765623164
  0
LINE
  5
2F3
100
AcDbEntity
  8
1
  6
CONTINUOUS
 62
           7
100
AcDbLine
 10
-515.737167959949
 20
-660.916265623164
 11
-515.737167959949
 21
-646.916265623164
  0
LINE
  5
2F2
100
AcDbEntity
  8
1
  6
CONTINUOUS
 62
           7
100
AcDbLine
 10
-521.737167959949
 20
-659.816265623164
 11
-522.237167959949
 21
-659.816265623164
  0
LINE
  5
2F1
100
AcDbEntity
  8
1
  6
CONTINUOUS
 62
           7
100
AcDbLine
 10
-507.037167959949
 20
-647.103482788545
 11
-507.037167959949
 21
-646.916265623164
  0
LINE
  5
2F0
100
AcDbEntity
  8
1
  6
CONTINUOUS
 62
           7
100
AcDbLine
 10
-507.037167959949
 20
-653.916265623164
 11
-507.037167959949
 21
-647.103482788545
  0
LINE
  5
2EF
100
AcDbEntity
  8
1
  6
CONTINUOUS
 62
           7
100
AcDbLine
 10
-507.03716795995
 20
-660.374765623164
 11
-507.037167959949
 21
-653.916265623164
  0
LINE
  5
2EE
100
AcDbEntity
  8
1
  6
CONTINUOUS
 62
           7
100
AcDbLine
 10
-521.737167959949
 20
-649.200378998457
 11
-516.237167959949
 21
-649.200378998457
  0
LINE
  5
2ED
100
AcDbEntity
  8
1
  6
CONTINUOUS
 62
           7
100
AcDbLine
 10
-521.737167959949
 20
-651.223683219597
 11
-516.237167959949
 21
-651.223683219597
  0
LINE
  5
2EC
100
AcDbEntity
  8
1
  6
CONTINUOUS
 62
           7
100
AcDbLine
 10
-516.23716795995
 20
-656.608848026731
 11
-521.73716795995
 21
-656.608848026731
  0
LINE
  5
2EB
100
AcDbEntity
  8
1
  6
CONTINUOUS
 62
           7
100
AcDbLine
 10
-516.23716795995
 20
-658.632152247871
 11
-521.73716795995
 21
-658.632152247871
  0
LINE
  5
2EA
100
AcDbEntity
  8
1
  6
CONTINUOUS
 62
           7
100
AcDbLine
 10
-516.237167959949
 20
-651.223683219597
 11
-516.237167959949
 21
-649.200378998457
  0
LINE
  5
2E9
100
AcDbEntity
  8
1
  6
CONTINUOUS
 62
           7
100
AcDbLine
 10
-516.23716795995
 20
-658.632152247871
 11
-516.23716795995
 21
-656.608848026731
  0
LINE
  5
2E8
100
AcDbEntity
  8
1
  6
CONTINUOUS
 62
           7
100
AcDbLine
 10
-526.377403837892
 20
-662.767751001528
 11
-529.847554820835
 21
-662.767751001528
  0
LINE
  5
2E7
100
AcDbEntity
  8
1
  6
CONTINUOUS
 62
           7
100
AcDbLine
 10
-529.737167959949
 20
-656.885555015135
 11
-522.737167959949
 21
-656.885555015135
  0
LINE
  5
2E6
100
AcDbEntity
  8
1
  6
CONTINUOUS
 62
           7
100
AcDbLine
 10
-525.937167959949
 20
-662.927515123585
 11
-522.737167959948
 21
-662.927515123585
  0
LINE
  5
2E5
100
AcDbEntity
  8
1
  6
CONTINUOUS
 62
           7
100
AcDbLine
 10
-530.237167959949
 20
-647.469015123585
 11
-530.237167959949
 21
-662.427515123586
  0
LINE
  5
2E4
100
AcDbEntity
  8
1
  6
CONTINUOUS
 62
           7
100
AcDbLine
 10
-522.237167959949
 20
-662.427515123586
 11
-522.737167959948
 21
-662.927515123585
  0
LINE
  5
2E3
100
AcDbEntity
  8
1
  6
CONTINUOUS
 62
           7
100
AcDbLine
 10
-529.737167959949
 20
-662.927515123585
 11
-530.237167959949
 21
-662.427515123586
  0
LINE
  5
2E2
100
AcDbEntity
  8
1
  6
CONTINUOUS
 62
           7
100
AcDbLine
 10
-522.237167959949
 20
-662.427515123586
 11
-522.237167959949
 21
-645.427515123585
  0
LINE
  5
2E1
100
AcDbEntity
  8
1
  6
CONTINUOUS
 62
           7
100
AcDbLine
 10
-529.737167959949
 20
-659.809711109978
 11
-522.737167959949
 21
-659.809711109978
  0
LINE
  5
2E0
100
AcDbEntity
  8
1
  6
CONTINUOUS
 62
           7
100
AcDbLine
 10
-529.737167959949
 20
-659.809711109978
 11
-529.737167959949
 21
-656.885555015135
  0
LINE
  5
2DF
100
AcDbEntity
  8
1
  6
CONTINUOUS
 62
           7
100
AcDbLine
 10
-522.737167959949
 20
-659.809711109978
 11
-522.737167959949
 21
-656.885555015135
  0
LINE
  5
2DE
100
AcDbEntity
  8
1
  6
CONTINUOUS
 62
           7
100
AcDbLine
 10
-526.237167959949
 20
-662.627515123585
 11
-526.537167959949
 21
-662.927515123585
  0
LINE
  5
2DD
100
AcDbEntity
  8
1
  6
CONTINUOUS
 62
           7
100
AcDbLine
 10
-525.937167959949
 20
-662.927515123585
 11
-526.237167959949
 21
-662.627515123585
  0
LINE
  5
2DC
100
AcDbEntity
  8
1
  6
CONTINUOUS
 62
           7
100
AcDbLine
 10
-529.737167959949
 20
-662.927515123585
 11
-526.537167959949
 21
-662.927515123585
  0
LINE
  5
2DB
100
AcDbEntity
  8
1
  6
CONTINUOUS
 62
           7
100
AcDbLine
 10
-522.577403837891
 20
-662.767751001528
 11
-526.096932082006
 21
-662.767751001528
  0
LINE
  5
2DA
100
AcDbEntity
  8
1
  6
CONTINUOUS
 62
           7
100
AcDbLine
 10
-526.23716795995
 20
-662.216092905303
 11
-525.937167959949
 21
-662.927515123585
  0
LINE
  5
2D9
100
AcDbEntity
  8
1
  6
CONTINUOUS
 62
           7
100
AcDbLine
 10
-526.537167959949
 20
-662.927515123585
 11
-526.23716795995
 21
-662.216092905303
  0
LINE
  5
2D8
100
AcDbEntity
  8
1
  6
CONTINUOUS
 62
           7
100
AcDbLine
 10
-525.937167959949
 20
-659.809711109978
 11
-525.937167959949
 21
-656.885555015135
  0
LINE
  5
2D7
100
AcDbEntity
  8
1
  6
CONTINUOUS
 62
           7
100
AcDbLine
 10
-526.237167959949
 20
-656.885555015135
 11
-526.237167959949
 21
-659.809711109978
  0
LINE
  5
2D6
100
AcDbEntity
  8
1
  6
CONTINUOUS
 62
           7
100
AcDbLine
 10
-526.537167959949
 20
-659.809711109978
 11
-526.537167959949
 21
-656.885555015135
  0
LINE
  5
2D5
100
AcDbEntity
  8
1
  6
CONTINUOUS
 62
           7
100
AcDbLine
 10
-526.237167959949
 20
-660.361369206204
 11
-525.937167959949
 21
-659.809711109978
  0
LINE
  5
2D4
100
AcDbEntity
  8
1
  6
CONTINUOUS
 62
           7
100
AcDbLine
 10
-526.537167959949
 20
-659.809711109978
 11
-526.237167959949
 21
-660.361369206204
  0
LINE
  5
2D3
100
AcDbEntity
  8
1
  6
CONTINUOUS
 62
           7
100
AcDbLine
 10
-526.237167959949
 20
-655.782238822685
 11
-525.937167959949
 21
-656.885555015135
  0
LINE
  5
2D2
100
AcDbEntity
  8
1
  6
CONTINUOUS
 62
           7
100
AcDbLine
 10
-526.537167959949
 20
-656.885555015135
 11
-526.237167959949
 21
-655.782238822685
  0
LINE
  5
2D1
100
AcDbEntity
  8
1
  6
CONTINUOUS
 62
           7
100
AcDbLine
 10
-526.237167959949
 20
-659.809711109978
 11
-526.237167959949
 21
-660.361369206204
  0
LINE
  5
2D0
100
AcDbEntity
  8
1
  6
CONTINUOUS
 62
           7
100
AcDbLine
 10
-526.237167959949
 20
-655.782238822685
 11
-526.237167959949
 21
-656.885555015135
  0
LINE
  5
2CF
100
AcDbEntity
  8
1
  6
CONTINUOUS
 62
           7
100
AcDbLine
 10
-529.847554820835
 20
-645.087279245643
 11
-526.377403837891
 21
-645.087279245643
  0
LINE
  5
2CE
100
AcDbEntity
  8
1
  6
CONTINUOUS
 62
           7
100
AcDbLine
 10
-522.737167959949
 20
-650.969475232036
 11
-529.737167959949
 21
-650.969475232035
  0
LINE
  5
2CD
100
AcDbEntity
  8
1
  6
CONTINUOUS
 62
           7
100
AcDbLine
 10
-522.737167959949
 20
-644.927515123586
 11
-525.937167959949
 21
-644.927515123585
  0
LINE
  5
2CC
100
AcDbEntity
  8
1
  6
CONTINUOUS
 62
           7
100
AcDbLine
 10
-522.737167959949
 20
-644.927515123586
 11
-522.237167959949
 21
-645.427515123585
  0
LINE
  5
2CB
100
AcDbEntity
  8
1
  6
CONTINUOUS
 62
           7
100
AcDbLine
 10
-530.237167959949
 20
-645.427515123585
 11
-529.737167959949
 21
-644.927515123585
  0
LINE
  5
2CA
100
AcDbEntity
  8
1
  6
CONTINUOUS
 62
           7
100
AcDbLine
 10
-522.737167959949
 20
-648.045319137192
 11
-529.737167959949
 21
-648.045319137193
  0
LINE
  5
2C9
100
AcDbEntity
  8
1
  6
CONTINUOUS
 62
           7
100
AcDbLine
 10
-529.737167959949
 20
-650.969475232035
 11
-529.737167959949
 21
-648.045319137193
  0
LINE
  5
2C8
100
AcDbEntity
  8
1
  6
CONTINUOUS
 62
           7
100
AcDbLine
 10
-522.737167959949
 20
-650.969475232036
 11
-522.737167959949
 21
-648.045319137192
  0
LINE
  5
2C7
100
AcDbEntity
  8
1
  6
CONTINUOUS
 62
           7
100
AcDbLine
 10
-526.537167959948
 20
-644.927515123585
 11
-526.237167959949
 21
-645.227515123585
  0
LINE
  5
2C6
100
AcDbEntity
  8
1
  6
CONTINUOUS
 62
           7
100
AcDbLine
 10
-526.237167959949
 20
-645.227515123585
 11
-525.937167959949
 21
-644.927515123585
  0
LINE
  5
2C5
100
AcDbEntity
  8
1
  6
CONTINUOUS
 62
           7
100
AcDbLine
 10
-526.537167959948
 20
-644.927515123585
 11
-529.737167959949
 21
-644.927515123585
  0
LINE
  5
2C4
100
AcDbEntity
  8
1
  6
CONTINUOUS
 62
           7
100
AcDbLine
 10
-526.096932082006
 20
-645.087279245643
 11
-522.577403837891
 21
-645.087279245643
  0
LINE
  5
2C3
100
AcDbEntity
  8
1
  6
CONTINUOUS
 62
           7
100
AcDbLine
 10
-525.937167959949
 20
-644.927515123585
 11
-526.237167959949
 21
-645.638937341868
  0
LINE
  5
2C2
100
AcDbEntity
  8
1
  6
CONTINUOUS
 62
           7
100
AcDbLine
 10
-526.237167959949
 20
-645.638937341868
 11
-526.537167959948
 21
-644.927515123585
  0
LINE
  5
2C1
100
AcDbEntity
  8
1
  6
CONTINUOUS
 62
           7
100
AcDbLine
 10
-525.937167959949
 20
-650.969475232036
 11
-525.937167959948
 21
-648.045319137193
  0
LINE
  5
2C0
100
AcDbEntity
  8
1
  6
CONTINUOUS
 62
           7
100
AcDbLine
 10
-526.237167959949
 20
-648.045319137192
 11
-526.237167959949
 21
-650.969475232035
  0
LINE
  5
2BF
100
AcDbEntity
  8
1
  6
CONTINUOUS
 62
           7
100
AcDbLine
 10
-526.537167959949
 20
-650.969475232036
 11
-526.537167959949
 21
-648.045319137192
  0
LINE
  5
2BE
100
AcDbEntity
  8
1
  6
CONTINUOUS
 62
           7
100
AcDbLine
 10
-525.937167959948
 20
-648.045319137193
 11
-526.237167959949
 21
-647.493661040967
  0
LINE
  5
2BD
100
AcDbEntity
  8
1
  6
CONTINUOUS
 62
           7
100
AcDbLine
 10
-526.237167959949
 20
-647.493661040967
 11
-526.537167959949
 21
-648.045319137192
  0
LINE
  5
2BC
100
AcDbEntity
  8
1
  6
CONTINUOUS
 62
           7
100
AcDbLine
 10
-525.937167959949
 20
-650.969475232036
 11
-526.237167959949
 21
-652.072791424486
  0
LINE
  5
2BB
100
AcDbEntity
  8
1
  6
CONTINUOUS
 62
           7
100
AcDbLine
 10
-526.237167959949
 20
-652.072791424486
 11
-526.537167959949
 21
-650.969475232036
  0
LINE
  5
2BA
100
AcDbEntity
  8
1
  6
CONTINUOUS
 62
           7
100
AcDbLine
 10
-526.237167959949
 20
-647.493661040967
 11
-526.237167959949
 21
-648.045319137192
  0
LINE
  5
2B9
100
AcDbEntity
  8
1
  6
CONTINUOUS
 62
           7
100
AcDbLine
 10
-526.237167959949
 20
-650.969475232035
 11
-526.237167959949
 21
-652.072791424486
  0
LINE
  5
2B8
100
AcDbEntity
  8
1
  6
CONTINUOUS
 62
           7
100
AcDbLine
 10
-530.237167959949
 20
-645.427515123585
 11
-530.237167959948
 21
-660.386015123585
  0
LINE
  5
2B7
100
AcDbEntity
  8
1
  6
CONTINUOUS
 62
           7
100
AcDbLine
 10
-506.036672770894
 20
-648.034069636772
 11
-501.286672770894
 21
-648.034069636771
  0
LINE
  5
2B6
100
AcDbEntity
  8
1
  6
CONTINUOUS
 62
           7
100
AcDbLine
 10
-501.286672770893
 20
-650.958225731615
 11
-506.036672770894
 21
-650.958225731614
  0
LINE
  5
2B5
100
AcDbEntity
  8
1
  6
CONTINUOUS
 62
           7
100
AcDbLine
 10
-501.286672770893
 20
-650.958225731615
 11
-501.286672770894
 21
-648.034069636771
  0
LINE
  5
2B4
100
AcDbEntity
  8
1
  6
CONTINUOUS
 62
           7
100
AcDbLine
 10
-506.036672770894
 20
-650.958225731614
 11
-506.036672770894
 21
-648.034069636772
  0
LINE
  5
2B3
100
AcDbEntity
  8
1
  6
CONTINUOUS
 62
           7
100
AcDbLine
 10
-500.536672770893
 20
-653.916265623164
 11
-500.536672770892
 21
-645.666265623164
  0
LINE
  5
2B2
100
AcDbEntity
  8
1
  6
CONTINUOUS
 62
           7
100
AcDbLine
 10
-493.537167959949
 20
-653.916265623164
 11
-493.53716795995
 21
-645.666265623164
  0
LINE
  5
2B1
100
AcDbEntity
  8
1
  6
CONTINUOUS
 62
           7
100
AcDbLine
 10
-491.537167959949
 20
-653.916265623164
 11
-491.53716795995
 21
-647.666265623164
  0
LINE
  5
2B0
100
AcDbEntity
  8
1
  6
CONTINUOUS
 62
           7
100
AcDbLine
 10
-488.53716795995
 20
-653.916265623164
 11
-488.537167959949
 21
-647.666265623164
  0
LINE
  5
2AF
100
AcDbEntity
  8
1
  6
CONTINUOUS
 62
           7
100
AcDbLine
 10
-501.286672770893
 20
-644.916265623164
 11
-506.036672770893
 21
-644.916265623164
  0
LINE
  5
2AE
100
AcDbEntity
  8
1
  6
CONTINUOUS
 62
           7
100
AcDbLine
 10
-487.537167959949
 20
-648.666265623164
 11
-487.537167959949
 21
-649.666265623164
  0
LINE
  5
2AD
100
AcDbEntity
  8
1
  6
CONTINUOUS
 62
           7
100
AcDbLine
 10
-506.536672770893
 20
-646.916265623164
 11
-506.536672770894
 21
-647.457765623164
  0
LINE
  5
2AC
100
AcDbEntity
  8
1
  6
CONTINUOUS
 62
           7
100
AcDbLine
 10
-487.537167959949
 20
-648.666265623164
 11
-487.537167959949
 21
-649.666265623164
  0
LINE
  5
2AB
100
AcDbEntity
  8
1
  6
CONTINUOUS
 62
           7
100
AcDbLine
 10
-506.536672770893
 20
-645.416265623164
 11
-506.036672770893
 21
-644.916265623164
  0
LINE
  5
2AA
100
AcDbEntity
  8
1
  6
CONTINUOUS
 62
           7
100
AcDbLine
 10
-493.53716795995
 20
-645.666265623164
 11
-500.536672770892
 21
-645.666265623164
  0
LINE
  5
2A9
100
AcDbEntity
  8
1
  6
CONTINUOUS
 62
           7
100
AcDbLine
 10
-500.536672770892
 20
-645.666265623164
 11
-501.286672770893
 21
-644.916265623164
  0
LINE
  5
2A8
100
AcDbEntity
  8
1
  6
CONTINUOUS
 62
           7
100
AcDbLine
 10
-491.53716795995
 20
-647.666265623164
 11
-493.53716795995
 21
-645.666265623164
  0
LINE
  5
2A7
100
AcDbEntity
  8
1
  6
CONTINUOUS
 62
           7
100
AcDbLine
 10
-488.537167959949
 20
-647.666265623164
 11
-491.53716795995
 21
-647.666265623164
  0
LINE
  5
2A6
100
AcDbEntity
  8
1
  6
CONTINUOUS
 62
           7
100
AcDbLine
 10
-487.537167959949
 20
-648.666265623164
 11
-488.537167959949
 21
-647.666265623164
  0
LINE
  5
2A5
100
AcDbEntity
  8
1
  6
CONTINUOUS
 62
           7
100
AcDbLine
 10
-506.536672770894
 20
-647.416265623164
 11
-506.536672770893
 21
-662.416265623165
  0
LINE
  5
2A4
100
AcDbEntity
  8
1
  6
DOT_CENTER
 62
           2
100
AcDbLine
 10
-507.536672770893
 20
-653.916265623164
 11
-486.537167959949
 21
-653.916265623164
  0
LINE
  5
2A3
100
AcDbEntity
  8
1
  6
CONTINUOUS
 62
           7
100
AcDbLine
 10
-501.286672770893
 20
-659.798461609557
 11
-506.036672770894
 21
-659.798461609557
  0
LINE
  5
2A2
100
AcDbEntity
  8
1
  6
CONTINUOUS
 62
           7
100
AcDbLine
 10
-506.036672770893
 20
-656.874305514714
 11
-501.286672770894
 21
-656.874305514714
  0
LINE
  5
2A1
100
AcDbEntity
  8
1
  6
CONTINUOUS
 62
           7
100
AcDbLine
 10
-501.286672770893
 20
-659.798461609557
 11
-501.286672770894
 21
-656.874305514714
  0
LINE
  5
2A0
100
AcDbEntity
  8
1
  6
CONTINUOUS
 62
           7
100
AcDbLine
 10
-506.036672770894
 20
-659.798461609557
 11
-506.036672770893
 21
-656.874305514714
  0
LINE
  5
29F
100
AcDbEntity
  8
1
  6
CONTINUOUS
 62
           7
100
AcDbLine
 10
-500.536672770893
 20
-662.166265623164
 11
-500.536672770893
 21
-653.916265623164
  0
LINE
  5
29E
100
AcDbEntity
  8
1
  6
CONTINUOUS
 62
           7
100
AcDbLine
 10
-493.537167959949
 20
-662.166265623164
 11
-493.537167959949
 21
-653.916265623164
  0
LINE
  5
29D
100
AcDbEntity
  8
1
  6
CONTINUOUS
 62
           7
100
AcDbLine
 10
-491.537167959949
 20
-660.166265623164
 11
-491.537167959949
 21
-653.916265623164
  0
LINE
  5
29C
100
AcDbEntity
  8
1
  6
CONTINUOUS
 62
           7
100
AcDbLine
 10
-488.537167959949
 20
-660.166265623164
 11
-488.53716795995
 21
-653.916265623164
  0
LINE
  5
29B
100
AcDbEntity
  8
1
  6
CONTINUOUS
 62
           7
100
AcDbLine
 10
-506.036672770893
 20
-662.916265623165
 11
-501.286672770893
 21
-662.916265623164
  0
LINE
  5
29A
100
AcDbEntity
  8
1
  6
CONTINUOUS
 62
           7
100
AcDbLine
 10
-487.53716795995
 20
-658.166265623164
 11
-487.537167959949
 21
-659.166265623164
  0
LINE
  5
299
100
AcDbEntity
  8
1
  6
CONTINUOUS
 62
           7
100
AcDbLine
 10
-506.536672770894
 20
-660.374765623164
 11
-506.536672770894
 21
-660.916265623164
  0
LINE
  5
298
100
AcDbEntity
  8
1
  6
CONTINUOUS
 62
           7
100
AcDbLine
 10
-487.53716795995
 20
-658.166265623164
 11
-487.537167959949
 21
-659.166265623164
  0
LINE
  5
297
100
AcDbEntity
  8
1
  6
CONTINUOUS
 62
           7
100
AcDbLine
 10
-506.036672770893
 20
-662.916265623165
 11
-506.536672770893
 21
-662.416265623165
  0
LINE
  5
296
100
AcDbEntity
  8
1
  6
CONTINUOUS
 62
           7
100
AcDbLine
 10
-500.536672770893
 20
-662.166265623164
 11
-493.537167959949
 21
-662.166265623164
  0
LINE
  5
295
100
AcDbEntity
  8
1
  6
CONTINUOUS
 62
           7
100
AcDbLine
 10
-501.286672770893
 20
-662.916265623164
 11
-500.536672770893
 21
-662.166265623164
  0
LINE
  5
294
100
AcDbEntity
  8
1
  6
CONTINUOUS
 62
           7
100
AcDbLine
 10
-493.537167959949
 20
-662.166265623164
 11
-491.537167959949
 21
-660.166265623164
  0
LINE
  5
293
100
AcDbEntity
  8
1
  6
CONTINUOUS
 62
           7
100
AcDbLine
 10
-491.537167959949
 20
-660.166265623164
 11
-488.537167959949
 21
-660.166265623164
  0
LINE
  5
292
100
AcDbEntity
  8
1
  6
CONTINUOUS
 62
           7
100
AcDbLine
 10
-488.537167959949
 20
-660.166265623164
 11
-487.537167959949
 21
-659.166265623164
  0
LINE
  5
291
100
AcDbEntity
  8
1
  6
CONTINUOUS
 62
           7
100
AcDbLine
 10
-487.537167959949
 20
-649.666265623164
 11
-487.53716795995
 21
-658.166265623164
  0
LINE
  5
290
100
AcDbEntity
  8
1
  6
CONTINUOUS
 62
           7
100
AcDbLine
 10
-576.485430316385
 20
-837.21264314873
 11
-576.485430316385
 21
-837.106768148731
  0
LINE
  5
28F
100
AcDbEntity
  8
1
  6
CONTINUOUS
 62
           7
100
AcDbLine
 10
-577.262032196005
 20
-837.21264314873
 11
-576.485430316385
 21
-837.21264314873
  0
LINE
  5
28E
100
AcDbEntity
  8
1
  6
CONTINUOUS
 62
           7
100
AcDbLine
 10
-577.262032196005
 20
-793.23264314873
 11
-577.262032196005
 21
-809.71264314873
  0
LINE
  5
28D
100
AcDbEntity
  8
1
  6
CONTINUOUS
 62
           2
100
AcDbLine
 10
-616.520475737914
 20
-806.763782848318
 11
-606.425137768702
 21
-789.670026732407
  0
LINE
  5
28C
100
AcDbEntity
  8
1
  6
CONTINUOUS
 62
           7
100
AcDbLine
 10
-625.88310000787
 20
-789.86264314873
 11
-636.262032196004
 21
-789.862643148731
  0
LINE
  5
28B
100
AcDbEntity
  8
1
  6
CONTINUOUS
 62
           7
100
AcDbLine
 10
-622.347566101937
 20
-788.398177054663
 11
-615.726498290072
 21
-781.777109242798
  0
LINE
  5
28A
100
AcDbEntity
  8
1
  6
CONTINUOUS
 62
           7
100
AcDbLine
 10
-609.190964384137
 20
-782.941575336865
 11
-615.333100007868
 21
-789.083710960596
  0
LINE
  5
289
100
AcDbEntity
  8
1
  6
CONTINUOUS
 62
           7
100
AcDbLine
 10
-604.5509457285
 20
-780.312643148731
 11
-612.190964384139
 21
-780.312643148731
  0
LINE
  5
288
100
AcDbEntity
  8
1
  6
CONTINUOUS
 62
           2
100
AcDbLine
 10
-591.562032195997
 20
-787.21264314873
 11
-602.119896572272
 21
-787.21264314873
  0
LINE
  5
287
100
AcDbEntity
  8
1
  6
CONTINUOUS
 62
           7
100
AcDbLine
 10
-630.762032196004
 20
-829.562643148731
 11
-630.762032196004
 21
-835.21264314873
  0
LINE
  5
286
100
AcDbEntity
  8
1
  6
CONTINUOUS
 62
           7
100
AcDbLine
 10
-628.762032196004
 20
-837.21264314873
 11
-616.162032196005
 21
-837.21264314873
  0
LINE
  5
285
100
AcDbEntity
  8
1
  6
CONTINUOUS
 62
           7
100
AcDbLine
 10
-577.262032196005
 20
-839.112643148731
 11
-577.262032196005
 21
-828.362643148731
  0
LINE
  5
284
100
AcDbEntity
  8
1
  6
CONTINUOUS
 62
           7
100
AcDbLine
 10
-628.762032196004
 20
-782.21264314873
 11
-616.162032196005
 21
-782.21264314873
  0
LINE
  5
283
100
AcDbEntity
  8
1
  6
CONTINUOUS
 62
           7
100
AcDbLine
 10
-630.762032196004
 20
-789.862643148731
 11
-630.762032196004
 21
-784.21264314873
  0
LINE
  5
282
100
AcDbEntity
  8
1
  6
CONTINUOUS
 62
           7
100
AcDbLine
 10
-577.262032196005
 20
-780.312643148731
 11
-577.262032196005
 21
-781.23264314873
  0
LINE
  5
281
100
AcDbEntity
  8
1
  6
CONTINUOUS
 62
           7
100
AcDbLine
 10
-577.262032196005
 20
-809.71264314873
 11
-577.262032196005
 21
-828.362643148731
  0
LINE
  5
280
100
AcDbEntity
  8
1
  6
CONTINUOUS
 62
           7
100
AcDbLine
 10
-641.262032196005
 20
-783.21264314873
 11
-641.262032196004
 21
-809.71264314873
  0
LINE
  5
27F
100
AcDbEntity
  8
1
  6
CONTINUOUS
 62
           7
100
AcDbLine
 10
-637.262032196005
 20
-788.862643148731
 11
-637.262032196005
 21
-783.21264314873
  0
LINE
  5
27E
100
AcDbEntity
  8
1
  6
CONTINUOUS
 62
           7
100
AcDbLine
 10
-577.262032196005
 20
-780.312643148731
 11
-591.562032195997
 21
-780.312643148731
  0
LINE
  5
27D
100
AcDbEntity
  8
1
  6
CONTINUOUS
 62
           7
100
AcDbLine
 10
-625.88310000787
 20
-789.86264314873
 11
-636.262032196004
 21
-789.862643148731
  0
LINE
  5
27C
100
AcDbEntity
  8
1
  6
CONTINUOUS
 62
           7
100
AcDbLine
 10
-637.262032196004
 20
-836.21264314873
 11
-637.262032196005
 21
-809.71264314873
  0
LINE
  5
27B
100
AcDbEntity
  8
1
  6
CONTINUOUS
 62
           7
100
AcDbLine
 10
-636.262032196004
 20
-829.562643148731
 11
-625.88310000787
 21
-829.562643148731
  0
LINE
  5
27A
100
AcDbEntity
  8
1
  6
CONTINUOUS
 62
           7
100
AcDbLine
 10
-615.726498290072
 20
-837.648177054663
 11
-622.347566101937
 21
-831.027109242798
  0
LINE
  5
279
100
AcDbEntity
  8
1
  6
CONTINUOUS
 62
           7
100
AcDbLine
 10
-612.190964384139
 20
-839.112643148731
 11
-577.262032196005
 21
-839.112643148731
  0
LINE
  5
278
100
AcDbEntity
  8
1
  6
CONTINUOUS
 62
           7
100
AcDbLine
 10
-641.262032196005
 20
-836.212643148731
 11
-637.262032196004
 21
-836.21264314873
  0
LINE
  5
277
100
AcDbEntity
  8
1
  6
CONTINUOUS
 62
           7
100
AcDbLine
 10
-641.262032196004
 20
-809.71264314873
 11
-641.262032196005
 21
-836.212643148731
  0
LINE
  5
276
100
AcDbEntity
  8
1
  6
CONTINUOUS
 62
           7
100
AcDbLine
 10
-637.262032196005
 20
-783.21264314873
 11
-641.262032196005
 21
-783.21264314873
  0
LINE
  5
275
100
AcDbEntity
  8
1
  6
CONTINUOUS
 62
           7
100
AcDbLine
 10
-637.262032196005
 20
-809.71264314873
 11
-637.262032196005
 21
-783.21264314873
  0
LINE
  5
274
100
AcDbEntity
  8
1
  6
CONTINUOUS
 62
           7
100
AcDbLine
 10
-591.562032195997
 20
-809.71264314873
 11
-591.562032195997
 21
-780.01264314873
  0
LINE
  5
273
100
AcDbEntity
  8
1
  6
CONTINUOUS
 62
           7
100
AcDbLine
 10
-591.562032195997
 20
-780.01264314873
 11
-602.119896572272
 21
-780.01264314873
  0
LINE
  5
272
100
AcDbEntity
  8
1
  6
CONTINUOUS
 62
           7
100
AcDbLine
 10
-636.031227083409
 20
-792.01264314873
 11
-622.404167819734
 21
-792.01264314873
  0
LINE
  5
271
100
AcDbEntity
  8
1
  6
CONTINUOUS
 62
           7
100
AcDbLine
 10
-636.4928373086
 20
-827.41264314873
 11
-577.262032196005
 21
-827.41264314873
  0
LINE
  5
270
100
AcDbEntity
  8
1
  6
CONTINUOUS
 62
           7
100
AcDbLine
 10
-698.262032196004
 20
-761.71264314873
 11
-698.262032196004
 21
-762.67464314873
  0
LINE
  5
26F
100
AcDbEntity
  8
1
  6
CONTINUOUS
 62
           7
100
AcDbLine
 10
-699.762032196004
 20
-761.71264314873
 11
-699.762032196004
 21
-762.67464314873
  0
LINE
  5
26E
100
AcDbEntity
  8
1
  6
CONTINUOUS
 62
           7
100
AcDbLine
 10
-701.262032196004
 20
-761.71264314873
 11
-701.262032196004
 21
-762.67464314873
  0
LINE
  5
26D
100
AcDbEntity
  8
1
  6
CONTINUOUS
 62
           7
100
AcDbLine
 10
-702.762032196004
 20
-761.71264314873
 11
-702.762032196004
 21
-762.67464314873
  0
LINE
  5
26C
100
AcDbEntity
  8
1
  6
CONTINUOUS
 62
           7
100
AcDbLine
 10
-704.262032196004
 20
-761.71264314873
 11
-704.262032196004
 21
-762.67464314873
  0
LINE
  5
26B
100
AcDbEntity
  8
1
  6
CONTINUOUS
 62
           7
100
AcDbLine
 10
-698.262032196004
 20
-777.71264314873
 11
-698.262032196004
 21
-776.75064314873
  0
LINE
  5
26A
100
AcDbEntity
  8
1
  6
CONTINUOUS
 62
           7
100
AcDbLine
 10
-699.762032196004
 20
-777.71264314873
 11
-699.762032196004
 21
-776.75064314873
  0
LINE
  5
269
100
AcDbEntity
  8
1
  6
CONTINUOUS
 62
           7
100
AcDbLine
 10
-701.262032196004
 20
-777.71264314873
 11
-701.262032196004
 21
-776.75064314873
  0
LINE
  5
268
100
AcDbEntity
  8
1
  6
CONTINUOUS
 62
           7
100
AcDbLine
 10
-702.762032196004
 20
-777.71264314873
 11
-702.762032196004
 21
-776.75064314873
  0
LINE
  5
267
100
AcDbEntity
  8
1
  6
CONTINUOUS
 62
           7
100
AcDbLine
 10
-704.262032196004
 20
-777.71264314873
 11
-704.262032196004
 21
-776.75064314873
  0
LINE
  5
266
100
AcDbEntity
  8
1
  6
CONTINUOUS
 62
           7
100
AcDbLine
 10
-698.262032196004
 20
-762.67464314873
 11
-698.262032196004
 21
-776.75064314873
  0
LINE
  5
265
100
AcDbEntity
  8
1
  6
CONTINUOUS
 62
           7
100
AcDbLine
 10
-699.762032196004
 20
-762.67464314873
 11
-699.762032196004
 21
-776.75064314873
  0
LINE
  5
264
100
AcDbEntity
  8
1
  6
CONTINUOUS
 62
           7
100
AcDbLine
 10
-701.262032196004
 20
-762.67464314873
 11
-701.262032196004
 21
-776.75064314873
  0
LINE
  5
263
100
AcDbEntity
  8
1
  6
CONTINUOUS
 62
           7
100
AcDbLine
 10
-702.762032196004
 20
-762.67464314873
 11
-702.762032196004
 21
-776.75064314873
  0
LINE
  5
262
100
AcDbEntity
  8
1
  6
CONTINUOUS
 62
           7
100
AcDbLine
 10
-704.262032196004
 20
-762.67464314873
 11
-704.262032196004
 21
-776.75064314873
  0
LINE
  5
261
100
AcDbEntity
  8
1
  6
CONTINUOUS
 62
           7
100
AcDbLine
 10
-697.574032196004
 20
-777.71264314873
 11
-697.574032196004
 21
-761.71264314873
  0
LINE
  5
260
100
AcDbEntity
  8
1
  6
CONTINUOUS
 62
           7
100
AcDbLine
 10
-705.762032196004
 20
-762.67464314873
 11
-705.762032196004
 21
-776.75064314873
  0
LINE
  5
25F
100
AcDbEntity
  8
1
  6
CONTINUOUS
 62
           7
100
AcDbLine
 10
-709.262032196004
 20
-780.21264314873
 11
-709.262032196004
 21
-759.21264314873
  0
LINE
  5
25E
100
AcDbEntity
  8
1
  6
CONTINUOUS
 62
           7
100
AcDbLine
 10
-708.762032196004
 20
-762.67464314873
 11
-708.762032196004
 21
-776.75064314873
  0
LINE
  5
25D
100
AcDbEntity
  8
1
  6
CONTINUOUS
 62
           7
100
AcDbLine
 10
-726.762032196004
 20
-759.21264314873
 11
-726.762032196004
 21
-780.21264314873
  0
LINE
  5
25C
100
AcDbEntity
  8
1
  6
CONTINUOUS
 62
           7
100
AcDbLine
 10
-705.762032196004
 20
-761.71264314873
 11
-705.762032196004
 21
-762.67464314873
  0
LINE
  5
25B
100
AcDbEntity
  8
1
  6
CONTINUOUS
 62
           2
100
AcDbLine
 10
-696.762032196004
 20
-762.52464314873
 11
-705.762032196004
 21
-762.52464314873
  0
LINE
  5
25A
100
AcDbEntity
  8
1
  6
CONTINUOUS
 62
           2
100
AcDbLine
 10
-696.762032196004
 20
-776.90064314873
 11
-705.762032196004
 21
-776.90064314873
  0
LINE
  5
259
100
AcDbEntity
  8
1
  6
CONTINUOUS
 62
           7
100
AcDbLine
 10
-696.762032196004
 20
-762.52464314873
 11
-696.762032196004
 21
-769.71264314873
  0
LINE
  5
258
100
AcDbEntity
  8
1
  6
CONTINUOUS
 62
           7
100
AcDbLine
 10
-708.762032196004
 20
-762.67464314873
 11
-705.762032196004
 21
-762.67464314873
  0
LINE
  5
257
100
AcDbEntity
  8
1
  6
CONTINUOUS
 62
           7
100
AcDbLine
 10
-708.762032196004
 20
-761.71264314873
 11
-708.762032196004
 21
-762.67464314873
  0
LINE
  5
256
100
AcDbEntity
  8
1
  6
CONTINUOUS
 62
           7
100
AcDbLine
 10
-705.762032196004
 20
-777.71264314873
 11
-705.762032196004
 21
-776.75064314873
  0
LINE
  5
255
100
AcDbEntity
  8
1
  6
CONTINUOUS
 62
           7
100
AcDbLine
 10
-705.762032196004
 20
-776.75064314873
 11
-708.762032196004
 21
-776.75064314873
  0
LINE
  5
254
100
AcDbEntity
  8
1
  6
CONTINUOUS
 62
           7
100
AcDbLine
 10
-697.574032196004
 20
-777.71264314873
 11
-705.762032196004
 21
-777.71264314873
  0
LINE
  5
253
100
AcDbEntity
  8
1
  6
CONTINUOUS
 62
           7
100
AcDbLine
 10
-697.574032196004
 20
-777.71264314873
 11
-696.762032196004
 21
-776.90064314873
  0
LINE
  5
252
100
AcDbEntity
  8
1
  6
CONTINUOUS
 62
           7
100
AcDbLine
 10
-697.574032196004
 20
-761.71264314873
 11
-696.762032196004
 21
-762.52464314873
  0
LINE
  5
251
100
AcDbEntity
  8
1
  6
CONTINUOUS
 62
           7
100
AcDbLine
 10
-705.762032196004
 20
-761.71264314873
 11
-697.574032196004
 21
-761.71264314873
  0
LINE
  5
250
100
AcDbEntity
  8
1
  6
CONTINUOUS
 62
           7
100
AcDbLine
 10
-696.762032196004
 20
-769.71264314873
 11
-696.762032196004
 21
-776.90064314873
  0
LINE
  5
24F
100
AcDbEntity
  8
1
  6
CONTINUOUS
 62
           7
100
AcDbLine
 10
-726.762032196004
 20
-780.21264314873
 11
-709.262032196004
 21
-780.21264314873
  0
LINE
  5
24E
100
AcDbEntity
  8
1
  6
CONTINUOUS
 62
           7
100
AcDbLine
 10
-731.762032196004
 20
-764.21264314873
 11
-731.762032196004
 21
-775.21264314873
  0
LINE
  5
24D
100
AcDbEntity
  8
1
  6
CONTINUOUS
 62
           7
100
AcDbLine
 10
-708.762032196004
 20
-779.71264314873
 11
-708.762032196004
 21
-776.75064314873
  0
LINE
  5
24C
100
AcDbEntity
  8
1
  6
CONTINUOUS
 62
           7
100
AcDbLine
 10
-709.262032196004
 20
-780.21264314873
 11
-708.762032196004
 21
-779.71264314873
  0
LINE
  5
24B
100
AcDbEntity
  8
1
  6
CONTINUOUS
 62
           7
100
AcDbLine
 10
-726.762032196004
 20
-780.21264314873
 11
-731.762032196004
 21
-775.21264314873
  0
LINE
  5
24A
100
AcDbEntity
  8
1
  6
CONTINUOUS
 62
           7
100
AcDbLine
 10
-731.762032196004
 20
-764.21264314873
 11
-726.762032196004
 21
-759.21264314873
  0
LINE
  5
249
100
AcDbEntity
  8
1
  6
CONTINUOUS
 62
           7
100
AcDbLine
 10
-725.762032196004
 20
-759.21264314873
 11
-726.762032196004
 21
-759.21264314873
  0
LINE
  5
248
100
AcDbEntity
  8
1
  6
CONTINUOUS
 62
           7
100
AcDbLine
 10
-725.762032196004
 20
-759.21264314873
 11
-709.262032196004
 21
-759.21264314873
  0
LINE
  5
247
100
AcDbEntity
  8
1
  6
CONTINUOUS
 62
           7
100
AcDbLine
 10
-708.762032196004
 20
-762.67464314873
 11
-708.762032196004
 21
-759.71264314873
  0
LINE
  5
246
100
AcDbEntity
  8
1
  6
CONTINUOUS
 62
           7
100
AcDbLine
 10
-708.762032196004
 20
-759.71264314873
 11
-709.262032196004
 21
-759.21264314873
  0
LINE
  5
245
100
AcDbEntity
  8
1
  6
CONTINUOUS
 62
           7
100
AcDbLine
 10
-552.462032196004
 20
-806.344085783998
 11
-557.962032196004
 21
-806.344085783998
  0
LINE
  5
244
100
AcDbEntity
  8
1
  6
CONTINUOUS
 62
           7
100
AcDbLine
 10
-557.962032196004
 20
-813.081200513463
 11
-552.462032196004
 21
-813.081200513463
  0
LINE
  5
243
100
AcDbEntity
  8
1
  6
CONTINUOUS
 62
           7
100
AcDbLine
 10
-552.462032196004
 20
-813.611368004083
 11
-557.962032196004
 21
-813.611368004083
  0
LINE
  5
242
100
AcDbEntity
  8
1
  6
CONTINUOUS
 62
           7
100
AcDbLine
 10
-557.962032196004
 20
-805.813918293378
 11
-552.462032196004
 21
-805.813918293378
  0
LINE
  5
241
100
AcDbEntity
  8
1
  6
CONTINUOUS
 62
           7
100
AcDbLine
 10
-552.462032196004
 20
-800.71264314873
 11
-552.462032196004
 21
-818.71264314873
  0
LINE
  5
240
100
AcDbEntity
  8
1
  6
CONTINUOUS
 62
           7
100
AcDbLine
 10
-557.962032196004
 20
-818.71264314873
 11
-552.462032196004
 21
-818.71264314873
  0
LINE
  5
23F
100
AcDbEntity
  8
1
  6
CONTINUOUS
 62
           7
100
AcDbLine
 10
-552.462032196004
 20
-800.71264314873
 11
-551.462032196004
 21
-801.71264314873
  0
LINE
  5
23E
100
AcDbEntity
  8
1
  6
CONTINUOUS
 62
           7
100
AcDbLine
 10
-551.462032196004
 20
-817.71264314873
 11
-552.462032196004
 21
-818.71264314873
  0
LINE
  5
23D
100
AcDbEntity
  8
1
  6
CONTINUOUS
 62
           7
100
AcDbLine
 10
-551.462032196004
 20
-801.71264314873
 11
-551.462032196004
 21
-817.71264314873
  0
LINE
  5
23C
100
AcDbEntity
  8
1
  6
CONTINUOUS
 62
           7
100
AcDbLine
 10
-552.462032196004
 20
-800.71264314873
 11
-557.962032196004
 21
-800.71264314873
  0
LINE
  5
23B
100
AcDbEntity
  8
1
  6
CONTINUOUS
 62
           7
100
AcDbLine
 10
-550.962032196004
 20
-817.46264314873
 11
-551.462032196004
 21
-817.46264314873
  0
LINE
  5
23A
100
AcDbEntity
  8
1
  6
CONTINUOUS
 62
           7
100
AcDbLine
 10
-550.962032196004
 20
-801.96264314873
 11
-551.462032196004
 21
-801.96264314873
  0
LINE
  5
239
100
AcDbEntity
  8
1
  6
CONTINUOUS
 62
           7
100
AcDbLine
 10
-542.962032196004
 20
-803.46264314873
 11
-542.962032196004
 21
-815.96264314873
  0
LINE
  5
238
100
AcDbEntity
  8
1
  6
CONTINUOUS
 62
           7
100
AcDbLine
 10
-541.962032196004
 20
-815.96264314873
 11
-542.962032196004
 21
-815.96264314873
  0
LINE
  5
237
100
AcDbEntity
  8
1
  6
CONTINUOUS
 62
           7
100
AcDbLine
 10
-541.962032196004
 20
-803.46264314873
 11
-542.962032196004
 21
-803.46264314873
  0
LINE
  5
236
100
AcDbEntity
  8
1
  6
CONTINUOUS
 62
           7
100
AcDbLine
 10
-542.962032196004
 20
-816.71264314873
 11
-542.962032196004
 21
-815.96264314873
  0
LINE
  5
235
100
AcDbEntity
  8
1
  6
CONTINUOUS
 62
           7
100
AcDbLine
 10
-542.962032196004
 20
-802.71264314873
 11
-542.962032196004
 21
-803.46264314873
  0
LINE
  5
234
100
AcDbEntity
  8
1
  6
CONTINUOUS
 62
           7
100
AcDbLine
 10
-549.462032196004
 20
-817.46264314873
 11
-550.962032196004
 21
-817.46264314873
  0
LINE
  5
233
100
AcDbEntity
  8
1
  6
CONTINUOUS
 62
           7
100
AcDbLine
 10
-550.962032196004
 20
-801.96264314873
 11
-549.462032196004
 21
-801.96264314873
  0
LINE
  5
232
100
AcDbEntity
  8
1
  6
CONTINUOUS
 62
           7
100
AcDbLine
 10
-542.962032196004
 20
-816.71264314873
 11
-549.462032196004
 21
-816.71264314873
  0
LINE
  5
231
100
AcDbEntity
  8
1
  6
CONTINUOUS
 62
           7
100
AcDbLine
 10
-541.962032196004
 20
-803.46264314873
 11
-541.962032196004
 21
-815.96264314873
  0
LINE
  5
230
100
AcDbEntity
  8
1
  6
CONTINUOUS
 62
           7
100
AcDbLine
 10
-549.462032196004
 20
-802.71264314873
 11
-542.962032196004
 21
-802.71264314873
  0
LINE
  5
22F
100
AcDbEntity
  8
1
  6
CONTINUOUS
 62
           7
100
AcDbLine
 10
-549.462032196004
 20
-801.96264314873
 11
-549.462032196004
 21
-817.46264314873
  0
LINE
  5
22E
100
AcDbEntity
  8
1
  6
CONTINUOUS
 62
           7
100
AcDbLine
 10
-550.962032196004
 20
-801.96264314873
 11
-550.962032196004
 21
-817.46264314873
  0
LINE
  5
22D
100
AcDbEntity
  8
1
  6
CONTINUOUS
 62
           7
100
AcDbLine
 10
-549.048128609605
 20
-802.71264314873
 11
-549.048128609605
 21
-816.71264314873
  0
LINE
  5
22C
100
AcDbEntity
  8
1
  6
CONTINUOUS
 62
           7
100
AcDbLine
 10
-548.634225023207
 20
-802.71264314873
 11
-548.634225023207
 21
-816.71264314873
  0
LINE
  5
22B
100
AcDbEntity
  8
1
  6
CONTINUOUS
 62
           7
100
AcDbLine
 10
-548.220321436808
 20
-802.71264314873
 11
-548.220321436808
 21
-816.71264314873
  0
LINE
  5
22A
100
AcDbEntity
  8
1
  6
CONTINUOUS
 62
           7
100
AcDbLine
 10
-547.80641785041
 20
-802.71264314873
 11
-547.80641785041
 21
-816.71264314873
  0
LINE
  5
229
100
AcDbEntity
  8
1
  6
CONTINUOUS
 62
           7
100
AcDbLine
 10
-547.392514264011
 20
-802.71264314873
 11
-547.392514264011
 21
-816.71264314873
  0
LINE
  5
228
100
AcDbEntity
  8
1
  6
CONTINUOUS
 62
           7
100
AcDbLine
 10
-546.978610677612
 20
-802.71264314873
 11
-546.978610677612
 21
-816.71264314873
  0
LINE
  5
227
100
AcDbEntity
  8
1
  6
CONTINUOUS
 62
           7
100
AcDbLine
 10
-546.564707091214
 20
-802.71264314873
 11
-546.564707091214
 21
-816.71264314873
  0
LINE
  5
226
100
AcDbEntity
  8
1
  6
CONTINUOUS
 62
           7
100
AcDbLine
 10
-546.150803504815
 20
-802.71264314873
 11
-546.150803504815
 21
-816.71264314873
  0
LINE
  5
225
100
AcDbEntity
  8
1
  6
CONTINUOUS
 62
           7
100
AcDbLine
 10
-545.736899918416
 20
-802.71264314873
 11
-545.736899918416
 21
-816.71264314873
  0
LINE
  5
224
100
AcDbEntity
  8
1
  6
CONTINUOUS
 62
           7
100
AcDbLine
 10
-545.322996332018
 20
-802.71264314873
 11
-545.322996332018
 21
-816.71264314873
  0
LINE
  5
223
100
AcDbEntity
  8
1
  6
CONTINUOUS
 62
           7
100
AcDbLine
 10
-544.909092745619
 20
-802.71264314873
 11
-544.909092745619
 21
-816.71264314873
  0
LINE
  5
222
100
AcDbEntity
  8
1
  6
CONTINUOUS
 62
           7
100
AcDbLine
 10
-544.49518915922
 20
-802.71264314873
 11
-544.49518915922
 21
-816.71264314873
  0
LINE
  5
221
100
AcDbEntity
  8
1
  6
CONTINUOUS
 62
           7
100
AcDbLine
 10
-544.081285572822
 20
-802.71264314873
 11
-544.081285572822
 21
-816.71264314873
  0
LINE
  5
220
100
AcDbEntity
  8
1
  6
CONTINUOUS
 62
           7
100
AcDbLine
 10
-543.667381986423
 20
-802.71264314873
 11
-543.667381986423
 21
-816.71264314873
  0
LINE
  5
21F
100
AcDbEntity
  8
1
  6
CONTINUOUS
 62
           7
100
AcDbLine
 10
-543.253478400025
 20
-802.71264314873
 11
-543.253478400025
 21
-816.71264314873
  0
LINE
  5
21E
100
AcDbEntity
  8
1
  6
CONTINUOUS
 62
           7
100
AcDbLine
 10
-564.964554896655
 20
-823.712643148727
 11
-562.272032196021
 21
-823.712643148727
  0
LINE
  5
21D
100
AcDbEntity
  8
1
  6
CONTINUOUS
 62
           7
100
AcDbLine
 10
-591.562032195997
 20
-793.13264314873
 11
-579.637084151405
 21
-793.13264314873
  0
LINE
  5
21C
100
AcDbEntity
  8
1
  6
CONTINUOUS
 62
           7
100
AcDbLine
 10
-579.637084151405
 20
-793.13264314873
 11
-579.637084151405
 21
-781.33264314873
  0
LINE
  5
21B
100
AcDbEntity
  8
1
  6
CONTINUOUS
 62
           7
100
AcDbLine
 10
-579.637084151405
 20
-781.33264314873
 11
-591.562032195997
 21
-781.33264314873
  0
LINE
  5
21A
100
AcDbEntity
  8
1
  6
CONTINUOUS
 62
           7
100
AcDbLine
 10
-577.637084151405
 20
-792.23264314873
 11
-579.637084151405
 21
-792.23264314873
  0
LINE
  5
219
100
AcDbEntity
  8
1
  6
CONTINUOUS
 62
           7
100
AcDbLine
 10
-577.637084151405
 20
-793.23264314873
 11
-577.637084151405
 21
-792.23264314873
  0
LINE
  5
218
100
AcDbEntity
  8
1
  6
CONTINUOUS
 62
           7
100
AcDbLine
 10
-576.137084151405
 20
-793.23264314873
 11
-577.637084151405
 21
-793.23264314873
  0
LINE
  5
217
100
AcDbEntity
  8
1
  6
CONTINUOUS
 62
           7
100
AcDbLine
 10
-576.137084151405
 20
-787.23264314873
 11
-576.137084151405
 21
-793.23264314873
  0
LINE
  5
216
100
AcDbEntity
  8
1
  6
CONTINUOUS
 62
           7
100
AcDbLine
 10
-579.637084151405
 20
-782.23264314873
 11
-577.637084151405
 21
-782.23264314873
  0
LINE
  5
215
100
AcDbEntity
  8
1
  6
CONTINUOUS
 62
           7
100
AcDbLine
 10
-577.637084151405
 20
-782.23264314873
 11
-577.637084151405
 21
-781.23264314873
  0
LINE
  5
214
100
AcDbEntity
  8
1
  6
CONTINUOUS
 62
           7
100
AcDbLine
 10
-577.637084151405
 20
-781.23264314873
 11
-576.137084151405
 21
-781.23264314873
  0
LINE
  5
213
100
AcDbEntity
  8
1
  6
CONTINUOUS
 62
           7
100
AcDbLine
 10
-576.137084151405
 20
-781.23264314873
 11
-576.137084151405
 21
-787.23264314873
  0
LINE
  5
212
100
AcDbEntity
  8
1
  6
CONTINUOUS
 62
           7
100
AcDbLine
 10
-577.637084151405
 20
-792.23264314873
 11
-577.637084151405
 21
-782.23264314873
  0
LINE
  5
211
100
AcDbEntity
  8
1
  6
CONTINUOUS
 62
           7
100
AcDbLine
 10
-576.137084151405
 20
-784.23264314873
 11
-571.202674978143
 21
-784.23264314873
  0
LINE
  5
210
100
AcDbEntity
  8
1
  6
CONTINUOUS
 62
           7
100
AcDbLine
 10
-571.202674978143
 20
-790.23264314873
 11
-576.137084151405
 21
-790.23264314873
  0
LINE
  5
20F
100
AcDbEntity
  8
1
  6
CONTINUOUS
 62
           7
100
AcDbLine
 10
-758.454862087176
 20
-791.712643148731
 11
-754.796923613894
 21
-791.712643148731
  0
LINE
  5
20E
100
AcDbEntity
  8
1
  6
CONTINUOUS
 62
           2
100
AcDbLine
 10
-758.454862087176
 20
-792.453379683482
 11
-755.262032196004
 21
-791.71264314873
  0
LINE
  5
20D
100
AcDbEntity
  8
1
  6
CONTINUOUS
 62
           7
100
AcDbLine
 10
-704.962032196
 20
-831.21264314873
 11
-704.962032196
 21
-788.21264314873
  0
LINE
  5
20C
100
AcDbEntity
  8
1
  6
CONTINUOUS
 62
           7
100
AcDbLine
 10
-706.694083003574
 20
-788.21264314873
 11
-706.694083003574
 21
-831.21264314873
  0
LINE
  5
20B
100
AcDbEntity
  8
1
  6
CONTINUOUS
 62
           2
100
AcDbLine
 10
-752.865071961316
 20
-829.195005058526
 11
-752.865071961316
 21
-790.230281238938
  0
LINE
  5
20A
100
AcDbEntity
  8
1
  6
CONTINUOUS
 62
           2
100
AcDbLine
 10
-754.796923613894
 20
-791.712643148731
 11
-754.796923613894
 21
-827.712643148731
  0
LINE
  5
209
100
AcDbEntity
  8
1
  6
CONTINUOUS
 62
           7
100
AcDbLine
 10
-755.262032196004
 20
-827.712643148731
 11
-755.262032196004
 21
-791.71264314873
  0
LINE
  5
208
100
AcDbEntity
  8
1
  6
CONTINUOUS
 62
           2
100
AcDbLine
 10
-745.406396811575
 20
-831.21264314873
 11
-745.406396811575
 21
-788.21264314873
  0
LINE
  5
207
100
AcDbEntity
  8
1
  6
CONTINUOUS
 62
           7
100
AcDbLine
 10
-752.865071961316
 20
-790.230281238938
 11
-752.324447464427
 21
-788.21264314873
  0
LINE
  5
206
100
AcDbEntity
  8
1
  6
CONTINUOUS
 62
           2
100
AcDbLine
 10
-755.262032196004
 20
-827.712643148731
 11
-758.454862087176
 21
-826.97190661398
  0
LINE
  5
205
100
AcDbEntity
  8
1
  6
CONTINUOUS
 62
           7
100
AcDbLine
 10
-752.324447464428
 20
-831.21264314873
 11
-752.865071961316
 21
-829.195005058526
  0
LINE
  5
204
100
AcDbEntity
  8
1
  6
CONTINUOUS
 62
           7
100
AcDbLine
 10
-754.796923613894
 20
-827.712643148731
 11
-758.454862087176
 21
-827.712643148731
  0
LINE
  5
203
100
AcDbEntity
  8
1
  6
CONTINUOUS
 62
           7
100
AcDbLine
 10
-653.331746646258
 20
-836.712643148731
 11
-642.262032196004
 21
-836.71264314873
  0
LINE
  5
202
100
AcDbEntity
  8
1
  6
CONTINUOUS
 62
           7
100
AcDbLine
 10
-642.262032196004
 20
-782.71264314873
 11
-653.331746646258
 21
-782.71264314873
  0
LINE
  5
201
100
AcDbEntity
  8
1
  6
CONTINUOUS
 62
           7
100
AcDbLine
 10
-662.262032196004
 20
-831.21264314873
 11
-752.324447464428
 21
-831.21264314873
  0
LINE
  5
200
100
AcDbEntity
  8
1
  6
CONTINUOUS
 62
           7
100
AcDbLine
 10
-752.324447464427
 20
-788.21264314873
 11
-662.262032196004
 21
-788.21264314873
  0
LINE
  5
1FF
100
AcDbEntity
  8
1
  6
CONTINUOUS
 62
           7
100
AcDbLine
 10
-642.262032196004
 20
-782.71264314873
 11
-642.262032196004
 21
-809.71264314873
  0
LINE
  5
1FE
100
AcDbEntity
  8
1
  6
CONTINUOUS
 62
           7
100
AcDbLine
 10
-642.262032196004
 20
-789.406143148731
 11
-642.262032196004
 21
-792.76264314873
  0
LINE
  5
1FD
100
AcDbEntity
  8
1
  6
CONTINUOUS
 62
           7
100
AcDbLine
 10
-642.262032196004
 20
-809.71264314873
 11
-642.262032196004
 21
-836.71264314873
  0
LINE
  5
1FC
100
AcDbEntity
  8
1
  6
CONTINUOUS
 62
           7
100
AcDbLine
 10
-785.854862087175
 20
-802.123966034399
 11
-784.592439941544
 21
-802.71264314873
  0
LINE
  5
1FB
100
AcDbEntity
  8
1
  6
CONTINUOUS
 62
           7
100
AcDbLine
 10
-788.104862087175
 20
-801.074773803549
 11
-785.854862087175
 21
-802.123966034399
  0
LINE
  5
1FA
100
AcDbEntity
  8
1
  6
DOT_CENTER
 62
           2
100
AcDbLine
 10
-793.640597310341
 20
-809.71264314873
 11
-539.98709318633
 21
-809.71264314873
  0
LINE
  5
1F9
100
AcDbEntity
  8
1
  6
CONTINUOUS
 62
           7
100
AcDbLine
 10
-791.063580826018
 20
-819.730185700159
 11
-791.754862087175
 21
-821.21264314873
  0
LINE
  5
1F8
100
AcDbEntity
  8
1
  6
CONTINUOUS
 62
           7
100
AcDbLine
 10
-791.754862087175
 20
-798.21264314873
 11
-791.063580826018
 21
-799.695100597301
  0
LINE
  5
1F7
100
AcDbEntity
  8
1
  6
CONTINUOUS
 62
           7
100
AcDbLine
 10
-775.354862087175
 20
-825.21264314873
 11
-791.254862087175
 21
-825.21264314873
  0
LINE
  5
1F6
100
AcDbEntity
  8
1
  6
CONTINUOUS
 62
           7
100
AcDbLine
 10
-784.592439941544
 20
-816.71264314873
 11
-791.063580826018
 21
-819.730185700159
  0
LINE
  5
1F5
100
AcDbEntity
  8
1
  6
CONTINUOUS
 62
           6
100
AcDbLine
 10
-791.063580826018
 20
-819.730185700159
 11
-791.754862087175
 21
-820.052535446177
  0
LINE
  5
1F4
100
AcDbEntity
  8
1
  6
CONTINUOUS
 62
           7
100
AcDbLine
 10
-791.754862087175
 20
-824.71264314873
 11
-791.754862087175
 21
-821.21264314873
  0
LINE
  5
1F3
100
AcDbEntity
  8
1
  6
CONTINUOUS
 62
           6
100
AcDbLine
 10
-791.754862087175
 20
-820.052535446177
 11
-791.754862087175
 21
-821.21264314873
  0
LINE
  5
1F2
100
AcDbEntity
  8
1
  6
CONTINUOUS
 62
           7
100
AcDbLine
 10
-782.554948392537
 20
-816.71264314873
 11
-784.592439941544
 21
-816.71264314873
  0
LINE
  5
1F1
100
AcDbEntity
  8
1
  6
CONTINUOUS
 62
           7
100
AcDbLine
 10
-791.254862087175
 20
-794.21264314873
 11
-775.354862087175
 21
-794.212643148731
  0
LINE
  5
1F0
100
AcDbEntity
  8
1
  6
CONTINUOUS
 62
           7
100
AcDbLine
 10
-791.063580826018
 20
-799.695100597301
 11
-788.104862087175
 21
-801.074773803549
  0
LINE
  5
1EF
100
AcDbEntity
  8
1
  6
CONTINUOUS
 62
           6
100
AcDbLine
 10
-791.754862087175
 20
-799.372750851286
 11
-791.063580826018
 21
-799.695100597301
  0
LINE
  5
1EE
100
AcDbEntity
  8
1
  6
CONTINUOUS
 62
           7
100
AcDbLine
 10
-791.754862087175
 20
-798.21264314873
 11
-791.754862087175
 21
-794.71264314873
  0
LINE
  5
1ED
100
AcDbEntity
  8
1
  6
CONTINUOUS
 62
           7
100
AcDbLine
 10
-782.254862087175
 20
-809.71264314873
 11
-782.254862087175
 21
-806.862643148731
  0
LINE
  5
1EC
100
AcDbEntity
  8
1
  6
CONTINUOUS
 62
           6
100
AcDbLine
 10
-791.754862087175
 20
-798.21264314873
 11
-791.754862087175
 21
-799.372750851286
  0
LINE
  5
1EB
100
AcDbEntity
  8
1
  6
CONTINUOUS
 62
           7
100
AcDbLine
 10
-781.154368863636
 20
-804.270043584484
 11
-781.054948392538
 21
-804.212643148731
  0
LINE
  5
1EA
100
AcDbEntity
  8
1
  6
CONTINUOUS
 62
           7
100
AcDbLine
 10
-784.592439941544
 20
-802.71264314873
 11
-782.554948392537
 21
-802.712643148731
  0
LINE
  5
1E9
100
AcDbEntity
  8
1
  6
CONTINUOUS
 62
           7
100
AcDbLine
 10
-782.254862087175
 20
-806.862643148731
 11
-781.154368863636
 21
-804.270043584484
  0
LINE
  5
1E8
100
AcDbEntity
  8
1
  6
CONTINUOUS
 62
           7
100
AcDbLine
 10
-782.254862087175
 20
-812.562643148732
 11
-782.254862087175
 21
-809.71264314873
  0
LINE
  5
1E7
100
AcDbEntity
  8
1
  6
CONTINUOUS
 62
           7
100
AcDbLine
 10
-781.055136903655
 20
-815.188862950751
 11
-781.167678581449
 21
-815.12388698278
  0
LINE
  5
1E6
100
AcDbEntity
  8
1
  6
CONTINUOUS
 62
           7
100
AcDbLine
 10
-781.167678581449
 20
-815.12388698278
 11
-782.254862087175
 21
-812.562643148732
  0
LINE
  5
1E5
100
AcDbEntity
  8
1
  6
CONTINUOUS
 62
           7
100
AcDbLine
 10
-791.754862087175
 20
-794.71264314873
 11
-791.254862087175
 21
-794.21264314873
  0
LINE
  5
1E4
100
AcDbEntity
  8
1
  6
CONTINUOUS
 62
           7
100
AcDbLine
 10
-791.754862087175
 20
-824.71264314873
 11
-791.254862087175
 21
-825.21264314873
  0
LINE
  5
1E3
100
AcDbEntity
  8
1
  6
CONTINUOUS
 62
           7
100
AcDbLine
 10
-775.354862087175
 20
-794.212643148731
 11
-775.354862087175
 21
-825.21264314873
  0
LINE
  5
1E2
100
AcDbEntity
  8
1
  6
CONTINUOUS
 62
           7
100
AcDbLine
 10
-758.454862087176
 20
-829.428025854655
 11
-773.054862087175
 21
-829.428025854655
  0
LINE
  5
1E1
100
AcDbEntity
  8
1
  6
CONTINUOUS
 62
           7
100
AcDbLine
 10
-758.454862087176
 20
-829.050018664487
 11
-773.054862087175
 21
-829.050018664487
  0
LINE
  5
1E0
100
AcDbEntity
  8
1
  6
CONTINUOUS
 62
           7
100
AcDbLine
 10
-758.454862087176
 20
-828.524842370417
 11
-773.054862087175
 21
-828.524842370417
  0
LINE
  5
1DF
100
AcDbEntity
  8
1
  6
CONTINUOUS
 62
           7
100
AcDbLine
 10
-758.454862087176
 20
-827.713376582224
 11
-773.054862087175
 21
-827.713376582224
  0
LINE
  5
1DE
100
AcDbEntity
  8
1
  6
CONTINUOUS
 62
           7
100
AcDbLine
 10
-758.454862087176
 20
-827.05005973226
 11
-773.054862087175
 21
-827.05005973226
  0
LINE
  5
1DD
100
AcDbEntity
  8
1
  6
CONTINUOUS
 62
           7
100
AcDbLine
 10
-758.454862087176
 20
-826.111677374548
 11
-773.054862087175
 21
-826.111677374548
  0
LINE
  5
1DC
100
AcDbEntity
  8
1
  6
CONTINUOUS
 62
           7
100
AcDbLine
 10
-758.454862087176
 20
-825.048488464369
 11
-773.054862087175
 21
-825.048488464369
  0
LINE
  5
1DB
100
AcDbEntity
  8
1
  6
CONTINUOUS
 62
           7
100
AcDbLine
 10
-758.454862087176
 20
-823.651466547222
 11
-773.054862087175
 21
-823.651466547222
  0
LINE
  5
1DA
100
AcDbEntity
  8
1
  6
CONTINUOUS
 62
           7
100
AcDbLine
 10
-758.454862087176
 20
-822.580945296875
 11
-773.054862087175
 21
-822.580945296875
  0
LINE
  5
1D9
100
AcDbEntity
  8
1
  6
CONTINUOUS
 62
           7
100
AcDbLine
 10
-758.454862087176
 20
-821.195370533007
 11
-773.054862087175
 21
-821.195370533007
  0
LINE
  5
1D8
100
AcDbEntity
  8
1
  6
CONTINUOUS
 62
           7
100
AcDbLine
 10
-758.288852538993
 20
-819.722405280284
 11
-773.054862087175
 21
-819.722405280284
  0
LINE
  5
1D7
100
AcDbEntity
  8
1
  6
CONTINUOUS
 62
           7
100
AcDbLine
 10
-758.454862087176
 20
-818.173259693681
 11
-773.054862087175
 21
-818.173259693681
  0
LINE
  5
1D6
100
AcDbEntity
  8
1
  6
CONTINUOUS
 62
           7
100
AcDbLine
 10
-758.754862087176
 20
-816.456025383384
 11
-773.054862087175
 21
-816.456025383384
  0
LINE
  5
1D5
100
AcDbEntity
  8
1
  6
CONTINUOUS
 62
           7
100
AcDbLine
 10
-758.454862087176
 20
-814.894077301915
 11
-773.054862087175
 21
-814.894077301915
  0
LINE
  5
1D4
100
AcDbEntity
  8
1
  6
CONTINUOUS
 62
           7
100
AcDbLine
 10
-758.454862087176
 20
-813.188997054778
 11
-773.054862087175
 21
-813.188997054778
  0
LINE
  5
1D3
100
AcDbEntity
  8
1
  6
CONTINUOUS
 62
           7
100
AcDbLine
 10
-758.454862087176
 20
-811.457459655336
 11
-773.054862087175
 21
-811.457459655336
  0
LINE
  5
1D2
100
AcDbEntity
  8
1
  6
CONTINUOUS
 62
           7
100
AcDbLine
 10
-758.754862087176
 20
-829.71264314873
 11
-758.454862087176
 21
-829.41264314873
  0
LINE
  5
1D1
100
AcDbEntity
  8
1
  6
CONTINUOUS
 62
           7
100
AcDbLine
 10
-773.354862087175
 20
-829.41264314873
 11
-773.054862087175
 21
-829.71264314873
  0
LINE
  5
1D0
100
AcDbEntity
  8
1
  6
CONTINUOUS
 62
           7
100
AcDbLine
 10
-773.054862087175
 20
-829.71264314873
 11
-758.754862087176
 21
-829.71264314873
  0
LINE
  5
1CF
100
AcDbEntity
  8
1
  6
CONTINUOUS
 62
           7
100
AcDbLine
 10
-773.354862087175
 20
-829.41264314873
 11
-773.354862087175
 21
-829.36264314873
  0
LINE
  5
1CE
100
AcDbEntity
  8
1
  6
CONTINUOUS
 62
           7
100
AcDbLine
 10
-773.054862087175
 20
-789.997260442806
 11
-758.454862087176
 21
-789.997260442806
  0
LINE
  5
1CD
100
AcDbEntity
  8
1
  6
CONTINUOUS
 62
           7
100
AcDbLine
 10
-773.054862087175
 20
-790.375267632974
 11
-758.454862087176
 21
-790.375267632974
  0
LINE
  5
1CC
100
AcDbEntity
  8
1
  6
CONTINUOUS
 62
           7
100
AcDbLine
 10
-773.054862087175
 20
-790.900443927044
 11
-758.454862087176
 21
-790.900443927044
  0
LINE
  5
1CB
100
AcDbEntity
  8
1
  6
CONTINUOUS
 62
           7
100
AcDbLine
 10
-773.054862087175
 20
-791.711909715237
 11
-758.454862087176
 21
-791.711909715237
  0
LINE
  5
1CA
100
AcDbEntity
  8
1
  6
CONTINUOUS
 62
           7
100
AcDbLine
 10
-773.054862087175
 20
-792.3752265652
 11
-758.454862087176
 21
-792.3752265652
  0
LINE
  5
1C9
100
AcDbEntity
  8
1
  6
CONTINUOUS
 62
           7
100
AcDbLine
 10
-773.054862087175
 20
-793.313608922913
 11
-758.454862087176
 21
-793.313608922913
  0
LINE
  5
1C8
100
AcDbEntity
  8
1
  6
CONTINUOUS
 62
           7
100
AcDbLine
 10
-773.054862087175
 20
-794.376797833091
 11
-758.454862087176
 21
-794.376797833091
  0
LINE
  5
1C7
100
AcDbEntity
  8
1
  6
CONTINUOUS
 62
           7
100
AcDbLine
 10
-773.054862087175
 20
-795.773819750239
 11
-758.454862087176
 21
-795.773819750239
  0
LINE
  5
1C6
100
AcDbEntity
  8
1
  6
CONTINUOUS
 62
           7
100
AcDbLine
 10
-773.054862087175
 20
-796.844341000586
 11
-758.454862087176
 21
-796.844341000586
  0
LINE
  5
1C5
100
AcDbEntity
  8
1
  6
CONTINUOUS
 62
           7
100
AcDbLine
 10
-773.054862087175
 20
-798.229915764454
 11
-758.454862087176
 21
-798.229915764454
  0
LINE
  5
1C4
100
AcDbEntity
  8
1
  6
CONTINUOUS
 62
           7
100
AcDbLine
 10
-773.054862087175
 20
-799.702881017177
 11
-758.288852538993
 21
-799.702881017177
  0
LINE
  5
1C3
100
AcDbEntity
  8
1
  6
CONTINUOUS
 62
           7
100
AcDbLine
 10
-773.054862087175
 20
-801.25202660378
 11
-758.454862087176
 21
-801.25202660378
  0
LINE
  5
1C2
100
AcDbEntity
  8
1
  6
CONTINUOUS
 62
           7
100
AcDbLine
 10
-773.054862087175
 20
-802.969260914076
 11
-758.754862087176
 21
-802.969260914076
  0
LINE
  5
1C1
100
AcDbEntity
  8
1
  6
CONTINUOUS
 62
           7
100
AcDbLine
 10
-773.054862087175
 20
-804.531208995546
 11
-758.454862087176
 21
-804.531208995546
  0
LINE
  5
1C0
100
AcDbEntity
  8
1
  6
CONTINUOUS
 62
           7
100
AcDbLine
 10
-773.054862087175
 20
-806.236289242683
 11
-758.454862087176
 21
-806.236289242683
  0
LINE
  5
1BF
100
AcDbEntity
  8
1
  6
CONTINUOUS
 62
           7
100
AcDbLine
 10
-758.454862087176
 20
-809.71264314873
 11
-773.054862087175
 21
-809.71264314873
  0
LINE
  5
1BE
100
AcDbEntity
  8
1
  6
CONTINUOUS
 62
           7
100
AcDbLine
 10
-773.054862087175
 20
-807.967826642124
 11
-758.454862087176
 21
-807.967826642124
  0
LINE
  5
1BD
100
AcDbEntity
  8
1
  6
CONTINUOUS
 62
           7
100
AcDbLine
 10
-758.754862087176
 20
-829.71264314873
 11
-758.454862087176
 21
-829.41264314873
  0
LINE
  5
1BC
100
AcDbEntity
  8
1
  6
CONTINUOUS
 62
           7
100
AcDbLine
 10
-773.354862087175
 20
-829.41264314873
 11
-773.054862087175
 21
-829.71264314873
  0
LINE
  5
1BB
100
AcDbEntity
  8
1
  6
DOT_CENTER
 62
           2
100
AcDbLine
 10
-758.454862087176
 20
-809.71264314873
 11
-774.554862087175
 21
-809.71264314873
  0
LINE
  5
1BA
100
AcDbEntity
  8
1
  6
CONTINUOUS
 62
           7
100
AcDbLine
 10
-758.454862087176
 20
-809.71264314873
 11
-758.454862087176
 21
-829.41264314873
  0
LINE
  5
1B9
100
AcDbEntity
  8
1
  6
CONTINUOUS
 62
           7
100
AcDbLine
 10
-773.054862087175
 20
-829.71264314873
 11
-758.754862087176
 21
-829.71264314873
  0
LINE
  5
1B8
100
AcDbEntity
  8
1
  6
CONTINUOUS
 62
           7
100
AcDbLine
 10
-775.354862087175
 20
-827.36264314873
 11
-775.354862087175
 21
-809.71264314873
  0
LINE
  5
1B7
100
AcDbEntity
  8
1
  6
CONTINUOUS
 62
           7
100
AcDbLine
 10
-773.354862087175
 20
-829.41264314873
 11
-773.354862087175
 21
-829.36264314873
  0
LINE
  5
1B6
100
AcDbEntity
  8
1
  6
CONTINUOUS
 62
           7
100
AcDbLine
 10
-758.454862087176
 20
-790.012643148731
 11
-758.754862087176
 21
-789.712643148731
  0
LINE
  5
1B5
100
AcDbEntity
  8
1
  6
CONTINUOUS
 62
           7
100
AcDbLine
 10
-773.054862087175
 20
-789.712643148731
 11
-773.354862087175
 21
-790.012643148731
  0
LINE
  5
1B4
100
AcDbEntity
  8
1
  6
CONTINUOUS
 62
           7
100
AcDbLine
 10
-758.454862087176
 20
-790.012643148731
 11
-758.454862087176
 21
-809.71264314873
  0
LINE
  5
1B3
100
AcDbEntity
  8
1
  6
CONTINUOUS
 62
           7
100
AcDbLine
 10
-758.754862087176
 20
-789.712643148731
 11
-773.054862087175
 21
-789.712643148731
  0
LINE
  5
1B2
100
AcDbEntity
  8
1
  6
CONTINUOUS
 62
           7
100
AcDbLine
 10
-775.354862087175
 20
-809.71264314873
 11
-775.354862087175
 21
-792.06264314873
  0
LINE
  5
1B1
100
AcDbEntity
  8
1
  6
CONTINUOUS
 62
           7
100
AcDbLine
 10
-773.354862087175
 20
-790.06264314873
 11
-773.354862087175
 21
-790.012643148731
  0
LINE
  5
1B0
100
AcDbEntity
  8
1
  6
CONTINUOUS
 62
           7
100
AcDbLine
 10
-773.354862087175
 20
-790.06264314873
 11
-773.354862087175
 21
-829.36264314873
  0
LINE
  5
1AF
100
AcDbEntity
  8
1
  6
CONTINUOUS
 62
           7
100
AcDbLine
 10
-773.054862087175
 20
-829.71264314873
 11
-773.054862087175
 21
-789.712643148731
  0
LINE
  5
1AE
100
AcDbEntity
  8
1
  6
CONTINUOUS
 62
           7
100
AcDbLine
 10
-758.754862087176
 20
-789.712643148731
 11
-758.754862087176
 21
-829.71264314873
  0
LINE
  5
1AD
100
AcDbEntity
  8
1
  6
CONTINUOUS
 62
           7
100
AcDbLine
 10
-575.272032196031
 20
-790.23264314873
 11
-575.272032196031
 21
-796.01264314873
  0
LINE
  5
1AC
100
AcDbEntity
  8
1
  6
CONTINUOUS
 62
           2
100
AcDbLine
 10
-576.137084151405
 20
-783.025183941921
 11
-575.272032196031
 21
-782.721189490741
  0
LINE
  5
1AB
100
AcDbEntity
  8
1
  6
CONTINUOUS
 62
           7
100
AcDbLine
 10
-576.562032196031
 20
-793.23264314873
 11
-576.562032196031
 21
-795.70676814873
  0
LINE
  5
1AA
100
AcDbEntity
  8
1
  6
CONTINUOUS
 62
           2
100
AcDbLine
 10
-577.262032196005
 20
-794.828893148732
 11
-576.562032196031
 21
-794.850768148731
  0
LINE
  5
1A9
100
AcDbEntity
  8
1
  6
CONTINUOUS
 62
           7
100
AcDbLine
 10
-577.262032196005
 20
-795.684893148731
 11
-576.562032196031
 21
-795.70676814873
  0
LINE
  5
1A8
100
AcDbEntity
  8
1
  6
CONTINUOUS
 62
           7
100
AcDbLine
 10
-575.272032196031
 20
-796.01264314873
 11
-564.964554896655
 21
-796.01264314873
  0
LINE
  5
1A7
100
AcDbEntity
  8
1
  6
CONTINUOUS
 62
           7
100
AcDbLine
 10
-564.964554896655
 20
-782.01264314873
 11
-575.272032196031
 21
-782.01264314873
  0
LINE
  5
1A6
100
AcDbEntity
  8
1
  6
CONTINUOUS
 62
           7
100
AcDbLine
 10
-575.272032196031
 20
-782.01264314873
 11
-575.272032196031
 21
-784.23264314873
  0
LINE
  5
1A5
100
AcDbEntity
  8
1
  6
CONTINUOUS
 62
           7
100
AcDbLine
 10
-564.964554896655
 20
-796.01264314873
 11
-564.964554896655
 21
-795.01264314873
  0
LINE
  5
1A4
100
AcDbEntity
  8
1
  6
CONTINUOUS
 62
           7
100
AcDbLine
 10
-564.964554896655
 20
-795.01264314873
 11
-562.272032196021
 21
-795.01264314873
  0
LINE
  5
1A3
100
AcDbEntity
  8
1
  6
CONTINUOUS
 62
           7
100
AcDbLine
 10
-562.272032196021
 20
-795.01264314873
 11
-562.272032196021
 21
-796.01264314873
  0
LINE
  5
1A2
100
AcDbEntity
  8
1
  6
CONTINUOUS
 62
           7
100
AcDbLine
 10
-562.272032196021
 20
-796.01264314873
 11
-560.772032196021
 21
-796.01264314873
  0
LINE
  5
1A1
100
AcDbEntity
  8
1
  6
CONTINUOUS
 62
           7
100
AcDbLine
 10
-560.772032196021
 20
-796.01264314873
 11
-560.772032196021
 21
-789.01264314873
  0
LINE
  5
1A0
100
AcDbEntity
  8
1
  6
CONTINUOUS
 62
           7
100
AcDbLine
 10
-564.964554896655
 20
-783.01264314873
 11
-564.964554896655
 21
-782.01264314873
  0
LINE
  5
19F
100
AcDbEntity
  8
1
  6
CONTINUOUS
 62
           7
100
AcDbLine
 10
-562.272032196021
 20
-783.01264314873
 11
-564.964554896655
 21
-783.01264314873
  0
LINE
  5
19E
100
AcDbEntity
  8
1
  6
CONTINUOUS
 62
           7
100
AcDbLine
 10
-562.272032196021
 20
-782.01264314873
 11
-562.272032196021
 21
-783.01264314873
  0
LINE
  5
19D
100
AcDbEntity
  8
1
  6
CONTINUOUS
 62
           7
100
AcDbLine
 10
-560.772032196021
 20
-782.01264314873
 11
-562.272032196021
 21
-782.01264314873
  0
LINE
  5
19C
100
AcDbEntity
  8
1
  6
CONTINUOUS
 62
           7
100
AcDbLine
 10
-560.772032196021
 20
-789.01264314873
 11
-560.772032196021
 21
-782.01264314873
  0
LINE
  5
19B
100
AcDbEntity
  8
1
  6
CONTINUOUS
 62
           7
100
AcDbLine
 10
-562.272032196021
 20
-795.01264314873
 11
-562.272032196021
 21
-783.01264314873
  0
LINE
  5
19A
100
AcDbEntity
  8
1
  6
CONTINUOUS
 62
           7
100
AcDbLine
 10
-564.964554896655
 20
-782.01264314873
 11
-564.964554896655
 21
-796.01264314873
  0
LINE
  5
199
100
AcDbEntity
  8
1
  6
CONTINUOUS
 62
           2
100
AcDbLine
 10
-576.562032196031
 20
-794.850768148731
 11
-575.272032196031
 21
-795.30409680672
  0
LINE
  5
198
100
AcDbEntity
  8
1
  6
CONTINUOUS
 62
           7
100
AcDbLine
 10
-576.562032196031
 20
-795.70676814873
 11
-575.272032196031
 21
-795.747080648731
  0
LINE
  5
197
100
AcDbEntity
  8
1
  6
CONTINUOUS
 62
           7
100
AcDbLine
 10
-575.272032196031
 20
-782.278205648731
 11
-576.137084151405
 21
-782.305238522336
  0
LINE
  5
196
100
AcDbEntity
  8
1
  6
CONTINUOUS
 62
           7
100
AcDbLine
 10
-576.562032196031
 20
-837.106768148731
 11
-575.272032196031
 21
-837.14708064873
  0
LINE
  5
195
100
AcDbEntity
  8
1
  6
CONTINUOUS
 62
           7
100
AcDbLine
 10
-575.272032196031
 20
-823.67820564873
 11
-576.562032196031
 21
-823.718518148731
  0
LINE
  5
194
100
AcDbEntity
  8
1
  6
CONTINUOUS
 62
           7
100
AcDbLine
 10
-576.562032196031
 20
-823.718518148731
 11
-576.562032196031
 21
-830.412643148731
  0
LINE
  5
193
100
AcDbEntity
  8
1
  6
CONTINUOUS
 62
           2
100
AcDbLine
 10
-575.272032196031
 20
-824.121189490741
 11
-576.562032196031
 21
-824.57451814873
  0
LINE
  5
192
100
AcDbEntity
  8
1
  6
CONTINUOUS
 62
           2
100
AcDbLine
 10
-575.272032196031
 20
-836.70409680672
 11
-576.562032196031
 21
-836.25076814873
  0
LINE
  5
191
100
AcDbEntity
  8
1
  6
CONTINUOUS
 62
           2
100
AcDbLine
 10
-576.562032196031
 20
-824.57451814873
 11
-577.262032196005
 21
-824.596393148729
  0
LINE
  5
190
100
AcDbEntity
  8
1
  6
CONTINUOUS
 62
           7
100
AcDbLine
 10
-576.562032196031
 20
-823.718518148731
 11
-577.262032196005
 21
-823.74039314873
  0
LINE
  5
18F
100
AcDbEntity
  8
1
  6
CONTINUOUS
 62
           2
100
AcDbLine
 10
-576.562032196031
 20
-836.25076814873
 11
-577.262032196005
 21
-836.228893148731
  0
LINE
  5
18E
100
AcDbEntity
  8
1
  6
CONTINUOUS
 62
           7
100
AcDbLine
 10
-576.562032196031
 20
-837.106768148731
 11
-577.262032196005
 21
-837.084893148731
  0
LINE
  5
18D
100
AcDbEntity
  8
1
  6
CONTINUOUS
 62
           7
100
AcDbLine
 10
-576.562032196031
 20
-837.106768148731
 11
-576.562032196031
 21
-830.412643148731
  0
LINE
  5
18C
100
AcDbEntity
  8
1
  6
CONTINUOUS
 62
           7
100
AcDbLine
 10
-564.964554896655
 20
-823.412643148731
 11
-564.964554896655
 21
-837.412643148731
  0
LINE
  5
18B
100
AcDbEntity
  8
1
  6
CONTINUOUS
 62
           7
100
AcDbLine
 10
-562.272032196021
 20
-836.412643148731
 11
-562.272032196021
 21
-824.412643148731
  0
LINE
  5
18A
100
AcDbEntity
  8
1
  6
CONTINUOUS
 62
           7
100
AcDbLine
 10
-560.772032196021
 20
-837.412643148731
 11
-560.772032196021
 21
-830.412643148731
  0
LINE
  5
189
100
AcDbEntity
  8
1
  6
CONTINUOUS
 62
           7
100
AcDbLine
 10
-562.272032196021
 20
-837.412643148731
 11
-560.772032196021
 21
-837.412643148731
  0
LINE
  5
188
100
AcDbEntity
  8
1
  6
CONTINUOUS
 62
           7
100
AcDbLine
 10
-562.272032196021
 20
-836.412643148731
 11
-562.272032196021
 21
-837.412643148731
  0
LINE
  5
187
100
AcDbEntity
  8
1
  6
CONTINUOUS
 62
           7
100
AcDbLine
 10
-564.964554896655
 20
-836.412643148731
 11
-562.272032196021
 21
-836.412643148731
  0
LINE
  5
186
100
AcDbEntity
  8
1
  6
CONTINUOUS
 62
           7
100
AcDbLine
 10
-564.964554896655
 20
-837.412643148731
 11
-564.964554896655
 21
-836.412643148731
  0
LINE
  5
185
100
AcDbEntity
  8
1
  6
CONTINUOUS
 62
           7
100
AcDbLine
 10
-560.772032196021
 20
-830.412643148731
 11
-560.772032196021
 21
-823.412643148731
  0
LINE
  5
184
100
AcDbEntity
  8
1
  6
CONTINUOUS
 62
           7
100
AcDbLine
 10
-560.772032196021
 20
-823.412643148731
 11
-562.272032196021
 21
-823.412643148731
  0
LINE
  5
183
100
AcDbEntity
  8
1
  6
CONTINUOUS
 62
           7
100
AcDbLine
 10
-562.272032196021
 20
-823.412643148731
 11
-562.272032196021
 21
-824.412643148731
  0
LINE
  5
182
100
AcDbEntity
  8
1
  6
CONTINUOUS
 62
           7
100
AcDbLine
 10
-562.272032196021
 20
-824.412643148731
 11
-564.964554896655
 21
-824.412643148731
  0
LINE
  5
181
100
AcDbEntity
  8
1
  6
CONTINUOUS
 62
           7
100
AcDbLine
 10
-564.964554896655
 20
-824.412643148731
 11
-564.964554896655
 21
-823.412643148731
  0
LINE
  5
180
100
AcDbEntity
  8
1
  6
CONTINUOUS
 62
           7
100
AcDbLine
 10
-575.272032196031
 20
-823.412643148731
 11
-575.272032196031
 21
-837.412643148731
  0
LINE
  5
17F
100
AcDbEntity
  8
1
  6
CONTINUOUS
 62
           7
100
AcDbLine
 10
-575.272032196031
 20
-837.412643148731
 11
-564.964554896655
 21
-837.412643148731
  0
LINE
  5
17E
100
AcDbEntity
  8
1
  6
CONTINUOUS
 62
           7
100
AcDbLine
 10
-564.964554896655
 20
-823.412643148731
 11
-575.272032196031
 21
-823.412643148731
  0
LINE
  5
17D
100
AcDbEntity
  8
1
  6
CONTINUOUS
 62
           2
100
AcDbLine
 10
-715.762032196004
 20
-781.71264314873
 11
-715.762032196004
 21
-780.21264314873
  0
LINE
  5
17C
100
AcDbEntity
  8
1
  6
CONTINUOUS
 62
           2
100
AcDbLine
 10
-725.762032196004
 20
-781.71264314873
 11
-725.762032196004
 21
-780.21264314873
  0
LINE
  5
17B
100
AcDbEntity
  8
1
  6
CONTINUOUS
 62
           2
100
AcDbLine
 10
-716.168157196004
 20
-780.21264314873
 11
-715.762032196004
 21
-781.71264314873
  0
LINE
  5
17A
100
AcDbEntity
  8
1
  6
CONTINUOUS
 62
           2
100
AcDbLine
 10
-725.355907196004
 20
-780.21264314873
 11
-725.762032196004
 21
-781.71264314873
  0
LINE
  5
179
100
AcDbEntity
  8
1
  6
CONTINUOUS
 62
           2
100
AcDbLine
 10
-725.762032196004
 20
-781.71264314873
 11
-725.762032196004
 21
-780.21264314873
  0
LINE
  5
178
100
AcDbEntity
  8
1
  6
CONTINUOUS
 62
           2
100
AcDbLine
 10
-715.762032196004
 20
-781.71264314873
 11
-715.762032196004
 21
-780.21264314873
  0
LINE
  5
177
100
AcDbEntity
  8
1
  6
CONTINUOUS
 62
           2
100
AcDbLine
 10
-716.168157196004
 20
-780.21264314873
 11
-715.762032196004
 21
-781.71264314873
  0
LINE
  5
176
100
AcDbEntity
  8
1
  6
CONTINUOUS
 62
           2
100
AcDbLine
 10
-725.355907196004
 20
-780.21264314873
 11
-725.762032196004
 21
-781.71264314873
  0
LINE
  5
175
100
AcDbEntity
  8
1
  6
CONTINUOUS
 62
           7
100
AcDbLine
 10
-715.762032196004
 20
-786.212643148731
 11
-715.762032196004
 21
-781.71264314873
  0
LINE
  5
174
100
AcDbEntity
  8
1
  6
CONTINUOUS
 62
           7
100
AcDbLine
 10
-725.762032196004
 20
-781.71264314873
 11
-725.762032196004
 21
-786.212643148731
  0
LINE
  5
173
100
AcDbEntity
  8
1
  6
CONTINUOUS
 62
           7
100
AcDbLine
 10
-730.262032196004
 20
-782.212643148731
 11
-711.262032196004
 21
-782.212643148731
  0
LINE
  5
172
100
AcDbEntity
  8
1
  6
CONTINUOUS
 62
           7
100
AcDbLine
 10
-711.262032196004
 20
-786.212643148731
 11
-730.262032196004
 21
-786.212643148731
  0
LINE
  5
171
100
AcDbEntity
  8
1
  6
CONTINUOUS
 62
           7
100
AcDbLine
 10
-728.087032196004
 20
-786.712643148731
 11
-713.437032196004
 21
-786.712643148731
  0
LINE
  5
170
100
AcDbEntity
  8
1
  6
CONTINUOUS
 62
           7
100
AcDbLine
 10
-728.087032196004
 20
-788.212643148731
 11
-713.437032196004
 21
-788.212643148731
  0
LINE
  5
16F
100
AcDbEntity
  8
1
  6
CONTINUOUS
 62
           7
100
AcDbLine
 10
-711.262032196004
 20
-782.212643148731
 11
-711.762032196004
 21
-781.712643148731
  0
LINE
  5
16E
100
AcDbEntity
  8
1
  6
CONTINUOUS
 62
           7
100
AcDbLine
 10
-711.762032196004
 20
-786.712643148731
 11
-711.262032196004
 21
-786.212643148731
  0
LINE
  5
16D
100
AcDbEntity
  8
1
  6
CONTINUOUS
 62
           7
100
AcDbLine
 10
-730.262032196004
 20
-782.212643148731
 11
-729.762032196004
 21
-781.712643148731
  0
LINE
  5
16C
100
AcDbEntity
  8
1
  6
CONTINUOUS
 62
           7
100
AcDbLine
 10
-729.762032196004
 20
-786.712643148731
 11
-730.262032196004
 21
-786.212643148731
  0
LINE
  5
16B
100
AcDbEntity
  8
1
  6
CONTINUOUS
 62
           7
100
AcDbLine
 10
-720.762032196004
 20
-781.712643148731
 11
-729.762032196004
 21
-781.712643148731
  0
LINE
  5
16A
100
AcDbEntity
  8
1
  6
CONTINUOUS
 62
           7
100
AcDbLine
 10
-720.762032196004
 20
-781.712643148731
 11
-711.762032196004
 21
-781.712643148731
  0
LINE
  5
169
100
AcDbEntity
  8
1
  6
CONTINUOUS
 62
           7
100
AcDbLine
 10
-730.262032196004
 20
-782.212643148731
 11
-730.262032196004
 21
-786.212643148731
  0
LINE
  5
168
100
AcDbEntity
  8
1
  6
CONTINUOUS
 62
           7
100
AcDbLine
 10
-711.262032196004
 20
-782.212643148731
 11
-711.262032196004
 21
-786.212643148731
  0
LINE
  5
167
100
AcDbEntity
  8
1
  6
CONTINUOUS
 62
           7
100
AcDbLine
 10
-728.087032196004
 20
-786.712643148731
 11
-729.762032196004
 21
-786.712643148731
  0
LINE
  5
166
100
AcDbEntity
  8
1
  6
CONTINUOUS
 62
           7
100
AcDbLine
 10
-713.437032196004
 20
-786.712643148731
 11
-711.762032196004
 21
-786.712643148731
  0
LINE
  5
165
100
AcDbEntity
  8
1
  6
CONTINUOUS
 62
           7
100
AcDbLine
 10
-713.437032196004
 20
-786.712643148731
 11
-713.437032196004
 21
-788.212643148731
  0
LINE
  5
164
100
AcDbEntity
  8
1
  6
CONTINUOUS
 62
           7
100
AcDbLine
 10
-728.087032196004
 20
-788.212643148731
 11
-728.087032196004
 21
-786.712643148731
  0
LINE
  5
163
100
AcDbEntity
  8
1
  6
CONTINUOUS
 62
           7
100
AcDbLine
 10
-564.964554896655
 20
-795.71264314873
 11
-562.272032196021
 21
-795.71264314873
  0
LINE
  5
162
100
AcDbEntity
  8
1
  6
CONTINUOUS
 62
           7
100
AcDbLine
 10
-560.772032196021
 20
-795.71264314873
 11
-557.962032196004
 21
-795.71264314873
  0
LINE
  5
161
100
AcDbEntity
  8
1
  6
CONTINUOUS
 62
           7
100
AcDbLine
 10
-557.962032196004
 20
-795.71264314873
 11
-557.962032196004
 21
-823.712643148727
  0
LINE
  5
160
100
AcDbEntity
  8
1
  6
CONTINUOUS
 62
           7
100
AcDbLine
 10
-557.962032196004
 20
-823.712643148727
 11
-560.772032196021
 21
-823.712643148727
  0
LINE
  5
15F
100
AcDbEntity
  8
1
  6
CONTINUOUS
 62
           7
100
AcDbLine
 10
-519.53716795995
 20
-814.428529773437
 11
-519.53716795995
 21
-812.405225552298
  0
LINE
  5
15E
100
AcDbEntity
  8
1
  6
CONTINUOUS
 62
           7
100
AcDbLine
 10
-519.537167959949
 20
-807.020060745163
 11
-519.537167959949
 21
-804.996756524023
  0
LINE
  5
15D
100
AcDbEntity
  8
1
  6
CONTINUOUS
 62
           7
100
AcDbLine
 10
-519.53716795995
 20
-814.428529773437
 11
-525.03716795995
 21
-814.428529773438
  0
LINE
  5
15C
100
AcDbEntity
  8
1
  6
CONTINUOUS
 62
           7
100
AcDbLine
 10
-519.53716795995
 20
-812.405225552298
 11
-525.03716795995
 21
-812.405225552298
  0
LINE
  5
15B
100
AcDbEntity
  8
1
  6
CONTINUOUS
 62
           7
100
AcDbLine
 10
-525.037167959949
 20
-807.020060745163
 11
-519.537167959949
 21
-807.020060745163
  0
LINE
  5
15A
100
AcDbEntity
  8
1
  6
CONTINUOUS
 62
           7
100
AcDbLine
 10
-525.037167959949
 20
-804.996756524023
 11
-519.537167959949
 21
-804.996756524023
  0
LINE
  5
159
100
AcDbEntity
  8
1
  6
CONTINUOUS
 62
           7
100
AcDbLine
 10
-510.33716795995
 20
-816.17114314873
 11
-510.337167959949
 21
-809.71264314873
  0
LINE
  5
158
100
AcDbEntity
  8
1
  6
CONTINUOUS
 62
           7
100
AcDbLine
 10
-510.337167959949
 20
-809.71264314873
 11
-510.337167959949
 21
-802.899860314112
  0
LINE
  5
157
100
AcDbEntity
  8
1
  6
CONTINUOUS
 62
           7
100
AcDbLine
 10
-510.337167959949
 20
-802.899860314112
 11
-510.337167959949
 21
-802.71264314873
  0
LINE
  5
156
100
AcDbEntity
  8
1
  6
CONTINUOUS
 62
           7
100
AcDbLine
 10
-525.037167959949
 20
-815.61264314873
 11
-525.537167959949
 21
-815.61264314873
  0
LINE
  5
155
100
AcDbEntity
  8
1
  6
CONTINUOUS
 62
           7
100
AcDbLine
 10
-519.037167959949
 20
-816.71264314873
 11
-519.037167959949
 21
-802.71264314873
  0
LINE
  5
154
100
AcDbEntity
  8
1
  6
CONTINUOUS
 62
           2
100
AcDbLine
 10
-510.33716795995
 20
-803.25414314873
 11
-509.836672770894
 21
-803.25414314873
  0
LINE
  5
153
100
AcDbEntity
  8
1
  6
CONTINUOUS
 62
           7
100
AcDbLine
 10
-510.337167959949
 20
-802.71264314873
 11
-509.836672770893
 21
-802.712643148731
  0
LINE
  5
152
100
AcDbEntity
  8
1
  6
CONTINUOUS
 62
           7
100
AcDbLine
 10
-509.837167959951
 20
-802.71264314873
 11
-510.337167959949
 21
-802.71264314873
  0
LINE
  5
151
100
AcDbEntity
  8
1
  6
CONTINUOUS
 62
           7
100
AcDbLine
 10
-472.33716795995
 20
-813.96264314873
 11
-490.83716795995
 21
-813.96264314873
  0
LINE
  5
150
100
AcDbEntity
  8
1
  6
CONTINUOUS
 62
           7
100
AcDbLine
 10
-525.037167959949
 20
-803.81264314873
 11
-525.037167959949
 21
-815.61264314873
  0
LINE
  5
14F
100
AcDbEntity
  8
1
  6
CONTINUOUS
 62
           7
100
AcDbLine
 10
-525.537167959949
 20
-803.81264314873
 11
-525.037167959949
 21
-803.81264314873
  0
LINE
  5
14E
100
AcDbEntity
  8
1
  6
CONTINUOUS
 62
           7
100
AcDbLine
 10
-472.337167959949
 20
-805.46264314873
 11
-472.337167959949
 21
-809.71264314873
  0
LINE
  5
14D
100
AcDbEntity
  8
1
  6
CONTINUOUS
 62
           7
100
AcDbLine
 10
-472.337167959949
 20
-809.71264314873
 11
-472.33716795995
 21
-813.96264314873
  0
LINE
  5
14C
100
AcDbEntity
  8
1
  6
CONTINUOUS
 62
           7
100
AcDbLine
 10
-490.837167959949
 20
-805.46264314873
 11
-472.337167959949
 21
-805.46264314873
  0
LINE
  5
14B
100
AcDbEntity
  8
1
  6
CONTINUOUS
 62
           7
100
AcDbLine
 10
-525.037167959949
 20
-809.71264314873
 11
-525.037167959949
 21
-817.21264314873
  0
LINE
  5
14A
100
AcDbEntity
  8
1
  6
CONTINUOUS
 62
           7
100
AcDbLine
 10
-525.037167959949
 20
-817.21264314873
 11
-519.537167959949
 21
-817.21264314873
  0
LINE
  5
149
100
AcDbEntity
  8
1
  6
CONTINUOUS
 62
           7
100
AcDbLine
 10
-510.33716795995
 20
-816.17114314873
 11
-510.337167959949
 21
-816.712643148731
  0
LINE
  5
148
100
AcDbEntity
  8
1
  6
CONTINUOUS
 62
           2
100
AcDbLine
 10
-509.836672770893
 20
-816.17114314873
 11
-510.33716795995
 21
-816.17114314873
  0
LINE
  5
147
100
AcDbEntity
  8
1
  6
CONTINUOUS
 62
           7
100
AcDbLine
 10
-519.037167959949
 20
-816.71264314873
 11
-509.836672770894
 21
-816.71264314873
  0
LINE
  5
146
100
AcDbEntity
  8
1
  6
CONTINUOUS
 62
           2
100
AcDbLine
 10
-511.837167959949
 20
-816.71264314873
 11
-510.33716795995
 21
-816.17114314873
  0
LINE
  5
145
100
AcDbEntity
  8
1
  6
CONTINUOUS
 62
           7
100
AcDbLine
 10
-525.037167959949
 20
-802.21264314873
 11
-525.037167959949
 21
-809.71264314873
  0
LINE
  5
144
100
AcDbEntity
  8
1
  6
CONTINUOUS
 62
           7
100
AcDbLine
 10
-519.537167959949
 20
-802.21264314873
 11
-525.037167959949
 21
-802.21264314873
  0
LINE
  5
143
100
AcDbEntity
  8
1
  6
CONTINUOUS
 62
           7
100
AcDbLine
 10
-510.337167959949
 20
-802.71264314873
 11
-510.33716795995
 21
-803.25414314873
  0
LINE
  5
142
100
AcDbEntity
  8
1
  6
CONTINUOUS
 62
           7
100
AcDbLine
 10
-510.337167959949
 20
-802.71264314873
 11
-519.037167959949
 21
-802.71264314873
  0
LINE
  5
141
100
AcDbEntity
  8
1
  6
CONTINUOUS
 62
           2
100
AcDbLine
 10
-510.33716795995
 20
-803.25414314873
 11
-511.83716795995
 21
-802.71264314873
  0
LINE
  5
140
100
AcDbEntity
  8
1
  6
CONTINUOUS
 62
           7
100
AcDbLine
 10
-519.037167959949
 20
-816.71264314873
 11
-519.537167959949
 21
-817.21264314873
  0
LINE
  5
13F
100
AcDbEntity
  8
1
  6
CONTINUOUS
 62
           7
100
AcDbLine
 10
-519.037167959949
 20
-802.71264314873
 11
-519.537167959949
 21
-802.21264314873
  0
LINE
  5
13E
100
AcDbEntity
  8
1
  6
DOT_CENTER
 62
           2
100
AcDbLine
 10
-535.259382451955
 20
-809.71264314873
 11
-457.428948477393
 21
-809.712643148731
  0
LINE
  5
13D
100
AcDbEntity
  8
1
  6
CONTINUOUS
 62
           7
100
AcDbLine
 10
-472.337167959949
 20
-806.56264314873
 11
-459.024297731108
 21
-806.56264314873
  0
LINE
  5
13C
100
AcDbEntity
  8
1
  6
CONTINUOUS
 62
           7
100
AcDbLine
 10
-458.243555355441
 20
-812.86264314873
 11
-472.337167959949
 21
-812.86264314873
  0
LINE
  5
13B
100
AcDbEntity
  8
1
  6
CONTINUOUS
 62
           7
100
AcDbLine
 10
-490.83716795995
 20
-813.96264314873
 11
-490.837167959949
 21
-805.46264314873
  0
LINE
  5
13A
100
AcDbEntity
  8
1
  6
CONTINUOUS
 62
           7
100
AcDbLine
 10
-490.837167959949
 20
-805.46264314873
 11
-490.83716795995
 21
-813.96264314873
  0
LINE
  5
139
100
AcDbEntity
  8
1
  6
CONTINUOUS
 62
           7
100
AcDbLine
 10
-491.837167959949
 20
-815.962643148731
 11
-490.837167959949
 21
-814.962643148731
  0
LINE
  5
138
100
AcDbEntity
  8
1
  6
CONTINUOUS
 62
           7
100
AcDbLine
 10
-494.837167959949
 20
-815.96264314873
 11
-491.837167959949
 21
-815.962643148731
  0
LINE
  5
137
100
AcDbEntity
  8
1
  6
CONTINUOUS
 62
           7
100
AcDbLine
 10
-496.837167959949
 20
-817.96264314873
 11
-494.837167959949
 21
-815.96264314873
  0
LINE
  5
136
100
AcDbEntity
  8
1
  6
CONTINUOUS
 62
           7
100
AcDbLine
 10
-504.586672770893
 20
-818.71264314873
 11
-503.836672770893
 21
-817.96264314873
  0
LINE
  5
135
100
AcDbEntity
  8
1
  6
CONTINUOUS
 62
           7
100
AcDbLine
 10
-503.836672770893
 20
-817.96264314873
 11
-496.837167959949
 21
-817.96264314873
  0
LINE
  5
134
100
AcDbEntity
  8
1
  6
CONTINUOUS
 62
           7
100
AcDbLine
 10
-509.336672770893
 20
-818.712643148731
 11
-509.836672770893
 21
-818.212643148731
  0
LINE
  5
133
100
AcDbEntity
  8
1
  6
CONTINUOUS
 62
           7
100
AcDbLine
 10
-490.83716795995
 20
-813.96264314873
 11
-490.837167959949
 21
-814.962643148731
  0
LINE
  5
132
100
AcDbEntity
  8
1
  6
CONTINUOUS
 62
           7
100
AcDbLine
 10
-509.836672770893
 20
-816.17114314873
 11
-509.836672770894
 21
-816.71264314873
  0
LINE
  5
131
100
AcDbEntity
  8
1
  6
CONTINUOUS
 62
           7
100
AcDbLine
 10
-490.83716795995
 20
-813.96264314873
 11
-490.837167959949
 21
-814.962643148731
  0
LINE
  5
130
100
AcDbEntity
  8
1
  6
CONTINUOUS
 62
           7
100
AcDbLine
 10
-509.336672770893
 20
-818.712643148731
 11
-504.586672770893
 21
-818.71264314873
  0
LINE
  5
12F
100
AcDbEntity
  8
1
  6
CONTINUOUS
 62
           7
100
AcDbLine
 10
-491.837167959949
 20
-815.962643148731
 11
-491.83716795995
 21
-809.71264314873
  0
LINE
  5
12E
100
AcDbEntity
  8
1
  6
CONTINUOUS
 62
           7
100
AcDbLine
 10
-494.837167959949
 20
-815.96264314873
 11
-494.837167959949
 21
-809.71264314873
  0
LINE
  5
12D
100
AcDbEntity
  8
1
  6
CONTINUOUS
 62
           7
100
AcDbLine
 10
-496.837167959949
 20
-817.96264314873
 11
-496.83716795995
 21
-809.71264314873
  0
LINE
  5
12C
100
AcDbEntity
  8
1
  6
CONTINUOUS
 62
           7
100
AcDbLine
 10
-503.836672770893
 20
-817.96264314873
 11
-503.836672770893
 21
-809.712643148731
  0
LINE
  5
12B
100
AcDbEntity
  8
1
  6
CONTINUOUS
 62
           7
100
AcDbLine
 10
-509.336672770893
 20
-815.594839135123
 11
-509.336672770893
 21
-812.67068304028
  0
LINE
  5
12A
100
AcDbEntity
  8
1
  6
CONTINUOUS
 62
           7
100
AcDbLine
 10
-504.586672770893
 20
-815.594839135123
 11
-504.586672770894
 21
-812.67068304028
  0
LINE
  5
129
100
AcDbEntity
  8
1
  6
CONTINUOUS
 62
           7
100
AcDbLine
 10
-509.336672770893
 20
-812.67068304028
 11
-504.586672770894
 21
-812.67068304028
  0
LINE
  5
128
100
AcDbEntity
  8
1
  6
CONTINUOUS
 62
           7
100
AcDbLine
 10
-504.586672770893
 20
-815.594839135123
 11
-509.336672770893
 21
-815.594839135123
  0
LINE
  5
127
100
AcDbEntity
  8
1
  6
DOT_CENTER
 62
           2
100
AcDbLine
 10
-510.836672770893
 20
-809.71264314873
 11
-489.837167959949
 21
-809.71264314873
  0
LINE
  5
126
100
AcDbEntity
  8
1
  6
CONTINUOUS
 62
           7
100
AcDbLine
 10
-509.836672770894
 20
-803.21264314873
 11
-509.836672770893
 21
-818.212643148731
  0
LINE
  5
125
100
AcDbEntity
  8
1
  6
CONTINUOUS
 62
           7
100
AcDbLine
 10
-490.837167959949
 20
-804.46264314873
 11
-491.837167959949
 21
-803.46264314873
  0
LINE
  5
124
100
AcDbEntity
  8
1
  6
CONTINUOUS
 62
           7
100
AcDbLine
 10
-491.837167959949
 20
-803.46264314873
 11
-494.83716795995
 21
-803.462643148731
  0
LINE
  5
123
100
AcDbEntity
  8
1
  6
CONTINUOUS
 62
           7
100
AcDbLine
 10
-494.83716795995
 20
-803.462643148731
 11
-496.83716795995
 21
-801.46264314873
  0
LINE
  5
122
100
AcDbEntity
  8
1
  6
CONTINUOUS
 62
           7
100
AcDbLine
 10
-503.836672770893
 20
-801.46264314873
 11
-504.586672770893
 21
-800.71264314873
  0
LINE
  5
121
100
AcDbEntity
  8
1
  6
CONTINUOUS
 62
           7
100
AcDbLine
 10
-496.83716795995
 20
-801.46264314873
 11
-503.836672770893
 21
-801.46264314873
  0
LINE
  5
120
100
AcDbEntity
  8
1
  6
CONTINUOUS
 62
           7
100
AcDbLine
 10
-509.836672770893
 20
-801.21264314873
 11
-509.336672770893
 21
-800.71264314873
  0
LINE
  5
11F
100
AcDbEntity
  8
1
  6
CONTINUOUS
 62
           7
100
AcDbLine
 10
-490.837167959949
 20
-804.46264314873
 11
-490.837167959949
 21
-805.46264314873
  0
LINE
  5
11E
100
AcDbEntity
  8
1
  6
CONTINUOUS
 62
           7
100
AcDbLine
 10
-509.836672770893
 20
-802.712643148731
 11
-509.836672770894
 21
-803.25414314873
  0
LINE
  5
11D
100
AcDbEntity
  8
1
  6
CONTINUOUS
 62
           7
100
AcDbLine
 10
-490.837167959949
 20
-804.46264314873
 11
-490.837167959949
 21
-805.46264314873
  0
LINE
  5
11C
100
AcDbEntity
  8
1
  6
CONTINUOUS
 62
           7
100
AcDbLine
 10
-504.586672770893
 20
-800.71264314873
 11
-509.336672770893
 21
-800.71264314873
  0
LINE
  5
11B
100
AcDbEntity
  8
1
  6
CONTINUOUS
 62
           7
100
AcDbLine
 10
-491.83716795995
 20
-809.71264314873
 11
-491.837167959949
 21
-803.46264314873
  0
LINE
  5
11A
100
AcDbEntity
  8
1
  6
CONTINUOUS
 62
           7
100
AcDbLine
 10
-494.837167959949
 20
-809.71264314873
 11
-494.83716795995
 21
-803.462643148731
  0
LINE
  5
119
100
AcDbEntity
  8
1
  6
CONTINUOUS
 62
           7
100
AcDbLine
 10
-496.83716795995
 20
-809.71264314873
 11
-496.83716795995
 21
-801.46264314873
  0
LINE
  5
118
100
AcDbEntity
  8
1
  6
CONTINUOUS
 62
           7
100
AcDbLine
 10
-503.836672770893
 20
-809.712643148731
 11
-503.836672770893
 21
-801.46264314873
  0
LINE
  5
117
100
AcDbEntity
  8
1
  6
CONTINUOUS
 62
           7
100
AcDbLine
 10
-509.336672770893
 20
-806.754603257181
 11
-509.336672770893
 21
-803.830447162338
  0
LINE
  5
116
100
AcDbEntity
  8
1
  6
CONTINUOUS
 62
           7
100
AcDbLine
 10
-504.586672770893
 20
-806.754603257181
 11
-504.586672770894
 21
-803.830447162338
  0
LINE
  5
115
100
AcDbEntity
  8
1
  6
CONTINUOUS
 62
           7
100
AcDbLine
 10
-504.586672770893
 20
-806.754603257181
 11
-509.336672770893
 21
-806.754603257181
  0
LINE
  5
114
100
AcDbEntity
  8
1
  6
CONTINUOUS
 62
           7
100
AcDbLine
 10
-509.336672770893
 20
-803.830447162338
 11
-504.586672770894
 21
-803.830447162338
  0
LINE
  5
113
100
AcDbEntity
  8
1
  6
CONTINUOUS
 62
           7
100
AcDbLine
 10
-533.537167959949
 20
-801.223892649151
 11
-533.537167959948
 21
-816.182392649151
  0
LINE
  5
112
100
AcDbEntity
  8
1
  6
CONTINUOUS
 62
           7
100
AcDbLine
 10
-529.537167959949
 20
-806.765852757601
 11
-529.537167959949
 21
-807.869168950052
  0
LINE
  5
111
100
AcDbEntity
  8
1
  6
CONTINUOUS
 62
           7
100
AcDbLine
 10
-529.537167959949
 20
-803.290038566533
 11
-529.537167959949
 21
-803.841696662759
  0
LINE
  5
110
100
AcDbEntity
  8
1
  6
CONTINUOUS
 62
           7
100
AcDbLine
 10
-529.537167959949
 20
-807.869168950052
 11
-529.837167959949
 21
-806.765852757602
  0
LINE
  5
10F
100
AcDbEntity
  8
1
  6
CONTINUOUS
 62
           7
100
AcDbLine
 10
-529.237167959949
 20
-806.765852757602
 11
-529.537167959949
 21
-807.869168950052
  0
LINE
  5
10E
100
AcDbEntity
  8
1
  6
CONTINUOUS
 62
           7
100
AcDbLine
 10
-529.537167959949
 20
-803.290038566533
 11
-529.837167959949
 21
-803.841696662759
  0
LINE
  5
10D
100
AcDbEntity
  8
1
  6
CONTINUOUS
 62
           7
100
AcDbLine
 10
-529.237167959948
 20
-803.841696662759
 11
-529.537167959949
 21
-803.290038566533
  0
LINE
  5
10C
100
AcDbEntity
  8
1
  6
CONTINUOUS
 62
           7
100
AcDbLine
 10
-529.837167959949
 20
-806.765852757602
 11
-529.837167959949
 21
-803.841696662759
  0
LINE
  5
10B
100
AcDbEntity
  8
1
  6
CONTINUOUS
 62
           7
100
AcDbLine
 10
-529.537167959949
 20
-803.841696662759
 11
-529.537167959949
 21
-806.765852757601
  0
LINE
  5
10A
100
AcDbEntity
  8
1
  6
CONTINUOUS
 62
           7
100
AcDbLine
 10
-529.237167959949
 20
-806.765852757602
 11
-529.237167959948
 21
-803.841696662759
  0
LINE
  5
109
100
AcDbEntity
  8
1
  6
CONTINUOUS
 62
           7
100
AcDbLine
 10
-529.537167959949
 20
-801.435314867434
 11
-529.837167959948
 21
-800.723892649151
  0
LINE
  5
108
100
AcDbEntity
  8
1
  6
CONTINUOUS
 62
           7
100
AcDbLine
 10
-529.237167959949
 20
-800.723892649151
 11
-529.537167959949
 21
-801.435314867434
  0
LINE
  5
107
100
AcDbEntity
  8
1
  6
CONTINUOUS
 62
           7
100
AcDbLine
 10
-529.396932082006
 20
-800.883656771209
 11
-525.877403837892
 21
-800.883656771209
  0
LINE
  5
106
100
AcDbEntity
  8
1
  6
CONTINUOUS
 62
           7
100
AcDbLine
 10
-529.837167959948
 20
-800.723892649151
 11
-533.037167959949
 21
-800.723892649152
  0
LINE
  5
105
100
AcDbEntity
  8
1
  6
CONTINUOUS
 62
           7
100
AcDbLine
 10
-529.537167959949
 20
-801.023892649151
 11
-529.237167959949
 21
-800.723892649151
  0
LINE
  5
104
100
AcDbEntity
  8
1
  6
CONTINUOUS
 62
           7
100
AcDbLine
 10
-529.837167959948
 20
-800.723892649151
 11
-529.537167959949
 21
-801.023892649151
  0
LINE
  5
103
100
AcDbEntity
  8
1
  6
CONTINUOUS
 62
           7
100
AcDbLine
 10
-526.037167959949
 20
-806.765852757602
 11
-526.037167959949
 21
-803.841696662759
  0
LINE
  5
102
100
AcDbEntity
  8
1
  6
CONTINUOUS
 62
           7
100
AcDbLine
 10
-533.037167959949
 20
-806.765852757602
 11
-533.037167959949
 21
-803.841696662759
  0
LINE
  5
101
100
AcDbEntity
  8
1
  6
CONTINUOUS
 62
           7
100
AcDbLine
 10
-526.037167959949
 20
-803.841696662759
 11
-533.037167959949
 21
-803.841696662759
  0
LINE
  5
100
100
AcDbEntity
  8
1
  6
CONTINUOUS
 62
           7
100
AcDbLine
 10
-533.537167959949
 20
-801.223892649151
 11
-533.037167959949
 21
-800.723892649152
  0
LINE
  5
FF
100
AcDbEntity
  8
1
  6
CONTINUOUS
 62
           7
100
AcDbLine
 10
-526.037167959949
 20
-800.723892649152
 11
-525.537167959949
 21
-801.223892649151
  0
LINE
  5
FE
100
AcDbEntity
  8
1
  6
CONTINUOUS
 62
           7
100
AcDbLine
 10
-526.037167959949
 20
-800.723892649152
 11
-529.237167959949
 21
-800.723892649151
  0
LINE
  5
FD
100
AcDbEntity
  8
1
  6
CONTINUOUS
 62
           7
100
AcDbLine
 10
-526.037167959949
 20
-806.765852757602
 11
-533.037167959949
 21
-806.765852757602
  0
LINE
  5
FC
100
AcDbEntity
  8
1
  6
CONTINUOUS
 62
           7
100
AcDbLine
 10
-533.147554820835
 20
-800.883656771209
 11
-529.677403837891
 21
-800.883656771209
  0
LINE
  5
FB
100
AcDbEntity
  8
1
  6
CONTINUOUS
 62
           7
100
AcDbLine
 10
-529.537167959949
 20
-811.578616348251
 11
-529.537167959949
 21
-812.681932540701
  0
LINE
  5
FA
100
AcDbEntity
  8
1
  6
CONTINUOUS
 62
           7
100
AcDbLine
 10
-529.537167959949
 20
-815.606088635544
 11
-529.537167959949
 21
-816.15774673177
  0
LINE
  5
F9
100
AcDbEntity
  8
1
  6
CONTINUOUS
 62
           7
100
AcDbLine
 10
-529.837167959949
 20
-812.681932540701
 11
-529.537167959949
 21
-811.578616348251
  0
LINE
  5
F8
100
AcDbEntity
  8
1
  6
CONTINUOUS
 62
           7
100
AcDbLine
 10
-529.537167959949
 20
-811.578616348251
 11
-529.237167959949
 21
-812.681932540702
  0
LINE
  5
F7
100
AcDbEntity
  8
1
  6
CONTINUOUS
 62
           7
100
AcDbLine
 10
-529.837167959949
 20
-815.606088635544
 11
-529.537167959949
 21
-816.15774673177
  0
LINE
  5
F6
100
AcDbEntity
  8
1
  6
CONTINUOUS
 62
           7
100
AcDbLine
 10
-529.537167959949
 20
-816.15774673177
 11
-529.237167959948
 21
-815.606088635545
  0
LINE
  5
F5
100
AcDbEntity
  8
1
  6
CONTINUOUS
 62
           7
100
AcDbLine
 10
-529.837167959949
 20
-815.606088635544
 11
-529.837167959949
 21
-812.681932540701
  0
LINE
  5
F4
100
AcDbEntity
  8
1
  6
CONTINUOUS
 62
           7
100
AcDbLine
 10
-529.537167959949
 20
-812.681932540701
 11
-529.537167959949
 21
-815.606088635544
  0
LINE
  5
F3
100
AcDbEntity
  8
1
  6
CONTINUOUS
 62
           7
100
AcDbLine
 10
-529.237167959948
 20
-815.606088635545
 11
-529.237167959949
 21
-812.681932540702
  0
LINE
  5
F2
100
AcDbEntity
  8
1
  6
CONTINUOUS
 62
           7
100
AcDbLine
 10
-529.837167959949
 20
-818.723892649151
 11
-529.53716795995
 21
-818.012470430869
  0
LINE
  5
F1
100
AcDbEntity
  8
1
  6
CONTINUOUS
 62
           7
100
AcDbLine
 10
-529.53716795995
 20
-818.012470430869
 11
-529.237167959949
 21
-818.723892649151
  0
LINE
  5
F0
100
AcDbEntity
  8
1
  6
CONTINUOUS
 62
           7
100
AcDbLine
 10
-525.877403837891
 20
-818.564128527094
 11
-529.396932082006
 21
-818.564128527094
  0
LINE
  5
EF
100
AcDbEntity
  8
1
  6
CONTINUOUS
 62
           7
100
AcDbLine
 10
-533.037167959949
 20
-818.723892649151
 11
-529.837167959949
 21
-818.723892649151
  0
LINE
  5
EE
100
AcDbEntity
  8
1
  6
CONTINUOUS
 62
           7
100
AcDbLine
 10
-529.237167959949
 20
-818.723892649151
 11
-529.537167959949
 21
-818.423892649152
  0
LINE
  5
ED
100
AcDbEntity
  8
1
  6
CONTINUOUS
 62
           7
100
AcDbLine
 10
-529.537167959949
 20
-818.423892649152
 11
-529.837167959949
 21
-818.723892649151
  0
LINE
  5
EC
100
AcDbEntity
  8
1
  6
CONTINUOUS
 62
           7
100
AcDbLine
 10
-526.037167959949
 20
-815.606088635544
 11
-526.037167959949
 21
-812.681932540701
  0
LINE
  5
EB
100
AcDbEntity
  8
1
  6
CONTINUOUS
 62
           7
100
AcDbLine
 10
-533.037167959949
 20
-815.606088635544
 11
-533.037167959949
 21
-812.681932540701
  0
LINE
  5
EA
100
AcDbEntity
  8
1
  6
CONTINUOUS
 62
           7
100
AcDbLine
 10
-533.037167959949
 20
-815.606088635544
 11
-526.037167959949
 21
-815.606088635544
  0
LINE
  5
E9
100
AcDbEntity
  8
1
  6
CONTINUOUS
 62
           7
100
AcDbLine
 10
-525.537167959949
 20
-818.223892649152
 11
-525.537167959949
 21
-801.223892649151
  0
LINE
  5
E8
100
AcDbEntity
  8
1
  6
CONTINUOUS
 62
           7
100
AcDbLine
 10
-533.037167959949
 20
-818.723892649151
 11
-533.537167959949
 21
-818.223892649152
  0
LINE
  5
E7
100
AcDbEntity
  8
1
  6
CONTINUOUS
 62
           7
100
AcDbLine
 10
-525.537167959949
 20
-818.223892649152
 11
-526.037167959948
 21
-818.723892649151
  0
LINE
  5
E6
100
AcDbEntity
  8
1
  6
CONTINUOUS
 62
           7
100
AcDbLine
 10
-533.537167959949
 20
-803.265392649152
 11
-533.537167959949
 21
-818.223892649152
  0
LINE
  5
E5
100
AcDbEntity
  8
1
  6
CONTINUOUS
 62
           7
100
AcDbLine
 10
-529.237167959949
 20
-818.723892649151
 11
-526.037167959948
 21
-818.723892649151
  0
LINE
  5
E4
100
AcDbEntity
  8
1
  6
CONTINUOUS
 62
           7
100
AcDbLine
 10
-533.037167959949
 20
-812.681932540701
 11
-526.037167959949
 21
-812.681932540701
  0
LINE
  5
E3
100
AcDbEntity
  8
1
  6
CONTINUOUS
 62
           7
100
AcDbLine
 10
-529.677403837892
 20
-818.564128527094
 11
-533.147554820835
 21
-818.564128527094
  0
LINE
  5
E2
100
AcDbEntity
  8
1
  6
CONTINUOUS
 62
           7
100
AcDbLine
 10
-394.664135808215
 20
-603.536409923056
 11
-405.830491525278
 21
-609.98330840217
  0
LINE
  5
E1
100
AcDbEntity
  8
1
  6
CONTINUOUS
 62
           7
100
AcDbLine
 10
-408.247313666746
 20
-614.16936714405
 11
-408.247313666746
 21
-627.063164102278
  0
LINE
  5
E0
100
AcDbEntity
  8
1
  6
CONTINUOUS
 62
           7
100
AcDbLine
 10
-405.830491525278
 20
-631.249222844158
 11
-394.664135808214
 21
-637.696121323272
  0
LINE
  5
DF
100
AcDbEntity
  8
1
  6
CONTINUOUS
 62
           7
100
AcDbLine
 10
-389.830491525278
 20
-637.696121323272
 11
-378.664135808214
 21
-631.249222844158
  0
LINE
  5
DE
100
AcDbEntity
  8
1
  6
CONTINUOUS
 62
           7
100
AcDbLine
 10
-376.247313666746
 20
-627.063164102278
 11
-376.247313666746
 21
-614.16936714405
  0
LINE
  5
DD
100
AcDbEntity
  8
1
  6
CONTINUOUS
 62
           7
100
AcDbLine
 10
-378.664135808214
 20
-609.98330840217
 11
-389.830491525278
 21
-603.536409923056
  0
LINE
  5
DC
100
AcDbEntity
  8
1
  6
DOT_CENTER
 62
           2
100
AcDbLine
 10
-352.247313666746
 20
-617.308746202161
 11
-352.247313666746
 21
-624.204960257691
  0
LINE
  5
DB
100
AcDbEntity
  8
1
  6
DOT_CENTER
 62
           2
100
AcDbLine
 10
-349.679193783894
 20
-620.616265623164
 11
-355.083244564251
 21
-620.616265623164
  0
LINE
  5
DA
100
AcDbEntity
  8
1
  6
DOT_CENTER
 62
           2
100
AcDbLine
 10
-361.127388086828
 20
-620.616265623164
 11
-370.574410848199
 21
-620.616265623164
  0
LINE
  5
D9
100
AcDbEntity
  8
1
  6
CONTINUOUS
 62
           6
100
AcDbLine
 10
-341.747313666746
 20
-620.616265623164
 11
-341.747313666746
 21
-619.211521981572
  0
LINE
  5
D8
100
AcDbEntity
  8
1
  6
CONTINUOUS
 62
           2
100
AcDbLine
 10
-362.747313666746
 20
-616.022390623164
 11
-364.247313666746
 21
-615.616265623164
  0
LINE
  5
D7
100
AcDbEntity
  8
1
  6
CONTINUOUS
 62
           2
100
AcDbLine
 10
-362.747313666746
 20
-625.210140623164
 11
-364.247313666746
 21
-625.616265623164
  0
LINE
  5
D6
100
AcDbEntity
  8
1
  6
CONTINUOUS
 62
           2
100
AcDbLine
 10
-364.247313666746
 20
-615.616265623164
 11
-361.480406323056
 21
-615.616265623164
  0
LINE
  5
D5
100
AcDbEntity
  8
1
  6
CONTINUOUS
 62
           2
100
AcDbLine
 10
-364.247313666746
 20
-625.616265623164
 11
-361.480406323056
 21
-625.616265623164
  0
LINE
  5
D4
100
AcDbEntity
  8
1
  6
CONTINUOUS
 62
           2
100
AcDbLine
 10
-362.747313666746
 20
-616.022390623164
 11
-361.713262569951
 21
-616.022390623164
  0
LINE
  5
D3
100
AcDbEntity
  8
1
  6
CONTINUOUS
 62
           2
100
AcDbLine
 10
-362.747313666746
 20
-625.210140623164
 11
-361.659752184281
 21
-625.210140623164
  0
LINE
  5
D2
100
AcDbEntity
  8
1
  6
CONTINUOUS
 62
           2
100
AcDbLine
 10
-362.747313666746
 20
-625.210140623164
 11
-362.747313666746
 21
-616.022390623164
  0
LINE
  5
D1
100
AcDbEntity
  8
1
  6
CONTINUOUS
 62
           2
100
AcDbLine
 10
-362.747313666746
 20
-616.022390623164
 11
-362.747313666746
 21
-615.616265623164
  0
LINE
  5
D0
100
AcDbEntity
  8
1
  6
CONTINUOUS
 62
           2
100
AcDbLine
 10
-362.747313666746
 20
-625.210140623164
 11
-362.747313666746
 21
-625.616265623164
  0
LINE
  5
CF
100
AcDbEntity
  8
1
  6
CONTINUOUS
 62
           7
100
AcDbLine
 10
-364.747313666746
 20
-625.739765623164
 11
-364.747313666746
 21
-629.989480202679
  0
LINE
  5
CE
100
AcDbEntity
  8
1
  6
CONTINUOUS
 62
           7
100
AcDbLine
 10
-364.747313666746
 20
-615.492765623164
 11
-364.95844660344
 21
-615.492765623164
  0
LINE
  5
CD
100
AcDbEntity
  8
1
  6
CONTINUOUS
 62
           7
100
AcDbLine
 10
-364.747313666746
 20
-615.296999161962
 11
-364.747313666746
 21
-615.492765623164
  0
LINE
  5
CC
100
AcDbEntity
  8
1
  6
CONTINUOUS
 62
           7
100
AcDbLine
 10
-364.247313666746
 20
-614.762769685362
 11
-364.247313666746
 21
-629.616265623164
  0
LINE
  5
CB
100
AcDbEntity
  8
1
  6
CONTINUOUS
 62
           7
100
AcDbLine
 10
-365.997313666746
 20
-625.739765623164
 11
-364.747313666746
 21
-625.739765623164
  0
LINE
  5
CA
100
AcDbEntity
  8
1
  6
CONTINUOUS
 62
           7
100
AcDbLine
 10
-364.691373935632
 20
-630.06032589205
 11
-364.247313666746
 21
-629.616265623164
  0
LINE
  5
C9
100
AcDbEntity
  8
1
  6
CONTINUOUS
 62
           7
100
AcDbLine
 10
-407.747313666746
 20
-679.759641296138
 11
-406.497313666746
 21
-679.037953459651
  0
LINE
  5
C8
100
AcDbEntity
  8
1
  6
CONTINUOUS
 62
           7
100
AcDbLine
 10
-408.997313666746
 20
-679.037953459651
 11
-407.747313666746
 21
-679.759641296138
  0
LINE
  5
C7
100
AcDbEntity
  8
1
  6
CONTINUOUS
 62
           7
100
AcDbLine
 10
-407.747313666746
 20
-676.87288995019
 11
-406.497313666746
 21
-677.594577786677
  0
LINE
  5
C6
100
AcDbEntity
  8
1
  6
CONTINUOUS
 62
           7
100
AcDbLine
 10
-408.997313666746
 20
-677.594577786677
 11
-407.747313666746
 21
-676.87288995019
  0
LINE
  5
C5
100
AcDbEntity
  8
1
  6
CONTINUOUS
 62
           7
100
AcDbLine
 10
-406.497313666746
 20
-679.037953459651
 11
-406.497313666746
 21
-677.594577786677
  0
LINE
  5
C4
100
AcDbEntity
  8
1
  6
CONTINUOUS
 62
           7
100
AcDbLine
 10
-408.997313666746
 20
-677.594577786677
 11
-408.997313666746
 21
-679.037953459651
  0
LINE
  5
C3
100
AcDbEntity
  8
1
  6
DOT_CENTER
 62
           2
100
AcDbLine
 10
-410.904123060183
 20
-678.316265623164
 11
-404.509306540557
 21
-678.316265623164
  0
LINE
  5
C2
100
AcDbEntity
  8
1
  6
DOT_CENTER
 62
           2
100
AcDbLine
 10
-407.747313666746
 20
-675.294528530638
 11
-407.747313666746
 21
-681.442660733484
  0
LINE
  5
C1
100
AcDbEntity
  8
1
  6
CONTINUOUS
 62
           7
100
AcDbLine
 10
-407.747313666746
 20
-646.659641296138
 11
-406.497313666746
 21
-645.937953459651
  0
LINE
  5
C0
100
AcDbEntity
  8
1
  6
CONTINUOUS
 62
           7
100
AcDbLine
 10
-408.997313666746
 20
-645.937953459651
 11
-407.747313666746
 21
-646.659641296138
  0
LINE
  5
BF
100
AcDbEntity
  8
1
  6
CONTINUOUS
 62
           7
100
AcDbLine
 10
-407.747313666746
 20
-643.77288995019
 11
-406.497313666746
 21
-644.494577786677
  0
LINE
  5
BE
100
AcDbEntity
  8
1
  6
CONTINUOUS
 62
           7
100
AcDbLine
 10
-408.997313666746
 20
-644.494577786677
 11
-407.747313666746
 21
-643.77288995019
  0
LINE
  5
BD
100
AcDbEntity
  8
1
  6
CONTINUOUS
 62
           7
100
AcDbLine
 10
-406.497313666746
 20
-645.937953459651
 11
-406.497313666746
 21
-644.494577786677
  0
LINE
  5
BC
100
AcDbEntity
  8
1
  6
CONTINUOUS
 62
           7
100
AcDbLine
 10
-408.997313666746
 20
-644.494577786677
 11
-408.997313666746
 21
-645.937953459651
  0
LINE
  5
BB
100
AcDbEntity
  8
1
  6
DOT_CENTER
 62
           2
100
AcDbLine
 10
-410.904123060183
 20
-645.216265623164
 11
-404.509306540557
 21
-645.216265623164
  0
LINE
  5
BA
100
AcDbEntity
  8
1
  6
DOT_CENTER
 62
           2
100
AcDbLine
 10
-407.747313666746
 20
-642.194528530638
 11
-407.747313666746
 21
-648.342660733484
  0
LINE
  5
B9
100
AcDbEntity
  8
1
  6
DOT_CENTER
 62
           2
100
AcDbLine
 10
-376.747313666746
 20
-681.442660733484
 11
-376.747313666746
 21
-675.294528530638
  0
LINE
  5
B8
100
AcDbEntity
  8
1
  6
DOT_CENTER
 62
           2
100
AcDbLine
 10
-379.985320792935
 20
-678.316265623164
 11
-373.590504273309
 21
-678.316265623164
  0
LINE
  5
B7
100
AcDbEntity
  8
1
  6
CONTINUOUS
 62
           7
100
AcDbLine
 10
-375.497313666746
 20
-679.037953459651
 11
-375.497313666746
 21
-677.594577786677
  0
LINE
  5
B6
100
AcDbEntity
  8
1
  6
CONTINUOUS
 62
           7
100
AcDbLine
 10
-377.997313666746
 20
-677.594577786677
 11
-377.997313666746
 21
-679.037953459651
  0
LINE
  5
B5
100
AcDbEntity
  8
1
  6
CONTINUOUS
 62
           7
100
AcDbLine
 10
-376.747313666746
 20
-676.87288995019
 11
-375.497313666746
 21
-677.594577786677
  0
LINE
  5
B4
100
AcDbEntity
  8
1
  6
CONTINUOUS
 62
           7
100
AcDbLine
 10
-377.997313666746
 20
-677.594577786677
 11
-376.747313666746
 21
-676.87288995019
  0
LINE
  5
B3
100
AcDbEntity
  8
1
  6
CONTINUOUS
 62
           7
100
AcDbLine
 10
-376.747313666746
 20
-679.759641296138
 11
-375.497313666746
 21
-679.037953459651
  0
LINE
  5
B2
100
AcDbEntity
  8
1
  6
CONTINUOUS
 62
           7
100
AcDbLine
 10
-377.997313666746
 20
-679.037953459651
 11
-376.747313666746
 21
-679.759641296138
  0
LINE
  5
B1
100
AcDbEntity
  8
1
  6
CONTINUOUS
 62
           7
100
AcDbLine
 10
-370.997313666746
 20
-654.637953459651
 11
-369.747313666746
 21
-655.359641296138
  0
LINE
  5
B0
100
AcDbEntity
  8
1
  6
CONTINUOUS
 62
           7
100
AcDbLine
 10
-369.747313666746
 20
-655.359641296138
 11
-368.497313666746
 21
-654.637953459651
  0
LINE
  5
AF
100
AcDbEntity
  8
1
  6
CONTINUOUS
 62
           7
100
AcDbLine
 10
-370.997313666746
 20
-653.194577786677
 11
-369.747313666746
 21
-652.47288995019
  0
LINE
  5
AE
100
AcDbEntity
  8
1
  6
CONTINUOUS
 62
           7
100
AcDbLine
 10
-369.747313666746
 20
-652.47288995019
 11
-368.497313666746
 21
-653.194577786677
  0
LINE
  5
AD
100
AcDbEntity
  8
1
  6
CONTINUOUS
 62
           7
100
AcDbLine
 10
-370.997313666746
 20
-653.194577786677
 11
-370.997313666746
 21
-654.637953459651
  0
LINE
  5
AC
100
AcDbEntity
  8
1
  6
CONTINUOUS
 62
           7
100
AcDbLine
 10
-368.497313666746
 20
-654.637953459651
 11
-368.497313666746
 21
-653.194577786677
  0
LINE
  5
AB
100
AcDbEntity
  8
1
  6
DOT_CENTER
 62
           2
100
AcDbLine
 10
-372.985320792935
 20
-653.916265623164
 11
-366.590504273309
 21
-653.916265623164
  0
LINE
  5
AA
100
AcDbEntity
  8
1
  6
DOT_CENTER
 62
           2
100
AcDbLine
 10
-369.747313666746
 20
-657.042660733484
 11
-369.747313666746
 21
-650.894528530638
  0
LINE
  5
A9
100
AcDbEntity
  8
1
  6
DOT_CENTER
 62
           2
100
AcDbLine
 10
-414.747313666746
 20
-650.894528530638
 11
-414.747313666746
 21
-657.042660733484
  0
LINE
  5
A8
100
AcDbEntity
  8
1
  6
DOT_CENTER
 62
           2
100
AcDbLine
 10
-417.904123060184
 20
-653.916265623164
 11
-411.509306540558
 21
-653.916265623164
  0
LINE
  5
A7
100
AcDbEntity
  8
1
  6
CONTINUOUS
 62
           7
100
AcDbLine
 10
-415.997313666746
 20
-653.194577786677
 11
-415.997313666746
 21
-654.637953459651
  0
LINE
  5
A6
100
AcDbEntity
  8
1
  6
CONTINUOUS
 62
           7
100
AcDbLine
 10
-413.497313666746
 20
-654.637953459651
 11
-413.497313666746
 21
-653.194577786677
  0
LINE
  5
A5
100
AcDbEntity
  8
1
  6
CONTINUOUS
 62
           7
100
AcDbLine
 10
-415.997313666746
 20
-653.194577786677
 11
-414.747313666746
 21
-652.47288995019
  0
LINE
  5
A4
100
AcDbEntity
  8
1
  6
CONTINUOUS
 62
           7
100
AcDbLine
 10
-414.747313666746
 20
-652.47288995019
 11
-413.497313666746
 21
-653.194577786677
  0
LINE
  5
A3
100
AcDbEntity
  8
1
  6
CONTINUOUS
 62
           7
100
AcDbLine
 10
-415.997313666746
 20
-654.637953459651
 11
-414.747313666746
 21
-655.359641296138
  0
LINE
  5
A2
100
AcDbEntity
  8
1
  6
CONTINUOUS
 62
           7
100
AcDbLine
 10
-414.747313666746
 20
-655.359641296138
 11
-413.497313666746
 21
-654.637953459651
  0
LINE
  5
A1
100
AcDbEntity
  8
1
  6
DOT_CENTER
 62
           2
100
AcDbLine
 10
-369.747313666746
 20
-623.742660733484
 11
-369.747313666746
 21
-617.594528530638
  0
LINE
  5
A0
100
AcDbEntity
  8
1
  6
DOT_CENTER
 62
           2
100
AcDbLine
 10
-372.985320792935
 20
-620.616265623164
 11
-366.590504273309
 21
-620.616265623164
  0
LINE
  5
9F
100
AcDbEntity
  8
1
  6
CONTINUOUS
 62
           7
100
AcDbLine
 10
-368.497313666746
 20
-621.337953459651
 11
-368.497313666746
 21
-619.894577786677
  0
LINE
  5
9E
100
AcDbEntity
  8
1
  6
CONTINUOUS
 62
           7
100
AcDbLine
 10
-370.997313666746
 20
-619.894577786677
 11
-370.997313666746
 21
-621.337953459651
  0
LINE
  5
9D
100
AcDbEntity
  8
1
  6
CONTINUOUS
 62
           7
100
AcDbLine
 10
-369.747313666746
 20
-619.17288995019
 11
-368.497313666746
 21
-619.894577786677
  0
LINE
  5
9C
100
AcDbEntity
  8
1
  6
CONTINUOUS
 62
           7
100
AcDbLine
 10
-370.997313666746
 20
-619.894577786677
 11
-369.747313666746
 21
-619.17288995019
  0
LINE
  5
9B
100
AcDbEntity
  8
1
  6
CONTINUOUS
 62
           7
100
AcDbLine
 10
-369.747313666746
 20
-622.059641296138
 11
-368.497313666746
 21
-621.337953459651
  0
LINE
  5
9A
100
AcDbEntity
  8
1
  6
CONTINUOUS
 62
           7
100
AcDbLine
 10
-370.997313666746
 20
-621.337953459651
 11
-369.747313666746
 21
-622.059641296138
  0
LINE
  5
99
100
AcDbEntity
  8
1
  6
CONTINUOUS
 62
           7
100
AcDbLine
 10
-414.747313666746
 20
-622.059641296138
 11
-413.497313666746
 21
-621.337953459651
  0
LINE
  5
98
100
AcDbEntity
  8
1
  6
CONTINUOUS
 62
           7
100
AcDbLine
 10
-415.997313666746
 20
-621.337953459651
 11
-414.747313666746
 21
-622.059641296138
  0
LINE
  5
97
100
AcDbEntity
  8
1
  6
CONTINUOUS
 62
           7
100
AcDbLine
 10
-414.747313666746
 20
-619.17288995019
 11
-413.497313666746
 21
-619.894577786677
  0
LINE
  5
96
100
AcDbEntity
  8
1
  6
CONTINUOUS
 62
           7
100
AcDbLine
 10
-415.997313666746
 20
-619.894577786677
 11
-414.747313666746
 21
-619.17288995019
  0
LINE
  5
95
100
AcDbEntity
  8
1
  6
CONTINUOUS
 62
           7
100
AcDbLine
 10
-413.497313666746
 20
-621.337953459651
 11
-413.497313666746
 21
-619.894577786677
  0
LINE
  5
94
100
AcDbEntity
  8
1
  6
CONTINUOUS
 62
           7
100
AcDbLine
 10
-415.997313666746
 20
-619.894577786677
 11
-415.997313666746
 21
-621.337953459651
  0
LINE
  5
93
100
AcDbEntity
  8
1
  6
DOT_CENTER
 62
           2
100
AcDbLine
 10
-417.904123060183
 20
-620.616265623164
 11
-411.509306540557
 21
-620.616265623164
  0
LINE
  5
92
100
AcDbEntity
  8
1
  6
DOT_CENTER
 62
           2
100
AcDbLine
 10
-414.747313666746
 20
-617.594528530638
 11
-414.747313666746
 21
-623.742660733484
  0
LINE
  5
91
100
AcDbEntity
  8
1
  6
DOT_CENTER
 62
           2
100
AcDbLine
 10
-371.547313666746
 20
-637.795198198406
 11
-371.547313666746
 21
-633.352654168856
  0
LINE
  5
90
100
AcDbEntity
  8
1
  6
DOT_CENTER
 62
           2
100
AcDbLine
 10
-373.416848135771
 20
-635.416265623165
 11
-369.132047234213
 21
-635.416265623165
  0
LINE
  5
8F
100
AcDbEntity
  8
1
  6
CONTINUOUS
 62
           7
100
AcDbLine
 10
-368.547313666746
 20
-633.684214815596
 11
-371.547313666746
 21
-631.952164008027
  0
LINE
  5
8E
100
AcDbEntity
  8
1
  6
CONTINUOUS
 62
           7
100
AcDbLine
 10
-368.547313666746
 20
-637.148316430734
 11
-368.547313666746
 21
-633.684214815596
  0
LINE
  5
8D
100
AcDbEntity
  8
1
  6
CONTINUOUS
 62
           7
100
AcDbLine
 10
-371.547313666746
 20
-638.880367238304
 11
-368.547313666746
 21
-637.148316430734
  0
LINE
  5
8C
100
AcDbEntity
  8
1
  6
CONTINUOUS
 62
           7
100
AcDbLine
 10
-374.547313666746
 20
-637.148316430734
 11
-371.547313666746
 21
-638.880367238304
  0
LINE
  5
8B
100
AcDbEntity
  8
1
  6
CONTINUOUS
 62
           7
100
AcDbLine
 10
-374.547313666746
 20
-633.684214815596
 11
-374.547313666746
 21
-637.148316430734
  0
LINE
  5
8A
100
AcDbEntity
  8
1
  6
CONTINUOUS
 62
           7
100
AcDbLine
 10
-371.547313666746
 20
-631.952164008027
 11
-374.547313666746
 21
-633.684214815596
  0
LINE
  5
89
100
AcDbEntity
  8
1
  6
CONTINUOUS
 62
           7
100
AcDbLine
 10
-409.947313666746
 20
-633.684214815596
 11
-412.947313666746
 21
-631.952164008027
  0
LINE
  5
88
100
AcDbEntity
  8
1
  6
CONTINUOUS
 62
           7
100
AcDbLine
 10
-409.947313666746
 20
-637.148316430734
 11
-409.947313666746
 21
-633.684214815596
  0
LINE
  5
87
100
AcDbEntity
  8
1
  6
CONTINUOUS
 62
           7
100
AcDbLine
 10
-412.947313666746
 20
-638.880367238304
 11
-409.947313666746
 21
-637.148316430734
  0
LINE
  5
86
100
AcDbEntity
  8
1
  6
CONTINUOUS
 62
           7
100
AcDbLine
 10
-415.947313666746
 20
-637.148316430734
 11
-412.947313666746
 21
-638.880367238304
  0
LINE
  5
85
100
AcDbEntity
  8
1
  6
CONTINUOUS
 62
           7
100
AcDbLine
 10
-415.947313666746
 20
-633.684214815596
 11
-415.947313666746
 21
-637.148316430734
  0
LINE
  5
84
100
AcDbEntity
  8
1
  6
CONTINUOUS
 62
           7
100
AcDbLine
 10
-412.947313666746
 20
-631.952164008027
 11
-415.947313666746
 21
-633.684214815596
  0
LINE
  5
83
100
AcDbEntity
  8
1
  6
DOT_CENTER
 62
           2
100
AcDbLine
 10
-415.36258009928
 20
-635.416265623165
 11
-411.077779197722
 21
-635.416265623165
  0
LINE
  5
82
100
AcDbEntity
  8
1
  6
DOT_CENTER
 62
           2
100
AcDbLine
 10
-412.947313666746
 20
-633.352654168856
 11
-412.947313666746
 21
-637.795198198406
  0
LINE
  5
81
100
AcDbEntity
  8
1
  6
CONTINUOUS
 62
           7
100
AcDbLine
 10
-371.771772044956
 20
-608.978720584975
 11
-369.771772044956
 21
-607.875486329164
  0
LINE
  5
80
100
AcDbEntity
  8
1
  6
CONTINUOUS
 62
           7
100
AcDbLine
 10
-371.771772044956
 20
-611.288121661733
 11
-371.771772044956
 21
-608.978720584975
  0
LINE
  5
7F
100
AcDbEntity
  8
1
  6
CONTINUOUS
 62
           7
100
AcDbLine
 10
-369.771772044956
 20
-612.442822200112
 11
-371.771772044956
 21
-611.288121661733
  0
LINE
  5
7E
100
AcDbEntity
  8
1
  6
CONTINUOUS
 62
           7
100
AcDbLine
 10
-367.771772044956
 20
-611.288121661733
 11
-369.771772044956
 21
-612.442822200112
  0
LINE
  5
7D
100
AcDbEntity
  8
1
  6
CONTINUOUS
 62
           7
100
AcDbLine
 10
-367.771772044956
 20
-608.978720584975
 11
-367.771772044956
 21
-611.288121661733
  0
LINE
  5
7C
100
AcDbEntity
  8
1
  6
CONTINUOUS
 62
           7
100
AcDbLine
 10
-369.771772044956
 20
-607.875486329164
 11
-367.771772044956
 21
-608.978720584975
  0
LINE
  5
7B
100
AcDbEntity
  8
1
  6
DOT_CENTER
 62
           2
100
AcDbLine
 10
-369.771772044956
 20
-608.383401064455
 11
-369.771772044956
 21
-612.307683488151
  0
LINE
  5
7A
100
AcDbEntity
  8
1
  6
DOT_CENTER
 62
           2
100
AcDbLine
 10
-371.747784493478
 20
-610.133421123354
 11
-367.616882044912
 21
-610.133421123354
  0
LINE
  5
79
100
AcDbEntity
  8
1
  6
CONTINUOUS
 62
           7
100
AcDbLine
 10
-365.997313666746
 20
-616.26260599773
 11
-365.997313666746
 21
-628.716452192927
  0
LINE
  5
78
100
AcDbEntity
  8
1
  6
CONTINUOUS
 62
           7
100
AcDbLine
 10
-365.997313666746
 20
-642.116079053404
 11
-365.997313666746
 21
-659.02500228221
  0
LINE
  5
77
100
AcDbEntity
  8
1
  6
CONTINUOUS
 62
           7
100
AcDbLine
 10
-418.497313666746
 20
-642.116079053404
 11
-418.497313666746
 21
-659.02500228221
  0
LINE
  5
76
100
AcDbEntity
  8
1
  6
CONTINUOUS
 62
           7
100
AcDbLine
 10
-418.497313666746
 20
-615.807528964118
 11
-418.497313666746
 21
-628.716452192927
  0
LINE
  5
75
100
AcDbEntity
  8
1
  6
DOT_CENTER
 62
           2
100
AcDbLine
 10
-371.547313666746
 20
-637.109679211223
 11
-371.547313666746
 21
-633.275996049228
  0
LINE
  5
74
100
AcDbEntity
  8
1
  6
DOT_CENTER
 62
           2
100
AcDbLine
 10
-362.547313666746
 20
-610.116265623166
 11
-362.547313666746
 21
-609.029297094813
  0
LINE
  5
73
100
AcDbEntity
  8
1
  6
CONTINUOUS
 62
           7
100
AcDbLine
 10
-392.247313666746
 20
-602.916420835804
 11
-369.700037479377
 21
-602.916420835804
  0
LINE
  5
72
100
AcDbEntity
  8
1
  6
DOT_CENTER
 62
           2
100
AcDbLine
 10
-371.297313666746
 20
-620.616265623164
 11
-367.341380585082
 21
-620.616265623164
  0
LINE
  5
71
100
AcDbEntity
  8
1
  6
CONTINUOUS
 62
           7
100
AcDbLine
 10
-410.497313666746
 20
-682.416265623165
 11
-373.997313666746
 21
-682.416265623165
  0
LINE
  5
70
100
AcDbEntity
  8
1
  6
CONTINUOUS
 62
           7
100
AcDbLine
 10
-373.997313666746
 20
-682.416265623165
 11
-364.997313666746
 21
-682.416265623165
  0
LINE
  5
6F
100
AcDbEntity
  8
1
  6
CONTINUOUS
 62
           7
100
AcDbLine
 10
-372.997313666746
 20
-682.416265623165
 11
-372.997313666746
 21
-674.148316430734
  0
LINE
  5
6E
100
AcDbEntity
  8
1
  6
DOT_CENTER
 62
           2
100
AcDbLine
 10
-414.747313666746
 20
-656.822250967739
 11
-414.747313666746
 21
-651.347811459386
  0
LINE
  5
6D
100
AcDbEntity
  8
1
  6
DOT_CENTER
 62
           2
100
AcDbLine
 10
-372.190168836552
 20
-610.133421123354
 11
-367.616882044912
 21
-610.133421123354
  0
LINE
  5
6C
100
AcDbEntity
  8
1
  6
CONTINUOUS
 62
           7
100
AcDbLine
 10
-419.497313666746
 20
-674.416265623165
 11
-419.497313666746
 21
-682.416265623165
  0
LINE
  5
6B
100
AcDbEntity
  8
1
  6
DOT_CENTER
 62
           2
100
AcDbLine
 10
-371.547313666746
 20
-638.680342320798
 11
-371.547313666746
 21
-632.275996049228
  0
LINE
  5
6A
100
AcDbEntity
  8
1
  6
DOT_CENTER
 62
           2
100
AcDbLine
 10
-369.771772044956
 20
-607.875486329164
 11
-369.771772044956
 21
-611.991594586347
  0
LINE
  5
69
100
AcDbEntity
  8
1
  6
DOT_CENTER
 62
           2
100
AcDbLine
 10
-374.919107118161
 20
-635.416265623165
 11
-369.132047234213
 21
-635.416265623165
  0
LINE
  5
68
100
AcDbEntity
  8
1
  6
CONTINUOUS
 62
           7
100
AcDbLine
 10
-373.997313666746
 20
-672.416265623165
 11
-373.997313666746
 21
-652.524377734091
  0
LINE
  5
67
100
AcDbEntity
  8
1
  6
DOT_CENTER
 62
           2
100
AcDbLine
 10
-415.36258009928
 20
-635.416265623165
 11
-411.077779197722
 21
-635.416265623165
  0
LINE
  5
66
100
AcDbEntity
  8
1
  6
DOT_CENTER
 62
           2
100
AcDbLine
 10
-412.947313666746
 20
-632.275996049228
 11
-412.947313666746
 21
-638.680342320798
  0
LINE
  5
65
100
AcDbEntity
  8
1
  6
CONTINUOUS
 62
           7
100
AcDbLine
 10
-364.997313666746
 20
-682.416265623165
 11
-364.997313666746
 21
-674.416265623165
  0
LINE
  5
64
100
AcDbEntity
  8
1
  6
CONTINUOUS
 62
           7
100
AcDbLine
 10
-371.997313666746
 20
-674.416265623165
 11
-364.997313666746
 21
-674.416265623165
  0
LINE
  5
63
100
AcDbEntity
  8
1
  6
CONTINUOUS
 62
           7
100
AcDbLine
 10
-419.497313666746
 20
-674.416265623165
 11
-412.497313666746
 21
-674.416265623165
  0
LINE
  5
62
100
AcDbEntity
  8
1
  6
CONTINUOUS
 62
           7
100
AcDbLine
 10
-410.497313666746
 20
-652.524377734091
 11
-410.497313666746
 21
-672.416265623165
  0
LINE
  5
61
100
AcDbEntity
  8
1
  6
DOT_CENTER
 62
           2
100
AcDbLine
 10
-376.747313666746
 20
-676.042845356981
 11
-376.747313666746
 21
-680.482330485558
  0
LINE
  5
60
100
AcDbEntity
  8
1
  6
DOT_CENTER
 62
           2
100
AcDbLine
 10
-378.818526151404
 20
-678.316265623164
 11
-374.429332149232
 21
-678.316265623164
  0
LINE
  5
5F
100
AcDbEntity
  8
1
  6
DOT_CENTER
 62
           2
100
AcDbLine
 10
-376.747313666746
 20
-642.932845356982
 11
-376.747313666746
 21
-647.382330485558
  0
LINE
  5
5E
100
AcDbEntity
  8
1
  6
DOT_CENTER
 62
           2
100
AcDbLine
 10
-378.818526151404
 20
-645.216265623164
 11
-374.429332149232
 21
-645.216265623164
  0
LINE
  5
5D
100
AcDbEntity
  8
1
  6
DOT_CENTER
 62
           2
100
AcDbLine
 10
-409.56529518426
 20
-678.316265623164
 11
-405.176101182088
 21
-678.316265623164
  0
LINE
  5
5C
100
AcDbEntity
  8
1
  6
DOT_CENTER
 62
           2
100
AcDbLine
 10
-407.747313666746
 20
-680.492330485558
 11
-407.747313666746
 21
-676.042845356981
  0
LINE
  5
5B
100
AcDbEntity
  8
1
  6
DOT_CENTER
 62
           2
100
AcDbLine
 10
-369.747313666746
 20
-617.964944234958
 11
-369.747313666746
 21
-624.077264827849
  0
LINE
  5
5A
100
AcDbEntity
  8
1
  6
DOT_CENTER
 62
           2
100
AcDbLine
 10
-416.774652587791
 20
-620.616265623164
 11
-411.247837014296
 21
-620.616265623164
  0
LINE
  5
59
100
AcDbEntity
  8
1
  6
DOT_CENTER
 62
           2
100
AcDbLine
 10
-414.747313666746
 20
-624.077264827849
 11
-414.747313666746
 21
-617.964944234958
  0
LINE
  5
58
100
AcDbEntity
  8
1
  6
DOT_CENTER
 62
           2
100
AcDbLine
 10
-369.747313666746
 20
-651.347811459386
 11
-369.747313666746
 21
-656.822250967739
  0
LINE
  5
57
100
AcDbEntity
  8
1
  6
DOT_CENTER
 62
           2
100
AcDbLine
 10
-416.73140530616
 20
-653.916265623164
 11
-412.006523219434
 21
-653.916265623164
  0
LINE
  5
56
100
AcDbEntity
  8
1
  6
DOT_CENTER
 62
           2
100
AcDbLine
 10
-371.547313666746
 20
-637.109679211223
 11
-371.547313666746
 21
-633.275996049228
  0
LINE
  5
55
100
AcDbEntity
  8
1
  6
DOT_CENTER
 62
           2
100
AcDbLine
 10
-407.747313666746
 20
-647.471907711746
 11
-407.747313666746
 21
-643.02242258317
  0
LINE
  5
54
100
AcDbEntity
  8
1
  6
DOT_CENTER
 62
           2
100
AcDbLine
 10
-410.06529518426
 20
-645.216265623164
 11
-405.676101182088
 21
-645.216265623164
  0
LINE
  5
53
100
AcDbEntity
  8
1
  6
CONTINUOUS
 62
           7
100
AcDbLine
 10
-419.497313666746
 20
-682.416265623165
 11
-410.497313666746
 21
-682.416265623165
  0
LINE
  5
52
100
AcDbEntity
  8
1
  6
CONTINUOUS
 62
           7
100
AcDbLine
 10
-411.497313666746
 20
-674.148316430734
 11
-411.497313666746
 21
-682.416265623165
  0
LINE
  5
51
100
AcDbEntity
  8
1
  6
DOT_CENTER
 62
           2
100
AcDbLine
 10
-392.247313666746
 20
-614.164212516057
 11
-392.247313666746
 21
-626.149314301279
  0
LINE
  5
50
100
AcDbEntity
  8
1
  6
DOT_CENTER
 62
           2
100
AcDbLine
 10
-395.844376567154
 20
-620.616265623164
 11
-388.234055490533
 21
-620.616265623164
  0
LINE
  5
4F
100
AcDbEntity
  8
1
  6
DOT_CENTER
 62
           2
100
AcDbLine
 10
-373.997313666746
 20
-653.916265623164
 11
-366.971201416805
 21
-653.916265623164
  0
LINE
  5
4E
100
AcDbEntity
  8
1
  6
DOT_CENTER
 62
           2
100
AcDbLine
 10
-394.76180606511
 20
-653.916265623164
 11
-389.763337324726
 21
-653.916265623164
  0
LINE
  5
4D
100
AcDbEntity
  8
1
  6
DOT_CENTER
 62
           2
100
AcDbLine
 10
-392.247313666746
 20
-651.765805471952
 11
-392.247313666746
 21
-656.658125585994
  0
LINE
  5
4C
100
AcDbEntity
  8
1
  6
DOT_CENTER
 62
           2
100
AcDbLine
 10
-373.416848135771
 20
-635.416265623165
 11
-369.132047234213
 21
-635.416265623165
  0
LINE
  5
4B
100
AcDbEntity
  8
1
  6
CONTINUOUS
 62
           7
100
AcDbLine
 10
-373.997313666746
 20
-680.416265623166
 11
-373.997313666746
 21
-643.997824936329
  0
LINE
  5
4A
100
AcDbEntity
  8
1
  6
DOT_CENTER
 62
           2
100
AcDbLine
 10
-407.747313666746
 20
-643.02242258317
 11
-407.747313666746
 21
-648.004239688149
  0
LINE
  5
49
100
AcDbEntity
  8
1
  6
DOT_CENTER
 62
           2
100
AcDbLine
 10
-410.06529518426
 20
-645.216265623164
 11
-405.069715461365
 21
-645.216265623164
  0
LINE
  5
48
100
AcDbEntity
  8
1
  6
DOT_CENTER
 62
           2
100
AcDbLine
 10
-410.093471091879
 20
-678.316265623164
 11
-404.996807393941
 21
-678.316265623164
  0
LINE
  5
47
100
AcDbEntity
  8
1
  6
DOT_CENTER
 62
           2
100
AcDbLine
 10
-407.747313666746
 20
-676.042845356981
 11
-407.747313666746
 21
-680.648771914669
  0
LINE
  5
46
100
AcDbEntity
  8
1
  6
DOT_CENTER
 62
           2
100
AcDbLine
 10
-379.523341949118
 20
-678.316265623164
 11
-374.429332149232
 21
-678.316265623164
  0
LINE
  5
45
100
AcDbEntity
  8
1
  6
DOT_CENTER
 62
           2
100
AcDbLine
 10
-376.747313666746
 20
-676.042845356981
 11
-376.747313666746
 21
-681.704007534159
  0
LINE
  5
44
100
AcDbEntity
  8
1
  6
DOT_CENTER
 62
           2
100
AcDbLine
 10
-376.747313666746
 20
-648.182330485558
 11
-376.747313666746
 21
-642.932845356982
  0
LINE
  5
43
100
AcDbEntity
  8
1
  6
DOT_CENTER
 62
           2
100
AcDbLine
 10
-372.487714974409
 20
-645.216265623164
 11
-379.244873838398
 21
-645.216265623164
  0
LINE
  5
42
100
AcDbEntity
  8
1
  6
CONTINUOUS
 62
           7
100
AcDbLine
 10
-403.997313666746
 20
-680.416265623166
 11
-403.997313666746
 21
-678.316265623164
  0
LINE
  5
41
100
AcDbEntity
  8
1
  6
CONTINUOUS
 62
           7
100
AcDbLine
 10
-409.497313666746
 20
-674.566265623164
 11
-407.747313666746
 21
-674.566265623164
  0
LINE
  5
40
100
AcDbEntity
  8
1
  6
CONTINUOUS
 62
           7
100
AcDbLine
 10
-380.497313666746
 20
-678.316265623164
 11
-380.497313666746
 21
-680.416265623166
  0
LINE
  5
3F
100
AcDbEntity
  8
1
  6
CONTINUOUS
 62
           7
100
AcDbLine
 10
-376.747313666746
 20
-674.566265623164
 11
-374.997313666746
 21
-674.566265623164
  0
LINE
  5
3E
100
AcDbEntity
  8
1
  6
CONTINUOUS
 62
           7
100
AcDbLine
 10
-409.497313666746
 20
-648.966265623164
 11
-407.747313666746
 21
-648.966265623164
  0
LINE
  5
3D
100
AcDbEntity
  8
1
  6
CONTINUOUS
 62
           7
100
AcDbLine
 10
-403.997313666746
 20
-641.947528831115
 11
-403.997313666746
 21
-645.216265623164
  0
LINE
  5
3C
100
AcDbEntity
  8
1
  6
CONTINUOUS
 62
           7
100
AcDbLine
 10
-380.497313666746
 20
-645.416265623169
 11
-380.497313666746
 21
-641.947528831115
  0
LINE
  5
3B
100
AcDbEntity
  8
1
  6
CONTINUOUS
 62
           7
100
AcDbLine
 10
-376.947313666749
 20
-648.966265623164
 11
-374.997313666746
 21
-648.966265623164
  0
LINE
  5
3A
100
AcDbEntity
  8
1
  6
CONTINUOUS
 62
           7
100
AcDbLine
 10
-410.497313666746
 20
-643.997824936329
 11
-410.497313666746
 21
-680.416265623166
  0
LINE
  5
39
100
AcDbEntity
  8
1
  6
CONTINUOUS
 62
           7
100
AcDbLine
 10
-409.497313666746
 20
-681.416265623166
 11
-374.997313666746
 21
-681.416265623166
  0
LINE
  5
38
100
AcDbEntity
  8
1
  6
DOT_CENTER
 62
           2
100
AcDbLine
 10
-392.247313666746
 20
-670.921224071256
 11
-392.247313666746
 21
-638.916265623166
  0
LINE
  5
37
100
AcDbEntity
  8
1
  6
DOT_CENTER
 62
           2
100
AcDbLine
 10
-409.005520737477
 20
-653.916265623164
 11
-375.345062222719
 21
-653.916265623164
  0
LINE
  5
36
100
AcDbEntity
  8
1
  6
CONTINUOUS
 62
           7
100
AcDbLine
 10
-391.818027881017
 20
-644.92650958008
 11
-384.676599452475
 21
-649.049615205697
  0
LINE
  5
35
100
AcDbEntity
  8
1
  6
CONTINUOUS
 62
           7
100
AcDbLine
 10
-384.247313666746
 20
-649.793159997547
 11
-384.247313666746
 21
-658.039371248782
  0
LINE
  5
34
100
AcDbEntity
  8
1
  6
CONTINUOUS
 62
           7
100
AcDbLine
 10
-384.676599452475
 20
-658.782916040631
 11
-391.818027881017
 21
-662.906021666249
  0
LINE
  5
33
100
AcDbEntity
  8
1
  6
CONTINUOUS
 62
           7
100
AcDbLine
 10
-392.676599452475
 20
-662.906021666249
 11
-399.818027881017
 21
-658.782916040632
  0
LINE
  5
32
100
AcDbEntity
  8
1
  6
CONTINUOUS
 62
           7
100
AcDbLine
 10
-400.247313666746
 20
-658.039371248782
 11
-400.247313666746
 21
-649.793159997547
  0
LINE
  5
31
100
AcDbEntity
  8
1
  6
CONTINUOUS
 62
           7
100
AcDbLine
 10
-399.818027881018
 20
-649.049615205698
 11
-392.676599452475
 21
-644.92650958008
  0
LINE
  5
30
100
AcDbEntity
  8
1
  6
DOT_CENTER
 62
           2
100
AcDbLine
 10
-376.747313666746
 20
-648.342660733484
 11
-376.747313666746
 21
-642.194528530638
  0
LINE
  5
2F
100
AcDbEntity
  8
1
  6
DOT_CENTER
 62
           2
100
AcDbLine
 10
-379.985320792935
 20
-645.216265623164
 11
-373.590504273309
 21
-645.216265623164
  0
LINE
  5
2E
100
AcDbEntity
  8
1
  6
CONTINUOUS
 62
           7
100
AcDbLine
 10
-375.497313666746
 20
-645.937953459651
 11
-375.497313666746
 21
-644.494577786677
  0
LINE
  5
2D
100
AcDbEntity
  8
1
  6
CONTINUOUS
 62
           7
100
AcDbLine
 10
-377.997313666746
 20
-644.494577786677
 11
-377.997313666746
 21
-645.937953459651
  0
LINE
  5
2C
100
AcDbEntity
  8
1
  6
CONTINUOUS
 62
           7
100
AcDbLine
 10
-376.747313666746
 20
-643.77288995019
 11
-375.497313666746
 21
-644.494577786677
  0
LINE
  5
2B
100
AcDbEntity
  8
1
  6
CONTINUOUS
 62
           7
100
AcDbLine
 10
-377.997313666746
 20
-644.494577786677
 11
-376.747313666746
 21
-643.77288995019
  0
LINE
  5
2A
100
AcDbEntity
  8
1
  6
CONTINUOUS
 62
           7
100
AcDbLine
 10
-376.747313666746
 20
-646.659641296138
 11
-375.497313666746
 21
-645.937953459651
  0
LINE
  5
29
100
AcDbEntity
  8
1
  6
CONTINUOUS
 62
           7
100
AcDbLine
 10
-377.997313666746
 20
-645.937953459651
 11
-376.747313666746
 21
-646.659641296138
  0
LINE
  5
28
100
AcDbEntity
  8
1
  6
DOT_CENTER
 62
           2
100
AcDbLine
 10
-531.832638673982
 20
-653.916265623164
 11
-464.629870667331
 21
-653.916265623164
  0
ENDSEC
  0
SECTION
  2
OBJECTS
  0
DICTIONARY
  5
19
100
AcDbDictionary
  3
ACAD_GROUP
350
1A
  3
ACAD_MLINESTYLE
350
1B
  0
DICTIONARY
  5
1A
102
{ACAD_REACTORS
330
19
102
}
100
AcDbDictionary
  0
DICTIONARY
  5
1B
102
{ACAD_REACTORS
330
19
102
}
100
AcDbDictionary
  3
STANDARD
350
1C
  0
MLINESTYLE
  5
1C
102
{ACAD_REACTORS
330
1B
102
}
100
AcDbMlineStyle
  2
STANDARD
 70
           0
  3

 62
           0
 51
90.0
 52
90.0
 71
           2
 49
0.5
 62
         256
  6
BYLAYER
 49
-0.5
 62
         256
  6
BYLAYER
  0
ENDSEC
  0
EOF
