  0
SECTION
  2
HEADER
  9
$ACADVER
  1
AC1009
  9
$INSBASE
 10
0
 20
0
  9
$EXTMIN
 10
-110.299364602527
 20
-31.9867067090058
  9
$EXTMAX
 10
49.0814117720836
 20
62.45668764873892
  9
$LIMMIN
 10
-110.299364602527
 20
-31.9867067090058
  9
$LIMMAX
 10
49.0814117720836
 20
62.45668764873892
  9
$VIEWCTR
 10
10
 20
10
  9
$VIEWSIZE
 40
10
  9
$SNAPMODE
 70
0
  9
$SNAPUNIT
 10
1
 20
1
  9
$SNAPBASE
 10
0
 20
0
  9
$SNAPANG
 50
0
  9
$SNAPSTYLE
 70
0
  9
$SNAPISOPAIR
 70
0
  9
$GRIDMODE
 70
0
  9
$GRIDUNIT
 10
0
 20
0
  9
$ORTHOMODE
 70
0
  9
$REGENMODE
 70
1
  9
$FILLMODE
 70
1
  9
$QTEXTMODE
 70
0
  9
$DRAGMODE
 70
2
  9
$LTSCALE
 40
1
  9
$OSMODE
 70
0
  9
$ATTMODE
 70
1
  9
$TEXTSIZE
 40
3.5
  9
$TRACEWID
 40
0.5
  9
$TEXTSTYLE
  7
STANDARD
  9
$CLAYER
  8
0
  9
$CELTYPE
  6
BYLAYER
  9
$CECOLOR
 62
256
  9
$DIMSCALE
 40
1
  9
$DIMASZ
 40
0.18
  9
$DIMEXO
 40
0.0625
  9
$DIMDLI
 40
0.38
  9
$DIMRND
 40
0
  9
$DIMDLE
 40
0
  9
$DIMEXE
 40
0.18
  9
$DIMTP
 40
0
  9
$DIMTM
 40
0
  9
$DIMTXT
 40
0.18
  9
$DIMCEN
 40
0.09
  9
$DIMTSZ
 40
0
  9
$DIMTOL
 70
0
  9
$DIMLIM
 70
0
  9
$DIMTIH
 70
1
  9
$DIMTOH
 70
1
  9
$DIMSE1
 70
0
  9
$DIMSE2
 70
0
  9
$DIMTAD
 70
0
  9
$DIMZIN
 70
0
  9
$DIMBLK
  1

  9
$DIMASO
 70
1
  9
$DIMSHO
 70
1
  9
$DIMPOST
  1

  9
$DIMAPOST
  1

  9
$DIMALT
 70
0
  9
$DIMALTD
 70
2
  9
$DIMALTF
 40
25.4
  9
$DIMLFAC
 40
1
  9
$DIMTOFL
 70
0
  9
$DIMTVP
 40
0
  9
$DIMTIX
 70
0
  9
$DIMSOXD
 70
0
  9
$DIMSAH
 70
0
  9
$DIMBLK1
  1

  9
$DIMBLK2
  1

  9
$DIMSTYLE
  2
*UNNAMED
  9
$DIMCLRD
 70
0
  9
$DIMCLRE
 70
0
  9
$DIMCLRT
 70
0
  9
$DIMTFAC
 40
1
  9
$DIMGAP
 40
0.09
  9
$LUNITS
 70
2
  9
$LUPREC
 70
4
  9
$AXISMODE
 70
0
  9
$AXISUNIT
 10
0
 20
0
  9
$SKETCHINC
 40
0.1
  9
$FILLETRAD
 40
2
  9
$AUNITS
 70
0
  9
$AUPREC
 70
0
  9
$MENU
  1
ACAD
  9
$ELEVATION
 40
0
  9
$THICKNESS
 40
0
  9
$VIEWDIR
 10
0
 20
0
 30
1
  9
$LIMCHECK
 70
0
  9
$BLIPMODE
 70
1
  9
$CHAMFERA
 40
0
  9
$CHAMFERB
 40
0
  9
$FASTZOOM
 70
1
  9
$SKPOLY
 70
0
  9
$ANGBASE
 50
0
  9
$ANGDIR
 70
0
  9
$PDMODE
 70
0
  9
$PDSIZE
 40
0
  9
$PLINEWID
 40
0
  9
$COORDS
 70
2
  0
ENDSEC
  0
SECTION
  2
TABLES
  0
TABLE
  2
DIMSTYLE
 70
0
  0
ENDTAB
  0
TABLE
  2
LTYPE
 70
9
  0
LTYPE
  2
CONTINUOUS
 70
64
  3
Solid line
 72
65
 73
0
 40
0
  0
LTYPE
  2
BORDER
 70
64
  3
__ __ . __ __ .
 72
65
 73
6
 40
7.339904175146542
 49
2.097115478613298
 49
-1.048557739306649
 49
2.097115478613298
 49
-1.048557739306649
 49
0
 49
-1.048557739306649
  0
LTYPE
  2
CENTER
 70
64
  3
____ _ ____ _
 72
65
 73
4
 40
8.38846191445319
 49
5.242788696533244
 49
-1.048557739306649
 49
1.048557739306649
 49
-1.048557739306649
  0
LTYPE
  2
DASHDOT
 70
64
  3
__ . __ . __ .
 72
65
 73
4
 40
4.194230957226595
 49
2.097115478613298
 49
-1.048557739306649
 49
0
 49
-1.048557739306649
  0
LTYPE
  2
DASHED
 70
64
  3
__ __ __ __ __
 72
65
 73
2
 40
3.145673217919947
 49
2.097115478613298
 49
-1.048557739306649
  0
LTYPE
  2
DIVIDE
 70
64
  3
__ . . __ . . 
 72
65
 73
6
 40
5.242788696533244
 49
2.097115478613298
 49
-1.048557739306649
 49
0
 49
-1.048557739306649
 49
0
 49
-1.048557739306649
  0
LTYPE
  2
DOT
 70
64
  3
..............
 72
65
 73
4
 40
2.097115478613298
 49
0
 49
-1.048557739306649
 49
0
 49
-1.048557739306649
  0
LTYPE
  2
HIDDEN
 70
64
  3
_ _ _ _ _ _ _
 72
65
 73
2
 40
1.572836608959973
 49
1.048557739306649
 49
-0.5242788696533244
  0
LTYPE
  2
PHANTOM
 70
64
  3
_____ _ _ _____ _ _ 
 72
65
 73
6
 40
10.48557739306649
 49
5.242788696533244
 49
-1.048557739306649
 49
1.048557739306649
 49
-1.048557739306649
 49
1.048557739306649
 49
-1.048557739306649
  0
ENDTAB
  0
TABLE
  2
LAYER
 70
4
  0
LAYER
  2
976
 70
0
 62
7
  6
CONTINUOUS
  0
LAYER
  2
1
 70
0
 62
7
  6
CONTINUOUS
  0
LAYER
  2
0
 70
0
 62
7
  6
CONTINUOUS
  0
ENDTAB
  0
TABLE
  2
STYLE
 70
4
  0
STYLE
  2
STANDARD
 70
0
 40
0
 41
1
 50
0
 71
0
 42
3.5
  3
txt
  4

  0
STYLE
  2
SIMPLEX
 70
0
 40
0
 41
1
 50
0
 71
0
 42
3.5
  3
simplex
  4

  0
STYLE
  2
COMPLEX
 70
0
 40
0
 41
1
 50
0
 71
0
 42
3.5
  3
complex
  4

  0
STYLE
  2
ITALIC
 70
0
 40
0
 41
1
 50
0
 71
0
 42
3.5
  3
italic
  4

  0
ENDTAB
  0
TABLE
  2
VIEW
 70
0
  0
ENDTAB
  0
ENDSEC
  0
SECTION
  2
BLOCKS
  0
BLOCK
  8
0
  2
_1
 70
0
 10
-100.044364602527
 20
-19.93765297605913
 30
0
  0
LINE
  8
1
 62
7
 10
-77.61936460252703
 20
-13.59897378122511
 30
0
 11
-77.45055842740324
 21
-13.89135465317091
 31
0
  0
LINE
  8
1
 62
7
 10
-74.11746587869904
 20
-13.04432751177839
 30
0
 11
-74.18765943327996
 21
-13.37456222215121
 31
0
  0
LINE
  8
1
 62
7
 10
-72.88109240751531
 20
-12.64260541909098
 30
0
 11
-72.63019753641156
 21
-12.86851217572638
 31
0
  0
LINE
  8
1
 62
7
 10
-68.67026183725129
 20
-10.26883842407187
 30
0
 11
-68.36183760823853
 21
-10.40615773807249
 31
0
  0
LINE
  8
1
 62
7
 10
-69.72198392993873
 20
-11.03295925205208
 30
0
 11
-69.68669382978716
 21
-11.36872212652008
 31
0
  0
LINE
  8
1
 62
7
 10
-66.16317915451431
 20
-7.761755741334866
 30
0
 11
-66.02585984051366
 21
-8.070179970347624
 31
0
  0
LINE
  8
1
 62
7
 10
-65.39905832653408
 20
-6.710033648647453
 30
0
 11
-65.0632954520661
 21
-6.745323748798995
 31
0
  0
LINE
  8
1
 62
7
 10
-63.38769006680776
 20
-2.314551699887119
 30
0
 11
-63.05745535643497
 21
-2.244358145306194
 31
0
  0
LINE
  8
1
 62
7
 10
-63.7894121594952
 20
-3.550925171070816
 30
0
 11
-63.56350540285978
 21
-3.801820042174626
 31
0
  0
LINE
  8
1
 62
7
 10
-62.83304379736107
 20
1.187347023940873
 30
0
 11
-62.54066292541525
 21
1.018540848817082
 31
0
  0
LINE
  8
1
 62
2
  6
DASHDOT
 10
-100.044364602527
 20
1.837347023940879
 30
0
 11
-56.49436460252703
 21
1.837347023940879
 31
0
  0
LINE
  8
1
 62
2
  6
DASHDOT
 10
-78.26936460252703
 20
-19.93765297605913
 30
0
 11
-78.26936460252703
 21
23.61234702394089
 31
0
  0
LINE
  8
1
 62
7
 10
-62.54066292541525
 20
2.656153199064676
 30
0
 11
-62.83304379736107
 21
2.487347023940885
 31
0
  0
LINE
  8
1
 62
7
 10
-63.56350540285978
 20
7.476514090056384
 30
0
 11
-63.7894121594952
 21
7.225619218952573
 31
0
  0
LINE
  8
1
 62
7
 10
-63.05745535643497
 20
5.919052193187952
 30
0
 11
-63.38769006680776
 21
5.989245747768877
 31
0
  0
LINE
  8
1
 62
7
 10
-65.0632954520661
 20
10.42001779668075
 30
0
 11
-65.39905832653408
 21
10.38472769652921
 31
0
  0
LINE
  8
1
 62
7
 10
-66.02585984051366
 20
11.74487401822938
 30
0
 11
-66.16317915451431
 21
11.43644978921662
 31
0
  0
LINE
  8
1
 62
7
 10
-69.68669382978716
 20
15.04341617440184
 30
0
 11
-69.72198392993873
 21
14.70765329993384
 31
0
  0
LINE
  8
1
 62
7
 10
-68.36183760823853
 20
14.08085178595425
 30
0
 11
-68.67026183725129
 21
13.94353247195363
 31
0
  0
LINE
  8
1
 62
7
 10
-72.63019753641156
 20
16.54320622360814
 30
0
 11
-72.88109240751531
 21
16.31729946697274
 31
0
  0
LINE
  8
1
 62
7
 10
-74.18765943327996
 20
17.04925627003297
 30
0
 11
-74.11746587869904
 21
16.71902155966015
 31
0
  0
LINE
  8
1
 62
7
 10
-77.45055842740324
 20
17.56604870105267
 30
0
 11
-77.61936460252703
 21
17.27366782910687
 31
0
  0
LINE
  8
1
 62
7
 10
-78.91936460252704
 20
17.27366782910687
 30
0
 11
-79.08817077765086
 21
17.56604870105267
 31
0
  0
LINE
  8
1
 62
7
 10
-82.42126332635506
 20
16.71902155966015
 30
0
 11
-82.35106977177411
 21
17.04925627003297
 31
0
  0
LINE
  8
1
 62
7
 10
-83.65763679753876
 20
16.31729946697274
 30
0
 11
-83.90853166864254
 21
16.54320622360814
 31
0
  0
LINE
  8
1
 62
7
 10
-87.86846736780278
 20
13.94353247195363
 30
0
 11
-88.17689159681554
 21
14.08085178595425
 31
0
  0
LINE
  8
1
 62
7
 10
-86.81674527511534
 20
14.70765329993384
 30
0
 11
-86.85203537526691
 21
15.04341617440184
 31
0
  0
LINE
  8
1
 62
7
 10
-90.37555005053976
 20
11.43644978921662
 30
0
 11
-90.51286936454044
 21
11.74487401822938
 31
0
  0
LINE
  8
1
 62
7
 10
-91.13967087851999
 20
10.38472769652921
 30
0
 11
-91.47543375298797
 21
10.42001779668075
 31
0
  0
LINE
  8
1
 62
7
 10
-93.1510391382463
 20
5.989245747768877
 30
0
 11
-93.4812738486191
 21
5.919052193187952
 31
0
  0
LINE
  8
1
 62
7
 10
-92.74931704555887
 20
7.225619218952573
 30
0
 11
-92.97522380219429
 21
7.476514090056384
 31
0
  0
LINE
  8
1
 62
7
 10
-93.705685407693
 20
2.487347023940885
 30
0
 11
-93.99806627963882
 21
2.656153199064676
 31
0
  0
LINE
  8
1
 62
7
 10
-93.99806627963882
 20
1.018540848817082
 30
0
 11
-93.705685407693
 21
1.187347023940873
 31
0
  0
LINE
  8
1
 62
7
 10
-92.97522380219429
 20
-3.801820042174626
 30
0
 11
-92.74931704555887
 21
-3.550925171070816
 31
0
  0
LINE
  8
1
 62
7
 10
-93.4812738486191
 20
-2.244358145306194
 30
0
 11
-93.1510391382463
 21
-2.314551699887119
 31
0
  0
LINE
  8
1
 62
7
 10
-91.47543375298797
 20
-6.745323748798995
 30
0
 11
-91.13967087851999
 21
-6.710033648647453
 31
0
  0
LINE
  8
1
 62
7
 10
-90.51286936454044
 20
-8.070179970347624
 30
0
 11
-90.37555005053976
 21
-7.761755741334866
 31
0
  0
LINE
  8
1
 62
7
 10
-86.85203537526691
 20
-11.36872212652008
 30
0
 11
-86.81674527511534
 21
-11.03295925205208
 31
0
  0
LINE
  8
1
 62
7
 10
-88.17689159681554
 20
-10.40615773807249
 30
0
 11
-87.86846736780278
 21
-10.26883842407187
 31
0
  0
LINE
  8
1
 62
7
 10
-83.90853166864254
 20
-12.86851217572638
 30
0
 11
-83.65763679753876
 21
-12.64260541909098
 31
0
  0
LINE
  8
1
 62
7
 10
-82.35106977177411
 20
-13.37456222215121
 30
0
 11
-82.42126332635506
 21
-13.04432751177839
 31
0
  0
LINE
  8
1
 62
7
 10
-79.08817077765086
 20
-13.89135465317091
 30
0
 11
-78.91936460252704
 21
-13.59897378122511
 31
0
  0
ARC
  8
1
 62
7
 10
-78.26936460252703
 20
1.837347023940879
 30
0
 40
15.75
 50
272.9800188221869
 51
285.019981177813
  0
ARC
  8
1
 62
7
 10
-78.26936460252703
 20
1.837347023940879
 30
0
 40
15.74999999999999
 50
290.9800188221869
 51
303.019981177813
  0
ARC
  8
1
 62
7
 10
-78.26936460252703
 20
1.837347023940879
 30
0
 40
15.74999999999998
 50
308.9800188221869
 51
321.0199811778131
  0
ARC
  8
1
 62
7
 10
-78.26936460252703
 20
1.837347023940879
 30
0
 40
15.74999999999998
 50
326.9800188221869
 51
339.019981177813
  0
ARC
  8
1
 62
7
 10
-78.26936460252703
 20
1.837347023940879
 30
0
 40
15.74999999999998
 50
344.9800188221869
 51
357.0199811778131
  0
ARC
  8
1
 62
2
 10
-78.26936460252703
 20
1.837347023940879
 30
0
 40
15.44999999999999
 50
270
 51
0
  0
ARC
  8
1
 62
7
 10
-78.26936460252703
 20
1.837347023940879
 30
0
 40
15.17888576205886
 50
270
 51
0
  0
ARC
  8
1
 62
7
 10
-78.26936460252703
 20
1.837347023940879
 30
0
 40
15.17888576205885
 50
0
 51
90
  0
ARC
  8
1
 62
2
 10
-78.26936460252703
 20
1.837347023940879
 30
0
 40
15.44999999999998
 50
0
 51
90
  0
ARC
  8
1
 62
7
 10
-78.26936460252703
 20
1.837347023940879
 30
0
 40
15.75
 50
2.980018822186905
 51
15.01998117781308
  0
ARC
  8
1
 62
7
 10
-78.26936460252703
 20
1.837347023940879
 30
0
 40
15.74999999999999
 50
20.98001882218702
 51
33.01998117781305
  0
ARC
  8
1
 62
7
 10
-78.26936460252703
 20
1.837347023940879
 30
0
 40
15.74999999999999
 50
38.98001882218697
 51
51.01998117781303
  0
ARC
  8
1
 62
7
 10
-78.26936460252703
 20
1.837347023940879
 30
0
 40
15.75
 50
56.980018822187
 51
69.01998117781309
  0
ARC
  8
1
 62
7
 10
-78.26936460252703
 20
1.837347023940879
 30
0
 40
15.75000000000001
 50
74.98001882218695
 51
87.01998117781311
  0
ARC
  8
1
 62
7
 10
-78.26936460252703
 20
1.837347023940879
 30
0
 40
15.75
 50
92.98001882218699
 51
105.0199811778131
  0
ARC
  8
1
 62
7
 10
-78.26936460252703
 20
1.837347023940879
 30
0
 40
15.75
 50
110.980018822187
 51
123.019981177813
  0
ARC
  8
1
 62
7
 10
-78.26936460252703
 20
1.837347023940879
 30
0
 40
15.74999999999998
 50
128.980018822187
 51
141.0199811778131
  0
ARC
  8
1
 62
7
 10
-78.26936460252703
 20
1.837347023940879
 30
0
 40
15.74999999999997
 50
146.980018822187
 51
159.019981177813
  0
ARC
  8
1
 62
7
 10
-78.26936460252703
 20
1.837347023940879
 30
0
 40
15.74999999999998
 50
164.9800188221869
 51
177.0199811778131
  0
ARC
  8
1
 62
2
 10
-78.26936460252703
 20
1.837347023940879
 30
0
 40
15.44999999999999
 50
90
 51
180
  0
ARC
  8
1
 62
7
 10
-78.26936460252703
 20
1.837347023940879
 30
0
 40
15.17888576205885
 50
90
 51
180
  0
ARC
  8
1
 62
7
 10
-78.26936460252703
 20
1.837347023940879
 30
0
 40
15.17888576205885
 50
180
 51
270
  0
ARC
  8
1
 62
2
 10
-78.26936460252703
 20
1.837347023940879
 30
0
 40
15.44999999999999
 50
180
 51
270
  0
ARC
  8
1
 62
7
 10
-78.26936460252703
 20
1.837347023940879
 30
0
 40
15.75
 50
182.9800188221869
 51
195.0199811778131
  0
ARC
  8
1
 62
7
 10
-78.26936460252703
 20
1.837347023940879
 30
0
 40
15.75
 50
200.980018822187
 51
213.0199811778131
  0
ARC
  8
1
 62
7
 10
-78.26936460252703
 20
1.837347023940879
 30
0
 40
15.75000000000001
 50
218.9800188221869
 51
231.019981177813
  0
ARC
  8
1
 62
7
 10
-78.26936460252703
 20
1.837347023940879
 30
0
 40
15.75
 50
236.980018822187
 51
249.019981177813
  0
ARC
  8
1
 62
7
 10
-78.26936460252703
 20
1.837347023940879
 30
0
 40
15.75000000000001
 50
254.9800188221869
 51
267.019981177813
  0
ENDBLK
  8
0
  0
BLOCK
  8
0
  2
03213981A
 70
0
 10
-492.6690725264641
 20
-180.9665235753407
 30
0
  0
LINE
  8
1
 62
6
 10
-75.76936460252706
 20
17.83734702394085
 30
0
 11
-74.76936460252706
 21
17.83734702394085
 31
0
  0
LINE
  8
1
 62
7
 10
-74.76936460252695
 20
18.4146972931305
 30
0
 11
-74.76936460252706
 21
23.25999675475126
 31
0
  0
LINE
  8
1
 62
7
 10
-75.76936460252706
 20
23.83734702394085
 30
0
 11
-82.26936460252703
 21
23.83734702394085
 31
0
  0
LINE
  8
1
 62
7
 10
-75.76936460252706
 20
17.83734702394085
 30
0
 11
-74.76936460252695
 21
18.4146972931305
 31
0
  0
LINE
  8
1
 62
7
 10
-74.76936460252706
 20
23.25999675475126
 30
0
 11
-75.76936460252706
 21
23.83734702394085
 31
0
  0
LINE
  8
1
 62
7
 10
-77.55347797781964
 20
18.12602215853568
 30
0
 11
-79.57678219895969
 21
18.12602215853568
 31
0
  0
LINE
  8
1
 62
7
 10
-81.89473481046542
 20
17.83734702394082
 30
0
 11
-75.76936460252706
 21
17.83734702394085
 31
0
  0
LINE
  8
1
 62
7
 10
-77.55347797781964
 20
23.54867188934605
 30
0
 11
-77.55347797781964
 21
18.12602215853568
 31
0
  0
LINE
  8
1
 62
7
 10
-79.57678219895969
 20
18.12602215853568
 30
0
 11
-79.57678219895969
 21
23.54867188934605
 31
0
  0
LINE
  8
1
 62
7
 10
-79.57678219895969
 20
23.54867188934605
 30
0
 11
-77.55347797781964
 21
23.54867188934605
 31
0
  0
LINE
  8
1
 62
2
  6
DASHDOT
 10
18.70674438691884
 20
16.83827165602057
 30
0
 11
18.70674438691884
 21
24.83642239186116
 31
0
  0
LINE
  8
1
 62
7
 10
21.3993267904861
 20
23.54867188934605
 30
0
 11
23.42263101162624
 21
23.54867188934605
 31
0
  0
LINE
  8
1
 62
7
 10
21.3993267904861
 20
18.12602215853568
 30
0
 11
21.3993267904861
 21
23.54867188934605
 31
0
  0
LINE
  8
1
 62
7
 10
23.42263101162624
 20
23.54867188934605
 30
0
 11
23.42263101162624
 21
18.12602215853568
 31
0
  0
LINE
  8
1
 62
7
 10
18.70674438691884
 20
17.83734702394085
 30
0
 11
25.20674438691881
 21
17.83734702394085
 31
0
  0
LINE
  8
1
 62
7
 10
23.42263101162624
 20
18.12602215853568
 30
0
 11
21.3993267904861
 21
18.12602215853568
 31
0
  0
LINE
  8
1
 62
6
 10
11.20674438691884
 20
17.83734702394085
 30
0
 11
12.20674438691884
 21
17.83734702394085
 31
0
  0
LINE
  8
1
 62
7
 10
26.20674438691881
 20
23.25999675475126
 30
0
 11
25.20674438691881
 21
23.83734702394085
 31
0
  0
LINE
  8
1
 62
7
 10
25.20674438691881
 20
17.83734702394085
 30
0
 11
26.20674438691881
 21
18.4146972931305
 31
0
  0
LINE
  8
1
 62
7
 10
25.20674438691881
 20
23.83734702394085
 30
0
 11
18.70674438691884
 21
23.83734702394085
 31
0
  0
LINE
  8
1
 62
7
 10
26.20674438691881
 20
18.4146972931305
 30
0
 11
26.20674438691881
 21
23.25999675475126
 31
0
  0
LINE
  8
1
 62
7
 10
11.20674438691884
 20
23.25999675475126
 30
0
 11
11.20674438691884
 21
18.4146972931305
 31
0
  0
LINE
  8
1
 62
7
 10
18.70674438691884
 20
23.83734702394085
 30
0
 11
12.20674438691884
 21
23.83734702394085
 31
0
  0
LINE
  8
1
 62
7
 10
11.20674438691884
 20
18.4146972931305
 30
0
 11
12.20674438691884
 21
17.83734702394085
 31
0
  0
LINE
  8
1
 62
7
 10
12.20674438691884
 20
23.83734702394085
 30
0
 11
11.20674438691884
 21
23.25999675475126
 31
0
  0
LINE
  8
1
 62
7
 10
16.01416198335147
 20
18.12602215853568
 30
0
 11
13.99085776221142
 21
18.12602215853568
 31
0
  0
LINE
  8
1
 62
7
 10
12.20674438691884
 20
17.83734702394085
 30
0
 11
18.70674438691884
 21
17.83734702394085
 31
0
  0
LINE
  8
1
 62
7
 10
13.99085776221142
 20
18.12602215853568
 30
0
 11
13.99085776221142
 21
23.54867188934605
 31
0
  0
LINE
  8
1
 62
7
 10
16.01416198335147
 20
23.54867188934605
 30
0
 11
16.01416198335147
 21
18.12602215853568
 31
0
  0
LINE
  8
1
 62
7
 10
13.99085776221142
 20
23.54867188934605
 30
0
 11
16.01416198335147
 21
23.54867188934605
 31
0
  0
LINE
  8
1
 62
7
 10
-86.98525122723446
 20
23.54867188934605
 30
0
 11
-84.96194700609441
 21
23.54867188934605
 31
0
  0
LINE
  8
1
 62
7
 10
-84.96194700609441
 20
23.54867188934605
 30
0
 11
-84.96194700609441
 21
18.12602215853568
 31
0
  0
LINE
  8
1
 62
7
 10
-86.98525122723446
 20
18.12602215853568
 30
0
 11
-86.98525122723446
 21
23.54867188934605
 31
0
  0
LINE
  8
1
 62
7
 10
-88.76936460252703
 20
17.83734702394085
 30
0
 11
-82.64399439458867
 21
17.83734702394082
 31
0
  0
LINE
  8
1
 62
7
 10
-84.96194700609441
 20
18.12602215853568
 30
0
 11
-86.98525122723446
 21
18.12602215853568
 31
0
  0
LINE
  8
1
 62
7
 10
-88.76936460252703
 20
23.83734702394085
 30
0
 11
-89.76936460252703
 21
23.25999675475126
 31
0
  0
LINE
  8
1
 62
7
 10
-89.76936460252715
 20
18.4146972931305
 30
0
 11
-88.76936460252703
 21
17.83734702394085
 31
0
  0
LINE
  8
1
 62
7
 10
-82.26936460252703
 20
23.83734702394085
 30
0
 11
-88.76936460252703
 21
23.83734702394085
 31
0
  0
LINE
  8
1
 62
7
 10
-89.76936460252703
 20
23.25999675475126
 30
0
 11
-89.76936460252715
 21
18.4146972931305
 31
0
  0
LINE
  8
1
 62
6
 10
-89.76936460252703
 20
17.83734702394085
 30
0
 11
-88.76936460252703
 21
17.83734702394085
 31
0
  0
LINE
  8
1
 62
2
  6
DASHDOT
 10
-82.26936460252703
 20
16.83827165602057
 30
0
 11
-82.26936460252703
 21
24.83642239186116
 31
0
  0
ARC
  8
1
 62
7
 10
-76.20718677603601
 20
21.12102667995683
 30
0
 40
3.283679656015968
 50
245.7954991627165
 51
270
  0
ARC
  8
1
 62
7
 10
-82.26936460252703
 20
30.53905294611243
 30
0
 40
12.70170592217158
 50
270
 51
271.6848847624463
  0
ARC
  8
1
 62
7
 10
-76.20718677603601
 20
20.5536673679249
 30
0
 40
3.283679656015952
 50
90
 51
114.2045008372834
  0
ARC
  8
1
 62
7
 10
-82.26936460252703
 20
11.13564110176927
 30
0
 40
12.70170592217162
 50
77.76124423205734
 51
90
  0
ARC
  8
1
 62
7
 10
-82.26936460252703
 20
30.53905294611243
 30
0
 40
12.70170592217158
 50
271.6848847624463
 51
282.2387557679427
  0
ARC
  8
1
 62
7
 10
-82.26936460252703
 20
30.53905294611243
 30
0
 40
12.70170592217159
 50
257.7612442320572
 51
268.3151152375536
  0
ARC
  8
1
 62
7
 10
18.70674438691884
 20
11.13564110176927
 30
0
 40
12.7017059221716
 50
77.76124423205769
 51
90
  0
ARC
  8
1
 62
7
 10
24.76892221340987
 20
20.5536673679249
 30
0
 40
3.283679656015952
 50
90
 51
114.2045008372834
  0
ARC
  8
1
 62
7
 10
18.70674438691884
 20
30.53905294611243
 30
0
 40
12.70170592217158
 50
270
 51
282.2387557679423
  0
ARC
  8
1
 62
7
 10
24.76892221340987
 20
21.12102667995683
 30
0
 40
3.283679656015968
 50
245.7954991627165
 51
270
  0
ARC
  8
1
 62
7
 10
12.64456656042779
 20
21.12102667995683
 30
0
 40
3.28367965601598
 50
270
 51
294.2045008372834
  0
ARC
  8
1
 62
7
 10
18.70674438691884
 20
30.53905294611243
 30
0
 40
12.70170592217159
 50
257.7612442320572
 51
270
  0
ARC
  8
1
 62
7
 10
12.64456656042779
 20
20.5536673679249
 30
0
 40
3.283679656015968
 50
65.79549916271657
 51
90
  0
ARC
  8
1
 62
7
 10
18.70674438691884
 20
11.13564110176927
 30
0
 40
12.70170592217158
 50
90
 51
102.2387557679428
  0
ARC
  8
1
 62
7
 10
-82.26936460252703
 20
11.13564110176927
 30
0
 40
12.70170592217158
 50
90
 51
102.2387557679428
  0
ARC
  8
1
 62
7
 10
-88.33154242901809
 20
20.5536673679249
 30
0
 40
3.283679656015968
 50
65.79549916271657
 51
90
  0
ARC
  8
1
 62
7
 10
-82.26936460252703
 20
30.53905294611243
 30
0
 40
12.70170592217158
 50
268.3151152375536
 51
270
  0
ARC
  8
1
 62
7
 10
-88.33154242901809
 20
21.12102667995683
 30
0
 40
3.28367965601598
 50
270
 51
294.2045008372834
  0
ENDBLK
  8
0
  0
BLOCK
  8
0
  2
03240981A
 70
0
 10
-235.2552374802103
 20
-357.2251767716233
 30
0
  0
INSERT
  8
0
  2
03213981A
 10
-492.6690725264641
 20
-180.9665235753407
 30
0
  0
ENDBLK
  8
0
  0
BLOCK
  8
0
  2
03091980A
 70
0
 10
-238.8983858331523
 20
-365.7891497003253
 30
0
  0
INSERT
  8
0
  2
03240981A
 10
-235.2552374802103
 20
-357.2251767716233
 30
0
  0
ENDBLK
  8
0
  0
BLOCK
  8
0
  2
TOF-5KAITEI__1
 70
0
 10
413.4436721031649
 20
-177.555615626286
 30
0
  0
LINE
  8
1
 62
3
 10
21.16524438691886
 20
42.59117037244729
 30
0
 11
21.16524438691886
 21
39.69584702394079
 31
0
  0
LINE
  8
1
 62
3
 10
16.24824438691883
 20
42.59117037244716
 30
0
 11
16.24824438691883
 21
39.69584702394079
 31
0
  0
LINE
  8
1
 62
7
 10
15.7067443869189
 20
48.73734702394077
 30
0
 11
15.7067443869189
 21
51.23734702394077
 31
0
  0
LINE
  8
1
 62
7
 10
21.7067443869189
 20
42.23734702394081
 30
0
 11
21.7067443869189
 21
40.23734702394077
 31
0
  0
LINE
  8
1
 62
7
 10
-85.26936460252703
 20
48.73734702394074
 30
0
 11
-85.26936460252703
 21
51.23734702394077
 31
0
  0
LINE
  8
1
 62
7
 10
13.7067443869189
 20
51.23734702394077
 30
0
 11
13.7067443869189
 21
56.83734702394077
 31
0
  0
LINE
  8
1
 62
7
 10
13.7067443869189
 20
56.83734702394077
 30
0
 11
14.39956470994639
 21
57.23734702394077
 31
0
  0
LINE
  8
1
 62
7
 10
14.39956470994639
 20
57.23734702394077
 30
0
 11
23.0139240638913
 21
57.23734702394077
 31
0
  0
LINE
  8
1
 62
7
 10
23.0139240638913
 20
57.23734702394077
 30
0
 11
23.70674438691887
 21
56.83734702394077
 31
0
  0
LINE
  8
1
 62
7
 10
23.70674438691887
 20
56.83734702394077
 30
0
 11
23.70674438691887
 21
51.23734702394077
 31
0
  0
LINE
  8
1
 62
7
 10
13.7067443869189
 20
56.83734702394077
 30
0
 11
23.70674438691887
 21
56.83734702394077
 31
0
  0
LINE
  8
1
 62
7
 10
23.70674438691887
 20
51.23734702394077
 30
0
 11
13.7067443869189
 21
51.23734702394077
 31
0
  0
LINE
  8
1
 62
7
 10
21.7067443869189
 20
51.23734702394077
 30
0
 11
21.7067443869189
 21
48.73734702394077
 31
0
  0
LINE
  8
1
 62
7
 10
21.7067443869189
 20
40.23734702394077
 30
0
 11
20.7067443869189
 21
39.23734702394077
 31
0
  0
LINE
  8
1
 62
7
 10
20.7067443869189
 20
39.23734702394077
 30
0
 11
16.7067443869189
 21
39.23734702394077
 31
0
  0
LINE
  8
1
 62
7
 10
16.7067443869189
 20
39.23734702394077
 30
0
 11
15.7067443869189
 21
40.23734702394077
 31
0
  0
LINE
  8
1
 62
7
 10
15.7067443869189
 20
40.23734702394077
 30
0
 11
15.7067443869189
 21
42.23734702394073
 31
0
  0
LINE
  8
1
 62
7
 10
21.7067443869189
 20
40.23734702394077
 30
0
 11
15.7067443869189
 21
40.23734702394077
 31
0
  0
LINE
  8
1
 62
3
 10
21.7067443869189
 20
51.23734702394077
 30
0
 11
21.25549438691887
 21
48.73734702394077
 31
0
  0
LINE
  8
1
 62
3
 10
15.7067443869189
 20
51.23734702394077
 30
0
 11
16.15799438691884
 21
48.73734702394077
 31
0
  0
LINE
  8
1
 62
2
  6
CENTER
 10
18.7067443869189
 20
60.421377422245
 30
0
 11
18.7067443869189
 21
36.05331662563657
 31
0
  0
LINE
  8
1
 62
2
  6
CENTER
 10
-82.26936460252703
 20
60.421377422245
 30
0
 11
-82.26936460252703
 21
36.05331662563657
 31
0
  0
LINE
  8
1
 62
3
 10
-85.26936460252703
 20
51.23734702394077
 30
0
 11
-84.81811460252709
 21
48.73734702394074
 31
0
  0
LINE
  8
1
 62
3
 10
-79.26936460252703
 20
51.23734702394077
 30
0
 11
-79.72061460252708
 21
48.73734702394074
 31
0
  0
LINE
  8
1
 62
7
 10
-79.26936460252703
 20
51.23734702394077
 30
0
 11
-79.26936460252703
 21
48.73734702394074
 31
0
  0
LINE
  8
1
 62
7
 10
-77.26936460252703
 20
51.23734702394077
 30
0
 11
-87.26936460252703
 21
51.23734702394077
 31
0
  0
LINE
  8
1
 62
7
 10
-87.26936460252703
 20
56.83734702394077
 30
0
 11
-77.26936460252703
 21
56.83734702394077
 31
0
  0
LINE
  8
1
 62
7
 10
-77.26936460252703
 20
56.83734702394077
 30
0
 11
-77.26936460252703
 21
51.23734702394077
 31
0
  0
LINE
  8
1
 62
7
 10
-77.96218492555464
 20
57.23734702394077
 30
0
 11
-77.26936460252703
 21
56.83734702394077
 31
0
  0
LINE
  8
1
 62
7
 10
-86.57654427949954
 20
57.23734702394077
 30
0
 11
-77.96218492555464
 21
57.23734702394077
 31
0
  0
LINE
  8
1
 62
7
 10
-87.26936460252703
 20
56.83734702394077
 30
0
 11
-86.57654427949954
 21
57.23734702394077
 31
0
  0
LINE
  8
1
 62
7
 10
-87.26936460252703
 20
51.23734702394077
 30
0
 11
-87.26936460252703
 21
56.83734702394077
 31
0
  0
ENDBLK
  8
0
  0
BLOCK
  8
0
  2
13608520D
 70
0
 10
30.53972243935368
 20
-166.3706560822792
 30
0
  0
INSERT
  8
0
  2
03091980A
 10
-238.8983858331523
 20
-365.7891497003253
 30
0
  0
INSERT
  8
0
  2
TOF-5KAITEI__1
 10
413.4436721031649
 20
-177.555615626286
 30
0
  0
ENDBLK
  8
0
  0
BLOCK
  8
0
  2
03002670A
 70
0
 10
-231.6968963055035
 20
-413.1171544916683
 30
0
  0
LINE
  8
1
 62
7
 10
11.70674438691896
 20
28.73734702394077
 30
0
 11
25.70674438691893
 21
28.73734702394077
 31
0
  0
LINE
  8
1
 62
7
 10
11.70674438691896
 20
47.73734702394077
 30
0
 11
25.70674438691893
 21
47.73734702394077
 31
0
  0
LINE
  8
1
 62
7
 10
-86.76936460252703
 20
24.73734702394077
 30
0
 11
-77.76936460252703
 21
24.73734702394077
 31
0
  0
LINE
  8
1
 62
7
 10
-77.26936460252703
 20
27.73734702394077
 30
0
 11
-87.26936460252703
 21
27.73734702394074
 31
0
  0
LINE
  8
1
 62
7
 10
-89.26936460252703
 20
28.73734702394074
 30
0
 11
-75.26936460252703
 21
28.73734702394074
 31
0
  0
LINE
  8
1
 62
7
 10
-89.26936460252703
 20
47.73734702394074
 30
0
 11
-75.26936460252703
 21
47.73734702394074
 31
0
  0
LINE
  8
1
 62
2
 10
-77.76936460252703
 20
24.73734702394077
 30
0
 11
-77.76936460252703
 21
23.83734702394085
 31
0
  0
LINE
  8
1
 62
2
 10
-86.76936460252703
 20
24.73734702394077
 30
0
 11
-86.76936460252703
 21
23.83734702394085
 31
0
  0
LINE
  8
1
 62
7
 10
-89.26936460252703
 20
44.23734702394077
 30
0
 11
-89.26936460252703
 21
32.2373470239408
 31
0
  0
LINE
  8
1
 62
7
 10
-89.26936460252703
 20
32.2373470239408
 30
0
 11
-89.26936460252703
 21
28.73734702394074
 31
0
  0
LINE
  8
1
 62
7
 10
-75.26936460252703
 20
44.2373470239408
 30
0
 11
-75.26936460252703
 21
47.73734702394074
 31
0
  0
LINE
  8
1
 62
7
 10
-75.26936460252703
 20
32.23734702394077
 30
0
 11
-75.26936460252703
 21
44.2373470239408
 31
0
  0
LINE
  8
1
 62
2
 10
14.20674438691896
 20
24.7373470239408
 30
0
 11
14.20674438691896
 21
23.83734702394085
 31
0
  0
LINE
  8
1
 62
2
 10
23.20674438691893
 20
24.73734702394077
 30
0
 11
23.20674438691893
 21
23.83734702394085
 31
0
  0
LINE
  8
1
 62
2
  6
DASHDOT
 10
-73.12378140514407
 20
38.23734702394077
 30
0
 11
-91.59823395988859
 21
38.23734702394077
 31
0
  0
LINE
  8
1
 62
7
 10
-77.26936460252703
 20
48.73734702394074
 30
0
 11
-87.26936460252703
 21
48.73734702394074
 31
0
  0
LINE
  8
1
 62
2
  6
DASHDOT
 10
-82.26936460252703
 20
49.73734702394074
 30
0
 11
-82.26936460252703
 21
13.15702892054904
 31
0
  0
LINE
  8
1
 62
2
  6
DASHDOT
 10
18.70674438691896
 20
38.23734702394077
 30
0
 11
10.70674438691896
 21
38.23734702394077
 31
0
  0
LINE
  8
1
 62
7
 10
11.70674438691896
 20
28.73734702394077
 30
0
 11
11.70674438691896
 21
38.23734702394077
 31
0
  0
LINE
  8
1
 62
2
  6
DASHDOT
 10
26.70674438691893
 20
38.23734702394077
 30
0
 11
18.70674438691896
 21
38.23734702394077
 31
0
  0
LINE
  8
1
 62
2
  6
DASHDOT
 10
18.70674438691896
 20
49.74811606554007
 30
0
 11
18.70674438691896
 21
13.15702892054904
 31
0
  0
LINE
  8
1
 62
7
 10
23.70674438691893
 20
24.73734702394077
 30
0
 11
13.70674438691896
 21
24.73734702394077
 31
0
  0
LINE
  8
1
 62
2
 10
23.70674438691893
 20
26.73734702394077
 30
0
 11
23.20674438691893
 21
24.73734702394077
 31
0
  0
LINE
  8
1
 62
2
 10
13.70674438691896
 20
26.73734702394077
 30
0
 11
14.20674438691896
 21
24.7373470239408
 31
0
  0
LINE
  8
1
 62
7
 10
-77.26936460252703
 20
27.73734702394077
 30
0
 11
-76.26936460252703
 21
27.73734702394074
 31
0
  0
LINE
  8
1
 62
7
 10
-75.26936460252703
 20
28.73734702394074
 30
0
 11
-75.26936460252703
 21
32.23734702394077
 31
0
  0
LINE
  8
1
 62
7
 10
-76.26936460252703
 20
48.73734702394074
 30
0
 11
-77.26936460252703
 21
48.73734702394074
 31
0
  0
LINE
  8
1
 62
7
 10
-87.26936460252703
 20
48.73734702394074
 30
0
 11
-88.26936460252703
 21
48.73734702394074
 31
0
  0
LINE
  8
1
 62
7
 10
-89.26936460252703
 20
47.73734702394074
 30
0
 11
-89.26936460252703
 21
44.23734702394077
 31
0
  0
LINE
  8
1
 62
7
 10
-88.26936460252703
 20
27.73734702394074
 30
0
 11
-87.26936460252703
 21
27.73734702394074
 31
0
  0
LINE
  8
1
 62
7
 10
25.70674438691893
 20
28.73734702394077
 30
0
 11
24.70674438691893
 21
27.73734702394077
 31
0
  0
LINE
  8
1
 62
7
 10
11.70674438691896
 20
28.73734702394077
 30
0
 11
12.70674438691896
 21
27.73734702394077
 31
0
  0
LINE
  8
1
 62
7
 10
-89.26936460252703
 20
47.73734702394074
 30
0
 11
-88.26936460252703
 21
48.73734702394074
 31
0
  0
LINE
  8
1
 62
7
 10
-88.26936460252703
 20
27.73734702394074
 30
0
 11
-89.26936460252703
 21
28.73734702394074
 31
0
  0
LINE
  8
1
 62
7
 10
-75.26936460252703
 20
28.73734702394074
 30
0
 11
-76.26936460252703
 21
27.73734702394074
 31
0
  0
LINE
  8
1
 62
7
 10
-76.26936460252703
 20
48.73734702394074
 30
0
 11
-75.26936460252703
 21
47.73734702394074
 31
0
  0
LINE
  8
1
 62
7
 10
23.70674438691893
 20
27.73734702394077
 30
0
 11
23.70674438691893
 21
23.83734702394085
 31
0
  0
LINE
  8
1
 62
7
 10
13.70674438691896
 20
27.73734702394077
 30
0
 11
13.70674438691896
 21
23.83734702394085
 31
0
  0
LINE
  8
1
 62
2
 10
-87.26936460252703
 20
26.73734702394077
 30
0
 11
-86.76936460252703
 21
24.73734702394077
 31
0
  0
LINE
  8
1
 62
2
 10
-77.26936460252703
 20
26.73734702394077
 30
0
 11
-77.76936460252703
 21
24.73734702394077
 31
0
  0
LINE
  8
1
 62
7
 10
-77.26936460252703
 20
27.73734702394077
 30
0
 11
-77.26936460252703
 21
23.83734702394085
 31
0
  0
LINE
  8
1
 62
7
 10
-87.26936460252703
 20
27.73734702394074
 30
0
 11
-87.26936460252703
 21
23.83734702394085
 31
0
  0
LINE
  8
1
 62
7
 10
-77.26936460252703
 20
24.73734702394077
 30
0
 11
-77.76936460252703
 21
24.73734702394077
 31
0
  0
LINE
  8
1
 62
7
 10
-86.76936460252703
 20
24.73734702394077
 30
0
 11
-87.26936460252703
 21
24.73734702394077
 31
0
  0
LINE
  8
1
 62
7
 10
24.70674438691893
 20
27.73734702394077
 30
0
 11
18.70674438691896
 21
27.73734702394077
 31
0
  0
LINE
  8
1
 62
7
 10
18.70674438691896
 20
27.73734702394077
 30
0
 11
12.70674438691896
 21
27.73734702394077
 31
0
  0
LINE
  8
1
 62
7
 10
25.70674438691893
 20
38.23734702394077
 30
0
 11
25.70674438691893
 21
28.73734702394077
 31
0
  0
LINE
  8
1
 62
7
 10
25.70674438691893
 20
38.23734702394077
 30
0
 11
25.70674438691893
 21
47.73734702394077
 31
0
  0
LINE
  8
1
 62
7
 10
24.70674438691893
 20
48.73734702394077
 30
0
 11
12.70674438691896
 21
48.73734702394077
 31
0
  0
LINE
  8
1
 62
7
 10
11.70674438691896
 20
47.73734702394077
 30
0
 11
11.70674438691896
 21
38.23734702394077
 31
0
  0
LINE
  8
1
 62
7
 10
11.70674438691896
 20
47.73734702394077
 30
0
 11
12.70674438691896
 21
48.73734702394077
 31
0
  0
LINE
  8
1
 62
7
 10
24.70674438691893
 20
48.73734702394077
 30
0
 11
25.70674438691893
 21
47.73734702394077
 31
0
  0
CIRCLE
  8
1
 62
7
 10
18.70674438691896
 20
38.23734702394077
 30
0
 40
5
  0
POLYLINE
  8
1
 62
7
 66
1
 70
1
  0
VERTEX
  8
1
 10
18.70674438691896
 20
32.23734702394077
 30
0
 42
0.06283185045477792
  0
VERTEX
  8
1
 10
19.74749651017464
 20
32.36877800014436
 30
0
 42
0.03015565157994464
  0
VERTEX
  8
1
 10
20.25312471481002
 20
32.53153184667637
 30
0
 42
0.03022840719696722
  0
VERTEX
  8
1
 10
20.74299829797599
 20
32.75746993371529
 30
0
 42
0.028246068511451
  0
VERTEX
  8
1
 10
21.20674438691896
 20
33.04119460123414
 30
0
 42
0.01912206556035223
  0
VERTEX
  8
1
 10
21.50542827880136
 20
33.26533535120756
 30
0
 42
0.02674477819731173
  0
VERTEX
  8
1
 10
21.92068243535164
 20
33.64108036522691
 30
0
 42
0.02644178533492241
  0
VERTEX
  8
1
 10
22.30571136650509
 20
34.07222397992281
 30
0
 42
0.0248357341262231
  0
VERTEX
  8
1
 10
22.64802394449955
 20
34.54525831681756
 30
0
 42
0.0244670047807399
  0
VERTEX
  8
1
 10
22.94798755805388
 20
35.05975993537307
 30
0
 42
0.02328338916327622
  0
VERTEX
  8
1
 10
23.20171868264507
 20
35.60958495170455
 30
0
 42
0.02300862621738749
  0
VERTEX
  8
1
 10
23.40520749084843
 20
36.18522616398676
 30
0
 42
0.02965771892140165
  0
VERTEX
  8
1
 10
23.59766732264176
 20
36.99091623654293
 30
0
 42
0.06587897002741637
  0
VERTEX
  8
1
 10
23.67941089886952
 20
38.86390011965594
 30
0
 42
0.04364358391536265
  0
VERTEX
  8
1
 10
23.46234151657189
 20
40.09029342323283
 30
0
 42
0.02345600366860341
  0
VERTEX
  8
1
 10
23.27537896265456
 20
40.67532506839211
 30
0
 42
0.0225627993423729
  0
VERTEX
  8
1
 10
23.03687140584117
 20
41.23734702394077
 30
0
 42
0.02466091498580717
  0
VERTEX
  8
1
 10
22.75355346160411
 20
41.76121157791208
 30
0
 42
0.02403897742909477
  0
VERTEX
  8
1
 10
22.42391371077527
 20
42.25019812572694
 30
0
 42
0.01793607221237674
  0
VERTEX
  8
1
 10
22.18240705138798
 20
42.55063338841654
 30
0
 42
0.025397236391096
  0
VERTEX
  8
1
 10
21.78677598354615
 20
42.96378430135528
 30
0
 42
0.02850604658783454
  0
VERTEX
  8
1
 10
21.3582000901743
 20
43.32423911652148
 30
0
 42
0.0274078219391578
  0
VERTEX
  8
1
 10
20.90116001298688
 20
43.62858628989451
 30
0
 42
0.02070921846842087
  0
VERTEX
  8
1
 10
20.58149937538392
 20
43.79960865504349
 30
0
 42
0.0288254682481178
  0
VERTEX
  8
1
 10
20.08682238378246
 20
44.00423069207409
 30
0
 42
0.03202226278977642
  0
VERTEX
  8
1
 10
19.57498527525354
 20
44.14619354201403
 30
0
 42
0.2214962878214269
  0
VERTEX
  8
1
 10
16.05528868366361
 20
43.32423911652148
 30
0
 42
0.007843354825530974
  0
VERTEX
  8
1
 10
15.76516635319387
 20
43.08911986549015
 30
0
 42
0.03744860740839432
  0
VERTEX
  8
1
 10
15.35944052672926
 20
42.69443296676148
 30
0
 42
0.01501473020561323
  0
VERTEX
  8
1
 10
14.98957506306258
 20
42.25019812572694
 30
0
 42
0.03557574944325565
  0
VERTEX
  8
1
 10
14.65993531223377
 20
41.76121157791207
 30
0
 42
0.01313026837617853
  0
VERTEX
  8
1
 10
14.37661736799674
 20
41.23734702394077
 30
0
 42
0.03409858182646509
  0
VERTEX
  8
1
 10
14.13810981118325
 20
40.67532506839211
 30
0
 42
0.0119258650651558
  0
VERTEX
  8
1
 10
13.95114725726588
 20
40.09029342323284
 30
0
 42
0.04037081143031188
  0
VERTEX
  8
1
 10
13.78270562185793
 20
39.27923608994234
 30
0
 42
0.1582475456255883
  0
VERTEX
  8
1
 10
14.65993531223377
 20
34.71348246996948
 30
0
 42
0.04474942118055734
  0
VERTEX
  8
1
 10
14.98957506306258
 20
34.22449592215462
 30
0
 42
0.01694101064641057
  0
VERTEX
  8
1
 10
15.23108172244988
 20
33.924060659465
 30
0
 42
0.02639266248216023
  0
VERTEX
  8
1
 10
15.62671279029172
 20
33.51090974652627
 30
0
 42
0.02751050717864725
  0
VERTEX
  8
1
 10
16.05528868366361
 20
33.15045493136006
 30
0
 42
0.02840335563672362
  0
VERTEX
  8
1
 10
16.51232876085099
 20
32.84610775798704
 30
0
 42
0.0197140530421429
  0
VERTEX
  8
1
 10
16.8319893984539
 20
32.67508539283806
 30
0
 42
0.02982108265310165
  0
VERTEX
  8
1
 10
17.32666639005531
 20
32.47046335580745
 30
0
 42
0.03102651515415043
  0
VERTEX
  8
1
 10
17.8385034985842
 20
32.32850050586751
 30
0
 42
0.05200786377774214
  0
SEQEND
  8
1
  0
ENDBLK
  8
0
  0
BLOCK
  8
0
  2
13608571A
 70
0
 10
-259.4227174733869
 20
-212.2826806473862
 30
0
  0
INSERT
  8
0
  2
03002670A
 10
-231.6968963055035
 20
-413.1171544916683
 30
0
  0
ENDBLK
  8
0
  0
BLOCK
  8
0
  2
13608521A
 70
0
 10
-262.2663914393237
 20
-1.495347922325124
 30
0
  0
INSERT
  8
0
  2
13608520D
 10
30.53972243935368
 20
-166.3706560822792
 30
0
  0
INSERT
  8
0
  2
13608571A
 10
-259.4227174733869
 20
-212.2826806473862
 30
0
  0
ENDBLK
  8
0
  0
BLOCK
  8
0
  2
03003982
 70
0
 10
-16.2875032886586
 20
-149.265590727996
 30
0
  0
LINE
  8
1
 62
7
 10
0.82353930615729
 20
1.837347023940879
 30
0
 11
0.82353930615729
 21
15.98734702394083
 31
0
  0
LINE
  8
1
 62
7
 10
8.32353930615729
 20
2.712539852018921
 30
0
 11
1.823539306157283
 21
2.712539852018921
 31
0
  0
LINE
  8
1
 62
7
 10
1.823539306157283
 20
2.487347023940828
 30
0
 11
8.32353930615729
 21
2.487347023940828
 31
0
  0
LINE
  8
1
 62
7
 10
8.32353930615729
 20
6.173953473487501
 30
0
 11
1.823539306157283
 21
6.173953473487501
 31
0
  0
LINE
  8
1
 62
7
 10
1.823539306157283
 20
6.26759391677902
 30
0
 11
8.32353930615729
 21
6.26759391677902
 31
0
  0
LINE
  8
1
 62
7
 10
8.32353930615729
 20
7.503967387962717
 30
0
 11
1.823539306157283
 21
7.503967387962717
 31
0
  0
LINE
  8
1
 62
7
 10
1.823539306157283
 20
7.838669157804418
 30
0
 11
8.32353930615729
 21
7.838669157804418
 31
0
  0
LINE
  8
1
 62
7
 10
8.32353930615729
 20
10.96125549691686
 30
0
 11
1.82353930615729
 21
10.96125549691686
 31
0
  0
LINE
  8
1
 62
7
 10
1.82353930615729
 20
12.37734723945732
 30
0
 11
8.32353930615729
 21
12.37734723945732
 31
0
  0
LINE
  8
1
 62
7
 10
8.32353930615729
 20
11.96589946908847
 30
0
 11
1.82353930615729
 21
11.96589946908847
 31
0
  0
LINE
  8
1
 62
7
 10
8.32353930615729
 20
14.85544578900297
 30
0
 11
1.82353930615729
 21
14.85544578900297
 31
0
  0
LINE
  8
1
 62
7
 10
1.82353930615729
 20
15.43637826710872
 30
0
 11
8.32353930615729
 21
15.43637826710872
 31
0
  0
LINE
  8
1
 62
7
 10
8.32353930615729
 20
15.88429666351584
 30
0
 11
1.82353930615729
 21
15.88429666351584
 31
0
  0
LINE
  8
1
 62
7
 10
1.82353930615729
 20
17.01623278599968
 30
0
 11
8.32353930615729
 21
17.01623278599968
 31
0
  0
LINE
  8
1
 62
7
 10
8.32353930615729
 20
16.57568913702559
 30
0
 11
1.82353930615729
 21
16.57568913702559
 31
0
  0
LINE
  8
1
 62
7
 10
8.32353930615729
 20
16.47533387153726
 30
0
 11
1.82353930615729
 21
16.47533387153726
 31
0
  0
LINE
  8
1
 62
7
 10
8.32353930615729
 20
17.28734702394081
 30
0
 11
8.32353930615729
 21
1.837347023940879
 31
0
  0
LINE
  8
1
 62
7
 10
8.32353930615729
 20
17.28734702394081
 30
0
 11
8.023539306157286
 21
17.58734702394088
 31
0
  0
LINE
  8
1
 62
7
 10
2.123539306157287
 20
17.58734702394088
 30
0
 11
1.82353930615729
 21
17.28734702394088
 31
0
  0
LINE
  8
1
 62
7
 10
1.82353930615729
 20
1.837347023940879
 30
0
 11
1.82353930615729
 21
17.28734702394088
 31
0
  0
LINE
  8
1
 62
7
 10
2.123539306157287
 20
17.58734702394088
 30
0
 11
8.023539306157286
 21
17.58734702394088
 31
0
  0
LINE
  8
1
 62
7
 10
9.32353930615729
 20
15.98734702394089
 30
0
 11
9.32353930615729
 21
1.837347023940879
 31
0
  0
LINE
  8
1
 62
7
 10
9.32353930615729
 20
1.837347023940879
 30
0
 11
9.32353930615729
 21
-12.31265297605913
 31
0
  0
LINE
  8
1
 62
2
  6
DASHDOT
 10
-2.411141829564432
 20
1.837347023940879
 30
0
 11
12.35967725769587
 21
1.837347023940879
 31
0
  0
LINE
  8
1
 62
7
 10
8.023539306157286
 20
-13.91265297605912
 30
0
 11
2.123539306157287
 21
-13.91265297605912
 31
0
  0
LINE
  8
1
 62
7
 10
1.82353930615729
 20
-13.61265297605911
 30
0
 11
1.82353930615729
 21
1.837347023940879
 31
0
  0
LINE
  8
1
 62
7
 10
1.82353930615729
 20
-13.61265297605911
 30
0
 11
2.123539306157287
 21
-13.91265297605912
 31
0
  0
LINE
  8
1
 62
7
 10
8.023539306157286
 20
-13.91265297605912
 30
0
 11
8.32353930615729
 21
-13.61265297605911
 31
0
  0
LINE
  8
1
 62
7
 10
8.32353930615729
 20
1.837347023940879
 30
0
 11
8.32353930615729
 21
-13.61265297605911
 31
0
  0
LINE
  8
1
 62
2
  6
DASHDOT
 10
-78.26936460252703
 20
-19.93765297605913
 30
0
 11
-78.26936460252703
 21
23.61234702394089
 31
0
  0
LINE
  8
1
 62
7
 10
1.82353930615729
 20
-12.80063982365556
 30
0
 11
8.32353930615729
 21
-12.80063982365556
 31
0
  0
LINE
  8
1
 62
7
 10
1.82353930615729
 20
-12.90099508914389
 30
0
 11
8.32353930615729
 21
-12.90099508914389
 31
0
  0
LINE
  8
1
 62
7
 10
8.32353930615729
 20
-13.34153873811798
 30
0
 11
1.82353930615729
 21
-13.34153873811798
 31
0
  0
LINE
  8
1
 62
7
 10
1.82353930615729
 20
-12.20960261563414
 30
0
 11
8.32353930615729
 21
-12.20960261563414
 31
0
  0
LINE
  8
1
 62
7
 10
8.32353930615729
 20
-11.76168421922702
 30
0
 11
1.82353930615729
 21
-11.76168421922702
 31
0
  0
LINE
  8
1
 62
7
 10
1.82353930615729
 20
-11.18075174112127
 30
0
 11
8.32353930615729
 21
-11.18075174112127
 31
0
  0
LINE
  8
1
 62
7
 10
1.82353930615729
 20
-8.291205421206769
 30
0
 11
8.32353930615729
 21
-8.291205421206769
 31
0
  0
LINE
  8
1
 62
7
 10
8.32353930615729
 20
-8.702653191575621
 30
0
 11
1.82353930615729
 21
-8.702653191575621
 31
0
  0
LINE
  8
1
 62
7
 10
1.82353930615729
 20
-7.286561449035162
 30
0
 11
8.32353930615729
 21
-7.286561449035162
 31
0
  0
LINE
  8
1
 62
7
 10
8.32353930615729
 20
-4.163975109922717
 30
0
 11
1.823539306157283
 21
-4.163975109922717
 31
0
  0
LINE
  8
1
 62
7
 10
1.823539306157283
 20
-3.829273340081016
 30
0
 11
8.32353930615729
 21
-3.829273340081016
 31
0
  0
LINE
  8
1
 62
7
 10
8.32353930615729
 20
-2.59289986889732
 30
0
 11
1.823539306157283
 21
-2.59289986889732
 31
0
  0
LINE
  8
1
 62
7
 10
1.823539306157283
 20
-2.4992594256058
 30
0
 11
8.32353930615729
 21
-2.4992594256058
 31
0
  0
LINE
  8
1
 62
7
 10
8.32353930615729
 20
1.187347023940873
 30
0
 11
1.823539306157283
 21
1.187347023940873
 31
0
  0
LINE
  8
1
 62
7
 10
1.823539306157283
 20
0.9621541958627802
 30
0
 11
8.32353930615729
 21
0.9621541958627802
 31
0
  0
LINE
  8
1
 62
7
 10
0.82353930615729
 20
-12.31265297605913
 30
0
 11
0.82353930615729
 21
1.837347023940879
 31
0
  0
ARC
  8
1
 62
7
 10
1.82353930615729
 20
15.98734702394083
 30
0
 40
1.000000000000002
 50
90
 51
180
  0
ARC
  8
1
 62
7
 10
8.32353930615729
 20
15.98734702394089
 30
0
 40
1
 50
0
 51
90
  0
ARC
  8
1
 62
7
 10
8.32353930615729
 20
-12.31265297605913
 30
0
 40
1
 50
270
 51
0
  0
ARC
  8
1
 62
7
 10
1.82353930615729
 20
-12.31265297605913
 30
0
 40
1
 50
180
 51
270
  0
ENDBLK
  8
0
  0
BLOCK
  8
0
  2
03067980E
 70
0
 10
4.044765567789064
 20
-239.552239146487
 30
0
  0
LINE
  8
1
 62
7
 10
15.3151835693541
 20
15.88237319346977
 30
0
 11
15.3151835693541
 21
17.83734702394088
 31
0
  0
LINE
  8
976
 62
2
  6
DASHDOT
 10
13.11284711569376
 20
10.33734702394099
 30
0
 11
25.2556770534891
 21
10.33734702394099
 31
0
  0
LINE
  8
1
 62
7
 10
9.32353930615729
 20
13.83734702394078
 30
0
 11
11.70674438691895
 21
13.83734702394077
 31
0
  0
LINE
  8
1
 62
2
 10
9.32353930615729
 20
13.33734702394079
 30
0
 11
9.706744386918949
 21
13.33734702394079
 31
0
  0
LINE
  8
1
 62
6
 10
17.39721280073976
 20
-8.162652976059093
 30
0
 11
17.39721280073976
 21
-10.16265297605909
 31
0
  0
LINE
  8
1
 62
6
 10
21.89721280073976
 20
-8.162652976059093
 30
0
 11
17.39721280073976
 21
-8.162652976059093
 31
0
  0
LINE
  8
1
 62
6
 10
21.89721280073976
 20
-10.16265297605909
 30
0
 11
21.89721280073976
 21
-8.162652976059093
 31
0
  0
LINE
  8
1
 62
6
 10
17.39721280073976
 20
-10.16265297605909
 30
0
 11
21.89721280073976
 21
-10.16265297605909
 31
0
  0
LINE
  8
1
 62
2
  6
DASHDOT
 10
3.274125688770276
 20
1.837347023940822
 30
0
 11
42.77179913144457
 21
1.837347023940907
 31
0
  0
LINE
  8
1
 62
7
 10
9.706744386918949
 20
13.83734702394079
 30
0
 11
9.706744386918949
 21
13.33734702394079
 31
0
  0
LINE
  8
1
 62
2
 10
9.706744386918949
 20
13.33734702394079
 30
0
 11
11.70674438691895
 21
13.83734702394077
 31
0
  0
LINE
  8
976
 62
7
 10
11.70674438691895
 20
13.83734702394077
 30
0
 11
11.70674438691895
 21
1.837347023940822
 31
0
  0
LINE
  8
976
 62
7
 10
9.706744386918949
 20
13.33734702394079
 30
0
 11
9.706744386918949
 21
1.837347023940822
 31
0
  0
LINE
  8
976
 62
7
 10
9.706744386918949
 20
1.837347023940822
 30
0
 11
9.706744386918949
 21
-9.662652976059178
 31
0
  0
LINE
  8
976
 62
7
 10
11.70674438691895
 20
1.837347023940822
 30
0
 11
11.70674438691892
 21
-10.16265297605909
 31
0
  0
LINE
  8
1
 62
2
 10
9.706744386918949
 20
-9.662652976059178
 30
0
 11
9.32353930615729
 21
-9.662652976059178
 31
0
  0
LINE
  8
1
 62
7
 10
11.70674438691892
 20
-10.16265297605909
 30
0
 11
9.32353930615729
 21
-10.16265297605909
 31
0
  0
LINE
  8
1
 62
7
 10
28.8669194903397
 20
-14.16265297605904
 30
0
 11
12.70674438691892
 21
-14.16265297605909
 31
0
  0
LINE
  8
1
 62
2
 10
11.70674438691892
 20
-10.16265297605909
 30
0
 11
9.706744386918949
 21
-9.662652976059178
 31
0
  0
LINE
  8
1
 62
7
 10
9.706744386918949
 20
-9.662652976059178
 30
0
 11
9.706744386918921
 21
-10.16265297605909
 31
0
  0
LINE
  8
1
 62
7
 10
11.70674438691895
 20
-13.16265297605926
 30
0
 11
11.70674438691892
 21
-10.16265297605909
 31
0
  0
LINE
  8
1
 62
7
 10
12.70674438691892
 20
-14.16265297605909
 30
0
 11
11.70674438691895
 21
-13.16265297605926
 31
0
  0
LINE
  8
1
 62
2
  6
DASHDOT
 10
18.70674438691898
 20
20.79822266942088
 30
0
 11
18.70674438691897
 21
-18.4466690566868
 31
0
  0
LINE
  8
1
 62
7
 10
18.70674438691898
 20
20.79822266942088
 30
0
 11
18.70674438691897
 21
24.23321501009281
 31
0
  0
LINE
  8
1
 62
6
 10
15.10674438691896
 20
-4.162652976059178
 30
0
 11
24.30674438691895
 21
-4.162652976059178
 31
0
  0
LINE
  8
1
 62
6
 10
24.30674438691895
 20
-4.162652976059178
 30
0
 11
24.30674438691895
 21
-2.162652976059178
 31
0
  0
LINE
  8
1
 62
6
 10
24.30674438691895
 20
-2.162652976059178
 30
0
 11
15.10674438691896
 21
-2.162652976059178
 31
0
  0
LINE
  8
1
 62
6
 10
15.10674438691896
 20
-2.162652976059178
 30
0
 11
15.10674438691896
 21
-4.162652976059178
 31
0
  0
LINE
  8
1
 62
7
 10
12.42843222340596
 20
17.83734702394088
 30
0
 11
28.8669194903397
 21
17.83734702394088
 31
0
  0
LINE
  8
1
 62
7
 10
22.16721132937433
 20
17.83734702394088
 30
0
 11
22.16721132937433
 21
15.83963459732112
 31
0
  0
LINE
  8
1
 62
7
 10
11.70674438691895
 20
13.83734702394077
 30
0
 11
11.70674438691892
 21
16.58734702394091
 31
0
  0
LINE
  8
1
 62
7
 10
12.42843222340596
 20
17.83734702394088
 30
0
 11
11.70674438691892
 21
16.58734702394091
 31
0
  0
LINE
  8
1
 62
7
 10
15.3151835693541
 20
-11.76412348479443
 30
0
 11
22.16721132937433
 21
-11.76412348479443
 31
0
  0
LINE
  8
1
 62
7
 10
15.3151835693541
 20
-14.16265297605906
 30
0
 11
15.3151835693541
 21
-11.76412348479443
 31
0
  0
LINE
  8
1
 62
7
 10
22.16721132937433
 20
-14.16265297605906
 30
0
 11
22.16721132937433
 21
-11.76412348479443
 31
0
  0
LINE
  8
1
 62
7
 10
32.70674438691895
 20
12.83734702394079
 30
0
 11
32.70674438691892
 21
13.83734702394088
 31
0
  0
LINE
  8
1
 62
7
 10
32.70674438691898
 20
14.83734702394088
 30
0
 11
32.70674438691892
 21
13.83734702394088
 31
0
  0
LINE
  8
976
 62
7
 10
32.70674438691895
 20
12.83734702394079
 30
0
 11
32.70674438691892
 21
1.837347023940907
 31
0
  0
LINE
  8
976
 62
7
 10
32.70674438691892
 20
1.837347023940907
 30
0
 11
32.70674438691895
 21
-9.162652976059093
 31
0
  0
LINE
  8
1
 62
7
 10
32.70674438691895
 20
-10.16265297605918
 30
0
 11
32.70674438691895
 21
-11.16265297605918
 31
0
  0
LINE
  8
1
 62
7
 10
32.70674438691895
 20
-10.16265297605918
 30
0
 11
32.70674438691895
 21
-9.162652976059093
 31
0
  0
LINE
  8
1
 62
7
 10
32.70674438691898
 20
14.83734702394088
 30
0
 11
28.8669194903397
 21
17.83734702394088
 31
0
  0
LINE
  8
1
 62
7
 10
28.8669194903397
 20
-14.16265297605904
 30
0
 11
32.70674438691895
 21
-11.16265297605918
 31
0
  0
ARC
  8
1
 62
7
 10
10.91328131948282
 20
1.837347023941021
 30
0
 40
17.65363817085693
 50
309.6045389280054
 51
38.6985255290083
  0
ARC
  8
1
 62
7
 10
45.91474783640402
 20
1.837347023941021
 30
0
 40
33.48631561299808
 50
170.4001999007116
 51
203.9650909849875
  0
TEXT
  8
1
 62
7
 10
17.42525093940824
 20
-10.16317282677389
 30
0
 40
2
  1
AIR
 41
0.9450000000000001
  0
TEXT
  8
1
 62
7
 10
15.2610544756238
 20
-4.163172826773888
 30
0
 40
2
  1
TOF-6B
 41
0.9
  0
ENDBLK
  8
0
  0
BLOCK
  8
0
  2
03056980
 70
0
 10
662.4700806593578
 20
30.38928765527851
 30
0
  0
LINE
  8
1
 62
2
  6
DASHDOT
 10
6.785245297973706
 20
1.837347023940879
 30
0
 11
-9.288705041093845
 21
1.837347023940879
 31
0
  0
ENDBLK
  8
0
  0
BLOCK
  8
0
  2
03055980
 70
0
 10
522.0636785912309
 20
104.5025403925048
 30
0
  0
INSERT
  8
0
  2
03056980
 10
662.4700806593578
 20
30.38928765527851
 30
0
  0
ENDBLK
  8
0
  0
BLOCK
  8
0
  2
13608620B
 70
0
 10
547.0411269940637
 20
109.5183419289032
 30
0
  0
INSERT
  8
0
  2
03055980
 10
522.0636785912309
 20
104.5025403925048
 30
0
  0
ENDBLK
  8
0
  0
BLOCK
  8
0
  2
TOF-5R-S3
 70
0
 10
366.3156212014567
 20
56.9038645822319
 30
0
  0
INSERT
  8
0
  2
13608620B
 10
547.0411269940637
 20
109.5183419289032
 30
0
  0
ENDBLK
  8
0
  0
BLOCK
  8
0
  2
03002980__2
 70
0
 10
435.4339276413739
 20
-324.6847136083578
 30
0
  0
LINE
  8
1
 62
2
  6
DASHDOT
 10
-96.19522733317966
 20
1.837347023940879
 30
0
 11
-60.5798265446691
 21
1.837347023940879
 31
0
  0
LINE
  8
1
 62
2
  6
DASHDOT
 10
-78.26936460252703
 20
19.30693263360422
 30
0
 11
-78.26936460252703
 21
-15.89513661770877
 31
0
  0
LINE
  8
1
 62
7
 10
-76.01936460252703
 20
15.21182180458459
 30
0
 11
-76.01936460252703
 21
16.28336723713449
 31
0
  0
LINE
  8
1
 62
7
 10
-80.51936460252703
 20
16.28336723713449
 30
0
 11
-80.51936460252703
 21
13.93934916845149
 31
0
  0
LINE
  8
1
 62
6
 10
-79.69510053381508
 20
12.90317233584574
 30
0
 11
-79.51936460252703
 21
12.72743640455758
 31
0
  0
LINE
  8
1
 62
7
 10
-79.2708364651031
 20
12.72743640455758
 30
0
 11
-78.26936460252703
 21
12.72743640455758
 31
0
  0
LINE
  8
1
 62
7
 10
-80.34362867123888
 20
13.55170047326953
 30
0
 11
-79.69510053381508
 21
12.90317233584574
 31
0
  0
LINE
  8
1
 62
6
 10
-79.51936460252703
 20
12.72743640455758
 30
0
 11
-79.2708364651031
 21
12.72743640455758
 31
0
  0
LINE
  8
1
 62
7
 10
-79.51936460252703
 20
12.7813285718828
 30
0
 11
-79.51936460252703
 21
12.72743640455758
 31
0
  0
LINE
  8
1
 62
7
 10
-77.01936460252703
 20
12.72743640455758
 30
0
 11
-77.01936460252703
 21
12.7813285718828
 31
0
  0
LINE
  8
1
 62
6
 10
-77.26789273995085
 20
12.72743640455758
 30
0
 11
-77.01936460252703
 21
12.72743640455758
 31
0
  0
LINE
  8
1
 62
7
 10
-76.84362867123888
 20
12.90317233584574
 30
0
 11
-76.19510053381508
 21
13.55170047326953
 31
0
  0
LINE
  8
1
 62
7
 10
-78.26936460252703
 20
12.72743640455758
 30
0
 11
-77.26789273995085
 21
12.72743640455758
 31
0
  0
LINE
  8
1
 62
6
 10
-77.01936460252703
 20
12.72743640455758
 30
0
 11
-76.84362867123888
 21
12.90317233584574
 31
0
  0
LINE
  8
1
 62
6
 10
-80.51936460252703
 20
13.72743640455747
 30
0
 11
-80.34362867123888
 21
13.55170047326953
 31
0
  0
LINE
  8
1
 62
6
 10
-76.19510053381508
 20
13.55170047326953
 30
0
 11
-76.01936460252703
 21
13.72743640455758
 31
0
  0
LINE
  8
1
 62
7
 10
-80.51936460252703
 20
13.93934916845149
 30
0
 11
-80.51936460252703
 21
10.03414517931839
 31
0
  0
LINE
  8
1
 62
7
 10
-79.51936460252703
 20
10.24493288434098
 30
0
 11
-79.51936460252703
 21
12.72743640455758
 31
0
  0
LINE
  8
1
 62
7
 10
-77.01936460252703
 20
12.72743640455758
 30
0
 11
-77.01936460252703
 21
10.24493288434098
 31
0
  0
LINE
  8
1
 62
7
 10
-76.01936460252681
 20
10.03414517931839
 30
0
 11
-76.01936460252703
 21
13.72743640455758
 31
0
  0
LINE
  8
1
 62
7
 10
-76.01936460252703
 20
13.72743640455758
 30
0
 11
-76.01936460252703
 21
15.21182180458459
 31
0
  0
LINE
  8
1
 62
7
 10
-76.01936460252703
 20
-12.60867318925284
 30
0
 11
-76.01936460252703
 21
-11.53712775670277
 31
0
  0
LINE
  8
1
 62
7
 10
-76.01936460252703
 20
-10.05274235667582
 30
0
 11
-76.01936460252681
 21
-6.359451131436572
 31
0
  0
LINE
  8
1
 62
6
 10
-76.84362867123888
 20
-9.228478287963867
 30
0
 11
-77.01936460252703
 21
-9.052742356675822
 31
0
  0
LINE
  8
1
 62
7
 10
-77.01936460252703
 20
-6.570238836459168
 30
0
 11
-77.01936460252703
 21
-9.052742356675822
 31
0
  0
LINE
  8
1
 62
7
 10
-77.26789273995085
 20
-9.052742356675822
 30
0
 11
-78.26936460252703
 21
-9.052742356675822
 31
0
  0
LINE
  8
1
 62
7
 10
-76.01936460252703
 20
-11.53712775670277
 30
0
 11
-76.01936460252703
 21
-10.05274235667582
 31
0
  0
LINE
  8
1
 62
7
 10
-76.19510053381508
 20
-9.877006425387719
 30
0
 11
-76.84362867123888
 21
-9.228478287963867
 31
0
  0
LINE
  8
1
 62
6
 10
-77.01936460252703
 20
-9.052742356675822
 30
0
 11
-77.26789273995085
 21
-9.052742356675822
 31
0
  0
LINE
  8
1
 62
7
 10
-77.01936460252703
 20
-9.106634524001152
 30
0
 11
-77.01936460252703
 21
-9.052742356675822
 31
0
  0
LINE
  8
1
 62
7
 10
-79.51936460252703
 20
-9.052742356675822
 30
0
 11
-79.51936460252703
 21
-9.106634524001152
 31
0
  0
LINE
  8
1
 62
6
 10
-79.2708364651031
 20
-9.052742356675822
 30
0
 11
-79.51936460252703
 21
-9.052742356675822
 31
0
  0
LINE
  8
1
 62
7
 10
-79.69510053381508
 20
-9.228478287963867
 30
0
 11
-80.34362867123888
 21
-9.877006425387719
 31
0
  0
LINE
  8
1
 62
7
 10
-78.26936460252703
 20
-9.052742356675822
 30
0
 11
-79.2708364651031
 21
-9.052742356675822
 31
0
  0
LINE
  8
1
 62
6
 10
-79.51936460252703
 20
-9.052742356675822
 30
0
 11
-79.69510053381508
 21
-9.228478287963867
 31
0
  0
LINE
  8
1
 62
7
 10
-79.51936460252703
 20
-9.052742356675822
 30
0
 11
-79.51936460252703
 21
-6.570238836459168
 31
0
  0
LINE
  8
1
 62
7
 10
-80.51936460252703
 20
-10.26465512056973
 30
0
 11
-80.51936460252703
 21
-12.60867318925284
 31
0
  0
LINE
  8
1
 62
7
 10
-80.51936460252703
 20
-6.359451131436572
 30
0
 11
-80.51936460252703
 21
-10.26465512056973
 31
0
  0
LINE
  8
1
 62
6
 10
-80.34362867123888
 20
-9.877006425387719
 30
0
 11
-80.51936460252703
 21
-10.05274235667571
 31
0
  0
LINE
  8
1
 62
6
 10
-76.01936460252703
 20
-10.05274235667582
 30
0
 11
-76.19510053381508
 21
-9.877006425387719
 31
0
  0
ARC
  8
1
 62
7
 10
-78.26936460252703
 20
1.837347023940879
 30
0
 40
15.50000000000003
 50
85.05457028211619
 51
94.9454297178834
  0
ARC
  8
1
 62
7
 10
-79.91936460252701
 20
13.9759645419814
 30
0
 40
0.6000000000000227
 50
180
 51
225.0000000000004
  0
ARC
  8
1
 62
7
 10
-79.2708364651031
 20
13.32743640455749
 30
0
 40
0.5999999999999084
 50
224.9999999999847
 51
270
  0
ARC
  8
1
 62
7
 10
-77.26789273995085
 20
13.32743640455749
 30
0
 40
0.5999999999999108
 50
270
 51
315.0000000000154
  0
ARC
  8
1
 62
7
 10
-76.61936460252694
 20
13.9759645419814
 30
0
 40
0.5999999999999122
 50
314.9999999999997
 51
0
  0
ARC
  8
1
 62
7
 10
-76.61936460252694
 20
-10.3012704940997
 30
0
 40
0.5999999999999091
 50
0
 51
45.00000000000792
  0
ARC
  8
1
 62
7
 10
-77.26789273995085
 20
-9.652742356675844
 30
0
 40
0.6000000000000691
 50
45
 51
90
  0
ARC
  8
1
 62
7
 10
-79.2708364651031
 20
-9.652742356675844
 30
0
 40
0.6000000000000227
 50
90
 51
135
  0
ARC
  8
1
 62
7
 10
-79.91936460252701
 20
-10.3012704940997
 30
0
 40
0.5999999999999913
 50
134.9999999999921
 51
180
  0
ARC
  8
1
 62
7
 10
-78.26936460252703
 20
1.837347023940879
 30
0
 40
15.00681912217637
 50
81.70576572420387
 51
98.29423427579526
  0
ARC
  8
1
 62
7
 10
-78.26936460252703
 20
1.837347023940879
 30
0
 40
15.50000000000003
 50
265.0545702821166
 51
274.9454297178838
  0
ARC
  8
1
 62
7
 10
-78.26936460252703
 20
1.837347023940879
 30
0
 40
15.00681912217645
 50
261.7057657242048
 51
278.2942342757961
  0
ARC
  8
1
 62
7
 10
-78.26936460252703
 20
1.837347023940879
 30
0
 40
8.500000000000071
 50
74.65052298299041
 51
90
  0
ARC
  8
1
 62
7
 10
-78.26936460252703
 20
1.837347023940879
 30
0
 40
8.500000000000002
 50
90
 51
105.3494770170081
  0
ARC
  8
1
 62
7
 10
-78.26936460252703
 20
1.837347023940879
 30
0
 40
8.499999999999952
 50
254.6505229829918
 51
285.3494770170096
  0
CIRCLE
  8
1
 62
7
 10
-78.26936460252703
 20
1.837347023940879
 30
0
 40
3.926392817734326
  0
CIRCLE
  8
1
 62
7
 10
-78.26936460252703
 20
1.837347023940879
 30
0
 40
4.428148006742106
  0
CIRCLE
  8
1
 62
7
 10
-78.26936460252703
 20
1.837347023940879
 30
0
 40
6.5
  0
CIRCLE
  8
1
 62
7
 10
-78.26936460252703
 20
1.837347023940879
 30
0
 40
0.6500000000000057
  0
CIRCLE
  8
1
 62
7
 10
-78.26936460252703
 20
1.837347023940879
 30
0
 40
1.099999999999994
  0
ARC
  8
1
 62
7
 10
-79.51936460252703
 20
16.28336723713449
 30
0
 40
1.000000000000077
 50
94.94542971788407
 51
180
  0
ARC
  8
1
 62
7
 10
-77.01936460252703
 20
16.28336723713449
 30
0
 40
1
 50
0
 51
85.05457028210944
  0
ARC
  8
1
 62
7
 10
-79.51936460252703
 20
-12.60867318925284
 30
0
 40
1
 50
180
 51
265.0545702821155
  0
ARC
  8
1
 62
7
 10
-77.01936460252703
 20
-12.60867318925284
 30
0
 40
0.9999999999999892
 50
274.9454297178911
 51
0
  0
ENDBLK
  8
0
  0
BLOCK
  8
0
  2
03002980__3
 70
0
 10
394.7051335405213
 20
-99.67118286117955
 30
0
  0
LINE
  8
1
 62
7
 10
-12.72706367069291
 20
12.51816145054647
 30
0
 11
-8.255731474050986
 21
10.33734702394088
 31
0
  0
LINE
  8
1
 62
7
 10
-12.72706367069291
 20
12.51816145054647
 30
0
 11
-13.17646069384271
 21
13.23734702394097
 31
0
  0
LINE
  8
976
 62
7
 10
-2.976863926205379
 20
14.33734702394088
 30
0
 11
-2.976863926205379
 21
1.837347023940879
 31
0
  0
LINE
  8
1
 62
7
 10
-7.237281158819638
 20
9.163698846273974
 30
0
 11
-7.748312687100547
 21
6.265495030682928
 31
0
  0
LINE
  8
1
 62
7
 10
-2.976863926205379
 20
14.83734702394088
 30
0
 11
-6.212287328107191
 21
11.20993700597103
 31
0
  0
LINE
  8
1
 62
7
 10
-8.22208891183173
 20
10.33734702394088
 30
0
 11
-8.255731474050986
 21
10.33734702394088
 31
0
  0
LINE
  8
1
 62
7
 10
-13.17646069384271
 20
13.44765180966448
 30
0
 11
-6.977946859649006
 21
10.55723733960008
 31
0
  0
LINE
  8
1
 62
7
 10
-8.17646069384271
 20
1.837347023940879
 30
0
 11
-8.17646069384271
 21
5.837347023940993
 31
0
  0
LINE
  8
1
 62
7
 10
-8.17646069384271
 20
5.837347023940993
 30
0
 11
-7.748312687100547
 21
6.265495030682928
 31
0
  0
LINE
  8
1
 62
7
 10
-13.17646069384271
 20
15.83734702394088
 30
0
 11
-13.17646069384271
 21
13.23734702394097
 31
0
  0
LINE
  8
1
 62
7
 10
-3.842889329989912
 20
16.83734702394088
 30
0
 11
-12.17646069384271
 21
16.83734702394088
 31
0
  0
LINE
  8
1
 62
7
 10
-13.17646069384271
 20
15.83734702394088
 30
0
 11
-12.17646069384271
 21
16.83734702394088
 31
0
  0
LINE
  8
1
 62
7
 10
-2.976863926205379
 20
15.33734702394088
 30
0
 11
-3.842889329989912
 21
16.83734702394088
 31
0
  0
LINE
  8
1
 62
7
 10
-2.976863926205379
 20
14.33734702394088
 30
0
 11
-2.976863926205379
 21
15.33734702394088
 31
0
  0
LINE
  8
1
 62
6
 10
-2.976863926205379
 20
15.33734702394088
 30
0
 11
-2.976863926205379
 21
15.61104099694046
 31
0
  0
LINE
  8
1
 62
7
 10
-0.4764606938427782
 20
1.837347023940879
 30
0
 11
-0.4764606938427782
 21
14.83734702394088
 31
0
  0
LINE
  8
1
 62
7
 10
-0.4764606938427782
 20
14.83734702394088
 30
0
 11
-2.976863926205379
 21
14.83734702394088
 31
0
  0
LINE
  8
1
 62
7
 10
-0.4764606938427782
 20
14.33734702394088
 30
0
 11
0.82353930615729
 21
14.33734702394094
 31
0
  0
LINE
  8
1
 62
7
 10
-0.4764606938427782
 20
14.33734702394088
 30
0
 11
0.82353930615729
 21
14.33734702394094
 31
0
  0
LINE
  8
1
 62
7
 10
0.82353930615729
 20
-10.66265297605912
 30
0
 11
-0.4764606938427782
 21
-10.66265297605912
 31
0
  0
LINE
  8
1
 62
7
 10
0.82353930615729
 20
-10.66265297605912
 30
0
 11
-0.4764606938427782
 21
-10.66265297605912
 31
0
  0
LINE
  8
1
 62
7
 10
-2.976863926205379
 20
-11.16265297605912
 30
0
 11
-0.4764606938427782
 21
-11.16265297605912
 31
0
  0
LINE
  8
1
 62
7
 10
-0.4764606938427782
 20
-11.16265297605912
 30
0
 11
-0.4764606938427782
 21
1.837347023940879
 31
0
  0
LINE
  8
1
 62
6
 10
-2.976863926205379
 20
-11.9363469490587
 30
0
 11
-2.976863926205379
 21
-11.66265297605912
 31
0
  0
LINE
  8
1
 62
7
 10
-2.976863926205379
 20
-11.66265297605912
 30
0
 11
-2.976863926205379
 21
-10.66265297605912
 31
0
  0
LINE
  8
1
 62
7
 10
-3.842889329989912
 20
-13.16265297605912
 30
0
 11
-2.976863926205379
 21
-11.66265297605912
 31
0
  0
LINE
  8
1
 62
7
 10
-12.17646069384271
 20
-13.16265297605912
 30
0
 11
-13.17646069384271
 21
-12.16265297605912
 31
0
  0
LINE
  8
1
 62
7
 10
-12.17646069384271
 20
-13.16265297605912
 30
0
 11
-3.842889329989912
 21
-13.16265297605912
 31
0
  0
LINE
  8
1
 62
7
 10
-13.17646069384271
 20
-9.562652976059212
 30
0
 11
-13.17646069384271
 21
-12.16265297605912
 31
0
  0
LINE
  8
1
 62
7
 10
-7.748312687100547
 20
-2.59080098280117
 30
0
 11
-8.17646069384271
 21
-2.162652976059235
 31
0
  0
LINE
  8
1
 62
7
 10
-8.17646069384271
 20
-2.162652976059235
 30
0
 11
-8.17646069384271
 21
1.837347023940879
 31
0
  0
LINE
  8
1
 62
7
 10
-6.977946859649006
 20
-6.882543291718321
 30
0
 11
-13.17646069384271
 21
-9.77295776178272
 31
0
  0
LINE
  8
1
 62
7
 10
-8.255731474050986
 20
-6.662652976059121
 30
0
 11
-8.22208891183173
 21
-6.662652976059121
 31
0
  0
LINE
  8
1
 62
7
 10
-6.212287328107191
 20
-7.53524295808927
 30
0
 11
-2.976863926205379
 21
-11.16265297605912
 31
0
  0
LINE
  8
1
 62
7
 10
-7.748312687100547
 20
-2.59080098280117
 30
0
 11
-7.237281158819638
 21
-5.489004798392216
 31
0
  0
LINE
  8
976
 62
7
 10
-2.976863926205379
 20
1.837347023940879
 30
0
 11
-2.976863926205379
 21
-10.66265297605912
 31
0
  0
LINE
  8
1
 62
7
 10
-13.17646069384271
 20
-9.562652976059212
 30
0
 11
-12.72706367069291
 21
-8.843467402664714
 31
0
  0
LINE
  8
1
 62
7
 10
-8.255731474050986
 20
-6.662652976059121
 30
0
 11
-12.72706367069291
 21
-8.843467402664714
 31
0
  0
LINE
  8
1
 62
2
  6
DASHDOT
 10
6.131324637747543
 20
1.837347023940879
 30
0
 11
-8.804377615789559
 21
1.837347023940879
 31
0
  0
POLYLINE
  8
1
 62
7
 66
1
  0
VERTEX
  8
1
 10
-7.030335319237434
 20
1.837347023940879
 30
0
 42
9.330621623725834e-005
  0
VERTEX
  8
1
 10
-7.030680342200474
 20
1.91707936635544
 30
0
 42
0.000279920583296357
  0
VERTEX
  8
1
 10
-7.03108487950355
 20
1.996811024762222
 30
0
 42
0.0004665433559487471
  0
VERTEX
  8
1
 10
-7.031608445486702
 20
2.076541315153444
 30
0
 42
0.0006531721647575352
  0
VERTEX
  8
1
 10
-7.032310554489968
 20
2.15626955352133
 30
0
 42
0.0008398010019652526
  0
VERTEX
  8
1
 10
-7.033250720853385
 20
2.235995055858098
 30
0
 42
0.0009421210779587832
  0
VERTEX
  8
1
 10
-7.034465336866409
 20
2.315086829621512
 30
0
 42
0.0008210856299565568
  0
VERTEX
  8
1
 10
-7.035958867734101
 20
2.394174504393545
 30
0
 42
0.0008538915097698701
  0
VERTEX
  8
1
 10
-7.037717343438132
 20
2.473257347355261
 30
0
 42
0.000732885172301702
  0
VERTEX
  8
1
 10
-7.039726793960171
 20
2.552334625687725
 30
0
 42
0.0007657244337368522
  0
VERTEX
  8
1
 10
-7.041973249281892
 20
2.631405606572002
 30
0
 42
0.0006556946234747401
  0
VERTEX
  8
1
 10
-7.04440525681815
 20
2.709214942369911
 30
0
 42
0.0007770876792217276
  0
VERTEX
  8
1
 10
-7.047060209560209
 20
2.787016633780752
 30
0
 42
0.001461486174184575
  0
VERTEX
  8
1
 10
-7.053066682071234
 20
2.942593741547189
 30
0
 42
0.001650973179362954
  0
VERTEX
  8
1
 10
-7.059957757044161
 20
3.096263306629338
 30
0
 42
0.002366931838641072
  0
VERTEX
  8
1
 10
-7.071998228642695
 20
3.32387794717888
 30
0
 42
0.001727793473015166
  0
VERTEX
  8
1
 10
-7.081117207069851
 20
3.473089097604852
 30
0
 42
0.00162397107322118
  0
VERTEX
  8
1
 10
-7.091069263510077
 20
3.619775047823761
 30
0
 42
0.001860313795072769
  0
VERTEX
  8
1
 10
-7.102043252862909
 20
3.766387986625546
 30
0
 42
0.001717840998587911
  0
VERTEX
  8
1
 10
-7.113568764564133
 20
3.906856586007365
 30
0
 42
0.001985414514044762
  0
VERTEX
  8
1
 10
-7.126134326991203
 20
4.047235917572979
 30
0
 42
0.001876758520297982
  0
VERTEX
  8
1
 10
-7.139436305186072
 20
4.183942324794887
 30
0
 42
0.00110597217656329
  0
VERTEX
  8
1
 10
-7.146310523228609
 20
4.250469960505902
 30
0
 42
0.0009424739661362733
  0
VERTEX
  8
1
 10
-7.153457232856288
 20
4.316968815296922
 30
0
 42
0.001177373876970055
  0
VERTEX
  8
1
 10
-7.160885808241964
 20
4.383436737183971
 30
0
 42
0.001013905698278639
  0
VERTEX
  8
1
 10
-7.168605623558488
 20
4.449871574183078
 30
0
 42
0.001183672767150775
  0
VERTEX
  8
1
 10
-7.176125898441655
 20
4.512198708705821
 30
0
 42
0.001037243536393047
  0
VERTEX
  8
1
 10
-7.18392295132732
 20
4.574491876761266
 30
0
 42
0.001280727474519146
  0
VERTEX
  8
1
 10
-7.192008697581024
 20
4.636748158099509
 30
0
 42
0.001134352558386601
  0
VERTEX
  8
1
 10
-7.200395052568299
 20
4.69896463247064
 30
0
 42
0.001377877412154709
  0
VERTEX
  8
1
 10
-7.209093931654689
 20
4.761138379624754
 30
0
 42
0.001142522827015083
  0
VERTEX
  8
1
 10
-7.217449039307731
 20
4.818737741538077
 30
0
 42
0.001410613743454991
  0
VERTEX
  8
1
 10
-7.226098165122799
 20
4.876293758856601
 30
0
 42
0.001276621948104044
  0
VERTEX
  8
1
 10
-7.23505647566048
 20
4.933802320403903
 30
0
 42
0.001544803252828974
  0
VERTEX
  8
1
 10
-7.244339137481359
 20
4.991259315003561
 30
0
 42
0.001410876688361792
  0
VERTEX
  8
1
 10
-7.253961317146018
 20
5.048660631479152
 30
0
 42
0.001555485661535204
  0
VERTEX
  8
1
 10
-7.263067083358688
 20
5.101072287026534
 30
0
 42
0.001458746976764998
  0
VERTEX
  8
1
 10
-7.27248866050916
 20
5.153428189620762
 30
0
 42
0.001745676639501804
  0
VERTEX
  8
1
 10
-7.28224556335687
 20
5.205722533081145
 30
0
 42
0.00164907075123263
  0
VERTEX
  8
1
 10
-7.292357306661252
 20
5.257949511226999
 30
0
 42
0.001936079544950059
  0
VERTEX
  8
1
 10
-7.302843405181744
 20
5.310103317877633
 30
0
 42
0.001662832588158117
  0
VERTEX
  8
1
 10
-7.312606448921604
 20
5.356914814118617
 30
0
 42
0.002007039334587213
  0
VERTEX
  8
1
 10
-7.322712839547521
 20
5.403653525827798
 30
0
 42
0.001939352630361036
  0
VERTEX
  8
1
 10
-7.333187689475528
 20
5.45031047993502
 30
0
 42
0.002283905482755887
  0
VERTEX
  8
1
 10
-7.344056111121649
 20
5.496876703370123
 30
0
 42
0.002216455336348299
  0
VERTEX
  8
1
 10
-7.355343216901911
 20
5.543343223062948
 30
0
 42
0.002301647963246054
  0
VERTEX
  8
1
 10
-7.365657461050792
 20
5.584191871280092
 30
0
 42
0.002333181217784603
  0
VERTEX
  8
1
 10
-7.376349952989144
 20
5.624943324259941
 30
0
 42
0.002727670386025209
  0
VERTEX
  8
1
 10
-7.387454440499223
 20
5.665584747859612
 30
0
 42
0.002759468379155341
  0
VERTEX
  8
1
 10
-7.399004671363281
 20
5.70610330793622
 30
0
 42
0.003153863951871846
  0
VERTEX
  8
1
 10
-7.411034393363575
 20
5.746486170346884
 30
0
 42
0.002780712439442951
  0
VERTEX
  8
1
 10
-7.42178877668006
 20
5.781081687671454
 30
0
 42
0.003337380465033273
  0
VERTEX
  8
1
 10
-7.432965733041884
 20
5.815543250883693
 30
0
 42
0.003452264024754121
  0
VERTEX
  8
1
 10
-7.44460852421563
 20
5.849846678899608
 30
0
 42
0.004011824186194506
  0
VERTEX
  8
1
 10
-7.456760411967883
 20
5.883967790635202
 30
0
 42
0.004128954261114525
  0
VERTEX
  8
1
 10
-7.469464658065231
 20
5.91788240500648
 30
0
 42
0.004041736240433764
  0
VERTEX
  8
1
 10
-7.48051805596187
 20
5.94598337297546
 30
0
 42
0.004498202735347544
  0
VERTEX
  8
1
 10
-7.492049909714734
 20
5.973891784341632
 30
0
 42
0.005227978421267969
  0
VERTEX
  8
1
 10
-7.504124547708237
 20
6.001575470441956
 30
0
 42
0.005680618095608049
  0
VERTEX
  8
1
 10
-7.516806298326791
 20
6.029002262613398
 30
0
 42
0.006401383963487676
  0
VERTEX
  8
1
 10
-7.530159489954809
 20
6.056139992192925
 30
0
 42
0.00569001637859826
  0
VERTEX
  8
1
 10
-7.541424078900067
 20
6.077700754020215
 30
0
 42
0.007032986163665492
  0
VERTEX
  8
1
 10
-7.55323332240314
 20
6.098967451011694
 30
0
 42
0.007823488128898113
  0
VERTEX
  8
1
 10
-7.565656920146699
 20
6.119853379974834
 30
0
 42
0.009219952160331644
  0
VERTEX
  8
1
 10
-7.578764571813411
 20
6.140271837717107
 30
0
 42
0.01005838374161542
  0
VERTEX
  8
1
 10
-7.592625977085941
 20
6.16013612104598
 30
0
 42
0.009338064877977255
  0
VERTEX
  8
1
 10
-7.603924233070602
 20
6.175058768044043
 30
0
 42
0.01132950676791045
  0
VERTEX
  8
1
 10
-7.615830862873684
 20
6.189503493451399
 30
0
 42
0.01327147992576919
  0
VERTEX
  8
1
 10
-7.628461448938873
 20
6.203375905576213
 30
0
 42
0.01509731767614695
  0
VERTEX
  8
1
 10
-7.641931573709855
 20
6.216581612726656
 30
0
 42
0.01673897735863745
  0
VERTEX
  8
1
 10
-7.656356819630314
 20
6.229026223210894
 30
0
 42
0.0148432471567496
  0
VERTEX
  8
1
 10
-7.668214588278641
 20
6.238015503057
 30
0
 42
0.01950889101993988
  0
VERTEX
  8
1
 10
-7.680651594701794
 20
6.246163175558441
 30
0
 42
0.02353113836181425
  0
VERTEX
  8
1
 10
-7.6936074798116
 20
6.253138668986417
 30
0
 42
0.02974891291467633
  0
VERTEX
  8
1
 10
-7.70702188451989
 20
6.258611411612122
 30
0
 42
0.03514018861904727
  0
VERTEX
  8
1
 10
-7.720834449738486
 20
6.262250831706751
 30
0
 42
0.03345938155154481
  0
VERTEX
  8
1
 10
-7.733451507909481
 20
6.263778402444996
 30
0
 42
0.02104179706896976
  0
VERTEX
  8
1
 10
-7.746283965305999
 20
6.263926165055892
 30
0
 42
0.01880248008139761
  0
VERTEX
  8
1
 10
-7.75927797212166
 20
6.263039071571282
 30
0
 42
0.007012781660369075
  0
VERTEX
  8
1
 10
-7.772379678550081
 20
6.261462074022999
 30
0
 42
0.005626555955882196
  0
VERTEX
  8
1
 10
-7.785535234784884
 20
6.259540124442879
 30
0
  0
SEQEND
  8
1
  0
POLYLINE
  8
1
 62
7
 66
1
  0
VERTEX
  8
1
 10
-7.030335319237434
 20
1.837347023940879
 30
0
 42
-9.330621623725834e-005
  0
VERTEX
  8
1
 10
-7.030680342200474
 20
1.757614681526318
 30
0
 42
-0.0002799214872091503
  0
VERTEX
  8
1
 10
-7.03108487950355
 20
1.677883023119537
 30
0
 42
-0.0004665437139961946
  0
VERTEX
  8
1
 10
-7.031608445486702
 20
1.598152732728313
 30
0
 42
-0.0006531723348482161
  0
VERTEX
  8
1
 10
-7.032310554489968
 20
1.518424494360428
 30
0
 42
-0.0008397989882082256
  0
VERTEX
  8
1
 10
-7.033250720853385
 20
1.43869899202366
 30
0
 42
-0.0009036646535849394
  0
VERTEX
  8
1
 10
-7.034465336866409
 20
1.359607218260245
 30
0
 42
-0.0008595435410213948
  0
VERTEX
  8
1
 10
-7.035958867734101
 20
1.280519543488212
 30
0
 42
-0.0008154356440797465
  0
VERTEX
  8
1
 10
-7.037717343438132
 20
1.201436700526496
 30
0
 42
-0.0007713434937629939
  0
VERTEX
  8
1
 10
-7.039726793960171
 20
1.122359422194032
 30
0
 42
-0.0007272688595819489
  0
VERTEX
  8
1
 10
-7.041973249281892
 20
1.043288441309755
 30
0
 42
-0.0007052181637274189
  0
VERTEX
  8
1
 10
-7.04440525681815
 20
0.9654791055118464
 30
0
 42
-0.0007275647787545991
  0
VERTEX
  8
1
 10
-7.047060209560209
 20
0.8876774141010053
 30
0
 42
-0.00151473562820895
  0
VERTEX
  8
1
 10
-7.053066682071234
 20
0.732100306334569
 30
0
 42
-0.001582112709955292
  0
VERTEX
  8
1
 10
-7.059957757044161
 20
0.5784307412524211
 30
0
 42
-0.002425986001361448
  0
VERTEX
  8
1
 10
-7.071998228642695
 20
0.3508161007028774
 30
0
 42
-0.001647046143849472
  0
VERTEX
  8
1
 10
-7.081117207069851
 20
0.2016049502769068
 30
0
 42
-0.001695056506913317
  0
VERTEX
  8
1
 10
-7.091069263510077
 20
0.05491900005799756
 30
0
 42
-0.001775781982384784
  0
VERTEX
  8
1
 10
-7.102043252862909
 20
-0.09169393874378784
 30
0
 42
-0.001790858133856243
  0
VERTEX
  8
1
 10
-7.113568764564133
 20
-0.2321625381256069
 30
0
 42
-0.00189504689896218
  0
VERTEX
  8
1
 10
-7.126134326991203
 20
-0.3725418696912216
 30
0
 42
-0.001950213639688056
  0
VERTEX
  8
1
 10
-7.139436305186072
 20
-0.5092482769131288
 30
0
 42
-0.001006378296329623
  0
VERTEX
  8
1
 10
-7.146310523228609
 20
-0.5757759126241447
 30
0
 42
-0.001042070265290825
  0
VERTEX
  8
1
 10
-7.153457232856288
 20
-0.6422747674151638
 30
0
 42
-0.001077779270245364
  0
VERTEX
  8
1
 10
-7.160885808241964
 20
-0.7087426893022131
 30
0
 42
-0.001113501187246174
  0
VERTEX
  8
1
 10
-7.168605623558488
 20
-0.7751775263013201
 30
0
 42
-0.001086204528783856
  0
VERTEX
  8
1
 10
-7.176125898441655
 20
-0.8375046608240627
 30
0
 42
-0.001134716305012442
  0
VERTEX
  8
1
 10
-7.18392295132732
 20
-0.8997978288795089
 30
0
 42
-0.001183258184547625
  0
VERTEX
  8
1
 10
-7.192008697581024
 20
-0.9620541102177515
 30
0
 42
-0.001231824089319682
  0
VERTEX
  8
1
 10
-7.200395052568299
 20
-1.024270584588883
 30
0
 42
-0.001280406598774896
  0
VERTEX
  8
1
 10
-7.209093931654689
 20
-1.086444331742996
 30
0
 42
-0.001243060425900838
  0
VERTEX
  8
1
 10
-7.217449039307731
 20
-1.144043693656319
 30
0
 42
-0.001310083881562015
  0
VERTEX
  8
1
 10
-7.226098165122799
 20
-1.201599710974843
 30
0
 42
-0.001377157753599279
  0
VERTEX
  8
1
 10
-7.23505647566048
 20
-1.259108272522146
 30
0
 42
-0.001444271016049637
  0
VERTEX
  8
1
 10
-7.244339137481359
 20
-1.316565267121804
 30
0
 42
-0.00151140965994364
  0
VERTEX
  8
1
 10
-7.253961317146018
 20
-1.373966583597394
 30
0
 42
-0.001459595031653747
  0
VERTEX
  8
1
 10
-7.263067083358688
 20
-1.426378239144777
 30
0
 42
-0.001554649827724741
  0
VERTEX
  8
1
 10
-7.27248866050916
 20
-1.478734141739004
 30
0
 42
-0.001649782168128941
  0
VERTEX
  8
1
 10
-7.28224556335687
 20
-1.531028485199388
 30
0
 42
-0.001744968656684646
  0
VERTEX
  8
1
 10
-7.292357306661252
 20
-1.583255463345241
 30
0
 42
-0.001840178709046677
  0
VERTEX
  8
1
 10
-7.302843405181744
 20
-1.635409269995876
 30
0
 42
-0.001765871641257192
  0
VERTEX
  8
1
 10
-7.312606448921604
 20
-1.682220766236859
 30
0
 42
-0.001904031208071793
  0
VERTEX
  8
1
 10
-7.322712839547521
 20
-1.728959477946041
 30
0
 42
-0.002042384744171756
  0
VERTEX
  8
1
 10
-7.333187689475528
 20
-1.775616432053262
 30
0
 42
-0.002180887011222743
  0
VERTEX
  8
1
 10
-7.344056111121649
 20
-1.822182655488365
 30
0
 42
-0.00231947393256149
  0
VERTEX
  8
1
 10
-7.355343216901911
 20
-1.86864917518119
 30
0
 42
-0.002210983309953339
  0
VERTEX
  8
1
 10
-7.365657461050792
 20
-1.909497823398334
 30
0
 42
-0.002423881192030986
  0
VERTEX
  8
1
 10
-7.376349952989144
 20
-1.950249276378183
 30
0
 42
-0.002636982390629082
  0
VERTEX
  8
1
 10
-7.387454440499223
 20
-1.990890699977853
 30
0
 42
-0.002850135728155048
  0
VERTEX
  8
1
 10
-7.399004671363281
 20
-2.031409260054462
 30
0
 42
-0.003063132432557034
  0
VERTEX
  8
1
 10
-7.411034393363575
 20
-2.071792122465126
 30
0
 42
-0.002891674850094598
  0
VERTEX
  8
1
 10
-7.421788776680061
 20
-2.106387639789696
 30
0
 42
-0.003226664896190851
  0
VERTEX
  8
1
 10
-7.432965733041883
 20
-2.140849203001936
 30
0
 42
-0.003563197364355621
  0
VERTEX
  8
1
 10
-7.44460852421563
 20
-2.17515263101785
 30
0
 42
-0.003901046200190242
  0
VERTEX
  8
1
 10
-7.456760411967882
 20
-2.209273742753445
 30
0
 42
-0.004239790319397999
  0
VERTEX
  8
1
 10
-7.469464658065231
 20
-2.243188357124723
 30
0
 42
-0.003973233821003885
  0
VERTEX
  8
1
 10
-7.48051805596187
 20
-2.271289325093703
 30
0
 42
-0.004566642610460535
  0
VERTEX
  8
1
 10
-7.492049909714734
 20
-2.299197736459874
 30
0
 42
-0.005159154839496374
  0
VERTEX
  8
1
 10
-7.504124547708237
 20
-2.326881422560198
 30
0
 42
-0.005748596334586038
  0
VERTEX
  8
1
 10
-7.516806298326791
 20
-2.354308214731641
 30
0
 42
-0.006331942670689698
  0
VERTEX
  8
1
 10
-7.530159489954809
 20
-2.381445944311167
 30
0
 42
-0.005836834315387551
  0
VERTEX
  8
1
 10
-7.541424078900067
 20
-2.403006706138456
 30
0
 42
-0.006890287861067361
  0
VERTEX
  8
1
 10
-7.55323332240314
 20
-2.424273403129936
 30
0
 42
-0.007970432760697237
  0
VERTEX
  8
1
 10
-7.565656920146699
 20
-2.445159332093076
 30
0
 42
-0.009076663875777545
  0
VERTEX
  8
1
 10
-7.578764571813411
 20
-2.465577789835348
 30
0
 42
-0.01020386948169519
  0
VERTEX
  8
1
 10
-7.592625977085941
 20
-2.485442073164222
 30
0
 42
-0.009335752266179737
  0
VERTEX
  8
1
 10
-7.603924233070602
 20
-2.500364720162286
 30
0
 42
-0.01132572695726591
  0
VERTEX
  8
1
 10
-7.615830862873684
 20
-2.514809445569641
 30
0
 42
-0.01326051164849353
  0
VERTEX
  8
1
 10
-7.628461448938873
 20
-2.528681857694456
 30
0
 42
-0.01508162951079306
  0
VERTEX
  8
1
 10
-7.641931573709855
 20
-2.541887564844898
 30
0
 42
-0.01671370178329356
  0
VERTEX
  8
1
 10
-7.656356819630314
 20
-2.554332175329137
 30
0
 42
-0.01524058944474217
  0
VERTEX
  8
1
 10
-7.668214588278641
 20
-2.563321455175241
 30
0
 42
-0.01922107220733575
  0
VERTEX
  8
1
 10
-7.680651594701794
 20
-2.571469127676684
 30
0
 42
-0.02394458886801847
  0
VERTEX
  8
1
 10
-7.6936074798116
 20
-2.578444621104659
 30
0
 42
-0.02944336418930701
  0
VERTEX
  8
1
 10
-7.707021884519888
 20
-2.583917363730365
 30
0
 42
-0.03546662624411764
  0
VERTEX
  8
1
 10
-7.720834449738486
 20
-2.587556783824994
 30
0
 42
-0.03088626902785739
  0
VERTEX
  8
1
 10
-7.733451507909481
 20
-2.589084354563237
 30
0
 42
-0.02356049080224958
  0
VERTEX
  8
1
 10
-7.746283965305999
 20
-2.589232117174135
 30
0
 42
-0.01633912819733319
  0
VERTEX
  8
1
 10
-7.75927797212166
 20
-2.588345023689525
 30
0
 42
-0.009549492726374365
  0
VERTEX
  8
1
 10
-7.772379678550081
 20
-2.586768026141241
 30
0
 42
-0.003135946648590167
  0
VERTEX
  8
1
 10
-7.785535234784884
 20
-2.584846076561121
 30
0
  0
SEQEND
  8
1
  0
ARC
  8
1
 62
7
 10
-8.22208891183173
 20
9.337347023940879
 30
0
 40
0.999999999999881
 50
350.0000000000003
 51
90
  0
ARC
  8
1
 62
7
 10
-4.67646069384271
 20
8.632877334662794
 30
0
 40
2.999999999999913
 50
120.7932862797798
 51
155.0093714942279
  0
ARC
  8
1
 62
7
 10
-4.67646069384271
 20
-4.958183286781036
 30
0
 40
2.999999999999802
 50
204.9906285057721
 51
239.2067137202201
  0
ARC
  8
1
 62
7
 10
-8.22208891183173
 20
-5.662652976059121
 30
0
 40
1
 50
270
 51
9.999999999999739
  0
ENDBLK
  8
0
  0
BLOCK
  8
0
  2
03001980__4
 70
0
 10
180.8996527112383
 20
-142.8455781986125
 30
0
  0
INSERT
  8
0
  2
03002980__3
 10
394.7051335405213
 20
-99.67118286117955
 30
0
  0
ENDBLK
  8
0
  0
BLOCK
  8
0
  2
TOF-5KAITEI__5
 70
0
 10
248.0484543815346
 20
-125.7091309009016
 30
0
  0
INSERT
  8
0
  2
03002980__2
 10
435.4339276413739
 20
-324.6847136083578
 30
0
  0
INSERT
  8
0
  2
03001980__4
 10
180.8996527112383
 20
-142.8455781986125
 30
0
  0
ENDBLK
  8
0
  0
BLOCK
  8
0
  2
TOF-5_O____
 70
0
 10
152.3273676916517
 20
-150.184805357721
 30
0
  0
INSERT
  8
0
  2
TOF-5KAITEI__5
 10
248.0484543815346
 20
-125.7091309009016
 30
0
  0
ENDBLK
  8
0
  0
BLOCK
  8
0
  2
03002650__6
 70
0
 10
-32.47861094036498
 20
4.337347023940993
 30
0
  0
LINE
  8
1
 62
2
  6
DASHDOT
 10
9.606744386918919
 20
10.33734702394099
 30
0
 11
27.80674438691892
 21
10.33734702394099
 31
0
  0
LINE
  8
1
 62
2
  6
DASHDOT
 10
18.70674438691892
 20
1.237347023940998
 30
0
 11
18.70674438691892
 21
19.43734702394099
 31
0
  0
CIRCLE
  8
1
 62
7
 10
18.70674438691892
 20
10.33734702394099
 30
0
 40
6.5
  0
ENDBLK
  8
0
  0
BLOCK
  8
0
  2
03002650__7
 70
0
 10
17.5522169059886
 20
-213.248254961572
 30
0
  0
LINE
  8
1
 62
2
 10
-61.039985076143
 20
6.337347023940797
 30
0
 11
-62.26936460252703
 21
6.337347023940797
 31
0
  0
LINE
  8
1
 62
7
 10
-54.539985076143
 20
5.837347023940797
 30
0
 11
-62.00398726291388
 21
5.837347023940797
 31
0
  0
LINE
  8
1
 62
2
 10
-60.10697237425079
 20
5.837347023940797
 30
0
 11
-61.039985076143
 21
6.337347023940797
 31
0
  0
LINE
  8
1
 62
7
 10
-61.039985076143
 20
10.33734702394079
 30
0
 11
-61.039985076143
 21
5.837347023940797
 31
0
  0
LINE
  8
1
 62
2
 10
-49.039985076143
 20
10.33734702394079
 30
0
 11
-54.039985076143
 21
10.33734702394079
 31
0
  0
LINE
  8
1
 62
7
 10
-61.039985076143
 20
14.83734702394079
 30
0
 11
-61.039985076143
 21
10.33734702394079
 31
0
  0
LINE
  8
1
 62
2
 10
-61.039985076143
 20
14.33734702394079
 30
0
 11
-60.10697237425079
 21
14.83734702394079
 31
0
  0
LINE
  8
1
 62
7
 10
-48.539985076143
 20
10.33734702394079
 30
0
 11
-48.539985076143
 21
16.33734702394079
 31
0
  0
LINE
  8
1
 62
7
 10
-49.039985076143
 20
16.83734702394079
 30
0
 11
-54.039985076143
 21
16.83734702394079
 31
0
  0
LINE
  8
1
 62
7
 10
-54.539985076143
 20
16.33734702394079
 30
0
 11
-54.539985076143
 21
10.33734702394079
 31
0
  0
LINE
  8
1
 62
2
 10
-54.039985076143
 20
11.13734702394081
 30
0
 11
-49.039985076143
 21
11.13734702394081
 31
0
  0
LINE
  8
1
 62
2
 10
-49.039985076143
 20
11.90513434513619
 30
0
 11
-54.039985076143
 21
11.90513434513619
 31
0
  0
LINE
  8
1
 62
2
 10
-49.039985076143
 20
12.60979337956721
 30
0
 11
-54.039985076143
 21
12.60979337956721
 31
0
  0
LINE
  8
1
 62
2
 10
-49.039985076143
 20
13.22295043330522
 30
0
 11
-54.039985076143
 21
13.22295043330522
 31
0
  0
LINE
  8
1
 62
2
 10
-49.039985076143
 20
16.58067998262291
 30
0
 11
-54.039985076143
 21
16.58067998262291
 31
0
  0
LINE
  8
1
 62
2
 10
-54.039985076143
 20
3.883978777770807
 30
0
 11
-49.039985076143
 21
3.883978777770807
 31
0
  0
LINE
  8
1
 62
2
 10
-54.039985076143
 20
5.951743614576316
 30
0
 11
-49.039985076143
 21
5.951743614576316
 31
0
  0
LINE
  8
1
 62
7
 10
-54.539985076143
 20
10.33734702394079
 30
0
 11
-54.539985076143
 21
4.337347023940794
 31
0
  0
LINE
  8
1
 62
7
 10
-54.039985076143
 20
3.837347023940794
 30
0
 11
-49.039985076143
 21
3.837347023940794
 31
0
  0
LINE
  8
1
 62
7
 10
-48.539985076143
 20
4.337347023940794
 30
0
 11
-48.539985076143
 21
10.33734702394079
 31
0
  0
LINE
  8
1
 62
7
 10
-54.039985076143
 20
3.837347023940794
 30
0
 11
-54.539985076143
 21
4.337347023940794
 31
0
  0
LINE
  8
1
 62
7
 10
-54.539985076143
 20
16.33734702394079
 30
0
 11
-54.039985076143
 21
16.83734702394079
 31
0
  0
LINE
  8
1
 62
7
 10
-48.539985076143
 20
4.337347023940794
 30
0
 11
-49.039985076143
 21
3.837347023940794
 31
0
  0
LINE
  8
1
 62
7
 10
-49.039985076143
 20
16.83734702394079
 30
0
 11
-48.539985076143
 21
16.33734702394079
 31
0
  0
LINE
  8
1
 62
7
 10
-49.039985076143
 20
16.83734702394079
 30
0
 11
-49.039985076143
 21
3.837347023940794
 31
0
  0
LINE
  8
1
 62
7
 10
-54.039985076143
 20
16.83734702394079
 30
0
 11
-54.039985076143
 21
3.837347023940794
 31
0
  0
LINE
  8
1
 62
2
 10
-49.039985076143
 20
13.83610748704319
 30
0
 11
-54.039985076143
 21
13.83610748704319
 31
0
  0
LINE
  8
1
 62
2
 10
-49.039985076143
 20
14.4492645407812
 30
0
 11
-54.039985076143
 21
14.4492645407812
 31
0
  0
LINE
  8
1
 62
2
 10
-49.039985076143
 20
16.06242159451921
 30
0
 11
-54.039985076143
 21
16.06242159451921
 31
0
  0
LINE
  8
1
 62
2
 10
-49.039985076143
 20
15.06242159451921
 30
0
 11
-54.039985076143
 21
15.06242159451921
 31
0
  0
LINE
  8
1
 62
2
 10
-49.039985076143
 20
15.67557864825722
 30
0
 11
-54.039985076143
 21
15.67557864825722
 31
0
  0
LINE
  8
1
 62
2
 10
-49.039985076143
 20
9.537347023940811
 30
0
 11
-54.039985076143
 21
9.537347023940811
 31
0
  0
LINE
  8
1
 62
2
 10
-54.039985076143
 20
8.769559702745397
 30
0
 11
-49.039985076143
 21
8.769559702745397
 31
0
  0
LINE
  8
1
 62
2
 10
-54.039985076143
 20
8.064900668314408
 30
0
 11
-49.039985076143
 21
8.064900668314408
 31
0
  0
LINE
  8
1
 62
2
 10
-54.039985076143
 20
7.451743614576401
 30
0
 11
-49.039985076143
 21
7.451743614576401
 31
0
  0
LINE
  8
1
 62
2
 10
-54.039985076143
 20
6.838586560838394
 30
0
 11
-49.039985076143
 21
6.838586560838394
 31
0
  0
LINE
  8
1
 62
2
 10
-54.039985076143
 20
6.225429507100415
 30
0
 11
-49.039985076143
 21
6.225429507100415
 31
0
  0
LINE
  8
1
 62
2
 10
-54.039985076143
 20
5.612272453362294
 30
0
 11
-49.039985076143
 21
5.612272453362294
 31
0
  0
LINE
  8
1
 62
2
 10
-54.039985076143
 20
4.999115399624316
 30
0
 11
-49.039985076143
 21
4.999115399624316
 31
0
  0
LINE
  8
1
 62
2
 10
-54.039985076143
 20
4.612272453362294
 30
0
 11
-49.039985076143
 21
4.612272453362294
 31
0
  0
LINE
  8
1
 62
2
 10
-54.039985076143
 20
4.094014065258705
 30
0
 11
-49.039985076143
 21
4.094014065258705
 31
0
  0
LINE
  8
1
 62
7
 10
-62.26936460252703
 20
14.83734702394079
 30
0
 11
-54.539985076143
 21
14.83734702394079
 31
0
  0
LINE
  8
1
 62
2
 10
-62.26936460252703
 20
14.33734702394079
 30
0
 11
-61.039985076143
 21
14.33734702394079
 31
0
  0
ENDBLK
  8
0
  0
BLOCK
  8
0
  2
03018980
 70
0
 10
238.8727530959613
 20
-102.5175763833541
 30
0
  0
LINE
  8
1
 62
2
  6
DASHDOT
 10
11.85020796882283
 20
10.33734702394088
 30
0
 11
26.24046958704959
 21
10.33734702394088
 31
0
  0
LINE
  8
1
 62
2
  6
DASHDOT
 10
18.70674438691892
 20
18.05998454292222
 30
0
 11
18.70674438691892
 21
2.399993958381174
 31
0
  0
ENDBLK
  8
0
  0
BLOCK
  8
0
  2
03002980__8
 70
0
 10
205.910704088629
 20
36.66324587870952
 30
0
  0
LINE
  8
1
 62
2
  6
DASHDOT
 10
6.131324637747429
 20
1.837347023940879
 30
0
 11
-8.804377615789672
 21
1.837347023940879
 31
0
  0
ENDBLK
  8
0
  0
BLOCK
  8
0
  2
03001980__9
 70
0
 10
-7.894776740653906
 20
-6.511149458723423
 30
0
  0
INSERT
  8
0
  2
03002980__8
 10
205.910704088629
 20
36.66324587870952
 30
0
  0
ENDBLK
  8
0
  0
BLOCK
  8
0
  2
KSGA-5-13A
 70
0
 10
176.2570329760474
 20
-163.7980395281647
 30
0
  0
LINE
  8
1
 62
7
 10
23.64886938691895
 20
-16.66265297605909
 30
0
 11
23.71230688691891
 21
-18.69265297605909
 31
0
  0
LINE
  8
1
 62
2
 10
23.06786938691905
 20
-16.66265297605909
 30
0
 11
23.70556313691897
 21
-18.47685297605909
 31
0
  0
LINE
  8
1
 62
2
 10
22.98974438691905
 20
-14.16265297605912
 30
0
 11
23.06786938691905
 21
-16.66265297605909
 31
0
  0
LINE
  8
1
 62
7
 10
23.57074438691895
 20
-14.16265297605912
 30
0
 11
23.64886938691895
 21
-16.66265297605909
 31
0
  0
LINE
  8
1
 62
7
 10
18.70674438691892
 20
-16.66265297605909
 30
0
 11
23.64886938691895
 21
-16.66265297605909
 31
0
  0
LINE
  8
1
 62
7
 10
22.85674438691901
 20
-24.69265297605909
 30
0
 11
22.85674438691901
 21
-23.19265297605909
 31
0
  0
LINE
  8
1
 62
7
 10
18.70674438691892
 20
-30.19265297605909
 30
0
 11
23.57074438691895
 21
-30.19265297605909
 31
0
  0
LINE
  8
1
 62
2
 10
22.98974438691905
 20
-24.69265297605909
 30
0
 11
22.98974438691905
 21
-30.19265297605909
 31
0
  0
LINE
  8
1
 62
7
 10
23.57074438691895
 20
-30.19265297605909
 30
0
 11
23.57074438691895
 21
-24.69265297605909
 31
0
  0
LINE
  8
1
 62
7
 10
18.70674438691892
 20
-24.69265297605909
 30
0
 11
23.57074438691895
 21
-24.69265297605909
 31
0
  0
LINE
  8
1
 62
7
 10
18.70674438691892
 20
-23.19265297605909
 30
0
 11
24.70674438691892
 21
-23.19265297605909
 31
0
  0
LINE
  8
1
 62
7
 10
22.65289680962544
 20
-22.9039778414641
 30
0
 11
22.65289680962544
 21
-18.98132811065369
 31
0
  0
LINE
  8
1
 62
7
 10
21.20674438691892
 20
-18.98132811065369
 30
0
 11
21.20674438691892
 21
-22.9039778414641
 31
0
  0
LINE
  8
1
 62
7
 10
21.20674438691892
 20
-22.9039778414641
 30
0
 11
22.65289680962544
 21
-22.9039778414641
 31
0
  0
LINE
  8
1
 62
7
 10
18.70674438691892
 20
-18.69265297605909
 30
0
 11
23.95674438691892
 21
-18.69265297605909
 31
0
  0
LINE
  8
1
 62
7
 10
23.95674438691892
 20
-18.69265297605909
 30
0
 11
24.70674438691892
 21
-18.69265297605909
 31
0
  0
LINE
  8
1
 62
7
 10
25.20674438691892
 20
-22.9039778414641
 30
0
 11
24.70674438691892
 21
-23.19265297605909
 31
0
  0
LINE
  8
1
 62
7
 10
24.70674438691892
 20
-18.69265297605909
 30
0
 11
25.20674438691892
 21
-18.98132811065369
 31
0
  0
LINE
  8
1
 62
7
 10
25.20674438691892
 20
-18.98132811065369
 30
0
 11
25.20674438691892
 21
-22.9039778414641
 31
0
  0
LINE
  8
1
 62
7
 10
22.65289680962544
 20
-18.98132811065369
 30
0
 11
21.20674438691892
 21
-18.98132811065369
 31
0
  0
LINE
  8
1
 62
7
 10
16.20674438691892
 20
-18.98132811065369
 30
0
 11
14.7605919642124
 21
-18.98132811065369
 31
0
  0
LINE
  8
1
 62
7
 10
12.20674438691892
 20
-22.9039778414641
 30
0
 11
12.20674438691892
 21
-18.98132811065369
 31
0
  0
LINE
  8
1
 62
7
 10
12.20674438691892
 20
-18.98132811065369
 30
0
 11
12.70674438691892
 21
-18.69265297605909
 31
0
  0
LINE
  8
1
 62
7
 10
12.70674438691892
 20
-23.19265297605909
 30
0
 11
12.20674438691892
 21
-22.9039778414641
 31
0
  0
LINE
  8
1
 62
7
 10
12.70674438691892
 20
-18.69265297605909
 30
0
 11
13.45674438691892
 21
-18.69265297605909
 31
0
  0
LINE
  8
1
 62
7
 10
13.45674438691892
 20
-18.69265297605909
 30
0
 11
18.70674438691892
 21
-18.69265297605909
 31
0
  0
LINE
  8
1
 62
7
 10
14.7605919642124
 20
-22.9039778414641
 30
0
 11
16.20674438691892
 21
-22.9039778414641
 31
0
  0
LINE
  8
1
 62
7
 10
16.20674438691892
 20
-22.9039778414641
 30
0
 11
16.20674438691892
 21
-18.98132811065369
 31
0
  0
LINE
  8
1
 62
7
 10
14.7605919642124
 20
-18.98132811065369
 30
0
 11
14.7605919642124
 21
-22.9039778414641
 31
0
  0
LINE
  8
1
 62
7
 10
12.70674438691892
 20
-23.19265297605909
 30
0
 11
18.70674438691892
 21
-23.19265297605909
 31
0
  0
LINE
  8
1
 62
7
 10
13.84274438691911
 20
-24.69265297605909
 30
0
 11
18.70674438691892
 21
-24.69265297605909
 31
0
  0
LINE
  8
1
 62
7
 10
13.84274438691911
 20
-24.69265297605909
 30
0
 11
13.84274438691911
 21
-30.19265297605909
 31
0
  0
LINE
  8
1
 62
2
 10
14.42374438691902
 20
-30.19265297605909
 30
0
 11
14.42374438691902
 21
-24.69265297605909
 31
0
  0
LINE
  8
1
 62
7
 10
13.84274438691911
 20
-30.19265297605909
 30
0
 11
18.70674438691892
 21
-30.19265297605909
 31
0
  0
LINE
  8
1
 62
7
 10
14.55674438691883
 20
-23.19265297605909
 30
0
 11
14.55674438691883
 21
-24.69265297605909
 31
0
  0
LINE
  8
1
 62
7
 10
13.76461938691911
 20
-16.66265297605909
 30
0
 11
18.70674438691892
 21
-16.66265297605909
 31
0
  0
LINE
  8
1
 62
7
 10
13.76461938691911
 20
-16.66265297605909
 30
0
 11
13.84274438691911
 21
-14.16265297605912
 31
0
  0
LINE
  8
1
 62
2
 10
14.34561938691902
 20
-16.66265297605909
 30
0
 11
14.42374438691902
 21
-14.16265297605912
 31
0
  0
LINE
  8
1
 62
2
 10
13.70792563691909
 20
-18.47685297605909
 30
0
 11
14.34561938691902
 21
-16.66265297605909
 31
0
  0
LINE
  8
1
 62
7
 10
13.70118188691892
 20
-18.69265297605909
 30
0
 11
13.76461938691911
 21
-16.66265297605909
 31
0
  0
LINE
  8
1
 62
2
  6
DASHDOT
 10
18.70674438691892
 20
-31.98670670900572
 30
0
 11
18.70674438691892
 21
-9.196659135272398
 31
0
  0
ARC
  8
1
 62
7
 10
18.70674438691892
 20
-12.22299786145629
 30
0
 40
10.9696551146028
 50
270
 51
283.1735511072592
  0
ARC
  8
1
 62
7
 10
23.92982059827229
 20
-20.22540259726429
 30
0
 40
2.967372524785574
 50
244.5120436441984
 51
295.4879563557978
  0
ARC
  8
1
 62
7
 10
23.92982059827229
 20
-21.6599033548535
 30
0
 40
2.96737252478548
 50
64.51204364420221
 51
115.4879563558016
  0
ARC
  8
1
 62
7
 10
18.70674438691892
 20
-29.6623080906617
 30
0
 40
10.96965511460283
 50
76.82644889274101
 51
90
  0
ARC
  8
1
 62
7
 10
18.70674438691892
 20
-29.6623080906617
 30
0
 40
10.96965511460261
 50
90
 51
103.173551107259
  0
ARC
  8
1
 62
7
 10
13.48366817556577
 20
-21.6599033548535
 30
0
 40
2.96737252478548
 50
64.51204364420221
 51
115.4879563558016
  0
ARC
  8
1
 62
7
 10
13.48366817556577
 20
-20.22540259726429
 30
0
 40
2.967372524785573
 50
244.5120436441984
 51
295.4879563557978
  0
ARC
  8
1
 62
7
 10
18.70674438691892
 20
-12.22299786145629
 30
0
 40
10.96965511460263
 50
256.8264488927408
 51
270
  0
ENDBLK
  8
0
  0
BLOCK
  8
0
  2
100
 70
0
 10
-80.56149188301627
 20
-70.57346767306771
 30
0
  0
LINE
  8
1
 62
2
  6
DASHDOT
 10
18.70674438691892
 20
62.45668764873892
 30
0
 11
18.70674438691892
 21
-16.08758394070421
 31
0
  0
ENDBLK
  8
0
  0
BLOCK
  8
0
  2
KSGA-5-01C
 70
0
 10
55.10056125855705
 20
-132.8769113200375
 30
0
  0
LINE
  8
1
 62
2
  6
DASHDOT
 10
5.831324637747475
 20
1.837347023940879
 30
0
 11
-2.220530389983178
 21
1.837347023940879
 31
0
  0
ENDBLK
  8
0
  0
BLOCK
  8
0
  2
KSGA-5-101A
 70
0
 10
145.8256392384928
 20
-27.3081548613408
 30
0
  0
INSERT
  8
0
  2
KSGA-5-01C
 10
55.10056125855705
 20
-132.8769113200375
 30
0
  0
ENDBLK
  8
0
  0
BLOCK
  8
0
  2
KSGA-5-12
 70
0
 10
221.6061862588379
 20
-67.17941469987412
 30
0
  0
LINE
  8
1
 62
2
  6
DASHDOT
 10
34.05708124903141
 20
1.837347023940879
 30
0
 11
49.0814117720836
 21
1.837347023940879
 31
0
  0
ENDBLK
  8
0
  0
BLOCK
  8
0
  2
KSGA-5-20
 70
0
 10
110.347076121353
 20
-61.94866446169021
 30
0
  0
LINE
  8
1
 62
7
 10
33.20674438691891
 20
16.8373470239406
 30
0
 11
32.70674438691891
 21
16.3373470239406
 31
0
  0
LINE
  8
1
 62
7
 10
35.70674438691891
 20
16.3373470239406
 30
0
 11
35.20674438691891
 21
16.8373470239406
 31
0
  0
LINE
  8
1
 62
7
 10
35.70674438691891
 20
16.3373470239406
 30
0
 11
35.70674438691891
 21
13.29584702394072
 31
0
  0
LINE
  8
1
 62
7
 10
33.20674438691891
 20
16.8373470239406
 30
0
 11
35.20674438691891
 21
16.8373470239406
 31
0
  0
LINE
  8
1
 62
7
 10
33.20674438691891
 20
1.837347023940822
 30
0
 11
33.20674438691891
 21
16.8373470239406
 31
0
  0
LINE
  8
1
 62
7
 10
35.20674438691891
 20
1.837347023940822
 30
0
 11
35.20674438691891
 21
16.8373470239406
 31
0
  0
LINE
  8
1
 62
2
 10
35.20674438691891
 20
2.643281402465618
 30
0
 11
33.20674438691891
 21
2.643281402465618
 31
0
  0
LINE
  8
1
 62
2
 10
33.20674438691891
 20
3.446543006997104
 30
0
 11
35.20674438691891
 21
3.446543006997104
 31
0
  0
LINE
  8
1
 62
2
 10
35.20674438691891
 20
4.244467927440724
 30
0
 11
33.20674438691891
 21
4.244467927440724
 31
0
  0
LINE
  8
1
 62
2
 10
35.20674438691891
 20
5.034409952103999
 30
0
 11
33.20674438691891
 21
5.034409952103999
 31
0
  0
LINE
  8
1
 62
2
 10
35.20674438691891
 20
5.813749343504469
 30
0
 11
33.20674438691891
 21
5.813749343504469
 31
0
  0
LINE
  8
1
 62
2
 10
35.20674438691891
 20
6.579901526380525
 30
0
 11
33.20674438691891
 21
6.579901526380525
 31
0
  0
LINE
  8
1
 62
2
 10
35.20674438691891
 20
7.330325659090477
 30
0
 11
33.20674438691891
 21
7.330325659090477
 31
0
  0
LINE
  8
1
 62
2
 10
35.20674438691891
 20
8.062533059975976
 30
0
 11
33.20674438691891
 21
8.062533059975976
 31
0
  0
LINE
  8
1
 62
2
 10
35.20674438691891
 20
8.774095460742274
 30
0
 11
33.20674438691891
 21
8.774095460742274
 31
0
  0
LINE
  8
1
 62
2
 10
35.20674438691891
 20
9.462653059487479
 30
0
 11
33.20674438691891
 21
9.462653059487479
 31
0
  0
LINE
  8
1
 62
2
 10
35.20674438691891
 20
10.12592234667051
 30
0
 11
33.20674438691891
 21
10.12592234667051
 31
0
  0
LINE
  8
1
 62
2
 10
35.20674438691891
 20
10.7617036780664
 30
0
 11
33.20674438691891
 21
10.7617036780664
 31
0
  0
LINE
  8
1
 62
2
 10
35.20674438691891
 20
11.36788856959367
 30
0
 11
33.20674438691891
 21
11.36788856959367
 31
0
  0
LINE
  8
1
 62
2
 10
35.20674438691891
 20
11.94246668982032
 30
0
 11
33.20674438691891
 21
11.94246668982032
 31
0
  0
LINE
  8
1
 62
2
 10
35.20674438691891
 20
12.48353252696052
 30
0
 11
33.20674438691891
 21
12.48353252696052
 31
0
  0
LINE
  8
1
 62
2
 10
35.20674438691891
 20
12.98929170825051
 30
0
 11
33.20674438691891
 21
12.98929170825051
 31
0
  0
LINE
  8
1
 62
2
 10
35.20674438691891
 20
13.45806695074697
 30
0
 11
33.20674438691891
 21
13.45806695074697
 31
0
  0
LINE
  8
1
 62
2
 10
35.20674438691891
 20
13.88830362381208
 30
0
 11
33.20674438691891
 21
13.88830362381208
 31
0
  0
LINE
  8
1
 62
2
 10
35.20674438691891
 20
14.27857490483927
 30
0
 11
33.20674438691891
 21
14.27857490483927
 31
0
  0
LINE
  8
1
 62
2
 10
35.20674438691891
 20
14.62758651112011
 30
0
 11
33.20674438691891
 21
14.62758651112011
 31
0
  0
LINE
  8
1
 62
2
 10
35.20674438691891
 20
14.93418099216041
 30
0
 11
33.20674438691891
 21
14.93418099216041
 31
0
  0
LINE
  8
1
 62
2
 10
35.20674438691891
 20
15.1973415682109
 30
0
 11
33.20674438691891
 21
15.1973415682109
 31
0
  0
LINE
  8
1
 62
2
 10
35.20674438691891
 20
15.4161955022812
 30
0
 11
33.20674438691891
 21
15.4161955022812
 31
0
  0
LINE
  8
1
 62
2
 10
33.20674438691891
 20
15.5900169944569
 30
0
 11
35.20674438691891
 21
15.5900169944569
 31
0
  0
LINE
  8
1
 62
2
 10
35.20674438691891
 20
15.71822958891687
 30
0
 11
33.20674438691891
 21
15.71822958891687
 31
0
  0
LINE
  8
1
 62
2
 10
35.20674438691891
 20
15.84644218337678
 30
0
 11
33.20674438691891
 21
15.84644218337678
 31
0
  0
LINE
  8
1
 62
2
 10
33.20674438691891
 20
15.9746547778368
 30
0
 11
35.20674438691891
 21
15.9746547778368
 31
0
  0
LINE
  8
1
 62
2
 10
35.20674438691891
 20
16.10286737229671
 30
0
 11
33.20674438691891
 21
16.10286737229671
 31
0
  0
LINE
  8
1
 62
2
 10
33.20674438691891
 20
16.23107996675662
 30
0
 11
35.20674438691891
 21
16.23107996675662
 31
0
  0
LINE
  8
1
 62
2
 10
35.20674438691891
 20
16.35929256121648
 30
0
 11
33.20674438691891
 21
16.35929256121648
 31
0
  0
LINE
  8
1
 62
2
 10
33.20674438691891
 20
16.4875051556765
 30
0
 11
35.20674438691891
 21
16.4875051556765
 31
0
  0
LINE
  8
1
 62
2
 10
35.20674438691891
 20
16.61571775013641
 30
0
 11
33.20674438691891
 21
16.61571775013641
 31
0
  0
LINE
  8
1
 62
2
 10
33.20674438691891
 20
16.74393034459638
 30
0
 11
35.20674438691891
 21
16.74393034459638
 31
0
  0
LINE
  8
1
 62
2
 10
33.20674438691891
 20
1.837347023940822
 30
0
 11
35.20674438691891
 21
1.837347023940822
 31
0
  0
LINE
  8
1
 62
2
 10
35.20674438691891
 20
-13.06923629671468
 30
0
 11
33.20674438691891
 21
-13.06923629671468
 31
0
  0
LINE
  8
1
 62
2
 10
33.20674438691891
 20
-12.94102370225482
 30
0
 11
35.20674438691891
 21
-12.94102370225482
 31
0
  0
LINE
  8
1
 62
2
 10
35.20674438691891
 20
-12.8128111077948
 30
0
 11
33.20674438691891
 21
-12.8128111077948
 31
0
  0
LINE
  8
1
 62
2
 10
33.20674438691891
 20
-12.68459851333489
 30
0
 11
35.20674438691891
 21
-12.68459851333489
 31
0
  0
LINE
  8
1
 62
2
 10
35.20674438691891
 20
-12.55638591887498
 30
0
 11
33.20674438691891
 21
-12.55638591887498
 31
0
  0
LINE
  8
1
 62
2
 10
33.20674438691891
 20
-12.42817332441513
 30
0
 11
35.20674438691891
 21
-12.42817332441513
 31
0
  0
LINE
  8
1
 62
2
 10
35.20674438691891
 20
-12.2999607299551
 30
0
 11
33.20674438691891
 21
-12.2999607299551
 31
0
  0
LINE
  8
1
 62
2
 10
33.20674438691891
 20
-12.17174813549519
 30
0
 11
35.20674438691891
 21
-12.17174813549519
 31
0
  0
LINE
  8
1
 62
2
 10
33.20674438691891
 20
-12.04353554103523
 30
0
 11
35.20674438691891
 21
-12.04353554103523
 31
0
  0
LINE
  8
1
 62
2
 10
35.20674438691891
 20
-11.91532294657532
 30
0
 11
33.20674438691891
 21
-11.91532294657532
 31
0
  0
LINE
  8
1
 62
2
 10
33.20674438691891
 20
-11.7415014543995
 30
0
 11
35.20674438691891
 21
-11.7415014543995
 31
0
  0
LINE
  8
1
 62
2
 10
33.20674438691891
 20
-11.52264752032909
 30
0
 11
35.20674438691891
 21
-11.52264752032909
 31
0
  0
LINE
  8
1
 62
2
 10
33.20674438691891
 20
-11.25948694427871
 30
0
 11
35.20674438691891
 21
-11.25948694427871
 31
0
  0
LINE
  8
1
 62
2
 10
33.20674438691891
 20
-10.95289246323841
 30
0
 11
35.20674438691891
 21
-10.95289246323841
 31
0
  0
LINE
  8
1
 62
2
 10
33.20674438691891
 20
-10.60388085695763
 30
0
 11
35.20674438691891
 21
-10.60388085695763
 31
0
  0
LINE
  8
1
 62
2
 10
33.20674438691891
 20
-10.21360957593038
 30
0
 11
35.20674438691891
 21
-10.21360957593038
 31
0
  0
LINE
  8
1
 62
2
 10
33.20674438691891
 20
-9.783372902865324
 30
0
 11
35.20674438691891
 21
-9.783372902865324
 31
0
  0
LINE
  8
1
 62
2
 10
33.20674438691891
 20
-9.314597660368918
 30
0
 11
35.20674438691891
 21
-9.314597660368918
 31
0
  0
LINE
  8
1
 62
2
 10
33.20674438691891
 20
-8.808838479078929
 30
0
 11
35.20674438691891
 21
-8.808838479078929
 31
0
  0
LINE
  8
1
 62
2
 10
33.20674438691891
 20
-8.267772641938677
 30
0
 11
35.20674438691891
 21
-8.267772641938677
 31
0
  0
LINE
  8
1
 62
2
 10
33.20674438691891
 20
-7.69319452171203
 30
0
 11
35.20674438691891
 21
-7.69319452171203
 31
0
  0
LINE
  8
1
 62
2
 10
33.20674438691891
 20
-7.087009630184696
 30
0
 11
35.20674438691891
 21
-7.087009630184696
 31
0
  0
LINE
  8
1
 62
2
 10
33.20674438691891
 20
-6.451228298788692
 30
0
 11
35.20674438691891
 21
-6.451228298788692
 31
0
  0
LINE
  8
1
 62
2
 10
33.20674438691891
 20
-5.787959011605778
 30
0
 11
35.20674438691891
 21
-5.787959011605778
 31
0
  0
LINE
  8
1
 62
2
 10
33.20674438691891
 20
-5.09940141286063
 30
0
 11
35.20674438691891
 21
-5.09940141286063
 31
0
  0
LINE
  8
1
 62
2
 10
33.20674438691891
 20
-4.387839012094275
 30
0
 11
35.20674438691891
 21
-4.387839012094275
 31
0
  0
LINE
  8
1
 62
2
 10
33.20674438691891
 20
-3.655631611208889
 30
0
 11
35.20674438691891
 21
-3.655631611208889
 31
0
  0
LINE
  8
1
 62
2
 10
33.20674438691891
 20
-2.90520747849888
 30
0
 11
35.20674438691891
 21
-2.90520747849888
 31
0
  0
LINE
  8
1
 62
2
 10
33.20674438691891
 20
-2.139055295622882
 30
0
 11
35.20674438691891
 21
-2.139055295622882
 31
0
  0
LINE
  8
1
 62
2
 10
33.20674438691891
 20
-1.359715904222298
 30
0
 11
35.20674438691891
 21
-1.359715904222298
 31
0
  0
LINE
  8
1
 62
2
 10
33.20674438691891
 20
-0.5697738795590794
 30
0
 11
35.20674438691891
 21
-0.5697738795590794
 31
0
  0
LINE
  8
1
 62
2
 10
35.20674438691891
 20
0.2281510408845975
 30
0
 11
33.20674438691891
 21
0.2281510408845975
 31
0
  0
LINE
  8
1
 62
2
 10
33.20674438691891
 20
1.031412645415969
 30
0
 11
35.20674438691891
 21
1.031412645415969
 31
0
  0
LINE
  8
1
 62
7
 10
35.20674438691891
 20
-13.16265297605901
 30
0
 11
35.20674438691891
 21
1.837347023940822
 31
0
  0
LINE
  8
1
 62
7
 10
33.20674438691891
 20
-13.16265297605901
 30
0
 11
33.20674438691891
 21
1.837347023940822
 31
0
  0
LINE
  8
1
 62
7
 10
35.20674438691891
 20
-13.16265297605901
 30
0
 11
33.20674438691891
 21
-13.16265297605901
 31
0
  0
LINE
  8
1
 62
7
 10
35.70674438691891
 20
-9.621152976059022
 30
0
 11
35.70674438691891
 21
-12.66265297605901
 31
0
  0
LINE
  8
1
 62
7
 10
35.20674438691891
 20
-13.16265297605901
 30
0
 11
35.70674438691891
 21
-12.66265297605901
 31
0
  0
LINE
  8
1
 62
7
 10
32.70674438691891
 20
-12.66265297605901
 30
0
 11
33.20674438691891
 21
-13.16265297605901
 31
0
  0
LINE
  8
1
 62
7
 10
32.70674438691891
 20
16.3373470239406
 30
0
 11
32.70674438691891
 21
-12.66265297605901
 31
0
  0
ENDBLK
  8
0
  0
BLOCK
  8
0
  2
03014980
 70
0
 10
-110.3309726623504
 20
-335.5305319224955
 30
0
  0
INSERT
  8
0
  2
100
 10
-80.56149188301627
 20
-70.57346767306771
 30
0
  0
INSERT
  8
0
  2
KSGA-5-101A
 10
145.8256392384928
 20
-27.3081548613408
 30
0
  0
INSERT
  8
0
  2
KSGA-5-12
 10
221.6061862588379
 20
-67.17941469987412
 30
0
  0
INSERT
  8
0
  2
KSGA-5-20
 10
110.347076121353
 20
-61.94866446169021
 30
0
  0
ENDBLK
  8
0
  0
BLOCK
  8
0
  2
03014980C
 70
0
 10
105.9330327911839
 20
-13.8567761159041
 30
0
  0
LINE
  8
1
 62
7
 10
-91.87083511126274
 20
17.83734702394082
 30
0
 11
-64.66789409379156
 21
17.83734702394082
 31
0
  0
LINE
  8
1
 62
7
 10
-94.26936460252703
 20
-11.7641234847946
 30
0
 11
-94.26936460252703
 21
15.4388175326763
 31
0
  0
LINE
  8
1
 62
7
 10
-64.66789409379156
 20
-14.16265297605889
 30
0
 11
-91.87083511126251
 21
-14.16265297605889
 31
0
  0
LINE
  8
1
 62
7
 10
-62.26936460252703
 20
15.38734702394078
 30
0
 11
-62.26936460252703
 21
-11.7641234847946
 31
0
  0
LINE
  8
976
 62
7
 10
-91.87083511126251
 20
-14.16265297605889
 30
0
 11
-86.51557585376257
 21
-14.16265297605889
 31
0
  0
LINE
  8
976
 62
2
  6
DASHDOT
 10
-97.04583916150862
 20
1.837347023940879
 30
0
 11
-60.00890283849411
 21
1.837347023940879
 31
0
  0
LINE
  8
976
 62
2
  6
DASHDOT
 10
-78.26936460252703
 20
-17.9257410158568
 30
0
 11
-78.26936460252703
 21
19.6681417180302
 31
0
  0
ARC
  8
1
 62
7
 10
-78.26936460252703
 20
1.837347023940879
 30
0
 40
21.00000000000003
 50
220.3675935441856
 51
229.6324064558139
  0
ARC
  8
1
 62
7
 10
-78.26936460252703
 20
1.837347023940879
 30
0
 40
20.99999999999985
 50
310.367593544186
 51
319.6324064558144
  0
ARC
  8
1
 62
7
 10
-78.26936460252703
 20
1.837347023940879
 30
0
 40
21.00000000000012
 50
130.3675935441862
 51
139.6324064558145
  0
ARC
  8
1
 62
7
 10
-78.26936460252703
 20
1.837347023940879
 30
0
 40
20.99999999999999
 50
40.3675935441855
 51
49.63240645581428
  0
ENDBLK
  8
0
  0
BLOCK
  8
0
  2
TOF-5KAITEI__10
 70
0
 10
59.25402492964237
 20
10.62529783898742
 30
0
  0
LINE
  8
1
 62
2
 10
-81.90823960252713
 20
-16.66265297605921
 30
0
 11
-81.27054585252675
 21
-18.47685297605921
 31
0
  0
LINE
  8
1
 62
2
 10
-81.90823960252713
 20
-16.66265297605921
 30
0
 11
-81.98636460252713
 21
-14.16265297605918
 31
0
  0
LINE
  8
1
 62
7
 10
-81.327239602527
 20
-16.66265297605921
 30
0
 11
-81.405364602527
 21
-14.16265297605918
 31
0
  0
LINE
  8
1
 62
7
 10
-86.26936460252703
 20
-16.66265297605921
 30
0
 11
-81.327239602527
 21
-16.66265297605921
 31
0
  0
LINE
  8
1
 62
7
 10
-81.327239602527
 20
-16.66265297605921
 30
0
 11
-81.26380210252704
 21
-18.69265297605921
 31
0
  0
LINE
  8
1
 62
7
 10
-75.2114896025271
 20
-16.66265297605921
 30
0
 11
-70.26936460252703
 21
-16.66265297605921
 31
0
  0
LINE
  8
1
 62
7
 10
-75.2114896025271
 20
-16.66265297605921
 30
0
 11
-75.1333646025271
 21
-14.16265297605918
 31
0
  0
LINE
  8
1
 62
7
 10
-75.27492710252706
 20
-18.69265297605921
 30
0
 11
-75.2114896025271
 21
-16.66265297605921
 31
0
  0
LINE
  8
1
 62
7
 10
-75.2114896025271
 20
-16.66265297605921
 30
0
 11
-75.1333646025271
 21
-14.16265297605918
 31
0
  0
LINE
  8
1
 62
2
 10
-74.63048960252719
 20
-16.66265297605921
 30
0
 11
-74.55236460252719
 21
-14.16265297605918
 31
0
  0
LINE
  8
1
 62
2
 10
-75.26818335252712
 20
-18.47685297605921
 30
0
 11
-74.63048960252719
 21
-16.66265297605921
 31
0
  0
LINE
  8
1
 62
7
 10
-96.76936460252726
 20
-3.104777976059097
 30
0
 11
-94.26936460252703
 21
-3.02665297605921
 31
0
  0
LINE
  8
1
 62
2
 10
-96.76936460252726
 20
-2.52377797605908
 30
0
 11
-94.46093935585203
 21
-2.451639687100431
 31
0
  0
LINE
  8
1
 62
2
 10
-96.76936460252726
 20
6.198472023941008
 30
0
 11
-94.46093935585206
 21
6.126333734982105
 31
0
  0
LINE
  8
1
 62
7
 10
-96.76936460252726
 20
6.779472023940798
 30
0
 11
-94.26936460252703
 21
6.701347023940911
 31
0
  0
LINE
  8
1
 62
7
 10
-96.76936460252726
 20
1.837347023940993
 30
0
 11
-96.76936460252726
 21
-3.104777976059097
 31
0
  0
LINE
  8
1
 62
7
 10
-96.76936460252726
 20
-3.104777976059097
 30
0
 11
-98.79936460252701
 21
-3.168215476059004
 31
0
  0
LINE
  8
1
 62
2
 10
-96.76936460252726
 20
-2.52377797605908
 30
0
 11
-98.58356460252706
 21
-3.161471726059119
 31
0
  0
LINE
  8
1
 62
7
 10
-96.76936460252726
 20
6.779472023940798
 30
0
 11
-96.76936460252726
 21
1.837347023940993
 31
0
  0
LINE
  8
1
 62
2
 10
-98.58356460252706
 20
6.836165773941104
 30
0
 11
-96.76936460252726
 21
6.198472023941008
 31
0
  0
LINE
  8
1
 62
7
 10
-98.79936460252701
 20
6.842909523940989
 30
0
 11
-96.76936460252726
 21
6.779472023940798
 31
0
  0
LINE
  8
1
 62
7
 10
-103.299364602527
 20
5.987347023941084
 30
0
 11
-104.799364602527
 21
5.987347023941084
 31
0
  0
LINE
  8
1
 62
7
 10
-110.299364602527
 20
6.701347023941082
 30
0
 11
-110.299364602527
 21
1.837347023940993
 31
0
  0
LINE
  8
1
 62
2
 10
-110.299364602527
 20
6.120347023941122
 30
0
 11
-104.799364602527
 21
6.120347023941122
 31
0
  0
LINE
  8
1
 62
7
 10
-104.799364602527
 20
6.701347023941082
 30
0
 11
-110.299364602527
 21
6.701347023941082
 31
0
  0
LINE
  8
1
 62
7
 10
-104.799364602527
 20
6.701347023941082
 30
0
 11
-104.799364602527
 21
1.837347023940993
 31
0
  0
LINE
  8
1
 62
7
 10
-103.299364602527
 20
7.837347023940993
 30
0
 11
-103.299364602527
 21
1.837347023940993
 31
0
  0
LINE
  8
1
 62
7
 10
-99.08803973712178
 20
5.783499446647682
 30
0
 11
-103.0106894679322
 21
5.783499446647682
 31
0
  0
LINE
  8
1
 62
7
 10
-103.0106894679322
 20
4.337347023940993
 30
0
 11
-99.08803973712178
 21
4.337347023940993
 31
0
  0
LINE
  8
1
 62
7
 10
-103.0106894679322
 20
5.783499446647682
 30
0
 11
-103.0106894679322
 21
4.337347023940993
 31
0
  0
LINE
  8
1
 62
7
 10
-98.79936460252701
 20
7.087347023940993
 30
0
 11
-98.79936460252701
 21
1.837347023940879
 31
0
  0
LINE
  8
1
 62
7
 10
-98.79936460252701
 20
7.837347023940993
 30
0
 11
-98.79936460252701
 21
7.087347023940993
 31
0
  0
LINE
  8
1
 62
7
 10
-103.299364602527
 20
7.837347023940993
 30
0
 11
-103.0106894679322
 21
8.337347023940993
 31
0
  0
LINE
  8
1
 62
7
 10
-99.08803973712178
 20
8.337347023940993
 30
0
 11
-98.79936460252701
 21
7.837347023940993
 31
0
  0
LINE
  8
1
 62
7
 10
-103.0106894679322
 20
8.337347023940993
 30
0
 11
-99.08803973712178
 21
8.337347023940993
 31
0
  0
LINE
  8
1
 62
7
 10
-99.08803973712178
 20
4.337347023940993
 30
0
 11
-99.08803973712178
 21
5.783499446647682
 31
0
  0
LINE
  8
1
 62
7
 10
-99.08803973712178
 20
-2.108805398765696
 30
0
 11
-99.08803973712178
 21
-0.6626529760590074
 31
0
  0
LINE
  8
1
 62
7
 10
-99.08803973712178
 20
-4.662652976059007
 30
0
 11
-103.0106894679322
 21
-4.662652976059007
 31
0
  0
LINE
  8
1
 62
7
 10
-98.79936460252701
 20
-4.162652976059007
 30
0
 11
-99.08803973712178
 21
-4.662652976059007
 31
0
  0
LINE
  8
1
 62
7
 10
-103.0106894679322
 20
-4.662652976059007
 30
0
 11
-103.299364602527
 21
-4.162652976059007
 31
0
  0
LINE
  8
1
 62
7
 10
-98.79936460252701
 20
-3.412652976059007
 30
0
 11
-98.79936460252701
 21
-4.162652976059007
 31
0
  0
LINE
  8
1
 62
7
 10
-98.79936460252701
 20
1.837347023940879
 30
0
 11
-98.79936460252701
 21
-3.412652976059007
 31
0
  0
LINE
  8
1
 62
7
 10
-103.0106894679322
 20
-0.6626529760590074
 30
0
 11
-103.0106894679322
 21
-2.108805398765696
 31
0
  0
LINE
  8
1
 62
7
 10
-99.08803973712178
 20
-0.6626529760590074
 30
0
 11
-103.0106894679322
 21
-0.6626529760590074
 31
0
  0
LINE
  8
1
 62
7
 10
-103.0106894679322
 20
-2.108805398765696
 30
0
 11
-99.08803973712178
 21
-2.108805398765696
 31
0
  0
LINE
  8
1
 62
7
 10
-103.299364602527
 20
1.837347023940993
 30
0
 11
-103.299364602527
 21
-4.162652976059007
 31
0
  0
LINE
  8
1
 62
7
 10
-104.799364602527
 20
1.837347023940993
 30
0
 11
-104.799364602527
 21
-3.026652976059097
 31
0
  0
LINE
  8
1
 62
7
 10
-110.299364602527
 20
-3.026652976059097
 30
0
 11
-104.799364602527
 21
-3.026652976059097
 31
0
  0
LINE
  8
1
 62
2
 10
-104.799364602527
 20
-2.44565297605908
 30
0
 11
-110.299364602527
 21
-2.44565297605908
 31
0
  0
LINE
  8
1
 62
7
 10
-110.299364602527
 20
1.837347023940993
 30
0
 11
-110.299364602527
 21
-3.026652976059097
 31
0
  0
LINE
  8
1
 62
7
 10
-104.799364602527
 20
-2.312652976059098
 30
0
 11
-103.299364602527
 21
-2.312652976059098
 31
0
  0
LINE
  8
1
 62
2
  6
DASHDOT
 10
-78.26936460252703
 20
-16.26718290361819
 30
0
 11
-78.26936460252703
 21
19.1112266012654
 31
0
  0
LINE
  8
1
 62
7
 10
-91.27492710252703
 20
-18.69265297605921
 30
0
 11
-91.21148960252707
 21
-16.66265297605921
 31
0
  0
LINE
  8
1
 62
2
 10
-91.26818335252732
 20
-18.47685297605921
 30
0
 11
-90.63048960252694
 21
-16.66265297605921
 31
0
  0
LINE
  8
1
 62
7
 10
-91.21148960252707
 20
-16.66265297605921
 30
0
 11
-86.26936460252703
 21
-16.66265297605921
 31
0
  0
LINE
  8
1
 62
7
 10
-90.41936460252713
 20
-23.19265297605921
 30
0
 11
-90.41936460252713
 21
-24.69265297605921
 31
0
  0
LINE
  8
1
 62
7
 10
-91.13336460252729
 20
-30.19265297605921
 30
0
 11
-86.26936460252703
 21
-30.19265297605921
 31
0
  0
LINE
  8
1
 62
2
 10
-90.55236460252739
 20
-30.19265297605921
 30
0
 11
-90.55236460252739
 21
-24.69265297605921
 31
0
  0
LINE
  8
1
 62
7
 10
-91.13336460252729
 20
-24.69265297605921
 30
0
 11
-91.13336460252729
 21
-30.19265297605921
 31
0
  0
LINE
  8
1
 62
7
 10
-91.13336460252729
 20
-24.69265297605921
 30
0
 11
-86.26936460252703
 21
-24.69265297605921
 31
0
  0
LINE
  8
1
 62
7
 10
-92.26936460252703
 20
-23.19265297605921
 30
0
 11
-86.26936460252703
 21
-23.19265297605921
 31
0
  0
LINE
  8
1
 62
7
 10
-90.21551702523378
 20
-18.98132811065381
 30
0
 11
-90.21551702523378
 21
-22.9039778414643
 31
0
  0
LINE
  8
1
 62
7
 10
-88.76936460252703
 20
-22.9039778414643
 30
0
 11
-88.76936460252703
 21
-18.98132811065381
 31
0
  0
LINE
  8
1
 62
7
 10
-90.21551702523378
 20
-22.9039778414643
 30
0
 11
-88.76936460252703
 21
-22.9039778414643
 31
0
  0
LINE
  8
1
 62
7
 10
-91.51936460252703
 20
-18.69265297605921
 30
0
 11
-86.26936460252703
 21
-18.69265297605921
 31
0
  0
LINE
  8
1
 62
7
 10
-92.26936460252703
 20
-18.69265297605921
 30
0
 11
-91.51936460252703
 21
-18.69265297605921
 31
0
  0
LINE
  8
1
 62
7
 10
-92.26936460252703
 20
-23.19265297605921
 30
0
 11
-92.76936460252703
 21
-22.9039778414643
 31
0
  0
LINE
  8
1
 62
7
 10
-92.76936460252703
 20
-18.98132811065381
 30
0
 11
-92.26936460252703
 21
-18.69265297605921
 31
0
  0
LINE
  8
1
 62
7
 10
-92.76936460252703
 20
-22.9039778414643
 30
0
 11
-92.76936460252703
 21
-18.98132811065381
 31
0
  0
LINE
  8
1
 62
7
 10
-88.76936460252703
 20
-18.98132811065381
 30
0
 11
-90.21551702523378
 21
-18.98132811065381
 31
0
  0
LINE
  8
1
 62
7
 10
-72.76936460252703
 20
-18.98132811065381
 30
0
 11
-74.21551702523378
 21
-18.98132811065381
 31
0
  0
LINE
  8
1
 62
7
 10
-76.76936460252703
 20
-22.9039778414643
 30
0
 11
-76.76936460252703
 21
-18.98132811065381
 31
0
  0
LINE
  8
1
 62
7
 10
-76.76936460252703
 20
-18.98132811065381
 30
0
 11
-76.26936460252703
 21
-18.69265297605921
 31
0
  0
LINE
  8
1
 62
7
 10
-76.26936460252703
 20
-23.19265297605921
 30
0
 11
-76.76936460252703
 21
-22.9039778414643
 31
0
  0
LINE
  8
1
 62
7
 10
-76.26936460252703
 20
-18.69265297605921
 30
0
 11
-75.51936460252703
 21
-18.69265297605921
 31
0
  0
LINE
  8
1
 62
7
 10
-75.51936460252703
 20
-18.69265297605921
 30
0
 11
-70.26936460252703
 21
-18.69265297605921
 31
0
  0
LINE
  8
1
 62
7
 10
-74.21551702523378
 20
-22.9039778414643
 30
0
 11
-72.76936460252703
 21
-22.9039778414643
 31
0
  0
LINE
  8
1
 62
7
 10
-72.76936460252703
 20
-22.9039778414643
 30
0
 11
-72.76936460252703
 21
-18.98132811065381
 31
0
  0
LINE
  8
1
 62
7
 10
-74.21551702523378
 20
-18.98132811065381
 30
0
 11
-74.21551702523378
 21
-22.9039778414643
 31
0
  0
LINE
  8
1
 62
7
 10
-76.26936460252703
 20
-23.19265297605921
 30
0
 11
-70.26936460252703
 21
-23.19265297605921
 31
0
  0
LINE
  8
1
 62
7
 10
-75.13336460252729
 20
-24.69265297605921
 30
0
 11
-70.26936460252703
 21
-24.69265297605921
 31
0
  0
LINE
  8
1
 62
7
 10
-75.13336460252729
 20
-24.69265297605921
 30
0
 11
-75.13336460252707
 21
-30.19265297605921
 31
0
  0
LINE
  8
1
 62
2
 10
-74.55236460252716
 20
-30.19265297605921
 30
0
 11
-74.55236460252716
 21
-24.69265297605921
 31
0
  0
LINE
  8
1
 62
7
 10
-75.13336460252707
 20
-30.19265297605921
 30
0
 11
-70.26936460252703
 21
-30.19265297605921
 31
0
  0
LINE
  8
1
 62
7
 10
-74.41936460252713
 20
-23.19265297605921
 30
0
 11
-74.41936460252713
 21
-24.69265297605921
 31
0
  0
LINE
  8
1
 62
2
  6
DASHDOT
 10
-96.19522733317989
 20
1.837347023940879
 30
0
 11
-60.57982654466922
 21
1.837347023940879
 31
0
  0
LINE
  8
1
 62
7
 10
-65.327239602527
 20
-16.66265297605921
 30
0
 11
-65.26380210252704
 21
-18.69265297605921
 31
0
  0
LINE
  8
1
 62
2
 10
-65.90823960252691
 20
-16.66265297605921
 30
0
 11
-65.27054585252698
 21
-18.47685297605921
 31
0
  0
LINE
  8
1
 62
2
 10
-65.98636460252691
 20
-14.16265297605918
 30
0
 11
-65.90823960252691
 21
-16.66265297605921
 31
0
  0
LINE
  8
1
 62
7
 10
-65.405364602527
 20
-14.16265297605918
 30
0
 11
-65.327239602527
 21
-16.66265297605921
 31
0
  0
LINE
  8
1
 62
7
 10
-70.26936460252703
 20
-16.66265297605921
 30
0
 11
-65.327239602527
 21
-16.66265297605921
 31
0
  0
LINE
  8
1
 62
7
 10
-66.11936460252717
 20
-24.69265297605921
 30
0
 11
-66.11936460252717
 21
-23.19265297605921
 31
0
  0
LINE
  8
1
 62
7
 10
-70.26936460252703
 20
-30.19265297605921
 30
0
 11
-65.405364602527
 21
-30.19265297605921
 31
0
  0
LINE
  8
1
 62
2
 10
-65.98636460252691
 20
-24.69265297605921
 30
0
 11
-65.98636460252691
 21
-30.19265297605921
 31
0
  0
LINE
  8
1
 62
7
 10
-65.405364602527
 20
-30.19265297605921
 30
0
 11
-65.405364602527
 21
-24.69265297605921
 31
0
  0
LINE
  8
1
 62
7
 10
-70.26936460252703
 20
-24.69265297605921
 30
0
 11
-65.405364602527
 21
-24.69265297605921
 31
0
  0
LINE
  8
1
 62
7
 10
-70.26936460252703
 20
-23.19265297605921
 30
0
 11
-64.26936460252703
 21
-23.19265297605921
 31
0
  0
LINE
  8
1
 62
7
 10
-66.32321217982052
 20
-22.9039778414643
 30
0
 11
-66.32321217982052
 21
-18.98132811065381
 31
0
  0
LINE
  8
1
 62
7
 10
-67.76936460252703
 20
-18.98132811065381
 30
0
 11
-67.76936460252703
 21
-22.9039778414643
 31
0
  0
LINE
  8
1
 62
7
 10
-67.76936460252703
 20
-22.9039778414643
 30
0
 11
-66.32321217982052
 21
-22.9039778414643
 31
0
  0
LINE
  8
1
 62
7
 10
-70.26936460252703
 20
-18.69265297605921
 30
0
 11
-65.01936460252703
 21
-18.69265297605921
 31
0
  0
LINE
  8
1
 62
7
 10
-65.01936460252703
 20
-18.69265297605921
 30
0
 11
-64.26936460252703
 21
-18.69265297605921
 31
0
  0
LINE
  8
1
 62
7
 10
-63.76936460252703
 20
-22.9039778414643
 30
0
 11
-64.26936460252703
 21
-23.19265297605921
 31
0
  0
LINE
  8
1
 62
7
 10
-64.26936460252703
 20
-18.69265297605921
 30
0
 11
-63.76936460252703
 21
-18.98132811065381
 31
0
  0
LINE
  8
1
 62
7
 10
-63.76936460252703
 20
-18.98132811065381
 30
0
 11
-63.76936460252703
 21
-22.9039778414643
 31
0
  0
LINE
  8
1
 62
7
 10
-66.32321217982052
 20
-18.98132811065381
 30
0
 11
-67.76936460252703
 21
-18.98132811065381
 31
0
  0
LINE
  8
1
 62
2
  6
DASHDOT
 10
-70.26936460252703
 20
-31.9867067090058
 30
0
 11
-70.26936460252703
 21
-9.196659135272512
 31
0
  0
LINE
  8
1
 62
2
  6
DASHDOT
 10
-86.26936460252703
 20
-31.9867067090058
 30
0
 11
-86.26936460252703
 21
-9.196659135272512
 31
0
  0
LINE
  8
1
 62
7
 10
-82.32321217982052
 20
-18.98132811065381
 30
0
 11
-83.76936460252703
 21
-18.98132811065381
 31
0
  0
LINE
  8
1
 62
7
 10
-79.76936460252703
 20
-18.98132811065381
 30
0
 11
-79.76936460252703
 21
-22.9039778414643
 31
0
  0
LINE
  8
1
 62
7
 10
-80.26936460252703
 20
-18.69265297605921
 30
0
 11
-79.76936460252703
 21
-18.98132811065381
 31
0
  0
LINE
  8
1
 62
7
 10
-79.76936460252703
 20
-22.9039778414643
 30
0
 11
-80.26936460252703
 21
-23.19265297605921
 31
0
  0
LINE
  8
1
 62
7
 10
-81.01936460252703
 20
-18.69265297605921
 30
0
 11
-80.26936460252703
 21
-18.69265297605921
 31
0
  0
LINE
  8
1
 62
7
 10
-86.26936460252703
 20
-18.69265297605921
 30
0
 11
-81.01936460252703
 21
-18.69265297605921
 31
0
  0
LINE
  8
1
 62
7
 10
-83.76936460252703
 20
-22.9039778414643
 30
0
 11
-82.32321217982052
 21
-22.9039778414643
 31
0
  0
LINE
  8
1
 62
7
 10
-83.76936460252703
 20
-18.98132811065381
 30
0
 11
-83.76936460252703
 21
-22.9039778414643
 31
0
  0
LINE
  8
1
 62
7
 10
-82.32321217982052
 20
-22.9039778414643
 30
0
 11
-82.32321217982052
 21
-18.98132811065381
 31
0
  0
LINE
  8
1
 62
7
 10
-86.26936460252703
 20
-23.19265297605921
 30
0
 11
-80.26936460252703
 21
-23.19265297605921
 31
0
  0
LINE
  8
1
 62
7
 10
-86.26936460252703
 20
-24.69265297605921
 30
0
 11
-81.405364602527
 21
-24.69265297605921
 31
0
  0
LINE
  8
1
 62
7
 10
-81.405364602527
 20
-30.19265297605921
 30
0
 11
-81.405364602527
 21
-24.69265297605921
 31
0
  0
LINE
  8
1
 62
2
 10
-81.98636460252691
 20
-24.69265297605921
 30
0
 11
-81.98636460252691
 21
-30.19265297605921
 31
0
  0
LINE
  8
1
 62
7
 10
-86.26936460252703
 20
-30.19265297605921
 30
0
 11
-81.405364602527
 21
-30.19265297605921
 31
0
  0
LINE
  8
1
 62
7
 10
-82.11936460252717
 20
-24.69265297605921
 30
0
 11
-82.11936460252717
 21
-23.19265297605921
 31
0
  0
LINE
  8
1
 62
2
 10
-90.55236460252694
 20
-14.16265297605918
 30
0
 11
-90.63048960252694
 21
-16.66265297605921
 31
0
  0
LINE
  8
1
 62
7
 10
-91.13336460252707
 20
-14.16265297605918
 30
0
 11
-91.21148960252707
 21
-16.66265297605921
 31
0
  0
LINE
  8
1
 62
2
  6
DASHDOT
 10
-82.26936460252703
 20
50.38463483667101
 30
0
 11
-82.26936460252703
 21
17.36747410831208
 31
0
  0
ARC
  8
1
 62
7
 10
-92.32970948792443
 20
1.837347023940879
 30
0
 40
10.96965511460261
 50
166.8264488927401
 51
179.9999999999994
  0
ARC
  8
1
 62
7
 10
-100.3321142237326
 20
7.060423235294422
 30
0
 40
2.967372524785255
 50
154.5120436442014
 51
205.4879563558015
  0
ARC
  8
1
 62
7
 10
-101.7666149813217
 20
7.060423235294422
 30
0
 40
2.967372524785623
 50
334.5120436442011
 51
25.48795635579586
  0
ARC
  8
1
 62
7
 10
-109.7690197171298
 20
1.837347023940993
 30
0
 40
10.96965511460279
 50
359.9999999999994
 51
13.17355110725899
  0
ARC
  8
1
 62
7
 10
-109.7690197171298
 20
1.837347023940993
 30
0
 40
10.96965511460283
 50
346.826448892741
 51
359.9999999999994
  0
ARC
  8
1
 62
7
 10
-101.7666149813217
 20
-3.38572918741238
 30
0
 40
2.967372524785574
 50
334.5120436442032
 51
25.48795635579785
  0
ARC
  8
1
 62
7
 10
-100.3321142237326
 20
-3.38572918741238
 30
0
 40
2.967372524785304
 50
154.5120436441995
 51
205.4879563557996
  0
ARC
  8
1
 62
7
 10
-92.32970948792443
 20
1.837347023940879
 30
0
 40
10.96965511460257
 50
179.9999999999994
 51
193.1735511072587
  0
ARC
  8
1
 62
7
 10
-86.26936460252703
 20
-12.22299786145641
 30
0
 40
10.96965511460271
 50
256.8264488927409
 51
270
  0
ARC
  8
1
 62
7
 10
-91.49244081388041
 20
-20.22540259726449
 30
0
 40
2.967372524785475
 50
244.5120436442022
 51
295.4879563557978
  0
ARC
  8
1
 62
7
 10
-91.49244081388041
 20
-21.65990335485361
 30
0
 40
2.967372524785469
 50
64.51204364420218
 51
115.4879563557978
  0
ARC
  8
1
 62
7
 10
-86.26936460252703
 20
-29.66230809066181
 30
0
 40
10.9696551146026
 50
90
 51
103.173551107259
  0
ARC
  8
1
 62
7
 10
-70.26936460252703
 20
-29.66230809066181
 30
0
 40
10.9696551146026
 50
90
 51
103.173551107259
  0
ARC
  8
1
 62
7
 10
-75.49244081388041
 20
-21.65990335485361
 30
0
 40
2.967372524785469
 50
64.51204364420218
 51
115.4879563557978
  0
ARC
  8
1
 62
7
 10
-75.49244081388041
 20
-20.22540259726449
 30
0
 40
2.967372524785475
 50
244.5120436442022
 51
295.4879563557978
  0
ARC
  8
1
 62
7
 10
-70.26936460252703
 20
-12.22299786145641
 30
0
 40
10.96965511460271
 50
256.8264488927409
 51
270
  0
ARC
  8
1
 62
7
 10
-70.26936460252703
 20
-12.22299786145641
 30
0
 40
10.9696551146028
 50
270
 51
283.1735511072592
  0
ARC
  8
1
 62
7
 10
-65.04628839117366
 20
-20.22540259726449
 30
0
 40
2.967372524785573
 50
244.5120436441983
 51
295.4879563557979
  0
ARC
  8
1
 62
7
 10
-65.04628839117366
 20
-21.65990335485361
 30
0
 40
2.967372524785471
 50
64.51204364420205
 51
115.4879563558018
  0
ARC
  8
1
 62
7
 10
-70.26936460252703
 20
-29.66230809066181
 30
0
 40
10.96965511460282
 50
76.826448892741
 51
90
  0
ARC
  8
1
 62
7
 10
-86.26936460252703
 20
-29.66230809066181
 30
0
 40
10.96965511460282
 50
76.826448892741
 51
90
  0
ARC
  8
1
 62
7
 10
-81.04628839117366
 20
-21.65990335485361
 30
0
 40
2.967372524785469
 50
64.51204364420218
 51
115.4879563558018
  0
ARC
  8
1
 62
7
 10
-81.04628839117366
 20
-20.22540259726449
 30
0
 40
2.967372524785573
 50
244.5120436441983
 51
295.4879563557978
  0
ARC
  8
1
 62
7
 10
-86.26936460252703
 20
-12.22299786145641
 30
0
 40
10.9696551146028
 50
270
 51
283.1735511072592
  0
INSERT
  8
0
  2
03018980
 10
238.8727530959613
 20
-102.5175763833541
 30
0
  0
INSERT
  8
0
  2
03001980__9
 10
-7.894776740653906
 20
-6.511149458723423
 30
0
  0
INSERT
  8
0
  2
KSGA-5-13A
 10
176.2570329760474
 20
-163.7980395281647
 30
0
  0
INSERT
  8
0
  2
03014980
 10
-110.3309726623504
 20
-335.5305319224955
 30
0
  0
INSERT
  8
0
  2
03014980C
 10
105.9330327911839
 20
-13.8567761159041
 30
0
  0
ENDBLK
  8
0
  0
BLOCK
  8
0
  2
03248980
 70
0
 10
34.64512400332237
 20
-424.9669047411517
 30
0
  0
LINE
  8
1
 62
2
  6
DIVIDE
 10
-54.539985076143
 20
5.737347023940828
 30
0
 11
-61.81936460252703
 21
5.737347023940828
 31
0
  0
LINE
  8
1
 62
2
  6
DIVIDE
 10
-54.539985076143
 20
4.837347023940817
 30
0
 11
-61.81936460252703
 21
4.837347023940817
 31
0
  0
LINE
  8
1
 62
2
 10
-54.539985076143
 20
5.737347023940828
 30
0
 11
-54.539985076143
 21
4.837347023940817
 31
0
  0
LINE
  8
1
 62
2
 10
-54.539985076143
 20
15.83734702394077
 30
0
 11
-54.539985076143
 21
14.93734702394076
 31
0
  0
LINE
  8
1
 62
2
  6
DIVIDE
 10
-61.81936460252703
 20
15.83734702394077
 30
0
 11
-54.539985076143
 21
15.83734702394077
 31
0
  0
LINE
  8
1
 62
2
  6
DIVIDE
 10
-61.81936460252703
 20
14.93734702394076
 30
0
 11
-54.539985076143
 21
14.93734702394076
 31
0
  0
ARC
  8
1
 62
2
 10
-54.539985076143
 20
5.287347023940807
 30
0
 40
0.4500000000000206
 50
90
 51
180
  0
ARC
  8
1
 62
2
 10
-54.539985076143
 20
5.287347023940807
 30
0
 40
0.4499999999999957
 50
180
 51
270
  0
ARC
  8
1
 62
2
 10
-54.539985076143
 20
15.38734702394078
 30
0
 40
0.4499999999999904
 50
90
 51
180
  0
ARC
  8
1
 62
2
 10
-54.539985076143
 20
15.38734702394078
 30
0
 40
0.4499999999999957
 50
180
 51
270
  0
CIRCLE
  8
1
 62
2
 10
-61.81936460252703
 20
5.287347023940807
 30
0
 40
0.4499999999999957
  0
CIRCLE
  8
1
 62
2
 10
-61.81936460252703
 20
15.38734702394078
 30
0
 40
0.4499999999999957
  0
ENDBLK
  8
0
  0
BLOCK
  8
0
  2
13608051A
 70
0
 10
11.66884527192796
 20
-396.3097665187502
 30
0
  0
INSERT
  8
0
  2
03248980
 10
34.64512400332237
 20
-424.9669047411517
 30
0
  0
ENDBLK
  8
0
  0
BLOCK
  8
0
  2
13608571
 70
0
 10
2.426904882633593
 20
-192.631618708531
 30
0
  0
INSERT
  8
0
  2
13608051A
 10
11.66884527192796
 20
-396.3097665187502
 30
0
  0
ENDBLK
  8
0
  0
BLOCK
  8
0
  2
03002680
 70
0
 10
-3.176758809284081
 20
-159.73252782589
 30
0
  0
LINE
  8
1
 62
2
 10
36.23894558056167
 20
-12.1257140377914
 30
0
 11
44.23894558056167
 21
-12.1257140377914
 31
0
  0
LINE
  8
1
 62
2
 10
44.23894558056167
 20
-12.04353554103517
 30
0
 11
36.23894558056167
 21
-12.04353554103517
 31
0
  0
LINE
  8
1
 62
2
 10
36.23894558056167
 20
-11.91532294657523
 30
0
 11
44.23894558056167
 21
-11.91532294657523
 31
0
  0
LINE
  8
1
 62
2
 10
44.23894558056167
 20
-11.74150145439955
 30
0
 11
36.23894558056167
 21
-11.74150145439955
 31
0
  0
LINE
  8
1
 62
2
 10
36.23894558056167
 20
-11.52264752032909
 30
0
 11
44.23894558056167
 21
-11.52264752032909
 31
0
  0
LINE
  8
1
 62
2
 10
44.23894558056167
 20
-11.25948694427862
 30
0
 11
36.23894558056167
 21
-11.25948694427862
 31
0
  0
LINE
  8
1
 62
2
 10
36.23894558056167
 20
-10.95289246323836
 30
0
 11
44.23894558056167
 21
-10.95289246323836
 31
0
  0
LINE
  8
1
 62
2
 10
44.23894558056167
 20
-10.60388085695755
 30
0
 11
36.23894558056167
 21
-10.60388085695755
 31
0
  0
LINE
  8
1
 62
2
 10
36.23894558056167
 20
-10.21360957593038
 30
0
 11
44.23894558056167
 21
-10.21360957593038
 31
0
  0
LINE
  8
1
 62
2
 10
36.23894558056167
 20
-9.783372902865267
 30
0
 11
44.23894558056167
 21
-9.783372902865267
 31
0
  0
LINE
  8
1
 62
2
 10
44.23894558056167
 20
-9.314597660368833
 30
0
 11
36.23894558056167
 21
-9.314597660368833
 31
0
  0
LINE
  8
1
 62
2
 10
36.23894558056167
 20
-8.808838479078787
 30
0
 11
44.23894558056167
 21
-8.808838479078787
 31
0
  0
LINE
  8
1
 62
2
 10
44.23894558056167
 20
-8.26777264193862
 30
0
 11
36.23894558056167
 21
-8.26777264193862
 31
0
  0
LINE
  8
1
 62
2
 10
36.23894558056167
 20
-7.693194521711973
 30
0
 11
44.23894558056167
 21
-7.693194521711973
 31
0
  0
LINE
  8
1
 62
2
 10
44.23894558056167
 20
-7.087009630184724
 30
0
 11
36.23894558056167
 21
-7.087009630184724
 31
0
  0
LINE
  8
1
 62
2
 10
36.23894558056167
 20
-6.451228298788777
 30
0
 11
44.23894558056167
 21
-6.451228298788777
 31
0
  0
LINE
  8
1
 62
2
 10
36.23894558056167
 20
-5.787959011605778
 30
0
 11
44.23894558056167
 21
-5.787959011605778
 31
0
  0
LINE
  8
1
 62
2
 10
36.23894558056167
 20
-5.099401412860573
 30
0
 11
44.23894558056167
 21
-5.099401412860573
 31
0
  0
LINE
  8
1
 62
2
 10
36.23894558056167
 20
-4.387839012094247
 30
0
 11
44.23894558056167
 21
-4.387839012094247
 31
0
  0
LINE
  8
1
 62
2
 10
36.23894558056167
 20
-3.655631611208833
 30
0
 11
44.23894558056167
 21
-3.655631611208833
 31
0
  0
LINE
  8
1
 62
2
 10
44.23894558056167
 20
-2.905207478498824
 30
0
 11
36.23894558056167
 21
-2.905207478498824
 31
0
  0
LINE
  8
1
 62
2
 10
36.23894558056167
 20
-2.139055295622825
 30
0
 11
44.23894558056167
 21
-2.139055295622825
 31
0
  0
LINE
  8
1
 62
2
 10
44.23894558056167
 20
-1.359715904222298
 30
0
 11
36.23894558056167
 21
-1.359715904222298
 31
0
  0
LINE
  8
1
 62
2
 10
36.23894558056167
 20
-0.5697738795590226
 30
0
 11
44.23894558056167
 21
-0.5697738795590226
 31
0
  0
LINE
  8
1
 62
2
 10
36.23894558056167
 20
0.2281510408846543
 30
0
 11
44.23894558056167
 21
0.2281510408846543
 31
0
  0
LINE
  8
1
 62
2
 10
36.23894558056167
 20
1.031412645416111
 30
0
 11
44.23894558056167
 21
1.031412645416111
 31
0
  0
LINE
  8
1
 62
2
 10
45.23894558056167
 20
1.837347023940879
 30
0
 11
45.23894558056167
 21
-10.16265297605915
 31
0
  0
LINE
  8
1
 62
7
 10
45.73894558056167
 20
-9.66265297605915
 30
0
 11
45.23894558056167
 21
-10.16265297605915
 31
0
  0
LINE
  8
1
 62
7
 10
36.23894558056167
 20
1.837347023940879
 30
0
 11
36.23894558056167
 21
-12.16265297605915
 31
0
  0
LINE
  8
1
 62
7
 10
44.23894558056167
 20
1.837347023940879
 30
0
 11
44.23894558056167
 21
-12.16265297605915
 31
0
  0
LINE
  8
1
 62
7
 10
36.23894558056167
 20
-12.16265297605915
 30
0
 11
35.73894558056167
 21
-11.66265297605915
 31
0
  0
LINE
  8
1
 62
7
 10
44.73894558056167
 20
-11.66265297605915
 30
0
 11
44.23894558056167
 21
-12.16265297605915
 31
0
  0
LINE
  8
1
 62
7
 10
44.73894558056167
 20
-10.16265297605915
 30
0
 11
44.73894558056167
 21
1.837347023940879
 31
0
  0
LINE
  8
1
 62
7
 10
35.73894558056167
 20
1.837347023940879
 30
0
 11
35.73894558056167
 21
-11.66265297605915
 31
0
  0
LINE
  8
1
 62
7
 10
36.23894558056167
 20
-12.16265297605915
 30
0
 11
44.23894558056167
 21
-12.16265297605915
 31
0
  0
LINE
  8
1
 62
7
 10
44.73894558056167
 20
-11.66265297605915
 30
0
 11
44.73894558056167
 21
-10.16265297605915
 31
0
  0
LINE
  8
1
 62
7
 10
44.73894558056167
 20
-10.16265297605915
 30
0
 11
45.23894558056167
 21
-10.16265297605915
 31
0
  0
LINE
  8
1
 62
7
 10
45.73894558056167
 20
-9.66265297605915
 30
0
 11
45.73894558056167
 21
1.837347023940879
 31
0
  0
LINE
  8
1
 62
2
  6
DASHDOT
 10
34.38928244267377
 20
1.837347023940879
 30
0
 11
47.9136129657259
 21
1.837347023940879
 31
0
  0
LINE
  8
1
 62
7
 10
45.73894558056167
 20
1.837347023940879
 30
0
 11
45.73894558056167
 21
13.33734702394096
 31
0
  0
LINE
  8
1
 62
7
 10
45.23894558056167
 20
13.83734702394096
 30
0
 11
44.73894558056167
 21
13.83734702394096
 31
0
  0
LINE
  8
1
 62
7
 10
44.73894558056167
 20
13.83734702394096
 30
0
 11
44.73894558056167
 21
15.33734702394096
 31
0
  0
LINE
  8
1
 62
7
 10
44.23894558056167
 20
15.83734702394096
 30
0
 11
36.23894558056167
 21
15.83734702394096
 31
0
  0
LINE
  8
1
 62
7
 10
35.73894558056167
 20
15.33734702394096
 30
0
 11
35.73894558056167
 21
1.837347023940879
 31
0
  0
LINE
  8
1
 62
7
 10
44.73894558056167
 20
1.837347023940879
 30
0
 11
44.73894558056167
 21
13.83734702394096
 31
0
  0
LINE
  8
1
 62
7
 10
44.23894558056167
 20
15.83734702394096
 30
0
 11
44.73894558056167
 21
15.33734702394096
 31
0
  0
LINE
  8
1
 62
7
 10
35.73894558056167
 20
15.33734702394096
 30
0
 11
36.23894558056167
 21
15.83734702394096
 31
0
  0
LINE
  8
1
 62
7
 10
44.23894558056167
 20
15.83734702394096
 30
0
 11
44.23894558056167
 21
1.837347023940879
 31
0
  0
LINE
  8
1
 62
7
 10
36.23894558056167
 20
15.83734702394096
 30
0
 11
36.23894558056167
 21
1.837347023940879
 31
0
  0
LINE
  8
1
 62
7
 10
45.23894558056167
 20
13.83734702394096
 30
0
 11
45.73894558056167
 21
13.33734702394096
 31
0
  0
LINE
  8
1
 62
2
 10
45.23894558056167
 20
13.83734702394096
 30
0
 11
45.23894558056167
 21
1.837347023940879
 31
0
  0
LINE
  8
1
 62
2
 10
44.23894558056167
 20
2.643281402465703
 30
0
 11
36.23894558056167
 21
2.643281402465703
 31
0
  0
LINE
  8
1
 62
2
 10
44.23894558056167
 20
3.44654300699716
 30
0
 11
36.23894558056167
 21
3.44654300699716
 31
0
  0
LINE
  8
1
 62
2
 10
44.23894558056167
 20
4.244467927440837
 30
0
 11
36.23894558056167
 21
4.244467927440837
 31
0
  0
LINE
  8
1
 62
2
 10
36.23894558056167
 20
5.034409952104113
 30
0
 11
44.23894558056167
 21
5.034409952104113
 31
0
  0
LINE
  8
1
 62
2
 10
44.23894558056167
 20
5.81374934350464
 30
0
 11
36.23894558056167
 21
5.81374934350464
 31
0
  0
LINE
  8
1
 62
2
 10
36.23894558056167
 20
6.579901526380638
 30
0
 11
44.23894558056167
 21
6.579901526380638
 31
0
  0
LINE
  8
1
 62
2
 10
44.23894558056167
 20
7.330325659090647
 30
0
 11
36.23894558056167
 21
7.330325659090647
 31
0
  0
LINE
  8
1
 62
2
 10
44.23894558056167
 20
8.062533059976062
 30
0
 11
36.23894558056167
 21
8.062533059976062
 31
0
  0
LINE
  8
1
 62
2
 10
44.23894558056167
 20
8.774095460742387
 30
0
 11
36.23894558056167
 21
8.774095460742387
 31
0
  0
LINE
  8
1
 62
2
 10
44.23894558056167
 20
9.462653059487593
 30
0
 11
36.23894558056167
 21
9.462653059487593
 31
0
  0
LINE
  8
1
 62
2
 10
44.23894558056167
 20
10.12592234667059
 30
0
 11
36.23894558056167
 21
10.12592234667059
 31
0
  0
LINE
  8
1
 62
2
 10
36.23894558056167
 20
10.76170367806654
 30
0
 11
44.23894558056167
 21
10.76170367806654
 31
0
  0
LINE
  8
1
 62
2
 10
44.23894558056167
 20
11.36788856959379
 30
0
 11
36.23894558056167
 21
11.36788856959379
 31
0
  0
LINE
  8
1
 62
2
 10
36.23894558056167
 20
11.94246668982044
 30
0
 11
44.23894558056167
 21
11.94246668982044
 31
0
  0
LINE
  8
1
 62
2
 10
44.23894558056167
 20
12.4835325269606
 30
0
 11
36.23894558056167
 21
12.4835325269606
 31
0
  0
LINE
  8
1
 62
2
 10
36.23894558056167
 20
12.98929170825065
 30
0
 11
44.23894558056167
 21
12.98929170825065
 31
0
  0
LINE
  8
1
 62
2
 10
44.23894558056167
 20
13.45806695074708
 30
0
 11
36.23894558056167
 21
13.45806695074708
 31
0
  0
LINE
  8
1
 62
2
 10
44.23894558056167
 20
13.88830362381219
 30
0
 11
36.23894558056167
 21
13.88830362381219
 31
0
  0
LINE
  8
1
 62
2
 10
36.23894558056167
 20
14.27857490483936
 30
0
 11
44.23894558056167
 21
14.27857490483936
 31
0
  0
LINE
  8
1
 62
2
 10
44.23894558056167
 20
14.62758651112017
 30
0
 11
36.23894558056167
 21
14.62758651112017
 31
0
  0
LINE
  8
1
 62
2
 10
36.23894558056167
 20
14.93418099216044
 30
0
 11
44.23894558056167
 21
14.93418099216044
 31
0
  0
LINE
  8
1
 62
2
 10
44.23894558056167
 20
15.1973415682109
 30
0
 11
36.23894558056167
 21
15.1973415682109
 31
0
  0
LINE
  8
1
 62
2
 10
36.23894558056167
 20
15.41619550228137
 30
0
 11
44.23894558056167
 21
15.41619550228137
 31
0
  0
LINE
  8
1
 62
2
 10
44.23894558056167
 20
15.59001699445705
 30
0
 11
36.23894558056167
 21
15.59001699445705
 31
0
  0
LINE
  8
1
 62
2
 10
36.23894558056167
 20
15.71822958891698
 30
0
 11
44.23894558056167
 21
15.71822958891698
 31
0
  0
LINE
  8
1
 62
2
 10
44.23894558056167
 20
15.80040808567321
 30
0
 11
36.23894558056167
 21
15.80040808567321
 31
0
  0
ENDBLK
  8
0
  0
ENDSEC
  0
SECTION
  2
ENTITIES
  0
LINE
  8
1
 62
6
 10
-60.26936460252703
 20
1.837347023940879
 30
0
 11
-60.26936460252703
 21
0.8542784765687088
 31
0
  0
INSERT
  8
0
  2
_1
 10
-100.044364602527
 20
-19.93765297605913
 30
0
  0
INSERT
  8
0
  2
13608521A
 10
-262.2663914393237
 20
-1.495347922325124
 30
0
  0
INSERT
  8
0
  2
03003982
 10
-16.2875032886586
 20
-149.265590727996
 30
0
  0
INSERT
  8
0
  2
03067980E
 10
4.044765567789064
 20
-239.552239146487
 30
0
  0
INSERT
  8
0
  2
TOF-5R-S3
 10
366.3156212014567
 20
56.9038645822319
 30
0
  0
INSERT
  8
0
  2
TOF-5_O____
 10
152.3273676916517
 20
-150.184805357721
 30
0
  0
INSERT
  8
0
  2
03002650__6
 10
-32.47861094036498
 20
4.337347023940993
 30
0
  0
INSERT
  8
0
  2
03002650__7
 10
17.5522169059886
 20
-213.248254961572
 30
0
  0
INSERT
  8
0
  2
TOF-5KAITEI__10
 10
59.25402492964237
 20
10.62529783898742
 30
0
  0
INSERT
  8
0
  2
13608571
 10
2.426904882633593
 20
-192.631618708531
 30
0
  0
INSERT
  8
0
  2
03002680
 10
-3.176758809284081
 20
-159.73252782589
 30
0
  0
ENDSEC
  0
EOF
