  0
SECTION
  2
HEADER
  9
$ACADVER
  1
AC1009
  9
$INSBASE
 10
0
 20
0
  9
$EXTMIN
 10
-97.0458391615087
 20
-31.98670670900577
  9
$EXTMAX
 10
49.0814117720836
 20
62.45668764873892
  9
$LIMMIN
 10
-97.0458391615087
 20
-31.98670670900577
  9
$LIMMAX
 10
49.0814117720836
 20
62.45668764873892
  9
$VIEWCTR
 10
10
 20
10
  9
$VIEWSIZE
 40
10
  9
$SNAPMODE
 70
0
  9
$SNAPUNIT
 10
1
 20
1
  9
$SNAPBASE
 10
0
 20
0
  9
$SNAPANG
 50
0
  9
$SNAPSTYLE
 70
0
  9
$SNAPISOPAIR
 70
0
  9
$GRIDMODE
 70
0
  9
$GRIDUNIT
 10
0
 20
0
  9
$ORTHOMODE
 70
0
  9
$REGENMODE
 70
1
  9
$FILLMODE
 70
1
  9
$QTEXTMODE
 70
0
  9
$DRAGMODE
 70
2
  9
$LTSCALE
 40
1
  9
$OSMODE
 70
0
  9
$ATTMODE
 70
1
  9
$TEXTSIZE
 40
3.5
  9
$TRACEWID
 40
0.5
  9
$TEXTSTYLE
  7
STANDARD
  9
$CLAYER
  8
0
  9
$CELTYPE
  6
BYLAYER
  9
$CECOLOR
 62
256
  9
$DIMSCALE
 40
1
  9
$DIMASZ
 40
0.18
  9
$DIMEXO
 40
0.0625
  9
$DIMDLI
 40
0.38
  9
$DIMRND
 40
0
  9
$DIMDLE
 40
0
  9
$DIMEXE
 40
0.18
  9
$DIMTP
 40
0
  9
$DIMTM
 40
0
  9
$DIMTXT
 40
0.18
  9
$DIMCEN
 40
0.09
  9
$DIMTSZ
 40
0
  9
$DIMTOL
 70
0
  9
$DIMLIM
 70
0
  9
$DIMTIH
 70
1
  9
$DIMTOH
 70
1
  9
$DIMSE1
 70
0
  9
$DIMSE2
 70
0
  9
$DIMTAD
 70
0
  9
$DIMZIN
 70
0
  9
$DIMBLK
  1

  9
$DIMASO
 70
1
  9
$DIMSHO
 70
1
  9
$DIMPOST
  1

  9
$DIMAPOST
  1

  9
$DIMALT
 70
0
  9
$DIMALTD
 70
2
  9
$DIMALTF
 40
25.4
  9
$DIMLFAC
 40
1
  9
$DIMTOFL
 70
0
  9
$DIMTVP
 40
0
  9
$DIMTIX
 70
0
  9
$DIMSOXD
 70
0
  9
$DIMSAH
 70
0
  9
$DIMBLK1
  1

  9
$DIMBLK2
  1

  9
$DIMSTYLE
  2
*UNNAMED
  9
$DIMCLRD
 70
0
  9
$DIMCLRE
 70
0
  9
$DIMCLRT
 70
0
  9
$DIMTFAC
 40
1
  9
$DIMGAP
 40
0.09
  9
$LUNITS
 70
2
  9
$LUPREC
 70
4
  9
$AXISMODE
 70
0
  9
$AXISUNIT
 10
0
 20
0
  9
$SKETCHINC
 40
0.1
  9
$FILLETRAD
 40
2
  9
$AUNITS
 70
0
  9
$AUPREC
 70
0
  9
$MENU
  1
ACAD
  9
$ELEVATION
 40
0
  9
$THICKNESS
 40
0
  9
$VIEWDIR
 10
0
 20
0
 30
1
  9
$LIMCHECK
 70
0
  9
$BLIPMODE
 70
1
  9
$CHAMFERA
 40
0
  9
$CHAMFERB
 40
0
  9
$FASTZOOM
 70
1
  9
$SKPOLY
 70
0
  9
$ANGBASE
 50
0
  9
$ANGDIR
 70
0
  9
$PDMODE
 70
0
  9
$PDSIZE
 40
0
  9
$PLINEWID
 40
0
  9
$COORDS
 70
2
  0
ENDSEC
  0
SECTION
  2
TABLES
  0
TABLE
  2
DIMSTYLE
 70
0
  0
ENDTAB
  0
TABLE
  2
LTYPE
 70
9
  0
LTYPE
  2
CONTINUOUS
 70
64
  3
Solid line
 72
65
 73
0
 40
0
  0
LTYPE
  2
BORDER
 70
64
  3
__ __ . __ __ .
 72
65
 73
6
 40
6.729544450889118
 49
1.922726985968319
 49
-0.9613634929841597
 49
1.922726985968319
 49
-0.9613634929841597
 49
0
 49
-0.9613634929841597
  0
LTYPE
  2
CENTER
 70
64
  3
____ _ ____ _
 72
65
 73
4
 40
7.690907943873278
 49
4.806817464920798
 49
-0.9613634929841597
 49
0.9613634929841597
 49
-0.9613634929841597
  0
LTYPE
  2
DASHDOT
 70
64
  3
__ . __ . __ .
 72
65
 73
4
 40
3.845453971936639
 49
1.922726985968319
 49
-0.9613634929841597
 49
0
 49
-0.9613634929841597
  0
LTYPE
  2
DASHED
 70
64
  3
__ __ __ __ __
 72
65
 73
2
 40
2.884090478952479
 49
1.922726985968319
 49
-0.9613634929841597
  0
LTYPE
  2
DIVIDE
 70
64
  3
__ . . __ . . 
 72
65
 73
6
 40
4.806817464920798
 49
1.922726985968319
 49
-0.9613634929841597
 49
0
 49
-0.9613634929841597
 49
0
 49
-0.9613634929841597
  0
LTYPE
  2
DOT
 70
64
  3
..............
 72
65
 73
4
 40
1.922726985968319
 49
0
 49
-0.9613634929841597
 49
0
 49
-0.9613634929841597
  0
LTYPE
  2
HIDDEN
 70
64
  3
_ _ _ _ _ _ _
 72
65
 73
2
 40
1.44204523947624
 49
0.9613634929841597
 49
-0.4806817464920798
  0
LTYPE
  2
PHANTOM
 70
64
  3
_____ _ _ _____ _ _ 
 72
65
 73
6
 40
9.613634929841597
 49
4.806817464920798
 49
-0.9613634929841597
 49
0.9613634929841597
 49
-0.9613634929841597
 49
0.9613634929841597
 49
-0.9613634929841597
  0
ENDTAB
  0
TABLE
  2
LAYER
 70
4
  0
LAYER
  2
976
 70
0
 62
7
  6
CONTINUOUS
  0
LAYER
  2
1
 70
0
 62
7
  6
CONTINUOUS
  0
LAYER
  2
0
 70
0
 62
7
  6
CONTINUOUS
  0
ENDTAB
  0
TABLE
  2
STYLE
 70
4
  0
STYLE
  2
STANDARD
 70
0
 40
0
 41
1
 50
0
 71
0
 42
3.5
  3
txt
  4

  0
STYLE
  2
SIMPLEX
 70
0
 40
0
 41
1
 50
0
 71
0
 42
3.5
  3
simplex
  4

  0
STYLE
  2
COMPLEX
 70
0
 40
0
 41
1
 50
0
 71
0
 42
3.5
  3
complex
  4

  0
STYLE
  2
ITALIC
 70
0
 40
0
 41
1
 50
0
 71
0
 42
3.5
  3
italic
  4

  0
ENDTAB
  0
TABLE
  2
VIEW
 70
0
  0
ENDTAB
  0
ENDSEC
  0
SECTION
  2
BLOCKS
  0
BLOCK
  8
0
  2
03002980__1
 70
0
 10
316.1853298722087
 20
-475.3143498750666
 30
0
  0
LINE
  8
1
 62
2
  6
DASHDOT
 10
-96.1952273331798
 20
1.837347023940879
 30
0
 11
-60.57982654466923
 21
1.837347023940879
 31
0
  0
LINE
  8
1
 62
2
  6
DASHDOT
 10
-78.26936460252711
 20
19.30693263360422
 30
0
 11
-78.26936460252711
 21
-15.89513661770877
 31
0
  0
CIRCLE
  8
1
 62
7
 10
-78.26936460252711
 20
1.837347023940879
 30
0
 40
12.5
  0
CIRCLE
  8
1
 62
7
 10
-78.26936460252711
 20
1.837347023940879
 30
0
 40
2.499999999999943
  0
CIRCLE
  8
1
 62
7
 10
-78.26936460252711
 20
1.837347023940879
 30
0
 40
18
  0
CIRCLE
  8
1
 62
7
 10
-78.26936460252711
 20
1.837347023940879
 30
0
 40
17.40000000000003
  0
ENDBLK
  8
0
  0
BLOCK
  8
0
  2
03014980C__2
 70
0
 10
175.478864473911
 20
-300.820841122502
 30
0
  0
LINE
  8
1
 62
7
 10
15.31518356935423
 20
15.43881753267647
 30
0
 11
17.54275050136293
 21
15.43881753267647
 31
0
  0
ENDBLK
  8
0
  0
BLOCK
  8
0
  2
TOF-5KAITEI__3
 70
0
 10
128.7998566123695
 20
-276.3387671676105
 30
0
  0
INSERT
  8
0
  2
03002980__1
 10
316.1853298722087
 20
-475.3143498750666
 30
0
  0
INSERT
  8
0
  2
03014980C__2
 10
175.478864473911
 20
-300.820841122502
 30
0
  0
ENDBLK
  8
0
  0
BLOCK
  8
0
  2
03057980B
 70
0
 10
74.93655593346837
 20
-530.8260056204315
 30
0
  0
LINE
  8
1
 62
2
  6
DASHDOT
 10
12.65635926122182
 20
10.33734702394099
 30
0
 11
25.15415477499936
 21
10.33734702394099
 31
0
  0
LINE
  8
1
 62
2
  6
DASHDOT
 10
18.70674438691894
 20
17.13353980038056
 30
0
 11
18.70674438691894
 21
3.844744570541252
 31
0
  0
LINE
  8
1
 62
7
 10
18.19105787021731
 20
15.81311796660214
 30
0
 11
14.22243090362041
 21
13.52183011912422
 31
0
  0
LINE
  8
1
 62
7
 10
23.19105787021731
 20
13.52183011912422
 30
0
 11
19.22243090362052
 21
15.81311796660214
 31
0
  0
LINE
  8
1
 62
7
 10
23.70674438691894
 20
8.046059176463075
 30
0
 11
23.70674438691894
 21
12.62863487141891
 31
0
  0
LINE
  8
1
 62
7
 10
19.22243090362041
 20
4.86157608127985
 30
0
 11
23.19105787021731
 21
7.152863928757768
 31
0
  0
LINE
  8
1
 62
7
 10
14.22243090362041
 20
7.152863928757768
 30
0
 11
18.19105787021742
 21
4.86157608127985
 31
0
  0
LINE
  8
1
 62
7
 10
13.70674438691894
 20
12.62863487141891
 30
0
 11
13.70674438691894
 21
8.046059176463075
 31
0
  0
ARC
  8
1
 62
7
 10
18.70674438691894
 20
10.33734702394099
 30
0
 40
5.5
 50
84.61997732865684
 51
95.38002267134363
  0
ARC
  8
1
 62
7
 10
18.70674438691894
 20
10.33734702394099
 30
0
 40
5.500000000000067
 50
144.6199773286577
 51
155.3800226713429
  0
ARC
  8
1
 62
7
 10
18.70674438691894
 20
10.33734702394099
 30
0
 40
5.499999999999996
 50
204.6199773286571
 51
215.3800226713423
  0
ARC
  8
1
 62
7
 10
18.70674438691894
 20
10.33734702394099
 30
0
 40
5.499999999999985
 50
264.6199773286575
 51
275.380022671342
  0
ARC
  8
1
 62
7
 10
18.70674438691894
 20
10.33734702394099
 30
0
 40
5.499999999999936
 50
324.6199773286568
 51
335.3800226713429
  0
ARC
  8
1
 62
7
 10
18.70674438691894
 20
10.33734702394099
 30
0
 40
5.5
 50
24.6199773286571
 51
35.38002267134329
  0
CIRCLE
  8
1
 62
7
 10
18.70674438691894
 20
10.33734702394099
 30
0
 40
4.999999999999998
  0
ENDBLK
  8
0
  0
BLOCK
  8
0
  2
03056980__4
 70
0
 10
171.5037367779652
 20
-612.7044049386182
 30
0
  0
LINE
  8
1
 62
7
 10
0.8235393061572722
 20
-10.66265297605924
 30
0
 11
-1.82560773275759
 21
-10.66265297605924
 31
0
  0
LINE
  8
1
 62
7
 10
-1.82560773275759
 20
14.33734702394088
 30
0
 11
0.8235393061572722
 21
14.33734702394082
 31
0
  0
LINE
  8
1
 62
7
 10
-8.176460693843524
 20
1.837347023940822
 30
0
 11
-8.176460693843524
 21
-0.6626529760592348
 31
0
  0
LINE
  8
1
 62
7
 10
-2.691633136542009
 20
-10.16265297605924
 30
0
 11
-8.176460693843524
 21
-0.6626529760592348
 31
0
  0
LINE
  8
1
 62
7
 10
-8.176460693843524
 20
4.337347023940822
 30
0
 11
-2.691633136542009
 21
13.83734702394088
 31
0
  0
LINE
  8
1
 62
7
 10
-8.176460693843524
 20
4.337347023940822
 30
0
 11
-8.176460693843524
 21
1.837347023940822
 31
0
  0
ARC
  8
1
 62
7
 10
-1.82560773275759
 20
-9.662652976059235
 30
0
 40
0.9999999999999859
 50
210.0000000000009
 51
270
  0
ARC
  8
1
 62
7
 10
-1.82560773275759
 20
13.33734702394088
 30
0
 40
1
 50
90
 51
149.9999999999995
  0
ENDBLK
  8
0
  0
BLOCK
  8
0
  2
03057980
 70
0
 10
135.2851878107816
 20
-707.6490157799988
 30
0
  0
LINE
  8
1
 62
7
 10
-62.26936460252712
 20
13.22409836988902
 30
0
 11
-60.01594658991225
 21
13.22409836988902
 31
0
  0
LINE
  8
1
 62
7
 10
-60.47705692676722
 20
4.563844332044596
 30
0
 11
-60.01594658991225
 21
4.563844332044596
 31
0
  0
LINE
  8
1
 62
7
 10
-62.12278261514184
 20
16.11084971583716
 30
0
 11
-62.41375676087434
 21
15.6068677117396
 31
0
  0
LINE
  8
1
 62
7
 10
-60.01594658991225
 20
16.11084971583716
 30
0
 11
-62.12278261514184
 21
16.11084971583716
 31
0
  0
LINE
  8
1
 62
7
 10
-59.56936460252702
 20
15.33734702394088
 30
0
 11
-60.01594658991225
 21
16.11084971583716
 31
0
  0
LINE
  8
1
 62
7
 10
-59.56936460252702
 20
10.33734702394088
 30
0
 11
-59.56936460252702
 21
15.33734702394088
 31
0
  0
LINE
  8
1
 62
7
 10
-60.01594658991225
 20
7.450595677992737
 30
0
 11
-61.1669834949799
 21
7.450595677992737
 31
0
  0
LINE
  8
1
 62
7
 10
-59.56936460252702
 20
5.337347023940879
 30
0
 11
-59.56936460252702
 21
10.33734702394088
 31
0
  0
LINE
  8
1
 62
7
 10
-60.01594658991225
 20
4.563844332044596
 30
0
 11
-59.56936460252702
 21
5.337347023940879
 31
0
  0
ARC
  8
1
 62
7
 10
-62.12518735095024
 20
14.66747404286309
 30
0
 40
2.555822748423194
 50
325.6157525319586
 51
25.61575253195771
  0
ARC
  8
1
 62
7
 10
-69.12278261514184
 20
10.33734702394088
 30
0
 40
9.553418012614827
 50
0
 51
17.58795377399382
  0
ARC
  8
1
 62
7
 10
-69.12278261514184
 20
10.33734702394088
 30
0
 40
9.553418012614806
 50
342.4120462260061
 51
0
  0
ARC
  8
1
 62
7
 10
-62.12518735095024
 20
6.007220005018667
 30
0
 40
2.555822748423177
 50
334.3842474680424
 51
34.38424746804146
  0
INSERT
  8
0
  2
03056980__4
 10
171.5037367779652
 20
-612.7044049386182
 30
0
  0
ENDBLK
  8
0
  0
BLOCK
  8
0
  2
13608620C
 70
0
 10
56.07478311267137
 20
-533.5753506649935
 30
0
  0
INSERT
  8
0
  2
03057980
 10
135.2851878107816
 20
-707.6490157799988
 30
0
  0
ENDBLK
  8
0
  0
BLOCK
  8
0
  2
TOF-5R_CAD_DATA
 70
0
 10
33.07876992248658
 20
-294.9979793980893
 30
0
  0
INSERT
  8
0
  2
TOF-5KAITEI__3
 10
128.7998566123695
 20
-276.3387671676105
 30
0
  0
INSERT
  8
0
  2
03057980B
 10
74.93655593346837
 20
-530.8260056204315
 30
0
  0
INSERT
  8
0
  2
13608620C
 10
56.07478311267137
 20
-533.5753506649935
 30
0
  0
ENDBLK
  8
0
  0
BLOCK
  8
0
  2
TOF-5R-GAIKEI
 70
0
 10
35.8339224181772
 20
-311.446627321113
 30
0
  0
INSERT
  8
0
  2
TOF-5R_CAD_DATA
 10
33.07876992248658
 20
-294.9979793980893
 30
0
  0
ENDBLK
  8
0
  0
BLOCK
  8
0
  2
03014980E
 70
0
 10
7.599358025209988
 20
-233.864891214614
 30
0
  0
LINE
  8
1
 62
7
 10
22.16721132937441
 20
15.43881753267647
 30
0
 11
19.87073827247484
 21
15.43881753267647
 31
0
  0
LINE
  8
1
 62
7
 10
15.31518356935423
 20
15.43881753267647
 30
0
 11
17.54275050136293
 21
15.43881753267647
 31
0
  0
LINE
  8
1
 62
7
 10
15.31518356935423
 20
17.83734702394088
 30
0
 11
15.31518356935423
 21
15.43881753267647
 31
0
  0
LINE
  8
1
 62
7
 10
22.16721132937441
 20
17.83734702394094
 30
0
 11
22.16721132937441
 21
15.43881753267647
 31
0
  0
LINE
  8
1
 62
7
 10
9.32353930615729
 20
13.83734702394086
 30
0
 11
11.70674438691892
 21
13.83734702394085
 31
0
  0
LINE
  8
1
 62
2
 10
9.32353930615729
 20
13.33734702394088
 30
0
 11
9.706744386918921
 21
13.33734702394088
 31
0
  0
LINE
  8
1
 62
2
  6
DASHDOT
 10
18.70674438691894
 20
20.79822266942088
 30
0
 11
18.70674438691894
 21
-18.44666905668672
 31
0
  0
LINE
  8
1
 62
6
 10
17.39721280073973
 20
-8.162652976059093
 30
0
 11
17.39721280073973
 21
-10.16265297605909
 31
0
  0
LINE
  8
1
 62
6
 10
21.89721280073973
 20
-8.162652976059093
 30
0
 11
17.39721280073973
 21
-8.162652976059093
 31
0
  0
LINE
  8
1
 62
6
 10
21.89721280073973
 20
-10.16265297605909
 30
0
 11
21.89721280073973
 21
-8.162652976059093
 31
0
  0
LINE
  8
1
 62
6
 10
17.39721280073973
 20
-10.16265297605909
 30
0
 11
21.89721280073973
 21
-10.16265297605909
 31
0
  0
LINE
  8
1
 62
2
  6
DASHDOT
 10
3.274125688770248
 20
1.837347023940907
 30
0
 11
42.77179913144453
 21
1.837347023940907
 31
0
  0
LINE
  8
1
 62
7
 10
9.706744386918921
 20
13.83734702394088
 30
0
 11
9.706744386918921
 21
13.33734702394088
 31
0
  0
LINE
  8
1
 62
2
 10
9.706744386918921
 20
13.33734702394088
 30
0
 11
11.70674438691892
 21
13.83734702394085
 31
0
  0
LINE
  8
976
 62
7
 10
11.70674438691892
 20
13.83734702394085
 30
0
 11
11.70674438691892
 21
1.837347023940907
 31
0
  0
LINE
  8
976
 62
7
 10
9.706744386918921
 20
13.33734702394088
 30
0
 11
9.706744386918921
 21
1.837347023940907
 31
0
  0
LINE
  8
976
 62
7
 10
9.706744386918921
 20
1.837347023940907
 30
0
 11
9.706744386918921
 21
-9.662652976059093
 31
0
  0
LINE
  8
976
 62
7
 10
11.70674438691892
 20
1.837347023940907
 30
0
 11
11.70674438691892
 21
-10.16265297605909
 31
0
  0
LINE
  8
1
 62
2
 10
9.706744386918921
 20
-9.662652976059093
 30
0
 11
9.32353930615729
 21
-9.662652976059093
 31
0
  0
LINE
  8
1
 62
7
 10
11.70674438691892
 20
-10.16265297605909
 30
0
 11
9.32353930615729
 21
-10.16265297605909
 31
0
  0
LINE
  8
1
 62
7
 10
28.8669194903397
 20
-14.16265297605906
 30
0
 11
12.70674438691892
 21
-14.16265297605909
 31
0
  0
LINE
  8
1
 62
2
 10
11.70674438691892
 20
-10.16265297605909
 30
0
 11
9.706744386918921
 21
-9.662652976059093
 31
0
  0
LINE
  8
1
 62
7
 10
9.706744386918921
 20
-9.662652976059093
 30
0
 11
9.706744386918921
 21
-10.16265297605909
 31
0
  0
LINE
  8
1
 62
7
 10
11.70674438691892
 20
-13.16265297605909
 30
0
 11
11.70674438691892
 21
-10.16265297605909
 31
0
  0
LINE
  8
1
 62
7
 10
12.70674438691892
 20
-14.16265297605909
 30
0
 11
11.70674438691892
 21
-13.16265297605909
 31
0
  0
LINE
  8
1
 62
7
 10
18.70674438691894
 20
20.79822266942088
 30
0
 11
18.70674438691894
 21
24.23321501009289
 31
0
  0
LINE
  8
976
 62
2
  6
DASHDOT
 10
13.11284711569374
 20
10.33734702394099
 30
0
 11
25.25567705348905
 21
10.33734702394099
 31
0
  0
LINE
  8
1
 62
6
 10
14.07981436788351
 20
-4.162652976059093
 30
0
 11
23.27981436788352
 21
-4.162652976059093
 31
0
  0
LINE
  8
1
 62
6
 10
23.27981436788352
 20
-4.162652976059093
 30
0
 11
23.27981436788352
 21
-2.162652976059093
 31
0
  0
LINE
  8
1
 62
6
 10
23.27981436788352
 20
-2.162652976059093
 30
0
 11
14.07981436788351
 21
-2.162652976059093
 31
0
  0
LINE
  8
1
 62
6
 10
14.07981436788351
 20
-2.162652976059093
 30
0
 11
14.07981436788351
 21
-4.162652976059093
 31
0
  0
LINE
  8
1
 62
7
 10
12.42843222340593
 20
17.83734702394088
 30
0
 11
28.8669194903397
 21
17.83734702394088
 31
0
  0
LINE
  8
1
 62
7
 10
11.70674438691892
 20
13.83734702394085
 30
0
 11
11.70674438691892
 21
16.58734702394091
 31
0
  0
LINE
  8
1
 62
7
 10
12.42843222340593
 20
17.83734702394088
 30
0
 11
11.70674438691892
 21
16.58734702394091
 31
0
  0
LINE
  8
1
 62
7
 10
15.31518356935408
 20
-11.76412348479445
 30
0
 11
22.16721132937428
 21
-11.76412348479445
 31
0
  0
LINE
  8
1
 62
7
 10
15.31518356935408
 20
-14.16265297605909
 30
0
 11
15.31518356935408
 21
-11.76412348479445
 31
0
  0
LINE
  8
1
 62
7
 10
22.16721132937428
 20
-14.16265297605909
 30
0
 11
22.16721132937428
 21
-11.76412348479445
 31
0
  0
LINE
  8
1
 62
7
 10
32.70674438691892
 20
12.83734702394088
 30
0
 11
32.70674438691892
 21
13.83734702394088
 31
0
  0
LINE
  8
1
 62
7
 10
32.70674438691895
 20
14.83734702394088
 30
0
 11
32.70674438691892
 21
13.83734702394088
 31
0
  0
LINE
  8
976
 62
7
 10
32.70674438691892
 20
12.83734702394088
 30
0
 11
32.70674438691892
 21
1.837347023940907
 31
0
  0
LINE
  8
976
 62
7
 10
32.70674438691892
 20
1.837347023940907
 30
0
 11
32.70674438691892
 21
-9.162652976059007
 31
0
  0
LINE
  8
1
 62
7
 10
32.70674438691892
 20
-10.16265297605909
 30
0
 11
32.70674438691892
 21
-11.16265297605909
 31
0
  0
LINE
  8
1
 62
7
 10
32.70674438691892
 20
-10.16265297605909
 30
0
 11
32.70674438691892
 21
-9.162652976059007
 31
0
  0
LINE
  8
1
 62
7
 10
32.70674438691895
 20
14.83734702394088
 30
0
 11
28.8669194903397
 21
17.83734702394088
 31
0
  0
LINE
  8
1
 62
7
 10
28.8669194903397
 20
-14.16265297605906
 30
0
 11
32.70674438691892
 21
-11.16265297605909
 31
0
  0
ARC
  8
1
 62
7
 10
45.91474783640401
 20
1.837347023940993
 30
0
 40
33.48631561299795
 50
164.1176870580639
 51
203.9650909849874
  0
ARC
  8
1
 62
7
 10
45.91474783640401
 20
1.837347023940993
 30
0
 40
33.48631561299795
 50
156.0349090150124
 51
159.1588816134934
  0
ARC
  8
1
 62
7
 10
10.91328131948295
 20
1.837347023941049
 30
0
 40
17.65363817085686
 50
309.6045389280048
 51
50.39546107199465
  0
TEXT
  8
1
 62
7
 10
17.42525093940819
 20
-10.16317282677392
 30
0
 40
2
  1
AIR
 41
0.9450000000000001
  0
TEXT
  8
1
 62
7
 10
14.23412445658837
 20
-4.163172826773916
 30
0
 40
2
  1
TOF-5RB
 41
0.9
  0
ENDBLK
  8
0
  0
BLOCK
  8
0
  2
03056980__5
 70
0
 10
662.4700806593578
 20
30.38928765527851
 30
0
  0
LINE
  8
1
 62
2
  6
DASHDOT
 10
6.785245297973706
 20
1.837347023940879
 30
0
 11
-9.288705041093845
 21
1.837347023940879
 31
0
  0
ENDBLK
  8
0
  0
BLOCK
  8
0
  2
03055980
 70
0
 10
522.0636785912309
 20
104.5025403925048
 30
0
  0
INSERT
  8
0
  2
03056980__5
 10
662.4700806593578
 20
30.38928765527851
 30
0
  0
ENDBLK
  8
0
  0
BLOCK
  8
0
  2
13608620B
 70
0
 10
547.0411269940637
 20
109.5183419289032
 30
0
  0
INSERT
  8
0
  2
03055980
 10
522.0636785912309
 20
104.5025403925048
 30
0
  0
ENDBLK
  8
0
  0
BLOCK
  8
0
  2
TOF-5R-S3
 70
0
 10
366.3156212014567
 20
56.9038645822319
 30
0
  0
INSERT
  8
0
  2
13608620B
 10
547.0411269940637
 20
109.5183419289032
 30
0
  0
ENDBLK
  8
0
  0
BLOCK
  8
0
  2
03018980
 70
0
 10
238.8727530959613
 20
-102.5175763833541
 30
0
  0
LINE
  8
1
 62
2
  6
DASHDOT
 10
11.85020796882283
 20
10.33734702394088
 30
0
 11
26.24046958704959
 21
10.33734702394088
 31
0
  0
LINE
  8
1
 62
2
  6
DASHDOT
 10
18.70674438691892
 20
18.05998454292222
 30
0
 11
18.70674438691892
 21
2.399993958381174
 31
0
  0
ENDBLK
  8
0
  0
BLOCK
  8
0
  2
03002980__6
 70
0
 10
205.910704088629
 20
36.66324587870952
 30
0
  0
LINE
  8
1
 62
2
  6
DASHDOT
 10
6.131324637747429
 20
1.837347023940879
 30
0
 11
-8.804377615789672
 21
1.837347023940879
 31
0
  0
ENDBLK
  8
0
  0
BLOCK
  8
0
  2
03001980__7
 70
0
 10
-7.894776740653906
 20
-6.511149458723423
 30
0
  0
INSERT
  8
0
  2
03002980__6
 10
205.910704088629
 20
36.66324587870952
 30
0
  0
ENDBLK
  8
0
  0
BLOCK
  8
0
  2
KSGA-5-13A
 70
0
 10
176.2570329760474
 20
-163.7980395281647
 30
0
  0
LINE
  8
1
 62
7
 10
23.64886938691895
 20
-16.66265297605909
 30
0
 11
23.71230688691891
 21
-18.69265297605909
 31
0
  0
LINE
  8
1
 62
2
 10
23.06786938691905
 20
-16.66265297605909
 30
0
 11
23.70556313691897
 21
-18.47685297605909
 31
0
  0
LINE
  8
1
 62
2
 10
22.98974438691905
 20
-14.16265297605912
 30
0
 11
23.06786938691905
 21
-16.66265297605909
 31
0
  0
LINE
  8
1
 62
7
 10
23.57074438691895
 20
-14.16265297605912
 30
0
 11
23.64886938691895
 21
-16.66265297605909
 31
0
  0
LINE
  8
1
 62
7
 10
18.70674438691892
 20
-16.66265297605909
 30
0
 11
23.64886938691895
 21
-16.66265297605909
 31
0
  0
LINE
  8
1
 62
7
 10
22.85674438691901
 20
-24.69265297605909
 30
0
 11
22.85674438691901
 21
-23.19265297605909
 31
0
  0
LINE
  8
1
 62
7
 10
18.70674438691892
 20
-30.19265297605909
 30
0
 11
23.57074438691895
 21
-30.19265297605909
 31
0
  0
LINE
  8
1
 62
2
 10
22.98974438691905
 20
-24.69265297605909
 30
0
 11
22.98974438691905
 21
-30.19265297605909
 31
0
  0
LINE
  8
1
 62
7
 10
23.57074438691895
 20
-30.19265297605909
 30
0
 11
23.57074438691895
 21
-24.69265297605909
 31
0
  0
LINE
  8
1
 62
7
 10
18.70674438691892
 20
-24.69265297605909
 30
0
 11
23.57074438691895
 21
-24.69265297605909
 31
0
  0
LINE
  8
1
 62
7
 10
18.70674438691892
 20
-23.19265297605909
 30
0
 11
24.70674438691892
 21
-23.19265297605909
 31
0
  0
LINE
  8
1
 62
7
 10
22.65289680962544
 20
-22.9039778414641
 30
0
 11
22.65289680962544
 21
-18.98132811065369
 31
0
  0
LINE
  8
1
 62
7
 10
21.20674438691892
 20
-18.98132811065369
 30
0
 11
21.20674438691892
 21
-22.9039778414641
 31
0
  0
LINE
  8
1
 62
7
 10
21.20674438691892
 20
-22.9039778414641
 30
0
 11
22.65289680962544
 21
-22.9039778414641
 31
0
  0
LINE
  8
1
 62
7
 10
18.70674438691892
 20
-18.69265297605909
 30
0
 11
23.95674438691892
 21
-18.69265297605909
 31
0
  0
LINE
  8
1
 62
7
 10
23.95674438691892
 20
-18.69265297605909
 30
0
 11
24.70674438691892
 21
-18.69265297605909
 31
0
  0
LINE
  8
1
 62
7
 10
25.20674438691892
 20
-22.9039778414641
 30
0
 11
24.70674438691892
 21
-23.19265297605909
 31
0
  0
LINE
  8
1
 62
7
 10
24.70674438691892
 20
-18.69265297605909
 30
0
 11
25.20674438691892
 21
-18.98132811065369
 31
0
  0
LINE
  8
1
 62
7
 10
25.20674438691892
 20
-18.98132811065369
 30
0
 11
25.20674438691892
 21
-22.9039778414641
 31
0
  0
LINE
  8
1
 62
7
 10
22.65289680962544
 20
-18.98132811065369
 30
0
 11
21.20674438691892
 21
-18.98132811065369
 31
0
  0
LINE
  8
1
 62
7
 10
16.20674438691892
 20
-18.98132811065369
 30
0
 11
14.7605919642124
 21
-18.98132811065369
 31
0
  0
LINE
  8
1
 62
7
 10
12.20674438691892
 20
-22.9039778414641
 30
0
 11
12.20674438691892
 21
-18.98132811065369
 31
0
  0
LINE
  8
1
 62
7
 10
12.20674438691892
 20
-18.98132811065369
 30
0
 11
12.70674438691892
 21
-18.69265297605909
 31
0
  0
LINE
  8
1
 62
7
 10
12.70674438691892
 20
-23.19265297605909
 30
0
 11
12.20674438691892
 21
-22.9039778414641
 31
0
  0
LINE
  8
1
 62
7
 10
12.70674438691892
 20
-18.69265297605909
 30
0
 11
13.45674438691892
 21
-18.69265297605909
 31
0
  0
LINE
  8
1
 62
7
 10
13.45674438691892
 20
-18.69265297605909
 30
0
 11
18.70674438691892
 21
-18.69265297605909
 31
0
  0
LINE
  8
1
 62
7
 10
14.7605919642124
 20
-22.9039778414641
 30
0
 11
16.20674438691892
 21
-22.9039778414641
 31
0
  0
LINE
  8
1
 62
7
 10
16.20674438691892
 20
-22.9039778414641
 30
0
 11
16.20674438691892
 21
-18.98132811065369
 31
0
  0
LINE
  8
1
 62
7
 10
14.7605919642124
 20
-18.98132811065369
 30
0
 11
14.7605919642124
 21
-22.9039778414641
 31
0
  0
LINE
  8
1
 62
7
 10
12.70674438691892
 20
-23.19265297605909
 30
0
 11
18.70674438691892
 21
-23.19265297605909
 31
0
  0
LINE
  8
1
 62
7
 10
13.84274438691911
 20
-24.69265297605909
 30
0
 11
18.70674438691892
 21
-24.69265297605909
 31
0
  0
LINE
  8
1
 62
7
 10
13.84274438691911
 20
-24.69265297605909
 30
0
 11
13.84274438691911
 21
-30.19265297605909
 31
0
  0
LINE
  8
1
 62
2
 10
14.42374438691902
 20
-30.19265297605909
 30
0
 11
14.42374438691902
 21
-24.69265297605909
 31
0
  0
LINE
  8
1
 62
7
 10
13.84274438691911
 20
-30.19265297605909
 30
0
 11
18.70674438691892
 21
-30.19265297605909
 31
0
  0
LINE
  8
1
 62
7
 10
14.55674438691883
 20
-23.19265297605909
 30
0
 11
14.55674438691883
 21
-24.69265297605909
 31
0
  0
LINE
  8
1
 62
7
 10
13.76461938691911
 20
-16.66265297605909
 30
0
 11
18.70674438691892
 21
-16.66265297605909
 31
0
  0
LINE
  8
1
 62
7
 10
13.76461938691911
 20
-16.66265297605909
 30
0
 11
13.84274438691911
 21
-14.16265297605912
 31
0
  0
LINE
  8
1
 62
2
 10
14.34561938691902
 20
-16.66265297605909
 30
0
 11
14.42374438691902
 21
-14.16265297605912
 31
0
  0
LINE
  8
1
 62
2
 10
13.70792563691909
 20
-18.47685297605909
 30
0
 11
14.34561938691902
 21
-16.66265297605909
 31
0
  0
LINE
  8
1
 62
7
 10
13.70118188691892
 20
-18.69265297605909
 30
0
 11
13.76461938691911
 21
-16.66265297605909
 31
0
  0
LINE
  8
1
 62
2
  6
DASHDOT
 10
18.70674438691892
 20
-31.98670670900572
 30
0
 11
18.70674438691892
 21
-9.196659135272398
 31
0
  0
ARC
  8
1
 62
7
 10
18.70674438691892
 20
-12.22299786145629
 30
0
 40
10.9696551146028
 50
270
 51
283.1735511072592
  0
ARC
  8
1
 62
7
 10
23.92982059827229
 20
-20.22540259726429
 30
0
 40
2.967372524785574
 50
244.5120436441984
 51
295.4879563557978
  0
ARC
  8
1
 62
7
 10
23.92982059827229
 20
-21.6599033548535
 30
0
 40
2.96737252478548
 50
64.51204364420221
 51
115.4879563558016
  0
ARC
  8
1
 62
7
 10
18.70674438691892
 20
-29.6623080906617
 30
0
 40
10.96965511460283
 50
76.82644889274101
 51
90
  0
ARC
  8
1
 62
7
 10
18.70674438691892
 20
-29.6623080906617
 30
0
 40
10.96965511460261
 50
90
 51
103.173551107259
  0
ARC
  8
1
 62
7
 10
13.48366817556577
 20
-21.6599033548535
 30
0
 40
2.96737252478548
 50
64.51204364420221
 51
115.4879563558016
  0
ARC
  8
1
 62
7
 10
13.48366817556577
 20
-20.22540259726429
 30
0
 40
2.967372524785573
 50
244.5120436441984
 51
295.4879563557978
  0
ARC
  8
1
 62
7
 10
18.70674438691892
 20
-12.22299786145629
 30
0
 40
10.96965511460263
 50
256.8264488927408
 51
270
  0
ENDBLK
  8
0
  0
BLOCK
  8
0
  2
100
 70
0
 10
-80.56149188301627
 20
-70.57346767306771
 30
0
  0
LINE
  8
1
 62
2
  6
DASHDOT
 10
18.70674438691892
 20
62.45668764873892
 30
0
 11
18.70674438691892
 21
-16.08758394070421
 31
0
  0
ENDBLK
  8
0
  0
BLOCK
  8
0
  2
KSGA-5-01C
 70
0
 10
55.10056125855705
 20
-132.8769113200375
 30
0
  0
LINE
  8
1
 62
2
  6
DASHDOT
 10
5.831324637747475
 20
1.837347023940879
 30
0
 11
-2.220530389983178
 21
1.837347023940879
 31
0
  0
ENDBLK
  8
0
  0
BLOCK
  8
0
  2
KSGA-5-101A
 70
0
 10
145.8256392384928
 20
-27.3081548613408
 30
0
  0
INSERT
  8
0
  2
KSGA-5-01C
 10
55.10056125855705
 20
-132.8769113200375
 30
0
  0
ENDBLK
  8
0
  0
BLOCK
  8
0
  2
KSGA-5-12
 70
0
 10
221.6061862588379
 20
-67.17941469987412
 30
0
  0
LINE
  8
1
 62
2
  6
DASHDOT
 10
34.05708124903141
 20
1.837347023940879
 30
0
 11
49.0814117720836
 21
1.837347023940879
 31
0
  0
ENDBLK
  8
0
  0
BLOCK
  8
0
  2
KSGA-5-20
 70
0
 10
110.347076121353
 20
-61.94866446169021
 30
0
  0
LINE
  8
1
 62
7
 10
33.20674438691891
 20
16.8373470239406
 30
0
 11
32.70674438691891
 21
16.3373470239406
 31
0
  0
LINE
  8
1
 62
7
 10
35.70674438691891
 20
16.3373470239406
 30
0
 11
35.20674438691891
 21
16.8373470239406
 31
0
  0
LINE
  8
1
 62
7
 10
35.70674438691891
 20
16.3373470239406
 30
0
 11
35.70674438691891
 21
13.29584702394072
 31
0
  0
LINE
  8
1
 62
7
 10
33.20674438691891
 20
16.8373470239406
 30
0
 11
35.20674438691891
 21
16.8373470239406
 31
0
  0
LINE
  8
1
 62
7
 10
33.20674438691891
 20
1.837347023940822
 30
0
 11
33.20674438691891
 21
16.8373470239406
 31
0
  0
LINE
  8
1
 62
7
 10
35.20674438691891
 20
1.837347023940822
 30
0
 11
35.20674438691891
 21
16.8373470239406
 31
0
  0
LINE
  8
1
 62
2
 10
35.20674438691891
 20
2.643281402465618
 30
0
 11
33.20674438691891
 21
2.643281402465618
 31
0
  0
LINE
  8
1
 62
2
 10
33.20674438691891
 20
3.446543006997104
 30
0
 11
35.20674438691891
 21
3.446543006997104
 31
0
  0
LINE
  8
1
 62
2
 10
35.20674438691891
 20
4.244467927440724
 30
0
 11
33.20674438691891
 21
4.244467927440724
 31
0
  0
LINE
  8
1
 62
2
 10
35.20674438691891
 20
5.034409952103999
 30
0
 11
33.20674438691891
 21
5.034409952103999
 31
0
  0
LINE
  8
1
 62
2
 10
35.20674438691891
 20
5.813749343504469
 30
0
 11
33.20674438691891
 21
5.813749343504469
 31
0
  0
LINE
  8
1
 62
2
 10
35.20674438691891
 20
6.579901526380525
 30
0
 11
33.20674438691891
 21
6.579901526380525
 31
0
  0
LINE
  8
1
 62
2
 10
35.20674438691891
 20
7.330325659090477
 30
0
 11
33.20674438691891
 21
7.330325659090477
 31
0
  0
LINE
  8
1
 62
2
 10
35.20674438691891
 20
8.062533059975976
 30
0
 11
33.20674438691891
 21
8.062533059975976
 31
0
  0
LINE
  8
1
 62
2
 10
35.20674438691891
 20
8.774095460742274
 30
0
 11
33.20674438691891
 21
8.774095460742274
 31
0
  0
LINE
  8
1
 62
2
 10
35.20674438691891
 20
9.462653059487479
 30
0
 11
33.20674438691891
 21
9.462653059487479
 31
0
  0
LINE
  8
1
 62
2
 10
35.20674438691891
 20
10.12592234667051
 30
0
 11
33.20674438691891
 21
10.12592234667051
 31
0
  0
LINE
  8
1
 62
2
 10
35.20674438691891
 20
10.7617036780664
 30
0
 11
33.20674438691891
 21
10.7617036780664
 31
0
  0
LINE
  8
1
 62
2
 10
35.20674438691891
 20
11.36788856959367
 30
0
 11
33.20674438691891
 21
11.36788856959367
 31
0
  0
LINE
  8
1
 62
2
 10
35.20674438691891
 20
11.94246668982032
 30
0
 11
33.20674438691891
 21
11.94246668982032
 31
0
  0
LINE
  8
1
 62
2
 10
35.20674438691891
 20
12.48353252696052
 30
0
 11
33.20674438691891
 21
12.48353252696052
 31
0
  0
LINE
  8
1
 62
2
 10
35.20674438691891
 20
12.98929170825051
 30
0
 11
33.20674438691891
 21
12.98929170825051
 31
0
  0
LINE
  8
1
 62
2
 10
35.20674438691891
 20
13.45806695074697
 30
0
 11
33.20674438691891
 21
13.45806695074697
 31
0
  0
LINE
  8
1
 62
2
 10
35.20674438691891
 20
13.88830362381208
 30
0
 11
33.20674438691891
 21
13.88830362381208
 31
0
  0
LINE
  8
1
 62
2
 10
35.20674438691891
 20
14.27857490483927
 30
0
 11
33.20674438691891
 21
14.27857490483927
 31
0
  0
LINE
  8
1
 62
2
 10
35.20674438691891
 20
14.62758651112011
 30
0
 11
33.20674438691891
 21
14.62758651112011
 31
0
  0
LINE
  8
1
 62
2
 10
35.20674438691891
 20
14.93418099216041
 30
0
 11
33.20674438691891
 21
14.93418099216041
 31
0
  0
LINE
  8
1
 62
2
 10
35.20674438691891
 20
15.1973415682109
 30
0
 11
33.20674438691891
 21
15.1973415682109
 31
0
  0
LINE
  8
1
 62
2
 10
35.20674438691891
 20
15.4161955022812
 30
0
 11
33.20674438691891
 21
15.4161955022812
 31
0
  0
LINE
  8
1
 62
2
 10
33.20674438691891
 20
15.5900169944569
 30
0
 11
35.20674438691891
 21
15.5900169944569
 31
0
  0
LINE
  8
1
 62
2
 10
35.20674438691891
 20
15.71822958891687
 30
0
 11
33.20674438691891
 21
15.71822958891687
 31
0
  0
LINE
  8
1
 62
2
 10
35.20674438691891
 20
15.84644218337678
 30
0
 11
33.20674438691891
 21
15.84644218337678
 31
0
  0
LINE
  8
1
 62
2
 10
33.20674438691891
 20
15.9746547778368
 30
0
 11
35.20674438691891
 21
15.9746547778368
 31
0
  0
LINE
  8
1
 62
2
 10
35.20674438691891
 20
16.10286737229671
 30
0
 11
33.20674438691891
 21
16.10286737229671
 31
0
  0
LINE
  8
1
 62
2
 10
33.20674438691891
 20
16.23107996675662
 30
0
 11
35.20674438691891
 21
16.23107996675662
 31
0
  0
LINE
  8
1
 62
2
 10
35.20674438691891
 20
16.35929256121648
 30
0
 11
33.20674438691891
 21
16.35929256121648
 31
0
  0
LINE
  8
1
 62
2
 10
33.20674438691891
 20
16.4875051556765
 30
0
 11
35.20674438691891
 21
16.4875051556765
 31
0
  0
LINE
  8
1
 62
2
 10
35.20674438691891
 20
16.61571775013641
 30
0
 11
33.20674438691891
 21
16.61571775013641
 31
0
  0
LINE
  8
1
 62
2
 10
33.20674438691891
 20
16.74393034459638
 30
0
 11
35.20674438691891
 21
16.74393034459638
 31
0
  0
LINE
  8
1
 62
2
 10
33.20674438691891
 20
1.837347023940822
 30
0
 11
35.20674438691891
 21
1.837347023940822
 31
0
  0
LINE
  8
1
 62
2
 10
35.20674438691891
 20
-13.06923629671468
 30
0
 11
33.20674438691891
 21
-13.06923629671468
 31
0
  0
LINE
  8
1
 62
2
 10
33.20674438691891
 20
-12.94102370225482
 30
0
 11
35.20674438691891
 21
-12.94102370225482
 31
0
  0
LINE
  8
1
 62
2
 10
35.20674438691891
 20
-12.8128111077948
 30
0
 11
33.20674438691891
 21
-12.8128111077948
 31
0
  0
LINE
  8
1
 62
2
 10
33.20674438691891
 20
-12.68459851333489
 30
0
 11
35.20674438691891
 21
-12.68459851333489
 31
0
  0
LINE
  8
1
 62
2
 10
35.20674438691891
 20
-12.55638591887498
 30
0
 11
33.20674438691891
 21
-12.55638591887498
 31
0
  0
LINE
  8
1
 62
2
 10
33.20674438691891
 20
-12.42817332441513
 30
0
 11
35.20674438691891
 21
-12.42817332441513
 31
0
  0
LINE
  8
1
 62
2
 10
35.20674438691891
 20
-12.2999607299551
 30
0
 11
33.20674438691891
 21
-12.2999607299551
 31
0
  0
LINE
  8
1
 62
2
 10
33.20674438691891
 20
-12.17174813549519
 30
0
 11
35.20674438691891
 21
-12.17174813549519
 31
0
  0
LINE
  8
1
 62
2
 10
33.20674438691891
 20
-12.04353554103523
 30
0
 11
35.20674438691891
 21
-12.04353554103523
 31
0
  0
LINE
  8
1
 62
2
 10
35.20674438691891
 20
-11.91532294657532
 30
0
 11
33.20674438691891
 21
-11.91532294657532
 31
0
  0
LINE
  8
1
 62
2
 10
33.20674438691891
 20
-11.7415014543995
 30
0
 11
35.20674438691891
 21
-11.7415014543995
 31
0
  0
LINE
  8
1
 62
2
 10
33.20674438691891
 20
-11.52264752032909
 30
0
 11
35.20674438691891
 21
-11.52264752032909
 31
0
  0
LINE
  8
1
 62
2
 10
33.20674438691891
 20
-11.25948694427871
 30
0
 11
35.20674438691891
 21
-11.25948694427871
 31
0
  0
LINE
  8
1
 62
2
 10
33.20674438691891
 20
-10.95289246323841
 30
0
 11
35.20674438691891
 21
-10.95289246323841
 31
0
  0
LINE
  8
1
 62
2
 10
33.20674438691891
 20
-10.60388085695763
 30
0
 11
35.20674438691891
 21
-10.60388085695763
 31
0
  0
LINE
  8
1
 62
2
 10
33.20674438691891
 20
-10.21360957593038
 30
0
 11
35.20674438691891
 21
-10.21360957593038
 31
0
  0
LINE
  8
1
 62
2
 10
33.20674438691891
 20
-9.783372902865324
 30
0
 11
35.20674438691891
 21
-9.783372902865324
 31
0
  0
LINE
  8
1
 62
2
 10
33.20674438691891
 20
-9.314597660368918
 30
0
 11
35.20674438691891
 21
-9.314597660368918
 31
0
  0
LINE
  8
1
 62
2
 10
33.20674438691891
 20
-8.808838479078929
 30
0
 11
35.20674438691891
 21
-8.808838479078929
 31
0
  0
LINE
  8
1
 62
2
 10
33.20674438691891
 20
-8.267772641938677
 30
0
 11
35.20674438691891
 21
-8.267772641938677
 31
0
  0
LINE
  8
1
 62
2
 10
33.20674438691891
 20
-7.69319452171203
 30
0
 11
35.20674438691891
 21
-7.69319452171203
 31
0
  0
LINE
  8
1
 62
2
 10
33.20674438691891
 20
-7.087009630184696
 30
0
 11
35.20674438691891
 21
-7.087009630184696
 31
0
  0
LINE
  8
1
 62
2
 10
33.20674438691891
 20
-6.451228298788692
 30
0
 11
35.20674438691891
 21
-6.451228298788692
 31
0
  0
LINE
  8
1
 62
2
 10
33.20674438691891
 20
-5.787959011605778
 30
0
 11
35.20674438691891
 21
-5.787959011605778
 31
0
  0
LINE
  8
1
 62
2
 10
33.20674438691891
 20
-5.09940141286063
 30
0
 11
35.20674438691891
 21
-5.09940141286063
 31
0
  0
LINE
  8
1
 62
2
 10
33.20674438691891
 20
-4.387839012094275
 30
0
 11
35.20674438691891
 21
-4.387839012094275
 31
0
  0
LINE
  8
1
 62
2
 10
33.20674438691891
 20
-3.655631611208889
 30
0
 11
35.20674438691891
 21
-3.655631611208889
 31
0
  0
LINE
  8
1
 62
2
 10
33.20674438691891
 20
-2.90520747849888
 30
0
 11
35.20674438691891
 21
-2.90520747849888
 31
0
  0
LINE
  8
1
 62
2
 10
33.20674438691891
 20
-2.139055295622882
 30
0
 11
35.20674438691891
 21
-2.139055295622882
 31
0
  0
LINE
  8
1
 62
2
 10
33.20674438691891
 20
-1.359715904222298
 30
0
 11
35.20674438691891
 21
-1.359715904222298
 31
0
  0
LINE
  8
1
 62
2
 10
33.20674438691891
 20
-0.5697738795590794
 30
0
 11
35.20674438691891
 21
-0.5697738795590794
 31
0
  0
LINE
  8
1
 62
2
 10
35.20674438691891
 20
0.2281510408845975
 30
0
 11
33.20674438691891
 21
0.2281510408845975
 31
0
  0
LINE
  8
1
 62
2
 10
33.20674438691891
 20
1.031412645415969
 30
0
 11
35.20674438691891
 21
1.031412645415969
 31
0
  0
LINE
  8
1
 62
7
 10
35.20674438691891
 20
-13.16265297605901
 30
0
 11
35.20674438691891
 21
1.837347023940822
 31
0
  0
LINE
  8
1
 62
7
 10
33.20674438691891
 20
-13.16265297605901
 30
0
 11
33.20674438691891
 21
1.837347023940822
 31
0
  0
LINE
  8
1
 62
7
 10
35.20674438691891
 20
-13.16265297605901
 30
0
 11
33.20674438691891
 21
-13.16265297605901
 31
0
  0
LINE
  8
1
 62
7
 10
35.70674438691891
 20
-9.621152976059022
 30
0
 11
35.70674438691891
 21
-12.66265297605901
 31
0
  0
LINE
  8
1
 62
7
 10
35.20674438691891
 20
-13.16265297605901
 30
0
 11
35.70674438691891
 21
-12.66265297605901
 31
0
  0
LINE
  8
1
 62
7
 10
32.70674438691891
 20
-12.66265297605901
 30
0
 11
33.20674438691891
 21
-13.16265297605901
 31
0
  0
LINE
  8
1
 62
7
 10
32.70674438691891
 20
16.3373470239406
 30
0
 11
32.70674438691891
 21
-12.66265297605901
 31
0
  0
ENDBLK
  8
0
  0
BLOCK
  8
0
  2
03014980
 70
0
 10
-110.3309726623504
 20
-335.5305319224955
 30
0
  0
INSERT
  8
0
  2
100
 10
-80.56149188301627
 20
-70.57346767306771
 30
0
  0
INSERT
  8
0
  2
KSGA-5-101A
 10
145.8256392384928
 20
-27.3081548613408
 30
0
  0
INSERT
  8
0
  2
KSGA-5-12
 10
221.6061862588379
 20
-67.17941469987412
 30
0
  0
INSERT
  8
0
  2
KSGA-5-20
 10
110.347076121353
 20
-61.94866446169021
 30
0
  0
ENDBLK
  8
0
  0
BLOCK
  8
0
  2
03014980C__8
 70
0
 10
105.9330327911839
 20
-13.8567761159041
 30
0
  0
LINE
  8
976
 62
2
  6
DASHDOT
 10
-97.04583916150862
 20
1.837347023940879
 30
0
 11
-60.00890283849411
 21
1.837347023940879
 31
0
  0
LINE
  8
976
 62
2
  6
DASHDOT
 10
-78.26936460252703
 20
-17.9257410158568
 30
0
 11
-78.26936460252703
 21
19.6681417180302
 31
0
  0
ENDBLK
  8
0
  0
BLOCK
  8
0
  2
TOF-5KAITEI__9
 70
0
 10
59.25402492964237
 20
10.62529783898742
 30
0
  0
LINE
  8
1
 62
2
  6
DASHDOT
 10
-78.26936460252703
 20
-16.26718290361819
 30
0
 11
-78.26936460252703
 21
19.1112266012654
 31
0
  0
LINE
  8
1
 62
2
  6
DASHDOT
 10
-96.19522733317989
 20
1.837347023940879
 30
0
 11
-60.57982654466922
 21
1.837347023940879
 31
0
  0
LINE
  8
1
 62
2
  6
DASHDOT
 10
-82.26936460252703
 20
50.38463483667101
 30
0
 11
-82.26936460252703
 21
17.36747410831208
 31
0
  0
INSERT
  8
0
  2
03018980
 10
238.8727530959613
 20
-102.5175763833541
 30
0
  0
INSERT
  8
0
  2
03001980__7
 10
-7.894776740653906
 20
-6.511149458723423
 30
0
  0
INSERT
  8
0
  2
KSGA-5-13A
 10
176.2570329760474
 20
-163.7980395281647
 30
0
  0
INSERT
  8
0
  2
03014980
 10
-110.3309726623504
 20
-335.5305319224955
 30
0
  0
INSERT
  8
0
  2
03014980C__8
 10
105.9330327911839
 20
-13.8567761159041
 30
0
  0
ENDBLK
  8
0
  0
BLOCK
  8
0
  2
03002680
 70
0
 10
-3.176758809284081
 20
-159.73252782589
 30
0
  0
LINE
  8
1
 62
2
 10
36.23894558056167
 20
-12.1257140377914
 30
0
 11
44.23894558056167
 21
-12.1257140377914
 31
0
  0
LINE
  8
1
 62
2
 10
44.23894558056167
 20
-12.04353554103517
 30
0
 11
36.23894558056167
 21
-12.04353554103517
 31
0
  0
LINE
  8
1
 62
2
 10
36.23894558056167
 20
-11.91532294657523
 30
0
 11
44.23894558056167
 21
-11.91532294657523
 31
0
  0
LINE
  8
1
 62
2
 10
44.23894558056167
 20
-11.74150145439955
 30
0
 11
36.23894558056167
 21
-11.74150145439955
 31
0
  0
LINE
  8
1
 62
2
 10
36.23894558056167
 20
-11.52264752032909
 30
0
 11
44.23894558056167
 21
-11.52264752032909
 31
0
  0
LINE
  8
1
 62
2
 10
44.23894558056167
 20
-11.25948694427862
 30
0
 11
36.23894558056167
 21
-11.25948694427862
 31
0
  0
LINE
  8
1
 62
2
 10
36.23894558056167
 20
-10.95289246323836
 30
0
 11
44.23894558056167
 21
-10.95289246323836
 31
0
  0
LINE
  8
1
 62
2
 10
44.23894558056167
 20
-10.60388085695755
 30
0
 11
36.23894558056167
 21
-10.60388085695755
 31
0
  0
LINE
  8
1
 62
2
 10
36.23894558056167
 20
-10.21360957593038
 30
0
 11
44.23894558056167
 21
-10.21360957593038
 31
0
  0
LINE
  8
1
 62
2
 10
36.23894558056167
 20
-9.783372902865267
 30
0
 11
44.23894558056167
 21
-9.783372902865267
 31
0
  0
LINE
  8
1
 62
2
 10
44.23894558056167
 20
-9.314597660368833
 30
0
 11
36.23894558056167
 21
-9.314597660368833
 31
0
  0
LINE
  8
1
 62
2
 10
36.23894558056167
 20
-8.808838479078787
 30
0
 11
44.23894558056167
 21
-8.808838479078787
 31
0
  0
LINE
  8
1
 62
2
 10
44.23894558056167
 20
-8.26777264193862
 30
0
 11
36.23894558056167
 21
-8.26777264193862
 31
0
  0
LINE
  8
1
 62
2
 10
36.23894558056167
 20
-7.693194521711973
 30
0
 11
44.23894558056167
 21
-7.693194521711973
 31
0
  0
LINE
  8
1
 62
2
 10
44.23894558056167
 20
-7.087009630184724
 30
0
 11
36.23894558056167
 21
-7.087009630184724
 31
0
  0
LINE
  8
1
 62
2
 10
36.23894558056167
 20
-6.451228298788777
 30
0
 11
44.23894558056167
 21
-6.451228298788777
 31
0
  0
LINE
  8
1
 62
2
 10
36.23894558056167
 20
-5.787959011605778
 30
0
 11
44.23894558056167
 21
-5.787959011605778
 31
0
  0
LINE
  8
1
 62
2
 10
36.23894558056167
 20
-5.099401412860573
 30
0
 11
44.23894558056167
 21
-5.099401412860573
 31
0
  0
LINE
  8
1
 62
2
 10
36.23894558056167
 20
-4.387839012094247
 30
0
 11
44.23894558056167
 21
-4.387839012094247
 31
0
  0
LINE
  8
1
 62
2
 10
36.23894558056167
 20
-3.655631611208833
 30
0
 11
44.23894558056167
 21
-3.655631611208833
 31
0
  0
LINE
  8
1
 62
2
 10
44.23894558056167
 20
-2.905207478498824
 30
0
 11
36.23894558056167
 21
-2.905207478498824
 31
0
  0
LINE
  8
1
 62
2
 10
36.23894558056167
 20
-2.139055295622825
 30
0
 11
44.23894558056167
 21
-2.139055295622825
 31
0
  0
LINE
  8
1
 62
2
 10
44.23894558056167
 20
-1.359715904222298
 30
0
 11
36.23894558056167
 21
-1.359715904222298
 31
0
  0
LINE
  8
1
 62
2
 10
36.23894558056167
 20
-0.5697738795590226
 30
0
 11
44.23894558056167
 21
-0.5697738795590226
 31
0
  0
LINE
  8
1
 62
2
 10
36.23894558056167
 20
0.2281510408846543
 30
0
 11
44.23894558056167
 21
0.2281510408846543
 31
0
  0
LINE
  8
1
 62
2
 10
36.23894558056167
 20
1.031412645416111
 30
0
 11
44.23894558056167
 21
1.031412645416111
 31
0
  0
LINE
  8
1
 62
2
 10
45.23894558056167
 20
1.837347023940879
 30
0
 11
45.23894558056167
 21
-10.16265297605915
 31
0
  0
LINE
  8
1
 62
7
 10
45.73894558056167
 20
-9.66265297605915
 30
0
 11
45.23894558056167
 21
-10.16265297605915
 31
0
  0
LINE
  8
1
 62
7
 10
36.23894558056167
 20
1.837347023940879
 30
0
 11
36.23894558056167
 21
-12.16265297605915
 31
0
  0
LINE
  8
1
 62
7
 10
44.23894558056167
 20
1.837347023940879
 30
0
 11
44.23894558056167
 21
-12.16265297605915
 31
0
  0
LINE
  8
1
 62
7
 10
36.23894558056167
 20
-12.16265297605915
 30
0
 11
35.73894558056167
 21
-11.66265297605915
 31
0
  0
LINE
  8
1
 62
7
 10
44.73894558056167
 20
-11.66265297605915
 30
0
 11
44.23894558056167
 21
-12.16265297605915
 31
0
  0
LINE
  8
1
 62
7
 10
44.73894558056167
 20
-10.16265297605915
 30
0
 11
44.73894558056167
 21
1.837347023940879
 31
0
  0
LINE
  8
1
 62
7
 10
35.73894558056167
 20
1.837347023940879
 30
0
 11
35.73894558056167
 21
-11.66265297605915
 31
0
  0
LINE
  8
1
 62
7
 10
36.23894558056167
 20
-12.16265297605915
 30
0
 11
44.23894558056167
 21
-12.16265297605915
 31
0
  0
LINE
  8
1
 62
7
 10
44.73894558056167
 20
-11.66265297605915
 30
0
 11
44.73894558056167
 21
-10.16265297605915
 31
0
  0
LINE
  8
1
 62
7
 10
44.73894558056167
 20
-10.16265297605915
 30
0
 11
45.23894558056167
 21
-10.16265297605915
 31
0
  0
LINE
  8
1
 62
7
 10
45.73894558056167
 20
-9.66265297605915
 30
0
 11
45.73894558056167
 21
1.837347023940879
 31
0
  0
LINE
  8
1
 62
2
  6
DASHDOT
 10
34.38928244267377
 20
1.837347023940879
 30
0
 11
47.9136129657259
 21
1.837347023940879
 31
0
  0
LINE
  8
1
 62
7
 10
45.73894558056167
 20
1.837347023940879
 30
0
 11
45.73894558056167
 21
13.33734702394096
 31
0
  0
LINE
  8
1
 62
7
 10
45.23894558056167
 20
13.83734702394096
 30
0
 11
44.73894558056167
 21
13.83734702394096
 31
0
  0
LINE
  8
1
 62
7
 10
44.73894558056167
 20
13.83734702394096
 30
0
 11
44.73894558056167
 21
15.33734702394096
 31
0
  0
LINE
  8
1
 62
7
 10
44.23894558056167
 20
15.83734702394096
 30
0
 11
36.23894558056167
 21
15.83734702394096
 31
0
  0
LINE
  8
1
 62
7
 10
35.73894558056167
 20
15.33734702394096
 30
0
 11
35.73894558056167
 21
1.837347023940879
 31
0
  0
LINE
  8
1
 62
7
 10
44.73894558056167
 20
1.837347023940879
 30
0
 11
44.73894558056167
 21
13.83734702394096
 31
0
  0
LINE
  8
1
 62
7
 10
44.23894558056167
 20
15.83734702394096
 30
0
 11
44.73894558056167
 21
15.33734702394096
 31
0
  0
LINE
  8
1
 62
7
 10
35.73894558056167
 20
15.33734702394096
 30
0
 11
36.23894558056167
 21
15.83734702394096
 31
0
  0
LINE
  8
1
 62
7
 10
44.23894558056167
 20
15.83734702394096
 30
0
 11
44.23894558056167
 21
1.837347023940879
 31
0
  0
LINE
  8
1
 62
7
 10
36.23894558056167
 20
15.83734702394096
 30
0
 11
36.23894558056167
 21
1.837347023940879
 31
0
  0
LINE
  8
1
 62
7
 10
45.23894558056167
 20
13.83734702394096
 30
0
 11
45.73894558056167
 21
13.33734702394096
 31
0
  0
LINE
  8
1
 62
2
 10
45.23894558056167
 20
13.83734702394096
 30
0
 11
45.23894558056167
 21
1.837347023940879
 31
0
  0
LINE
  8
1
 62
2
 10
44.23894558056167
 20
2.643281402465703
 30
0
 11
36.23894558056167
 21
2.643281402465703
 31
0
  0
LINE
  8
1
 62
2
 10
44.23894558056167
 20
3.44654300699716
 30
0
 11
36.23894558056167
 21
3.44654300699716
 31
0
  0
LINE
  8
1
 62
2
 10
44.23894558056167
 20
4.244467927440837
 30
0
 11
36.23894558056167
 21
4.244467927440837
 31
0
  0
LINE
  8
1
 62
2
 10
36.23894558056167
 20
5.034409952104113
 30
0
 11
44.23894558056167
 21
5.034409952104113
 31
0
  0
LINE
  8
1
 62
2
 10
44.23894558056167
 20
5.81374934350464
 30
0
 11
36.23894558056167
 21
5.81374934350464
 31
0
  0
LINE
  8
1
 62
2
 10
36.23894558056167
 20
6.579901526380638
 30
0
 11
44.23894558056167
 21
6.579901526380638
 31
0
  0
LINE
  8
1
 62
2
 10
44.23894558056167
 20
7.330325659090647
 30
0
 11
36.23894558056167
 21
7.330325659090647
 31
0
  0
LINE
  8
1
 62
2
 10
44.23894558056167
 20
8.062533059976062
 30
0
 11
36.23894558056167
 21
8.062533059976062
 31
0
  0
LINE
  8
1
 62
2
 10
44.23894558056167
 20
8.774095460742387
 30
0
 11
36.23894558056167
 21
8.774095460742387
 31
0
  0
LINE
  8
1
 62
2
 10
44.23894558056167
 20
9.462653059487593
 30
0
 11
36.23894558056167
 21
9.462653059487593
 31
0
  0
LINE
  8
1
 62
2
 10
44.23894558056167
 20
10.12592234667059
 30
0
 11
36.23894558056167
 21
10.12592234667059
 31
0
  0
LINE
  8
1
 62
2
 10
36.23894558056167
 20
10.76170367806654
 30
0
 11
44.23894558056167
 21
10.76170367806654
 31
0
  0
LINE
  8
1
 62
2
 10
44.23894558056167
 20
11.36788856959379
 30
0
 11
36.23894558056167
 21
11.36788856959379
 31
0
  0
LINE
  8
1
 62
2
 10
36.23894558056167
 20
11.94246668982044
 30
0
 11
44.23894558056167
 21
11.94246668982044
 31
0
  0
LINE
  8
1
 62
2
 10
44.23894558056167
 20
12.4835325269606
 30
0
 11
36.23894558056167
 21
12.4835325269606
 31
0
  0
LINE
  8
1
 62
2
 10
36.23894558056167
 20
12.98929170825065
 30
0
 11
44.23894558056167
 21
12.98929170825065
 31
0
  0
LINE
  8
1
 62
2
 10
44.23894558056167
 20
13.45806695074708
 30
0
 11
36.23894558056167
 21
13.45806695074708
 31
0
  0
LINE
  8
1
 62
2
 10
44.23894558056167
 20
13.88830362381219
 30
0
 11
36.23894558056167
 21
13.88830362381219
 31
0
  0
LINE
  8
1
 62
2
 10
36.23894558056167
 20
14.27857490483936
 30
0
 11
44.23894558056167
 21
14.27857490483936
 31
0
  0
LINE
  8
1
 62
2
 10
44.23894558056167
 20
14.62758651112017
 30
0
 11
36.23894558056167
 21
14.62758651112017
 31
0
  0
LINE
  8
1
 62
2
 10
36.23894558056167
 20
14.93418099216044
 30
0
 11
44.23894558056167
 21
14.93418099216044
 31
0
  0
LINE
  8
1
 62
2
 10
44.23894558056167
 20
15.1973415682109
 30
0
 11
36.23894558056167
 21
15.1973415682109
 31
0
  0
LINE
  8
1
 62
2
 10
36.23894558056167
 20
15.41619550228137
 30
0
 11
44.23894558056167
 21
15.41619550228137
 31
0
  0
LINE
  8
1
 62
2
 10
44.23894558056167
 20
15.59001699445705
 30
0
 11
36.23894558056167
 21
15.59001699445705
 31
0
  0
LINE
  8
1
 62
2
 10
36.23894558056167
 20
15.71822958891698
 30
0
 11
44.23894558056167
 21
15.71822958891698
 31
0
  0
LINE
  8
1
 62
2
 10
44.23894558056167
 20
15.80040808567321
 30
0
 11
36.23894558056167
 21
15.80040808567321
 31
0
  0
ENDBLK
  8
0
  0
BLOCK
  8
0
  2
03213981A
 70
0
 10
-777.747387611623
 20
-180.9665235753407
 30
0
  0
LINE
  8
1
 62
7
 10
-85.92959060178015
 20
18.1260221585357
 30
0
 11
-86.98525122723441
 21
18.1260221585357
 31
0
  0
LINE
  8
1
 62
7
 10
-79.57678219895973
 20
19.78980254480315
 30
0
 11
-79.57678219895973
 21
23.54867188934608
 31
0
  0
LINE
  8
1
 62
7
 10
-74.76936460252702
 20
19.49379060695043
 30
0
 11
-74.76936460252711
 21
23.25999675475129
 31
0
  0
LINE
  8
1
 62
2
  6
DASHDOT
 10
18.7067443869189
 20
16.8382716560206
 30
0
 11
18.7067443869189
 21
24.83642239186118
 31
0
  0
LINE
  8
1
 62
7
 10
21.39932679048616
 20
23.54867188934608
 30
0
 11
23.42263101162632
 21
23.54867188934608
 31
0
  0
LINE
  8
1
 62
7
 10
21.39932679048616
 20
18.1260221585357
 30
0
 11
21.39932679048616
 21
23.54867188934608
 31
0
  0
LINE
  8
1
 62
7
 10
23.42263101162632
 20
23.54867188934608
 30
0
 11
23.42263101162632
 21
18.1260221585357
 31
0
  0
LINE
  8
1
 62
7
 10
18.7067443869189
 20
17.83734702394088
 30
0
 11
25.20674438691884
 21
17.83734702394088
 31
0
  0
LINE
  8
1
 62
7
 10
23.42263101162632
 20
18.1260221585357
 30
0
 11
21.39932679048616
 21
18.1260221585357
 31
0
  0
LINE
  8
1
 62
6
 10
11.2067443869189
 20
17.83734702394088
 30
0
 11
12.2067443869189
 21
17.83734702394088
 31
0
  0
LINE
  8
1
 62
7
 10
26.20674438691884
 20
23.25999675475129
 30
0
 11
25.20674438691884
 21
23.83734702394088
 31
0
  0
LINE
  8
1
 62
7
 10
25.20674438691884
 20
17.83734702394088
 30
0
 11
26.20674438691884
 21
18.41469729313053
 31
0
  0
LINE
  8
1
 62
7
 10
25.20674438691884
 20
23.83734702394088
 30
0
 11
18.7067443869189
 21
23.83734702394088
 31
0
  0
LINE
  8
1
 62
7
 10
26.20674438691884
 20
18.41469729313053
 30
0
 11
26.20674438691884
 21
23.25999675475129
 31
0
  0
LINE
  8
1
 62
7
 10
11.2067443869189
 20
23.25999675475129
 30
0
 11
11.2067443869189
 21
18.41469729313053
 31
0
  0
LINE
  8
1
 62
7
 10
18.7067443869189
 20
23.83734702394088
 30
0
 11
12.2067443869189
 21
23.83734702394088
 31
0
  0
LINE
  8
1
 62
7
 10
11.2067443869189
 20
18.41469729313053
 30
0
 11
12.2067443869189
 21
17.83734702394088
 31
0
  0
LINE
  8
1
 62
7
 10
12.2067443869189
 20
23.83734702394088
 30
0
 11
11.2067443869189
 21
23.25999675475129
 31
0
  0
LINE
  8
1
 62
7
 10
16.01416198335153
 20
18.1260221585357
 30
0
 11
13.99085776221148
 21
18.1260221585357
 31
0
  0
LINE
  8
1
 62
7
 10
12.2067443869189
 20
17.83734702394088
 30
0
 11
18.7067443869189
 21
17.83734702394088
 31
0
  0
LINE
  8
1
 62
7
 10
13.99085776221148
 20
18.1260221585357
 30
0
 11
13.99085776221148
 21
23.54867188934608
 31
0
  0
LINE
  8
1
 62
7
 10
16.01416198335153
 20
23.54867188934608
 30
0
 11
16.01416198335153
 21
18.1260221585357
 31
0
  0
LINE
  8
1
 62
7
 10
13.99085776221148
 20
23.54867188934608
 30
0
 11
16.01416198335153
 21
23.54867188934608
 31
0
  0
LINE
  8
1
 62
7
 10
-86.98525122723441
 20
23.54867188934608
 30
0
 11
-84.96194700609436
 21
23.54867188934608
 31
0
  0
LINE
  8
1
 62
7
 10
-84.96194700609436
 20
23.54867188934608
 30
0
 11
-84.96194700609436
 21
18.5469053894831
 31
0
  0
LINE
  8
1
 62
7
 10
-86.98525122723441
 20
18.1260221585357
 30
0
 11
-86.98525122723441
 21
23.54867188934608
 31
0
  0
LINE
  8
1
 62
7
 10
-88.76936460252699
 20
23.83734702394088
 30
0
 11
-89.76936460252699
 21
23.25999675475129
 31
0
  0
LINE
  8
1
 62
7
 10
-89.76936460252711
 20
18.41469729313053
 30
0
 11
-88.76936460252699
 21
17.83734702394088
 31
0
  0
LINE
  8
1
 62
7
 10
-82.26936460252699
 20
23.83734702394088
 30
0
 11
-88.76936460252699
 21
23.83734702394088
 31
0
  0
LINE
  8
1
 62
7
 10
-89.76936460252699
 20
23.25999675475129
 30
0
 11
-89.76936460252711
 21
18.41469729313053
 31
0
  0
LINE
  8
1
 62
6
 10
-89.76936460252699
 20
17.83734702394088
 30
0
 11
-88.76936460252699
 21
17.83734702394088
 31
0
  0
LINE
  8
1
 62
2
  6
DASHDOT
 10
-82.26936460252699
 20
16.8382716560206
 30
0
 11
-82.26936460252699
 21
24.83642239186118
 31
0
  0
LINE
  8
1
 62
7
 10
-75.76936460252711
 20
23.83734702394088
 30
0
 11
-82.26936460252699
 21
23.83734702394088
 31
0
  0
LINE
  8
1
 62
7
 10
-74.76936460252711
 20
23.25999675475129
 30
0
 11
-75.76936460252711
 21
23.83734702394088
 31
0
  0
LINE
  8
1
 62
7
 10
-77.55347797781968
 20
23.54867188934608
 30
0
 11
-77.55347797781968
 21
19.82310545500419
 31
0
  0
LINE
  8
1
 62
7
 10
-79.57678219895973
 20
23.54867188934608
 30
0
 11
-77.55347797781968
 21
23.54867188934608
 31
0
  0
ARC
  8
1
 62
7
 10
18.7067443869189
 20
11.1356411017693
 30
0
 40
12.7017059221716
 50
77.76124423205769
 51
90
  0
ARC
  8
1
 62
7
 10
24.76892221340995
 20
20.55366736792492
 30
0
 40
3.283679656015959
 50
90
 51
114.2045008372835
  0
ARC
  8
1
 62
7
 10
18.7067443869189
 20
30.53905294611246
 30
0
 40
12.70170592217158
 50
270
 51
282.2387557679423
  0
ARC
  8
1
 62
7
 10
24.76892221340995
 20
21.12102667995686
 30
0
 40
3.283679656015976
 50
245.7954991627165
 51
270
  0
ARC
  8
1
 62
7
 10
12.64456656042785
 20
21.12102667995686
 30
0
 40
3.28367965601598
 50
270
 51
294.2045008372834
  0
ARC
  8
1
 62
7
 10
18.7067443869189
 20
30.53905294611246
 30
0
 40
12.7017059221716
 50
257.7612442320572
 51
270
  0
ARC
  8
1
 62
7
 10
12.64456656042785
 20
20.55366736792492
 30
0
 40
3.283679656015975
 50
65.79549916271657
 51
90
  0
ARC
  8
1
 62
7
 10
18.7067443869189
 20
11.1356411017693
 30
0
 40
12.70170592217158
 50
90
 51
102.2387557679428
  0
ARC
  8
1
 62
7
 10
-82.26936460252699
 20
11.1356411017693
 30
0
 40
12.70170592217158
 50
90
 51
102.2387557679428
  0
ARC
  8
1
 62
7
 10
-88.33154242901804
 20
20.55366736792492
 30
0
 40
3.283679656015975
 50
65.79549916271661
 51
90
  0
ARC
  8
1
 62
7
 10
-88.33154242901804
 20
21.12102667995686
 30
0
 40
3.28367965601598
 50
270
 51
294.2045008372834
  0
ARC
  8
1
 62
7
 10
-76.20718677603605
 20
20.55366736792492
 30
0
 40
3.283679656015959
 50
90
 51
114.2045008372834
  0
ARC
  8
1
 62
7
 10
-82.26936460252699
 20
11.1356411017693
 30
0
 40
12.7017059221716
 50
77.76124423205771
 51
90
  0
ENDBLK
  8
0
  0
BLOCK
  8
0
  2
03240981A
 70
0
 10
-520.3335525653693
 20
-357.2251767716233
 30
0
  0
INSERT
  8
0
  2
03213981A
 10
-777.747387611623
 20
-180.9665235753407
 30
0
  0
ENDBLK
  8
0
  0
BLOCK
  8
0
  2
03091980A
 70
0
 10
-523.9767009183113
 20
-365.7891497003253
 30
0
  0
INSERT
  8
0
  2
03240981A
 10
-520.3335525653693
 20
-357.2251767716233
 30
0
  0
ENDBLK
  8
0
  0
BLOCK
  8
0
  2
TOF-5KAITEI__10
 70
0
 10
128.365357018006
 20
-177.555615626286
 30
0
  0
LINE
  8
1
 62
3
 10
21.16524438691886
 20
42.59117037244731
 30
0
 11
21.16524438691886
 21
39.69584702394081
 31
0
  0
LINE
  8
1
 62
3
 10
16.24824438691883
 20
42.59117037244718
 30
0
 11
16.24824438691883
 21
39.69584702394081
 31
0
  0
LINE
  8
1
 62
7
 10
15.7067443869189
 20
48.7373470239408
 30
0
 11
15.7067443869189
 21
51.2373470239408
 31
0
  0
LINE
  8
1
 62
7
 10
21.7067443869189
 20
42.23734702394084
 30
0
 11
21.7067443869189
 21
40.2373470239408
 31
0
  0
LINE
  8
1
 62
7
 10
-85.26936460252705
 20
48.73734702394077
 30
0
 11
-85.26936460252705
 21
51.2373470239408
 31
0
  0
LINE
  8
1
 62
7
 10
13.7067443869189
 20
51.2373470239408
 30
0
 11
13.7067443869189
 21
56.83734702394079
 31
0
  0
LINE
  8
1
 62
7
 10
13.7067443869189
 20
56.83734702394079
 30
0
 11
14.39956470994639
 21
57.2373470239408
 31
0
  0
LINE
  8
1
 62
7
 10
14.39956470994639
 20
57.2373470239408
 30
0
 11
23.0139240638913
 21
57.2373470239408
 31
0
  0
LINE
  8
1
 62
7
 10
23.0139240638913
 20
57.2373470239408
 30
0
 11
23.7067443869189
 21
56.83734702394079
 31
0
  0
LINE
  8
1
 62
7
 10
23.7067443869189
 20
56.83734702394079
 30
0
 11
23.7067443869189
 21
51.2373470239408
 31
0
  0
LINE
  8
1
 62
7
 10
13.7067443869189
 20
56.83734702394079
 30
0
 11
23.7067443869189
 21
56.83734702394079
 31
0
  0
LINE
  8
1
 62
7
 10
23.7067443869189
 20
51.2373470239408
 30
0
 11
13.7067443869189
 21
51.2373470239408
 31
0
  0
LINE
  8
1
 62
7
 10
21.7067443869189
 20
51.2373470239408
 30
0
 11
21.7067443869189
 21
48.7373470239408
 31
0
  0
LINE
  8
1
 62
7
 10
21.7067443869189
 20
40.2373470239408
 30
0
 11
20.7067443869189
 21
39.2373470239408
 31
0
  0
LINE
  8
1
 62
7
 10
20.7067443869189
 20
39.2373470239408
 30
0
 11
16.7067443869189
 21
39.2373470239408
 31
0
  0
LINE
  8
1
 62
7
 10
16.7067443869189
 20
39.2373470239408
 30
0
 11
15.7067443869189
 21
40.2373470239408
 31
0
  0
LINE
  8
1
 62
7
 10
15.7067443869189
 20
40.2373470239408
 30
0
 11
15.7067443869189
 21
42.23734702394076
 31
0
  0
LINE
  8
1
 62
7
 10
21.7067443869189
 20
40.2373470239408
 30
0
 11
15.7067443869189
 21
40.2373470239408
 31
0
  0
LINE
  8
1
 62
3
 10
21.7067443869189
 20
51.2373470239408
 30
0
 11
21.25549438691888
 21
48.7373470239408
 31
0
  0
LINE
  8
1
 62
3
 10
15.7067443869189
 20
51.2373470239408
 30
0
 11
16.15799438691886
 21
48.7373470239408
 31
0
  0
LINE
  8
1
 62
2
  6
CENTER
 10
18.7067443869189
 20
60.42137742224503
 30
0
 11
18.7067443869189
 21
36.0533166256366
 31
0
  0
LINE
  8
1
 62
2
  6
CENTER
 10
-82.26936460252705
 20
60.42137742224503
 30
0
 11
-82.26936460252705
 21
36.0533166256366
 31
0
  0
LINE
  8
1
 62
3
 10
-85.26936460252705
 20
51.2373470239408
 30
0
 11
-84.81811460252709
 21
48.73734702394077
 31
0
  0
LINE
  8
1
 62
3
 10
-79.26936460252705
 20
51.2373470239408
 30
0
 11
-79.72061460252706
 21
48.73734702394077
 31
0
  0
LINE
  8
1
 62
7
 10
-79.26936460252705
 20
51.2373470239408
 30
0
 11
-79.26936460252705
 21
48.73734702394077
 31
0
  0
LINE
  8
1
 62
7
 10
-77.26936460252705
 20
51.2373470239408
 30
0
 11
-87.26936460252705
 21
51.2373470239408
 31
0
  0
LINE
  8
1
 62
7
 10
-87.26936460252705
 20
56.83734702394079
 30
0
 11
-77.26936460252705
 21
56.83734702394079
 31
0
  0
LINE
  8
1
 62
7
 10
-77.26936460252705
 20
56.83734702394079
 30
0
 11
-77.26936460252705
 21
51.2373470239408
 31
0
  0
LINE
  8
1
 62
7
 10
-77.96218492555465
 20
57.2373470239408
 30
0
 11
-77.26936460252705
 21
56.83734702394079
 31
0
  0
LINE
  8
1
 62
7
 10
-86.57654427949956
 20
57.2373470239408
 30
0
 11
-77.96218492555465
 21
57.2373470239408
 31
0
  0
LINE
  8
1
 62
7
 10
-87.26936460252705
 20
56.83734702394079
 30
0
 11
-86.57654427949956
 21
57.2373470239408
 31
0
  0
LINE
  8
1
 62
7
 10
-87.26936460252705
 20
51.2373470239408
 30
0
 11
-87.26936460252705
 21
56.83734702394079
 31
0
  0
ENDBLK
  8
0
  0
BLOCK
  8
0
  2
13608520D
 70
0
 10
-254.5385926458052
 20
-166.3706560822792
 30
0
  0
INSERT
  8
0
  2
03091980A
 10
-523.9767009183113
 20
-365.7891497003253
 30
0
  0
INSERT
  8
0
  2
TOF-5KAITEI__10
 10
128.365357018006
 20
-177.555615626286
 30
0
  0
ENDBLK
  8
0
  0
BLOCK
  8
0
  2
03002670A
 70
0
 10
-516.7752113906624
 20
-413.1171544916683
 30
0
  0
LINE
  8
1
 62
7
 10
11.70674438691901
 20
28.7373470239408
 30
0
 11
25.70674438691901
 21
28.7373470239408
 31
0
  0
LINE
  8
1
 62
7
 10
11.70674438691901
 20
47.7373470239408
 30
0
 11
25.70674438691901
 21
47.7373470239408
 31
0
  0
LINE
  8
1
 62
7
 10
-86.76936460252699
 20
24.7373470239408
 30
0
 11
-77.76936460252699
 21
24.7373470239408
 31
0
  0
LINE
  8
1
 62
7
 10
-77.26936460252699
 20
27.7373470239408
 30
0
 11
-87.26936460252699
 21
27.73734702394076
 31
0
  0
LINE
  8
1
 62
7
 10
-89.26936460252699
 20
28.73734702394076
 30
0
 11
-75.26936460252699
 21
28.73734702394076
 31
0
  0
LINE
  8
1
 62
7
 10
-89.26936460252699
 20
47.73734702394077
 30
0
 11
-75.26936460252699
 21
47.73734702394077
 31
0
  0
LINE
  8
1
 62
2
 10
-77.76936460252699
 20
24.7373470239408
 30
0
 11
-77.76936460252699
 21
23.83734702394088
 31
0
  0
LINE
  8
1
 62
2
 10
-86.76936460252699
 20
24.7373470239408
 30
0
 11
-86.76936460252699
 21
23.83734702394088
 31
0
  0
LINE
  8
1
 62
7
 10
-89.26936460252699
 20
44.2373470239408
 30
0
 11
-89.26936460252699
 21
32.23734702394083
 31
0
  0
LINE
  8
1
 62
7
 10
-89.26936460252699
 20
32.23734702394083
 30
0
 11
-89.26936460252699
 21
28.73734702394076
 31
0
  0
LINE
  8
1
 62
7
 10
-75.26936460252699
 20
44.23734702394083
 30
0
 11
-75.26936460252699
 21
47.73734702394077
 31
0
  0
LINE
  8
1
 62
7
 10
-75.26936460252699
 20
32.2373470239408
 30
0
 11
-75.26936460252699
 21
44.23734702394083
 31
0
  0
LINE
  8
1
 62
2
 10
14.20674438691901
 20
24.73734702394082
 30
0
 11
14.20674438691901
 21
23.83734702394088
 31
0
  0
LINE
  8
1
 62
2
 10
23.20674438691901
 20
24.7373470239408
 30
0
 11
23.20674438691901
 21
23.83734702394088
 31
0
  0
LINE
  8
1
 62
2
  6
DASHDOT
 10
-73.12378140514403
 20
38.2373470239408
 30
0
 11
-91.59823395988855
 21
38.2373470239408
 31
0
  0
LINE
  8
1
 62
7
 10
-77.26936460252699
 20
48.73734702394077
 30
0
 11
-87.26936460252699
 21
48.73734702394077
 31
0
  0
LINE
  8
1
 62
2
  6
DASHDOT
 10
-82.26936460252699
 20
49.73734702394077
 30
0
 11
-82.26936460252699
 21
13.15702892054907
 31
0
  0
LINE
  8
1
 62
2
  6
DASHDOT
 10
18.70674438691901
 20
38.2373470239408
 30
0
 11
10.70674438691901
 21
38.2373470239408
 31
0
  0
LINE
  8
1
 62
7
 10
11.70674438691901
 20
28.7373470239408
 30
0
 11
11.70674438691901
 21
38.2373470239408
 31
0
  0
LINE
  8
1
 62
2
  6
DASHDOT
 10
26.70674438691901
 20
38.2373470239408
 30
0
 11
18.70674438691901
 21
38.2373470239408
 31
0
  0
LINE
  8
1
 62
2
  6
DASHDOT
 10
18.70674438691901
 20
49.74811606554009
 30
0
 11
18.70674438691901
 21
13.15702892054907
 31
0
  0
LINE
  8
1
 62
7
 10
23.70674438691901
 20
24.7373470239408
 30
0
 11
13.70674438691901
 21
24.7373470239408
 31
0
  0
LINE
  8
1
 62
2
 10
23.70674438691901
 20
26.7373470239408
 30
0
 11
23.20674438691901
 21
24.7373470239408
 31
0
  0
LINE
  8
1
 62
2
 10
13.70674438691901
 20
26.7373470239408
 30
0
 11
14.20674438691901
 21
24.73734702394082
 31
0
  0
LINE
  8
1
 62
7
 10
-77.26936460252699
 20
27.7373470239408
 30
0
 11
-76.26936460252699
 21
27.73734702394076
 31
0
  0
LINE
  8
1
 62
7
 10
-75.26936460252699
 20
28.73734702394076
 30
0
 11
-75.26936460252699
 21
32.2373470239408
 31
0
  0
LINE
  8
1
 62
7
 10
-76.26936460252699
 20
48.73734702394077
 30
0
 11
-77.26936460252699
 21
48.73734702394077
 31
0
  0
LINE
  8
1
 62
7
 10
-87.26936460252699
 20
48.73734702394077
 30
0
 11
-88.26936460252699
 21
48.73734702394077
 31
0
  0
LINE
  8
1
 62
7
 10
-89.26936460252699
 20
47.73734702394077
 30
0
 11
-89.26936460252699
 21
44.2373470239408
 31
0
  0
LINE
  8
1
 62
7
 10
-88.26936460252699
 20
27.73734702394076
 30
0
 11
-87.26936460252699
 21
27.73734702394076
 31
0
  0
LINE
  8
1
 62
7
 10
25.70674438691901
 20
28.7373470239408
 30
0
 11
24.70674438691901
 21
27.7373470239408
 31
0
  0
LINE
  8
1
 62
7
 10
11.70674438691901
 20
28.7373470239408
 30
0
 11
12.70674438691901
 21
27.7373470239408
 31
0
  0
LINE
  8
1
 62
7
 10
-89.26936460252699
 20
47.73734702394077
 30
0
 11
-88.26936460252699
 21
48.73734702394077
 31
0
  0
LINE
  8
1
 62
7
 10
-88.26936460252699
 20
27.73734702394076
 30
0
 11
-89.26936460252699
 21
28.73734702394076
 31
0
  0
LINE
  8
1
 62
7
 10
-75.26936460252699
 20
28.73734702394076
 30
0
 11
-76.26936460252699
 21
27.73734702394076
 31
0
  0
LINE
  8
1
 62
7
 10
-76.26936460252699
 20
48.73734702394077
 30
0
 11
-75.26936460252699
 21
47.73734702394077
 31
0
  0
LINE
  8
1
 62
7
 10
23.70674438691901
 20
27.7373470239408
 30
0
 11
23.70674438691901
 21
23.83734702394088
 31
0
  0
LINE
  8
1
 62
7
 10
13.70674438691901
 20
27.7373470239408
 30
0
 11
13.70674438691901
 21
23.83734702394088
 31
0
  0
LINE
  8
1
 62
2
 10
-87.26936460252699
 20
26.7373470239408
 30
0
 11
-86.76936460252699
 21
24.7373470239408
 31
0
  0
LINE
  8
1
 62
2
 10
-77.26936460252699
 20
26.7373470239408
 30
0
 11
-77.76936460252699
 21
24.7373470239408
 31
0
  0
LINE
  8
1
 62
7
 10
-77.26936460252699
 20
27.7373470239408
 30
0
 11
-77.26936460252699
 21
23.83734702394088
 31
0
  0
LINE
  8
1
 62
7
 10
-87.26936460252699
 20
27.73734702394076
 30
0
 11
-87.26936460252699
 21
23.83734702394088
 31
0
  0
LINE
  8
1
 62
7
 10
-77.26936460252699
 20
24.7373470239408
 30
0
 11
-77.76936460252699
 21
24.7373470239408
 31
0
  0
LINE
  8
1
 62
7
 10
-86.76936460252699
 20
24.7373470239408
 30
0
 11
-87.26936460252699
 21
24.7373470239408
 31
0
  0
LINE
  8
1
 62
7
 10
24.70674438691901
 20
27.7373470239408
 30
0
 11
18.70674438691901
 21
27.7373470239408
 31
0
  0
LINE
  8
1
 62
7
 10
18.70674438691901
 20
27.7373470239408
 30
0
 11
12.70674438691901
 21
27.7373470239408
 31
0
  0
LINE
  8
1
 62
7
 10
25.70674438691901
 20
38.2373470239408
 30
0
 11
25.70674438691901
 21
28.7373470239408
 31
0
  0
LINE
  8
1
 62
7
 10
25.70674438691901
 20
38.2373470239408
 30
0
 11
25.70674438691901
 21
47.7373470239408
 31
0
  0
LINE
  8
1
 62
7
 10
24.70674438691901
 20
48.7373470239408
 30
0
 11
12.70674438691901
 21
48.7373470239408
 31
0
  0
LINE
  8
1
 62
7
 10
11.70674438691901
 20
47.7373470239408
 30
0
 11
11.70674438691901
 21
38.2373470239408
 31
0
  0
LINE
  8
1
 62
7
 10
11.70674438691901
 20
47.7373470239408
 30
0
 11
12.70674438691901
 21
48.7373470239408
 31
0
  0
LINE
  8
1
 62
7
 10
24.70674438691901
 20
48.7373470239408
 30
0
 11
25.70674438691901
 21
47.7373470239408
 31
0
  0
CIRCLE
  8
1
 62
7
 10
18.70674438691901
 20
38.2373470239408
 30
0
 40
5
  0
POLYLINE
  8
1
 62
7
 66
1
 70
1
  0
VERTEX
  8
1
 10
18.70674438691901
 20
32.2373470239408
 30
0
 42
0.0628318504547325
  0
VERTEX
  8
1
 10
19.7474965101747
 20
32.36877800014439
 30
0
 42
0.03015565157999315
  0
VERTEX
  8
1
 10
20.25312471481008
 20
32.5315318466764
 30
0
 42
0.03022840719691799
  0
VERTEX
  8
1
 10
20.74299829797604
 20
32.75746993371531
 30
0
 42
0.02824606851149933
  0
VERTEX
  8
1
 10
21.20674438691901
 20
33.04119460123417
 30
0
 42
0.01912206556031169
  0
VERTEX
  8
1
 10
21.50542827880141
 20
33.2653353512076
 30
0
 42
0.02674477819733973
  0
VERTEX
  8
1
 10
21.92068243535169
 20
33.64108036522694
 30
0
 42
0.02644178533488819
  0
VERTEX
  8
1
 10
22.30571136650515
 20
34.07222397992283
 30
0
 42
0.02483573412626431
  0
VERTEX
  8
1
 10
22.64802394449961
 20
34.54525831681757
 30
0
 42
0.02446700478070524
  0
VERTEX
  8
1
 10
22.94798755805394
 20
35.05975993537309
 30
0
 42
0.02328338916330199
  0
VERTEX
  8
1
 10
23.20171868264514
 20
35.60958495170458
 30
0
 42
0.02300862621735695
  0
VERTEX
  8
1
 10
23.40520749084851
 20
36.18522616398678
 30
0
 42
0.02965771892145987
  0
VERTEX
  8
1
 10
23.59766732264181
 20
36.99091623654296
 30
0
 42
0.06587897002733853
  0
VERTEX
  8
1
 10
23.67941089886958
 20
38.86390011965597
 30
0
 42
0.04364358391543473
  0
VERTEX
  8
1
 10
23.46234151657197
 20
40.09029342323286
 30
0
 42
0.02345600366853831
  0
VERTEX
  8
1
 10
23.27537896265464
 20
40.67532506839214
 30
0
 42
0.02256279934245132
  0
VERTEX
  8
1
 10
23.03687140584123
 20
41.2373470239408
 30
0
 42
0.02466091498571519
  0
VERTEX
  8
1
 10
22.75355346160417
 20
41.76121157791211
 30
0
 42
0.02403897742919275
  0
VERTEX
  8
1
 10
22.42391371077532
 20
42.25019812572696
 30
0
 42
0.01793607221227423
  0
VERTEX
  8
1
 10
22.18240705138803
 20
42.55063338841657
 30
0
 42
0.02539723639119976
  0
VERTEX
  8
1
 10
21.7867759835462
 20
42.96378430135531
 30
0
 42
0.02850604658772864
  0
VERTEX
  8
1
 10
21.35820009017434
 20
43.32423911652151
 30
0
 42
0.02740782193925979
  0
VERTEX
  8
1
 10
20.90116001298694
 20
43.62858628989454
 30
0
 42
0.02070921846832468
  0
VERTEX
  8
1
 10
20.58149937538397
 20
43.79960865504351
 30
0
 42
0.02882546824821069
  0
VERTEX
  8
1
 10
20.08682238378252
 20
44.00423069207412
 30
0
 42
0.03202226278968307
  0
VERTEX
  8
1
 10
19.5749852752536
 20
44.14619354201406
 30
0
 42
0.2214962878215268
  0
VERTEX
  8
1
 10
16.05528868366367
 20
43.32423911652151
 30
0
 42
0.007843354825434377
  0
VERTEX
  8
1
 10
15.76516635319393
 20
43.08911986549018
 30
0
 42
0.03744860740849905
  0
VERTEX
  8
1
 10
15.35944052672932
 20
42.6944329667615
 30
0
 42
0.01501473020549951
  0
VERTEX
  8
1
 10
14.98957506306264
 20
42.25019812572697
 30
0
 42
0.03557574944337082
  0
VERTEX
  8
1
 10
14.65993531223383
 20
41.7612115779121
 30
0
 42
0.01313026837606549
  0
VERTEX
  8
1
 10
14.3766173679968
 20
41.2373470239408
 30
0
 42
0.03409858182657669
  0
VERTEX
  8
1
 10
14.13810981118331
 20
40.67532506839214
 30
0
 42
0.01192586506504409
  0
VERTEX
  8
1
 10
13.95114725726594
 20
40.09029342323287
 30
0
 42
0.04037081143042509
  0
VERTEX
  8
1
 10
13.78270562185799
 20
39.27923608994236
 30
0
 42
0.1582475456254713
  0
VERTEX
  8
1
 10
14.65993531223383
 20
34.7134824699695
 30
0
 42
0.04474942118066709
  0
VERTEX
  8
1
 10
14.98957506306264
 20
34.22449592215463
 30
0
 42
0.01694101064640327
  0
VERTEX
  8
1
 10
15.23108172244994
 20
33.92406065946501
 30
0
 42
0.02639266248217298
  0
VERTEX
  8
1
 10
15.62671279029178
 20
33.5109097465263
 30
0
 42
0.02751050717862601
  0
VERTEX
  8
1
 10
16.05528868366367
 20
33.15045493136009
 30
0
 42
0.02840335563673701
  0
VERTEX
  8
1
 10
16.51232876085104
 20
32.84610775798706
 30
0
 42
0.01971405304215134
  0
VERTEX
  8
1
 10
16.83198939845396
 20
32.67508539283809
 30
0
 42
0.02982108265307948
  0
VERTEX
  8
1
 10
17.32666639005537
 20
32.47046335580748
 30
0
 42
0.03102651515417361
  0
VERTEX
  8
1
 10
17.83850349858426
 20
32.32850050586754
 30
0
 42
0.05200786377771742
  0
SEQEND
  8
1
  0
ENDBLK
  8
0
  0
BLOCK
  8
0
  2
13608571A
 70
0
 10
-544.5010325585458
 20
-212.2826806473862
 30
0
  0
INSERT
  8
0
  2
03002670A
 10
-516.7752113906624
 20
-413.1171544916683
 30
0
  0
ENDBLK
  8
0
  0
BLOCK
  8
0
  2
13608521A
 70
0
 10
-547.3447065244826
 20
-1.495347922325099
 30
0
  0
INSERT
  8
0
  2
13608520D
 10
-254.5385926458052
 20
-166.3706560822792
 30
0
  0
INSERT
  8
0
  2
13608571A
 10
-544.5010325585458
 20
-212.2826806473862
 30
0
  0
ENDBLK
  8
0
  0
BLOCK
  8
0
  2
03003982
 70
0
 10
-301.3658183738176
 20
-149.265590727996
 30
0
  0
LINE
  8
1
 62
7
 10
0.8235393061572722
 20
1.837347023940904
 30
0
 11
0.8235393061572722
 21
15.98734702394085
 31
0
  0
LINE
  8
1
 62
7
 10
8.323539306157272
 20
2.712539852018946
 30
0
 11
1.823539306157272
 21
2.712539852018946
 31
0
  0
LINE
  8
1
 62
7
 10
1.823539306157272
 20
2.487347023940853
 30
0
 11
8.323539306157272
 21
2.487347023940853
 31
0
  0
LINE
  8
1
 62
7
 10
8.323539306157272
 20
6.173953473487526
 30
0
 11
1.823539306157272
 21
6.173953473487526
 31
0
  0
LINE
  8
1
 62
7
 10
1.823539306157272
 20
6.267593916779044
 30
0
 11
8.323539306157272
 21
6.267593916779044
 31
0
  0
LINE
  8
1
 62
7
 10
8.323539306157272
 20
7.503967387962742
 30
0
 11
1.823539306157272
 21
7.503967387962742
 31
0
  0
LINE
  8
1
 62
7
 10
1.823539306157272
 20
7.838669157804443
 30
0
 11
8.323539306157272
 21
7.838669157804443
 31
0
  0
LINE
  8
1
 62
7
 10
8.323539306157272
 20
10.96125549691688
 30
0
 11
1.823539306157272
 21
10.96125549691688
 31
0
  0
LINE
  8
1
 62
7
 10
1.823539306157272
 20
12.37734723945735
 30
0
 11
8.323539306157272
 21
12.37734723945735
 31
0
  0
LINE
  8
1
 62
7
 10
8.323539306157272
 20
11.9658994690885
 30
0
 11
1.823539306157272
 21
11.9658994690885
 31
0
  0
LINE
  8
1
 62
7
 10
8.323539306157272
 20
14.85544578900299
 30
0
 11
1.823539306157272
 21
14.85544578900299
 31
0
  0
LINE
  8
1
 62
7
 10
1.823539306157272
 20
15.43637826710875
 30
0
 11
8.323539306157272
 21
15.43637826710875
 31
0
  0
LINE
  8
1
 62
7
 10
8.323539306157272
 20
15.88429666351587
 30
0
 11
1.823539306157272
 21
15.88429666351587
 31
0
  0
LINE
  8
1
 62
7
 10
1.823539306157272
 20
17.01623278599971
 30
0
 11
8.323539306157272
 21
17.01623278599971
 31
0
  0
LINE
  8
1
 62
7
 10
8.323539306157272
 20
16.57568913702562
 30
0
 11
1.823539306157272
 21
16.57568913702562
 31
0
  0
LINE
  8
1
 62
7
 10
8.323539306157272
 20
16.47533387153728
 30
0
 11
1.823539306157272
 21
16.47533387153728
 31
0
  0
LINE
  8
1
 62
7
 10
8.323539306157272
 20
17.28734702394084
 30
0
 11
8.323539306157272
 21
1.837347023940904
 31
0
  0
LINE
  8
1
 62
7
 10
8.323539306157272
 20
17.28734702394084
 30
0
 11
8.023539306157261
 21
17.5873470239409
 31
0
  0
LINE
  8
1
 62
7
 10
2.123539306157284
 20
17.5873470239409
 30
0
 11
1.823539306157272
 21
17.28734702394091
 31
0
  0
LINE
  8
1
 62
7
 10
1.823539306157272
 20
1.837347023940904
 30
0
 11
1.823539306157272
 21
17.28734702394091
 31
0
  0
LINE
  8
1
 62
7
 10
2.123539306157284
 20
17.5873470239409
 30
0
 11
8.023539306157261
 21
17.5873470239409
 31
0
  0
LINE
  8
1
 62
7
 10
9.323539306157272
 20
15.98734702394092
 30
0
 11
9.323539306157272
 21
1.837347023940904
 31
0
  0
LINE
  8
1
 62
7
 10
9.323539306157272
 20
1.837347023940904
 30
0
 11
9.323539306157272
 21
-12.31265297605911
 31
0
  0
LINE
  8
1
 62
2
  6
DASHDOT
 10
-2.411141829564429
 20
1.837347023940904
 30
0
 11
12.35967725769586
 21
1.837347023940904
 31
0
  0
LINE
  8
1
 62
7
 10
8.023539306157261
 20
-13.91265297605909
 30
0
 11
2.123539306157284
 21
-13.91265297605909
 31
0
  0
LINE
  8
1
 62
7
 10
1.823539306157272
 20
-13.61265297605909
 30
0
 11
1.823539306157272
 21
1.837347023940904
 31
0
  0
LINE
  8
1
 62
7
 10
1.823539306157272
 20
-13.61265297605909
 30
0
 11
2.123539306157284
 21
-13.91265297605909
 31
0
  0
LINE
  8
1
 62
7
 10
8.023539306157261
 20
-13.91265297605909
 30
0
 11
8.323539306157272
 21
-13.61265297605909
 31
0
  0
LINE
  8
1
 62
7
 10
8.323539306157272
 20
1.837347023940904
 30
0
 11
8.323539306157272
 21
-13.61265297605909
 31
0
  0
LINE
  8
1
 62
7
 10
1.823539306157272
 20
-12.80063982365554
 30
0
 11
8.323539306157272
 21
-12.80063982365554
 31
0
  0
LINE
  8
1
 62
7
 10
1.823539306157272
 20
-12.90099508914387
 30
0
 11
8.323539306157272
 21
-12.90099508914387
 31
0
  0
LINE
  8
1
 62
7
 10
8.323539306157272
 20
-13.34153873811796
 30
0
 11
1.823539306157272
 21
-13.34153873811796
 31
0
  0
LINE
  8
1
 62
7
 10
1.823539306157272
 20
-12.20960261563412
 30
0
 11
8.323539306157272
 21
-12.20960261563412
 31
0
  0
LINE
  8
1
 62
7
 10
8.323539306157272
 20
-11.761684219227
 30
0
 11
1.823539306157272
 21
-11.761684219227
 31
0
  0
LINE
  8
1
 62
7
 10
1.823539306157272
 20
-11.18075174112125
 30
0
 11
8.323539306157272
 21
-11.18075174112125
 31
0
  0
LINE
  8
1
 62
7
 10
1.823539306157272
 20
-8.291205421206744
 30
0
 11
8.323539306157272
 21
-8.291205421206744
 31
0
  0
LINE
  8
1
 62
7
 10
8.323539306157272
 20
-8.702653191575596
 30
0
 11
1.823539306157272
 21
-8.702653191575596
 31
0
  0
LINE
  8
1
 62
7
 10
1.823539306157272
 20
-7.286561449035137
 30
0
 11
8.323539306157272
 21
-7.286561449035137
 31
0
  0
LINE
  8
1
 62
7
 10
8.323539306157272
 20
-4.163975109922692
 30
0
 11
1.823539306157272
 21
-4.163975109922692
 31
0
  0
LINE
  8
1
 62
7
 10
1.823539306157272
 20
-3.829273340080992
 30
0
 11
8.323539306157272
 21
-3.829273340080992
 31
0
  0
LINE
  8
1
 62
7
 10
8.323539306157272
 20
-2.592899868897295
 30
0
 11
1.823539306157272
 21
-2.592899868897295
 31
0
  0
LINE
  8
1
 62
7
 10
1.823539306157272
 20
-2.499259425605775
 30
0
 11
8.323539306157272
 21
-2.499259425605775
 31
0
  0
LINE
  8
1
 62
7
 10
8.323539306157272
 20
1.187347023940898
 30
0
 11
1.823539306157272
 21
1.187347023940898
 31
0
  0
LINE
  8
1
 62
7
 10
1.823539306157272
 20
0.962154195862805
 30
0
 11
8.323539306157272
 21
0.962154195862805
 31
0
  0
LINE
  8
1
 62
7
 10
0.8235393061572722
 20
-12.31265297605911
 30
0
 11
0.8235393061572722
 21
1.837347023940904
 31
0
  0
ARC
  8
1
 62
7
 10
1.823539306157272
 20
15.98734702394085
 30
0
 40
1.000000000000009
 50
90
 51
180
  0
ARC
  8
1
 62
7
 10
8.323539306157272
 20
15.98734702394092
 30
0
 40
1
 50
0
 51
90
  0
ARC
  8
1
 62
7
 10
8.323539306157272
 20
-12.31265297605911
 30
0
 40
1
 50
270
 51
0
  0
ARC
  8
1
 62
7
 10
1.823539306157272
 20
-12.31265297605911
 30
0
 40
0.9999999999999998
 50
180
 51
270
  0
ENDBLK
  8
0
  0
BLOCK
  8
0
  2
03014980C__11
 70
0
 10
-179.145282293975
 20
-13.85677611590408
 30
0
  0
LINE
  8
1
 62
7
 10
-62.26936460252711
 20
-6.40886422729446
 30
0
 11
-62.26936460252711
 21
-11.76412348479458
 31
0
  0
LINE
  8
1
 62
7
 10
-86.51557585376291
 20
-14.16265297605887
 30
0
 11
-91.87083511126258
 21
-14.16265297605887
 31
0
  0
LINE
  8
1
 62
7
 10
-94.26936460252711
 20
10.0835582751762
 30
0
 11
-94.26936460252711
 21
15.43881753267633
 31
0
  0
LINE
  8
1
 62
7
 10
-70.02315335129171
 20
17.83734702394084
 30
0
 11
-64.66789409379163
 21
17.83734702394084
 31
0
  0
LINE
  8
976
 62
7
 10
-70.02315335129157
 20
-14.16265297605887
 30
0
 11
-64.66789409379163
 21
-14.16265297605887
 31
0
  0
LINE
  8
976
 62
2
  6
DASHDOT
 10
-97.0458391615087
 20
1.837347023940904
 30
0
 11
-60.00890283849418
 21
1.837347023940904
 31
0
  0
LINE
  8
976
 62
2
  6
DASHDOT
 10
-78.26936460252711
 20
-17.92574101585678
 30
0
 11
-78.26936460252711
 21
19.66814171803022
 31
0
  0
LINE
  8
1
 62
7
 10
-62.26936460252711
 20
15.43881753267633
 30
0
 11
-62.26936460252711
 21
10.08355827517621
 31
0
  0
LINE
  8
1
 62
7
 10
-94.26936460252711
 20
-11.76412348479458
 30
0
 11
-94.26936460252711
 21
-6.408864227294444
 31
0
  0
LINE
  8
1
 62
7
 10
-91.87083511126281
 20
17.83734702394084
 30
0
 11
-86.5155758537625
 21
17.83734702394084
 31
0
  0
ARC
  8
1
 62
7
 10
-78.26936460252711
 20
1.837347023940904
 30
0
 40
21.00000000000003
 50
220.3675935441856
 51
229.6324064558139
  0
ARC
  8
1
 62
7
 10
-78.26936460252711
 20
1.837347023940904
 30
0
 40
20.99999999999985
 50
310.367593544186
 51
319.6324064558144
  0
ARC
  8
1
 62
7
 10
-78.26936460252711
 20
1.837347023940904
 30
0
 40
21.00000000000012
 50
130.3675935441862
 51
139.6324064558145
  0
ARC
  8
1
 62
7
 10
-78.26936460252711
 20
1.837347023940904
 30
0
 40
20.99999999999998
 50
40.36759354418553
 51
49.63240645581427
  0
ENDBLK
  8
0
  0
BLOCK
  8
0
  2
TOF-5KAITEI__12
 70
0
 10
-225.8242901555166
 20
10.62529783898745
 30
0
  0
LINE
  8
1
 62
7
 10
-91.27492710252705
 20
-18.69265297605919
 30
0
 11
-91.21148960252708
 21
-16.66265297605919
 31
0
  0
LINE
  8
1
 62
2
 10
-91.26818335252733
 20
-18.47685297605919
 30
0
 11
-90.63048960252695
 21
-16.66265297605919
 31
0
  0
LINE
  8
1
 62
7
 10
-91.21148960252708
 20
-16.66265297605919
 30
0
 11
-86.26936460252705
 21
-16.66265297605919
 31
0
  0
LINE
  8
1
 62
7
 10
-90.41936460252714
 20
-23.19265297605919
 30
0
 11
-90.41936460252714
 21
-24.69265297605919
 31
0
  0
LINE
  8
1
 62
7
 10
-91.13336460252731
 20
-30.19265297605919
 30
0
 11
-86.26936460252705
 21
-30.19265297605919
 31
0
  0
LINE
  8
1
 62
2
 10
-90.55236460252741
 20
-30.19265297605919
 30
0
 11
-90.55236460252741
 21
-24.69265297605919
 31
0
  0
LINE
  8
1
 62
7
 10
-91.13336460252731
 20
-24.69265297605919
 30
0
 11
-91.13336460252731
 21
-30.19265297605919
 31
0
  0
LINE
  8
1
 62
7
 10
-91.13336460252731
 20
-24.69265297605919
 30
0
 11
-86.26936460252705
 21
-24.69265297605919
 31
0
  0
LINE
  8
1
 62
7
 10
-92.26936460252705
 20
-23.19265297605919
 30
0
 11
-86.26936460252705
 21
-23.19265297605919
 31
0
  0
LINE
  8
1
 62
7
 10
-90.21551702523379
 20
-18.98132811065378
 30
0
 11
-90.21551702523379
 21
-22.90397784146428
 31
0
  0
LINE
  8
1
 62
7
 10
-88.76936460252705
 20
-22.90397784146428
 30
0
 11
-88.76936460252705
 21
-18.98132811065378
 31
0
  0
LINE
  8
1
 62
7
 10
-90.21551702523379
 20
-22.90397784146428
 30
0
 11
-88.76936460252705
 21
-22.90397784146428
 31
0
  0
LINE
  8
1
 62
7
 10
-91.51936460252705
 20
-18.69265297605919
 30
0
 11
-86.26936460252705
 21
-18.69265297605919
 31
0
  0
LINE
  8
1
 62
7
 10
-92.26936460252705
 20
-18.69265297605919
 30
0
 11
-91.51936460252705
 21
-18.69265297605919
 31
0
  0
LINE
  8
1
 62
7
 10
-92.26936460252705
 20
-23.19265297605919
 30
0
 11
-92.76936460252705
 21
-22.90397784146428
 31
0
  0
LINE
  8
1
 62
7
 10
-92.76936460252705
 20
-18.98132811065378
 30
0
 11
-92.26936460252705
 21
-18.69265297605919
 31
0
  0
LINE
  8
1
 62
7
 10
-92.76936460252705
 20
-22.90397784146428
 30
0
 11
-92.76936460252705
 21
-18.98132811065378
 31
0
  0
LINE
  8
1
 62
7
 10
-88.76936460252705
 20
-18.98132811065378
 30
0
 11
-90.21551702523379
 21
-18.98132811065378
 31
0
  0
LINE
  8
1
 62
7
 10
-72.76936460252705
 20
-18.98132811065378
 30
0
 11
-74.21551702523379
 21
-18.98132811065378
 31
0
  0
LINE
  8
1
 62
7
 10
-76.76936460252705
 20
-22.90397784146428
 30
0
 11
-76.76936460252705
 21
-18.98132811065378
 31
0
  0
LINE
  8
1
 62
7
 10
-76.76936460252705
 20
-18.98132811065378
 30
0
 11
-76.26936460252705
 21
-18.69265297605919
 31
0
  0
LINE
  8
1
 62
7
 10
-76.26936460252705
 20
-23.19265297605919
 30
0
 11
-76.76936460252705
 21
-22.90397784146428
 31
0
  0
LINE
  8
1
 62
7
 10
-76.26936460252705
 20
-18.69265297605919
 30
0
 11
-75.51936460252705
 21
-18.69265297605919
 31
0
  0
LINE
  8
1
 62
7
 10
-75.51936460252705
 20
-18.69265297605919
 30
0
 11
-70.26936460252705
 21
-18.69265297605919
 31
0
  0
LINE
  8
1
 62
7
 10
-74.21551702523379
 20
-22.90397784146428
 30
0
 11
-72.76936460252705
 21
-22.90397784146428
 31
0
  0
LINE
  8
1
 62
7
 10
-72.76936460252705
 20
-22.90397784146428
 30
0
 11
-72.76936460252705
 21
-18.98132811065378
 31
0
  0
LINE
  8
1
 62
7
 10
-74.21551702523379
 20
-18.98132811065378
 30
0
 11
-74.21551702523379
 21
-22.90397784146428
 31
0
  0
LINE
  8
1
 62
7
 10
-76.26936460252705
 20
-23.19265297605919
 30
0
 11
-70.26936460252705
 21
-23.19265297605919
 31
0
  0
LINE
  8
1
 62
7
 10
-75.13336460252731
 20
-24.69265297605919
 30
0
 11
-70.26936460252705
 21
-24.69265297605919
 31
0
  0
LINE
  8
1
 62
7
 10
-75.13336460252731
 20
-24.69265297605919
 30
0
 11
-75.13336460252708
 21
-30.19265297605919
 31
0
  0
LINE
  8
1
 62
2
 10
-74.55236460252718
 20
-30.19265297605919
 30
0
 11
-74.55236460252718
 21
-24.69265297605919
 31
0
  0
LINE
  8
1
 62
7
 10
-75.13336460252708
 20
-30.19265297605919
 30
0
 11
-70.26936460252705
 21
-30.19265297605919
 31
0
  0
LINE
  8
1
 62
7
 10
-74.41936460252714
 20
-23.19265297605919
 30
0
 11
-74.41936460252714
 21
-24.69265297605919
 31
0
  0
LINE
  8
1
 62
7
 10
-65.32723960252702
 20
-16.66265297605919
 30
0
 11
-65.26380210252705
 21
-18.69265297605919
 31
0
  0
LINE
  8
1
 62
2
 10
-65.90823960252692
 20
-16.66265297605919
 30
0
 11
-65.27054585252699
 21
-18.47685297605919
 31
0
  0
LINE
  8
1
 62
2
 10
-65.98636460252692
 20
-14.16265297605916
 30
0
 11
-65.90823960252692
 21
-16.66265297605919
 31
0
  0
LINE
  8
1
 62
7
 10
-65.40536460252702
 20
-14.16265297605916
 30
0
 11
-65.32723960252702
 21
-16.66265297605919
 31
0
  0
LINE
  8
1
 62
7
 10
-70.26936460252705
 20
-16.66265297605919
 30
0
 11
-65.32723960252702
 21
-16.66265297605919
 31
0
  0
LINE
  8
1
 62
7
 10
-66.11936460252719
 20
-24.69265297605919
 30
0
 11
-66.11936460252719
 21
-23.19265297605919
 31
0
  0
LINE
  8
1
 62
7
 10
-70.26936460252705
 20
-30.19265297605919
 30
0
 11
-65.40536460252702
 21
-30.19265297605919
 31
0
  0
LINE
  8
1
 62
2
 10
-65.98636460252692
 20
-24.69265297605919
 30
0
 11
-65.98636460252692
 21
-30.19265297605919
 31
0
  0
LINE
  8
1
 62
7
 10
-65.40536460252702
 20
-30.19265297605919
 30
0
 11
-65.40536460252702
 21
-24.69265297605919
 31
0
  0
LINE
  8
1
 62
7
 10
-70.26936460252705
 20
-24.69265297605919
 30
0
 11
-65.40536460252702
 21
-24.69265297605919
 31
0
  0
LINE
  8
1
 62
7
 10
-70.26936460252705
 20
-23.19265297605919
 30
0
 11
-64.26936460252705
 21
-23.19265297605919
 31
0
  0
LINE
  8
1
 62
7
 10
-66.32321217982053
 20
-22.90397784146428
 30
0
 11
-66.32321217982053
 21
-18.98132811065378
 31
0
  0
LINE
  8
1
 62
7
 10
-67.76936460252705
 20
-18.98132811065378
 30
0
 11
-67.76936460252705
 21
-22.90397784146428
 31
0
  0
LINE
  8
1
 62
7
 10
-67.76936460252705
 20
-22.90397784146428
 30
0
 11
-66.32321217982053
 21
-22.90397784146428
 31
0
  0
LINE
  8
1
 62
7
 10
-70.26936460252705
 20
-18.69265297605919
 30
0
 11
-65.01936460252705
 21
-18.69265297605919
 31
0
  0
LINE
  8
1
 62
7
 10
-65.01936460252705
 20
-18.69265297605919
 30
0
 11
-64.26936460252705
 21
-18.69265297605919
 31
0
  0
LINE
  8
1
 62
7
 10
-63.76936460252705
 20
-22.90397784146428
 30
0
 11
-64.26936460252705
 21
-23.19265297605919
 31
0
  0
LINE
  8
1
 62
7
 10
-64.26936460252705
 20
-18.69265297605919
 30
0
 11
-63.76936460252705
 21
-18.98132811065378
 31
0
  0
LINE
  8
1
 62
7
 10
-63.76936460252705
 20
-18.98132811065378
 30
0
 11
-63.76936460252705
 21
-22.90397784146428
 31
0
  0
LINE
  8
1
 62
7
 10
-66.32321217982053
 20
-18.98132811065378
 30
0
 11
-67.76936460252705
 21
-18.98132811065378
 31
0
  0
LINE
  8
1
 62
2
  6
DASHDOT
 10
-70.26936460252705
 20
-31.98670670900577
 30
0
 11
-70.26936460252705
 21
-9.196659135272487
 31
0
  0
LINE
  8
1
 62
2
  6
DASHDOT
 10
-86.26936460252705
 20
-31.98670670900577
 30
0
 11
-86.26936460252705
 21
-9.196659135272487
 31
0
  0
LINE
  8
1
 62
7
 10
-82.32321217982053
 20
-18.98132811065378
 30
0
 11
-83.76936460252705
 21
-18.98132811065378
 31
0
  0
LINE
  8
1
 62
7
 10
-79.76936460252705
 20
-18.98132811065378
 30
0
 11
-79.76936460252705
 21
-22.90397784146428
 31
0
  0
LINE
  8
1
 62
7
 10
-80.26936460252705
 20
-18.69265297605919
 30
0
 11
-79.76936460252705
 21
-18.98132811065378
 31
0
  0
LINE
  8
1
 62
7
 10
-79.76936460252705
 20
-22.90397784146428
 30
0
 11
-80.26936460252705
 21
-23.19265297605919
 31
0
  0
LINE
  8
1
 62
7
 10
-81.01936460252705
 20
-18.69265297605919
 30
0
 11
-80.26936460252705
 21
-18.69265297605919
 31
0
  0
LINE
  8
1
 62
7
 10
-86.26936460252705
 20
-18.69265297605919
 30
0
 11
-81.01936460252705
 21
-18.69265297605919
 31
0
  0
LINE
  8
1
 62
7
 10
-83.76936460252705
 20
-22.90397784146428
 30
0
 11
-82.32321217982053
 21
-22.90397784146428
 31
0
  0
LINE
  8
1
 62
7
 10
-83.76936460252705
 20
-18.98132811065378
 30
0
 11
-83.76936460252705
 21
-22.90397784146428
 31
0
  0
LINE
  8
1
 62
7
 10
-82.32321217982053
 20
-22.90397784146428
 30
0
 11
-82.32321217982053
 21
-18.98132811065378
 31
0
  0
LINE
  8
1
 62
7
 10
-86.26936460252705
 20
-23.19265297605919
 30
0
 11
-80.26936460252705
 21
-23.19265297605919
 31
0
  0
LINE
  8
1
 62
7
 10
-86.26936460252705
 20
-24.69265297605919
 30
0
 11
-81.40536460252702
 21
-24.69265297605919
 31
0
  0
LINE
  8
1
 62
7
 10
-81.40536460252702
 20
-30.19265297605919
 30
0
 11
-81.40536460252702
 21
-24.69265297605919
 31
0
  0
LINE
  8
1
 62
2
 10
-81.98636460252692
 20
-24.69265297605919
 30
0
 11
-81.98636460252692
 21
-30.19265297605919
 31
0
  0
LINE
  8
1
 62
7
 10
-86.26936460252705
 20
-30.19265297605919
 30
0
 11
-81.40536460252702
 21
-30.19265297605919
 31
0
  0
LINE
  8
1
 62
7
 10
-82.11936460252719
 20
-24.69265297605919
 30
0
 11
-82.11936460252719
 21
-23.19265297605919
 31
0
  0
LINE
  8
1
 62
2
 10
-90.55236460252695
 20
-14.16265297605916
 30
0
 11
-90.63048960252695
 21
-16.66265297605919
 31
0
  0
LINE
  8
1
 62
7
 10
-91.13336460252708
 20
-14.16265297605916
 30
0
 11
-91.21148960252708
 21
-16.66265297605919
 31
0
  0
LINE
  8
1
 62
7
 10
-75.21148960252708
 20
-16.66265297605919
 30
0
 11
-70.26936460252705
 21
-16.66265297605919
 31
0
  0
LINE
  8
1
 62
7
 10
-75.21148960252708
 20
-16.66265297605919
 30
0
 11
-75.18755890229967
 21
-15.89687056878211
 31
0
  0
LINE
  8
1
 62
7
 10
-75.27492710252705
 20
-18.69265297605919
 30
0
 11
-75.21148960252708
 21
-16.66265297605919
 31
0
  0
LINE
  8
1
 62
2
 10
-74.63048960252718
 20
-16.66265297605919
 30
0
 11
-74.60307286890084
 21
-15.78531750001644
 31
0
  0
LINE
  8
1
 62
2
 10
-75.2681833525271
 20
-18.47685297605919
 30
0
 11
-74.63048960252718
 21
-16.66265297605919
 31
0
  0
LINE
  8
1
 62
7
 10
-81.32723960252704
 20
-16.66265297605919
 30
0
 11
-81.35117030275445
 21
-15.89687056878213
 31
0
  0
LINE
  8
1
 62
7
 10
-86.26936460252705
 20
-16.66265297605919
 30
0
 11
-81.32723960252704
 21
-16.66265297605919
 31
0
  0
LINE
  8
1
 62
7
 10
-81.32723960252704
 20
-16.66265297605919
 30
0
 11
-81.26380210252708
 21
-18.69265297605919
 31
0
  0
LINE
  8
1
 62
2
 10
-81.90823960252718
 20
-16.66265297605919
 30
0
 11
-81.93565633615351
 21
-15.78531750001641
 31
0
  0
LINE
  8
1
 62
2
 10
-81.90823960252718
 20
-16.66265297605919
 30
0
 11
-81.27054585252679
 21
-18.47685297605919
 31
0
  0
ARC
  8
1
 62
7
 10
-86.26936460252705
 20
-12.22299786145639
 30
0
 40
10.96965511460271
 50
256.8264488927409
 51
270
  0
ARC
  8
1
 62
7
 10
-91.49244081388042
 20
-20.22540259726447
 30
0
 40
2.967372524785475
 50
244.5120436442022
 51
295.4879563557978
  0
ARC
  8
1
 62
7
 10
-91.49244081388042
 20
-21.65990335485359
 30
0
 40
2.967372524785475
 50
64.51204364420224
 51
115.4879563557978
  0
ARC
  8
1
 62
7
 10
-86.26936460252705
 20
-29.66230809066178
 30
0
 40
10.96965511460259
 50
90
 51
103.173551107259
  0
ARC
  8
1
 62
7
 10
-70.26936460252705
 20
-29.66230809066178
 30
0
 40
10.96965511460259
 50
90
 51
103.173551107259
  0
ARC
  8
1
 62
7
 10
-75.49244081388042
 20
-21.65990335485359
 30
0
 40
2.967372524785475
 50
64.51204364420224
 51
115.4879563557978
  0
ARC
  8
1
 62
7
 10
-75.49244081388042
 20
-20.22540259726447
 30
0
 40
2.967372524785475
 50
244.5120436442022
 51
295.4879563557978
  0
ARC
  8
1
 62
7
 10
-70.26936460252705
 20
-12.22299786145639
 30
0
 40
10.96965511460271
 50
256.8264488927409
 51
270
  0
ARC
  8
1
 62
7
 10
-70.26936460252705
 20
-12.22299786145639
 30
0
 40
10.9696551146028
 50
270
 51
283.1735511072592
  0
ARC
  8
1
 62
7
 10
-65.04628839117368
 20
-20.22540259726447
 30
0
 40
2.967372524785573
 50
244.5120436441983
 51
295.4879563557978
  0
ARC
  8
1
 62
7
 10
-65.04628839117368
 20
-21.65990335485359
 30
0
 40
2.967372524785475
 50
64.51204364420224
 51
115.4879563558017
  0
ARC
  8
1
 62
7
 10
-70.26936460252705
 20
-29.66230809066178
 30
0
 40
10.96965511460282
 50
76.826448892741
 51
90
  0
ARC
  8
1
 62
7
 10
-86.26936460252705
 20
-29.66230809066178
 30
0
 40
10.96965511460282
 50
76.826448892741
 51
90
  0
ARC
  8
1
 62
7
 10
-81.04628839117368
 20
-21.65990335485359
 30
0
 40
2.967372524785475
 50
64.51204364420224
 51
115.4879563558017
  0
ARC
  8
1
 62
7
 10
-81.04628839117368
 20
-20.22540259726447
 30
0
 40
2.967372524785573
 50
244.5120436441983
 51
295.4879563557978
  0
ARC
  8
1
 62
7
 10
-86.26936460252705
 20
-12.22299786145639
 30
0
 40
10.9696551146028
 50
270
 51
283.1735511072592
  0
INSERT
  8
0
  2
03014980C__11
 10
-179.145282293975
 20
-13.85677611590408
 30
0
  0
ENDBLK
  8
0
  0
BLOCK
  8
0
  2
TOF-6B_O____
 70
0
 10
-281.744468008854
 20
-1.039085253542939
 30
0
  0
INSERT
  8
0
  2
13608521A
 10
-547.3447065244826
 20
-1.495347922325099
 30
0
  0
INSERT
  8
0
  2
03003982
 10
-301.3658183738176
 20
-149.265590727996
 30
0
  0
INSERT
  8
0
  2
TOF-5KAITEI__12
 10
-225.8242901555166
 20
10.62529783898745
 30
0
  0
ENDBLK
  8
0
  0
BLOCK
  8
0
  2
03002980__13
 70
0
 10
394.7051335405213
 20
-99.67118286117955
 30
0
  0
LINE
  8
1
 62
2
  6
DASHDOT
 10
6.131324637747543
 20
1.837347023940879
 30
0
 11
-8.804377615789559
 21
1.837347023940879
 31
0
  0
ENDBLK
  8
0
  0
BLOCK
  8
0
  2
03001980__14
 70
0
 10
180.8996527112383
 20
-142.8455781986125
 30
0
  0
INSERT
  8
0
  2
03002980__13
 10
394.7051335405213
 20
-99.67118286117955
 30
0
  0
ENDBLK
  8
0
  0
BLOCK
  8
0
  2
TOF-5KAITEI__15
 70
0
 10
248.0484543815346
 20
-125.7091309009016
 30
0
  0
INSERT
  8
0
  2
03001980__14
 10
180.8996527112383
 20
-142.8455781986125
 30
0
  0
ENDBLK
  8
0
  0
BLOCK
  8
0
  2
TOF-5_O____
 70
0
 10
152.3273676916517
 20
-150.184805357721
 30
0
  0
INSERT
  8
0
  2
TOF-5KAITEI__15
 10
248.0484543815346
 20
-125.7091309009016
 30
0
  0
ENDBLK
  8
0
  0
ENDSEC
  0
SECTION
  2
ENTITIES
  0
INSERT
  8
0
  2
TOF-5R-GAIKEI
 10
35.8339224181772
 20
-311.446627321113
 30
0
  0
INSERT
  8
0
  2
03014980E
 10
7.599358025209988
 20
-233.864891214614
 30
0
  0
INSERT
  8
0
  2
TOF-5R-S3
 10
366.3156212014567
 20
56.9038645822319
 30
0
  0
INSERT
  8
0
  2
TOF-5KAITEI__9
 10
59.25402492964237
 20
10.62529783898742
 30
0
  0
INSERT
  8
0
  2
03002680
 10
-3.176758809284081
 20
-159.73252782589
 30
0
  0
INSERT
  8
0
  2
TOF-6B_O____
 10
-281.744468008854
 20
-1.039085253542939
 30
0
  0
INSERT
  8
0
  2
TOF-5_O____
 10
152.3273676916517
 20
-150.184805357721
 30
0
  0
ENDSEC
  0
EOF
