  0
SECTION
  2
HEADER
  9
$ACADVER
  1
AC1014
  9
$ACADMAINTVER
 70
           0
  9
$DWGCODEPAGE
  3
DOS932
  9
$INSBASE
 10
0.0
 20
0.0
 30
0.0
  9
$EXTMIN
 10
1.000000000000E+20
 20
1.000000000000E+20
 30
1.000000000000E+20
  9
$EXTMAX
 10
-1.000000000000E+20
 20
-1.000000000000E+20
 30
-1.000000000000E+20
  9
$LIMMIN
 10
0.0
 20
0.0
  9
$LIMMAX
 10
0.0
 20
0.0
  9
$ORTHOMODE
 70
           0
  9
$REGENMODE
 70
           1
  9
$FILLMODE
 70
           1
  9
$QTEXTMODE
 70
           0
  9
$MIRRTEXT
 70
           1
  9
$DRAGMODE
 70
           2
  9
$LTSCALE
 40
1.0
  9
$OSMODE
 70
           0
  9
$ATTMODE
 70
           1
  9
$TEXTSIZE
 40
0.2
  9
$TRACEWID
 40
0.05
  9
$TEXTSTYLE
  7
STANDARD
  9
$CLAYER
  8
0
  9
$CELTYPE
  6
CONTINUOUS
  9
$CECOLOR
 62
         256
  9
$CELTSCALE
 40
1.0
  9
$DELOBJ
 70
           1
  9
$DISPSILH
 70
           0
  9
$DIMSCALE
 40
1.0
  9
$DIMASZ
 40
0.18
  9
$DIMEXO
 40
0.0625
  9
$DIMDLI
 40
0.38
  9
$DIMRND
 40
0.0
  9
$DIMDLE
 40
0.0
  9
$DIMEXE
 40
0.18
  9
$DIMTP
 40
0.0
  9
$DIMTM
 40
0.0
  9
$DIMTXT
 40
0.18
  9
$DIMCEN
 40
0.09
  9
$DIMTSZ
 40
0.0
  9
$DIMTOL
 70
           0
  9
$DIMLIM
 70
           0
  9
$DIMTIH
 70
           1
  9
$DIMTOH
 70
           1
  9
$DIMSE1
 70
           0
  9
$DIMSE2
 70
           0
  9
$DIMTAD
 70
           0
  9
$DIMZIN
 70
           0
  9
$DIMBLK
  1

  9
$DIMASO
 70
           1
  9
$DIMSHO
 70
           1
  9
$DIMPOST
  1

  9
$DIMAPOST
  1

  9
$DIMALT
 70
           0
  9
$DIMALTD
 70
           2
  9
$DIMALTF
 40
25.4
  9
$DIMLFAC
 40
1.0
  9
$DIMTOFL
 70
           0
  9
$DIMTVP
 40
0.0
  9
$DIMTIX
 70
           0
  9
$DIMSOXD
 70
           0
  9
$DIMSAH
 70
           0
  9
$DIMBLK1
  1

  9
$DIMBLK2
  1

  9
$DIMSTYLE
  2
STANDARD
  9
$DIMCLRD
 70
           0
  9
$DIMCLRE
 70
           0
  9
$DIMCLRT
 70
           0
  9
$DIMTFAC
 40
1.0
  9
$DIMGAP
 40
0.09
  9
$DIMJUST
 70
           0
  9
$DIMSD1
 70
           0
  9
$DIMSD2
 70
           0
  9
$DIMTOLJ
 70
           1
  9
$DIMTZIN
 70
           0
  9
$DIMALTZ
 70
           0
  9
$DIMALTTZ
 70
           0
  9
$DIMFIT
 70
           3
  9
$DIMUPT
 70
           0
  9
$DIMUNIT
 70
           2
  9
$DIMDEC
 70
           4
  9
$DIMTDEC
 70
           4
  9
$DIMALTU
 70
           2
  9
$DIMALTTD
 70
           2
  9
$DIMTXSTY
  7
STANDARD
  9
$DIMAUNIT
 70
           0
  9
$LUNITS
 70
           2
  9
$LUPREC
 70
           4
  9
$SKETCHINC
 40
0.1
  9
$FILLETRAD
 40
0.0
  9
$AUNITS
 70
           0
  9
$AUPREC
 70
           0
  9
$MENU
  1
acad
  9
$ELEVATION
 40
0.0
  9
$PELEVATION
 40
0.0
  9
$THICKNESS
 40
0.0
  9
$LIMCHECK
 70
           0
  9
$BLIPMODE
 70
           1
  9
$CHAMFERA
 40
0.0
  9
$CHAMFERB
 40
0.0
  9
$CHAMFERC
 40
0.0
  9
$CHAMFERD
 40
0.0
  9
$SKPOLY
 70
           0
  9
$TDCREATE
 40
0.000000000
  9
$TDUPDATE
 40
0.000000000
  9
$TDINDWG
 40
0.0000000000
  9
$TDUSRTIMER
 40
0.0000000000
  9
$USRTIMER
 70
           1
  9
$ANGBASE
 50
0.0
  9
$ANGDIR
 70
           0
  9
$PDMODE
 70
           0
  9
$PDSIZE
 40
0.0
  9
$PLINEWID
 40
0.0
  9
$COORDS
 70
           0
  9
$SPLFRAME
 70
           0
  9
$SPLINETYPE
 70
           6
  9
$SPLINESEGS
 70
           8
  9
$ATTDIA
 70
           0
  9
$ATTREQ
 70
           1
  9
$HANDLING
 70
           1
  9
$HANDSEED
  5
308
  9
$SURFTAB1
 70
           6
  9
$SURFTAB2
 70
           6
  9
$SURFTYPE
 70
           6
  9
$SURFU
 70
           6
  9
$SURFV
 70
           6
  9
$UCSNAME
  2

  9
$UCSORG
 10
0.0
 20
0.0
 30
0.0
  9
$UCSXDIR
 10
1.0
 20
0.0
 30
0.0
  9
$UCSYDIR
 10
0.0
 20
1.0
 30
0.0
  9
$PUCSNAME
  2

  9
$PUCSORG
 10
0.0
 20
0.0
 30
0.0
  9
$PUCSXDIR
 10
1.0
 20
0.0
 30
0.0
  9
$PUCSYDIR
 10
0.0
 20
1.0
 30
0.0
  9
$USERI1
 70
           0
  9
$USERI2
 70
           0
  9
$USERI3
 70
           0
  9
$USERI4
 70
           0
  9
$USERI5
 70
           0
  9
$USERR1
 40
0.0
  9
$USERR2
 40
0.0
  9
$USERR3
 40
0.0
  9
$USERR4
 40
0.0
  9
$USERR5
 40
0.0
  9
$WORLDVIEW
 70
           1
  9
$SHADEDGE
 70
           3
  9
$SHADEDIF
 70
          70
  9
$TILEMODE
 70
           1
  9
$MAXACTVP
 70
          16
  9
$PINSBASE
 10
0.0
 20
0.0
 30
0.0
  9
$PLIMCHECK
 70
           0
  9
$PEXTMIN
 10
1.000000000000E+20
 20
1.000000000000E+20
 30
1.000000000000E+20
  9
$PEXTMAX
 10
-1.000000000000E+20
 20
-1.000000000000E+20
 30
-1.000000000000E+20
  9
$PLIMMIN
 10
0.0
 20
0.0
  9
$PLIMMAX
 10
12.0
 20
9.0
  9
$UNITMODE
 70
           0
  9
$VISRETAIN
 70
           0
  9
$PLINEGEN
 70
           1
  9
$PSLTSCALE
 70
           0
  9
$TREEDEPTH
 70
        3020
  9
$PICKSTYLE
 70
           1
  9
$CMLSTYLE
  2
STANDARD
  9
$CMLJUST
 70
           0
  9
$CMLSCALE
 40
1.0
  9
$PROXYGRAPHICS
 70
           0
  9
$MEASUREMENT
 70
           0
  0
ENDSEC
  0
SECTION
  2
CLASSES
  0
CLASS
  1
LWPOLYLINE
  2
AcDbPolyline
  3
"AutoCAD"
 90
        0
280
           0
281
           1
  0
CLASS
  1
IMAGE
  2
AcDbRasterImage
  3
ISM
 90
      127
280
           0
281
           1
  0
CLASS
  1
OLE2FRAME
  2
AcDbOle2Frame
  3
""
 90
        0
280
           0
281
           1
  0
CLASS
  1
HATCH
  2
AcDbHatch
  3
"ACAD_SEDONA"
 90
        0
280
           0
281
           1
  0
CLASS
  1
DICTIONARYVAR
  2
AcDbDictionaryVar
  3
"AutoCAD"
 90
        0
280
           0
281
           0
  0
CLASS
  1
RASTERVARIABLES
  2
AcDbRasterVariables
  3
ISM
 90
        0
280
           0
281
           0
  0
CLASS
  1
IMAGEDEF
  2
AcDbRasterImageDef
  3
ISM
 90
        0
280
           0
281
           0
  0
CLASS
  1
IMAGEDEF_REACTOR
  2
AcDbRasterImageDefReactor
  3
ISM
 90
        1
280
           0
281
           0
  0
CLASS
  1
IDBUFFER
  2
AcDbIdBuffer
  3
"Acad"
 90
        0
280
           0
281
           0
  0
CLASS
  1
SPATIAL_FILTER
  2
AcDbSpatialFilter
  3
"Acad"
 90
        0
280
           0
281
           0
  0
CLASS
  1
XRECORD
  2
AcDbXrecord
  3
"<Built In>"
 90
        0
280
           0
281
           0
  0
CLASS
  1
SORTENTSTABLE
  2
AcDbSortentsTable
  3
"AutoCAD"
 90
        0
280
           0
281
           0
  0
CLASS
  1
LAYER_INDEX
  2
AcDbLayerIndex
  3
"Acad"
 90
        0
280
           0
281
           0
  0
CLASS
  1
SPATIAL_INDEX
  2
AcDbSpatialIndex
  3
"Acad"
 90
        0
280
           0
281
           0
  0
CLASS
  1
OBJECT_PTR
  2
CAseDLPNTableRecord
  3
"ASE-LPNTableRecord"
 90
        1
280
           0
281
           0
  0
CLASS
  1
LAYOUT
  2
AcDbLayout
  3
"AutoCAD 2000"
 90
        1
280
           0
281
           0
  0
CLASS
  1
PLOTSETTINGS
  2
AcDbPlotSettings
  3
"AutoCAD 2000"
 90
        1
280
           0
281
           0
  0
CLASS
  1
ACDBDICTIONARYWDFLT
  2
AcDbDictionaryWithDefault
  3
"AutoCAD 2000"
 90
        1
280
           0
281
           0
  0
CLASS
  1
ACDBPLACEHOLDER
  2
AcDbPlaceHolder
  3
"AutoCAD 2000"
 90
        1
280
           0
281
           0
  0
CLASS
  1
VBA_PROJECT
  2
AcDbVbaProject
  3
"acadvba"
 90
        1
280
           0
281
           0
  0
CLASS
  1
WIPEOUT
  2
AcDbWipeout
  3
WipeOut|AutoCAD Express Tool|expresstools@autodesk.com
 90
      127
280
           0
281
           1
  0
CLASS
  1
WIPEOUTVARIABLES
  2
AcDbWipeoutVariables
  3
WipeOut|AutoCAD Express Tool|expresstools@autodesk.com
 90
        0
280
           0
281
           0
  0
CLASS
  1
RTEXT
  2
RText
  3
RText|AutoCAD Express Tool|expresstools@autodesk.com
 90
        0
280
           0
281
           1
  0
CLASS
  1
ARCALIGNEDTEXT
  2
AcDbArcAlignedText
  3
ATEXT|AutoCAD Express Tool|expresstools@autodesk.com
 90
        0
280
           0
281
           1
  0
ENDSEC
  0
SECTION
  2
TABLES
  0
TABLE
  2
VPORT
  5
7
100
AcDbSymbolTable
 70
           1
  0
VPORT
  5
15
100
AcDbSymbolTableRecord
100
AcDbViewportTableRecord
  2
*ACTIVE
 70
           0
 10
0.0
 20
0.0
 11
1.0
 21
1.0
 12
6.591288
 22
4.579184
 13
0.0
 23
0.0
 14
1.0
 24
1.0
 15
0.0
 25
0.0
 16
0.0
 26
0.0
 36
1.0
 17
0.0
 27
0.0
 37
0.0
 40
9.158369
 41
0.688564
 42
50.0
 43
0.0
 44
0.0
 50
0.0
 51
0.0
 71
           0
 72
         100
 73
           1
 74
           1
 75
           0
 76
           0
 77
           0
 78
           0
  0
ENDTAB
  0
TABLE
  2
LTYPE
  5
4
100
AcDbSymbolTable
 70
          10
  0
LTYPE
  5
11
100
AcDbSymbolTableRecord
100
AcDbLinetypeTableRecord
  2
BYBLOCK
 70
          64
  3

 72
          65
 73
           0
 40
0.0
  0
LTYPE
  5
12
100
AcDbSymbolTableRecord
100
AcDbLinetypeTableRecord
  2
BYLAYER
 70
          64
  3

 72
          65
 73
           0
 40
0.0
  0
LTYPE
  5
13
100
AcDbSymbolTableRecord
100
AcDbLinetypeTableRecord
  2
CONTINUOUS
 70
          64
  3
Solid line
 72
          65
 73
           0
 40
0.0
  0
LTYPE
  5
1D
100
AcDbSymbolTableRecord
100
AcDbLinetypeTableRecord
  2
DASHED
 70
          64
  3
Dashed
 72
          65
 73
           2
 40
15.0
 49
12.0
 74
           0
 49
-3.0
 74
           0
  0
LTYPE
  5
1E
100
AcDbSymbolTableRecord
100
AcDbLinetypeTableRecord
  2
DOTTED
 70
          64
  3
Dotted
 72
          65
 73
           2
 40
3.5
 49
0.5
 74
           0
 49
-3.0
 74
           0
  0
LTYPE
  5
1F
100
AcDbSymbolTableRecord
100
AcDbLinetypeTableRecord
  2
DOT_CENTER
 70
          64
  3
Dot_Center
 72
          65
 73
           4
 40
2.0
 49
1.25
 74
           0
 49
-0.25
 74
           0
 49
0.25
 74
           0
 49
-0.25
 74
           0
  0
LTYPE
  5
20
100
AcDbSymbolTableRecord
100
AcDbLinetypeTableRecord
  2
LONG_DASHED
 70
          64
  3
Long_Dashed
 72
          65
 73
           2
 40
2.0
 49
1.5
 74
           0
 49
-0.5
 74
           0
  0
LTYPE
  5
21
100
AcDbSymbolTableRecord
100
AcDbLinetypeTableRecord
  2
DASH_CENTER
 70
          64
  3
Dash_Center
 72
          65
 73
           4
 40
36.0
 49
24.0
 74
           0
 49
-3.0
 74
           0
 49
6.0
 74
           0
 49
-3.0
 74
           0
  0
LTYPE
  5
22
100
AcDbSymbolTableRecord
100
AcDbLinetypeTableRecord
  2
PHANTOM
 70
          64
  3
Phantom
 72
          65
 73
           6
 40
2.5
 49
1.25
 74
           0
 49
-0.25
 74
           0
 49
0.25
 74
           0
 49
-0.25
 74
           0
 49
0.25
 74
           0
 49
-0.25
 74
           0
  0
LTYPE
  5
23
100
AcDbSymbolTableRecord
100
AcDbLinetypeTableRecord
  2
CENTER_DASH_DASH
 70
          64
  3
Center_Dash_Dash
 72
          65
 73
           6
 40
22.0
 49
12.0
 74
           0
 49
-3.0
 74
           0
 49
0.5
 74
           0
 49
-3.0
 74
           0
 49
0.5
 74
           0
 49
-3.0
 74
           0
  0
ENDTAB
  0
TABLE
  2
LAYER
  5
2
100
AcDbSymbolTable
 70
           3
  0
LAYER
  5
14
100
AcDbSymbolTableRecord
100
AcDbLayerTableRecord
  2
0
 70
           0
 62
           7
  6
CONTINUOUS
  0
LAYER
  5
24
100
AcDbSymbolTableRecord
100
AcDbLayerTableRecord
  2
976
 70
           0
 62
           7
  6
CONTINUOUS
  0
LAYER
  5
25
100
AcDbSymbolTableRecord
100
AcDbLayerTableRecord
  2
1
 70
           0
 62
           7
  6
CONTINUOUS
  0
ENDTAB
  0
TABLE
  2
STYLE
  5
3
100
AcDbSymbolTable
 70
           1
  0
STYLE
  5
17
100
AcDbSymbolTableRecord
100
AcDbTextStyleTableRecord
  2
STANDARD
 70
           0
 40
0.0
 41
1.0
 50
0.0
 71
           0
 42
0.0
  3
txt
  4

  0
ENDTAB
  0
TABLE
  2
VIEW
  5
5
100
AcDbSymbolTable
 70
           0
  0
ENDTAB
  0
TABLE
  2
UCS
  5
6
100
AcDbSymbolTable
 70
           0
  0
ENDTAB
  0
TABLE
  2
APPID
  5
8
100
AcDbSymbolTable
 70
           1
  0
APPID
  5
16
100
AcDbSymbolTableRecord
100
AcDbRegAppTableRecord
  2
ACAD
 70
           0
  0
ENDTAB
  0
TABLE
  2
DIMSTYLE
  5
9
100
AcDbSymbolTable
 70
           1
  0
DIMSTYLE
105
18
100
AcDbSymbolTableRecord
100
AcDbDimStyleTableRecord
  2
STANDARD
 70
           0
  3

  4

  5

  6

  7

 40
1.0
 41
0.18
 42
0.0625
 43
0.38
 44
0.18
 45
0.0
 46
0.0
 47
0.0
 48
0.0
 71
           0
 72
           0
 73
           1
 74
           1
 75
           0
 76
           0
 77
           0
 78
           0
140
0.18
141
0.09
142
0.0
143
25.4
144
1.0
145
0.0
146
1.0
147
0.09
170
           0
171
           2
172
           0
173
           0
174
           0
175
           0
176
           0
177
           0
178
           0
270
           2
271
           4
272
           4
273
           2
274
           2
275
           0
280
           0
281
           0
282
           0
283
           1
284
           0
285
           0
286
           0
287
           0
288
           0
340
17
  0
ENDTAB
  0
TABLE
  2
BLOCK_RECORD
  5
1
100
AcDbSymbolTable
 70
           0
  0
BLOCK_RECORD
  5
A
100
AcDbSymbolTableRecord
100
AcDbBlockTableRecord
  2
*MODEL_SPACE
  0
BLOCK_RECORD
  5
B
100
AcDbSymbolTableRecord
100
AcDbBlockTableRecord
  2
*PAPER_SPACE
  0
ENDTAB
  0
ENDSEC
  0
SECTION
  2
BLOCKS
  0
BLOCK
  5
D
100
AcDbEntity
  8
0
100
AcDbBlockBegin
  2
*MODEL_SPACE
 70
           0
 10
0.0
 20
0.0
 30
0.0
  3
*MODEL_SPACE
  1

  0
ENDBLK
  5
E
100
AcDbEntity
  8
0
100
AcDbBlockEnd
  0
BLOCK
  5
F
100
AcDbEntity
 67
           1
  8
0
100
AcDbBlockBegin
  2
*PAPER_SPACE
 70
           0
 10
0.0
 20
0.0
 30
0.0
  3
*PAPER_SPACE
  1

  0
ENDBLK
  5
10
100
AcDbEntity
 67
           1
  8
0
100
AcDbBlockEnd
  0
ENDSEC
  0
SECTION
  2
ENTITIES
  0
HATCH
  5
306
100
AcDbEntity
  8
0
  6
CONTINUOUS
 62
           4
100
AcDbHatch
 10
0.0
 20
0.0
 30
0.0
210
0.0
220
0.0
230
1.0
  2
USER
 70
           0
 71
           1
 91
        1
 92
        1
 93
        4
 72
           1
 10
113.1330189507709
 20
877.24450984582916
 11
113.5605189507708
 21
877.24450984582893
 72
           1
 10
113.1330189507709
 20
875.53245436730947
 11
113.1330189507709
 21
877.24450984582916
 72
           2
 10
113.34676895077079
 20
864.41950984582888
 40
11.115000000000242
 50
88.898090160663
 51
91.101909839336
 73
           1
 72
           1
 10
113.5605189507708
 20
877.24450984582893
 11
113.5605189507708
 21
875.53245436730947
 97
        4
330
80
330
88
330
272
330
81
 75
           1
 76
           0
 52
45.0
 41
0.2
 77
           0
 78
           1
 53
45.0
 43
0.0
 44
0.0
 45
-0.1414213562373095
 46
0.1414213562373095
 79
           0
 98
        1
 10
0.0
 20
0.0
  0
HATCH
  5
305
100
AcDbEntity
  8
0
  6
CONTINUOUS
 62
           4
100
AcDbHatch
 10
0.0
 20
0.0
 30
0.0
210
0.0
220
0.0
230
1.0
  2
USER
 70
           0
 71
           1
 91
        1
 92
        1
 93
        4
 72
           1
 10
104.42926855653199
 20
873.63929838902504
 11
105.6398745951609
 21
872.42869235039632
 72
           1
 10
104.12698040757481
 20
873.3370102400678
 11
104.42926855653199
 21
873.63929838902504
 72
           1
 10
105.3375864462036
 20
872.12640420143896
 11
104.12698040757481
 21
873.3370102400678
 72
           2
 10
113.34676895077079
 20
864.41950984582888
 40
11.11500000000003
 50
133.898090160662
 51
136.101909839336
 73
           1
 97
        4
330
87
330
86
330
85
330
270
 75
           1
 76
           0
 52
45.0
 41
0.2
 77
           0
 78
           1
 53
45.0
 43
0.0
 44
0.0
 45
-0.1414213562373095
 46
0.1414213562373095
 79
           0
 98
        1
 10
0.0
 20
0.0
  0
HATCH
  5
304
100
AcDbEntity
  8
0
  6
CONTINUOUS
 62
           4
100
AcDbHatch
 10
0.0
 20
0.0
 30
0.0
210
0.0
220
0.0
230
1.0
  2
USER
 70
           0
 71
           1
 91
        1
 92
        1
 93
        4
 72
           1
 10
100.52176895077081
 20
864.633259845829
 11
102.23382442929049
 21
864.633259845829
 72
           1
 10
100.52176895077081
 20
864.20575984582888
 11
100.52176895077081
 21
864.633259845829
 72
           1
 10
102.23382442929049
 20
864.20575984582888
 11
100.52176895077081
 21
864.20575984582888
 72
           2
 10
113.34676895077079
 20
864.41950984582888
 40
11.114999999999959
 50
178.898090160662
 51
-178.898090160663
 73
           1
 97
        4
330
83
330
84
330
82
330
26E
 75
           1
 76
           0
 52
45.0
 41
0.2
 77
           0
 78
           1
 53
45.0
 43
0.0
 44
0.0
 45
-0.1414213562373095
 46
0.1414213562373095
 79
           0
 98
        1
 10
0.0
 20
0.0
  0
HATCH
  5
303
100
AcDbEntity
  8
0
  6
CONTINUOUS
 62
           4
100
AcDbHatch
 10
0.0
 20
0.0
 30
0.0
210
0.0
220
0.0
230
1.0
  2
USER
 70
           0
 71
           1
 91
        1
 92
        1
 93
        4
 72
           1
 10
121.0536633063809
 20
872.42869235039632
 11
122.26426934500969
 21
873.63929838902504
 72
           2
 10
113.34676895077079
 20
864.41950984582888
 40
11.115000000000295
 50
43.898090160663
 51
46.101909839337
 73
           1
 72
           1
 10
122.566557493967
 20
873.3370102400678
 11
121.3559514553382
 21
872.12640420143919
 72
           1
 10
122.26426934500969
 20
873.63929838902504
 11
122.566557493967
 21
873.3370102400678
 97
        4
330
89
330
26D
330
8A
330
8B
 75
           1
 76
           0
 52
45.0
 41
0.2
 77
           0
 78
           1
 53
45.0
 43
0.0
 44
0.0
 45
-0.1414213562373095
 46
0.1414213562373095
 79
           0
 98
        1
 10
0.0
 20
0.0
  0
HATCH
  5
302
100
AcDbEntity
  8
0
  6
CONTINUOUS
 62
           4
100
AcDbHatch
 10
0.0
 20
0.0
 30
0.0
210
0.0
220
0.0
230
1.0
  2
USER
 70
           0
 71
           1
 91
        1
 92
        1
 93
        5
 72
           1
 10
124.4597134722512
 20
864.633259845829
 11
126.1717689507708
 21
864.633259845829
 72
           2
 10
113.34676895077079
 20
864.41950984582888
 40
11.115000000000009
 50
0.0
 51
1.101909839338
 73
           1
 72
           2
 10
113.34676895077079
 20
864.41950984582888
 40
11.115000000000057
 50
-1.101909839337
 51
0.0
 73
           1
 72
           1
 10
126.1717689507708
 20
864.20575984582888
 11
124.4597134722512
 21
864.20575984582888
 72
           1
 10
126.1717689507708
 20
864.633259845829
 11
126.1717689507708
 21
864.20575984582888
 97
        5
330
8C
330
26B
330
267
330
8D
330
8E
 75
           1
 76
           0
 52
45.0
 41
0.2
 77
           0
 78
           1
 53
45.0
 43
0.0
 44
0.0
 45
-0.1414213562373095
 46
0.1414213562373095
 79
           0
 98
        1
 10
0.0
 20
0.0
  0
HATCH
  5
301
100
AcDbEntity
  8
0
  6
CONTINUOUS
 62
           4
100
AcDbHatch
 10
0.0
 20
0.0
 30
0.0
210
0.0
220
0.0
230
1.0
  2
USER
 70
           0
 71
           1
 91
        1
 92
        1
 93
        4
 72
           1
 10
121.3559514553382
 20
856.71261549021892
 11
122.566557493967
 21
855.5020094515902
 72
           2
 10
113.34676895077079
 20
864.41950984582888
 40
11.114999999999931
 50
-46.101909839336
 51
-43.898090160662
 73
           1
 72
           1
 10
122.26426934500959
 20
855.19972130263284
 11
121.0536633063809
 21
856.41032734126179
 72
           1
 10
122.566557493967
 20
855.5020094515902
 11
122.26426934500959
 21
855.19972130263284
 97
        4
330
8F
330
269
330
90
330
91
 75
           1
 76
           0
 52
45.0
 41
0.2
 77
           0
 78
           1
 53
45.0
 43
0.0
 44
0.0
 45
-0.1414213562373095
 46
0.1414213562373095
 79
           0
 98
        1
 10
0.0
 20
0.0
  0
ARC
  5
300
100
AcDbEntity
  8
1
  6
CONTINUOUS
 62
           7
100
AcDbCircle
 10
286.941830990305
 20
908.494899863057
 40
1.71
100
AcDbArc
 50
0.0
 51
90.0
  0
ARC
  5
2FF
100
AcDbEntity
  8
1
  6
CONTINUOUS
 62
           7
100
AcDbCircle
 10
279.246830990305
 20
908.494899863057
 40
1.71
100
AcDbArc
 50
90.0
 51
180.0
  0
ARC
  5
2FE
100
AcDbEntity
  8
1
  6
CONTINUOUS
 62
           7
100
AcDbCircle
 10
286.941830990305
 20
870.874899863057
 40
1.71
100
AcDbArc
 50
-90.0
 51
0.0
  0
ARC
  5
2FD
100
AcDbEntity
  8
1
  6
CONTINUOUS
 62
           7
100
AcDbCircle
 10
279.246830990305
 20
870.874899863057
 40
1.71
100
AcDbArc
 50
180.0
 51
-90.0
  0
ARC
  5
2FC
100
AcDbEntity
  8
1
  6
CONTINUOUS
 62
           7
100
AcDbCircle
 10
275.826830990305
 20
834.964899863057
 40
2.565
100
AcDbArc
 50
180.0
 51
-90.0
  0
ARC
  5
2FB
100
AcDbEntity
  8
1
  6
CONTINUOUS
 62
           7
100
AcDbCircle
 10
290.361830990305
 20
834.964899863057
 40
2.565
100
AcDbArc
 50
-90.0
 51
0.0
  0
ARC
  5
2FA
100
AcDbEntity
  8
1
  6
CONTINUOUS
 62
           7
100
AcDbCircle
 10
290.361830990305
 20
875.149899863057
 40
2.565
100
AcDbArc
 50
0.0
 51
90.0
  0
ARC
  5
2F9
100
AcDbEntity
  8
1
  6
CONTINUOUS
 62
           7
100
AcDbCircle
 10
275.826830990305
 20
875.149899863057
 40
2.565
100
AcDbArc
 50
90.0
 51
180.0
  0
ARC
  5
2F8
100
AcDbEntity
  8
1
  6
CONTINUOUS
 62
           7
100
AcDbCircle
 10
274.391093983072
 20
806.322720986317
 40
0.855
100
AcDbArc
 50
90.0
 51
168.756616930785
  0
ARC
  5
2F7
100
AcDbEntity
  8
1
  6
CONTINUOUS
 62
           7
100
AcDbCircle
 10
295.41059535591
 20
810.571749863057
 40
0.855
100
AcDbArc
 50
90.0
 51
174.289406862488
  0
ARC
  5
2F6
100
AcDbEntity
  8
1
  6
CONTINUOUS
 62
           7
100
AcDbCircle
 10
293.438163737025
 20
808.032720986317
 40
0.855
100
AcDbArc
 50
-90.0
 51
-5.710593137495
  0
ARC
  5
2F5
100
AcDbEntity
  8
1
  6
CONTINUOUS
 62
           7
100
AcDbCircle
 10
306.688066624699
 20
810.571749863057
 40
0.855
100
AcDbArc
 50
5.71059313751
 51
90.0
  0
ARC
  5
2F4
100
AcDbEntity
  8
1
  6
CONTINUOUS
 62
           7
100
AcDbCircle
 10
324.134330990305
 20
763.162916750525
 40
12.825
100
AcDbArc
 50
0.0
 51
50.964487101253
  0
ARC
  5
2F3
100
AcDbEntity
  8
1
  6
CONTINUOUS
 62
           7
100
AcDbCircle
 10
238.634330990305
 20
763.162916750525
 40
12.825
100
AcDbArc
 50
129.035512898746
 51
180.0
  0
ARC
  5
2F2
100
AcDbEntity
  8
1
  6
CONTINUOUS
 62
           7
100
AcDbCircle
 10
268.559544740305
 20
838.003675838817
 40
0.855
100
AcDbArc
 50
0.0
 51
90.0
  0
ARC
  5
2F1
100
AcDbEntity
  8
1
  6
CONTINUOUS
 62
           7
100
AcDbCircle
 10
254.024544740305
 20
838.003675838817
 40
0.855
100
AcDbArc
 50
90.0
 51
180.0
  0
ARC
  5
2F0
100
AcDbEntity
  8
1
  6
CONTINUOUS
 62
           7
100
AcDbCircle
 10
266.422044740305
 20
881.356640802275
 40
0.855
100
AcDbArc
 50
0.0
 51
90.0
  0
ARC
  5
2EF
100
AcDbEntity
  8
1
  6
CONTINUOUS
 62
           7
100
AcDbCircle
 10
266.422044740305
 20
848.011640802275
 40
0.855
100
AcDbArc
 50
-90.0
 51
0.0
  0
ARC
  5
2EE
100
AcDbEntity
  8
1
  6
CONTINUOUS
 62
           7
100
AcDbCircle
 10
247.612044740305
 20
847.584140802275
 40
0.855
100
AcDbArc
 50
180.0
 51
-90.0
  0
ARC
  5
2ED
100
AcDbEntity
  8
1
  6
CONTINUOUS
 62
           7
100
AcDbCircle
 10
247.612044740305
 20
881.784140802275
 40
0.855
100
AcDbArc
 50
90.0
 51
180.0
  0
ARC
  5
2EC
100
AcDbEntity
  8
1
  6
CONTINUOUS
 62
           7
100
AcDbCircle
 10
250.903559814459
 20
833.870499863057
 40
0.855
100
AcDbArc
 50
0.0
 51
90.0
  0
ARC
  5
2EB
100
AcDbEntity
  8
1
  6
CONTINUOUS
 62
           7
100
AcDbCircle
 10
250.903559814459
 20
805.227999863057
 40
0.855
100
AcDbArc
 50
-90.0
 51
0.0
  0
ARC
  5
2EA
100
AcDbEntity
  8
1
  6
CONTINUOUS
 62
           7
100
AcDbCircle
 10
156.096768950771
 20
761.837526733297
 40
12.825
100
AcDbArc
 50
0.0
 51
50.964487101253
  0
ARC
  5
2E9
100
AcDbEntity
  8
1
  6
CONTINUOUS
 62
           7
100
AcDbCircle
 10
70.596768950771
 20
761.837526733297
 40
12.825
100
AcDbArc
 50
129.035512898745
 51
180.0
  0
ARC
  5
2E8
100
AcDbEntity
  8
1
  6
CONTINUOUS
 62
           7
100
AcDbCircle
 10
131.301768950771
 20
856.724509845829
 40
1.71
100
AcDbArc
 50
0.0
 51
90.0
  0
ARC
  5
2E7
100
AcDbEntity
  8
1
  6
CONTINUOUS
 62
           7
100
AcDbCircle
 10
144.554268950771
 20
887.740112995891
 40
17.1
100
AcDbArc
 50
-79.743872630995
 51
-0.000000000001
  0
ARC
  5
2E6
100
AcDbEntity
  8
1
  6
CONTINUOUS
 62
           7
100
AcDbCircle
 10
82.139268950771
 20
887.740112995891
 40
17.1
100
AcDbArc
 50
180.0
 51
-100.256127369004
  0
ARC
  5
2E5
100
AcDbEntity
  8
1
  6
CONTINUOUS
 62
           7
100
AcDbCircle
 10
77.864268950771
 20
892.896665406984
 40
12.825
100
AcDbArc
 50
100.171533976578
 51
180.0
  0
ARC
  5
2E4
100
AcDbEntity
  8
1
  6
CONTINUOUS
 62
           7
100
AcDbCircle
 10
144.554268950771
 20
887.740112995891
 40
8.55
100
AcDbArc
 50
-79.743872630995
 51
0.0
  0
ARC
  5
2E3
100
AcDbEntity
  8
1
  6
CONTINUOUS
 62
           7
100
AcDbCircle
 10
148.829268950771
 20
892.896665406984
 40
4.275
100
AcDbArc
 50
0.0
 51
79.828466023422
  0
ARC
  5
2E2
100
AcDbEntity
  8
1
  6
CONTINUOUS
 62
           7
100
AcDbCircle
 10
77.864268950771
 20
892.896665406984
 40
4.275
100
AcDbArc
 50
100.171533976577
 51
180.0
  0
ARC
  5
2E1
100
AcDbEntity
  8
1
  6
CONTINUOUS
 62
           7
100
AcDbCircle
 10
82.139268950771
 20
887.740112995891
 40
8.55
100
AcDbArc
 50
180.0
 51
-100.256127369004
  0
ARC
  5
2E0
100
AcDbEntity
  8
1
  6
CONTINUOUS
 62
           7
100
AcDbCircle
 10
148.829268950771
 20
892.896665406984
 40
12.825
100
AcDbArc
 50
-0.000000000001
 51
79.828466023421
  0
SPLINE
  5
2DF
100
AcDbEntity
  8
1
  6
CONTINUOUS
 62
           7
100
AcDbSpline
210
0.0
220
0.0
230
1.0
 70
           0
 71
           3
 72
           6
 73
           3
 74
           3
 42
0.00000000001
 43
0.00000000001
 44
0.00000000001
 40
0.0
 40
0.0
 40
0.0
 40
6.4754839717733912
 40
6.4754839717733912
 40
6.4754839717733912
 10
248.9918451744681
 20
801.16674986305691
 30
0.0
 10
250.89535802107429
 20
803.72561131804184
 30
0.0
 10
252.95733517446811
 20
801.16674986305691
 30
0.0
 11
248.9918451744681
 21
801.16674986305691
 31
0.0
 11
250.93497409777117
 21
802.44618059054937
 31
0.0
 11
252.95733517446811
 21
801.16674986305691
 31
0.0
  0
SPLINE
  5
2DE
100
AcDbEntity
  8
1
  6
CONTINUOUS
 62
           7
100
AcDbSpline
210
0.0
220
0.0
230
1.0
 70
           0
 71
           3
 72
           6
 73
           3
 74
           3
 42
0.00000000001
 43
0.00000000001
 44
0.00000000001
 40
0.0
 40
0.0
 40
0.0
 40
6.4883847985362308
 40
6.4883847985362308
 40
6.4883847985362308
 10
254.77506517446841
 20
801.16674986305691
 30
0.0
 10
256.63900772445999
 20
803.73280997862673
 30
0.0
 10
258.74055517446823
 20
801.16674986305691
 30
0.0
 11
254.77506517446841
 21
801.16674986305691
 31
0.0
 11
256.69840894946412
 21
802.44977992084182
 31
0.0
 11
258.74055517446823
 21
801.16674986305691
 31
0.0
  0
SPLINE
  5
2DD
100
AcDbEntity
  8
1
  6
CONTINUOUS
 62
           7
100
AcDbSpline
210
0.0
220
0.0
230
1.0
 70
           0
 71
           3
 72
           6
 73
           3
 74
           3
 42
0.00000000001
 43
0.00000000001
 44
0.00000000001
 40
0.0
 40
0.0
 40
0.0
 40
6.4659084560989495
 40
6.4659084560989495
 40
6.4659084560989495
 10
260.55828517446838
 20
801.16674986305691
 30
0.0
 10
262.51754308261269
 20
803.72025160580415
 30
0.0
 10
264.5237751744682
 20
801.16674986305691
 30
0.0
 11
260.55828517446838
 21
801.16674986305691
 31
0.0
 11
262.52928662854049
 21
802.44350073443047
 31
0.0
 11
264.5237751744682
 21
801.16674986305691
 31
0.0
  0
SPLINE
  5
2DC
100
AcDbEntity
  8
1
  6
CONTINUOUS
 62
           7
100
AcDbSpline
210
0.0
220
0.0
230
1.0
 70
           0
 71
           3
 72
           6
 73
           3
 74
           3
 42
0.00000000001
 43
0.00000000001
 44
0.00000000001
 40
0.0
 40
0.0
 40
0.0
 40
6.4659084560989495
 40
6.4659084560989495
 40
6.4659084560989495
 10
260.55828517446838
 20
801.16674986305691
 30
0.0
 10
262.51754308261269
 20
803.72025160580415
 30
0.0
 10
264.5237751744682
 20
801.16674986305691
 30
0.0
 11
260.55828517446838
 21
801.16674986305691
 31
0.0
 11
262.52928662854049
 21
802.44350073443047
 31
0.0
 11
264.5237751744682
 21
801.16674986305691
 31
0.0
  0
SPLINE
  5
2DB
100
AcDbEntity
  8
1
  6
CONTINUOUS
 62
           7
100
AcDbSpline
210
0.0
220
0.0
230
1.0
 70
           0
 71
           3
 72
           6
 73
           3
 74
           3
 42
0.00000000001
 43
0.00000000001
 44
0.00000000001
 40
0.0
 40
0.0
 40
0.0
 40
6.465908456098914
 40
6.465908456098914
 40
6.465908456098914
 10
302.21037680614148
 20
801.16674986305691
 30
0.0
 10
300.25111889799717
 20
803.72025160580415
 30
0.0
 10
298.24488680614172
 20
801.16674986305691
 30
0.0
 11
302.21037680614148
 21
801.16674986305691
 31
0.0
 11
300.23937535206937
 21
802.44350073443047
 31
0.0
 11
298.24488680614172
 21
801.16674986305691
 31
0.0
  0
SPLINE
  5
2DA
100
AcDbEntity
  8
1
  6
CONTINUOUS
 62
           7
100
AcDbSpline
210
0.0
220
0.0
230
1.0
 70
           0
 71
           3
 72
           6
 73
           3
 74
           3
 42
0.00000000001
 43
0.00000000001
 44
0.00000000001
 40
0.0
 40
0.0
 40
0.0
 40
6.4883847985363357
 40
6.4883847985363357
 40
6.4883847985363357
 10
307.99359680614151
 20
801.16674986305691
 30
0.0
 10
306.12965425614988
 20
803.73280997862673
 30
0.0
 10
304.02810680614152
 20
801.16674986305691
 30
0.0
 11
307.99359680614151
 21
801.16674986305691
 31
0.0
 11
306.07025303114568
 21
802.44977992084182
 31
0.0
 11
304.02810680614152
 21
801.16674986305691
 31
0.0
  0
SPLINE
  5
2D9
100
AcDbEntity
  8
1
  6
CONTINUOUS
 62
           7
100
AcDbSpline
210
0.0
220
0.0
230
1.0
 70
           0
 71
           3
 72
           6
 73
           3
 74
           3
 42
0.00000000001
 43
0.00000000001
 44
0.00000000001
 40
0.0
 40
0.0
 40
0.0
 40
6.4754839717734427
 40
6.4754839717734427
 40
6.4754839717734427
 10
313.77681680614182
 20
801.16674986305691
 30
0.0
 10
311.87330395953558
 20
803.72561131804184
 30
0.0
 10
309.81132680614172
 20
801.16674986305691
 30
0.0
 11
313.77681680614182
 21
801.16674986305691
 31
0.0
 11
311.83368788283866
 21
802.44618059054926
 31
0.0
 11
309.81132680614172
 21
801.16674986305691
 31
0.0
  0
SPLINE
  5
2D8
100
AcDbEntity
  8
1
  6
CONTINUOUS
 62
           7
100
AcDbSpline
210
0.0
220
0.0
230
1.0
 70
           0
 71
           3
 72
           6
 73
           3
 74
           3
 42
0.00000000001
 43
0.00000000001
 44
0.00000000001
 40
0.0
 40
0.0
 40
0.0
 40
2.1269517575974008
 40
2.1269517575974008
 40
2.1269517575974008
 10
236.89747976421839
 20
801.16674986305691
 30
0.0
 10
237.49528953058709
 20
801.93736204945537
 30
0.0
 10
238.3511208984622
 20
801.16674986305691
 30
0.0
 11
236.89747976421839
 21
801.16674986305691
 31
0.0
 11
237.5597949309637
 21
801.55205595625614
 31
0.0
 11
238.3511208984622
 21
801.16674986305691
 31
0.0
  0
SPLINE
  5
2D7
100
AcDbEntity
  8
1
  6
CONTINUOUS
 62
           7
100
AcDbSpline
210
0.0
220
0.0
230
1.0
 70
           0
 71
           3
 72
           6
 73
           3
 74
           3
 42
0.00000000001
 43
0.00000000001
 44
0.00000000001
 40
0.0
 40
0.0
 40
0.0
 40
5.8122122618927659
 40
5.8122122618927659
 40
5.8122122618927659
 10
239.17213174181629
 20
801.16674986305691
 30
0.0
 10
240.48081309954009
 20
803.73303800792746
 30
0.0
 10
241.8978096351839
 20
801.16674986305691
 30
0.0
 11
239.17213174181629
 21
801.16674986305691
 31
0.0
 11
240.50789189402008
 21
802.44989393549213
 31
0.0
 11
241.8978096351839
 21
801.16674986305691
 31
0.0
  0
SPLINE
  5
2D6
100
AcDbEntity
  8
1
  6
CONTINUOUS
 62
           7
100
AcDbSpline
210
0.0
220
0.0
230
1.0
 70
           0
 71
           3
 72
           6
 73
           3
 74
           3
 42
0.00000000001
 43
0.00000000001
 44
0.00000000001
 40
0.0
 40
0.0
 40
0.0
 40
6.4842049521160359
 40
6.4842049521160359
 40
6.4842049521160359
 10
243.20853583580029
 20
801.16674986305691
 30
0.0
 10
245.18865965471801
 20
803.73175713605667
 30
0.0
 10
247.17437056258851
 20
801.16674986305691
 30
0.0
 11
243.20853583580029
 21
801.16674986305691
 31
0.0
 11
245.1900564269562
 21
802.44925349955679
 31
0.0
 11
247.17437056258851
 21
801.16674986305691
 31
0.0
  0
SPLINE
  5
2D5
100
AcDbEntity
  8
1
  6
CONTINUOUS
 62
           7
100
AcDbSpline
210
0.0
220
0.0
230
1.0
 70
           0
 71
           3
 72
           6
 73
           3
 74
           3
 42
0.00000000001
 43
0.00000000001
 44
0.00000000001
 40
0.0
 40
0.0
 40
0.0
 40
6.4842049521160359
 40
6.4842049521160359
 40
6.4842049521160359
 10
243.20853583580029
 20
801.16674986305691
 30
0.0
 10
245.18865965471801
 20
803.73175713605667
 30
0.0
 10
247.17437056258851
 20
801.16674986305691
 30
0.0
 11
243.20853583580029
 21
801.16674986305691
 31
0.0
 11
245.1900564269562
 21
802.44925349955679
 31
0.0
 11
247.17437056258851
 21
801.16674986305691
 31
0.0
  0
SPLINE
  5
2D4
100
AcDbEntity
  8
1
  6
CONTINUOUS
 62
           7
100
AcDbSpline
210
0.0
220
0.0
230
1.0
 70
           0
 71
           4
 72
           9
 73
           5
 74
           7
 42
0.00000000001
 43
0.00000000001
 44
0.00000000001
 40
22.302862300275169
 40
22.302862300275169
 40
22.302862300275169
 40
22.302862300275169
 40
39.319921429146639
 40
55.274038357918684
 40
55.274038357918684
 40
55.274038357918684
 40
55.274038357918684
 10
290.25495599030472
 20
811.4267498630569
 30
0.0
 10
293.77088963114443
 20
806.79654399201092
 30
0.0
 10
285.66788782867133
 20
799.06002345783838
 30
0.0
 10
291.79725360799119
 20
789.96612456171101
 30
0.0
 10
289.09103055547121
 20
785.77674986305692
 30
0.0
 11
290.25495599030472
 21
811.4267498630569
 31
0.0
 11
291.63040124001606
 21
806.97196367572099
 31
0.0
 11
290.4269814356
 21
802.72004414402409
 31
0.0
 11
289.19786416925035
 21
798.44903220029346
 31
0.0
 11
289.60866387328849
 21
794.28013331254579
 31
0.0
 11
290.24005116368886
 21
790.01686844988205
 31
0.0
 11
289.09103055547121
 21
785.77674986305692
 31
0.0
  0
SPLINE
  5
2D3
100
AcDbEntity
  8
1
  6
CONTINUOUS
 62
           7
100
AcDbSpline
210
0.0
220
0.0
230
1.0
 70
           0
 71
           3
 72
           6
 73
           3
 74
           3
 42
0.00000000001
 43
0.00000000001
 44
0.00000000001
 40
0.0
 40
0.0
 40
0.0
 40
6.4842049521158964
 40
6.4842049521158964
 40
6.4842049521158964
 10
319.56012614480932
 20
801.16674986305691
 30
0.0
 10
317.5800023258916
 20
803.73175713605667
 30
0.0
 10
315.59429141802133
 20
801.16674986305691
 30
0.0
 11
319.56012614480932
 21
801.16674986305691
 31
0.0
 11
317.57860555365346
 21
802.44925349955679
 31
0.0
 11
315.59429141802133
 21
801.16674986305691
 31
0.0
  0
SPLINE
  5
2D2
100
AcDbEntity
  8
1
  6
CONTINUOUS
 62
           7
100
AcDbSpline
210
0.0
220
0.0
230
1.0
 70
           0
 71
           3
 72
           6
 73
           3
 74
           3
 42
0.00000000001
 43
0.00000000001
 44
0.00000000001
 40
0.0
 40
0.0
 40
0.0
 40
5.8122122618928245
 40
5.8122122618928245
 40
5.8122122618928245
 10
323.59653023879332
 20
801.16674986305691
 30
0.0
 10
322.28784888106969
 20
803.73303800792746
 30
0.0
 10
320.87085234542559
 20
801.16674986305691
 30
0.0
 11
323.59653023879332
 21
801.16674986305691
 31
0.0
 11
322.26077008658956
 21
802.44989393549213
 31
0.0
 11
320.87085234542559
 21
801.16674986305691
 31
0.0
  0
SPLINE
  5
2D1
100
AcDbEntity
  8
1
  6
CONTINUOUS
 62
           7
100
AcDbSpline
210
0.0
220
0.0
230
1.0
 70
           0
 71
           3
 72
           6
 73
           3
 74
           3
 42
0.00000000001
 43
0.00000000001
 44
0.00000000001
 40
0.0
 40
0.0
 40
0.0
 40
2.1269517575973462
 40
2.1269517575973462
 40
2.1269517575973462
 10
325.87118221639128
 20
801.16674986305691
 30
0.0
 10
325.2733724500228
 20
801.93736204945537
 30
0.0
 10
324.41754108214758
 20
801.16674986305691
 30
0.0
 11
325.87118221639128
 21
801.16674986305691
 31
0.0
 11
325.20886704964613
 21
801.55205595625614
 31
0.0
 11
324.41754108214758
 21
801.16674986305691
 31
0.0
  0
SPLINE
  5
2D0
100
AcDbEntity
  8
1
  6
CONTINUOUS
 62
           7
100
AcDbSpline
210
0.0
220
0.0
230
1.0
 70
           0
 71
           3
 72
           6
 73
           3
 74
           3
 42
0.00000000001
 43
0.00000000001
 44
0.00000000001
 40
0.0
 40
0.0
 40
0.0
 40
6.4373572539893331
 40
6.4373572539893331
 40
6.4373572539893331
 10
266.34150517446818
 20
801.16674986305691
 30
0.0
 10
268.24983650842807
 20
803.70154339606995
 30
0.0
 10
270.30699517446823
 20
801.16674986305691
 30
0.0
 11
266.34150517446818
 21
801.16674986305691
 31
0.0
 11
268.28704334144817
 21
802.43414662956343
 31
0.0
 11
270.30699517446823
 21
801.16674986305691
 31
0.0
  0
SPLINE
  5
2CF
100
AcDbEntity
  8
1
  6
CONTINUOUS
 62
           7
100
AcDbSpline
210
0.0
220
0.0
230
1.0
 70
           0
 71
           3
 72
           6
 73
           3
 74
           3
 42
0.00000000001
 43
0.00000000001
 44
0.00000000001
 40
0.0
 40
0.0
 40
0.0
 40
6.4292935739764898
 40
6.4292935739764898
 40
6.4292935739764898
 10
290.6439368061412
 20
801.16674986305691
 30
0.0
 10
288.63257858273482
 20
803.6970006356953
 30
0.0
 10
286.67844680614138
 20
801.16674986305691
 30
0.0
 11
290.6439368061412
 21
801.16674986305691
 31
0.0
 11
288.64688519443808
 21
802.43187524937605
 31
0.0
 11
286.67844680614138
 21
801.16674986305691
 31
0.0
  0
SPLINE
  5
2CE
100
AcDbEntity
  8
1
  6
CONTINUOUS
 62
           7
100
AcDbSpline
210
0.0
220
0.0
230
1.0
 70
           0
 71
           3
 72
           6
 73
           3
 74
           3
 42
0.00000000001
 43
0.00000000001
 44
0.00000000001
 40
0.0
 40
0.0
 40
0.0
 40
6.437357253989604
 40
6.437357253989604
 40
6.437357253989604
 10
296.42715680614168
 20
801.16674986305691
 30
0.0
 10
294.51882547218128
 20
803.70154339606995
 30
0.0
 10
292.46166680614118
 20
801.16674986305691
 30
0.0
 11
296.42715680614168
 21
801.16674986305691
 31
0.0
 11
294.48161863916135
 21
802.43414662956343
 31
0.0
 11
292.46166680614118
 21
801.16674986305691
 31
0.0
  0
SPLINE
  5
2CD
100
AcDbEntity
  8
1
  6
CONTINUOUS
 62
           7
100
AcDbSpline
210
0.0
220
0.0
230
1.0
 70
           0
 71
           3
 72
           6
 73
           3
 74
           3
 42
0.00000000001
 43
0.00000000001
 44
0.00000000001
 40
0.0
 40
0.0
 40
0.0
 40
6.8237698819280794
 40
6.8237698819280794
 40
6.8237698819280794
 10
272.12472517446798
 20
801.16674986305691
 30
0.0
 10
274.49881319623501
 20
803.70860760235996
 30
0.0
 10
276.67420212840318
 20
801.16674986305691
 30
0.0
 11
272.12472517446798
 21
801.16674986305691
 31
0.0
 11
274.44913842383528
 21
802.43767873270838
 31
0.0
 11
276.67420212840318
 21
801.16674986305691
 31
0.0
  0
SPLINE
  5
2CC
100
AcDbEntity
  8
1
  6
CONTINUOUS
 62
           7
100
AcDbSpline
210
0.0
220
0.0
230
1.0
 70
           0
 71
           3
 72
           6
 73
           3
 74
           3
 42
0.00000000001
 43
0.00000000001
 44
0.00000000001
 40
0.0
 40
0.0
 40
0.0
 40
7.1127156440915869
 40
7.1127156440915869
 40
7.1127156440915869
 10
278.78366971222812
 20
801.16674986305691
 30
0.0
 10
281.32304566906441
 20
803.69897289313315
 30
0.0
 10
283.77751133924119
 20
801.16674986305691
 30
0.0
 11
278.78366971222812
 21
801.16674986305691
 31
0.0
 11
281.30181809739952
 21
802.43286137809503
 31
0.0
 11
283.77751133924119
 21
801.16674986305691
 31
0.0
  0
SPLINE
  5
2CB
100
AcDbEntity
  8
1
  6
CONTINUOUS
 62
           7
100
AcDbSpline
210
0.0
220
0.0
230
1.0
 70
           0
 71
           3
 72
           6
 73
           3
 74
           3
 42
0.00000000001
 43
0.00000000001
 44
0.00000000001
 40
0.0
 40
0.0
 40
0.0
 40
6.475483971773035
 40
6.475483971773035
 40
6.475483971773035
 10
80.954283134934229
 20
799.84135984582906
 30
0.0
 10
82.857795981540278
 20
802.40022130081377
 30
0.0
 10
84.919773134934246
 20
799.84135984582906
 30
0.0
 11
80.954283134934229
 21
799.84135984582906
 31
0.0
 11
82.897412058237251
 21
801.12079057332141
 31
0.0
 11
84.919773134934246
 21
799.84135984582906
 31
0.0
  0
SPLINE
  5
2CA
100
AcDbEntity
  8
1
  6
CONTINUOUS
 62
           7
100
AcDbSpline
210
0.0
220
0.0
230
1.0
 70
           0
 71
           3
 72
           6
 73
           3
 74
           3
 42
0.00000000001
 43
0.00000000001
 44
0.00000000001
 40
0.0
 40
0.0
 40
0.0
 40
6.4883847985362229
 40
6.4883847985362229
 40
6.4883847985362229
 10
86.737503134934229
 20
799.84135984582906
 30
0.0
 10
88.601445684925977
 20
802.40741996139877
 30
0.0
 10
90.702993134934331
 20
799.84135984582906
 30
0.0
 11
86.737503134934229
 21
799.84135984582906
 31
0.0
 11
88.660846909930129
 21
801.12438990361397
 31
0.0
 11
90.702993134934331
 21
799.84135984582906
 31
0.0
  0
SPLINE
  5
2C9
100
AcDbEntity
  8
1
  6
CONTINUOUS
 62
           7
100
AcDbSpline
210
0.0
220
0.0
230
1.0
 70
           0
 71
           3
 72
           6
 73
           3
 74
           3
 42
0.00000000001
 43
0.00000000001
 44
0.00000000001
 40
0.0
 40
0.0
 40
0.0
 40
6.4659084560988198
 40
6.4659084560988198
 40
6.4659084560988198
 10
92.520723134934315
 20
799.84135984582906
 30
0.0
 10
94.479981043078851
 20
802.39486158857619
 30
0.0
 10
96.486213134934218
 20
799.84135984582906
 30
0.0
 11
92.520723134934315
 21
799.84135984582906
 31
0.0
 11
94.491724589006566
 21
801.11811071720263
 31
0.0
 11
96.486213134934218
 21
799.84135984582906
 31
0.0
  0
SPLINE
  5
2C8
100
AcDbEntity
  8
1
  6
CONTINUOUS
 62
           7
100
AcDbSpline
210
0.0
220
0.0
230
1.0
 70
           0
 71
           3
 72
           6
 73
           3
 74
           3
 42
0.00000000001
 43
0.00000000001
 44
0.00000000001
 40
0.0
 40
0.0
 40
0.0
 40
6.4659084560988198
 40
6.4659084560988198
 40
6.4659084560988198
 10
92.520723134934315
 20
799.84135984582906
 30
0.0
 10
94.479981043078851
 20
802.39486158857619
 30
0.0
 10
96.486213134934218
 20
799.84135984582906
 30
0.0
 11
92.520723134934315
 21
799.84135984582906
 31
0.0
 11
94.491724589006566
 21
801.11811071720263
 31
0.0
 11
96.486213134934218
 21
799.84135984582906
 31
0.0
  0
SPLINE
  5
2C7
100
AcDbEntity
  8
1
  6
CONTINUOUS
 62
           7
100
AcDbSpline
210
0.0
220
0.0
230
1.0
 70
           0
 71
           3
 72
           6
 73
           3
 74
           3
 42
0.00000000001
 43
0.00000000001
 44
0.00000000001
 40
0.0
 40
0.0
 40
0.0
 40
6.4659084560988198
 40
6.4659084560988198
 40
6.4659084560988198
 10
134.1728147666077
 20
799.84135984582906
 30
0.0
 10
132.21355685846319
 20
802.39486158857619
 30
0.0
 10
130.2073247666078
 20
799.84135984582906
 30
0.0
 11
134.1728147666077
 21
799.84135984582906
 31
0.0
 11
132.20181331253548
 21
801.11811071720263
 31
0.0
 11
130.2073247666078
 21
799.84135984582906
 31
0.0
  0
SPLINE
  5
2C6
100
AcDbEntity
  8
1
  6
CONTINUOUS
 62
           7
100
AcDbSpline
210
0.0
220
0.0
230
1.0
 70
           0
 71
           3
 72
           6
 73
           3
 74
           3
 42
0.00000000001
 43
0.00000000001
 44
0.00000000001
 40
0.0
 40
0.0
 40
0.0
 40
6.4883847985361527
 40
6.4883847985361527
 40
6.4883847985361527
 10
139.9560347666077
 20
799.84135984582906
 30
0.0
 10
138.09209221661601
 20
802.40741996139877
 30
0.0
 10
135.99054476660771
 20
799.84135984582906
 30
0.0
 11
139.9560347666077
 21
799.84135984582906
 31
0.0
 11
138.03269099161187
 21
801.12438990361397
 31
0.0
 11
135.99054476660771
 21
799.84135984582906
 31
0.0
  0
SPLINE
  5
2C5
100
AcDbEntity
  8
1
  6
CONTINUOUS
 62
           7
100
AcDbSpline
210
0.0
220
0.0
230
1.0
 70
           0
 71
           3
 72
           6
 73
           3
 74
           3
 42
0.00000000001
 43
0.00000000001
 44
0.00000000001
 40
0.0
 40
0.0
 40
0.0
 40
6.4754839717730164
 40
6.4754839717730164
 40
6.4754839717730164
 10
145.73925476660779
 20
799.84135984582906
 30
0.0
 10
143.83574192000171
 20
802.40022130081377
 30
0.0
 10
141.7737647666078
 20
799.84135984582906
 30
0.0
 11
145.73925476660779
 21
799.84135984582906
 31
0.0
 11
143.79612584330474
 21
801.12079057332141
 31
0.0
 11
141.7737647666078
 21
799.84135984582906
 31
0.0
  0
SPLINE
  5
2C4
100
AcDbEntity
  8
1
  6
CONTINUOUS
 62
           7
100
AcDbSpline
210
0.0
220
0.0
230
1.0
 70
           0
 71
           3
 72
           6
 73
           3
 74
           3
 42
0.00000000001
 43
0.00000000001
 44
0.00000000001
 40
0.0
 40
0.0
 40
0.0
 40
2.1269517575973276
 40
2.1269517575973276
 40
2.1269517575973276
 10
68.859917724684578
 20
799.84135984582906
 30
0.0
 10
69.457727491053191
 20
800.61197203222753
 30
0.0
 10
70.313558858928275
 20
799.84135984582906
 30
0.0
 11
68.859917724684578
 21
799.84135984582906
 31
0.0
 11
69.522232891429809
 21
800.22666593902829
 31
0.0
 11
70.313558858928275
 21
799.84135984582906
 31
0.0
  0
SPLINE
  5
2C3
100
AcDbEntity
  8
1
  6
CONTINUOUS
 62
           7
100
AcDbSpline
210
0.0
220
0.0
230
1.0
 70
           0
 71
           3
 72
           6
 73
           3
 74
           3
 42
0.00000000001
 43
0.00000000001
 44
0.00000000001
 40
0.0
 40
0.0
 40
0.0
 40
5.8122122618928351
 40
5.8122122618928351
 40
5.8122122618928351
 10
71.134569702282363
 20
799.84135984582906
 30
0.0
 10
72.443251060006105
 20
802.40764799069962
 30
0.0
 10
73.860247595650122
 20
799.84135984582906
 30
0.0
 11
71.134569702282363
 21
799.84135984582906
 31
0.0
 11
72.470329854486181
 21
801.12450391826439
 31
0.0
 11
73.860247595650122
 21
799.84135984582906
 31
0.0
  0
SPLINE
  5
2C2
100
AcDbEntity
  8
1
  6
CONTINUOUS
 62
           7
100
AcDbSpline
210
0.0
220
0.0
230
1.0
 70
           0
 71
           3
 72
           6
 73
           3
 74
           3
 42
0.00000000001
 43
0.00000000001
 44
0.00000000001
 40
0.0
 40
0.0
 40
0.0
 40
6.4842049521160536
 40
6.4842049521160536
 40
6.4842049521160536
 10
75.170973796266367
 20
799.84135984582906
 30
0.0
 10
77.151097615184227
 20
802.40636711882883
 30
0.0
 10
79.136808523054611
 20
799.84135984582906
 30
0.0
 11
75.170973796266367
 21
799.84135984582906
 31
0.0
 11
77.152494387422337
 21
801.12386348232883
 31
0.0
 11
79.136808523054611
 21
799.84135984582906
 31
0.0
  0
SPLINE
  5
2C1
100
AcDbEntity
  8
1
  6
CONTINUOUS
 62
           7
100
AcDbSpline
210
0.0
220
0.0
230
1.0
 70
           0
 71
           3
 72
           6
 73
           3
 74
           3
 42
0.00000000001
 43
0.00000000001
 44
0.00000000001
 40
0.0
 40
0.0
 40
0.0
 40
6.4842049521160536
 40
6.4842049521160536
 40
6.4842049521160536
 10
75.170973796266367
 20
799.84135984582906
 30
0.0
 10
77.151097615184227
 20
802.40636711882883
 30
0.0
 10
79.136808523054611
 20
799.84135984582906
 30
0.0
 11
75.170973796266367
 21
799.84135984582906
 31
0.0
 11
77.152494387422337
 21
801.12386348232883
 31
0.0
 11
79.136808523054611
 21
799.84135984582906
 31
0.0
  0
SPLINE
  5
2C0
100
AcDbEntity
  8
1
  6
CONTINUOUS
 62
           7
100
AcDbSpline
210
0.0
220
0.0
230
1.0
 70
           0
 71
           4
 72
           9
 73
           5
 74
           7
 42
0.00000000001
 43
0.00000000001
 44
0.00000000001
 40
22.302862300275169
 40
22.302862300275169
 40
22.302862300275169
 40
22.302862300275169
 40
39.319921429146341
 40
55.2740383579183
 40
55.2740383579183
 40
55.2740383579183
 40
55.2740383579183
 10
122.217393950771
 20
810.10135984582905
 30
0.0
 10
125.7333275916103
 20
805.47115397478296
 30
0.0
 10
117.6303257891373
 20
797.73463344061054
 30
0.0
 10
123.7596915684572
 20
788.64073454448305
 30
0.0
 10
121.0534685159374
 20
784.45135984582907
 30
0.0
 11
122.217393950771
 21
810.10135984582905
 31
0.0
 11
123.59283920048206
 21
805.64657365849303
 31
0.0
 11
122.3894193960659
 21
801.39465412679613
 31
0.0
 11
121.16030212971627
 21
797.12364218306561
 31
0.0
 11
121.5711018337545
 21
792.95474329531794
 31
0.0
 11
122.20248912415491
 21
788.69147843265432
 31
0.0
 11
121.0534685159374
 21
784.45135984582907
 31
0.0
  0
SPLINE
  5
2BF
100
AcDbEntity
  8
1
  6
CONTINUOUS
 62
           7
100
AcDbSpline
210
0.0
220
0.0
230
1.0
 70
           0
 71
           3
 72
           6
 73
           3
 74
           3
 42
0.00000000001
 43
0.00000000001
 44
0.00000000001
 40
0.0
 40
0.0
 40
0.0
 40
6.4842049521159666
 40
6.4842049521159666
 40
6.4842049521159666
 10
151.52256410527551
 20
799.84135984582906
 30
0.0
 10
149.5424402863577
 20
802.40636711882883
 30
0.0
 10
147.5567293784874
 20
799.84135984582906
 30
0.0
 11
151.52256410527551
 21
799.84135984582906
 31
0.0
 11
149.54104351411956
 21
801.12386348232894
 31
0.0
 11
147.5567293784874
 21
799.84135984582906
 31
0.0
  0
SPLINE
  5
2BE
100
AcDbEntity
  8
1
  6
CONTINUOUS
 62
           7
100
AcDbSpline
210
0.0
220
0.0
230
1.0
 70
           0
 71
           3
 72
           6
 73
           3
 74
           3
 42
0.00000000001
 43
0.00000000001
 44
0.00000000001
 40
0.0
 40
0.0
 40
0.0
 40
5.8122122618927676
 40
5.8122122618927676
 40
5.8122122618927676
 10
155.55896819925951
 20
799.84135984582906
 30
0.0
 10
154.2502868415358
 20
802.40764799069962
 30
0.0
 10
152.83329030589189
 20
799.84135984582906
 30
0.0
 11
155.55896819925951
 21
799.84135984582906
 31
0.0
 11
154.22320804705575
 21
801.12450391826439
 31
0.0
 11
152.83329030589189
 21
799.84135984582906
 31
0.0
  0
SPLINE
  5
2BD
100
AcDbEntity
  8
1
  6
CONTINUOUS
 62
           7
100
AcDbSpline
210
0.0
220
0.0
230
1.0
 70
           0
 71
           3
 72
           6
 73
           3
 74
           3
 42
0.00000000001
 43
0.00000000001
 44
0.00000000001
 40
0.0
 40
0.0
 40
0.0
 40
2.1269517575973795
 40
2.1269517575973795
 40
2.1269517575973795
 10
157.83362017685749
 20
799.84135984582906
 30
0.0
 10
157.2358104104888
 20
800.61197203222753
 30
0.0
 10
156.37997904261371
 20
799.84135984582906
 30
0.0
 11
157.83362017685749
 21
799.84135984582906
 31
0.0
 11
157.17130501011221
 21
800.22666593902829
 31
0.0
 11
156.37997904261371
 21
799.84135984582906
 31
0.0
  0
SPLINE
  5
2BC
100
AcDbEntity
  8
1
  6
CONTINUOUS
 62
           7
100
AcDbSpline
210
0.0
220
0.0
230
1.0
 70
           0
 71
           3
 72
           6
 73
           3
 74
           3
 42
0.00000000001
 43
0.00000000001
 44
0.00000000001
 40
0.0
 40
0.0
 40
0.0
 40
6.4373572539891182
 40
6.4373572539891182
 40
6.4373572539891182
 10
98.303943134934315
 20
799.84135984582906
 30
0.0
 10
100.21227446889419
 20
802.37615337884199
 30
0.0
 10
102.2694331349343
 20
799.84135984582906
 30
0.0
 11
98.303943134934315
 21
799.84135984582906
 31
0.0
 11
100.24948130191424
 21
801.10875661233558
 31
0.0
 11
102.2694331349343
 21
799.84135984582906
 31
0.0
  0
SPLINE
  5
2BB
100
AcDbEntity
  8
1
  6
CONTINUOUS
 62
           7
100
AcDbSpline
210
0.0
220
0.0
230
1.0
 70
           0
 71
           3
 72
           6
 73
           3
 74
           3
 42
0.00000000001
 43
0.00000000001
 44
0.00000000001
 40
0.0
 40
0.0
 40
0.0
 40
6.4292935739765422
 40
6.4292935739765422
 40
6.4292935739765422
 10
122.6063747666073
 20
799.84135984582906
 30
0.0
 10
120.5950165432009
 20
802.37161061846746
 30
0.0
 10
118.6408847666074
 20
799.84135984582906
 30
0.0
 11
122.6063747666073
 21
799.84135984582906
 31
0.0
 11
120.60932315490413
 21
801.10648523214832
 31
0.0
 11
118.6408847666074
 21
799.84135984582906
 31
0.0
  0
SPLINE
  5
2BA
100
AcDbEntity
  8
1
  6
CONTINUOUS
 62
           7
100
AcDbSpline
210
0.0
220
0.0
230
1.0
 70
           0
 71
           3
 72
           6
 73
           3
 74
           3
 42
0.00000000001
 43
0.00000000001
 44
0.00000000001
 40
0.0
 40
0.0
 40
0.0
 40
6.4373572539894166
 40
6.4373572539894166
 40
6.4373572539894166
 10
128.38959476660779
 20
799.84135984582906
 30
0.0
 10
126.4812634326474
 20
802.37615337884199
 30
0.0
 10
124.4241047666073
 20
799.84135984582906
 30
0.0
 11
128.38959476660779
 21
799.84135984582906
 31
0.0
 11
126.44405659962747
 21
801.10875661233558
 31
0.0
 11
124.4241047666073
 21
799.84135984582906
 31
0.0
  0
SPLINE
  5
2B9
100
AcDbEntity
  8
1
  6
CONTINUOUS
 62
           7
100
AcDbSpline
210
0.0
220
0.0
230
1.0
 70
           0
 71
           3
 72
           6
 73
           3
 74
           3
 42
0.00000000001
 43
0.00000000001
 44
0.00000000001
 40
0.0
 40
0.0
 40
0.0
 40
6.8237698819279036
 40
6.8237698819279036
 40
6.8237698819279036
 10
104.0871631349343
 20
799.84135984582906
 30
0.0
 10
106.4612511567011
 20
802.383217585132
 30
0.0
 10
108.6366400888695
 20
799.84135984582906
 30
0.0
 11
104.0871631349343
 21
799.84135984582906
 31
0.0
 11
106.4115763843015
 21
801.11228871548053
 31
0.0
 11
108.6366400888695
 21
799.84135984582906
 31
0.0
  0
SPLINE
  5
2B8
100
AcDbEntity
  8
1
  6
CONTINUOUS
 62
           7
100
AcDbSpline
210
0.0
220
0.0
230
1.0
 70
           0
 71
           3
 72
           6
 73
           3
 74
           3
 42
0.00000000001
 43
0.00000000001
 44
0.00000000001
 40
0.0
 40
0.0
 40
0.0
 40
7.1127156440916144
 40
7.1127156440916144
 40
7.1127156440916144
 10
110.74610767269419
 20
799.84135984582906
 30
0.0
 10
113.2854836295303
 20
802.3735828759053
 30
0.0
 10
115.73994929970731
 20
799.84135984582906
 30
0.0
 11
110.74610767269419
 21
799.84135984582906
 31
0.0
 11
113.26425605786551
 21
801.10747136086707
 31
0.0
 11
115.73994929970731
 21
799.84135984582906
 31
0.0
  0
SPLINE
  5
2B7
100
AcDbEntity
  8
1
  6
CONTINUOUS
 62
           7
100
AcDbSpline
210
0.0
220
0.0
230
1.0
 70
           0
 71
           3
 72
           6
 73
           3
 74
           3
 42
0.00000000001
 43
0.00000000001
 44
0.00000000001
 40
27.08031762979612
 40
27.08031762979612
 40
27.08031762979612
 40
33.501820284705758
 40
33.501820284705758
 40
33.501820284705758
 10
117.6962839191642
 20
842.06239166685793
 30
0.0
 10
119.88638712974161
 20
840.41595075634336
 30
0.0
 10
123.1792689507708
 20
838.76950984582891
 30
0.0
 11
117.6962839191642
 21
842.06239166685793
 31
0.0
 11
120.16208178235455
 21
840.41595075634336
 31
0.0
 11
123.1792689507708
 21
838.76950984582891
 31
0.0
  0
CIRCLE
  5
2B6
100
AcDbEntity
  8
1
  6
CONTINUOUS
 62
           7
100
AcDbCircle
 10
283.094330990305
 20
849.927399863057
 40
9.8325
  0
CIRCLE
  5
2B5
100
AcDbEntity
  8
1
  6
CONTINUOUS
 62
           7
100
AcDbCircle
 10
283.094330990305
 20
849.927399863057
 40
8.1225
  0
CIRCLE
  5
2B4
100
AcDbEntity
  8
1
  6
CONTINUOUS
 62
           7
100
AcDbCircle
 10
283.094330990305
 20
849.927399863057
 40
6.391125
  0
CIRCLE
  5
2B3
100
AcDbEntity
  8
1
  6
CONTINUOUS
 62
           2
100
AcDbCircle
 10
283.094330990305
 20
849.927399863057
 40
7.123005
  0
CIRCLE
  5
2B2
100
AcDbEntity
  8
1
  6
CONTINUOUS
 62
           2
100
AcDbCircle
 10
283.094330990305
 20
849.927399863057
 40
7.123005
  0
CIRCLE
  5
2B1
100
AcDbEntity
  8
1
  6
CONTINUOUS
 62
           7
100
AcDbCircle
 10
283.094330990305
 20
849.927399863057
 40
6.391125
  0
CIRCLE
  5
2B0
100
AcDbEntity
  8
976
  6
CONTINUOUS
 62
           7
100
AcDbCircle
 10
261.719544740305
 20
819.549249863057
 40
4.8927375
  0
CIRCLE
  5
2AF
100
AcDbEntity
  8
976
  6
CONTINUOUS
 62
           2
100
AcDbCircle
 10
261.719544740305
 20
819.549249863057
 40
5.6246175
  0
CIRCLE
  5
2AE
100
AcDbEntity
  8
1
  6
CONTINUOUS
 62
           7
100
AcDbCircle
 10
240.643559814459
 20
819.549249863057
 40
0.5985
  0
CIRCLE
  5
2AD
100
AcDbEntity
  8
1
  6
CONTINUOUS
 62
           7
100
AcDbCircle
 10
113.346768950771
 20
818.223859845829
 40
5.5575
  0
CIRCLE
  5
2AC
100
AcDbEntity
  8
1
  6
CONTINUOUS
 62
           7
100
AcDbCircle
 10
113.346768950771
 20
818.223859845829
 40
13.68
  0
CIRCLE
  5
2AB
100
AcDbEntity
  8
1
  6
CONTINUOUS
 62
           7
100
AcDbCircle
 10
129.065752696548
 20
833.942843591606
 40
0.72675
  0
CIRCLE
  5
2AA
100
AcDbEntity
  8
1
  6
CONTINUOUS
 62
           7
100
AcDbCircle
 10
110.763526518824
 20
853.608863078045
 40
1.2825
  0
CIRCLE
  5
2A9
100
AcDbEntity
  8
1
  6
CONTINUOUS
 62
           7
100
AcDbCircle
 10
115.930011382718
 20
853.608863078045
 40
1.2825
  0
CIRCLE
  5
2A8
100
AcDbEntity
  8
1
  6
CONTINUOUS
 62
           7
100
AcDbCircle
 10
105.78369609156
 20
856.251972491996
 40
0.4275
  0
CIRCLE
  5
2A7
100
AcDbEntity
  8
1
  6
CONTINUOUS
 62
           7
100
AcDbCircle
 10
113.346768950771
 20
864.419509845829
 40
15.39
  0
ARC
  5
2A6
100
AcDbEntity
  8
1
  6
CONTINUOUS
 62
           7
100
AcDbCircle
 10
331.829330990305
 20
622.368603099231
 40
5.814
100
AcDbArc
 50
-90.0
 51
0.0
  0
ARC
  5
2A5
100
AcDbEntity
  8
1
  6
CONTINUOUS
 62
           7
100
AcDbCircle
 10
230.939330990305
 20
622.368603099231
 40
5.814
100
AcDbArc
 50
180.0
 51
-90.0
  0
ARC
  5
2A4
100
AcDbEntity
  8
1
  6
CONTINUOUS
 62
           7
100
AcDbCircle
 10
318.202352655416
 20
786.016400532376
 40
17.1
100
AcDbArc
 50
62.373022641759
 51
80.396325900611
  0
ARC
  5
2A3
100
AcDbEntity
  8
1
  6
CONTINUOUS
 62
           7
100
AcDbCircle
 10
244.566309325194
 20
786.016400532376
 40
17.1
100
AcDbArc
 50
99.603674099389
 51
111.832800909885
  0
ARC
  5
2A2
100
AcDbEntity
  8
1
  6
CONTINUOUS
 62
           7
100
AcDbCircle
 10
244.566309325194
 20
786.016400532376
 40
17.1
100
AcDbArc
 50
111.832800909885
 51
117.626977358241
  0
ARC
  5
2A1
100
AcDbEntity
  8
1
  6
CONTINUOUS
 62
           7
100
AcDbCircle
 10
260.009544740305
 20
854.958515802275
 40
13.359375
100
AcDbArc
 50
-110.609692937532
 51
-69.390307062468
  0
ARC
  5
2A0
100
AcDbEntity
  8
1
  6
CONTINUOUS
 62
           7
100
AcDbCircle
 10
240.178815362427
 20
819.549249863057
 40
10.6875
100
AcDbArc
 50
128.739424597855
 51
156.421821521798
  0
ARC
  5
29F
100
AcDbEntity
  8
1
  6
CONTINUOUS
 62
           7
100
AcDbCircle
 10
240.178815362427
 20
819.549249863057
 40
10.6875
100
AcDbArc
 50
-156.421821521798
 51
-128.739424597855
  0
ARC
  5
29E
100
AcDbEntity
  8
1
  6
CONTINUOUS
 62
           7
100
AcDbCircle
 10
113.346768950771
 20
818.223859845829
 40
15.17625
100
AcDbArc
 50
-34.343823845005
 51
-25.656176154995
  0
ARC
  5
29D
100
AcDbEntity
  8
1
  6
CONTINUOUS
 62
           7
100
AcDbCircle
 10
113.346768950771
 20
818.223859845829
 40
15.17625
100
AcDbArc
 50
25.656176154994
 51
34.343823845006
  0
ARC
  5
29C
100
AcDbEntity
  8
1
  6
CONTINUOUS
 62
           7
100
AcDbCircle
 10
113.346768950771
 20
818.223859845829
 40
15.17625
100
AcDbArc
 50
85.656176154994
 51
94.343823845006
  0
ARC
  5
29B
100
AcDbEntity
  8
1
  6
CONTINUOUS
 62
           7
100
AcDbCircle
 10
113.346768950771
 20
818.223859845829
 40
15.17625
100
AcDbArc
 50
145.656176154994
 51
154.343823845006
  0
ARC
  5
29A
100
AcDbEntity
  8
1
  6
CONTINUOUS
 62
           7
100
AcDbCircle
 10
113.346768950771
 20
818.223859845829
 40
15.17625
100
AcDbArc
 50
-154.343823845005
 51
-145.656176154994
  0
ARC
  5
299
100
AcDbEntity
  8
1
  6
CONTINUOUS
 62
           7
100
AcDbCircle
 10
113.346768950771
 20
818.223859845829
 40
15.17625
100
AcDbArc
 50
-94.343823845006
 51
-85.656176154994
  0
ARC
  5
298
100
AcDbEntity
  8
1
  6
CONTINUOUS
 62
           7
100
AcDbCircle
 10
163.791768950771
 20
621.043213082003
 40
5.814
100
AcDbArc
 50
-90.0
 51
0.0
  0
ARC
  5
297
100
AcDbEntity
  8
1
  6
CONTINUOUS
 62
           7
100
AcDbCircle
 10
62.901768950771
 20
621.043213082003
 40
5.814
100
AcDbArc
 50
180.0
 51
-90.0
  0
ARC
  5
296
100
AcDbEntity
  8
1
  6
CONTINUOUS
 62
           7
100
AcDbCircle
 10
150.164790615883
 20
784.691010515148
 40
17.1
100
AcDbArc
 50
62.373022641759
 51
80.396325900611
  0
ARC
  5
295
100
AcDbEntity
  8
1
  6
CONTINUOUS
 62
           7
100
AcDbCircle
 10
76.52874728566
 20
784.691010515148
 40
17.1
100
AcDbArc
 50
99.603674099388
 51
111.832800909885
  0
ARC
  5
294
100
AcDbEntity
  8
1
  6
CONTINUOUS
 62
           7
100
AcDbCircle
 10
76.52874728566
 20
784.691010515148
 40
17.1
100
AcDbArc
 50
111.832800909885
 51
117.626977358241
  0
ARC
  5
293
100
AcDbEntity
  8
1
  6
CONTINUOUS
 62
           7
100
AcDbCircle
 10
113.346768950771
 20
1060.214509845829
 40
192.375
100
AcDbArc
 50
-100.256127369004
 51
-95.205440304418
  0
ARC
  5
292
100
AcDbEntity
  8
1
  6
CONTINUOUS
 62
           7
100
AcDbCircle
 10
113.346768950771
 20
1060.214509845829
 40
183.825
100
AcDbArc
 50
-100.256127369004
 51
-94.042581560675
  0
ARC
  5
291
100
AcDbEntity
  8
1
  6
CONTINUOUS
 62
           7
100
AcDbCircle
 10
113.346768950771
 20
695.129509845829
 40
205.2
100
AcDbArc
 50
79.828466023422
 51
100.171533976578
  0
ARC
  5
290
100
AcDbEntity
  8
1
  6
CONTINUOUS
 62
           7
100
AcDbCircle
 10
113.346768950771
 20
695.129509845829
 40
213.75
100
AcDbArc
 50
79.828466023421
 51
100.171533976578
  0
ARC
  5
28F
100
AcDbEntity
  8
1
  6
CONTINUOUS
 62
           7
100
AcDbCircle
 10
113.346768950771
 20
1060.214509845829
 40
183.825
100
AcDbArc
 50
-85.957418439325
 51
-79.743872630995
  0
ARC
  5
28E
100
AcDbEntity
  8
1
  6
CONTINUOUS
 62
           7
100
AcDbCircle
 10
113.346768950771
 20
1060.214509845829
 40
192.375
100
AcDbArc
 50
-84.794559695582
 51
-79.743872630995
  0
ARC
  5
28D
100
AcDbEntity
  8
1
  6
CONTINUOUS
 62
           7
100
AcDbCircle
 10
139.481202412711
 20
842.297982211574
 40
3.74783038551
100
AcDbArc
 50
-24.020677081031
 51
-3.758625471437
  0
ARC
  5
28C
100
AcDbEntity
  8
1
  6
CONTINUOUS
 62
           7
100
AcDbCircle
 10
150.274912032107
 20
848.579345525009
 40
13.885893081336
100
AcDbArc
 50
180.0
 51
-174.983253711644
  0
ARC
  5
28B
100
AcDbEntity
  8
1
  6
CONTINUOUS
 62
           7
100
AcDbCircle
 10
129.343125869435
 20
848.602009845829
 40
13.885893081336
100
AcDbArc
 50
15.917648815759
 51
17.587953773993
  0
ARC
  5
28A
100
AcDbEntity
  8
1
  6
CONTINUOUS
 62
           7
100
AcDbCircle
 10
150.274912032107
 20
848.624674166649
 40
13.885893081336
100
AcDbArc
 50
162.412046226006
 51
180.0
  0
ARC
  5
289
100
AcDbEntity
  8
1
  6
CONTINUOUS
 62
           7
100
AcDbCircle
 10
140.136835488831
 20
854.928701800904
 40
3.74783038551
100
AcDbArc
 50
160.814150392994
 51
-145.771504196933
  0
ARC
  5
288
100
AcDbEntity
  8
1
  6
CONTINUOUS
 62
           7
100
AcDbCircle
 10
139.481202412711
 20
854.906037480084
 40
3.74783038551
100
AcDbArc
 50
-34.228495803062
 51
19.351228708379
  0
ARC
  5
287
100
AcDbEntity
  8
1
  6
CONTINUOUS
 62
           7
100
AcDbCircle
 10
146.170472873096
 20
845.811779442955
 40
2.185228449902
100
AcDbArc
 50
10.615752531963
 51
79.384247468041
  0
ARC
  5
286
100
AcDbEntity
  8
1
  6
CONTINUOUS
 62
           7
100
AcDbCircle
 10
147.688954209253
 20
847.330260779112
 40
2.185228449902
100
AcDbArc
 50
-169.384247468042
 51
-100.615752531956
  0
ARC
  5
285
100
AcDbEntity
  8
1
  6
CONTINUOUS
 62
           7
100
AcDbCircle
 10
149.301642285783
 20
854.178733180841
 40
8.168172400786
100
AcDbArc
 50
-152.587953773995
 51
-117.412046226007
  0
ARC
  5
284
100
AcDbEntity
  8
1
  6
CONTINUOUS
 62
           7
100
AcDbCircle
 10
139.322000471368
 20
844.199091366426
 40
8.168172400785
100
AcDbArc
 50
27.412046226005
 51
62.587953773994
  0
ARC
  5
283
100
AcDbEntity
  8
1
  6
CONTINUOUS
 62
           7
100
AcDbCircle
 10
141.008458934516
 20
851.121334154773
 40
2.099957243366
100
AcDbArc
 50
9.008015995203
 51
80.99198400479
  0
ARC
  5
282
100
AcDbEntity
  8
1
  6
CONTINUOUS
 62
           7
100
AcDbCircle
 10
142.453169884054
 20
852.566045104311
 40
2.185228449902
100
AcDbArc
 50
-169.384247468039
 51
-100.615752531958
  0
ARC
  5
281
100
AcDbEntity
  8
1
  6
CONTINUOUS
 62
           7
100
AcDbCircle
 10
135.270603713937
 20
833.864753418756
 40
2.622274139882
100
AcDbArc
 50
-169.384247468038
 51
-100.615752531955
  0
ARC
  5
280
100
AcDbEntity
  8
1
  6
CONTINUOUS
 62
           7
100
AcDbCircle
 10
135.794182146457
 20
834.388331851276
 40
2.622274139882
100
AcDbArc
 50
10.61575253196
 51
79.384247468044
  0
ARC
  5
27F
100
AcDbEntity
  8
1
  6
CONTINUOUS
 62
           7
100
AcDbCircle
 10
127.576015264383
 20
832.453106159441
 40
9.801806880943
100
AcDbArc
 50
27.412046226007
 51
62.587953773994
  0
ARC
  5
27E
100
AcDbEntity
  8
1
  6
CONTINUOUS
 62
           7
100
AcDbCircle
 10
129.511240956218
 20
840.671273041515
 40
2.622274139882
100
AcDbArc
 50
10.615752531959
 51
79.384247468041
  0
ARC
  5
27D
100
AcDbEntity
  8
1
  6
CONTINUOUS
 62
           7
100
AcDbCircle
 10
128.987662523698
 20
840.147694608995
 40
2.622274139882
100
AcDbArc
 50
-169.384247468042
 51
-100.615752531958
  0
ARC
  5
27C
100
AcDbEntity
  8
1
  6
CONTINUOUS
 62
           7
100
AcDbCircle
 10
137.205829405773
 20
842.082920300831
 40
9.801806880943
100
AcDbArc
 50
-152.587953773994
 51
-117.412046226006
  0
ARC
  5
27B
100
AcDbEntity
  8
1
  6
CONTINUOUS
 62
           7
100
AcDbCircle
 10
113.346768950771
 20
864.419509845829
 40
2.1375
100
AcDbArc
 50
30.686760933344
 51
59.31323906666
  0
ARC
  5
27A
100
AcDbEntity
  8
1
  6
CONTINUOUS
 62
           7
100
AcDbCircle
 10
113.346768950771
 20
864.419509845829
 40
2.1375
100
AcDbArc
 50
-144.723403228052
 51
-125.276596771951
  0
ARC
  5
279
100
AcDbEntity
  8
1
  6
CONTINUOUS
 62
           7
100
AcDbCircle
 10
113.346768950771
 20
864.419509845829
 40
2.1375
100
AcDbArc
 50
0.0
 51
30.686760933344
  0
ARC
  5
278
100
AcDbEntity
  8
1
  6
CONTINUOUS
 62
           7
100
AcDbCircle
 10
113.346768950771
 20
864.419509845829
 40
2.1375
100
AcDbArc
 50
-125.276596771951
 51
0.0
  0
ARC
  5
277
100
AcDbEntity
  8
1
  6
CONTINUOUS
 62
           7
100
AcDbCircle
 10
113.346768950771
 20
864.419509845829
 40
2.1375
100
AcDbArc
 50
59.31323906666
 51
-144.723403228052
  0
ARC
  5
276
100
AcDbEntity
  8
1
  6
CONTINUOUS
 62
           7
100
AcDbCircle
 10
113.346768950771
 20
864.419509845829
 40
7.268212188816
100
AcDbArc
 50
39.194293334945
 51
50.805706665055
  0
ARC
  5
275
100
AcDbEntity
  8
1
  6
CONTINUOUS
 62
           7
100
AcDbCircle
 10
113.346768950771
 20
864.419509845829
 40
10.26
100
AcDbArc
 50
0.0
 51
-135.0
  0
ARC
  5
274
100
AcDbEntity
  8
1
  6
CONTINUOUS
 62
           7
100
AcDbCircle
 10
113.346768950771
 20
864.419509845829
 40
10.26
100
AcDbArc
 50
-34.999999999999
 51
0.0
  0
ARC
  5
273
100
AcDbEntity
  8
1
  6
CONTINUOUS
 62
           7
100
AcDbCircle
 10
113.346768950771
 20
864.419509845829
 40
11.115
100
AcDbArc
 50
46.101909839337
 51
88.898090160663
  0
ARC
  5
272
100
AcDbEntity
  8
1
  6
CONTINUOUS
 62
           7
100
AcDbCircle
 10
113.346768950771
 20
864.419509845829
 40
11.115
100
AcDbArc
 50
88.898090160663
 51
91.101909839336
  0
ARC
  5
271
100
AcDbEntity
  8
1
  6
CONTINUOUS
 62
           7
100
AcDbCircle
 10
113.346768950771
 20
864.419509845829
 40
11.115
100
AcDbArc
 50
91.101909839336
 51
133.898090160662
  0
ARC
  5
270
100
AcDbEntity
  8
1
  6
CONTINUOUS
 62
           7
100
AcDbCircle
 10
113.346768950771
 20
864.419509845829
 40
11.115
100
AcDbArc
 50
133.898090160662
 51
136.101909839336
  0
ARC
  5
26F
100
AcDbEntity
  8
1
  6
CONTINUOUS
 62
           7
100
AcDbCircle
 10
113.346768950771
 20
864.419509845829
 40
11.115
100
AcDbArc
 50
136.101909839336
 51
178.898090160662
  0
ARC
  5
26E
100
AcDbEntity
  8
1
  6
CONTINUOUS
 62
           7
100
AcDbCircle
 10
113.346768950771
 20
864.419509845829
 40
11.115
100
AcDbArc
 50
178.898090160662
 51
-178.898090160663
  0
ARC
  5
26D
100
AcDbEntity
  8
1
  6
CONTINUOUS
 62
           7
100
AcDbCircle
 10
113.346768950771
 20
864.419509845829
 40
11.115
100
AcDbArc
 50
43.898090160663
 51
46.101909839337
  0
ARC
  5
26C
100
AcDbEntity
  8
1
  6
CONTINUOUS
 62
           7
100
AcDbCircle
 10
113.346768950771
 20
864.419509845829
 40
11.115
100
AcDbArc
 50
1.101909839338
 51
43.898090160663
  0
ARC
  5
26B
100
AcDbEntity
  8
1
  6
CONTINUOUS
 62
           7
100
AcDbCircle
 10
113.346768950771
 20
864.419509845829
 40
11.115
100
AcDbArc
 50
0.0
 51
1.101909839338
  0
ARC
  5
26A
100
AcDbEntity
  8
1
  6
CONTINUOUS
 62
           7
100
AcDbCircle
 10
113.346768950771
 20
864.419509845829
 40
11.115
100
AcDbArc
 50
-43.898090160662
 51
-1.101909839337
  0
ARC
  5
269
100
AcDbEntity
  8
1
  6
CONTINUOUS
 62
           7
100
AcDbCircle
 10
113.346768950771
 20
864.419509845829
 40
11.115
100
AcDbArc
 50
-46.101909839336
 51
-43.898090160662
  0
ARC
  5
268
100
AcDbEntity
  8
1
  6
CONTINUOUS
 62
           7
100
AcDbCircle
 10
113.346768950771
 20
864.419509845829
 40
11.115
100
AcDbArc
 50
-178.898090160663
 51
-135.0
  0
ARC
  5
267
100
AcDbEntity
  8
1
  6
CONTINUOUS
 62
           7
100
AcDbCircle
 10
113.346768950771
 20
864.419509845829
 40
11.115
100
AcDbArc
 50
-1.101909839337
 51
0.0
  0
ARC
  5
266
100
AcDbEntity
  8
1
  6
CONTINUOUS
 62
           7
100
AcDbCircle
 10
113.346768950771
 20
854.693884845829
 40
13.359375
100
AcDbArc
 50
-110.609692937532
 51
-69.390307062468
  0
ARC
  5
265
100
AcDbEntity
  8
1
  6
CONTINUOUS
 62
           7
100
AcDbCircle
 10
113.346768950771
 20
864.419509845829
 40
17.955
100
AcDbArc
 50
179.999999999999
 51
0.0
  0
ARC
  5
264
100
AcDbEntity
  8
1
  6
CONTINUOUS
 62
           7
100
AcDbCircle
 10
113.346768950771
 20
864.419509845829
 40
17.955
100
AcDbArc
 50
0.0
 51
179.999999999999
  0
ARC
  5
263
100
AcDbEntity
  8
1
  6
CONTINUOUS
 62
           7
100
AcDbCircle
 10
91.477449120908
 20
823.407021887479
 40
3.059319829863
100
AcDbArc
 50
-34.384247468044
 51
34.384247468042
  0
ARC
  5
262
100
AcDbEntity
  8
1
  6
CONTINUOUS
 62
           7
100
AcDbCircle
 10
93.321088780633
 20
823.407021887479
 40
3.059319829863
100
AcDbArc
 50
145.615752531957
 51
-145.615752531956
  0
ARC
  5
261
100
AcDbEntity
  8
1
  6
CONTINUOUS
 62
           7
100
AcDbCircle
 10
101.697210311871
 20
818.223859845829
 40
11.4354413611
100
AcDbArc
 50
162.412046226006
 51
-162.412046226005
  0
ARC
  5
260
100
AcDbEntity
  8
1
  6
CONTINUOUS
 62
           7
100
AcDbCircle
 10
83.101327589671
 20
818.223859845829
 40
11.4354413611
100
AcDbArc
 50
-17.587953773994
 51
17.587953773993
  0
ARC
  5
25F
100
AcDbEntity
  8
1
  6
CONTINUOUS
 62
           7
100
AcDbCircle
 10
91.477449120908
 20
813.040697804179
 40
3.059319829862
100
AcDbArc
 50
-34.38424746804
 51
34.384247468042
  0
ARC
  5
25E
100
AcDbEntity
  8
1
  6
CONTINUOUS
 62
           7
100
AcDbCircle
 10
93.321088780633
 20
813.040697804179
 40
3.059319829863
100
AcDbArc
 50
145.615752531957
 51
-145.615752531959
  0
ARC
  5
25D
100
AcDbEntity
  8
1
  6
CONTINUOUS
 62
           7
100
AcDbCircle
 10
133.372449120909
 20
813.040697804179
 40
3.059319829862
100
AcDbArc
 50
-34.38424746804
 51
34.384247468042
  0
ARC
  5
25C
100
AcDbEntity
  8
1
  6
CONTINUOUS
 62
           7
100
AcDbCircle
 10
135.216088780634
 20
813.040697804179
 40
3.059319829863
100
AcDbArc
 50
145.615752531957
 51
-145.615752531959
  0
ARC
  5
25B
100
AcDbEntity
  8
1
  6
CONTINUOUS
 62
           7
100
AcDbCircle
 10
143.592210311871
 20
818.223859845829
 40
11.4354413611
100
AcDbArc
 50
162.412046226006
 51
-162.412046226005
  0
ARC
  5
25A
100
AcDbEntity
  8
1
  6
CONTINUOUS
 62
           7
100
AcDbCircle
 10
124.996327589671
 20
818.223859845829
 40
11.4354413611
100
AcDbArc
 50
-17.587953773995
 51
17.587953773993
  0
ARC
  5
259
100
AcDbEntity
  8
1
  6
CONTINUOUS
 62
           7
100
AcDbCircle
 10
133.372449120909
 20
823.407021887479
 40
3.059319829863
100
AcDbArc
 50
-34.384247468044
 51
34.384247468042
  0
ARC
  5
258
100
AcDbEntity
  8
1
  6
CONTINUOUS
 62
           7
100
AcDbCircle
 10
135.216088780634
 20
823.407021887479
 40
3.059319829863
100
AcDbArc
 50
145.615752531957
 51
-145.615752531956
  0
ARC
  5
257
100
AcDbEntity
  8
1
  6
CONTINUOUS
 62
           7
100
AcDbCircle
 10
113.346768950771
 20
818.223859845829
 40
18.81
100
AcDbArc
 50
180.0
 51
-120.272641318908
  0
ARC
  5
256
100
AcDbEntity
  8
1
  6
CONTINUOUS
 62
           7
100
AcDbCircle
 10
113.346768950771
 20
818.223859845829
 40
18.81
100
AcDbArc
 50
130.0
 51
180.0
  0
ARC
  5
255
100
AcDbEntity
  8
1
  6
CONTINUOUS
 62
           7
100
AcDbCircle
 10
113.346768950771
 20
818.223859845829
 40
18.81
100
AcDbArc
 50
-62.419800796413
 51
0.0
  0
ARC
  5
254
100
AcDbEntity
  8
1
  6
CONTINUOUS
 62
           7
100
AcDbCircle
 10
113.346768950771
 20
818.223859845829
 40
18.81
100
AcDbArc
 50
0.0
 51
60.0
  0
ARC
  5
253
100
AcDbEntity
  8
1
  6
CONTINUOUS
 62
           7
100
AcDbCircle
 10
113.346768950771
 20
818.223859845829
 40
18.81
100
AcDbArc
 50
60.0
 51
130.0
  0
ARC
  5
252
100
AcDbEntity
  8
1
  6
CONTINUOUS
 62
           7
100
AcDbCircle
 10
113.346768950771
 20
818.223859845829
 40
18.81
100
AcDbArc
 50
-120.272641318908
 51
-117.580199203586
  0
LINE
  5
251
100
AcDbEntity
  8
1
  6
DOT_CENTER
 62
           2
100
AcDbLine
 10
283.094330990305
 20
918.894478923799
 11
283.094330990305
 21
616.554603099231
  0
LINE
  5
250
100
AcDbEntity
  8
1
  6
DOT_CENTER
 62
           2
100
AcDbLine
 10
283.094330990305
 20
836.161899863057
 11
283.094330990305
 21
863.692899863057
  0
LINE
  5
24F
100
AcDbEntity
  8
1
  6
DOT_CENTER
 62
           2
100
AcDbLine
 10
269.328830990305
 20
849.927399863057
 11
296.859830990305
 21
849.927399863057
  0
LINE
  5
24E
100
AcDbEntity
  8
1
  6
CONTINUOUS
 62
           7
100
AcDbLine
 10
283.094330990305
 20
859.306454986042
 11
274.971830990305
 21
854.61692742455
  0
LINE
  5
24D
100
AcDbEntity
  8
1
  6
CONTINUOUS
 62
           7
100
AcDbLine
 10
291.216830990305
 20
854.61692742455
 11
283.094330990305
 21
859.306454986042
  0
LINE
  5
24C
100
AcDbEntity
  8
1
  6
CONTINUOUS
 62
           7
100
AcDbLine
 10
291.216830990305
 20
845.237872301564
 11
291.216830990305
 21
854.61692742455
  0
LINE
  5
24B
100
AcDbEntity
  8
1
  6
CONTINUOUS
 62
           7
100
AcDbLine
 10
283.094330990305
 20
840.548344740071
 11
291.216830990305
 21
845.237872301564
  0
LINE
  5
24A
100
AcDbEntity
  8
1
  6
CONTINUOUS
 62
           7
100
AcDbLine
 10
274.971830990305
 20
845.237872301564
 11
283.094330990305
 21
840.548344740071
  0
LINE
  5
249
100
AcDbEntity
  8
1
  6
CONTINUOUS
 62
           7
100
AcDbLine
 10
274.971830990305
 20
854.61692742455
 11
274.971830990305
 21
845.237872301564
  0
LINE
  5
248
100
AcDbEntity
  8
1
  6
CONTINUOUS
 62
           7
100
AcDbLine
 10
273.362412752181
 20
616.554603099231
 11
281.384330990305
 21
616.554603099231
  0
LINE
  5
247
100
AcDbEntity
  8
1
  6
CONTINUOUS
 62
           7
100
AcDbLine
 10
230.939330990305
 20
616.554603099231
 11
281.384330990305
 21
616.554603099231
  0
LINE
  5
246
100
AcDbEntity
  8
1
  6
CONTINUOUS
 62
           7
100
AcDbLine
 10
281.384330990305
 20
616.554603099231
 11
331.829330990305
 21
616.554603099231
  0
LINE
  5
245
100
AcDbEntity
  8
1
  6
CONTINUOUS
 62
           7
100
AcDbLine
 10
281.384330990305
 20
616.554603099231
 11
287.882233323365
 21
616.554603099231
  0
LINE
  5
244
100
AcDbEntity
  8
1
  6
CONTINUOUS
 62
           7
100
AcDbLine
 10
279.246830990305
 20
910.204899863057
 11
286.941830990305
 21
910.204899863057
  0
LINE
  5
243
100
AcDbEntity
  8
1
  6
CONTINUOUS
 62
           7
100
AcDbLine
 10
279.246830990305
 20
869.164899863057
 11
286.941830990305
 21
869.164899863057
  0
LINE
  5
242
100
AcDbEntity
  8
1
  6
CONTINUOUS
 62
           7
100
AcDbLine
 10
288.651830990305
 20
877.714899863057
 11
290.361830990305
 21
877.714899863057
  0
LINE
  5
241
100
AcDbEntity
  8
1
  6
CONTINUOUS
 62
           7
100
AcDbLine
 10
275.826830990305
 20
877.714899863057
 11
277.536830990305
 21
877.714899863057
  0
LINE
  5
240
100
AcDbEntity
  8
1
  6
CONTINUOUS
 62
           7
100
AcDbLine
 10
292.926830990305
 20
875.149899863057
 11
292.926830990305
 21
834.964899863057
  0
LINE
  5
23F
100
AcDbEntity
  8
1
  6
CONTINUOUS
 62
           7
100
AcDbLine
 10
277.536830990305
 20
908.494899863057
 11
277.536830990305
 21
877.714899863057
  0
LINE
  5
23E
100
AcDbEntity
  8
1
  6
CONTINUOUS
 62
           7
100
AcDbLine
 10
277.536830990305
 20
877.714899863057
 11
277.536830990305
 21
870.874899863057
  0
LINE
  5
23D
100
AcDbEntity
  8
1
  6
CONTINUOUS
 62
           7
100
AcDbLine
 10
288.651830990305
 20
908.494899863057
 11
288.651830990305
 21
870.874899863057
  0
LINE
  5
23C
100
AcDbEntity
  8
1
  6
CONTINUOUS
 62
           7
100
AcDbLine
 10
273.261830990305
 20
875.149899863057
 11
273.261830990305
 21
834.964899863057
  0
LINE
  5
23B
100
AcDbEntity
  8
1
  6
CONTINUOUS
 62
           7
100
AcDbLine
 10
275.826830990305
 20
832.399899863057
 11
290.361830990305
 21
832.399899863057
  0
LINE
  5
23A
100
AcDbEntity
  8
1
  6
CONTINUOUS
 62
           7
100
AcDbLine
 10
275.116325990305
 20
807.177720986317
 11
275.971325990305
 21
807.177720986317
  0
LINE
  5
239
100
AcDbEntity
  8
1
  6
CONTINUOUS
 62
           7
100
AcDbLine
 10
275.971325990305
 20
807.177720986317
 11
276.703205990305
 21
807.177720986317
  0
LINE
  5
238
100
AcDbEntity
  8
1
  6
CONTINUOUS
 62
           7
100
AcDbLine
 10
276.703205990305
 20
807.177720986317
 11
293.438163737025
 21
807.177720986317
  0
LINE
  5
237
100
AcDbEntity
  8
1
  6
CONTINUOUS
 62
           7
100
AcDbLine
 10
273.552503310392
 20
806.48942636624
 11
272.826854565609
 21
802.839140638823
  0
LINE
  5
236
100
AcDbEntity
  8
1
  6
CONTINUOUS
 62
           7
100
AcDbLine
 10
274.391093983072
 20
807.177720986317
 11
275.971325990305
 21
807.177720986317
  0
LINE
  5
235
100
AcDbEntity
  8
1
  6
CONTINUOUS
 62
           7
100
AcDbLine
 10
274.305810251343
 20
807.177720986317
 11
275.971325990305
 21
807.177720986317
  0
LINE
  5
234
100
AcDbEntity
  8
1
  6
CONTINUOUS
 62
           7
100
AcDbLine
 10
294.559838558281
 20
810.65682554282
 11
294.288920534654
 21
807.947645306554
  0
LINE
  5
233
100
AcDbEntity
  8
1
  6
CONTINUOUS
 62
           7
100
AcDbLine
 10
308.239838558281
 20
803.646674183294
 11
307.538823422328
 21
810.65682554282
  0
LINE
  5
232
100
AcDbEntity
  8
1
  6
CONTINUOUS
 62
           7
100
AcDbLine
 10
295.41059535591
 20
811.426749863057
 11
306.688066624699
 21
811.426749863057
  0
LINE
  5
231
100
AcDbEntity
  8
1
  6
CONTINUOUS
 62
           7
100
AcDbLine
 10
296.774330990305
 20
811.426749863057
 11
296.774330990305
 21
812.759562959481
  0
LINE
  5
230
100
AcDbEntity
  8
1
  6
CONTINUOUS
 62
           7
100
AcDbLine
 10
305.324330990305
 20
812.759562959481
 11
305.324330990305
 21
811.426749863057
  0
LINE
  5
22F
100
AcDbEntity
  8
1
  6
CONTINUOUS
 62
           2
100
AcDbLine
 10
304.861348490304
 20
812.759562959481
 11
304.861348490304
 21
811.426749863057
  0
LINE
  5
22E
100
AcDbEntity
  8
1
  6
CONTINUOUS
 62
           7
100
AcDbLine
 10
304.861348490304
 20
815.324562959481
 11
304.861348490304
 21
812.759562959481
  0
LINE
  5
22D
100
AcDbEntity
  8
1
  6
CONTINUOUS
 62
           7
100
AcDbLine
 10
296.774330990305
 20
812.759562959481
 11
305.324330990305
 21
812.759562959481
  0
LINE
  5
22C
100
AcDbEntity
  8
1
  6
CONTINUOUS
 62
           2
100
AcDbLine
 10
297.237313490304
 20
812.759562959481
 11
297.237313490304
 21
811.426749863057
  0
LINE
  5
22B
100
AcDbEntity
  8
1
  6
CONTINUOUS
 62
           7
100
AcDbLine
 10
297.237313490304
 20
815.324562959481
 11
297.237313490304
 21
812.759562959481
  0
LINE
  5
22A
100
AcDbEntity
  8
1
  6
CONTINUOUS
 62
           7
100
AcDbLine
 10
306.179330990305
 20
820.882062959481
 11
306.179330990305
 21
815.335591458981
  0
LINE
  5
229
100
AcDbEntity
  8
1
  6
CONTINUOUS
 62
           7
100
AcDbLine
 10
306.179330990305
 20
815.324562959481
 11
295.919330990305
 21
815.324562959481
  0
LINE
  5
228
100
AcDbEntity
  8
1
  6
CONTINUOUS
 62
           7
100
AcDbLine
 10
306.179330990305
 20
820.882062959481
 11
305.751830990305
 21
821.309562959481
  0
LINE
  5
227
100
AcDbEntity
  8
1
  6
CONTINUOUS
 62
           7
100
AcDbLine
 10
295.919330990305
 20
815.324562959481
 11
295.919330990305
 21
820.882062959481
  0
LINE
  5
226
100
AcDbEntity
  8
1
  6
CONTINUOUS
 62
           7
100
AcDbLine
 10
306.179330990305
 20
820.882062959481
 11
295.919330990305
 21
820.882062959481
  0
LINE
  5
225
100
AcDbEntity
  8
1
  6
CONTINUOUS
 62
           7
100
AcDbLine
 10
296.346830990305
 20
821.309562959481
 11
305.751830990305
 21
821.309562959481
  0
LINE
  5
224
100
AcDbEntity
  8
1
  6
CONTINUOUS
 62
           7
100
AcDbLine
 10
295.919330990305
 20
820.882062959481
 11
296.346830990305
 21
821.309562959481
  0
LINE
  5
223
100
AcDbEntity
  8
1
  6
CONTINUOUS
 62
           7
100
AcDbLine
 10
276.703205990305
 20
807.177720986317
 11
275.399330990304
 21
807.177720986317
  0
LINE
  5
222
100
AcDbEntity
  8
1
  6
CONTINUOUS
 62
           7
100
AcDbLine
 10
275.399330990304
 20
807.177727134014
 11
275.399330990304
 21
830.262608630191
  0
LINE
  5
221
100
AcDbEntity
  8
1
  6
CONTINUOUS
 62
           7
100
AcDbLine
 10
275.801031365305
 20
830.262608630191
 11
275.399330990304
 21
830.262608630191
  0
LINE
  5
220
100
AcDbEntity
  8
1
  6
CONTINUOUS
 62
           7
100
AcDbLine
 10
290.789330990304
 20
830.262608630191
 11
290.368290051402
 21
830.262614777889
  0
LINE
  5
21F
100
AcDbEntity
  8
1
  6
CONTINUOUS
 62
           2
100
AcDbLine
 10
275.801031365305
 20
830.262608630191
 11
276.582641029819
 21
832.399899863057
  0
LINE
  5
21E
100
AcDbEntity
  8
1
  6
CONTINUOUS
 62
           7
100
AcDbLine
 10
290.789330990304
 20
830.262608630191
 11
290.789330990304
 21
807.177727134014
  0
LINE
  5
21D
100
AcDbEntity
  8
1
  6
CONTINUOUS
 62
           7
100
AcDbLine
 10
275.399330990304
 20
830.262608630191
 11
275.399330990304
 21
807.177727134014
  0
LINE
  5
21C
100
AcDbEntity
  8
1
  6
CONTINUOUS
 62
           7
100
AcDbLine
 10
290.368290051402
 20
830.262614777889
 11
290.301502849846
 21
832.399899863057
  0
LINE
  5
21B
100
AcDbEntity
  8
1
  6
CONTINUOUS
 62
           7
100
AcDbLine
 10
290.789330990304
 20
807.177727134014
 11
289.485455990305
 21
807.177720986317
  0
LINE
  5
21A
100
AcDbEntity
  8
1
  6
CONTINUOUS
 62
           7
100
AcDbLine
 10
275.801031365305
 20
830.262608630191
 11
275.876375609784
 21
832.399899863057
  0
LINE
  5
219
100
AcDbEntity
  8
1
  6
CONTINUOUS
 62
           2
100
AcDbLine
 10
289.605656183015
 20
832.399899863057
 11
290.368290051402
 21
830.262614777889
  0
LINE
  5
218
100
AcDbEntity
  8
1
  6
CONTINUOUS
 62
           7
100
AcDbLine
 10
247.174370562589
 20
785.776749863057
 11
247.174370562589
 21
801.166749863057
  0
LINE
  5
217
100
AcDbEntity
  8
1
  6
CONTINUOUS
 62
           7
100
AcDbLine
 10
248.991845174468
 20
785.776749863057
 11
248.991845174468
 21
801.166749863057
  0
LINE
  5
216
100
AcDbEntity
  8
1
  6
CONTINUOUS
 62
           7
100
AcDbLine
 10
252.957335174468
 20
785.776749863057
 11
252.957335174468
 21
801.166749863057
  0
LINE
  5
215
100
AcDbEntity
  8
1
  6
CONTINUOUS
 62
           7
100
AcDbLine
 10
254.775065174468
 20
785.776749863057
 11
254.775065174468
 21
801.166749863057
  0
LINE
  5
214
100
AcDbEntity
  8
1
  6
CONTINUOUS
 62
           7
100
AcDbLine
 10
258.740555174468
 20
785.776749863057
 11
258.740555174468
 21
801.166749863057
  0
LINE
  5
213
100
AcDbEntity
  8
1
  6
CONTINUOUS
 62
           7
100
AcDbLine
 10
254.775065174468
 20
785.776749863057
 11
254.775065174468
 21
801.166749863057
  0
LINE
  5
212
100
AcDbEntity
  8
1
  6
CONTINUOUS
 62
           7
100
AcDbLine
 10
254.775065174468
 20
785.776749863057
 11
254.775065174468
 21
801.166749863057
  0
LINE
  5
211
100
AcDbEntity
  8
1
  6
CONTINUOUS
 62
           7
100
AcDbLine
 10
258.740555174468
 20
785.776749863057
 11
258.740555174468
 21
801.166749863057
  0
LINE
  5
210
100
AcDbEntity
  8
1
  6
CONTINUOUS
 62
           7
100
AcDbLine
 10
258.740555174468
 20
801.166749863057
 11
260.558285174468
 21
801.166749863057
  0
LINE
  5
20F
100
AcDbEntity
  8
1
  6
CONTINUOUS
 62
           7
100
AcDbLine
 10
260.558285174468
 20
785.776749863057
 11
260.558285174468
 21
801.166749863057
  0
LINE
  5
20E
100
AcDbEntity
  8
1
  6
CONTINUOUS
 62
           7
100
AcDbLine
 10
264.523775174468
 20
785.776749863057
 11
264.523775174468
 21
801.166749863057
  0
LINE
  5
20D
100
AcDbEntity
  8
1
  6
CONTINUOUS
 62
           7
100
AcDbLine
 10
264.523775174468
 20
785.776749863057
 11
264.523775174468
 21
801.166749863057
  0
LINE
  5
20C
100
AcDbEntity
  8
1
  6
CONTINUOUS
 62
           7
100
AcDbLine
 10
264.523775174468
 20
801.166749863057
 11
266.341505174468
 21
801.166749863057
  0
LINE
  5
20B
100
AcDbEntity
  8
1
  6
CONTINUOUS
 62
           7
100
AcDbLine
 10
266.341505174468
 20
785.776749863057
 11
266.341505174468
 21
801.166749863057
  0
LINE
  5
20A
100
AcDbEntity
  8
1
  6
CONTINUOUS
 62
           7
100
AcDbLine
 10
247.174370562589
 20
785.776749863057
 11
247.174370562589
 21
801.166749863057
  0
LINE
  5
209
100
AcDbEntity
  8
1
  6
CONTINUOUS
 62
           7
100
AcDbLine
 10
248.991845174468
 20
785.776749863057
 11
248.991845174468
 21
801.166749863057
  0
LINE
  5
208
100
AcDbEntity
  8
1
  6
CONTINUOUS
 62
           7
100
AcDbLine
 10
247.174370562589
 20
785.776749863057
 11
247.174370562589
 21
801.166749863057
  0
LINE
  5
207
100
AcDbEntity
  8
1
  6
CONTINUOUS
 62
           7
100
AcDbLine
 10
296.427156806142
 20
801.166749863057
 11
298.244886806142
 21
801.166749863057
  0
LINE
  5
206
100
AcDbEntity
  8
1
  6
CONTINUOUS
 62
           7
100
AcDbLine
 10
302.210376806141
 20
801.166749863057
 11
304.028106806142
 21
801.166749863057
  0
LINE
  5
205
100
AcDbEntity
  8
1
  6
CONTINUOUS
 62
           7
100
AcDbLine
 10
307.993596806142
 20
801.166749863057
 11
309.811326806142
 21
801.166749863057
  0
LINE
  5
204
100
AcDbEntity
  8
1
  6
CONTINUOUS
 62
           7
100
AcDbLine
 10
296.427156806142
 20
801.166749863057
 11
296.427156806142
 21
791.306376999091
  0
LINE
  5
203
100
AcDbEntity
  8
1
  6
CONTINUOUS
 62
           7
100
AcDbLine
 10
298.244886806142
 20
801.166749863057
 11
298.244886806142
 21
789.351453453978
  0
LINE
  5
202
100
AcDbEntity
  8
1
  6
CONTINUOUS
 62
           7
100
AcDbLine
 10
302.210376806141
 20
801.166749863057
 11
302.210376806141
 21
785.776749863057
  0
LINE
  5
201
100
AcDbEntity
  8
1
  6
CONTINUOUS
 62
           7
100
AcDbLine
 10
304.028106806142
 20
801.166749863057
 11
304.028106806142
 21
785.776749863057
  0
LINE
  5
200
100
AcDbEntity
  8
1
  6
CONTINUOUS
 62
           7
100
AcDbLine
 10
307.993596806142
 20
801.166749863057
 11
307.993596806142
 21
785.776749863057
  0
LINE
  5
1FF
100
AcDbEntity
  8
1
  6
CONTINUOUS
 62
           7
100
AcDbLine
 10
309.811326806142
 20
801.166749863057
 11
309.811326806142
 21
785.776749863057
  0
LINE
  5
1FE
100
AcDbEntity
  8
1
  6
CONTINUOUS
 62
           7
100
AcDbLine
 10
289.220535428679
 20
802.876749863057
 11
290.093168096945
 21
802.876749863057
  0
LINE
  5
1FD
100
AcDbEntity
  8
1
  6
CONTINUOUS
 62
           7
100
AcDbLine
 10
295.513604042916
 20
802.876749863057
 11
321.055179402242
 21
802.876749863057
  0
LINE
  5
1FC
100
AcDbEntity
  8
1
  6
CONTINUOUS
 62
           7
100
AcDbLine
 10
238.351120898462
 20
785.776749863057
 11
238.351120898462
 21
801.166749863057
  0
LINE
  5
1FB
100
AcDbEntity
  8
1
  6
CONTINUOUS
 62
           7
100
AcDbLine
 10
238.351120898462
 20
801.166749863057
 11
239.172131741816
 21
801.166749863057
  0
LINE
  5
1FA
100
AcDbEntity
  8
1
  6
CONTINUOUS
 62
           7
100
AcDbLine
 10
239.172131741816
 20
801.166749863057
 11
239.172131741816
 21
785.776749863057
  0
LINE
  5
1F9
100
AcDbEntity
  8
1
  6
CONTINUOUS
 62
           7
100
AcDbLine
 10
238.351120898462
 20
801.166749863057
 11
239.172131741816
 21
801.166749863057
  0
LINE
  5
1F8
100
AcDbEntity
  8
1
  6
CONTINUOUS
 62
           7
100
AcDbLine
 10
243.2085358358
 20
801.166749863057
 11
243.2085358358
 21
785.776749863057
  0
LINE
  5
1F7
100
AcDbEntity
  8
1
  6
CONTINUOUS
 62
           7
100
AcDbLine
 10
241.897809635184
 20
801.166749863057
 11
243.2085358358
 21
801.166749863057
  0
LINE
  5
1F6
100
AcDbEntity
  8
1
  6
CONTINUOUS
 62
           7
100
AcDbLine
 10
247.174370562589
 20
801.166749863057
 11
248.991845174468
 21
801.166749863057
  0
LINE
  5
1F5
100
AcDbEntity
  8
1
  6
CONTINUOUS
 62
           7
100
AcDbLine
 10
248.991845174468
 20
785.776749863057
 11
248.991845174468
 21
801.166749863057
  0
LINE
  5
1F4
100
AcDbEntity
  8
1
  6
CONTINUOUS
 62
           7
100
AcDbLine
 10
243.2085358358
 20
801.166749863057
 11
243.2085358358
 21
785.776749863057
  0
LINE
  5
1F3
100
AcDbEntity
  8
1
  6
CONTINUOUS
 62
           7
100
AcDbLine
 10
241.897809635184
 20
801.166749863057
 11
243.2085358358
 21
801.166749863057
  0
LINE
  5
1F2
100
AcDbEntity
  8
1
  6
CONTINUOUS
 62
           7
100
AcDbLine
 10
239.172131741816
 20
801.166749863057
 11
239.172131741816
 21
785.776749863057
  0
LINE
  5
1F1
100
AcDbEntity
  8
1
  6
CONTINUOUS
 62
           7
100
AcDbLine
 10
241.897809635184
 20
785.776749863057
 11
241.897809635184
 21
801.166749863057
  0
LINE
  5
1F0
100
AcDbEntity
  8
1
  6
CONTINUOUS
 62
           7
100
AcDbLine
 10
243.2085358358
 20
801.166749863057
 11
243.2085358358
 21
785.776749863057
  0
LINE
  5
1EF
100
AcDbEntity
  8
1
  6
CONTINUOUS
 62
           7
100
AcDbLine
 10
247.174370562589
 20
785.776749863057
 11
247.174370562589
 21
801.166749863057
  0
LINE
  5
1EE
100
AcDbEntity
  8
1
  6
CONTINUOUS
 62
           7
100
AcDbLine
 10
248.991845174468
 20
785.776749863057
 11
248.991845174468
 21
801.166749863057
  0
LINE
  5
1ED
100
AcDbEntity
  8
1
  6
CONTINUOUS
 62
           7
100
AcDbLine
 10
313.776816806142
 20
801.166749863057
 11
313.776816806142
 21
785.776749863057
  0
LINE
  5
1EC
100
AcDbEntity
  8
1
  6
CONTINUOUS
 62
           7
100
AcDbLine
 10
248.991845174468
 20
785.776749863057
 11
248.991845174468
 21
801.166749863057
  0
LINE
  5
1EB
100
AcDbEntity
  8
1
  6
CONTINUOUS
 62
           7
100
AcDbLine
 10
299.482653744361
 20
785.776749863057
 11
325.871182216391
 21
785.776749863057
  0
LINE
  5
1EA
100
AcDbEntity
  8
1
  6
CONTINUOUS
 62
           7
100
AcDbLine
 10
337.643330990305
 20
622.368603099231
 11
337.643330990305
 21
654.773103099231
  0
LINE
  5
1E9
100
AcDbEntity
  8
1
  6
CONTINUOUS
 62
           7
100
AcDbLine
 10
281.384330990305
 20
616.554603099231
 11
331.829330990305
 21
616.554603099231
  0
LINE
  5
1E8
100
AcDbEntity
  8
1
  6
CONTINUOUS
 62
           7
100
AcDbLine
 10
337.643330990305
 20
654.773103099231
 11
337.386830990305
 21
655.029603099231
  0
LINE
  5
1E7
100
AcDbEntity
  8
1
  6
CONTINUOUS
 62
           7
100
AcDbLine
 10
225.381830990305
 20
655.029603099231
 11
225.125330990305
 21
654.773103099231
  0
LINE
  5
1E6
100
AcDbEntity
  8
1
  6
CONTINUOUS
 62
           7
100
AcDbLine
 10
230.939330990305
 20
616.554603099231
 11
281.384330990305
 21
616.554603099231
  0
LINE
  5
1E5
100
AcDbEntity
  8
1
  6
CONTINUOUS
 62
           7
100
AcDbLine
 10
225.125330990305
 20
654.773103099231
 11
225.125330990305
 21
622.368603099231
  0
LINE
  5
1E4
100
AcDbEntity
  8
1
  6
CONTINUOUS
 62
           7
100
AcDbLine
 10
332.211541107057
 20
773.124809227852
 11
321.141830990305
 21
782.100249863057
  0
LINE
  5
1E3
100
AcDbEntity
  8
1
  6
CONTINUOUS
 62
           7
100
AcDbLine
 10
230.557120873553
 20
773.124809227852
 11
241.626830990305
 21
782.100249863057
  0
LINE
  5
1E2
100
AcDbEntity
  8
1
  6
CONTINUOUS
 62
           7
100
AcDbLine
 10
336.959330990305
 20
655.029603099231
 11
336.959330990305
 21
763.162916750525
  0
LINE
  5
1E1
100
AcDbEntity
  8
1
  6
CONTINUOUS
 62
           7
100
AcDbLine
 10
225.809330990305
 20
655.029603099231
 11
225.809330990305
 21
763.162916750525
  0
LINE
  5
1E0
100
AcDbEntity
  8
1
  6
CONTINUOUS
 62
           7
100
AcDbLine
 10
225.381830990305
 20
655.029603099231
 11
337.643330990305
 21
655.029603099231
  0
LINE
  5
1DF
100
AcDbEntity
  8
1
  6
CONTINUOUS
 62
           7
100
AcDbLine
 10
265.608282322751
 20
616.554603099231
 11
292.726046962021
 21
616.554603099231
  0
LINE
  5
1DE
100
AcDbEntity
  8
1
  6
CONTINUOUS
 62
           7
100
AcDbLine
 10
270.67712388701
 20
616.554603099231
 11
292.726046962021
 21
616.554603099231
  0
LINE
  5
1DD
100
AcDbEntity
  8
1
  6
CONTINUOUS
 62
           7
100
AcDbLine
 10
265.994330990305
 20
793.895464405238
 11
265.994330990305
 21
793.891142638424
  0
LINE
  5
1DC
100
AcDbEntity
  8
1
  6
CONTINUOUS
 62
           7
100
AcDbLine
 10
318.576830990305
 20
785.776749863057
 11
318.576830990305
 21
782.100249863057
  0
LINE
  5
1DB
100
AcDbEntity
  8
1
  6
CONTINUOUS
 62
           7
100
AcDbLine
 10
244.191830990305
 20
785.776749863057
 11
244.191830990305
 21
782.100249863057
  0
LINE
  5
1DA
100
AcDbEntity
  8
1
  6
CONTINUOUS
 62
           7
100
AcDbLine
 10
255.957039445291
 20
616.554603099231
 11
298.7015477267
 21
616.554603099231
  0
LINE
  5
1D9
100
AcDbEntity
  8
1
  6
CONTINUOUS
 62
           7
100
AcDbLine
 10
251.315963328299
 20
616.554603099231
 11
313.10687915215
 21
616.554603099231
  0
LINE
  5
1D8
100
AcDbEntity
  8
1
  6
CONTINUOUS
 62
           7
100
AcDbLine
 10
251.315963328299
 20
616.554603099231
 11
292.726046962021
 21
616.554603099231
  0
LINE
  5
1D7
100
AcDbEntity
  8
1
  6
CONTINUOUS
 62
           7
100
AcDbLine
 10
238.206830990305
 20
801.889870074605
 11
238.206830990305
 21
785.776749863057
  0
LINE
  5
1D6
100
AcDbEntity
  8
1
  6
CONTINUOUS
 62
           7
100
AcDbLine
 10
325.871182216391
 20
801.166749863057
 11
326.131849181573
 21
801.166749863057
  0
LINE
  5
1D5
100
AcDbEntity
  8
1
  6
CONTINUOUS
 62
           7
100
AcDbLine
 10
313.776816806142
 20
801.166749863057
 11
315.594291418021
 21
801.166749863057
  0
LINE
  5
1D4
100
AcDbEntity
  8
1
  6
CONTINUOUS
 62
           7
100
AcDbLine
 10
319.560126144809
 20
801.166749863057
 11
320.870852345426
 21
801.166749863057
  0
LINE
  5
1D3
100
AcDbEntity
  8
1
  6
CONTINUOUS
 62
           7
100
AcDbLine
 10
323.596530238793
 20
801.166749863057
 11
324.417541082148
 21
801.166749863057
  0
LINE
  5
1D2
100
AcDbEntity
  8
1
  6
CONTINUOUS
 62
           7
100
AcDbLine
 10
315.594291418021
 20
801.166749863057
 11
315.594291418021
 21
785.776749863057
  0
LINE
  5
1D1
100
AcDbEntity
  8
1
  6
CONTINUOUS
 62
           7
100
AcDbLine
 10
319.560126144809
 20
785.776749863057
 11
319.560126144809
 21
801.166749863057
  0
LINE
  5
1D0
100
AcDbEntity
  8
1
  6
CONTINUOUS
 62
           7
100
AcDbLine
 10
320.870852345426
 20
801.166749863057
 11
320.870852345426
 21
785.776749863057
  0
LINE
  5
1CF
100
AcDbEntity
  8
1
  6
CONTINUOUS
 62
           7
100
AcDbLine
 10
323.596530238793
 20
785.776749863057
 11
323.596530238793
 21
801.166749863057
  0
LINE
  5
1CE
100
AcDbEntity
  8
1
  6
CONTINUOUS
 62
           7
100
AcDbLine
 10
324.417541082148
 20
801.166749863057
 11
324.417541082148
 21
785.776749863057
  0
LINE
  5
1CD
100
AcDbEntity
  8
1
  6
CONTINUOUS
 62
           7
100
AcDbLine
 10
325.871182216391
 20
801.166749863057
 11
325.871182216391
 21
785.776749863057
  0
LINE
  5
1CC
100
AcDbEntity
  8
1
  6
CONTINUOUS
 62
           7
100
AcDbLine
 10
326.131849181573
 20
785.776749863057
 11
326.131849181573
 21
801.166749863057
  0
LINE
  5
1CB
100
AcDbEntity
  8
1
  6
CONTINUOUS
 62
           7
100
AcDbLine
 10
236.636812799037
 20
801.166749863057
 11
236.636812799037
 21
785.776749863057
  0
LINE
  5
1CA
100
AcDbEntity
  8
1
  6
CONTINUOUS
 62
           7
100
AcDbLine
 10
236.636812799037
 20
801.166749863057
 11
236.636812799037
 21
785.776749863057
  0
LINE
  5
1C9
100
AcDbEntity
  8
1
  6
CONTINUOUS
 62
           7
100
AcDbLine
 10
236.636812799037
 20
785.776749863057
 11
293.5668719028
 21
785.776749863057
  0
LINE
  5
1C8
100
AcDbEntity
  8
1
  6
CONTINUOUS
 62
           7
100
AcDbLine
 10
296.427156806142
 20
801.166749863057
 11
296.427156806141
 21
785.776749863057
  0
LINE
  5
1C7
100
AcDbEntity
  8
1
  6
CONTINUOUS
 62
           7
100
AcDbLine
 10
298.244886806142
 20
801.166749863057
 11
298.244886806141
 21
785.776749863057
  0
LINE
  5
1C6
100
AcDbEntity
  8
1
  6
CONTINUOUS
 62
           7
100
AcDbLine
 10
293.5668719028
 20
785.776749863057
 11
326.131849181573
 21
785.776749863057
  0
LINE
  5
1C5
100
AcDbEntity
  8
1
  6
CONTINUOUS
 62
           7
100
AcDbLine
 10
241.713482578367
 20
802.876749863057
 11
295.804129786428
 21
802.876749863057
  0
LINE
  5
1C4
100
AcDbEntity
  8
1
  6
CONTINUOUS
 62
           7
100
AcDbLine
 10
286.678446806141
 20
801.166749863057
 11
286.678446806141
 21
785.776749863057
  0
LINE
  5
1C3
100
AcDbEntity
  8
1
  6
CONTINUOUS
 62
           7
100
AcDbLine
 10
296.427156806142
 20
801.166749863057
 11
296.427156806141
 21
785.776749863057
  0
LINE
  5
1C2
100
AcDbEntity
  8
1
  6
CONTINUOUS
 62
           7
100
AcDbLine
 10
292.461666806141
 20
801.166749863057
 11
292.461666806141
 21
785.776749863057
  0
LINE
  5
1C1
100
AcDbEntity
  8
1
  6
CONTINUOUS
 62
           7
100
AcDbLine
 10
290.643936806141
 20
801.166749863057
 11
290.643936806141
 21
785.776749863057
  0
LINE
  5
1C0
100
AcDbEntity
  8
1
  6
CONTINUOUS
 62
           7
100
AcDbLine
 10
286.678446806141
 20
801.166749863057
 11
286.678446806141
 21
789.351453453978
  0
LINE
  5
1BF
100
AcDbEntity
  8
1
  6
CONTINUOUS
 62
           7
100
AcDbLine
 10
290.643936806141
 20
801.166749863057
 11
292.461666806141
 21
801.166749863057
  0
LINE
  5
1BE
100
AcDbEntity
  8
1
  6
CONTINUOUS
 62
           7
100
AcDbLine
 10
272.124725174468
 20
785.776749863057
 11
272.124725174468
 21
801.166749863057
  0
LINE
  5
1BD
100
AcDbEntity
  8
1
  6
CONTINUOUS
 62
           7
100
AcDbLine
 10
270.306995174468
 20
801.166749863057
 11
272.124725174468
 21
801.166749863057
  0
LINE
  5
1BC
100
AcDbEntity
  8
1
  6
CONTINUOUS
 62
           7
100
AcDbLine
 10
270.306995174468
 20
785.776749863057
 11
270.306995174468
 21
801.166749863057
  0
LINE
  5
1BB
100
AcDbEntity
  8
1
  6
CONTINUOUS
 62
           7
100
AcDbLine
 10
276.674202128403
 20
801.166749863057
 11
276.674202128403
 21
785.776749863057
  0
LINE
  5
1BA
100
AcDbEntity
  8
1
  6
CONTINUOUS
 62
           7
100
AcDbLine
 10
278.783669712228
 20
801.166749863057
 11
278.783669712228
 21
785.776749863057
  0
LINE
  5
1B9
100
AcDbEntity
  8
1
  6
CONTINUOUS
 62
           7
100
AcDbLine
 10
283.777511339241
 20
801.166749863057
 11
283.777511339241
 21
785.776749863057
  0
LINE
  5
1B8
100
AcDbEntity
  8
1
  6
CONTINUOUS
 62
           7
100
AcDbLine
 10
283.777511339241
 20
801.166749863057
 11
286.678446806141
 21
801.166749863057
  0
LINE
  5
1B7
100
AcDbEntity
  8
1
  6
CONTINUOUS
 62
           7
100
AcDbLine
 10
276.674202128403
 20
801.166749863057
 11
278.783669712228
 21
801.166749863057
  0
LINE
  5
1B6
100
AcDbEntity
  8
1
  6
CONTINUOUS
 62
           7
100
AcDbLine
 10
241.626830990305
 20
782.100249863057
 11
321.141830990305
 21
782.100249863057
  0
LINE
  5
1B5
100
AcDbEntity
  8
976
  6
CONTINUOUS
 62
           7
100
AcDbLine
 10
254.024544740305
 20
838.858675838817
 11
268.559544740305
 21
838.858675838817
  0
LINE
  5
1B4
100
AcDbEntity
  8
976
  6
CONTINUOUS
 62
           7
100
AcDbLine
 10
269.414544740305
 20
802.876749863057
 11
269.414544740305
 21
837.504249863057
  0
LINE
  5
1B3
100
AcDbEntity
  8
1
  6
CONTINUOUS
 62
           7
100
AcDbLine
 10
253.169544740305
 20
802.876749863057
 11
269.414544740305
 21
802.876749863057
  0
LINE
  5
1B2
100
AcDbEntity
  8
1
  6
CONTINUOUS
 62
           2
100
AcDbLine
 10
252.401507332852
 20
831.056267363057
 11
251.803007332852
 21
831.056267363057
  0
LINE
  5
1B1
100
AcDbEntity
  8
1
  6
CONTINUOUS
 62
           7
100
AcDbLine
 10
252.401507332852
 20
831.519249863057
 11
251.803007332852
 21
831.519249863057
  0
LINE
  5
1B0
100
AcDbEntity
  8
1
  6
CONTINUOUS
 62
           7
100
AcDbLine
 10
252.401507332852
 20
831.056267363057
 11
252.401507332852
 21
831.519249863057
  0
LINE
  5
1AF
100
AcDbEntity
  8
1
  6
CONTINUOUS
 62
           7
100
AcDbLine
 10
253.169544740305
 20
831.056267363057
 11
252.401507332852
 21
831.056267363057
  0
LINE
  5
1AE
100
AcDbEntity
  8
1
  6
CONTINUOUS
 62
           7
100
AcDbLine
 10
252.401507332852
 20
807.579249863057
 11
252.401507332852
 21
831.056267363057
  0
LINE
  5
1AD
100
AcDbEntity
  8
1
  6
CONTINUOUS
 62
           2
100
AcDbLine
 10
251.803007332852
 20
808.042232363057
 11
252.401507332852
 21
808.042232363057
  0
LINE
  5
1AC
100
AcDbEntity
  8
1
  6
CONTINUOUS
 62
           7
100
AcDbLine
 10
251.803007332852
 20
807.579249863057
 11
252.401507332852
 21
807.579249863057
  0
LINE
  5
1AB
100
AcDbEntity
  8
1
  6
CONTINUOUS
 62
           7
100
AcDbLine
 10
253.169544740305
 20
802.876749863057
 11
253.169544740305
 21
837.504249863057
  0
LINE
  5
1AA
100
AcDbEntity
  8
1
  6
CONTINUOUS
 62
           7
100
AcDbLine
 10
252.401507332852
 20
808.042232363057
 11
253.169544740305
 21
808.042232363057
  0
LINE
  5
1A9
100
AcDbEntity
  8
1
  6
CONTINUOUS
 62
           7
100
AcDbLine
 10
247.612044740305
 20
882.639140802275
 11
252.742044740305
 21
882.639140802275
  0
LINE
  5
1A8
100
AcDbEntity
  8
1
  6
CONTINUOUS
 62
           7
100
AcDbLine
 10
252.742044740305
 20
882.639140802275
 11
252.742044740305
 21
846.729140802275
  0
LINE
  5
1A7
100
AcDbEntity
  8
1
  6
CONTINUOUS
 62
           7
100
AcDbLine
 10
252.742044740305
 20
846.729140802275
 11
247.612044740305
 21
846.729140802275
  0
LINE
  5
1A6
100
AcDbEntity
  8
1
  6
CONTINUOUS
 62
           7
100
AcDbLine
 10
246.757044740305
 20
847.584140802275
 11
246.757044740305
 21
881.784140802275
  0
LINE
  5
1A5
100
AcDbEntity
  8
1
  6
CONTINUOUS
 62
           7
100
AcDbLine
 10
252.742044740305
 20
882.211640802275
 11
266.422044740305
 21
882.211640802275
  0
LINE
  5
1A4
100
AcDbEntity
  8
1
  6
CONTINUOUS
 62
           7
100
AcDbLine
 10
267.277044740305
 20
881.356640802275
 11
267.277044740305
 21
848.011640802275
  0
LINE
  5
1A3
100
AcDbEntity
  8
1
  6
CONTINUOUS
 62
           7
100
AcDbLine
 10
266.422044740305
 20
847.156640802275
 11
252.742044740305
 21
847.156640802275
  0
LINE
  5
1A2
100
AcDbEntity
  8
1
  6
CONTINUOUS
 62
           7
100
AcDbLine
 10
255.307044740305
 20
847.156640802275
 11
255.307044740305
 21
842.454140802275
  0
LINE
  5
1A1
100
AcDbEntity
  8
1
  6
CONTINUOUS
 62
           7
100
AcDbLine
 10
264.712044740305
 20
842.454140802275
 11
264.712044740305
 21
847.156640802275
  0
LINE
  5
1A0
100
AcDbEntity
  8
1
  6
CONTINUOUS
 62
           7
100
AcDbLine
 10
260.009544740305
 20
839.435990802275
 11
264.205574941589
 21
839.435990802275
  0
LINE
  5
19F
100
AcDbEntity
  8
1
  6
CONTINUOUS
 62
           7
100
AcDbLine
 10
264.195497871418
 20
838.858675838817
 11
264.255423466022
 21
842.291810854376
  0
LINE
  5
19E
100
AcDbEntity
  8
1
  6
CONTINUOUS
 62
           2
100
AcDbLine
 10
263.708819941589
 20
839.435990802275
 11
264.221061573217
 21
840.323219334006
  0
LINE
  5
19D
100
AcDbEntity
  8
1
  6
CONTINUOUS
 62
           7
100
AcDbLine
 10
255.813514539021
 20
839.435990802275
 11
260.009544740305
 21
839.435990802275
  0
LINE
  5
19C
100
AcDbEntity
  8
1
  6
CONTINUOUS
 62
           2
100
AcDbLine
 10
256.320346609192
 20
838.858675838817
 11
256.310269539021
 21
839.435990802275
  0
LINE
  5
19B
100
AcDbEntity
  8
1
  6
CONTINUOUS
 62
           2
100
AcDbLine
 10
255.798027907393
 20
840.323219334006
 11
256.310269539021
 21
839.435990802275
  0
LINE
  5
19A
100
AcDbEntity
  8
1
  6
CONTINUOUS
 62
           7
100
AcDbLine
 10
255.763666014588
 20
842.291810854376
 11
255.823591609192
 21
838.858675838817
  0
LINE
  5
199
100
AcDbEntity
  8
1
  6
CONTINUOUS
 62
           2
100
AcDbLine
 10
263.708819941589
 20
839.435990802275
 11
263.698742871418
 21
838.858675838817
  0
LINE
  5
198
100
AcDbEntity
  8
976
  6
CONTINUOUS
 62
           7
100
AcDbLine
 10
261.719544740305
 20
813.132001621014
 11
267.277044740305
 21
816.340625742035
  0
LINE
  5
197
100
AcDbEntity
  8
976
  6
CONTINUOUS
 62
           7
100
AcDbLine
 10
261.719544740305
 20
825.966498105099
 11
255.734544740305
 21
822.492592510247
  0
LINE
  5
196
100
AcDbEntity
  8
976
  6
CONTINUOUS
 62
           7
100
AcDbLine
 10
267.277044740305
 20
822.757873984078
 11
261.719544740305
 21
825.966498105099
  0
LINE
  5
195
100
AcDbEntity
  8
976
  6
CONTINUOUS
 62
           7
100
AcDbLine
 10
256.162044740305
 20
816.340625742035
 11
261.719544740305
 21
813.132001621014
  0
LINE
  5
194
100
AcDbEntity
  8
976
  6
CONTINUOUS
 62
           7
100
AcDbLine
 10
255.734544740305
 20
816.589973721929
 11
256.162044740305
 21
816.340625742035
  0
LINE
  5
193
100
AcDbEntity
  8
976
  6
CONTINUOUS
 62
           7
100
AcDbLine
 10
255.734544740305
 20
816.589973721929
 11
255.734544740305
 21
822.492592510247
  0
LINE
  5
192
100
AcDbEntity
  8
976
  6
CONTINUOUS
 62
           7
100
AcDbLine
 10
267.704544740305
 20
816.589973721929
 11
267.704544740305
 21
822.492592510247
  0
LINE
  5
191
100
AcDbEntity
  8
976
  6
CONTINUOUS
 62
           7
100
AcDbLine
 10
267.277044740305
 20
816.340625742035
 11
267.704544740305
 21
816.589973721929
  0
LINE
  5
190
100
AcDbEntity
  8
976
  6
CONTINUOUS
 62
           7
100
AcDbLine
 10
267.704544740305
 20
822.492592510247
 11
267.277044740305
 21
822.757873984078
  0
LINE
  5
18F
100
AcDbEntity
  8
1
  6
CONTINUOUS
 62
           7
100
AcDbLine
 10
248.338559814459
 20
834.725499863057
 11
248.338559814459
 21
804.372999863057
  0
LINE
  5
18E
100
AcDbEntity
  8
1
  6
CONTINUOUS
 62
           7
100
AcDbLine
 10
242.599118337207
 20
811.212999863057
 11
242.599118337207
 21
827.885499863057
  0
LINE
  5
18D
100
AcDbEntity
  8
1
  6
CONTINUOUS
 62
           7
100
AcDbLine
 10
233.490796807766
 20
827.885499863057
 11
233.490796807766
 21
811.212999863057
  0
LINE
  5
18C
100
AcDbEntity
  8
1
  6
CONTINUOUS
 62
           7
100
AcDbLine
 10
230.383559814459
 20
815.274249863057
 11
230.383559814459
 21
823.824249863057
  0
LINE
  5
18B
100
AcDbEntity
  8
1
  6
CONTINUOUS
 62
           7
100
AcDbLine
 10
251.758559814459
 20
805.227999863057
 11
251.758559814459
 21
808.042232363057
  0
LINE
  5
18A
100
AcDbEntity
  8
1
  6
CONTINUOUS
 62
           7
100
AcDbLine
 10
230.383559814459
 20
823.824249863057
 11
228.673559814459
 21
823.824249863057
  0
LINE
  5
189
100
AcDbEntity
  8
1
  6
CONTINUOUS
 62
           7
100
AcDbLine
 10
230.383559814459
 20
815.274249863057
 11
228.673559814459
 21
815.274249863057
  0
LINE
  5
188
100
AcDbEntity
  8
1
  6
CONTINUOUS
 62
           7
100
AcDbLine
 10
242.599118337207
 20
827.885499863057
 11
233.490796807766
 21
827.885499863057
  0
LINE
  5
187
100
AcDbEntity
  8
1
  6
CONTINUOUS
 62
           7
100
AcDbLine
 10
233.490796807766
 20
811.212999863057
 11
242.599118337207
 21
811.212999863057
  0
LINE
  5
186
100
AcDbEntity
  8
1
  6
CONTINUOUS
 62
           7
100
AcDbLine
 10
242.599118337207
 20
827.885499863057
 11
248.338559814459
 21
834.725499863057
  0
LINE
  5
185
100
AcDbEntity
  8
1
  6
CONTINUOUS
 62
           7
100
AcDbLine
 10
250.903559814459
 20
834.725499863057
 11
248.338559814459
 21
834.725499863057
  0
LINE
  5
184
100
AcDbEntity
  8
1
  6
CONTINUOUS
 62
           7
100
AcDbLine
 10
251.758559814459
 20
808.042232363057
 11
251.758559814459
 21
833.870499863057
  0
LINE
  5
183
100
AcDbEntity
  8
1
  6
CONTINUOUS
 62
           7
100
AcDbLine
 10
248.338559814459
 20
804.372999863057
 11
250.903559814459
 21
804.372999863057
  0
LINE
  5
182
100
AcDbEntity
  8
1
  6
CONTINUOUS
 62
           7
100
AcDbLine
 10
248.338559814459
 20
804.372999863057
 11
242.599118337207
 21
811.212999863057
  0
LINE
  5
181
100
AcDbEntity
  8
1
  6
CONTINUOUS
 62
           2
100
AcDbLine
 10
228.246059814459
 20
811.426749863057
 11
228.246059814459
 21
819.549249863057
  0
LINE
  5
180
100
AcDbEntity
  8
1
  6
CONTINUOUS
 62
           2
100
AcDbLine
 10
226.536059814459
 20
819.549249863057
 11
226.536059814459
 21
811.426749863057
  0
LINE
  5
17F
100
AcDbEntity
  8
1
  6
CONTINUOUS
 62
           2
100
AcDbLine
 10
228.246059814459
 20
819.549249863057
 11
228.246059814459
 21
827.671749863057
  0
LINE
  5
17E
100
AcDbEntity
  8
1
  6
CONTINUOUS
 62
           2
100
AcDbLine
 10
226.536059814459
 20
827.671749863057
 11
226.536059814459
 21
819.549249863057
  0
LINE
  5
17D
100
AcDbEntity
  8
1
  6
CONTINUOUS
 62
           7
100
AcDbLine
 10
226.108559814459
 20
811.854249863057
 11
226.108559814459
 21
817.447232363057
  0
LINE
  5
17C
100
AcDbEntity
  8
1
  6
CONTINUOUS
 62
           7
100
AcDbLine
 10
228.673559814459
 20
827.244249863057
 11
228.673559814459
 21
819.549249863057
  0
LINE
  5
17B
100
AcDbEntity
  8
1
  6
CONTINUOUS
 62
           2
100
AcDbLine
 10
226.536059814459
 20
827.671749863057
 11
228.246059814459
 21
827.671749863057
  0
LINE
  5
17A
100
AcDbEntity
  8
1
  6
CONTINUOUS
 62
           7
100
AcDbLine
 10
228.673559814459
 20
827.244249863057
 11
228.246059814459
 21
827.671749863057
  0
LINE
  5
179
100
AcDbEntity
  8
1
  6
CONTINUOUS
 62
           7
100
AcDbLine
 10
226.536059814459
 20
827.671749863057
 11
226.108559814459
 21
827.244249863057
  0
LINE
  5
178
100
AcDbEntity
  8
1
  6
CONTINUOUS
 62
           7
100
AcDbLine
 10
226.108559814459
 20
811.854249863057
 11
226.536059814459
 21
811.426749863057
  0
LINE
  5
177
100
AcDbEntity
  8
1
  6
CONTINUOUS
 62
           7
100
AcDbLine
 10
228.246059814459
 20
811.426749863057
 11
228.673559814459
 21
811.854249863057
  0
LINE
  5
176
100
AcDbEntity
  8
1
  6
CONTINUOUS
 62
           7
100
AcDbLine
 10
228.673559814459
 20
819.549249863057
 11
228.673559814459
 21
811.854249863057
  0
LINE
  5
175
100
AcDbEntity
  8
1
  6
CONTINUOUS
 62
           2
100
AcDbLine
 10
228.246059814459
 20
811.426749863057
 11
226.536059814459
 21
811.426749863057
  0
LINE
  5
174
100
AcDbEntity
  8
1
  6
CONTINUOUS
 62
           7
100
AcDbLine
 10
226.108559814459
 20
817.447232363057
 11
226.108559814459
 21
827.244249863057
  0
LINE
  5
173
100
AcDbEntity
  8
1
  6
CONTINUOUS
 62
           2
100
AcDbLine
 10
220.485412627587
 20
821.651267363057
 11
226.06227814743
 21
821.651267363057
  0
LINE
  5
172
100
AcDbEntity
  8
1
  6
CONTINUOUS
 62
           7
100
AcDbLine
 10
219.630412627587
 20
822.114249863057
 11
226.06227814743
 21
822.114249863057
  0
LINE
  5
171
100
AcDbEntity
  8
1
  6
CONTINUOUS
 62
           7
100
AcDbLine
 10
219.202912627587
 20
827.671749863057
 11
219.202912627587
 21
819.549249863057
  0
LINE
  5
170
100
AcDbEntity
  8
1
  6
CONTINUOUS
 62
           7
100
AcDbLine
 10
215.355412627587
 20
827.671749863057
 11
215.355412627587
 21
819.549249863057
  0
LINE
  5
16F
100
AcDbEntity
  8
1
  6
CONTINUOUS
 62
           7
100
AcDbLine
 10
219.202912627587
 20
811.426749863057
 11
219.630412627587
 21
811.854249863057
  0
LINE
  5
16E
100
AcDbEntity
  8
1
  6
CONTINUOUS
 62
           7
100
AcDbLine
 10
214.927912627587
 20
811.854249863057
 11
215.355412627587
 21
811.426749863057
  0
LINE
  5
16D
100
AcDbEntity
  8
1
  6
CONTINUOUS
 62
           7
100
AcDbLine
 10
219.630412627587
 20
827.244249863057
 11
219.202912627587
 21
827.671749863057
  0
LINE
  5
16C
100
AcDbEntity
  8
1
  6
CONTINUOUS
 62
           7
100
AcDbLine
 10
214.927912627587
 20
827.244249863057
 11
215.355412627587
 21
827.671749863057
  0
LINE
  5
16B
100
AcDbEntity
  8
1
  6
CONTINUOUS
 62
           7
100
AcDbLine
 10
214.927912627587
 20
811.854249863057
 11
214.927912627587
 21
827.244249863057
  0
LINE
  5
16A
100
AcDbEntity
  8
1
  6
CONTINUOUS
 62
           7
100
AcDbLine
 10
219.202912627587
 20
811.426749863057
 11
215.355412627587
 21
811.426749863057
  0
LINE
  5
169
100
AcDbEntity
  8
1
  6
CONTINUOUS
 62
           7
100
AcDbLine
 10
219.630412627587
 20
827.244249863057
 11
219.630412627587
 21
811.854249863057
  0
LINE
  5
168
100
AcDbEntity
  8
1
  6
CONTINUOUS
 62
           7
100
AcDbLine
 10
215.355412627587
 20
827.671749863057
 11
219.202912627587
 21
827.671749863057
  0
LINE
  5
167
100
AcDbEntity
  8
1
  6
CONTINUOUS
 62
           7
100
AcDbLine
 10
226.06227814743
 20
816.984249863057
 11
219.630412627587
 21
816.984249863057
  0
LINE
  5
166
100
AcDbEntity
  8
1
  6
CONTINUOUS
 62
           7
100
AcDbLine
 10
220.485412627587
 20
816.984249863057
 11
220.485412627587
 21
822.114249863057
  0
LINE
  5
165
100
AcDbEntity
  8
1
  6
CONTINUOUS
 62
           2
100
AcDbLine
 10
226.06227814743
 20
817.447232363057
 11
220.485412627587
 21
817.447232363057
  0
LINE
  5
164
100
AcDbEntity
  8
1
  6
CONTINUOUS
 62
           7
100
AcDbLine
 10
219.202912627587
 20
819.549249863057
 11
219.202912627587
 21
811.426749863057
  0
LINE
  5
163
100
AcDbEntity
  8
1
  6
CONTINUOUS
 62
           7
100
AcDbLine
 10
215.355412627587
 20
819.549249863057
 11
215.355412627587
 21
811.426749863057
  0
LINE
  5
162
100
AcDbEntity
  8
1
  6
DOT_CENTER
 62
           2
100
AcDbLine
 10
113.346768950771
 20
837.589492829406
 11
113.346768950771
 21
799.077047573931
  0
LINE
  5
161
100
AcDbEntity
  8
1
  6
DOT_CENTER
 62
           2
100
AcDbLine
 10
94.528187746391
 20
818.223859845829
 11
132.821812290187
 21
818.223859845829
  0
LINE
  5
160
100
AcDbEntity
  8
1
  6
CONTINUOUS
 62
           7
100
AcDbLine
 10
112.19729819214
 20
833.356515958936
 11
100.816239709402
 21
826.785658780264
  0
LINE
  5
15F
100
AcDbEntity
  8
1
  6
CONTINUOUS
 62
           7
100
AcDbLine
 10
125.87729819214
 20
826.785658780264
 11
114.496239709402
 21
833.356515958936
  0
LINE
  5
15E
100
AcDbEntity
  8
1
  6
CONTINUOUS
 62
           7
100
AcDbLine
 10
127.026768950771
 20
811.653002667157
 11
127.026768950771
 21
824.794717024501
  0
LINE
  5
15D
100
AcDbEntity
  8
1
  6
CONTINUOUS
 62
           7
100
AcDbLine
 10
114.496239709402
 20
803.091203732722
 11
125.87729819214
 21
809.662060911394
  0
LINE
  5
15C
100
AcDbEntity
  8
1
  6
CONTINUOUS
 62
           7
100
AcDbLine
 10
100.816239709402
 20
809.662060911394
 11
112.19729819214
 21
803.091203732722
  0
LINE
  5
15B
100
AcDbEntity
  8
1
  6
CONTINUOUS
 62
           7
100
AcDbLine
 10
99.666768950771
 20
824.794717024501
 11
99.666768950771
 21
811.653002667157
  0
LINE
  5
15A
100
AcDbEntity
  8
1
  6
CONTINUOUS
 62
           7
100
AcDbLine
 10
79.136808523055
 20
784.451359845829
 11
79.136808523055
 21
799.841359845829
  0
LINE
  5
159
100
AcDbEntity
  8
1
  6
CONTINUOUS
 62
           7
100
AcDbLine
 10
80.954283134934
 20
784.451359845829
 11
80.954283134934
 21
799.841359845829
  0
LINE
  5
158
100
AcDbEntity
  8
1
  6
CONTINUOUS
 62
           7
100
AcDbLine
 10
84.919773134934
 20
784.451359845829
 11
84.919773134934
 21
799.841359845829
  0
LINE
  5
157
100
AcDbEntity
  8
1
  6
CONTINUOUS
 62
           7
100
AcDbLine
 10
86.737503134934
 20
784.451359845829
 11
86.737503134934
 21
799.841359845829
  0
LINE
  5
156
100
AcDbEntity
  8
1
  6
CONTINUOUS
 62
           7
100
AcDbLine
 10
90.702993134934
 20
784.451359845829
 11
90.702993134934
 21
799.841359845829
  0
LINE
  5
155
100
AcDbEntity
  8
1
  6
CONTINUOUS
 62
           7
100
AcDbLine
 10
86.737503134934
 20
784.451359845829
 11
86.737503134934
 21
799.841359845829
  0
LINE
  5
154
100
AcDbEntity
  8
1
  6
CONTINUOUS
 62
           7
100
AcDbLine
 10
86.737503134934
 20
784.451359845829
 11
86.737503134934
 21
799.841359845829
  0
LINE
  5
153
100
AcDbEntity
  8
1
  6
CONTINUOUS
 62
           7
100
AcDbLine
 10
90.702993134934
 20
784.451359845829
 11
90.702993134934
 21
799.841359845829
  0
LINE
  5
152
100
AcDbEntity
  8
1
  6
CONTINUOUS
 62
           7
100
AcDbLine
 10
90.702993134934
 20
799.841359845829
 11
92.520723134934
 21
799.841359845829
  0
LINE
  5
151
100
AcDbEntity
  8
1
  6
CONTINUOUS
 62
           7
100
AcDbLine
 10
92.520723134934
 20
784.451359845829
 11
92.520723134934
 21
799.841359845829
  0
LINE
  5
150
100
AcDbEntity
  8
1
  6
CONTINUOUS
 62
           7
100
AcDbLine
 10
96.486213134934
 20
784.451359845829
 11
96.486213134934
 21
799.841359845829
  0
LINE
  5
14F
100
AcDbEntity
  8
1
  6
CONTINUOUS
 62
           7
100
AcDbLine
 10
96.486213134934
 20
784.451359845829
 11
96.486213134934
 21
799.841359845829
  0
LINE
  5
14E
100
AcDbEntity
  8
1
  6
CONTINUOUS
 62
           7
100
AcDbLine
 10
96.486213134934
 20
799.841359845829
 11
98.303943134934
 21
799.841359845829
  0
LINE
  5
14D
100
AcDbEntity
  8
1
  6
CONTINUOUS
 62
           7
100
AcDbLine
 10
98.303943134934
 20
784.451359845829
 11
98.303943134934
 21
799.841359845829
  0
LINE
  5
14C
100
AcDbEntity
  8
1
  6
CONTINUOUS
 62
           7
100
AcDbLine
 10
79.136808523055
 20
784.451359845829
 11
79.136808523055
 21
799.841359845829
  0
LINE
  5
14B
100
AcDbEntity
  8
1
  6
CONTINUOUS
 62
           7
100
AcDbLine
 10
80.954283134934
 20
784.451359845829
 11
80.954283134934
 21
799.841359845829
  0
LINE
  5
14A
100
AcDbEntity
  8
1
  6
CONTINUOUS
 62
           7
100
AcDbLine
 10
79.136808523055
 20
784.451359845829
 11
79.136808523055
 21
799.841359845829
  0
LINE
  5
149
100
AcDbEntity
  8
1
  6
CONTINUOUS
 62
           7
100
AcDbLine
 10
128.389594766608
 20
799.841359845829
 11
130.207324766608
 21
799.841359845829
  0
LINE
  5
148
100
AcDbEntity
  8
1
  6
CONTINUOUS
 62
           7
100
AcDbLine
 10
134.172814766608
 20
799.841359845829
 11
135.990544766608
 21
799.841359845829
  0
LINE
  5
147
100
AcDbEntity
  8
1
  6
CONTINUOUS
 62
           7
100
AcDbLine
 10
139.956034766608
 20
799.841359845829
 11
141.773764766608
 21
799.841359845829
  0
LINE
  5
146
100
AcDbEntity
  8
1
  6
CONTINUOUS
 62
           7
100
AcDbLine
 10
128.389594766608
 20
799.841359845829
 11
128.389594766608
 21
789.980986981863
  0
LINE
  5
145
100
AcDbEntity
  8
1
  6
CONTINUOUS
 62
           7
100
AcDbLine
 10
130.207324766608
 20
799.841359845829
 11
130.207324766608
 21
788.02606343675
  0
LINE
  5
144
100
AcDbEntity
  8
1
  6
CONTINUOUS
 62
           7
100
AcDbLine
 10
134.172814766608
 20
799.841359845829
 11
134.172814766608
 21
784.451359845829
  0
LINE
  5
143
100
AcDbEntity
  8
1
  6
CONTINUOUS
 62
           7
100
AcDbLine
 10
135.990544766608
 20
799.841359845829
 11
135.990544766608
 21
784.451359845829
  0
LINE
  5
142
100
AcDbEntity
  8
1
  6
CONTINUOUS
 62
           7
100
AcDbLine
 10
139.956034766608
 20
799.841359845829
 11
139.956034766608
 21
784.451359845829
  0
LINE
  5
141
100
AcDbEntity
  8
1
  6
CONTINUOUS
 62
           7
100
AcDbLine
 10
141.773764766608
 20
799.841359845829
 11
141.773764766608
 21
784.451359845829
  0
LINE
  5
140
100
AcDbEntity
  8
1
  6
CONTINUOUS
 62
           7
100
AcDbLine
 10
121.182973389145
 20
801.551359845829
 11
122.055606057411
 21
801.551359845829
  0
LINE
  5
13F
100
AcDbEntity
  8
1
  6
CONTINUOUS
 62
           7
100
AcDbLine
 10
127.476042003382
 20
801.551359845829
 11
153.017617362709
 21
801.551359845829
  0
LINE
  5
13E
100
AcDbEntity
  8
1
  6
CONTINUOUS
 62
           7
100
AcDbLine
 10
70.313558858928
 20
784.451359845829
 11
70.313558858928
 21
799.841359845829
  0
LINE
  5
13D
100
AcDbEntity
  8
1
  6
CONTINUOUS
 62
           7
100
AcDbLine
 10
70.313558858928
 20
799.841359845829
 11
71.134569702282
 21
799.841359845829
  0
LINE
  5
13C
100
AcDbEntity
  8
1
  6
CONTINUOUS
 62
           7
100
AcDbLine
 10
71.134569702282
 20
799.841359845829
 11
71.134569702282
 21
784.451359845829
  0
LINE
  5
13B
100
AcDbEntity
  8
1
  6
CONTINUOUS
 62
           7
100
AcDbLine
 10
70.313558858928
 20
799.841359845829
 11
71.134569702282
 21
799.841359845829
  0
LINE
  5
13A
100
AcDbEntity
  8
1
  6
CONTINUOUS
 62
           7
100
AcDbLine
 10
75.170973796266
 20
799.841359845829
 11
75.170973796266
 21
784.451359845829
  0
LINE
  5
139
100
AcDbEntity
  8
1
  6
CONTINUOUS
 62
           7
100
AcDbLine
 10
73.86024759565
 20
799.841359845829
 11
75.170973796266
 21
799.841359845829
  0
LINE
  5
138
100
AcDbEntity
  8
1
  6
CONTINUOUS
 62
           7
100
AcDbLine
 10
79.136808523055
 20
799.841359845829
 11
80.954283134934
 21
799.841359845829
  0
LINE
  5
137
100
AcDbEntity
  8
1
  6
CONTINUOUS
 62
           7
100
AcDbLine
 10
80.954283134934
 20
784.451359845829
 11
80.954283134934
 21
799.841359845829
  0
LINE
  5
136
100
AcDbEntity
  8
1
  6
CONTINUOUS
 62
           7
100
AcDbLine
 10
75.170973796266
 20
799.841359845829
 11
75.170973796266
 21
784.451359845829
  0
LINE
  5
135
100
AcDbEntity
  8
1
  6
CONTINUOUS
 62
           7
100
AcDbLine
 10
73.86024759565
 20
799.841359845829
 11
75.170973796266
 21
799.841359845829
  0
LINE
  5
134
100
AcDbEntity
  8
1
  6
CONTINUOUS
 62
           7
100
AcDbLine
 10
71.134569702282
 20
799.841359845829
 11
71.134569702282
 21
784.451359845829
  0
LINE
  5
133
100
AcDbEntity
  8
1
  6
CONTINUOUS
 62
           7
100
AcDbLine
 10
73.86024759565
 20
784.451359845829
 11
73.86024759565
 21
799.841359845829
  0
LINE
  5
132
100
AcDbEntity
  8
1
  6
CONTINUOUS
 62
           7
100
AcDbLine
 10
75.170973796266
 20
799.841359845829
 11
75.170973796266
 21
784.451359845829
  0
LINE
  5
131
100
AcDbEntity
  8
1
  6
CONTINUOUS
 62
           7
100
AcDbLine
 10
79.136808523055
 20
784.451359845829
 11
79.136808523055
 21
799.841359845829
  0
LINE
  5
130
100
AcDbEntity
  8
1
  6
CONTINUOUS
 62
           7
100
AcDbLine
 10
80.954283134934
 20
784.451359845829
 11
80.954283134934
 21
799.841359845829
  0
LINE
  5
12F
100
AcDbEntity
  8
1
  6
CONTINUOUS
 62
           7
100
AcDbLine
 10
145.739254766608
 20
799.841359845829
 11
145.739254766608
 21
784.451359845829
  0
LINE
  5
12E
100
AcDbEntity
  8
1
  6
CONTINUOUS
 62
           7
100
AcDbLine
 10
80.954283134934
 20
784.451359845829
 11
80.954283134934
 21
799.841359845829
  0
LINE
  5
12D
100
AcDbEntity
  8
1
  6
CONTINUOUS
 62
           7
100
AcDbLine
 10
131.445091704827
 20
784.451359845829
 11
157.833620176857
 21
784.451359845829
  0
LINE
  5
12C
100
AcDbEntity
  8
1
  6
CONTINUOUS
 62
           7
100
AcDbLine
 10
169.605768950771
 20
621.043213082003
 11
169.605768950771
 21
653.447713082003
  0
LINE
  5
12B
100
AcDbEntity
  8
1
  6
CONTINUOUS
 62
           7
100
AcDbLine
 10
113.346768950771
 20
615.229213082003
 11
163.791768950771
 21
615.229213082003
  0
LINE
  5
12A
100
AcDbEntity
  8
1
  6
CONTINUOUS
 62
           7
100
AcDbLine
 10
169.605768950771
 20
653.447713082003
 11
169.349268950771
 21
653.704213082003
  0
LINE
  5
129
100
AcDbEntity
  8
1
  6
CONTINUOUS
 62
           7
100
AcDbLine
 10
57.344268950771
 20
653.704213082003
 11
57.087768950771
 21
653.447713082003
  0
LINE
  5
128
100
AcDbEntity
  8
1
  6
CONTINUOUS
 62
           7
100
AcDbLine
 10
62.901768950771
 20
615.229213082003
 11
113.346768950771
 21
615.229213082003
  0
LINE
  5
127
100
AcDbEntity
  8
1
  6
CONTINUOUS
 62
           7
100
AcDbLine
 10
57.087768950771
 20
653.447713082003
 11
57.087768950771
 21
621.043213082003
  0
LINE
  5
126
100
AcDbEntity
  8
1
  6
CONTINUOUS
 62
           7
100
AcDbLine
 10
164.173979067523
 20
771.799419210624
 11
153.104268950771
 21
780.774859845829
  0
LINE
  5
125
100
AcDbEntity
  8
1
  6
CONTINUOUS
 62
           7
100
AcDbLine
 10
62.519558834019
 20
771.799419210624
 11
73.589268950771
 21
780.774859845829
  0
LINE
  5
124
100
AcDbEntity
  8
1
  6
CONTINUOUS
 62
           7
100
AcDbLine
 10
168.921768950771
 20
653.704213082003
 11
168.921768950771
 21
761.837526733297
  0
LINE
  5
123
100
AcDbEntity
  8
1
  6
CONTINUOUS
 62
           7
100
AcDbLine
 10
57.771768950771
 20
653.704213082003
 11
57.771768950771
 21
761.837526733297
  0
LINE
  5
122
100
AcDbEntity
  8
1
  6
CONTINUOUS
 62
           7
100
AcDbLine
 10
57.344268950771
 20
653.704213082003
 11
169.605768950771
 21
653.704213082003
  0
LINE
  5
121
100
AcDbEntity
  8
1
  6
CONTINUOUS
 62
           7
100
AcDbLine
 10
97.570720283217
 20
615.229213082003
 11
124.688484922487
 21
615.229213082003
  0
LINE
  5
120
100
AcDbEntity
  8
1
  6
CONTINUOUS
 62
           7
100
AcDbLine
 10
102.639561847476
 20
615.229213082003
 11
124.688484922487
 21
615.229213082003
  0
LINE
  5
11F
100
AcDbEntity
  8
1
  6
CONTINUOUS
 62
           7
100
AcDbLine
 10
97.956768950771
 20
792.57007438801
 11
97.956768950771
 21
792.565752621196
  0
LINE
  5
11E
100
AcDbEntity
  8
1
  6
CONTINUOUS
 62
           7
100
AcDbLine
 10
150.539268950771
 20
784.451359845829
 11
150.539268950771
 21
780.774859845829
  0
LINE
  5
11D
100
AcDbEntity
  8
1
  6
CONTINUOUS
 62
           7
100
AcDbLine
 10
76.154268950771
 20
784.451359845829
 11
76.154268950771
 21
780.774859845829
  0
LINE
  5
11C
100
AcDbEntity
  8
1
  6
CONTINUOUS
 62
           7
100
AcDbLine
 10
87.919477405757
 20
615.229213082003
 11
130.663985687166
 21
615.229213082003
  0
LINE
  5
11B
100
AcDbEntity
  8
1
  6
CONTINUOUS
 62
           7
100
AcDbLine
 10
83.278401288765
 20
615.229213082003
 11
145.069317112616
 21
615.229213082003
  0
LINE
  5
11A
100
AcDbEntity
  8
1
  6
CONTINUOUS
 62
           7
100
AcDbLine
 10
83.278401288765
 20
615.229213082003
 11
124.688484922487
 21
615.229213082003
  0
LINE
  5
119
100
AcDbEntity
  8
1
  6
CONTINUOUS
 62
           7
100
AcDbLine
 10
70.169268950771
 20
800.564480057377
 11
70.169268950771
 21
784.451359845829
  0
LINE
  5
118
100
AcDbEntity
  8
1
  6
CONTINUOUS
 62
           7
100
AcDbLine
 10
157.833620176857
 20
799.841359845829
 11
158.09428714204
 21
799.841359845829
  0
LINE
  5
117
100
AcDbEntity
  8
1
  6
CONTINUOUS
 62
           7
100
AcDbLine
 10
145.739254766608
 20
799.841359845829
 11
147.556729378487
 21
799.841359845829
  0
LINE
  5
116
100
AcDbEntity
  8
1
  6
CONTINUOUS
 62
           7
100
AcDbLine
 10
151.522564105276
 20
799.841359845829
 11
152.833290305892
 21
799.841359845829
  0
LINE
  5
115
100
AcDbEntity
  8
1
  6
CONTINUOUS
 62
           7
100
AcDbLine
 10
155.55896819926
 20
799.841359845829
 11
156.379979042614
 21
799.841359845829
  0
LINE
  5
114
100
AcDbEntity
  8
1
  6
CONTINUOUS
 62
           7
100
AcDbLine
 10
147.556729378487
 20
799.841359845829
 11
147.556729378487
 21
784.451359845829
  0
LINE
  5
113
100
AcDbEntity
  8
1
  6
CONTINUOUS
 62
           7
100
AcDbLine
 10
151.522564105276
 20
784.451359845829
 11
151.522564105276
 21
799.841359845829
  0
LINE
  5
112
100
AcDbEntity
  8
1
  6
CONTINUOUS
 62
           7
100
AcDbLine
 10
152.833290305892
 20
799.841359845829
 11
152.833290305892
 21
784.451359845829
  0
LINE
  5
111
100
AcDbEntity
  8
1
  6
CONTINUOUS
 62
           7
100
AcDbLine
 10
155.55896819926
 20
784.451359845829
 11
155.55896819926
 21
799.841359845829
  0
LINE
  5
110
100
AcDbEntity
  8
1
  6
CONTINUOUS
 62
           7
100
AcDbLine
 10
156.379979042614
 20
799.841359845829
 11
156.379979042614
 21
784.451359845829
  0
LINE
  5
10F
100
AcDbEntity
  8
1
  6
CONTINUOUS
 62
           7
100
AcDbLine
 10
157.833620176857
 20
799.841359845829
 11
157.833620176857
 21
784.451359845829
  0
LINE
  5
10E
100
AcDbEntity
  8
1
  6
CONTINUOUS
 62
           7
100
AcDbLine
 10
158.09428714204
 20
784.451359845829
 11
158.09428714204
 21
799.841359845829
  0
LINE
  5
10D
100
AcDbEntity
  8
1
  6
CONTINUOUS
 62
           7
100
AcDbLine
 10
68.599250759503
 20
799.841359845829
 11
68.599250759503
 21
784.451359845829
  0
LINE
  5
10C
100
AcDbEntity
  8
1
  6
CONTINUOUS
 62
           7
100
AcDbLine
 10
68.599250759503
 20
799.841359845829
 11
68.599250759503
 21
784.451359845829
  0
LINE
  5
10B
100
AcDbEntity
  8
1
  6
CONTINUOUS
 62
           7
100
AcDbLine
 10
68.599250759503
 20
784.451359845829
 11
125.529309863266
 21
784.451359845829
  0
LINE
  5
10A
100
AcDbEntity
  8
1
  6
CONTINUOUS
 62
           7
100
AcDbLine
 10
128.389594766608
 20
799.841359845829
 11
128.389594766607
 21
784.451359845829
  0
LINE
  5
109
100
AcDbEntity
  8
1
  6
CONTINUOUS
 62
           7
100
AcDbLine
 10
130.207324766608
 20
799.841359845829
 11
130.207324766607
 21
784.451359845829
  0
LINE
  5
108
100
AcDbEntity
  8
1
  6
CONTINUOUS
 62
           7
100
AcDbLine
 10
125.529309863266
 20
784.451359845829
 11
158.09428714204
 21
784.451359845829
  0
LINE
  5
107
100
AcDbEntity
  8
1
  6
CONTINUOUS
 62
           7
100
AcDbLine
 10
112.891331780757
 20
908.879024645241
 11
114.264742554886
 21
908.879024645241
  0
LINE
  5
106
100
AcDbEntity
  8
1
  6
CONTINUOUS
 62
           7
100
AcDbLine
 10
73.675920538834
 20
801.551359845829
 11
127.766567746894
 21
801.551359845829
  0
LINE
  5
105
100
AcDbEntity
  8
1
  6
CONTINUOUS
 62
           7
100
AcDbLine
 10
118.640884766607
 20
799.841359845829
 11
118.640884766607
 21
784.451359845829
  0
LINE
  5
104
100
AcDbEntity
  8
1
  6
CONTINUOUS
 62
           7
100
AcDbLine
 10
128.389594766608
 20
799.841359845829
 11
128.389594766607
 21
784.451359845829
  0
LINE
  5
103
100
AcDbEntity
  8
1
  6
CONTINUOUS
 62
           7
100
AcDbLine
 10
124.424104766607
 20
799.841359845829
 11
124.424104766607
 21
784.451359845829
  0
LINE
  5
102
100
AcDbEntity
  8
1
  6
CONTINUOUS
 62
           7
100
AcDbLine
 10
122.606374766607
 20
799.841359845829
 11
122.606374766607
 21
784.451359845829
  0
LINE
  5
101
100
AcDbEntity
  8
1
  6
CONTINUOUS
 62
           7
100
AcDbLine
 10
118.640884766607
 20
799.841359845829
 11
118.640884766607
 21
788.02606343675
  0
LINE
  5
100
100
AcDbEntity
  8
1
  6
CONTINUOUS
 62
           7
100
AcDbLine
 10
122.606374766607
 20
799.841359845829
 11
124.424104766607
 21
799.841359845829
  0
LINE
  5
FF
100
AcDbEntity
  8
1
  6
CONTINUOUS
 62
           7
100
AcDbLine
 10
104.087163134934
 20
784.451359845829
 11
104.087163134934
 21
799.841359845829
  0
LINE
  5
FE
100
AcDbEntity
  8
1
  6
CONTINUOUS
 62
           7
100
AcDbLine
 10
102.269433134934
 20
799.841359845829
 11
104.087163134934
 21
799.841359845829
  0
LINE
  5
FD
100
AcDbEntity
  8
1
  6
CONTINUOUS
 62
           7
100
AcDbLine
 10
102.269433134934
 20
784.451359845829
 11
102.269433134934
 21
799.841359845829
  0
LINE
  5
FC
100
AcDbEntity
  8
1
  6
CONTINUOUS
 62
           7
100
AcDbLine
 10
108.63664008887
 20
799.841359845829
 11
108.63664008887
 21
784.451359845829
  0
LINE
  5
FB
100
AcDbEntity
  8
1
  6
CONTINUOUS
 62
           7
100
AcDbLine
 10
110.746107672694
 20
799.841359845829
 11
110.746107672694
 21
784.451359845829
  0
LINE
  5
FA
100
AcDbEntity
  8
1
  6
CONTINUOUS
 62
           7
100
AcDbLine
 10
115.739949299707
 20
799.841359845829
 11
115.739949299707
 21
784.451359845829
  0
LINE
  5
F9
100
AcDbEntity
  8
1
  6
CONTINUOUS
 62
           7
100
AcDbLine
 10
115.739949299707
 20
799.841359845829
 11
118.640884766607
 21
799.841359845829
  0
LINE
  5
F8
100
AcDbEntity
  8
1
  6
CONTINUOUS
 62
           7
100
AcDbLine
 10
108.63664008887
 20
799.841359845829
 11
110.746107672694
 21
799.841359845829
  0
LINE
  5
F7
100
AcDbEntity
  8
1
  6
CONTINUOUS
 62
           7
100
AcDbLine
 10
73.589268950771
 20
780.774859845829
 11
153.104268950771
 21
780.774859845829
  0
LINE
  5
F6
100
AcDbEntity
  8
1
  6
CONTINUOUS
 62
           7
100
AcDbLine
 10
123.179268950771
 20
849.39606254669
 11
123.179268950771
 21
834.259384275981
  0
LINE
  5
F5
100
AcDbEntity
  8
1
  6
CONTINUOUS
 62
           7
100
AcDbLine
 10
65.039268950771
 20
892.896665406984
 11
65.039268950771
 21
887.740112995891
  0
LINE
  5
F4
100
AcDbEntity
  8
1
  6
CONTINUOUS
 62
           7
100
AcDbLine
 10
161.654268950771
 20
892.896665406984
 11
161.654268950771
 21
887.740112995891
  0
LINE
  5
F3
100
AcDbEntity
  8
1
  6
CONTINUOUS
 62
           7
100
AcDbLine
 10
73.589268950771
 20
892.896665406984
 11
73.589268950771
 21
887.740112995891
  0
LINE
  5
F2
100
AcDbEntity
  8
1
  6
CONTINUOUS
 62
           7
100
AcDbLine
 10
153.104268950771
 20
892.896665406984
 11
153.104268950771
 21
887.740112995891
  0
LINE
  5
F1
100
AcDbEntity
  8
1
  6
CONTINUOUS
 62
           7
100
AcDbLine
 10
123.179268950771
 20
834.494509845829
 11
123.179268950771
 21
834.259384275981
  0
LINE
  5
F0
100
AcDbEntity
  8
1
  6
CONTINUOUS
 62
           7
100
AcDbLine
 10
126.657391633983
 20
838.769509845829
 11
123.179268950771
 21
838.769509845829
  0
LINE
  5
EF
100
AcDbEntity
  8
1
  6
CONTINUOUS
 62
           7
100
AcDbLine
 10
130.274905292377
 20
858.434509845829
 11
131.301768950771
 21
858.434509845829
  0
LINE
  5
EE
100
AcDbEntity
  8
1
  6
CONTINUOUS
 62
           7
100
AcDbLine
 10
103.514268950771
 20
849.39606254669
 11
103.514268950771
 21
834.259384275981
  0
LINE
  5
ED
100
AcDbEntity
  8
1
  6
CONTINUOUS
 62
           7
100
AcDbLine
 10
133.011768950771
 20
856.724509845829
 11
133.011768950771
 21
843.934622824974
  0
LINE
  5
EC
100
AcDbEntity
  8
1
  6
CONTINUOUS
 62
           7
100
AcDbLine
 10
140.939766265174
 20
852.797902927165
 11
137.038125869435
 21
852.797902927165
  0
LINE
  5
EB
100
AcDbEntity
  8
1
  6
CONTINUOUS
 62
           2
100
AcDbLine
 10
147.781825559769
 20
854.993134845829
 11
152.938398950771
 21
854.993134845829
  0
LINE
  5
EA
100
AcDbEntity
  8
1
  6
CONTINUOUS
 62
           7
100
AcDbLine
 10
145.794018950771
 20
841.479004845829
 11
145.794018950771
 21
844.625346866684
  0
LINE
  5
E9
100
AcDbEntity
  8
1
  6
CONTINUOUS
 62
           7
100
AcDbLine
 10
144.234556929916
 20
843.065884845829
 11
145.794018950771
 21
843.065884845829
  0
LINE
  5
E8
100
AcDbEntity
  8
1
  6
CONTINUOUS
 62
           7
100
AcDbLine
 10
143.229018950771
 20
842.060346866684
 11
143.229018950771
 21
841.334509845829
  0
LINE
  5
E7
100
AcDbEntity
  8
1
  6
CONTINUOUS
 62
           7
100
AcDbLine
 10
144.424433567455
 20
854.138134845829
 11
143.229018950771
 21
854.138134845829
  0
LINE
  5
E6
100
AcDbEntity
  8
1
  6
CONTINUOUS
 62
           7
100
AcDbLine
 10
141.378895767245
 20
840.210223683158
 11
142.374018950771
 21
840.210223683158
  0
LINE
  5
E5
100
AcDbEntity
  8
1
  6
CONTINUOUS
 62
           7
100
AcDbLine
 10
136.389018950771
 20
848.602009845829
 11
136.389018950771
 21
847.311872824974
  0
LINE
  5
E4
100
AcDbEntity
  8
1
  6
CONTINUOUS
 62
           7
100
AcDbLine
 10
123.179268950771
 20
834.494509845829
 11
123.179268950771
 21
834.259384275981
  0
LINE
  5
E3
100
AcDbEntity
  8
1
  6
CONTINUOUS
 62
           7
100
AcDbLine
 10
152.206518950771
 20
841.479004845829
 11
153.061518950771
 21
842.334004845829
  0
LINE
  5
E2
100
AcDbEntity
  8
1
  6
CONTINUOUS
 62
           7
100
AcDbLine
 10
145.794018950771
 20
841.479004845829
 11
152.206518950771
 21
841.479004845829
  0
LINE
  5
E1
100
AcDbEntity
  8
1
  6
CONTINUOUS
 62
           7
100
AcDbLine
 10
142.374018950771
 20
856.9937960085
 11
137.244018950771
 21
856.9937960085
  0
LINE
  5
E0
100
AcDbEntity
  8
1
  6
CONTINUOUS
 62
           7
100
AcDbLine
 10
142.374018950771
 20
856.9937960085
 11
137.244018950771
 21
856.9937960085
  0
LINE
  5
DF
100
AcDbEntity
  8
1
  6
CONTINUOUS
 62
           7
100
AcDbLine
 10
142.374018950771
 20
840.210223683158
 11
143.229018950771
 21
841.334509845829
  0
LINE
  5
DE
100
AcDbEntity
  8
1
  6
CONTINUOUS
 62
           7
100
AcDbLine
 10
152.206518950771
 20
841.479004845829
 11
152.206518950771
 21
848.602009845829
  0
LINE
  5
DD
100
AcDbEntity
  8
1
  6
CONTINUOUS
 62
           7
100
AcDbLine
 10
153.061518950771
 20
842.334004845829
 11
153.061518950771
 21
848.602009845829
  0
LINE
  5
DC
100
AcDbEntity
  8
1
  6
CONTINUOUS
 62
           2
100
AcDbLine
 10
152.938398950771
 20
842.210884845829
 11
145.794018950771
 21
842.210884845829
  0
LINE
  5
DB
100
AcDbEntity
  8
1
  6
CONTINUOUS
 62
         250
100
AcDbLine
 10
153.061518950771
 20
843.685759845829
 11
151.950841370417
 21
844.327009845829
  0
LINE
  5
DA
100
AcDbEntity
  8
1
  6
CONTINUOUS
 62
         250
100
AcDbLine
 10
151.950841370417
 20
852.877009845829
 11
153.061518950771
 21
853.518259845829
  0
LINE
  5
D9
100
AcDbEntity
  8
1
  6
CONTINUOUS
 62
           7
100
AcDbLine
 10
153.061518950771
 20
848.602009845829
 11
153.061518950771
 21
854.870014845829
  0
LINE
  5
D8
100
AcDbEntity
  8
1
  6
CONTINUOUS
 62
           7
100
AcDbLine
 10
152.206518950771
 20
848.602009845829
 11
152.206518950771
 21
855.725014845829
  0
LINE
  5
D7
100
AcDbEntity
  8
1
  6
CONTINUOUS
 62
           7
100
AcDbLine
 10
136.389018950771
 20
855.892174166649
 11
136.389018950771
 21
848.602009845829
  0
LINE
  5
D6
100
AcDbEntity
  8
1
  6
CONTINUOUS
 62
           7
100
AcDbLine
 10
143.229018950771
 20
855.869509845829
 11
143.229018950771
 21
852.942720229145
  0
LINE
  5
D5
100
AcDbEntity
  8
1
  6
CONTINUOUS
 62
           7
100
AcDbLine
 10
142.374018950771
 20
856.9937960085
 11
137.244018950771
 21
856.9937960085
  0
LINE
  5
D4
100
AcDbEntity
  8
1
  6
CONTINUOUS
 62
           7
100
AcDbLine
 10
136.389018950771
 20
855.892174166649
 11
137.244018950771
 21
856.9937960085
  0
LINE
  5
D3
100
AcDbEntity
  8
1
  6
CONTINUOUS
 62
           7
100
AcDbLine
 10
143.229018950771
 20
855.869509845829
 11
142.374018950771
 21
856.9937960085
  0
LINE
  5
D2
100
AcDbEntity
  8
1
  6
CONTINUOUS
 62
           7
100
AcDbLine
 10
142.579912032107
 20
852.797902927165
 11
142.272949968651
 21
852.797902927165
  0
LINE
  5
D1
100
AcDbEntity
  8
1
  6
CONTINUOUS
 62
           2
100
AcDbLine
 10
133.011768950771
 20
855.091994220829
 11
135.297696950771
 21
855.895309470829
  0
LINE
  5
D0
100
AcDbEntity
  8
1
  6
CONTINUOUS
 62
           7
100
AcDbLine
 10
135.297696950771
 20
855.895309470829
 11
133.011768950771
 21
855.823874220829
  0
LINE
  5
CF
100
AcDbEntity
  8
1
  6
CONTINUOUS
 62
           7
100
AcDbLine
 10
136.418639709147
 20
855.930338932028
 11
135.297696950771
 21
855.895309470829
  0
LINE
  5
CE
100
AcDbEntity
  8
1
  6
CONTINUOUS
 62
           7
100
AcDbLine
 10
152.206518950771
 20
855.725014845829
 11
145.794018950771
 21
855.725014845829
  0
LINE
  5
CD
100
AcDbEntity
  8
1
  6
CONTINUOUS
 62
           7
100
AcDbLine
 10
153.061518950771
 20
854.870014845829
 11
152.206518950771
 21
855.725014845829
  0
LINE
  5
CC
100
AcDbEntity
  8
1
  6
DOT_CENTER
 62
           2
100
AcDbLine
 10
128.233762893768
 20
834.774833394386
 11
129.941187878154
 21
833.06740841
  0
LINE
  5
CB
100
AcDbEntity
  8
1
  6
DOT_CENTER
 62
           2
100
AcDbLine
 10
140.108299757974
 20
844.985390653032
 11
150.343195356907
 21
855.220286251965
  0
LINE
  5
CA
100
AcDbEntity
  8
1
  6
CONTINUOUS
 62
           7
100
AcDbLine
 10
145.926053265698
 20
855.639754544072
 11
147.135205861527
 21
855.639754544072
  0
LINE
  5
C9
100
AcDbEntity
  8
1
  6
CONTINUOUS
 62
           7
100
AcDbLine
 10
142.679465374206
 20
852.39316665258
 11
145.926053265698
 21
855.639754544072
  0
LINE
  5
C8
100
AcDbEntity
  8
1
  6
CONTINUOUS
 62
           2
100
AcDbLine
 10
142.924923351159
 20
852.147708675627
 11
146.416969219604
 21
855.639754544072
  0
LINE
  5
C7
100
AcDbEntity
  8
1
  6
CONTINUOUS
 62
           7
100
AcDbLine
 10
147.135205861527
 20
855.639754544072
 11
148.646646606313
 21
854.128313799286
  0
LINE
  5
C6
100
AcDbEntity
  8
1
  6
CONTINUOUS
 62
           7
100
AcDbLine
 10
148.042070308399
 20
853.523737501371
 11
148.646646606313
 21
854.128313799286
  0
LINE
  5
C5
100
AcDbEntity
  8
1
  6
CONTINUOUS
 62
           7
100
AcDbLine
 10
148.646646606313
 20
852.919161203457
 11
148.042070308399
 21
853.523737501371
  0
LINE
  5
C4
100
AcDbEntity
  8
1
  6
CONTINUOUS
 62
           7
100
AcDbLine
 10
149.251222904227
 20
853.523737501371
 11
148.646646606313
 21
852.919161203457
  0
LINE
  5
C3
100
AcDbEntity
  8
1
  6
CONTINUOUS
 62
           7
100
AcDbLine
 10
149.251222904227
 20
853.523737501371
 11
150.762663649014
 21
852.012296756585
  0
LINE
  5
C2
100
AcDbEntity
  8
1
  6
CONTINUOUS
 62
           7
100
AcDbLine
 10
150.762663649014
 20
850.803144160756
 11
150.762663649014
 21
852.012296756585
  0
LINE
  5
C1
100
AcDbEntity
  8
1
  6
CONTINUOUS
 62
           7
100
AcDbLine
 10
150.762663649014
 20
850.803144160756
 11
147.516075757522
 21
847.556556269264
  0
LINE
  5
C0
100
AcDbEntity
  8
1
  6
CONTINUOUS
 62
           2
100
AcDbLine
 10
150.762663649014
 20
851.294060114662
 11
147.270617780569
 21
847.802014246218
  0
LINE
  5
BF
100
AcDbEntity
  8
1
  6
CONTINUOUS
 62
           7
100
AcDbLine
 10
147.572905929526
 20
847.49972609726
 11
148.120652055437
 21
846.95197997135
  0
LINE
  5
BE
100
AcDbEntity
  8
1
  6
CONTINUOUS
 62
           7
100
AcDbLine
 10
148.120652055437
 20
846.95197997135
 11
148.318300564681
 21
846.214345692808
  0
LINE
  5
BD
100
AcDbEntity
  8
1
  6
CONTINUOUS
 62
           7
100
AcDbLine
 10
148.318300564681
 20
846.214345692808
 11
147.286387959401
 21
845.182433087527
  0
LINE
  5
BC
100
AcDbEntity
  8
1
  6
CONTINUOUS
 62
           7
100
AcDbLine
 10
147.286387959401
 20
845.182433087527
 11
146.548753680859
 21
845.380081596772
  0
LINE
  5
BB
100
AcDbEntity
  8
1
  6
CONTINUOUS
 62
           7
100
AcDbLine
 10
146.573039122949
 20
847.959607134541
 11
145.541126517668
 21
846.92769452926
  0
LINE
  5
BA
100
AcDbEntity
  8
1
  6
CONTINUOUS
 62
           7
100
AcDbLine
 10
142.074889076292
 20
852.997742950495
 11
147.572905929526
 21
847.49972609726
  0
LINE
  5
B9
100
AcDbEntity
  8
1
  6
CONTINUOUS
 62
           7
100
AcDbLine
 10
142.050603634202
 20
850.418217412726
 11
143.082516239482
 21
851.450130018007
  0
LINE
  5
B8
100
AcDbEntity
  8
1
  6
CONTINUOUS
 62
           7
100
AcDbLine
 10
140.305342192469
 20
852.163478854459
 11
141.337254797749
 21
853.19539145974
  0
LINE
  5
B7
100
AcDbEntity
  8
1
  6
CONTINUOUS
 62
           7
100
AcDbLine
 10
141.337254797749
 20
853.19539145974
 11
142.074889076292
 21
852.997742950495
  0
LINE
  5
B6
100
AcDbEntity
  8
1
  6
CONTINUOUS
 62
           7
100
AcDbLine
 10
141.050736827624
 20
850.878098450006
 11
140.502990701714
 21
851.425844575917
  0
LINE
  5
B5
100
AcDbEntity
  8
1
  6
CONTINUOUS
 62
           7
100
AcDbLine
 10
140.502990701714
 20
851.425844575917
 11
140.305342192469
 21
852.163478854459
  0
LINE
  5
B4
100
AcDbEntity
  8
1
  6
CONTINUOUS
 62
           7
100
AcDbLine
 10
140.0085836888
 20
850.931437563003
 11
140.613159986715
 21
850.931437563003
  0
LINE
  5
B3
100
AcDbEntity
  8
1
  6
CONTINUOUS
 62
           2
100
AcDbLine
 10
145.698719405991
 20
846.23011587164
 11
145.506600542035
 21
846.037997007684
  0
LINE
  5
B2
100
AcDbEntity
  8
1
  6
CONTINUOUS
 62
           7
100
AcDbLine
 10
145.944177382945
 20
845.984657894687
 11
145.752058518988
 21
845.79253903073
  0
LINE
  5
B1
100
AcDbEntity
  8
1
  6
CONTINUOUS
 62
           7
100
AcDbLine
 10
140.915448135672
 20
850.629149414046
 11
141.107566999628
 21
850.821268278003
  0
LINE
  5
B0
100
AcDbEntity
  8
1
  6
CONTINUOUS
 62
           7
100
AcDbLine
 10
146.548753680859
 20
845.380081596772
 11
141.050736827624
 21
850.878098450006
  0
LINE
  5
AF
100
AcDbEntity
  8
1
  6
CONTINUOUS
 62
           2
100
AcDbLine
 10
141.160906112625
 20
850.383691437093
 11
141.353024976582
 21
850.575810301049
  0
LINE
  5
AE
100
AcDbEntity
  8
1
  6
CONTINUOUS
 62
           7
100
AcDbLine
 10
145.506600542035
 20
846.037997007684
 11
140.613159986715
 21
850.931437563003
  0
LINE
  5
AD
100
AcDbEntity
  8
1
  6
CONTINUOUS
 62
           7
100
AcDbLine
 10
146.054346667945
 20
845.490250881773
 11
145.506600542035
 21
846.037997007684
  0
LINE
  5
AC
100
AcDbEntity
  8
1
  6
CONTINUOUS
 62
           7
100
AcDbLine
 10
146.054346667945
 20
845.490250881773
 11
146.054346667945
 21
844.885674583858
  0
LINE
  5
AB
100
AcDbEntity
  8
1
  6
CONTINUOUS
 62
           7
100
AcDbLine
 10
137.529820867351
 20
836.361148783264
 11
146.054346667945
 21
844.885674583858
  0
LINE
  5
AA
100
AcDbEntity
  8
1
  6
DOT_CENTER
 62
           2
100
AcDbLine
 10
144.220792155163
 20
849.097883050221
 11
124.927576899443
 21
829.804667794501
  0
LINE
  5
A9
100
AcDbEntity
  8
1
  6
CONTINUOUS
 62
           7
100
AcDbLine
 10
140.0085836888
 20
850.931437563003
 11
131.484057888206
 21
842.406911762409
  0
LINE
  5
A8
100
AcDbEntity
  8
1
  6
CONTINUOUS
 62
           7
100
AcDbLine
 10
138.371575376359
 20
834.871411351099
 11
138.134397165266
 21
835.75657248535
  0
LINE
  5
A7
100
AcDbEntity
  8
1
  6
CONTINUOUS
 62
           7
100
AcDbLine
 10
134.787524214115
 20
831.287360188854
 11
138.371575376359
 21
834.871411351099
  0
LINE
  5
A6
100
AcDbEntity
  8
1
  6
CONTINUOUS
 62
           7
100
AcDbLine
 10
136.27726164628
 20
836.965725081179
 11
132.693210484035
 21
833.381673918934
  0
LINE
  5
A5
100
AcDbEntity
  8
1
  6
CONTINUOUS
 62
           7
100
AcDbLine
 10
138.134397165266
 20
835.75657248535
 11
131.484057888206
 21
842.406911762409
  0
LINE
  5
A4
100
AcDbEntity
  8
1
  6
CONTINUOUS
 62
           7
100
AcDbLine
 10
131.484057888206
 20
842.406911762409
 11
130.879481590292
 21
843.011488060323
  0
LINE
  5
A3
100
AcDbEntity
  8
1
  6
CONTINUOUS
 62
           2
100
AcDbLine
 10
123.647668068364
 20
833.915765811926
 11
123.951944080638
 21
834.2200418242
  0
LINE
  5
A2
100
AcDbEntity
  8
1
  6
CONTINUOUS
 62
           7
100
AcDbLine
 10
130.879481590292
 20
843.011488060323
 11
129.994320456041
 21
843.248666271417
  0
LINE
  5
A1
100
AcDbEntity
  8
1
  6
CONTINUOUS
 62
           7
100
AcDbLine
 10
128.504583023876
 20
837.570301379093
 11
132.08863418612
 21
841.154352541338
  0
LINE
  5
A0
100
AcDbEntity
  8
1
  6
CONTINUOUS
 62
           7
100
AcDbLine
 10
126.410269293796
 20
839.664615109173
 11
126.64744750489
 21
838.779453974922
  0
LINE
  5
9F
100
AcDbEntity
  8
1
  6
CONTINUOUS
 62
           7
100
AcDbLine
 10
129.994320456041
 20
843.248666271417
 11
126.410269293796
 21
839.664615109173
  0
LINE
  5
9E
100
AcDbEntity
  8
1
  6
CONTINUOUS
 62
           7
100
AcDbLine
 10
126.64744750489
 20
838.779453974922
 11
133.29778678195
 21
832.129114697863
  0
LINE
  5
9D
100
AcDbEntity
  8
1
  6
CONTINUOUS
 62
           7
100
AcDbLine
 10
127.252023802804
 20
838.174877677008
 11
123.2406097237
 21
834.163463597903
  0
LINE
  5
9C
100
AcDbEntity
  8
1
  6
CONTINUOUS
 62
           2
100
AcDbLine
 10
123.951944080638
 20
834.2200418242
 11
125.136006760104
 21
836.058860634307
  0
LINE
  5
9B
100
AcDbEntity
  8
1
  6
CONTINUOUS
 62
           7
100
AcDbLine
 10
123.624566015318
 20
834.54741988952
 11
129.342950929142
 21
828.829034975696
  0
LINE
  5
9A
100
AcDbEntity
  8
1
  6
CONTINUOUS
 62
           7
100
AcDbLine
 10
111.601770475522
 20
863.185051838694
 11
105.487277077882
 21
856.560017972941
  0
LINE
  5
99
100
AcDbEntity
  8
1
  6
CONTINUOUS
 62
           7
100
AcDbLine
 10
115.184955290454
 20
865.510370620906
 11
118.979687436541
 21
869.012671910716
  0
LINE
  5
98
100
AcDbEntity
  8
1
  6
CONTINUOUS
 62
           7
100
AcDbLine
 10
117.939931015658
 20
870.052428331599
 11
114.437629725848
 21
866.257696185512
  0
LINE
  5
97
100
AcDbEntity
  8
1
  6
CONTINUOUS
 62
           7
100
AcDbLine
 10
105.487277077882
 20
856.560017972941
 11
112.112310943636
 21
862.674511370581
  0
LINE
  5
96
100
AcDbEntity
  8
1
  6
CONTINUOUS
 62
           7
100
AcDbLine
 10
106.091853375797
 20
857.164594270855
 11
106.986888822916
 21
858.059629717974
  0
LINE
  5
95
100
AcDbEntity
  8
1
  6
CONTINUOUS
 62
           7
100
AcDbLine
 10
103.436369973045
 20
867.074993248581
 11
104.23572474015
 21
866.860806784269
  0
LINE
  5
94
100
AcDbEntity
  8
1
  6
CONTINUOUS
 62
           7
100
AcDbLine
 10
111.708841709613
 20
873.708656830466
 11
111.565138647908
 21
874.523637391734
  0
LINE
  5
93
100
AcDbEntity
  8
1
  6
CONTINUOUS
 62
           7
100
AcDbLine
 10
121.515507715852
 20
869.135733370788
 11
122.232189593599
 21
869.549509845829
  0
LINE
  5
92
100
AcDbEntity
  8
1
  6
CONTINUOUS
 62
           7
100
AcDbLine
 10
121.073377234359
 20
859.009280480867
 11
121.751268925176
 21
858.534615608867
  0
LINE
  5
91
100
AcDbEntity
  8
1
  6
CONTINUOUS
 62
           7
100
AcDbLine
 10
122.566557493967
 20
855.50200945159
 11
122.26426934501
 21
855.199721302633
  0
LINE
  5
90
100
AcDbEntity
  8
1
  6
CONTINUOUS
 62
           7
100
AcDbLine
 10
122.26426934501
 20
855.199721302633
 11
121.053663306381
 21
856.410327341262
  0
LINE
  5
8F
100
AcDbEntity
  8
1
  6
CONTINUOUS
 62
           7
100
AcDbLine
 10
121.355951455338
 20
856.712615490219
 11
122.566557493967
 21
855.50200945159
  0
LINE
  5
8E
100
AcDbEntity
  8
1
  6
CONTINUOUS
 62
           7
100
AcDbLine
 10
126.171768950771
 20
864.633259845829
 11
126.171768950771
 21
864.205759845829
  0
LINE
  5
8D
100
AcDbEntity
  8
1
  6
CONTINUOUS
 62
           7
100
AcDbLine
 10
126.171768950771
 20
864.205759845829
 11
124.459713472251
 21
864.205759845829
  0
LINE
  5
8C
100
AcDbEntity
  8
1
  6
CONTINUOUS
 62
           7
100
AcDbLine
 10
124.459713472251
 20
864.633259845829
 11
126.171768950771
 21
864.633259845829
  0
LINE
  5
8B
100
AcDbEntity
  8
1
  6
CONTINUOUS
 62
           7
100
AcDbLine
 10
122.26426934501
 20
873.639298389025
 11
122.566557493967
 21
873.337010240068
  0
LINE
  5
8A
100
AcDbEntity
  8
1
  6
CONTINUOUS
 62
           7
100
AcDbLine
 10
122.566557493967
 20
873.337010240068
 11
121.355951455338
 21
872.126404201439
  0
LINE
  5
89
100
AcDbEntity
  8
1
  6
CONTINUOUS
 62
           7
100
AcDbLine
 10
121.053663306381
 20
872.428692350396
 11
122.26426934501
 21
873.639298389025
  0
LINE
  5
88
100
AcDbEntity
  8
1
  6
CONTINUOUS
 62
           7
100
AcDbLine
 10
113.133018950771
 20
875.532454367309
 11
113.133018950771
 21
877.244509845829
  0
LINE
  5
87
100
AcDbEntity
  8
1
  6
CONTINUOUS
 62
           7
100
AcDbLine
 10
104.429268556532
 20
873.639298389025
 11
105.639874595161
 21
872.428692350396
  0
LINE
  5
86
100
AcDbEntity
  8
1
  6
CONTINUOUS
 62
           7
100
AcDbLine
 10
104.126980407575
 20
873.337010240068
 11
104.429268556532
 21
873.639298389025
  0
LINE
  5
85
100
AcDbEntity
  8
1
  6
CONTINUOUS
 62
           7
100
AcDbLine
 10
105.337586446204
 20
872.126404201439
 11
104.126980407575
 21
873.337010240068
  0
LINE
  5
84
100
AcDbEntity
  8
1
  6
CONTINUOUS
 62
           7
100
AcDbLine
 10
100.521768950771
 20
864.205759845829
 11
100.521768950771
 21
864.633259845829
  0
LINE
  5
83
100
AcDbEntity
  8
1
  6
CONTINUOUS
 62
           7
100
AcDbLine
 10
100.521768950771
 20
864.633259845829
 11
102.23382442929
 21
864.633259845829
  0
LINE
  5
82
100
AcDbEntity
  8
1
  6
CONTINUOUS
 62
           7
100
AcDbLine
 10
102.23382442929
 20
864.205759845829
 11
100.521768950771
 21
864.205759845829
  0
LINE
  5
81
100
AcDbEntity
  8
1
  6
CONTINUOUS
 62
           7
100
AcDbLine
 10
113.560518950771
 20
877.244509845829
 11
113.560518950771
 21
875.532454367309
  0
LINE
  5
80
100
AcDbEntity
  8
1
  6
CONTINUOUS
 62
           7
100
AcDbLine
 10
113.133018950771
 20
877.244509845829
 11
113.560518950771
 21
877.244509845829
  0
LINE
  5
7F
100
AcDbEntity
  8
1
  6
CONTINUOUS
 62
           7
100
AcDbLine
 10
117.600295301509
 20
874.688430849692
 11
118.007887632293
 21
875.672445782591
  0
LINE
  5
7E
100
AcDbEntity
  8
1
  6
CONTINUOUS
 62
           7
100
AcDbLine
 10
109.093242600033
 20
874.688430849692
 11
108.685650269249
 21
875.672445782591
  0
LINE
  5
7D
100
AcDbEntity
  8
1
  6
CONTINUOUS
 62
           7
100
AcDbLine
 10
103.077847946908
 20
868.673036196567
 11
102.093833014009
 21
869.080628527351
  0
LINE
  5
7C
100
AcDbEntity
  8
1
  6
CONTINUOUS
 62
           7
100
AcDbLine
 10
103.077847946908
 20
860.165983495091
 11
102.093833014009
 21
859.758391164307
  0
LINE
  5
7B
100
AcDbEntity
  8
1
  6
CONTINUOUS
 62
           7
100
AcDbLine
 10
123.615689954634
 20
860.165983495091
 11
124.599704887533
 21
859.758391164307
  0
LINE
  5
7A
100
AcDbEntity
  8
1
  6
CONTINUOUS
 62
           7
100
AcDbLine
 10
123.615689954634
 20
868.673036196567
 11
124.599704887533
 21
869.080628527351
  0
LINE
  5
79
100
AcDbEntity
  8
1
  6
CONTINUOUS
 62
           7
100
AcDbLine
 10
124.461768950771
 20
864.419509845829
 11
126.171768950771
 21
864.419509845829
  0
LINE
  5
78
100
AcDbEntity
  8
1
  6
CONTINUOUS
 62
           7
100
AcDbLine
 10
121.206260823659
 20
872.279001718718
 11
122.415413419488
 21
873.488154314547
  0
LINE
  5
77
100
AcDbEntity
  8
1
  6
CONTINUOUS
 62
           7
100
AcDbLine
 10
117.496566392842
 20
836.522686844438
 11
117.592647676488
 21
842.02717989793
  0
LINE
  5
76
100
AcDbEntity
  8
1
  6
CONTINUOUS
 62
           2
100
AcDbLine
 10
109.691702117508
 20
836.638664138139
 11
109.647493749487
 21
839.171359845829
  0
LINE
  5
75
100
AcDbEntity
  8
1
  6
CONTINUOUS
 62
           7
100
AcDbLine
 10
109.100890225054
 20
842.02717989793
 11
109.1969715087
 21
836.522686844438
  0
LINE
  5
74
100
AcDbEntity
  8
1
  6
CONTINUOUS
 62
           2
100
AcDbLine
 10
109.135252117859
 20
840.05858837756
 11
109.647493749487
 21
839.171359845829
  0
LINE
  5
73
100
AcDbEntity
  8
1
  6
CONTINUOUS
 62
           7
100
AcDbLine
 10
109.150738749487
 20
839.171359845829
 11
113.346768950771
 21
839.171359845829
  0
LINE
  5
72
100
AcDbEntity
  8
1
  6
CONTINUOUS
 62
           2
100
AcDbLine
 10
117.046044152055
 20
839.171359845829
 11
117.558285783682
 21
840.05858837756
  0
LINE
  5
71
100
AcDbEntity
  8
1
  6
CONTINUOUS
 62
           2
100
AcDbLine
 10
117.046044152055
 20
839.171359845829
 11
117.001835784034
 21
836.638664138139
  0
LINE
  5
70
100
AcDbEntity
  8
1
  6
CONTINUOUS
 62
           7
100
AcDbLine
 10
113.346768950771
 20
839.171359845829
 11
117.542799152055
 21
839.171359845829
  0
LINE
  5
6F
100
AcDbEntity
  8
1
  6
CONTINUOUS
 62
           7
100
AcDbLine
 10
118.049268950771
 20
842.189509845829
 11
118.049268950771
 21
847.091252035247
  0
LINE
  5
6E
100
AcDbEntity
  8
1
  6
CONTINUOUS
 62
           7
100
AcDbLine
 10
108.644268950771
 20
847.091252035247
 11
108.644268950771
 21
842.189509845829
  0
LINE
  5
6D
100
AcDbEntity
  8
1
  6
CONTINUOUS
 62
           7
100
AcDbLine
 10
129.286372702845
 20
828.117700618758
 11
133.29778678195
 21
832.129114697863
  0
LINE
  5
6C
100
AcDbEntity
  8
1
  6
CONTINUOUS
 62
           2
100
AcDbLine
 10
131.181769739249
 20
830.013097655162
 11
129.342950929142
 21
828.829034975696
  0
LINE
  5
6B
100
AcDbEntity
  8
1
  6
CONTINUOUS
 62
           7
100
AcDbLine
 10
129.342950929142
 20
828.829034975696
 11
129.670328994462
 21
828.501656910375
  0
LINE
  5
6A
100
AcDbEntity
  8
1
  6
CONTINUOUS
 62
           2
100
AcDbLine
 10
129.342950929142
 20
828.829034975696
 11
129.038674916868
 21
828.524758963422
  0
LINE
  5
69
100
AcDbEntity
  8
1
  6
CONTINUOUS
 62
           7
100
AcDbLine
 10
133.29778678195
 20
832.129114697863
 11
133.902363079864
 21
831.524538399948
  0
LINE
  5
68
100
AcDbEntity
  8
1
  6
CONTINUOUS
 62
           7
100
AcDbLine
 10
133.902363079864
 20
831.524538399948
 11
134.787524214115
 21
831.287360188854
  0
LINE
  5
67
100
AcDbEntity
  8
1
  6
CONTINUOUS
 62
           7
100
AcDbLine
 10
90.796327589671
 20
821.679301206929
 11
94.002210311871
 21
821.679301206929
  0
LINE
  5
66
100
AcDbEntity
  8
1
  6
CONTINUOUS
 62
           7
100
AcDbLine
 10
94.002210311871
 20
814.768418484729
 11
90.796327589671
 21
814.768418484729
  0
LINE
  5
65
100
AcDbEntity
  8
1
  6
CONTINUOUS
 62
           7
100
AcDbLine
 10
87.430008950771
 20
823.353859845829
 11
87.430008950771
 21
813.093859845829
  0
LINE
  5
64
100
AcDbEntity
  8
1
  6
CONTINUOUS
 62
           7
100
AcDbLine
 10
81.711768950771
 20
813.093859845829
 11
81.711768950771
 21
823.353859845829
  0
LINE
  5
63
100
AcDbEntity
  8
1
  6
CONTINUOUS
 62
           7
100
AcDbLine
 10
94.536768950771
 20
822.890877345829
 11
94.536768950771
 21
824.208859845829
  0
LINE
  5
62
100
AcDbEntity
  8
1
  6
CONTINUOUS
 62
           7
100
AcDbLine
 10
94.536768950771
 20
812.238859845829
 11
94.536768950771
 21
822.890877345829
  0
LINE
  5
61
100
AcDbEntity
  8
1
  6
CONTINUOUS
 62
           7
100
AcDbLine
 10
90.796327589671
 20
825.134742568029
 11
90.261768950771
 21
824.208859845829
  0
LINE
  5
60
100
AcDbEntity
  8
1
  6
CONTINUOUS
 62
           7
100
AcDbLine
 10
94.002210311871
 20
825.134742568029
 11
90.796327589671
 21
825.134742568029
  0
LINE
  5
5F
100
AcDbEntity
  8
1
  6
CONTINUOUS
 62
           7
100
AcDbLine
 10
94.536768950771
 20
824.208859845829
 11
94.002210311871
 21
825.134742568029
  0
LINE
  5
5E
100
AcDbEntity
  8
1
  6
CONTINUOUS
 62
           7
100
AcDbLine
 10
94.002210311871
 20
811.312977123629
 11
94.536768950771
 21
812.238859845829
  0
LINE
  5
5D
100
AcDbEntity
  8
1
  6
CONTINUOUS
 62
           7
100
AcDbLine
 10
90.796327589671
 20
811.312977123629
 11
90.261768950771
 21
812.238859845829
  0
LINE
  5
5C
100
AcDbEntity
  8
1
  6
CONTINUOUS
 62
           7
100
AcDbLine
 10
94.002210311871
 20
811.312977123629
 11
90.796327589671
 21
811.312977123629
  0
LINE
  5
5B
100
AcDbEntity
  8
1
  6
CONTINUOUS
 62
           7
100
AcDbLine
 10
80.856768950771
 20
815.017609845829
 11
80.856768950771
 21
813.948859845829
  0
LINE
  5
5A
100
AcDbEntity
  8
1
  6
CONTINUOUS
 62
           7
100
AcDbLine
 10
81.711768950771
 20
813.093859845829
 11
87.430008950771
 21
813.093859845829
  0
LINE
  5
59
100
AcDbEntity
  8
1
  6
CONTINUOUS
 62
           7
100
AcDbLine
 10
88.124268950771
 20
813.788119845829
 11
90.261768950771
 21
813.788119845829
  0
LINE
  5
58
100
AcDbEntity
  8
1
  6
CONTINUOUS
 62
           7
100
AcDbLine
 10
90.261768950771
 20
813.788119845829
 11
90.261768950771
 21
812.238859845829
  0
LINE
  5
57
100
AcDbEntity
  8
1
  6
CONTINUOUS
 62
           2
100
AcDbLine
 10
88.124268950771
 20
813.788119845829
 11
81.017508950771
 21
813.788119845829
  0
LINE
  5
56
100
AcDbEntity
  8
1
  6
CONTINUOUS
 62
           2
100
AcDbLine
 10
81.017508950771
 20
822.659599845829
 11
88.124268950771
 21
822.659599845829
  0
LINE
  5
55
100
AcDbEntity
  8
1
  6
CONTINUOUS
 62
           7
100
AcDbLine
 10
87.430008950771
 20
823.353859845829
 11
81.711768950771
 21
823.353859845829
  0
LINE
  5
54
100
AcDbEntity
  8
1
  6
CONTINUOUS
 62
           7
100
AcDbLine
 10
90.261768950771
 20
822.659599845829
 11
88.124268950771
 21
822.659599845829
  0
LINE
  5
53
100
AcDbEntity
  8
1
  6
CONTINUOUS
 62
           7
100
AcDbLine
 10
80.856768950771
 20
822.498859845829
 11
80.856768950771
 21
821.430109845829
  0
LINE
  5
52
100
AcDbEntity
  8
1
  6
CONTINUOUS
 62
           7
100
AcDbLine
 10
90.261768950771
 20
824.208859845829
 11
90.261768950771
 21
813.788119845829
  0
LINE
  5
51
100
AcDbEntity
  8
1
  6
CONTINUOUS
 62
           7
100
AcDbLine
 10
81.711768950771
 20
813.093859845829
 11
80.856768950771
 21
813.948859845829
  0
LINE
  5
50
100
AcDbEntity
  8
1
  6
CONTINUOUS
 62
           7
100
AcDbLine
 10
80.856768950771
 20
822.498859845829
 11
81.711768950771
 21
823.353859845829
  0
LINE
  5
4F
100
AcDbEntity
  8
1
  6
CONTINUOUS
 62
           7
100
AcDbLine
 10
88.124268950771
 20
813.788119845829
 11
87.430008950771
 21
813.093859845829
  0
LINE
  5
4E
100
AcDbEntity
  8
1
  6
CONTINUOUS
 62
           7
100
AcDbLine
 10
88.124268950771
 20
822.659599845829
 11
87.430008950771
 21
823.353859845829
  0
LINE
  5
4D
100
AcDbEntity
  8
1
  6
CONTINUOUS
 62
           7
100
AcDbLine
 10
80.856768950771
 20
818.223859845829
 11
80.856768950771
 21
815.017609845829
  0
LINE
  5
4C
100
AcDbEntity
  8
1
  6
CONTINUOUS
 62
           7
100
AcDbLine
 10
80.856768950771
 20
821.430109845829
 11
80.856768950771
 21
818.223859845829
  0
LINE
  5
4B
100
AcDbEntity
  8
1
  6
CONTINUOUS
 62
           7
100
AcDbLine
 10
145.836768950771
 20
818.223859845829
 11
145.836768950771
 21
821.430109845829
  0
LINE
  5
4A
100
AcDbEntity
  8
1
  6
CONTINUOUS
 62
           7
100
AcDbLine
 10
145.836768950771
 20
815.017609845829
 11
145.836768950771
 21
818.223859845829
  0
LINE
  5
49
100
AcDbEntity
  8
1
  6
CONTINUOUS
 62
           7
100
AcDbLine
 10
139.263528950771
 20
823.353859845829
 11
138.569268950771
 21
822.659599845829
  0
LINE
  5
48
100
AcDbEntity
  8
1
  6
CONTINUOUS
 62
           7
100
AcDbLine
 10
139.263528950771
 20
813.093859845829
 11
138.569268950771
 21
813.788119845829
  0
LINE
  5
47
100
AcDbEntity
  8
1
  6
CONTINUOUS
 62
           7
100
AcDbLine
 10
144.981768950771
 20
823.353859845829
 11
145.836768950771
 21
822.498859845829
  0
LINE
  5
46
100
AcDbEntity
  8
1
  6
CONTINUOUS
 62
           7
100
AcDbLine
 10
145.836768950771
 20
813.948859845829
 11
144.981768950771
 21
813.093859845829
  0
LINE
  5
45
100
AcDbEntity
  8
1
  6
CONTINUOUS
 62
           7
100
AcDbLine
 10
136.431768950771
 20
813.788119845829
 11
136.431768950771
 21
824.208859845829
  0
LINE
  5
44
100
AcDbEntity
  8
1
  6
CONTINUOUS
 62
           7
100
AcDbLine
 10
145.836768950771
 20
821.430109845829
 11
145.836768950771
 21
822.498859845829
  0
LINE
  5
43
100
AcDbEntity
  8
1
  6
CONTINUOUS
 62
           7
100
AcDbLine
 10
138.569268950771
 20
822.659599845829
 11
136.431768950771
 21
822.659599845829
  0
LINE
  5
42
100
AcDbEntity
  8
1
  6
CONTINUOUS
 62
           7
100
AcDbLine
 10
144.981768950771
 20
823.353859845829
 11
139.263528950771
 21
823.353859845829
  0
LINE
  5
41
100
AcDbEntity
  8
1
  6
CONTINUOUS
 62
           2
100
AcDbLine
 10
138.569268950771
 20
822.659599845829
 11
145.676028950771
 21
822.659599845829
  0
LINE
  5
40
100
AcDbEntity
  8
1
  6
CONTINUOUS
 62
           2
100
AcDbLine
 10
145.676028950771
 20
813.788119845829
 11
138.569268950771
 21
813.788119845829
  0
LINE
  5
3F
100
AcDbEntity
  8
1
  6
CONTINUOUS
 62
           7
100
AcDbLine
 10
136.431768950771
 20
812.238859845829
 11
136.431768950771
 21
813.788119845829
  0
LINE
  5
3E
100
AcDbEntity
  8
1
  6
CONTINUOUS
 62
           7
100
AcDbLine
 10
136.431768950771
 20
813.788119845829
 11
138.569268950771
 21
813.788119845829
  0
LINE
  5
3D
100
AcDbEntity
  8
1
  6
CONTINUOUS
 62
           7
100
AcDbLine
 10
139.263528950771
 20
813.093859845829
 11
144.981768950771
 21
813.093859845829
  0
LINE
  5
3C
100
AcDbEntity
  8
1
  6
CONTINUOUS
 62
           7
100
AcDbLine
 10
145.836768950771
 20
813.948859845829
 11
145.836768950771
 21
815.017609845829
  0
LINE
  5
3B
100
AcDbEntity
  8
1
  6
CONTINUOUS
 62
           7
100
AcDbLine
 10
135.897210311871
 20
811.312977123629
 11
132.691327589671
 21
811.312977123629
  0
LINE
  5
3A
100
AcDbEntity
  8
1
  6
CONTINUOUS
 62
           7
100
AcDbLine
 10
136.431768950771
 20
812.238859845829
 11
135.897210311871
 21
811.312977123629
  0
LINE
  5
39
100
AcDbEntity
  8
1
  6
CONTINUOUS
 62
           7
100
AcDbLine
 10
132.156768950771
 20
812.238859845829
 11
132.691327589671
 21
811.312977123629
  0
LINE
  5
38
100
AcDbEntity
  8
1
  6
CONTINUOUS
 62
           7
100
AcDbLine
 10
132.691327589671
 20
825.134742568029
 11
132.156768950771
 21
824.208859845829
  0
LINE
  5
37
100
AcDbEntity
  8
1
  6
CONTINUOUS
 62
           7
100
AcDbLine
 10
135.897210311871
 20
825.134742568029
 11
132.691327589671
 21
825.134742568029
  0
LINE
  5
36
100
AcDbEntity
  8
1
  6
CONTINUOUS
 62
           7
100
AcDbLine
 10
136.431768950771
 20
824.208859845829
 11
135.897210311871
 21
825.134742568029
  0
LINE
  5
35
100
AcDbEntity
  8
1
  6
CONTINUOUS
 62
           7
100
AcDbLine
 10
132.156768950771
 20
822.890877345829
 11
132.156768950771
 21
812.238859845829
  0
LINE
  5
34
100
AcDbEntity
  8
1
  6
CONTINUOUS
 62
           7
100
AcDbLine
 10
132.156768950771
 20
822.890877345829
 11
131.56859782865
 21
822.890877345829
  0
LINE
  5
33
100
AcDbEntity
  8
1
  6
CONTINUOUS
 62
           7
100
AcDbLine
 10
132.156768950771
 20
824.208859845829
 11
132.156768950771
 21
822.890877345829
  0
LINE
  5
32
100
AcDbEntity
  8
1
  6
CONTINUOUS
 62
           7
100
AcDbLine
 10
144.981768950771
 20
823.353859845829
 11
144.981768950771
 21
813.093859845829
  0
LINE
  5
31
100
AcDbEntity
  8
1
  6
CONTINUOUS
 62
           7
100
AcDbLine
 10
139.263528950771
 20
813.093859845829
 11
139.263528950771
 21
823.353859845829
  0
LINE
  5
30
100
AcDbEntity
  8
1
  6
CONTINUOUS
 62
           7
100
AcDbLine
 10
135.897210311871
 20
814.768418484729
 11
132.691327589671
 21
814.768418484729
  0
LINE
  5
2F
100
AcDbEntity
  8
1
  6
CONTINUOUS
 62
           7
100
AcDbLine
 10
132.691327589671
 20
821.679301206929
 11
135.897210311871
 21
821.679301206929
  0
LINE
  5
2E
100
AcDbEntity
  8
1
  6
DOT_CENTER
 62
           2
100
AcDbLine
 10
77.973618510856
 20
818.223859845829
 11
147.455808600338
 21
818.223859845829
  0
LINE
  5
2D
100
AcDbEntity
  8
1
  6
DOT_CENTER
 62
           2
100
AcDbLine
 10
113.346768950771
 20
914.875350571555
 11
113.346768950771
 21
621.699967361715
  0
LINE
  5
2C
100
AcDbEntity
  8
1
  6
CONTINUOUS
 62
           7
100
AcDbLine
 10
132.156768950771
 20
813.556842345829
 11
131.56859782865
 21
813.556842345829
  0
LINE
  5
2B
100
AcDbEntity
  8
1
  6
CONTINUOUS
 62
           7
100
AcDbLine
 10
95.124940072892
 20
822.890877345829
 11
94.536768950771
 21
822.890877345829
  0
LINE
  5
2A
100
AcDbEntity
  8
1
  6
CONTINUOUS
 62
           7
100
AcDbLine
 10
95.124940072892
 20
813.556842345829
 11
94.536768950771
 21
813.556842345829
  0
LINE
  5
29
100
AcDbEntity
  8
1
  6
CONTINUOUS
 62
           7
100
AcDbLine
 10
104.637931844131
 20
801.551359845829
 11
122.284592046405
 21
801.551359845829
  0
ENDSEC
  0
SECTION
  2
OBJECTS
  0
DICTIONARY
  5
19
100
AcDbDictionary
  3
ACAD_GROUP
350
1A
  3
ACAD_MLINESTYLE
350
1B
  0
DICTIONARY
  5
1A
102
{ACAD_REACTORS
330
19
102
}
100
AcDbDictionary
  0
DICTIONARY
  5
1B
102
{ACAD_REACTORS
330
19
102
}
100
AcDbDictionary
  3
STANDARD
350
1C
  0
MLINESTYLE
  5
1C
102
{ACAD_REACTORS
330
1B
102
}
100
AcDbMlineStyle
  2
STANDARD
 70
           0
  3

 62
           0
 51
90.0
 52
90.0
 71
           2
 49
0.5
 62
         256
  6
BYLAYER
 49
-0.5
 62
         256
  6
BYLAYER
  0
ENDSEC
  0
EOF
