  0
SECTION
  2
HEADER
  9
$ACADVER
  1
AC1014
  9
$ACADMAINTVER
 70
           0
  9
$DWGCODEPAGE
  3
DOS932
  9
$INSBASE
 10
0.0
 20
0.0
 30
0.0
  9
$EXTMIN
 10
1.000000000000E+20
 20
1.000000000000E+20
 30
1.000000000000E+20
  9
$EXTMAX
 10
-1.000000000000E+20
 20
-1.000000000000E+20
 30
-1.000000000000E+20
  9
$LIMMIN
 10
0.0
 20
0.0
  9
$LIMMAX
 10
0.0
 20
0.0
  9
$ORTHOMODE
 70
           0
  9
$REGENMODE
 70
           1
  9
$FILLMODE
 70
           1
  9
$QTEXTMODE
 70
           0
  9
$MIRRTEXT
 70
           1
  9
$DRAGMODE
 70
           2
  9
$LTSCALE
 40
1.0
  9
$OSMODE
 70
           0
  9
$ATTMODE
 70
           1
  9
$TEXTSIZE
 40
0.2
  9
$TRACEWID
 40
0.05
  9
$TEXTSTYLE
  7
STANDARD
  9
$CLAYER
  8
0
  9
$CELTYPE
  6
CONTINUOUS
  9
$CECOLOR
 62
         256
  9
$CELTSCALE
 40
1.0
  9
$DELOBJ
 70
           1
  9
$DISPSILH
 70
           0
  9
$DIMSCALE
 40
1.0
  9
$DIMASZ
 40
0.18
  9
$DIMEXO
 40
0.0625
  9
$DIMDLI
 40
0.38
  9
$DIMRND
 40
0.0
  9
$DIMDLE
 40
0.0
  9
$DIMEXE
 40
0.18
  9
$DIMTP
 40
0.0
  9
$DIMTM
 40
0.0
  9
$DIMTXT
 40
0.18
  9
$DIMCEN
 40
0.09
  9
$DIMTSZ
 40
0.0
  9
$DIMTOL
 70
           0
  9
$DIMLIM
 70
           0
  9
$DIMTIH
 70
           1
  9
$DIMTOH
 70
           1
  9
$DIMSE1
 70
           0
  9
$DIMSE2
 70
           0
  9
$DIMTAD
 70
           0
  9
$DIMZIN
 70
           0
  9
$DIMBLK
  1

  9
$DIMASO
 70
           1
  9
$DIMSHO
 70
           1
  9
$DIMPOST
  1

  9
$DIMAPOST
  1

  9
$DIMALT
 70
           0
  9
$DIMALTD
 70
           2
  9
$DIMALTF
 40
25.4
  9
$DIMLFAC
 40
1.0
  9
$DIMTOFL
 70
           0
  9
$DIMTVP
 40
0.0
  9
$DIMTIX
 70
           0
  9
$DIMSOXD
 70
           0
  9
$DIMSAH
 70
           0
  9
$DIMBLK1
  1

  9
$DIMBLK2
  1

  9
$DIMSTYLE
  2
STANDARD
  9
$DIMCLRD
 70
           0
  9
$DIMCLRE
 70
           0
  9
$DIMCLRT
 70
           0
  9
$DIMTFAC
 40
1.0
  9
$DIMGAP
 40
0.09
  9
$DIMJUST
 70
           0
  9
$DIMSD1
 70
           0
  9
$DIMSD2
 70
           0
  9
$DIMTOLJ
 70
           1
  9
$DIMTZIN
 70
           0
  9
$DIMALTZ
 70
           0
  9
$DIMALTTZ
 70
           0
  9
$DIMFIT
 70
           3
  9
$DIMUPT
 70
           0
  9
$DIMUNIT
 70
           2
  9
$DIMDEC
 70
           4
  9
$DIMTDEC
 70
           4
  9
$DIMALTU
 70
           2
  9
$DIMALTTD
 70
           2
  9
$DIMTXSTY
  7
STANDARD
  9
$DIMAUNIT
 70
           0
  9
$LUNITS
 70
           2
  9
$LUPREC
 70
           4
  9
$SKETCHINC
 40
0.1
  9
$FILLETRAD
 40
0.0
  9
$AUNITS
 70
           0
  9
$AUPREC
 70
           0
  9
$MENU
  1
acad
  9
$ELEVATION
 40
0.0
  9
$PELEVATION
 40
0.0
  9
$THICKNESS
 40
0.0
  9
$LIMCHECK
 70
           0
  9
$BLIPMODE
 70
           1
  9
$CHAMFERA
 40
0.0
  9
$CHAMFERB
 40
0.0
  9
$CHAMFERC
 40
0.0
  9
$CHAMFERD
 40
0.0
  9
$SKPOLY
 70
           0
  9
$TDCREATE
 40
0.000000000
  9
$TDUPDATE
 40
0.000000000
  9
$TDINDWG
 40
0.0000000000
  9
$TDUSRTIMER
 40
0.0000000000
  9
$USRTIMER
 70
           1
  9
$ANGBASE
 50
0.0
  9
$ANGDIR
 70
           0
  9
$PDMODE
 70
           0
  9
$PDSIZE
 40
0.0
  9
$PLINEWID
 40
0.0
  9
$COORDS
 70
           0
  9
$SPLFRAME
 70
           0
  9
$SPLINETYPE
 70
           6
  9
$SPLINESEGS
 70
           8
  9
$ATTDIA
 70
           0
  9
$ATTREQ
 70
           1
  9
$HANDLING
 70
           1
  9
$HANDSEED
  5
3D6
  9
$SURFTAB1
 70
           6
  9
$SURFTAB2
 70
           6
  9
$SURFTYPE
 70
           6
  9
$SURFU
 70
           6
  9
$SURFV
 70
           6
  9
$UCSNAME
  2

  9
$UCSORG
 10
0.0
 20
0.0
 30
0.0
  9
$UCSXDIR
 10
1.0
 20
0.0
 30
0.0
  9
$UCSYDIR
 10
0.0
 20
1.0
 30
0.0
  9
$PUCSNAME
  2

  9
$PUCSORG
 10
0.0
 20
0.0
 30
0.0
  9
$PUCSXDIR
 10
1.0
 20
0.0
 30
0.0
  9
$PUCSYDIR
 10
0.0
 20
1.0
 30
0.0
  9
$USERI1
 70
           0
  9
$USERI2
 70
           0
  9
$USERI3
 70
           0
  9
$USERI4
 70
           0
  9
$USERI5
 70
           0
  9
$USERR1
 40
0.0
  9
$USERR2
 40
0.0
  9
$USERR3
 40
0.0
  9
$USERR4
 40
0.0
  9
$USERR5
 40
0.0
  9
$WORLDVIEW
 70
           1
  9
$SHADEDGE
 70
           3
  9
$SHADEDIF
 70
          70
  9
$TILEMODE
 70
           1
  9
$MAXACTVP
 70
          16
  9
$PINSBASE
 10
0.0
 20
0.0
 30
0.0
  9
$PLIMCHECK
 70
           0
  9
$PEXTMIN
 10
1.000000000000E+20
 20
1.000000000000E+20
 30
1.000000000000E+20
  9
$PEXTMAX
 10
-1.000000000000E+20
 20
-1.000000000000E+20
 30
-1.000000000000E+20
  9
$PLIMMIN
 10
0.0
 20
0.0
  9
$PLIMMAX
 10
12.0
 20
9.0
  9
$UNITMODE
 70
           0
  9
$VISRETAIN
 70
           0
  9
$PLINEGEN
 70
           1
  9
$PSLTSCALE
 70
           0
  9
$TREEDEPTH
 70
        3020
  9
$PICKSTYLE
 70
           1
  9
$CMLSTYLE
  2
STANDARD
  9
$CMLJUST
 70
           0
  9
$CMLSCALE
 40
1.0
  9
$PROXYGRAPHICS
 70
           0
  9
$MEASUREMENT
 70
           0
  0
ENDSEC
  0
SECTION
  2
CLASSES
  0
CLASS
  1
LWPOLYLINE
  2
AcDbPolyline
  3
"AutoCAD"
 90
        0
280
           0
281
           1
  0
CLASS
  1
IMAGE
  2
AcDbRasterImage
  3
ISM
 90
      127
280
           0
281
           1
  0
CLASS
  1
OLE2FRAME
  2
AcDbOle2Frame
  3
""
 90
        0
280
           0
281
           1
  0
CLASS
  1
HATCH
  2
AcDbHatch
  3
"ACAD_SEDONA"
 90
        0
280
           0
281
           1
  0
CLASS
  1
DICTIONARYVAR
  2
AcDbDictionaryVar
  3
"AutoCAD"
 90
        0
280
           0
281
           0
  0
CLASS
  1
RASTERVARIABLES
  2
AcDbRasterVariables
  3
ISM
 90
        0
280
           0
281
           0
  0
CLASS
  1
IMAGEDEF
  2
AcDbRasterImageDef
  3
ISM
 90
        0
280
           0
281
           0
  0
CLASS
  1
IMAGEDEF_REACTOR
  2
AcDbRasterImageDefReactor
  3
ISM
 90
        1
280
           0
281
           0
  0
CLASS
  1
IDBUFFER
  2
AcDbIdBuffer
  3
"Acad"
 90
        0
280
           0
281
           0
  0
CLASS
  1
SPATIAL_FILTER
  2
AcDbSpatialFilter
  3
"Acad"
 90
        0
280
           0
281
           0
  0
CLASS
  1
XRECORD
  2
AcDbXrecord
  3
"<Built In>"
 90
        0
280
           0
281
           0
  0
CLASS
  1
SORTENTSTABLE
  2
AcDbSortentsTable
  3
"AutoCAD"
 90
        0
280
           0
281
           0
  0
CLASS
  1
LAYER_INDEX
  2
AcDbLayerIndex
  3
"Acad"
 90
        0
280
           0
281
           0
  0
CLASS
  1
SPATIAL_INDEX
  2
AcDbSpatialIndex
  3
"Acad"
 90
        0
280
           0
281
           0
  0
CLASS
  1
OBJECT_PTR
  2
CAseDLPNTableRecord
  3
"ASE-LPNTableRecord"
 90
        1
280
           0
281
           0
  0
CLASS
  1
LAYOUT
  2
AcDbLayout
  3
"AutoCAD 2000"
 90
        1
280
           0
281
           0
  0
CLASS
  1
PLOTSETTINGS
  2
AcDbPlotSettings
  3
"AutoCAD 2000"
 90
        1
280
           0
281
           0
  0
CLASS
  1
ACDBDICTIONARYWDFLT
  2
AcDbDictionaryWithDefault
  3
"AutoCAD 2000"
 90
        1
280
           0
281
           0
  0
CLASS
  1
ACDBPLACEHOLDER
  2
AcDbPlaceHolder
  3
"AutoCAD 2000"
 90
        1
280
           0
281
           0
  0
CLASS
  1
VBA_PROJECT
  2
AcDbVbaProject
  3
"acadvba"
 90
        1
280
           0
281
           0
  0
CLASS
  1
WIPEOUT
  2
AcDbWipeout
  3
WipeOut|AutoCAD Express Tool|expresstools@autodesk.com
 90
      127
280
           0
281
           1
  0
CLASS
  1
WIPEOUTVARIABLES
  2
AcDbWipeoutVariables
  3
WipeOut|AutoCAD Express Tool|expresstools@autodesk.com
 90
        0
280
           0
281
           0
  0
CLASS
  1
RTEXT
  2
RText
  3
RText|AutoCAD Express Tool|expresstools@autodesk.com
 90
        0
280
           0
281
           1
  0
CLASS
  1
ARCALIGNEDTEXT
  2
AcDbArcAlignedText
  3
ATEXT|AutoCAD Express Tool|expresstools@autodesk.com
 90
        0
280
           0
281
           1
  0
ENDSEC
  0
SECTION
  2
TABLES
  0
TABLE
  2
VPORT
  5
7
100
AcDbSymbolTable
 70
           1
  0
VPORT
  5
15
100
AcDbSymbolTableRecord
100
AcDbViewportTableRecord
  2
*ACTIVE
 70
           0
 10
0.0
 20
0.0
 11
1.0
 21
1.0
 12
6.591288
 22
4.579184
 13
0.0
 23
0.0
 14
1.0
 24
1.0
 15
0.0
 25
0.0
 16
0.0
 26
0.0
 36
1.0
 17
0.0
 27
0.0
 37
0.0
 40
9.158369
 41
0.688564
 42
50.0
 43
0.0
 44
0.0
 50
0.0
 51
0.0
 71
           0
 72
         100
 73
           1
 74
           1
 75
           0
 76
           0
 77
           0
 78
           0
  0
ENDTAB
  0
TABLE
  2
LTYPE
  5
4
100
AcDbSymbolTable
 70
          10
  0
LTYPE
  5
11
100
AcDbSymbolTableRecord
100
AcDbLinetypeTableRecord
  2
BYBLOCK
 70
          64
  3

 72
          65
 73
           0
 40
0.0
  0
LTYPE
  5
12
100
AcDbSymbolTableRecord
100
AcDbLinetypeTableRecord
  2
BYLAYER
 70
          64
  3

 72
          65
 73
           0
 40
0.0
  0
LTYPE
  5
13
100
AcDbSymbolTableRecord
100
AcDbLinetypeTableRecord
  2
CONTINUOUS
 70
          64
  3
Solid line
 72
          65
 73
           0
 40
0.0
  0
LTYPE
  5
1D
100
AcDbSymbolTableRecord
100
AcDbLinetypeTableRecord
  2
DASHED
 70
          64
  3
Dashed
 72
          65
 73
           2
 40
15.0
 49
12.0
 74
           0
 49
-3.0
 74
           0
  0
LTYPE
  5
1E
100
AcDbSymbolTableRecord
100
AcDbLinetypeTableRecord
  2
DOTTED
 70
          64
  3
Dotted
 72
          65
 73
           2
 40
3.5
 49
0.5
 74
           0
 49
-3.0
 74
           0
  0
LTYPE
  5
1F
100
AcDbSymbolTableRecord
100
AcDbLinetypeTableRecord
  2
DOT_CENTER
 70
          64
  3
Dot_Center
 72
          65
 73
           4
 40
2.0
 49
1.25
 74
           0
 49
-0.25
 74
           0
 49
0.25
 74
           0
 49
-0.25
 74
           0
  0
LTYPE
  5
20
100
AcDbSymbolTableRecord
100
AcDbLinetypeTableRecord
  2
LONG_DASHED
 70
          64
  3
Long_Dashed
 72
          65
 73
           2
 40
2.0
 49
1.5
 74
           0
 49
-0.5
 74
           0
  0
LTYPE
  5
21
100
AcDbSymbolTableRecord
100
AcDbLinetypeTableRecord
  2
DASH_CENTER
 70
          64
  3
Dash_Center
 72
          65
 73
           4
 40
36.0
 49
24.0
 74
           0
 49
-3.0
 74
           0
 49
6.0
 74
           0
 49
-3.0
 74
           0
  0
LTYPE
  5
22
100
AcDbSymbolTableRecord
100
AcDbLinetypeTableRecord
  2
PHANTOM
 70
          64
  3
Phantom
 72
          65
 73
           6
 40
2.5
 49
1.25
 74
           0
 49
-0.25
 74
           0
 49
0.25
 74
           0
 49
-0.25
 74
           0
 49
0.25
 74
           0
 49
-0.25
 74
           0
  0
LTYPE
  5
23
100
AcDbSymbolTableRecord
100
AcDbLinetypeTableRecord
  2
CENTER_DASH_DASH
 70
          64
  3
Center_Dash_Dash
 72
          65
 73
           6
 40
22.0
 49
12.0
 74
           0
 49
-3.0
 74
           0
 49
0.5
 74
           0
 49
-3.0
 74
           0
 49
0.5
 74
           0
 49
-3.0
 74
           0
  0
ENDTAB
  0
TABLE
  2
LAYER
  5
2
100
AcDbSymbolTable
 70
           2
  0
LAYER
  5
14
100
AcDbSymbolTableRecord
100
AcDbLayerTableRecord
  2
0
 70
           0
 62
           7
  6
CONTINUOUS
  0
LAYER
  5
24
100
AcDbSymbolTableRecord
100
AcDbLayerTableRecord
  2
1
 70
           0
 62
           7
  6
CONTINUOUS
  0
ENDTAB
  0
TABLE
  2
STYLE
  5
3
100
AcDbSymbolTable
 70
           1
  0
STYLE
  5
17
100
AcDbSymbolTableRecord
100
AcDbTextStyleTableRecord
  2
STANDARD
 70
           0
 40
0.0
 41
1.0
 50
0.0
 71
           0
 42
0.0
  3
txt
  4

  0
ENDTAB
  0
TABLE
  2
VIEW
  5
5
100
AcDbSymbolTable
 70
           0
  0
ENDTAB
  0
TABLE
  2
UCS
  5
6
100
AcDbSymbolTable
 70
           0
  0
ENDTAB
  0
TABLE
  2
APPID
  5
8
100
AcDbSymbolTable
 70
           1
  0
APPID
  5
16
100
AcDbSymbolTableRecord
100
AcDbRegAppTableRecord
  2
ACAD
 70
           0
  0
ENDTAB
  0
TABLE
  2
DIMSTYLE
  5
9
100
AcDbSymbolTable
 70
           1
  0
DIMSTYLE
105
18
100
AcDbSymbolTableRecord
100
AcDbDimStyleTableRecord
  2
STANDARD
 70
           0
  3

  4

  5

  6

  7

 40
1.0
 41
0.18
 42
0.0625
 43
0.38
 44
0.18
 45
0.0
 46
0.0
 47
0.0
 48
0.0
 71
           0
 72
           0
 73
           1
 74
           1
 75
           0
 76
           0
 77
           0
 78
           0
140
0.18
141
0.09
142
0.0
143
25.4
144
1.0
145
0.0
146
1.0
147
0.09
170
           0
171
           2
172
           0
173
           0
174
           0
175
           0
176
           0
177
           0
178
           0
270
           2
271
           4
272
           4
273
           2
274
           2
275
           0
280
           0
281
           0
282
           0
283
           1
284
           0
285
           0
286
           0
287
           0
288
           0
340
17
  0
ENDTAB
  0
TABLE
  2
BLOCK_RECORD
  5
1
100
AcDbSymbolTable
 70
           0
  0
BLOCK_RECORD
  5
A
100
AcDbSymbolTableRecord
100
AcDbBlockTableRecord
  2
*MODEL_SPACE
  0
BLOCK_RECORD
  5
B
100
AcDbSymbolTableRecord
100
AcDbBlockTableRecord
  2
*PAPER_SPACE
  0
ENDTAB
  0
ENDSEC
  0
SECTION
  2
BLOCKS
  0
BLOCK
  5
D
100
AcDbEntity
  8
0
100
AcDbBlockBegin
  2
*MODEL_SPACE
 70
           0
 10
0.0
 20
0.0
 30
0.0
  3
*MODEL_SPACE
  1

  0
ENDBLK
  5
E
100
AcDbEntity
  8
0
100
AcDbBlockEnd
  0
BLOCK
  5
F
100
AcDbEntity
 67
           1
  8
0
100
AcDbBlockBegin
  2
*PAPER_SPACE
 70
           0
 10
0.0
 20
0.0
 30
0.0
  3
*PAPER_SPACE
  1

  0
ENDBLK
  5
10
100
AcDbEntity
 67
           1
  8
0
100
AcDbBlockEnd
  0
ENDSEC
  0
SECTION
  2
ENTITIES
  0
CIRCLE
  5
3D4
100
AcDbEntity
  8
0
  6
CONTINUOUS
 62
           7
100
AcDbCircle
 10
-110.362972225951
 20
-183.919153860706
 40
13.0
  0
CIRCLE
  5
3D3
100
AcDbEntity
  8
0
  6
CONTINUOUS
 62
           7
100
AcDbCircle
 10
-110.362972225951
 20
-183.919153860706
 40
0.4
  0
CIRCLE
  5
3D2
100
AcDbEntity
  8
0
  6
CONTINUOUS
 62
           7
100
AcDbCircle
 10
-110.362972225951
 20
-183.919153860706
 40
2.25
  0
CIRCLE
  5
3D1
100
AcDbEntity
  8
0
  6
CONTINUOUS
 62
           7
100
AcDbCircle
 10
-110.362972225951
 20
-183.919153860706
 40
2.5
  0
CIRCLE
  5
3D0
100
AcDbEntity
  8
0
  6
CONTINUOUS
 62
           7
100
AcDbCircle
 10
-110.362972225951
 20
-183.919153860706
 40
0.225
  0
ARC
  5
3CF
100
AcDbEntity
  8
0
  6
CONTINUOUS
 62
           7
100
AcDbCircle
 10
-118.517708147151
 20
-341.438081556906
 40
1.8782968548
100
AcDbArc
 50
-162.9946512135
 51
-109.953249440606
  0
ARC
  5
3CE
100
AcDbEntity
  8
0
  6
CONTINUOUS
 62
           7
100
AcDbCircle
 10
-106.964612114552
 20
-242.644943980906
 40
8.999999999999
100
AcDbArc
 50
-88.879001195899
 51
-18.714299125998
  0
ARC
  5
3CD
100
AcDbEntity
  8
0
  6
CONTINUOUS
 62
           7
100
AcDbCircle
 10
-110.362972225951
 20
-183.919153860706
 40
10.0
100
AcDbArc
 50
-165.522487814105
 51
-14.477512186099
  0
ARC
  5
3CC
100
AcDbEntity
  8
0
  6
CONTINUOUS
 62
           7
100
AcDbCircle
 10
-110.362972225951
 20
-183.919153860706
 40
10.0
100
AcDbArc
 50
14.477512185893
 51
165.522487814106
  0
ARC
  5
3CB
100
AcDbEntity
  8
0
  6
CONTINUOUS
 62
           7
100
AcDbCircle
 10
-117.140323037951
 20
-183.919153860706
 40
3.824270255
100
AcDbArc
 50
139.543297191296
 51
-139.543297191291
  0
ARC
  5
3CA
100
AcDbEntity
  8
0
  6
CONTINUOUS
 62
           7
100
AcDbCircle
 10
-110.362972225951
 20
-183.919153860706
 40
7.5
100
AcDbArc
 50
160.528779365494
 51
-160.528779365494
  0
ARC
  5
3C9
100
AcDbEntity
  8
0
  6
CONTINUOUS
 62
           7
100
AcDbCircle
 10
-103.585621414151
 20
-183.919153860706
 40
3.824270255
100
AcDbArc
 50
-40.456702808507
 51
40.456702808505
  0
ARC
  5
3C8
100
AcDbEntity
  8
0
  6
CONTINUOUS
 62
           7
100
AcDbCircle
 10
-110.362972225951
 20
-183.919153860706
 40
7.5
100
AcDbArc
 50
-19.471220634505
 51
19.471220634505
  0
ARC
  5
3C7
100
AcDbEntity
  8
0
  6
CONTINUOUS
 62
           7
100
AcDbCircle
 10
-110.362972225951
 20
-183.919153860706
 40
3.0
100
AcDbArc
 50
153.020035461406
 51
-123.557309761905
  0
ARC
  5
3C6
100
AcDbEntity
  8
0
  6
CONTINUOUS
 62
           7
100
AcDbCircle
 10
-110.362972225951
 20
-183.919153860706
 40
3.0
100
AcDbArc
 50
-56.442690238092
 51
56.442690238092
  0
ARC
  5
3C5
100
AcDbEntity
  8
0
  6
CONTINUOUS
 62
           7
100
AcDbCircle
 10
-110.362972225951
 20
-183.919153860706
 40
2.999999999999
100
AcDbArc
 50
123.557309761905
 51
153.020035461406
  0
ARC
  5
3C4
100
AcDbEntity
  8
0
  6
CONTINUOUS
 62
           7
100
AcDbCircle
 10
-110.362972225951
 20
-183.919153860706
 40
3.5
100
AcDbArc
 50
134.415308597194
 51
135.590960070807
  0
ARC
  5
3C3
100
AcDbEntity
  8
0
  6
CONTINUOUS
 62
           7
100
AcDbCircle
 10
-110.362972225951
 20
-183.919153860706
 40
3.5
100
AcDbArc
 50
-45.584691402802
 51
45.584691402804
  0
ARC
  5
3C2
100
AcDbEntity
  8
0
  6
CONTINUOUS
 62
           7
100
AcDbCircle
 10
-110.362972225951
 20
-183.919153860706
 40
3.499999999999
100
AcDbArc
 50
135.590960070807
 51
-134.415308597194
  0
ARC
  5
3C1
100
AcDbEntity
  8
0
  6
CONTINUOUS
 62
           7
100
AcDbCircle
 10
-110.362972225951
 20
-183.919153860706
 40
4.0
100
AcDbArc
 50
-38.682187453493
 51
38.682187453493
  0
ARC
  5
3C0
100
AcDbEntity
  8
0
  6
CONTINUOUS
 62
           7
100
AcDbCircle
 10
-110.362972225951
 20
-183.919153860706
 40
4.0
100
AcDbArc
 50
141.317812546505
 51
-141.317812546505
  0
ARC
  5
3BF
100
AcDbEntity
  8
0
  6
CONTINUOUS
 62
           7
100
AcDbCircle
 10
-95.362972225951
 20
-166.469198582706
 40
5.0
100
AcDbArc
 50
0.0
 51
12.555609678196
  0
ARC
  5
3BE
100
AcDbEntity
  8
0
  6
CONTINUOUS
 62
           7
100
AcDbCircle
 10
-125.362972225951
 20
-166.469198582706
 40
5.0
100
AcDbArc
 50
167.444390321804
 51
180.0
  0
ARC
  5
3BD
100
AcDbEntity
  8
0
  6
CONTINUOUS
 62
           7
100
AcDbCircle
 10
-110.362972225951
 20
-158.919153860706
 40
17.999999999996
100
AcDbArc
 50
12.555609677876
 51
167.444390322124
  0
ARC
  5
3BC
100
AcDbEntity
  8
0
  6
CONTINUOUS
 62
           7
100
AcDbCircle
 10
-332.898645624951
 20
-166.469198582706
 40
242.535673399
100
AcDbArc
 50
0.0
 51
0.530525649158
  0
ARC
  5
3BB
100
AcDbEntity
  8
0
  6
CONTINUOUS
 62
           7
100
AcDbCircle
 10
-109.198688197551
 20
-163.201699705906
 40
18.842740758563
100
AcDbArc
 50
-6.645404862789
 51
-2.584009773204
  0
ARC
  5
3BA
100
AcDbEntity
  8
0
  6
CONTINUOUS
 62
           7
100
AcDbCircle
 10
112.172701172849
 20
-166.469198582706
 40
242.535673399
100
AcDbArc
 50
179.4694743508
 51
180.0
  0
ARC
  5
3B9
100
AcDbEntity
  8
0
  6
CONTINUOUS
 62
           7
100
AcDbCircle
 10
-111.527256253951
 20
-163.201699705706
 40
18.842740759154
100
AcDbArc
 50
-177.415990226271
 51
-173.354595136748
  0
ARC
  5
3B8
100
AcDbEntity
  8
0
  6
CONTINUOUS
 62
           7
100
AcDbCircle
 10
112.533424617449
 20
-166.486967642306
 40
242.8965463372
100
AcDbArc
 50
174.8937641941
 51
179.466070934056
  0
ARC
  5
3B7
100
AcDbEntity
  8
0
  6
CONTINUOUS
 62
           7
100
AcDbCircle
 10
-333.259369069351
 20
-166.486967642306
 40
242.89654633704
100
AcDbArc
 50
0.533929065902
 51
5.1062358059
  0
ARC
  5
3B6
100
AcDbEntity
  8
0
  6
CONTINUOUS
 62
           7
100
AcDbCircle
 10
-110.362972225951
 20
-243.527274080306
 40
104.6081202196
100
AcDbArc
 50
90.0
 51
98.0911439648
  0
ARC
  5
3B5
100
AcDbEntity
  8
0
  6
CONTINUOUS
 62
           7
100
AcDbCircle
 10
-124.382636379751
 20
-144.910710407306
 40
5.00000000013
100
AcDbArc
 50
98.091143963838
 51
174.792729609684
  0
ARC
  5
3B4
100
AcDbEntity
  8
0
  6
CONTINUOUS
 62
           7
100
AcDbCircle
 10
-96.343308072351
 20
-144.910710407306
 40
5.000000000068
100
AcDbArc
 50
5.207270390316
 51
81.908856034056
  0
ARC
  5
3B3
100
AcDbEntity
  8
0
  6
CONTINUOUS
 62
           7
100
AcDbCircle
 10
-110.362972225951
 20
-183.919153860706
 40
7.0
100
AcDbArc
 50
18.749340847001
 51
20.924832427963
  0
ARC
  5
3B2
100
AcDbEntity
  8
0
  6
CONTINUOUS
 62
           7
100
AcDbCircle
 10
-110.362972225951
 20
-183.919153860706
 40
7.000000000083
100
AcDbArc
 50
159.075167572621
 51
161.250659152997
  0
ARC
  5
3B1
100
AcDbEntity
  8
0
  6
CONTINUOUS
 62
           7
100
AcDbCircle
 10
-110.362972225951
 20
-183.919153860706
 40
7.0
100
AcDbArc
 50
-161.250659152997
 51
-159.264323654002
  0
ARC
  5
3B0
100
AcDbEntity
  8
0
  6
CONTINUOUS
 62
           7
100
AcDbCircle
 10
-110.362972225951
 20
-183.919153860706
 40
7.0
100
AcDbArc
 50
-21.313350384699
 51
-19.360296217006
  0
ARC
  5
3AF
100
AcDbEntity
  8
0
  6
CONTINUOUS
 62
           7
100
AcDbCircle
 10
-110.362972225951
 20
-183.919153860706
 40
6.0
100
AcDbArc
 50
22.024312837001
 51
24.624318352205
  0
ARC
  5
3AE
100
AcDbEntity
  8
0
  6
CONTINUOUS
 62
           7
100
AcDbCircle
 10
-110.362972225951
 20
-183.919153860706
 40
6.0
100
AcDbArc
 50
155.375681647795
 51
157.975687162999
  0
ARC
  5
3AD
100
AcDbEntity
  8
0
  6
CONTINUOUS
 62
           7
100
AcDbCircle
 10
-110.362972225951
 20
-183.919153860706
 40
6.0
100
AcDbArc
 50
-157.975687162999
 51
-155.375681647791
  0
ARC
  5
3AC
100
AcDbEntity
  8
0
  6
CONTINUOUS
 62
           7
100
AcDbCircle
 10
-110.362972225951
 20
-183.919153860706
 40
6.0
100
AcDbArc
 50
-24.624318352207
 51
-22.711732408001
  0
ARC
  5
3AB
100
AcDbEntity
  8
0
  6
CONTINUOUS
 62
           7
100
AcDbCircle
 10
-110.362972225951
 20
-183.919153860706
 40
22.499999999952
100
AcDbArc
 50
-73.795306623646
 51
-68.155242514582
  0
ARC
  5
3AA
100
AcDbEntity
  8
0
  6
CONTINUOUS
 62
           7
100
AcDbCircle
 10
-102.362972225951
 20
-203.875355904306
 40
0.999999999824
100
AcDbArc
 50
-68.155242519347
 51
0.0
  0
ARC
  5
3A9
100
AcDbEntity
  8
0
  6
CONTINUOUS
 62
           7
100
AcDbCircle
 10
-118.862972225951
 20
-203.122018230505
 40
0.499999999999
100
AcDbArc
 50
66.123792269446
 51
180.0
  0
ARC
  5
3A8
100
AcDbEntity
  8
0
  6
CONTINUOUS
 62
           7
100
AcDbCircle
 10
-110.362972225951
 20
-183.919153860706
 40
20.500000000118
100
AcDbArc
 50
-113.876207730405
 51
-106.601549599376
  0
ARC
  5
3A7
100
AcDbEntity
  8
0
  6
CONTINUOUS
 62
           7
100
AcDbCircle
 10
-110.362972225951
 20
-183.919153860706
 40
20.499999999943
100
AcDbArc
 50
-73.398450401534
 51
-66.123792269911
  0
ARC
  5
3A6
100
AcDbEntity
  8
0
  6
CONTINUOUS
 62
           7
100
AcDbCircle
 10
-101.862972225951
 20
-203.122018230505
 40
0.5
100
AcDbArc
 50
0.0
 51
113.876207743521
  0
ARC
  5
3A5
100
AcDbEntity
  8
0
  6
CONTINUOUS
 62
           7
100
AcDbCircle
 10
-110.362972225951
 20
-183.919153860706
 40
22.499999999999
100
AcDbArc
 50
-106.204693376699
 51
-73.795306623646
  0
ARC
  5
3A4
100
AcDbEntity
  8
0
  6
CONTINUOUS
 62
           7
100
AcDbCircle
 10
-110.362972225951
 20
-183.919153860706
 40
22.500000000059
100
AcDbArc
 50
-111.844757486083
 51
-106.204693376699
  0
ARC
  5
3A3
100
AcDbEntity
  8
0
  6
CONTINUOUS
 62
           7
100
AcDbCircle
 10
-118.362972225951
 20
-203.875355904306
 40
1.0
100
AcDbArc
 50
180.0
 51
-111.844757495633
  0
ARC
  5
3A2
100
AcDbEntity
  8
0
  6
CONTINUOUS
 62
           7
100
AcDbCircle
 10
-117.362972225951
 20
-242.919153860706
 40
2.0
100
AcDbArc
 50
180.0
 51
-90.0
  0
ARC
  5
3A1
100
AcDbEntity
  8
0
  6
CONTINUOUS
 62
           7
100
AcDbCircle
 10
-103.362972225951
 20
-242.919153860706
 40
2.0
100
AcDbArc
 50
-90.0
 51
0.0
  0
ARC
  5
3A0
100
AcDbEntity
  8
0
  6
CONTINUOUS
 62
           7
100
AcDbCircle
 10
-106.771754490751
 20
-242.658749942706
 40
8.8060049832
100
AcDbArc
 50
-23.259573626604
 51
6.479233483199
  0
ARC
  5
39F
100
AcDbEntity
  8
0
  6
CONTINUOUS
 62
           7
100
AcDbCircle
 10
-120.232318432351
 20
-239.861431865306
 40
21.8505914538
100
AcDbArc
 50
-6.934550146498
 51
10.971298395699
  0
ARC
  5
39E
100
AcDbEntity
  8
0
  6
CONTINUOUS
 62
           7
100
AcDbCircle
 10
-342.646222300552
 20
-265.966575536306
 40
246.733262262
100
AcDbArc
 50
1.7463189193
 51
7.7236901493
  0
ARC
  5
39D
100
AcDbEntity
  8
0
  6
CONTINUOUS
 62
           7
100
AcDbCircle
 10
121.920277848449
 20
-265.966575536306
 40
246.733262262
100
AcDbArc
 50
172.2763098506
 51
178.2536810807
  0
ARC
  5
39C
100
AcDbEntity
  8
0
  6
CONTINUOUS
 62
           7
100
AcDbCircle
 10
475.606766894849
 20
-329.113270156106
 40
572.970769615
100
AcDbArc
 50
179.2864270093
 51
179.831141473
  0
ARC
  5
39B
100
AcDbEntity
  8
0
  6
CONTINUOUS
 62
           7
100
AcDbCircle
 10
-696.332711349952
 20
-329.113270156106
 40
572.970769618
100
AcDbArc
 50
0.168858527
 51
0.7135729907
  0
ARC
  5
39A
100
AcDbEntity
  8
0
  6
CONTINUOUS
 62
           7
100
AcDbCircle
 10
359.188162411649
 20
-323.461413333506
 40
456.4678092122
100
AcDbArc
 50
176.6066712144
 51
178.57100714165
  0
ARC
  5
399
100
AcDbEntity
  8
0
  6
CONTINUOUS
 62
           7
100
AcDbCircle
 10
-579.914106863751
 20
-323.461413333506
 40
456.46780921206
100
AcDbArc
 50
1.428992858349
 51
3.3933287856
  0
ARC
  5
398
100
AcDbEntity
  8
0
  6
CONTINUOUS
 62
           7
100
AcDbCircle
 10
237.584595510652
 20
-339.259400147505
 40
0.5
100
AcDbArc
 50
-74.999999999915
 51
15.00000000968
  0
ARC
  5
397
100
AcDbEntity
  8
0
  6
CONTINUOUS
 62
           7
100
AcDbCircle
 10
219.232004811052
 20
-344.176962004506
 40
0.500000000015
100
AcDbArc
 50
-165.000000018389
 51
-74.999999999914
  0
ARC
  5
396
100
AcDbEntity
  8
0
  6
CONTINUOUS
 62
           7
100
AcDbCircle
 10
-22.585422758548
 20
-190.919153860706
 40
3.0
100
AcDbArc
 50
180.0
 51
-90.0
  0
ARC
  5
395
100
AcDbEntity
  8
0
  6
CONTINUOUS
 62
           7
100
AcDbCircle
 10
-22.585422758548
 20
-176.919153860706
 40
3.0
100
AcDbArc
 50
89.999999999997
 51
180.0
  0
ARC
  5
394
100
AcDbEntity
  8
0
  6
CONTINUOUS
 62
           7
100
AcDbCircle
 10
20.485645053252
 20
-168.419153860706
 40
5.0
100
AcDbArc
 50
90.0
 51
135.0
  0
ARC
  5
393
100
AcDbEntity
  8
0
  6
CONTINUOUS
 62
           7
100
AcDbCircle
 10
20.485645053252
 20
-199.419153860706
 40
4.999999999999
100
AcDbArc
 50
-135.000000000001
 51
-90.0
  0
ARC
  5
392
100
AcDbEntity
  8
0
  6
CONTINUOUS
 62
           7
100
AcDbCircle
 10
12.914577241452
 20
-194.676513173706
 40
3.0
100
AcDbArc
 50
180.0
 51
-135.000000002701
  0
ARC
  5
391
100
AcDbEntity
  8
0
  6
CONTINUOUS
 62
           7
100
AcDbCircle
 10
12.914577241452
 20
-173.161794547906
 40
3.000000000057
100
AcDbArc
 50
134.999999999998
 51
180.0
  0
ARC
  5
390
100
AcDbEntity
  8
0
  6
CONTINUOUS
 62
           7
100
AcDbCircle
 10
155.832544742652
 20
-150.179393196505
 40
9.2597807862
100
AcDbArc
 50
89.445797715702
 51
108.472881771495
  0
ARC
  5
38F
100
AcDbEntity
  8
0
  6
CONTINUOUS
 62
           7
100
AcDbCircle
 10
181.507859116652
 20
-233.008111904906
 40
95.985053380801
100
AcDbArc
 50
107.179909525
 51
131.900939985
  0
ARC
  5
38E
100
AcDbEntity
  8
0
  6
CONTINUOUS
 62
           7
100
AcDbCircle
 10
110.862054240052
 20
-154.331636137306
 40
9.562933706599
100
AcDbArc
 50
-90.877453598998
 51
-47.837745791905
  0
ARC
  5
38D
100
AcDbEntity
  8
0
  6
CONTINUOUS
 62
           7
100
AcDbCircle
 10
172.775263491252
 20
-209.318433052906
 40
2.889976571
100
AcDbArc
 50
13.310830583393
 51
91.094855526817
  0
ARC
  5
38C
100
AcDbEntity
  8
0
  6
CONTINUOUS
 62
           7
100
AcDbCircle
 10
159.414577241452
 20
-205.419153860706
 40
1.0
100
AcDbArc
 50
180.0
 51
-90.0
  0
ARC
  5
38B
100
AcDbEntity
  8
0
  6
CONTINUOUS
 62
           7
100
AcDbCircle
 10
110.895543280452
 20
-306.576521169105
 40
152.1750073232
100
AcDbArc
 50
3.2097422716
 51
4.0564432703
  0
ARC
  5
38A
100
AcDbEntity
  8
0
  6
CONTINUOUS
 62
           7
100
AcDbCircle
 10
289.414577241452
 20
-143.880571627706
 40
1.0
100
AcDbArc
 50
14.83241211268
 51
90.0
  0
ARC
  5
389
100
AcDbEntity
  8
0
  6
CONTINUOUS
 62
           7
100
AcDbCircle
 10
289.414577241452
 20
-146.380571627706
 40
1.0
100
AcDbArc
 50
-90.0
 51
-14.786046161631
  0
ARC
  5
388
100
AcDbEntity
  8
0
  6
CONTINUOUS
 62
           7
100
AcDbCircle
 10
289.414577241452
 20
-181.169153860706
 40
1.0
100
AcDbArc
 50
-90.0
 51
-0.000000000005
  0
ARC
  5
387
100
AcDbEntity
  8
0
  6
CONTINUOUS
 62
           7
100
AcDbCircle
 10
-17.085422758548
 20
-183.919153860706
 40
2.499999999974
100
AcDbArc
 50
-83.01906725164
 51
83.019067249594
  0
ARC
  5
386
100
AcDbEntity
  8
0
  6
CONTINUOUS
 62
           7
100
AcDbCircle
 10
188.414577241452
 20
-220.085820527506
 40
49.6666666666
100
AcDbArc
 50
90.0
 51
108.341817579601
  0
ARC
  5
385
100
AcDbEntity
  8
0
  6
CONTINUOUS
 62
           7
100
AcDbCircle
 10
173.414577241452
 20
-174.840808524906
 40
1.999999999887
100
AcDbArc
 50
108.341817579642
 51
180.0
  0
ARC
  5
384
100
AcDbEntity
  8
0
  6
CONTINUOUS
 62
           7
100
AcDbCircle
 10
133.414577241652
 20
-243.444548989306
 40
49.525350757142
100
AcDbArc
 50
62.586288458898
 51
117.4137115415
  0
ARC
  5
383
100
AcDbEntity
  8
0
  6
CONTINUOUS
 62
           7
100
AcDbCircle
 10
106.998498834052
 20
-202.919153860706
 40
1.0
100
AcDbArc
 50
-90.0
 51
-9.594985747643
  0
ARC
  5
382
100
AcDbEntity
  8
0
  6
CONTINUOUS
 62
           7
100
AcDbCircle
 10
112.914564239652
 20
-203.919142502105
 40
4.999983930421
100
AcDbArc
 50
117.413849675702
 51
170.406216158669
  0
ARC
  5
381
100
AcDbEntity
  8
0
  6
CONTINUOUS
 62
           7
100
AcDbCircle
 10
188.414577241452
 20
-220.085820527506
 40
49.6666666666
100
AcDbArc
 50
90.0
 51
107.457603123716
  0
ARC
  5
380
100
AcDbEntity
  8
0
  6
CONTINUOUS
 62
           7
100
AcDbCircle
 10
283.128542393852
 20
-195.689982525906
 40
4.7865859314
100
AcDbArc
 50
-68.065378177298
 51
0.869436260368
  0
ARC
  5
37F
100
AcDbEntity
  8
0
  6
CONTINUOUS
 62
           7
100
AcDbCircle
 10
206.749437128252
 20
-293.854476806906
 40
20.000000000001
100
AcDbArc
 50
-32.6837361399
 51
-3.108992783801
  0
ARC
  5
37E
100
AcDbEntity
  8
0
  6
CONTINUOUS
 62
           7
100
AcDbCircle
 10
72.160057346852
 20
-309.327400761706
 40
191.008045278001
100
AcDbArc
 50
5.2499121568
 51
26.3880051452
  0
ARC
  5
37D
100
AcDbEntity
  8
0
  6
CONTINUOUS
 62
           7
100
AcDbCircle
 10
206.929651038052
 20
-263.614744084106
 40
11.998622993981
100
AcDbArc
 50
66.22547832393
 51
84.492274707604
  0
ARC
  5
37C
100
AcDbEntity
  8
0
  6
CONTINUOUS
 62
           7
100
AcDbCircle
 10
287.413782584852
 20
-139.671597818706
 40
0.500794829399
100
AcDbArc
 50
-0.047609264672
 51
89.909083551316
  0
ARC
  5
37B
100
AcDbEntity
  8
0
  6
CONTINUOUS
 62
           7
100
AcDbCircle
 10
233.919333315652
 20
-325.580455413306
 40
20.0
100
AcDbArc
 50
147.316263860096
 51
-165.000000000002
  0
ARC
  5
37A
100
AcDbEntity
  8
0
  6
CONTINUOUS
 62
           7
100
AcDbCircle
 10
192.065003014852
 20
-239.051422614906
 40
10.0
100
AcDbArc
 50
-25.311641327196
 51
15.000000000008
  0
ARC
  5
379
100
AcDbEntity
  8
0
  6
CONTINUOUS
 62
           7
100
AcDbCircle
 10
192.065003014852
 20
-239.051422614906
 40
10.000000000001
100
AcDbArc
 50
-42.8396088369
 51
-25.311641327196
  0
ARC
  5
378
100
AcDbEntity
  8
0
  6
CONTINUOUS
 62
           7
100
AcDbCircle
 10
183.926140415452
 20
-208.676773878506
 40
9.999999999906
100
AcDbArc
 50
14.999999999995
 51
27.539107702602
  0
ARC
  5
377
100
AcDbEntity
  8
0
  6
CONTINUOUS
 62
           7
100
AcDbCircle
 10
205.457307867852
 20
-242.667745095506
 40
9.0
100
AcDbArc
 50
-158.821933405906
 51
-85.980575426854
  0
ARC
  5
376
100
AcDbEntity
  8
0
  6
CONTINUOUS
 62
           7
100
AcDbCircle
 10
206.929295867252
 20
-263.616092317506
 40
11.999999999926
100
AcDbArc
 50
14.999999999946
 51
33.696700208112
  0
ARC
  5
375
100
AcDbEntity
  8
0
  6
CONTINUOUS
 62
           7
100
AcDbCircle
 10
206.929295867252
 20
-263.616092317506
 40
11.999999999956
100
AcDbArc
 50
66.226521555859
 51
91.902544584471
  0
ARC
  5
374
100
AcDbEntity
  8
0
  6
CONTINUOUS
 62
           7
100
AcDbCircle
 10
276.589848483052
 20
-123.847382562306
 40
6.999999999939
100
AcDbArc
 50
10.000000001183
 51
174.999999999995
  0
ARC
  5
373
100
AcDbEntity
  8
0
  6
CONTINUOUS
 62
           7
100
AcDbCircle
 10
276.589848483052
 20
-123.847382562306
 40
8.5
100
AcDbArc
 50
90.0
 51
174.999999999994
  0
ARC
  5
372
100
AcDbEntity
  8
0
  6
CONTINUOUS
 62
           7
100
AcDbCircle
 10
276.589848483052
 20
-123.847382562306
 40
8.5
100
AcDbArc
 50
9.999999999995
 51
90.0
  0
ARC
  5
371
100
AcDbEntity
  8
0
  6
CONTINUOUS
 62
           7
100
AcDbCircle
 10
-110.362972225951
 20
-183.919153860706
 40
20.5
100
AcDbArc
 50
0.0
 51
180.0
  0
ARC
  5
370
100
AcDbEntity
  8
0
  6
CONTINUOUS
 62
           7
100
AcDbCircle
 10
-110.362972225951
 20
-183.919153860706
 40
20.5
100
AcDbArc
 50
180.0
 51
0.0
  0
ARC
  5
36F
100
AcDbEntity
  8
0
  6
CONTINUOUS
 62
           7
100
AcDbCircle
 10
252.671936554252
 20
-219.767623089106
 40
10.499999999972
100
AcDbArc
 50
105.000000000171
 51
-179.636330794006
  0
ARC
  5
36E
100
AcDbEntity
  8
0
  6
CONTINUOUS
 62
           7
100
AcDbCircle
 10
289.414577241452
 20
-178.669153860706
 40
1.0
100
AcDbArc
 50
0.0
 51
90.0
  0
ARC
  5
36D
100
AcDbEntity
  8
0
  6
CONTINUOUS
 62
           7
100
AcDbCircle
 10
159.414577241452
 20
-203.622018230506
 40
1.0
100
AcDbArc
 50
90.0
 51
180.0
  0
ARC
  5
36C
100
AcDbEntity
  8
1
  6
CONTINUOUS
 62
           7
100
AcDbCircle
 10
140.076426200706
 20
-232.747920312504
 40
36.975926909124
100
AcDbArc
 50
54.562023613837
 51
64.118813125757
  0
ARC
  5
36B
100
AcDbEntity
  8
0
  6
CONTINUOUS
 62
           7
100
AcDbCircle
 10
-110.362972225951
 20
-243.527274080306
 40
104.6081202196
100
AcDbArc
 50
86.1631049312
 51
91.4327219183
  0
ARC
  5
36A
100
AcDbEntity
  8
0
  6
CONTINUOUS
 62
           7
100
AcDbCircle
 10
-110.362972225951
 20
-243.527274080306
 40
104.608120219599
100
AcDbArc
 50
81.9088560352
 51
90.0
  0
ARC
  5
369
100
AcDbEntity
  8
1
  6
CONTINUOUS
 62
           7
100
AcDbCircle
 10
252.09753055268
 20
-219.904209939439
 40
9.925628916943
100
AcDbArc
 50
179.596259115124
 51
-152.84458476437
  0
ARC
  5
368
100
AcDbEntity
  8
1
  6
CONTINUOUS
 62
           7
100
AcDbCircle
 10
-422.873613880241
 20
-273.56166277152
 40
327.195327666918
100
AcDbArc
 50
-4.01006956072
 51
2.647601873538
  0
ARC
  5
367
100
AcDbEntity
  8
1
  6
CONTINUOUS
 62
           7
100
AcDbCircle
 10
202.147669428279
 20
-273.56166277152
 40
327.195327666918
100
AcDbArc
 50
177.352398126462
 51
-175.98993043928
  0
ARC
  5
366
100
AcDbEntity
  8
0
  6
CONTINUOUS
 62
           7
100
AcDbCircle
 10
-100.493626019612
 20
-239.861431865306
 40
21.8505914538
100
AcDbArc
 50
169.0287016043
 51
-173.065449853501
  0
ARC
  5
365
100
AcDbEntity
  8
0
  6
CONTINUOUS
 62
           7
100
AcDbCircle
 10
-113.761332337412
 20
-242.644943980906
 40
9.0
100
AcDbArc
 50
-161.285700874001
 51
-91.120998804101
  0
ARC
  5
364
100
AcDbEntity
  8
0
  6
CONTINUOUS
 62
           7
100
AcDbCircle
 10
-113.954189961212
 20
-242.658749942706
 40
8.8060049832
100
AcDbArc
 50
173.520766516801
 51
-156.740426373396
  0
LINE
  5
363
100
AcDbEntity
  8
0
  6
CONTINUOUS
 62
           7
100
AcDbLine
 10
-102.612972225951
 20
-345.098921467906
 11
-102.612972225951
 21
-343.623177414106
  0
LINE
  5
362
100
AcDbEntity
  8
0
  6
CONTINUOUS
 62
           7
100
AcDbLine
 10
-118.112972225951
 20
-343.623177414106
 11
-118.112972225951
 21
-345.098921467906
  0
LINE
  5
361
100
AcDbEntity
  8
0
  6
CONTINUOUS
 62
           7
100
AcDbLine
 10
-103.612972225951
 20
-349.928550599506
 11
-103.612972225951
 21
-346.084475029506
  0
LINE
  5
360
100
AcDbEntity
  8
0
  6
CONTINUOUS
 62
           7
100
AcDbLine
 10
-117.112972225951
 20
-346.084475029506
 11
-117.112972225951
 21
-349.928550599506
  0
LINE
  5
35F
100
AcDbEntity
  8
0
  6
CONTINUOUS
 62
           7
100
AcDbLine
 10
-98.783576223551
 20
-227.754525110506
 11
-98.879648040551
 21
-227.089893078306
  0
LINE
  5
35E
100
AcDbEntity
  8
0
  6
CONTINUOUS
 62
           7
100
AcDbLine
 10
-98.168524717151
 20
-232.667430970306
 11
-99.362972225951
 21
-223.126436220262
  0
LINE
  5
35D
100
AcDbEntity
  8
0
  6
CONTINUOUS
 62
           7
100
AcDbLine
 10
-99.205993463151
 20
-202.278507520906
 11
-96.806764410751
 21
-199.128145802306
  0
LINE
  5
35C
100
AcDbEntity
  8
0
  6
CONTINUOUS
 62
           7
100
AcDbLine
 10
-123.884202525751
 20
-199.174073816506
 11
-121.519950988951
 21
-202.278507520906
  0
LINE
  5
35B
100
AcDbEntity
  8
0
  6
CONTINUOUS
 62
           7
100
AcDbLine
 10
-122.887601798151
 20
-340.523799327305
 11
-122.405885276151
 21
-340.972087063506
  0
LINE
  5
35A
100
AcDbEntity
  8
0
  6
CONTINUOUS
 62
           7
100
AcDbLine
 10
-98.320059175951
 20
-340.972087063506
 11
-97.838342653951
 21
-340.523799327305
  0
LINE
  5
359
100
AcDbEntity
  8
0
  6
CONTINUOUS
 62
           7
100
AcDbLine
 10
-117.612972225951
 20
-352.258670741905
 11
-117.612972225951
 21
-356.567423480906
  0
LINE
  5
358
100
AcDbEntity
  8
0
  6
CONTINUOUS
 62
           7
100
AcDbLine
 10
-103.112972225951
 20
-356.567423480906
 11
-103.112972225951
 21
-352.258670741905
  0
LINE
  5
357
100
AcDbEntity
  8
0
  6
CONTINUOUS
 62
           7
100
AcDbLine
 10
-117.588720055951
 20
-357.329032593306
 11
-116.866145272951
 21
-358.001464197505
  0
LINE
  5
356
100
AcDbEntity
  8
0
  6
CONTINUOUS
 62
           7
100
AcDbLine
 10
-103.859799178951
 20
-358.001464197505
 11
-103.137224395951
 21
-357.329032593306
  0
LINE
  5
355
100
AcDbEntity
  8
0
  6
CONTINUOUS
 62
           7
100
AcDbLine
 10
-117.112972225951
 20
-357.771765835706
 11
-117.112972225951
 21
-361.397052612306
  0
LINE
  5
354
100
AcDbEntity
  8
0
  6
CONTINUOUS
 62
           7
100
AcDbLine
 10
-103.612972225951
 20
-361.397052612306
 11
-103.612972225951
 21
-357.771765835706
  0
LINE
  5
353
100
AcDbEntity
  8
0
  6
CONTINUOUS
 62
           7
100
AcDbLine
 10
-117.107003533951
 20
-362.123986547706
 11
-116.384428750951
 21
-362.796418151906
  0
LINE
  5
352
100
AcDbEntity
  8
0
  6
CONTINUOUS
 62
           7
100
AcDbLine
 10
-104.341515700951
 20
-362.796418151906
 11
-103.618940917951
 21
-362.123986547706
  0
LINE
  5
351
100
AcDbEntity
  8
0
  6
CONTINUOUS
 62
           7
100
AcDbLine
 10
-116.612972225951
 20
-362.583734483506
 11
-116.612972225951
 21
-366.226681743706
  0
LINE
  5
350
100
AcDbEntity
  8
0
  6
CONTINUOUS
 62
           7
100
AcDbLine
 10
-104.112972225951
 20
-366.226681743706
 11
-104.112972225951
 21
-362.583734483506
  0
LINE
  5
34F
100
AcDbEntity
  8
0
  6
CONTINUOUS
 62
           7
100
AcDbLine
 10
-103.862972225951
 20
-366.709644656905
 11
-103.862972225951
 21
-366.226681743706
  0
LINE
  5
34E
100
AcDbEntity
  8
0
  6
CONTINUOUS
 62
           7
100
AcDbLine
 10
-116.862972225951
 20
-366.226681743706
 11
-116.862972225951
 21
-366.709644656905
  0
LINE
  5
34D
100
AcDbEntity
  8
0
  6
CONTINUOUS
 62
           7
100
AcDbLine
 10
-116.625287011951
 20
-367.160421958706
 11
-116.143570489951
 21
-367.608709694705
  0
LINE
  5
34C
100
AcDbEntity
  8
0
  6
CONTINUOUS
 62
           7
100
AcDbLine
 10
-104.582373961951
 20
-367.608709694705
 11
-104.100657439951
 21
-367.160421958706
  0
LINE
  5
34B
100
AcDbEntity
  8
0
  6
CONTINUOUS
 62
           7
100
AcDbLine
 10
-104.362972225951
 20
-371.539273788305
 11
-104.362972225951
 21
-367.404533373106
  0
LINE
  5
34A
100
AcDbEntity
  8
0
  6
CONTINUOUS
 62
           7
100
AcDbLine
 10
-116.362972225951
 20
-367.404533373106
 11
-116.362972225951
 21
-371.539273788305
  0
LINE
  5
349
100
AcDbEntity
  8
0
  6
CONTINUOUS
 62
           7
100
AcDbLine
 10
-116.143570489951
 20
-371.955375913106
 11
-115.661853967951
 21
-372.403663649106
  0
LINE
  5
348
100
AcDbEntity
  8
0
  6
CONTINUOUS
 62
           7
100
AcDbLine
 10
-105.064090483952
 20
-372.403663649106
 11
-104.582373961951
 21
-371.955375913106
  0
LINE
  5
347
100
AcDbEntity
  8
0
  6
CONTINUOUS
 62
           7
100
AcDbLine
 10
-103.362972225951
 20
-245.919153860706
 11
-103.362972225951
 21
-244.919153860706
  0
LINE
  5
346
100
AcDbEntity
  8
0
  6
CONTINUOUS
 62
           7
100
AcDbLine
 10
-117.362972225951
 20
-244.919153860706
 11
-117.362972225951
 21
-245.919153860706
  0
LINE
  5
345
100
AcDbEntity
  8
0
  6
CONTINUOUS
 62
           7
100
AcDbLine
 10
-103.362972225951
 20
-115.347382562306
 11
-117.362972225951
 21
-115.347382562306
  0
LINE
  5
344
100
AcDbEntity
  8
0
  6
CONTINUOUS
 62
           7
100
AcDbLine
 10
-103.824623810752
 20
-186.419153860706
 11
-100.680513860551
 21
-186.419153860706
  0
LINE
  5
343
100
AcDbEntity
  8
0
  6
CONTINUOUS
 62
           7
100
AcDbLine
 10
-116.901320641351
 20
-186.419153860706
 11
-120.045430591471
 21
-186.4191538607
  0
LINE
  5
342
100
AcDbEntity
  8
0
  6
CONTINUOUS
 62
           7
100
AcDbLine
 10
-120.045430591471
 20
-181.419153860712
 11
-116.901320641351
 21
-181.419153860706
  0
LINE
  5
341
100
AcDbEntity
  8
0
  6
CONTINUOUS
 62
           7
100
AcDbLine
 10
-100.680513860431
 20
-181.419153860712
 11
-103.824623810752
 21
-181.419153860706
  0
LINE
  5
340
100
AcDbEntity
  8
0
  6
CONTINUOUS
 62
           7
100
AcDbLine
 10
-116.901320641351
 20
-186.419153860706
 11
-103.824623810752
 21
-186.419153860706
  0
LINE
  5
33F
100
AcDbEntity
  8
0
  6
CONTINUOUS
 62
           7
100
AcDbLine
 10
-116.901320641351
 20
-181.419153860706
 11
-103.824623810752
 21
-181.419153860706
  0
LINE
  5
33E
100
AcDbEntity
  8
0
  6
CONTINUOUS
 62
           7
100
AcDbLine
 10
-114.362972225951
 20
-183.919153860706
 11
-117.862972225951
 21
-183.919153860706
  0
LINE
  5
33D
100
AcDbEntity
  8
0
  6
CONTINUOUS
 62
           7
100
AcDbLine
 10
-103.208428215351
 20
-181.669153860706
 11
-107.055783087151
 21
-181.669153860706
  0
LINE
  5
33C
100
AcDbEntity
  8
0
  6
CONTINUOUS
 62
           7
100
AcDbLine
 10
-113.670161364951
 20
-181.669153860706
 11
-117.517516236751
 21
-181.669153860706
  0
LINE
  5
33B
100
AcDbEntity
  8
0
  6
CONTINUOUS
 62
           7
100
AcDbLine
 10
-102.862972225951
 20
-183.919153860706
 11
-106.362972225951
 21
-183.919153860706
  0
LINE
  5
33A
100
AcDbEntity
  8
0
  6
CONTINUOUS
 62
           7
100
AcDbLine
 10
-103.208428215351
 20
-186.169153860706
 11
-107.055783087151
 21
-186.169153860706
  0
LINE
  5
339
100
AcDbEntity
  8
0
  6
CONTINUOUS
 62
           7
100
AcDbLine
 10
-113.670161364951
 20
-186.169153860706
 11
-117.517516236751
 21
-186.169153860706
  0
LINE
  5
338
100
AcDbEntity
  8
0
  6
CONTINUOUS
 62
           7
100
AcDbLine
 10
-130.362972225951
 20
-180.117098488306
 11
-130.362972225951
 21
-166.469198582706
  0
LINE
  5
337
100
AcDbEntity
  8
0
  6
CONTINUOUS
 62
           7
100
AcDbLine
 10
-90.362972225951
 20
-180.145860391506
 11
-90.362972225951
 21
-166.469198582706
  0
LINE
  5
336
100
AcDbEntity
  8
0
  6
CONTINUOUS
 62
           7
100
AcDbLine
 10
-90.552791531551
 20
-165.066849898706
 11
-92.793433638351
 21
-155.006186467706
  0
LINE
  5
335
100
AcDbEntity
  8
0
  6
CONTINUOUS
 62
           7
100
AcDbLine
 10
-130.173152920551
 20
-165.066849898706
 11
-127.932510813551
 21
-155.006186467706
  0
LINE
  5
334
100
AcDbEntity
  8
0
  6
CONTINUOUS
 62
           7
100
AcDbLine
 10
-90.375106909551
 20
-164.051209439706
 11
-90.373369273751
 21
-164.223491167106
  0
LINE
  5
333
100
AcDbEntity
  8
0
  6
CONTINUOUS
 62
           7
100
AcDbLine
 10
-90.362972225951
 20
-166.469198582706
 11
-90.362972225951
 21
-166.469198582706
  0
LINE
  5
332
100
AcDbEntity
  8
0
  6
CONTINUOUS
 62
           7
100
AcDbLine
 10
-130.350837542551
 20
-164.051209439706
 11
-130.352575178523
 21
-164.223491166928
  0
LINE
  5
331
100
AcDbEntity
  8
0
  6
CONTINUOUS
 62
           7
100
AcDbLine
 10
-130.362972225951
 20
-166.469198582706
 11
-130.362972225951
 21
-166.469198582706
  0
LINE
  5
330
100
AcDbEntity
  8
0
  6
CONTINUOUS
 62
           7
100
AcDbLine
 10
-110.362972225951
 20
-138.919153860706
 11
-110.362972225951
 21
-140.919153860706
  0
LINE
  5
32F
100
AcDbEntity
  8
0
  6
CONTINUOUS
 62
           7
100
AcDbLine
 10
-91.326785689489
 20
-144.868519000338
 11
-91.363943622151
 21
-144.456915659906
  0
LINE
  5
32E
100
AcDbEntity
  8
0
  6
CONTINUOUS
 62
           7
100
AcDbLine
 10
-129.399158762414
 20
-144.86851900034
 11
-129.362000829951
 21
-144.456915659906
  0
LINE
  5
32D
100
AcDbEntity
  8
0
  6
CONTINUOUS
 62
           7
100
AcDbLine
 10
-101.362972225951
 20
-203.875355904306
 11
-101.362972225951
 21
-203.122018230505
  0
LINE
  5
32C
100
AcDbEntity
  8
0
  6
CONTINUOUS
 62
           7
100
AcDbLine
 10
-119.362972225951
 20
-203.875355904306
 11
-119.362972225951
 21
-203.122018230505
  0
LINE
  5
32B
100
AcDbEntity
  8
0
  6
CONTINUOUS
 62
           7
100
AcDbLine
 10
-101.362972225951
 20
-242.919153860706
 11
-101.362972225951
 21
-206.419153860706
  0
LINE
  5
32A
100
AcDbEntity
  8
0
  6
CONTINUOUS
 62
           7
100
AcDbLine
 10
-119.362972225951
 20
-242.919153860706
 11
-119.362972225951
 21
-206.419153860706
  0
LINE
  5
329
100
AcDbEntity
  8
0
  6
CONTINUOUS
 62
           7
100
AcDbLine
 10
-119.362972225951
 20
-203.122018230505
 11
-119.362972225951
 21
-202.167441451706
  0
LINE
  5
328
100
AcDbEntity
  8
0
  6
CONTINUOUS
 62
           7
100
AcDbLine
 10
-101.362972225951
 20
-203.122018230505
 11
-101.362972225951
 21
-202.167441451706
  0
LINE
  5
327
100
AcDbEntity
  8
0
  6
CONTINUOUS
 62
           7
100
AcDbLine
 10
-101.362972225951
 20
-206.419153860706
 11
-101.362972225951
 21
-203.875355904306
  0
LINE
  5
326
100
AcDbEntity
  8
0
  6
CONTINUOUS
 62
           7
100
AcDbLine
 10
-119.362972225951
 20
-206.419153860706
 11
-119.362972225951
 21
-203.875355904306
  0
LINE
  5
325
100
AcDbEntity
  8
0
  6
CONTINUOUS
 62
           7
100
AcDbLine
 10
-103.362972225951
 20
-244.919153860706
 11
-117.362972225951
 21
-244.919153860706
  0
LINE
  5
324
100
AcDbEntity
  8
0
  6
CONTINUOUS
 62
           7
100
AcDbLine
 10
-119.362972225951
 20
-202.337894317106
 11
-119.362972225951
 21
-203.122018230505
  0
LINE
  5
323
100
AcDbEntity
  8
0
  6
CONTINUOUS
 62
           7
100
AcDbLine
 10
-101.362972225951
 20
-202.337894317106
 11
-101.362972225951
 21
-203.122018230505
  0
LINE
  5
322
100
AcDbEntity
  8
0
  6
CONTINUOUS
 62
           7
100
AcDbLine
 10
-99.362972225951
 20
-203.128526573105
 11
-99.362972225951
 21
-205.570945337306
  0
LINE
  5
321
100
AcDbEntity
  8
0
  6
CONTINUOUS
 62
           7
100
AcDbLine
 10
-121.362972225951
 20
-203.128526573105
 11
-121.362972225951
 21
-205.570945337306
  0
LINE
  5
320
100
AcDbEntity
  8
0
  6
CONTINUOUS
 62
           7
100
AcDbLine
 10
-121.362972225951
 20
-205.570945337306
 11
-121.362972225951
 21
-227.857728870906
  0
LINE
  5
31F
100
AcDbEntity
  8
0
  6
CONTINUOUS
 62
           7
100
AcDbLine
 10
-119.362972225951
 20
-206.088583427506
 11
-119.362972225951
 21
-206.419153860706
  0
LINE
  5
31E
100
AcDbEntity
  8
0
  6
CONTINUOUS
 62
           7
100
AcDbLine
 10
-99.362972225951
 20
-205.570945337306
 11
-99.362972225951
 21
-227.857728870906
  0
LINE
  5
31D
100
AcDbEntity
  8
0
  6
CONTINUOUS
 62
           7
100
AcDbLine
 10
-113.781446293551
 20
-245.919153860706
 11
-111.475367444151
 21
-245.919153860706
  0
LINE
  5
31C
100
AcDbEntity
  8
0
  6
CONTINUOUS
 62
           7
100
AcDbLine
 10
-106.944498158351
 20
-245.919153860706
 11
-109.250577007951
 21
-245.919153860706
  0
LINE
  5
31B
100
AcDbEntity
  8
0
  6
CONTINUOUS
 62
           7
100
AcDbLine
 10
-109.250577007951
 20
-245.919153860706
 11
-111.475367444151
 21
-245.919153860706
  0
LINE
  5
31A
100
AcDbEntity
  8
0
  6
CONTINUOUS
 62
           7
100
AcDbLine
 10
-101.006852102351
 20
-245.919153860706
 11
-106.944498158351
 21
-245.919153860706
  0
LINE
  5
319
100
AcDbEntity
  8
0
  6
CONTINUOUS
 62
           7
100
AcDbLine
 10
-119.719092349551
 20
-245.919153860706
 11
-113.781446293551
 21
-245.919153860706
  0
LINE
  5
318
100
AcDbEntity
  8
0
  6
CONTINUOUS
 62
           7
100
AcDbLine
 10
-101.362972225951
 20
-245.919153860706
 11
-101.362972225951
 21
-245.850906342106
  0
LINE
  5
317
100
AcDbEntity
  8
0
  6
CONTINUOUS
 62
           7
100
AcDbLine
 10
-119.362972225951
 20
-245.919153860706
 11
-119.362972225951
 21
-245.850906342106
  0
LINE
  5
316
100
AcDbEntity
  8
0
  6
CONTINUOUS
 62
           7
100
AcDbLine
 10
-119.362972225951
 20
-242.919153860706
 11
-119.362972225951
 21
-245.850906342106
  0
LINE
  5
315
100
AcDbEntity
  8
0
  6
CONTINUOUS
 62
           7
100
AcDbLine
 10
-101.362972225951
 20
-242.919153860706
 11
-101.362972225951
 21
-245.850906342106
  0
LINE
  5
314
100
AcDbEntity
  8
0
  6
CONTINUOUS
 62
           7
100
AcDbLine
 10
-97.137684672751
 20
-312.077998662906
 11
-97.31956739122
 21
-321.977563132063
  0
LINE
  5
313
100
AcDbEntity
  8
0
  6
CONTINUOUS
 62
           7
100
AcDbLine
 10
-123.588259779351
 20
-312.077998662906
 11
-123.406377060883
 21
-321.977563132022
  0
LINE
  5
312
100
AcDbEntity
  8
0
  6
CONTINUOUS
 62
           7
100
AcDbLine
 10
-97.362972225951
 20
-328.514097721506
 11
-97.362972225951
 21
-339.622244723706
  0
LINE
  5
311
100
AcDbEntity
  8
0
  6
CONTINUOUS
 62
           7
100
AcDbLine
 10
-123.362972225951
 20
-328.514097721506
 11
-123.362972225951
 21
-339.622244723706
  0
LINE
  5
310
100
AcDbEntity
  8
0
  6
CONTINUOUS
 62
           7
100
AcDbLine
 10
-123.362972225951
 20
-321.008345413505
 11
-123.362972225951
 21
-328.514097721506
  0
LINE
  5
30F
100
AcDbEntity
  8
0
  6
CONTINUOUS
 62
           7
100
AcDbLine
 10
-97.362972225951
 20
-321.008345413505
 11
-97.362972225951
 21
-328.514097721506
  0
LINE
  5
30E
100
AcDbEntity
  8
0
  6
CONTINUOUS
 62
           7
100
AcDbLine
 10
-102.362972225951
 20
-343.527196995306
 11
-102.362972225951
 21
-351.731400999106
  0
LINE
  5
30D
100
AcDbEntity
  8
0
  6
CONTINUOUS
 62
           7
100
AcDbLine
 10
-104.789598023551
 20
-350.914104160905
 11
-104.789598023551
 21
-352.359457970906
  0
LINE
  5
30C
100
AcDbEntity
  8
0
  6
CONTINUOUS
 62
           7
100
AcDbLine
 10
-115.936346428351
 20
-350.914104160905
 11
-115.936346428351
 21
-352.359457970906
  0
LINE
  5
30B
100
AcDbEntity
  8
0
  6
CONTINUOUS
 62
           7
100
AcDbLine
 10
-118.362972225951
 20
-343.527196995306
 11
-118.362972225951
 21
-351.731400999106
  0
LINE
  5
30A
100
AcDbEntity
  8
0
  6
CONTINUOUS
 62
           7
100
AcDbLine
 10
-104.789598023551
 20
-352.359457970906
 11
-105.719428320751
 21
-352.842420883906
  0
LINE
  5
309
100
AcDbEntity
  8
0
  6
CONTINUOUS
 62
           7
100
AcDbLine
 10
-109.467148582752
 20
-352.842420883906
 11
-105.719428320751
 21
-352.842420883906
  0
LINE
  5
308
100
AcDbEntity
  8
0
  6
CONTINUOUS
 62
           7
100
AcDbLine
 10
-109.467148582752
 20
-352.842420883906
 11
-111.258795869351
 21
-352.842420883906
  0
LINE
  5
307
100
AcDbEntity
  8
0
  6
CONTINUOUS
 62
           7
100
AcDbLine
 10
-111.258795869351
 20
-352.842420883906
 11
-115.006516131351
 21
-352.842420883906
  0
LINE
  5
306
100
AcDbEntity
  8
0
  6
CONTINUOUS
 62
           7
100
AcDbLine
 10
-115.936346428351
 20
-352.359457970906
 11
-115.006516131351
 21
-352.842420883906
  0
LINE
  5
305
100
AcDbEntity
  8
0
  6
CONTINUOUS
 62
           7
100
AcDbLine
 10
-118.362972225951
 20
-351.973706122506
 11
-118.362972225951
 21
-351.731400999106
  0
LINE
  5
304
100
AcDbEntity
  8
0
  6
CONTINUOUS
 62
           7
100
AcDbLine
 10
-102.362972225951
 20
-351.973706122506
 11
-102.362972225951
 21
-351.731400999106
  0
LINE
  5
303
100
AcDbEntity
  8
0
  6
CONTINUOUS
 62
           7
100
AcDbLine
 10
-113.362972225951
 20
-127.091337541306
 11
-107.362972225951
 21
-127.091337541306
  0
LINE
  5
302
100
AcDbEntity
  8
0
  6
CONTINUOUS
 62
           7
100
AcDbLine
 10
-113.362972225951
 20
-127.222071155306
 11
-107.362972225951
 21
-127.222071155306
  0
LINE
  5
301
100
AcDbEntity
  8
0
  6
CONTINUOUS
 62
           7
100
AcDbLine
 10
-103.362972225951
 20
-115.347382562306
 11
-103.362972225951
 21
-123.106558748906
  0
LINE
  5
300
100
AcDbEntity
  8
0
  6
CONTINUOUS
 62
           7
100
AcDbLine
 10
-117.362972225951
 20
-115.347382562306
 11
-117.362972225951
 21
-123.106558748906
  0
LINE
  5
2FF
100
AcDbEntity
  8
0
  6
CONTINUOUS
 62
           7
100
AcDbLine
 10
-117.362972225951
 20
-136.419153860706
 11
-103.362972225951
 21
-136.419153860706
  0
LINE
  5
2FE
100
AcDbEntity
  8
0
  6
CONTINUOUS
 62
           7
100
AcDbLine
 10
-117.362972225951
 20
-136.419153860706
 11
-117.362972225951
 21
-123.237292363106
  0
LINE
  5
2FD
100
AcDbEntity
  8
0
  6
CONTINUOUS
 62
           7
100
AcDbLine
 10
-103.362972225934
 20
-139.153624072854
 11
-103.362972225951
 21
-138.510770494306
  0
LINE
  5
2FC
100
AcDbEntity
  8
0
  6
CONTINUOUS
 62
           7
100
AcDbLine
 10
-103.362972225951
 20
-138.510770494306
 11
-103.362972225951
 21
-136.419153860706
  0
LINE
  5
2FB
100
AcDbEntity
  8
0
  6
CONTINUOUS
 62
           7
100
AcDbLine
 10
-117.362972225951
 20
-139.153624072906
 11
-117.362972225951
 21
-136.419153860706
  0
LINE
  5
2FA
100
AcDbEntity
  8
0
  6
CONTINUOUS
 62
           7
100
AcDbLine
 10
218.490222852852
 20
-343.340445700706
 11
218.749041897852
 21
-344.306371526906
  0
LINE
  5
2F9
100
AcDbEntity
  8
0
  6
CONTINUOUS
 62
           7
100
AcDbLine
 10
238.067558423652
 20
-339.129990624905
 11
237.808739378652
 21
-338.164064798705
  0
LINE
  5
2F8
100
AcDbEntity
  8
0
  6
CONTINUOUS
 62
           7
100
AcDbLine
 10
236.800091972452
 20
-343.093073868506
 11
236.023634837052
 21
-340.195296389506
  0
LINE
  5
2F7
100
AcDbEntity
  8
0
  6
CONTINUOUS
 62
           7
100
AcDbLine
 10
221.051784529652
 20
-344.206991588706
 11
221.828241665052
 21
-347.104769067506
  0
LINE
  5
2F6
100
AcDbEntity
  8
0
  6
CONTINUOUS
 62
           7
100
AcDbLine
 10
237.128261371652
 20
-348.181522044905
 11
235.834166146052
 21
-343.351892913505
  0
LINE
  5
2F5
100
AcDbEntity
  8
0
  6
CONTINUOUS
 62
           7
100
AcDbLine
 10
222.794167491252
 20
-346.845950022306
 11
224.088262716852
 21
-351.675579153905
  0
LINE
  5
2F4
100
AcDbEntity
  8
0
  6
CONTINUOUS
 62
           7
100
AcDbLine
 10
8.414577241452
 20
-196.919153860706
 11
8.914577241452
 21
-196.419153860706
  0
LINE
  5
2F3
100
AcDbEntity
  8
0
  6
CONTINUOUS
 62
           7
100
AcDbLine
 10
8.914577241452
 20
-171.419153860706
 11
8.414577241452
 21
-170.919153860706
  0
LINE
  5
2F2
100
AcDbEntity
  8
0
  6
CONTINUOUS
 62
           7
100
AcDbLine
 10
8.414577241452
 20
-170.919153860706
 11
-5.585422758548
 21
-170.919153860706
  0
LINE
  5
2F1
100
AcDbEntity
  8
0
  6
CONTINUOUS
 62
           7
100
AcDbLine
 10
-5.585422758548
 20
-196.919153860706
 11
8.414577241452
 21
-196.919153860706
  0
LINE
  5
2F0
100
AcDbEntity
  8
0
  6
CONTINUOUS
 62
           7
100
AcDbLine
 10
-5.585422758548
 20
-170.919153860706
 11
-16.781575181348
 21
-173.919153860706
  0
LINE
  5
2EF
100
AcDbEntity
  8
0
  6
CONTINUOUS
 62
           7
100
AcDbLine
 10
-16.781575181348
 20
-193.919153860706
 11
-5.585422758548
 21
-196.919153860706
  0
LINE
  5
2EE
100
AcDbEntity
  8
0
  6
CONTINUOUS
 62
           7
100
AcDbLine
 10
-22.585422758548
 20
-193.919153860706
 11
-16.781575181348
 21
-193.919153860706
  0
LINE
  5
2ED
100
AcDbEntity
  8
0
  6
CONTINUOUS
 62
           7
100
AcDbLine
 10
-16.781575181348
 20
-173.919153860706
 11
-22.585422758548
 21
-173.919153860706
  0
LINE
  5
2EC
100
AcDbEntity
  8
0
  6
CONTINUOUS
 62
           7
100
AcDbLine
 10
103.414577241452
 20
-163.419153860706
 11
20.485645053252
 21
-163.419153860706
  0
LINE
  5
2EB
100
AcDbEntity
  8
0
  6
CONTINUOUS
 62
           7
100
AcDbLine
 10
20.485645053252
 20
-204.419153860706
 11
103.414577241452
 21
-204.419153860706
  0
LINE
  5
2EA
100
AcDbEntity
  8
0
  6
CONTINUOUS
 62
           7
100
AcDbLine
 10
16.95011114732
 20
-164.883619954774
 11
10.793256897852
 21
-171.040474204306
  0
LINE
  5
2E9
100
AcDbEntity
  8
0
  6
CONTINUOUS
 62
           7
100
AcDbLine
 10
10.793256897852
 20
-196.797833517105
 11
16.95011114732
 21
-202.954687766638
  0
LINE
  5
2E8
100
AcDbEntity
  8
0
  6
CONTINUOUS
 62
           7
100
AcDbLine
 10
110.716982566652
 20
-163.919153860706
 11
104.914577241452
 21
-163.919153860706
  0
LINE
  5
2E7
100
AcDbEntity
  8
0
  6
CONTINUOUS
 62
           7
100
AcDbLine
 10
104.914577241452
 20
-203.919153860706
 11
106.998498834052
 21
-203.919153860706
  0
LINE
  5
2E6
100
AcDbEntity
  8
0
  6
CONTINUOUS
 62
           7
100
AcDbLine
 10
103.414577241452
 20
-202.919153860706
 11
104.914577241452
 21
-202.919153860706
  0
LINE
  5
2E5
100
AcDbEntity
  8
0
  6
CONTINUOUS
 62
           7
100
AcDbLine
 10
104.914577241452
 20
-164.919153860706
 11
103.414577241452
 21
-164.919153860706
  0
LINE
  5
2E4
100
AcDbEntity
  8
0
  6
CONTINUOUS
 62
           7
100
AcDbLine
 10
237.914577241452
 20
-140.919153860706
 11
155.922132064452
 21
-140.919153860706
  0
LINE
  5
2E3
100
AcDbEntity
  8
0
  6
CONTINUOUS
 62
           7
100
AcDbLine
 10
267.914577241452
 20
-138.919153860706
 11
257.914577241252
 21
-138.919153860706
  0
LINE
  5
2E2
100
AcDbEntity
  8
0
  6
CONTINUOUS
 62
           7
100
AcDbLine
 10
173.777022214252
 20
-201.771816914306
 11
174.004832970252
 21
-202.622018230506
  0
LINE
  5
2E1
100
AcDbEntity
  8
0
  6
CONTINUOUS
 62
           7
100
AcDbLine
 10
175.618068910852
 20
-208.642696725506
 11
185.338319138106
 21
-244.919153860706
  0
LINE
  5
2E0
100
AcDbEntity
  8
0
  6
CONTINUOUS
 62
           7
100
AcDbLine
 10
159.414577241452
 20
-206.419153860706
 11
172.720291432052
 21
-206.419153860706
  0
LINE
  5
2DF
100
AcDbEntity
  8
0
  6
CONTINUOUS
 62
           7
100
AcDbLine
 10
271.250344232452
 20
-203.919153860706
 11
284.208672466852
 21
-200.446980275106
  0
LINE
  5
2DE
100
AcDbEntity
  8
0
  6
CONTINUOUS
 62
           7
100
AcDbLine
 10
285.914577241452
 20
-138.919153860706
 11
267.914577241452
 21
-138.919153860706
  0
LINE
  5
2DD
100
AcDbEntity
  8
0
  6
CONTINUOUS
 62
           7
100
AcDbLine
 10
271.003770863052
 20
-328.751844829505
 11
268.027351844452
 21
-317.643697827106
  0
LINE
  5
2DC
100
AcDbEntity
  8
0
  6
CONTINUOUS
 62
           7
100
AcDbLine
 10
270.650217472452
 20
-329.364217265105
 11
271.003770863052
 21
-328.751844829505
  0
LINE
  5
2DB
100
AcDbEntity
  8
0
  6
CONTINUOUS
 62
           7
100
AcDbLine
 10
214.901431398452
 20
-331.878745307706
 11
217.877850417052
 21
-342.986892310106
  0
LINE
  5
2DA
100
AcDbEntity
  8
0
  6
CONTINUOUS
 62
           7
100
AcDbLine
 10
217.877850417052
 20
-342.986892310106
 11
218.490222852852
 21
-343.340445700706
  0
LINE
  5
2D9
100
AcDbEntity
  8
0
  6
CONTINUOUS
 62
           7
100
AcDbLine
 10
258.886976454452
 20
-336.657272917906
 11
257.851700274052
 21
-332.793569612706
  0
LINE
  5
2D8
100
AcDbEntity
  8
0
  6
CONTINUOUS
 62
           7
100
AcDbLine
 10
239.016146661452
 20
-337.840540992306
 11
240.051422841852
 21
-341.704244297506
  0
LINE
  5
2D7
100
AcDbEntity
  8
0
  6
CONTINUOUS
 62
           7
100
AcDbLine
 10
244.860562531452
 20
-352.890717175306
 11
245.779121184852
 21
-353.421047261106
  0
LINE
  5
2D6
100
AcDbEntity
  8
0
  6
CONTINUOUS
 62
           7
100
AcDbLine
 10
259.785045666052
 20
-349.668171107106
 11
260.315375752052
 21
-348.749612453706
  0
LINE
  5
2D5
100
AcDbEntity
  8
0
  6
CONTINUOUS
 62
           7
100
AcDbLine
 10
246.948203524252
 20
-358.750047775706
 11
247.866762177652
 21
-359.280377861505
  0
LINE
  5
2D4
100
AcDbEntity
  8
0
  6
CONTINUOUS
 62
           7
100
AcDbLine
 10
260.906760832652
 20
-355.786320752706
 11
261.437090918452
 21
-354.867762099106
  0
LINE
  5
2D3
100
AcDbEntity
  8
0
  6
CONTINUOUS
 62
           7
100
AcDbLine
 10
245.779121184852
 20
-353.421047261106
 11
247.124980219452
 21
-358.443861557906
  0
LINE
  5
2D2
100
AcDbEntity
  8
0
  6
CONTINUOUS
 62
           7
100
AcDbLine
 10
261.130904700652
 20
-354.690985403905
 11
259.785045666052
 21
-349.668171107106
  0
LINE
  5
2D1
100
AcDbEntity
  8
0
  6
CONTINUOUS
 62
           7
100
AcDbLine
 10
248.725261662852
 20
-363.450267384506
 11
249.643820316452
 21
-363.980597470506
  0
LINE
  5
2D0
100
AcDbEntity
  8
0
  6
CONTINUOUS
 62
           7
100
AcDbLine
 10
261.717893145052
 20
-360.745359406706
 11
262.248223230852
 21
-359.826800753105
  0
LINE
  5
2CF
100
AcDbEntity
  8
0
  6
CONTINUOUS
 62
           7
100
AcDbLine
 10
247.866762177652
 20
-359.280377861505
 11
248.902038358052
 21
-363.144081166706
  0
LINE
  5
2CE
100
AcDbEntity
  8
0
  6
CONTINUOUS
 62
           7
100
AcDbLine
 10
261.942037013052
 20
-359.650024057906
 11
260.906760832652
 21
-355.786320752706
  0
LINE
  5
2CD
100
AcDbEntity
  8
0
  6
CONTINUOUS
 62
           7
100
AcDbLine
 10
250.567024562852
 20
-368.391968450106
 11
251.179396998452
 21
-368.745521840706
  0
LINE
  5
2CC
100
AcDbEntity
  8
0
  6
CONTINUOUS
 62
           7
100
AcDbLine
 10
262.770506913852
 20
-365.639693299506
 11
263.124060304452
 21
-365.027320863706
  0
LINE
  5
2CB
100
AcDbEntity
  8
0
  6
CONTINUOUS
 62
           7
100
AcDbLine
 10
263.124060304452
 20
-365.027320863706
 11
262.994650782052
 21
-364.544357950506
  0
LINE
  5
2CA
100
AcDbEntity
  8
0
  6
CONTINUOUS
 62
           7
100
AcDbLine
 10
250.437615040252
 20
-367.909005536906
 11
250.567024562852
 21
-368.391968450106
  0
LINE
  5
2C9
100
AcDbEntity
  8
0
  6
CONTINUOUS
 62
           7
100
AcDbLine
 10
249.643820316452
 20
-363.980597470506
 11
250.679096496852
 21
-367.844300775706
  0
LINE
  5
2C8
100
AcDbEntity
  8
0
  6
CONTINUOUS
 62
           7
100
AcDbLine
 10
262.753169325452
 20
-364.609062711906
 11
261.717893145052
 21
-360.745359406706
  0
LINE
  5
2C7
100
AcDbEntity
  8
0
  6
CONTINUOUS
 62
           7
100
AcDbLine
 10
252.344082701452
 20
-373.092188058906
 11
252.956455137052
 21
-373.445741449506
  0
LINE
  5
2C6
100
AcDbEntity
  8
0
  6
CONTINUOUS
 62
           7
100
AcDbLine
 10
263.581639226252
 20
-370.598731953506
 11
263.935192616852
 21
-369.986359517706
  0
LINE
  5
2C5
100
AcDbEntity
  8
0
  6
CONTINUOUS
 62
           7
100
AcDbLine
 10
263.935192616852
 20
-369.986359517706
 11
262.770506913852
 21
-365.639693299506
  0
LINE
  5
2C4
100
AcDbEntity
  8
0
  6
CONTINUOUS
 62
           7
100
AcDbLine
 10
251.179396998452
 20
-368.745521840706
 11
252.344082701452
 21
-373.092188058906
  0
LINE
  5
2C3
100
AcDbEntity
  8
0
  6
CONTINUOUS
 62
           7
100
AcDbLine
 10
265.921213062252
 20
-347.454588109506
 11
266.227399280052
 21
-347.631364804906
  0
LINE
  5
2C2
100
AcDbEntity
  8
0
  6
CONTINUOUS
 62
           7
100
AcDbLine
 10
270.091102585252
 20
-346.596088624506
 11
270.267879280452
 21
-346.289902406505
  0
LINE
  5
2C1
100
AcDbEntity
  8
0
  6
CONTINUOUS
 62
           7
100
AcDbLine
 10
270.267879280452
 20
-346.289902406505
 11
270.203174519253
 21
-346.048420950105
  0
LINE
  5
2C0
100
AcDbEntity
  8
0
  6
CONTINUOUS
 62
           7
100
AcDbLine
 10
265.856508300852
 20
-347.213106652905
 11
265.921213062252
 21
-347.454588109506
  0
LINE
  5
2BF
100
AcDbEntity
  8
0
  6
CONTINUOUS
 62
           7
100
AcDbLine
 10
271.173745938452
 20
-349.670642798506
 11
271.109041177052
 21
-349.429161342106
  0
LINE
  5
2BE
100
AcDbEntity
  8
0
  6
CONTINUOUS
 62
           7
100
AcDbLine
 10
266.762374958852
 20
-350.593847044906
 11
266.827079720052
 21
-350.835328501506
  0
LINE
  5
2BD
100
AcDbEntity
  8
0
  6
CONTINUOUS
 62
           7
100
AcDbLine
 10
266.827079720052
 20
-350.835328501506
 11
267.133265937852
 21
-351.012105196906
  0
LINE
  5
2BC
100
AcDbEntity
  8
0
  6
CONTINUOUS
 62
           7
100
AcDbLine
 10
270.996969243052
 20
-349.976829016506
 11
271.173745938452
 21
-349.670642798506
  0
LINE
  5
2BB
100
AcDbEntity
  8
0
  6
CONTINUOUS
 62
           7
100
AcDbLine
 10
269.362012622652
 20
-342.909162014506
 11
268.132622158452
 21
-338.321014339706
  0
LINE
  5
2BA
100
AcDbEntity
  8
0
  6
CONTINUOUS
 62
           7
100
AcDbLine
 10
263.785955940052
 20
-339.485700042706
 11
265.015346404252
 21
-344.073847717506
  0
LINE
  5
2B9
100
AcDbEntity
  8
0
  6
CONTINUOUS
 62
           7
100
AcDbLine
 10
265.015346404252
 20
-344.073847717506
 11
265.321532622252
 21
-344.250624412906
  0
LINE
  5
2B8
100
AcDbEntity
  8
0
  6
CONTINUOUS
 62
           7
100
AcDbLine
 10
269.185235927252
 20
-343.215348232506
 11
269.362012622652
 21
-342.909162014506
  0
LINE
  5
2B7
100
AcDbEntity
  8
0
  6
CONTINUOUS
 62
           7
100
AcDbLine
 10
269.961693062652
 20
-346.113125711306
 11
269.185235927252
 21
-343.215348232506
  0
LINE
  5
2B6
100
AcDbEntity
  8
0
  6
CONTINUOUS
 62
           7
100
AcDbLine
 10
265.321532622252
 20
-344.250624412906
 11
266.097989757452
 21
-347.148401891705
  0
LINE
  5
2B5
100
AcDbEntity
  8
0
  6
CONTINUOUS
 62
           7
100
AcDbLine
 10
271.644016855852
 20
-352.391643582106
 11
270.996969243052
 21
-349.976829016506
  0
LINE
  5
2B4
100
AcDbEntity
  8
0
  6
CONTINUOUS
 62
           7
100
AcDbLine
 10
267.133265937852
 20
-351.012105196906
 11
267.780313550652
 21
-353.426919762506
  0
LINE
  5
2B3
100
AcDbEntity
  8
0
  6
CONTINUOUS
 62
           7
100
AcDbLine
 10
267.780313550652
 20
-353.426919762506
 11
268.392685986452
 21
-353.780473153106
  0
LINE
  5
2B2
100
AcDbEntity
  8
0
  6
CONTINUOUS
 62
           7
100
AcDbLine
 10
271.290463465252
 20
-353.004016017905
 11
271.644016855852
 21
-352.391643582106
  0
LINE
  5
2B1
100
AcDbEntity
  8
0
  6
CONTINUOUS
 62
           7
100
AcDbLine
 10
270.867559720452
 20
-349.493866103306
 11
270.091102585252
 21
-346.596088624506
  0
LINE
  5
2B0
100
AcDbEntity
  8
0
  6
CONTINUOUS
 62
           7
100
AcDbLine
 10
266.227399280052
 20
-347.631364804906
 11
267.003856415252
 21
-350.529142283706
  0
LINE
  5
2AF
100
AcDbEntity
  8
0
  6
CONTINUOUS
 62
           7
100
AcDbLine
 10
288.414577241452
 20
-147.380571627706
 11
289.414577241452
 21
-147.380571627706
  0
LINE
  5
2AE
100
AcDbEntity
  8
0
  6
CONTINUOUS
 62
           7
100
AcDbLine
 10
289.414577241452
 20
-142.880571627706
 11
288.414577241452
 21
-142.880571627706
  0
LINE
  5
2AD
100
AcDbEntity
  8
0
  6
CONTINUOUS
 62
           7
100
AcDbLine
 10
288.414577241452
 20
-182.169153860706
 11
289.414577241452
 21
-182.169153860706
  0
LINE
  5
2AC
100
AcDbEntity
  8
0
  6
CONTINUOUS
 62
           7
100
AcDbLine
 10
289.414577241452
 20
-177.669153860706
 11
288.414577241452
 21
-177.669153860706
  0
LINE
  5
2AB
100
AcDbEntity
  8
0
  6
CONTINUOUS
 62
           7
100
AcDbLine
 10
9.914577241452
 20
-174.169153860706
 11
8.914577241452
 21
-174.169153860706
  0
LINE
  5
2AA
100
AcDbEntity
  8
0
  6
CONTINUOUS
 62
           7
100
AcDbLine
 10
8.914577241452
 20
-193.669153860706
 11
9.914577241452
 21
-193.669153860706
  0
LINE
  5
2A9
100
AcDbEntity
  8
0
  6
CONTINUOUS
 62
           7
100
AcDbLine
 10
-21.501675744148
 20
-184.144153860706
 11
-18.501675744148
 21
-184.144153860706
  0
LINE
  5
2A8
100
AcDbEntity
  8
0
  6
CONTINUOUS
 62
           7
100
AcDbLine
 10
-18.501675744148
 20
-183.694153860706
 11
-21.501675744148
 21
-183.694153860706
  0
LINE
  5
2A7
100
AcDbEntity
  8
0
  6
CONTINUOUS
 62
           7
100
AcDbLine
 10
237.714005033204
 20
-339.74236306065
 11
219.361414333604
 21
-344.65992491765
  0
LINE
  5
2A6
100
AcDbEntity
  8
0
  6
CONTINUOUS
 62
           7
100
AcDbLine
 10
221.828241665052
 20
-347.104769067506
 11
236.800091972452
 21
-343.093073868506
  0
LINE
  5
2A5
100
AcDbEntity
  8
0
  6
CONTINUOUS
 62
           7
100
AcDbLine
 10
237.128261371652
 20
-348.181522044905
 11
224.088262716852
 21
-351.675579153905
  0
LINE
  5
2A4
100
AcDbEntity
  8
0
  6
CONTINUOUS
 62
           7
100
AcDbLine
 10
8.914577241452
 20
-183.919153860706
 11
8.914577241452
 21
-196.419153860706
  0
LINE
  5
2A3
100
AcDbEntity
  8
0
  6
CONTINUOUS
 62
           7
100
AcDbLine
 10
8.914577241452
 20
-171.419153860706
 11
8.914577241452
 21
-183.919153860706
  0
LINE
  5
2A2
100
AcDbEntity
  8
0
  6
CONTINUOUS
 62
           7
100
AcDbLine
 10
8.414577241452
 20
-183.919153860706
 11
8.414577241452
 21
-170.919153860706
  0
LINE
  5
2A1
100
AcDbEntity
  8
0
  6
CONTINUOUS
 62
           7
100
AcDbLine
 10
8.414577241452
 20
-196.919153860706
 11
8.414577241452
 21
-183.919153860706
  0
LINE
  5
2A0
100
AcDbEntity
  8
0
  6
CONTINUOUS
 62
           7
100
AcDbLine
 10
-5.585422758548
 20
-170.919153860706
 11
-5.585422758548
 21
-196.919153860706
  0
LINE
  5
29F
100
AcDbEntity
  8
0
  6
CONTINUOUS
 62
           7
100
AcDbLine
 10
-16.781575181348
 20
-173.919153860706
 11
-16.781575181256
 21
-181.43768722789
  0
LINE
  5
29E
100
AcDbEntity
  8
0
  6
CONTINUOUS
 62
           7
100
AcDbLine
 10
-25.585422758548
 20
-190.919153860706
 11
-25.585422758548
 21
-186.419153860706
  0
LINE
  5
29D
100
AcDbEntity
  8
0
  6
CONTINUOUS
 62
           7
100
AcDbLine
 10
-25.585422758548
 20
-186.419153860706
 11
-22.585422758548
 21
-186.419153860706
  0
LINE
  5
29C
100
AcDbEntity
  8
0
  6
CONTINUOUS
 62
           7
100
AcDbLine
 10
-25.585422758548
 20
-181.419153860706
 11
-25.585422758548
 21
-176.919153860706
  0
LINE
  5
29B
100
AcDbEntity
  8
0
  6
CONTINUOUS
 62
           7
100
AcDbLine
 10
-22.585422758548
 20
-181.419153860706
 11
-25.585422758548
 21
-181.419153860706
  0
LINE
  5
29A
100
AcDbEntity
  8
0
  6
CONTINUOUS
 62
           7
100
AcDbLine
 10
-22.585422758548
 20
-186.419153860706
 11
-16.781575181348
 21
-186.419153860706
  0
LINE
  5
299
100
AcDbEntity
  8
0
  6
CONTINUOUS
 62
           7
100
AcDbLine
 10
-16.781575181256
 20
-181.419153860706
 11
-22.585422758548
 21
-181.419153860706
  0
LINE
  5
298
100
AcDbEntity
  8
0
  6
CONTINUOUS
 62
           7
100
AcDbLine
 10
103.414577241452
 20
-183.919153860706
 11
103.414577241452
 21
-163.419153860706
  0
LINE
  5
297
100
AcDbEntity
  8
0
  6
CONTINUOUS
 62
           7
100
AcDbLine
 10
103.414577241452
 20
-204.419153860706
 11
103.414577241452
 21
-183.919153860706
  0
LINE
  5
296
100
AcDbEntity
  8
0
  6
CONTINUOUS
 62
           7
100
AcDbLine
 10
9.914577241452
 20
-183.919153860706
 11
9.914577241452
 21
-173.161794547906
  0
LINE
  5
295
100
AcDbEntity
  8
0
  6
CONTINUOUS
 62
           7
100
AcDbLine
 10
9.914577241452
 20
-194.676513173706
 11
9.914577241452
 21
-183.919153860706
  0
LINE
  5
294
100
AcDbEntity
  8
0
  6
CONTINUOUS
 62
           7
100
AcDbLine
 10
-18.501675744148
 20
-186.419153860706
 11
-18.501675744148
 21
-181.419153860706
  0
LINE
  5
293
100
AcDbEntity
  8
0
  6
CONTINUOUS
 62
           7
100
AcDbLine
 10
157.914577241452
 20
-164.119153860706
 11
163.414577241452
 21
-156.310470044106
  0
LINE
  5
292
100
AcDbEntity
  8
0
  6
CONTINUOUS
 62
           7
100
AcDbLine
 10
234.414577241452
 20
-164.119153860706
 11
157.914577241452
 21
-164.119153860706
  0
LINE
  5
291
100
AcDbEntity
  8
0
  6
CONTINUOUS
 62
           7
100
AcDbLine
 10
234.414577241452
 20
-156.310470044106
 11
234.414577241452
 21
-164.119153860706
  0
LINE
  5
290
100
AcDbEntity
  8
0
  6
CONTINUOUS
 62
           7
100
AcDbLine
 10
163.414577241452
 20
-156.310470044106
 11
234.414577241452
 21
-156.310470044106
  0
LINE
  5
28F
100
AcDbEntity
  8
0
  6
CONTINUOUS
 62
           7
100
AcDbLine
 10
171.414577241452
 20
-183.919153860706
 11
171.414577241452
 21
-174.840808524906
  0
LINE
  5
28E
100
AcDbEntity
  8
0
  6
CONTINUOUS
 62
           7
100
AcDbLine
 10
267.914577241452
 20
-166.469198582706
 11
267.914577241452
 21
-170.419153860706
  0
LINE
  5
28D
100
AcDbEntity
  8
0
  6
CONTINUOUS
 62
           7
100
AcDbLine
 10
188.414577241452
 20
-170.419153860906
 11
267.914577241452
 21
-170.419153860706
  0
LINE
  5
28C
100
AcDbEntity
  8
0
  6
CONTINUOUS
 62
           7
100
AcDbLine
 10
171.414577241452
 20
-183.919153860706
 11
171.414577241452
 21
-202.664807173906
  0
LINE
  5
28B
100
AcDbEntity
  8
0
  6
CONTINUOUS
 62
           7
100
AcDbLine
 10
104.914577241452
 20
-183.919153860706
 11
104.914577241452
 21
-163.919153860706
  0
LINE
  5
28A
100
AcDbEntity
  8
0
  6
CONTINUOUS
 62
           7
100
AcDbLine
 10
104.914577241452
 20
-203.919153860706
 11
104.914577241452
 21
-183.919153860706
  0
LINE
  5
289
100
AcDbEntity
  8
0
  6
CONTINUOUS
 62
           7
100
AcDbLine
 10
163.414577241452
 20
-156.332208751705
 11
163.414577241452
 21
-156.310470044106
  0
LINE
  5
288
100
AcDbEntity
  8
0
  6
CONTINUOUS
 62
           7
100
AcDbLine
 10
157.929888770852
 20
-164.119153860706
 11
163.414577241452
 21
-156.332208751705
  0
LINE
  5
287
100
AcDbEntity
  8
0
  6
CONTINUOUS
 62
           7
100
AcDbLine
 10
163.414577241452
 20
-156.332208751705
 11
234.414577241452
 21
-156.332208751705
  0
LINE
  5
286
100
AcDbEntity
  8
0
  6
CONTINUOUS
 62
           7
100
AcDbLine
 10
173.414577241452
 20
-201.771816914306
 11
173.414577241452
 21
-202.622018230506
  0
LINE
  5
285
100
AcDbEntity
  8
0
  6
CONTINUOUS
 62
           7
100
AcDbLine
 10
267.914577241452
 20
-144.456915659906
 11
267.914577241452
 21
-139.960483284306
  0
LINE
  5
284
100
AcDbEntity
  8
0
  6
CONTINUOUS
 62
           7
100
AcDbLine
 10
257.914577241252
 20
-138.919153860706
 11
257.475731099252
 21
-138.960505360505
  0
LINE
  5
283
100
AcDbEntity
  8
0
  6
CONTINUOUS
 62
           7
100
AcDbLine
 10
267.914577241452
 20
-138.919153860706
 11
267.914577241452
 21
-139.960483284306
  0
LINE
  5
282
100
AcDbEntity
  8
0
  6
CONTINUOUS
 62
           7
100
AcDbLine
 10
195.414577241452
 20
-241.419153860706
 11
194.914577241452
 21
-241.919153860706
  0
LINE
  5
281
100
AcDbEntity
  8
0
  6
CONTINUOUS
 62
           7
100
AcDbLine
 10
201.636239896852
 20
-241.419153860706
 11
195.414577241452
 21
-241.419153860706
  0
LINE
  5
280
100
AcDbEntity
  8
0
  6
CONTINUOUS
 62
           7
100
AcDbLine
 10
195.414577241452
 20
-238.419153860706
 11
201.898633201052
 21
-238.419153860706
  0
LINE
  5
27F
100
AcDbEntity
  8
0
  6
CONTINUOUS
 62
           7
100
AcDbLine
 10
195.414577241452
 20
-238.419153860706
 11
194.914577241452
 21
-237.919153860706
  0
LINE
  5
27E
100
AcDbEntity
  8
0
  6
CONTINUOUS
 62
           7
100
AcDbLine
 10
195.414577241452
 20
-241.419153860706
 11
195.414577241452
 21
-238.419153860706
  0
LINE
  5
27D
100
AcDbEntity
  8
0
  6
CONTINUOUS
 62
           7
100
AcDbLine
 10
158.414577241452
 20
-204.043765658306
 11
158.414577241452
 21
-204.564976682906
  0
LINE
  5
27C
100
AcDbEntity
  8
0
  6
CONTINUOUS
 62
           7
100
AcDbLine
 10
158.414577241452
 20
-205.419153860706
 11
158.414577241452
 21
-204.564976682906
  0
LINE
  5
27B
100
AcDbEntity
  8
0
  6
CONTINUOUS
 62
           7
100
AcDbLine
 10
158.414577241452
 20
-204.919153860706
 11
158.414577241452
 21
-204.043765658306
  0
LINE
  5
27A
100
AcDbEntity
  8
0
  6
CONTINUOUS
 62
           7
100
AcDbLine
 10
267.914577241452
 20
-144.456915659906
 11
267.914577241452
 21
-158.919153860706
  0
LINE
  5
279
100
AcDbEntity
  8
0
  6
CONTINUOUS
 62
           7
100
AcDbLine
 10
188.414577241452
 20
-170.419153860906
 11
267.914577241452
 21
-170.419153860706
  0
LINE
  5
278
100
AcDbEntity
  8
0
  6
CONTINUOUS
 62
           7
100
AcDbLine
 10
267.914577241452
 20
-158.919153860706
 11
267.914577241452
 21
-170.419153860706
  0
LINE
  5
277
100
AcDbEntity
  8
0
  6
CONTINUOUS
 62
           7
100
AcDbLine
 10
171.414577241452
 20
-183.919153860706
 11
171.414577241452
 21
-175.568657794706
  0
LINE
  5
276
100
AcDbEntity
  8
0
  6
CONTINUOUS
 62
           7
100
AcDbLine
 10
171.414577241452
 20
-201.771816914306
 11
191.159505422252
 21
-201.771816914306
  0
LINE
  5
275
100
AcDbEntity
  8
0
  6
CONTINUOUS
 62
           7
100
AcDbLine
 10
171.414577241452
 20
-201.771816914306
 11
171.414577241452
 21
-183.919153860706
  0
LINE
  5
274
100
AcDbEntity
  8
0
  6
CONTINUOUS
 62
           7
100
AcDbLine
 10
249.954336580653
 20
-209.625401913105
 11
271.250344232452
 21
-203.919153860706
  0
LINE
  5
273
100
AcDbEntity
  8
0
  6
CONTINUOUS
 62
           7
100
AcDbLine
 10
287.914577241452
 20
-144.656530606906
 11
287.914577241452
 21
-146.172975035706
  0
LINE
  5
272
100
AcDbEntity
  8
0
  6
CONTINUOUS
 62
           7
100
AcDbLine
 10
287.914577241452
 20
-146.172975035706
 11
287.914577241452
 21
-184.810572248506
  0
LINE
  5
271
100
AcDbEntity
  8
0
  6
CONTINUOUS
 62
           7
100
AcDbLine
 10
287.914577241452
 20
-184.810572248506
 11
287.914577241452
 21
-186.651783321506
  0
LINE
  5
270
100
AcDbEntity
  8
0
  6
CONTINUOUS
 62
           7
100
AcDbLine
 10
287.914577241452
 20
-141.753986225906
 11
287.914577241452
 21
-144.656530606906
  0
LINE
  5
26F
100
AcDbEntity
  8
0
  6
CONTINUOUS
 62
           7
100
AcDbLine
 10
287.914577241452
 20
-186.651783321506
 11
287.914577241452
 21
-195.617351143706
  0
LINE
  5
26E
100
AcDbEntity
  8
0
  6
CONTINUOUS
 62
           7
100
AcDbLine
 10
287.914577241452
 20
-140.392277917906
 11
287.914577241452
 21
-141.753986225906
  0
LINE
  5
26D
100
AcDbEntity
  8
0
  6
CONTINUOUS
 62
           7
100
AcDbLine
 10
227.458467140252
 20
-328.514097721506
 11
255.470316102652
 21
-321.008345413505
  0
LINE
  5
26C
100
AcDbEntity
  8
0
  6
CONTINUOUS
 62
           7
100
AcDbLine
 10
285.914577241452
 20
-139.170691557306
 11
287.414577241452
 21
-139.170691557306
  0
LINE
  5
26B
100
AcDbEntity
  8
0
  6
CONTINUOUS
 62
           7
100
AcDbLine
 10
285.914577241452
 20
-139.170691557306
 11
285.914577241452
 21
-139.153624072906
  0
LINE
  5
26A
100
AcDbEntity
  8
0
  6
CONTINUOUS
 62
           7
100
AcDbLine
 10
267.914577241452
 20
-138.919153860706
 11
267.914577241452
 21
-139.959017013506
  0
LINE
  5
269
100
AcDbEntity
  8
0
  6
CONTINUOUS
 62
           7
100
AcDbLine
 10
287.914577241452
 20
-139.671655318706
 11
287.914577241452
 21
-140.392277917906
  0
LINE
  5
268
100
AcDbEntity
  8
0
  6
CONTINUOUS
 62
           7
100
AcDbLine
 10
262.366836836618
 20
-291.850147057124
 11
262.850970178652
 21
-298.325168066906
  0
LINE
  5
267
100
AcDbEntity
  8
0
  6
CONTINUOUS
 62
           7
100
AcDbLine
 10
262.851141824252
 20
-298.328143432706
 11
262.850970942252
 21
-298.325181301306
  0
LINE
  5
266
100
AcDbEntity
  8
0
  6
CONTINUOUS
 62
           7
100
AcDbLine
 10
262.850970942252
 20
-298.325181301306
 11
268.027351844452
 21
-317.643697827106
  0
LINE
  5
265
100
AcDbEntity
  8
0
  6
CONTINUOUS
 62
           7
100
AcDbLine
 10
268.027351844452
 20
-317.643697827106
 11
255.470316102652
 21
-321.008345413505
  0
LINE
  5
264
100
AcDbEntity
  8
0
  6
CONTINUOUS
 62
           7
100
AcDbLine
 10
217.086051325096
 20
-314.780426828787
 11
223.58271911881
 21
-304.654505391424
  0
LINE
  5
263
100
AcDbEntity
  8
0
  6
CONTINUOUS
 62
           7
100
AcDbLine
 10
214.901431398452
 20
-331.878745307706
 11
214.60081678987
 21
-330.756836315355
  0
LINE
  5
262
100
AcDbEntity
  8
0
  6
CONTINUOUS
 62
           7
100
AcDbLine
 10
227.458467140252
 20
-328.514097721506
 11
214.901431398452
 21
-331.878745307706
  0
LINE
  5
261
100
AcDbEntity
  8
0
  6
CONTINUOUS
 62
           7
100
AcDbLine
 10
201.724261277742
 20
-236.46323216388
 11
201.568461201052
 21
-235.881778362106
  0
LINE
  5
260
100
AcDbEntity
  8
0
  6
CONTINUOUS
 62
           7
100
AcDbLine
 10
201.568461201052
 20
-235.881778362106
 11
199.557124328052
 21
-228.375366961106
  0
LINE
  5
25F
100
AcDbEntity
  8
0
  6
CONTINUOUS
 62
           7
100
AcDbLine
 10
199.348243085652
 20
-245.919153860706
 11
199.397614479252
 21
-245.850917081506
  0
LINE
  5
25E
100
AcDbEntity
  8
0
  6
CONTINUOUS
 62
           7
100
AcDbLine
 10
193.585398678252
 20
-206.088583427506
 11
199.557124328052
 21
-228.375366961106
  0
LINE
  5
25D
100
AcDbEntity
  8
0
  6
CONTINUOUS
 62
           7
100
AcDbLine
 10
197.067932550452
 20
-245.919153860706
 11
197.06514836976
 21
-245.91915386073
  0
LINE
  5
25C
100
AcDbEntity
  8
0
  6
CONTINUOUS
 62
           7
100
AcDbLine
 10
258.446735121252
 20
-332.116492415706
 11
271.003770863052
 21
-328.751844829505
  0
LINE
  5
25B
100
AcDbEntity
  8
0
  6
CONTINUOUS
 62
           7
100
AcDbLine
 10
255.470316102652
 20
-321.008345413505
 11
268.027351844452
 21
-317.643697827106
  0
LINE
  5
25A
100
AcDbEntity
  8
0
  6
CONTINUOUS
 62
           7
100
AcDbLine
 10
270.650217472452
 20
-329.364217265105
 11
258.576144643852
 21
-332.599455328906
  0
LINE
  5
259
100
AcDbEntity
  8
0
  6
CONTINUOUS
 62
           7
100
AcDbLine
 10
258.446735121252
 20
-332.116492415706
 11
230.434886158852
 21
-339.622244723706
  0
LINE
  5
258
100
AcDbEntity
  8
0
  6
CONTINUOUS
 62
           7
100
AcDbLine
 10
230.564295681452
 20
-340.105207636906
 11
258.576144643852
 21
-332.599455328906
  0
LINE
  5
257
100
AcDbEntity
  8
0
  6
CONTINUOUS
 62
           7
100
AcDbLine
 10
255.470316102652
 20
-321.008345413505
 11
227.458467140252
 21
-328.514097721506
  0
LINE
  5
256
100
AcDbEntity
  8
0
  6
CONTINUOUS
 62
           7
100
AcDbLine
 10
217.877850417052
 20
-342.986892310106
 11
230.434886158852
 21
-339.622244723706
  0
LINE
  5
255
100
AcDbEntity
  8
0
  6
CONTINUOUS
 62
           7
100
AcDbLine
 10
214.901431398452
 20
-331.878745307706
 11
227.458467140252
 21
-328.514097721506
  0
LINE
  5
254
100
AcDbEntity
  8
0
  6
CONTINUOUS
 62
           7
100
AcDbLine
 10
230.564295681452
 20
-340.105207636906
 11
218.490222852852
 21
-343.340445700706
  0
LINE
  5
253
100
AcDbEntity
  8
0
  6
CONTINUOUS
 62
           7
100
AcDbLine
 10
258.886976454452
 20
-336.657272917906
 11
257.196606258453
 21
-337.110206246906
  0
LINE
  5
252
100
AcDbEntity
  8
0
  6
CONTINUOUS
 62
           7
100
AcDbLine
 10
260.173025277252
 20
-348.218353249106
 11
257.196606258453
 21
-337.110206246906
  0
LINE
  5
251
100
AcDbEntity
  8
0
  6
CONTINUOUS
 62
           7
100
AcDbLine
 10
260.173025277252
 20
-348.218353249106
 11
257.829084748652
 21
-348.846410220906
  0
LINE
  5
250
100
AcDbEntity
  8
0
  6
CONTINUOUS
 62
           7
100
AcDbLine
 10
257.829084748652
 20
-348.846410220906
 11
254.852665729852
 21
-337.738263218506
  0
LINE
  5
24F
100
AcDbEntity
  8
0
  6
CONTINUOUS
 62
           7
100
AcDbLine
 10
254.852665729852
 20
-337.738263218506
 11
244.085733566452
 21
-340.623253996706
  0
LINE
  5
24E
100
AcDbEntity
  8
0
  6
CONTINUOUS
 62
           7
100
AcDbLine
 10
244.085733566452
 20
-340.623253996706
 11
247.062152585252
 21
-351.731400999106
  0
LINE
  5
24D
100
AcDbEntity
  8
0
  6
CONTINUOUS
 62
           7
100
AcDbLine
 10
247.062152585252
 20
-351.731400999106
 11
244.718212056652
 21
-352.359457970906
  0
LINE
  5
24C
100
AcDbEntity
  8
0
  6
CONTINUOUS
 62
           7
100
AcDbLine
 10
241.741793037852
 20
-341.251310968506
 11
244.718212056652
 21
-352.359457970906
  0
LINE
  5
24B
100
AcDbEntity
  8
0
  6
CONTINUOUS
 62
           7
100
AcDbLine
 10
241.741793037852
 20
-341.251310968506
 11
240.051422841852
 21
-341.704244297506
  0
LINE
  5
24A
100
AcDbEntity
  8
0
  6
CONTINUOUS
 62
           7
100
AcDbLine
 10
260.302434799852
 20
-348.701316162306
 11
260.173025277252
 21
-348.218353249106
  0
LINE
  5
249
100
AcDbEntity
  8
0
  6
CONTINUOUS
 62
           7
100
AcDbLine
 10
257.829084748652
 20
-348.846410220906
 11
257.060347173052
 21
-349.570030923706
  0
LINE
  5
248
100
AcDbEntity
  8
0
  6
CONTINUOUS
 62
           7
100
AcDbLine
 10
257.060347173052
 20
-349.570030923706
 11
260.302434799852
 21
-348.701316162306
  0
LINE
  5
247
100
AcDbEntity
  8
0
  6
CONTINUOUS
 62
           7
100
AcDbLine
 10
252.782083425452
 20
-351.544609184106
 11
259.785045666052
 21
-349.668171107106
  0
LINE
  5
246
100
AcDbEntity
  8
0
  6
CONTINUOUS
 62
           7
100
AcDbLine
 10
245.779121184852
 20
-353.421047261106
 11
252.782083425452
 21
-351.544609184106
  0
LINE
  5
245
100
AcDbEntity
  8
0
  6
CONTINUOUS
 62
           7
100
AcDbLine
 10
260.302434799852
 20
-348.701316162306
 11
260.302434799852
 21
-348.701316162306
  0
LINE
  5
244
100
AcDbEntity
  8
0
  6
CONTINUOUS
 62
           7
100
AcDbLine
 10
244.847621579052
 20
-352.842420883906
 11
244.847621579052
 21
-352.842420883906
  0
LINE
  5
243
100
AcDbEntity
  8
0
  6
CONTINUOUS
 62
           7
100
AcDbLine
 10
248.089709205852
 20
-351.973706122506
 11
247.062152585252
 21
-351.731400999106
  0
LINE
  5
242
100
AcDbEntity
  8
0
  6
CONTINUOUS
 62
           7
100
AcDbLine
 10
253.791729906586
 20
-350.445854280638
 11
248.089709205852
 21
-351.973706122506
  0
LINE
  5
241
100
AcDbEntity
  8
0
  6
CONTINUOUS
 62
           7
100
AcDbLine
 10
257.060347173052
 20
-349.570030923706
 11
253.440327382452
 21
-350.540012303106
  0
LINE
  5
240
100
AcDbEntity
  8
0
  6
CONTINUOUS
 62
           7
100
AcDbLine
 10
244.718212056652
 20
-352.359457970906
 11
244.847621579052
 21
-352.842420883906
  0
LINE
  5
23F
100
AcDbEntity
  8
0
  6
CONTINUOUS
 62
           7
100
AcDbLine
 10
244.847621579052
 20
-352.842420883906
 11
248.089709205852
 21
-351.973706122506
  0
LINE
  5
23E
100
AcDbEntity
  8
0
  6
CONTINUOUS
 62
           7
100
AcDbLine
 10
254.386761505252
 20
-357.533349307106
 11
260.906760832652
 21
-355.786320752706
  0
LINE
  5
23D
100
AcDbEntity
  8
0
  6
CONTINUOUS
 62
           7
100
AcDbLine
 10
247.866762177652
 20
-359.280377861505
 11
254.386761505252
 21
-357.533349307106
  0
LINE
  5
23C
100
AcDbEntity
  8
0
  6
CONTINUOUS
 62
           7
100
AcDbLine
 10
254.192647221252
 20
-356.808904937505
 11
246.948203524252
 21
-358.750047775706
  0
LINE
  5
23B
100
AcDbEntity
  8
0
  6
CONTINUOUS
 62
           7
100
AcDbLine
 10
261.437090918452
 20
-354.867762099106
 11
254.192647221252
 21
-356.808904937505
  0
LINE
  5
23A
100
AcDbEntity
  8
0
  6
CONTINUOUS
 62
           7
100
AcDbLine
 10
254.127942460052
 20
-356.567423480906
 11
261.372386157252
 21
-354.626280642506
  0
LINE
  5
239
100
AcDbEntity
  8
0
  6
CONTINUOUS
 62
           7
100
AcDbLine
 10
246.883498762852
 20
-358.508566319106
 11
254.127942460052
 21
-356.567423480906
  0
LINE
  5
238
100
AcDbEntity
  8
0
  6
CONTINUOUS
 62
           7
100
AcDbLine
 10
255.486742446852
 20
-361.638534068906
 11
248.725261662852
 21
-363.450267384506
  0
LINE
  5
237
100
AcDbEntity
  8
0
  6
CONTINUOUS
 62
           7
100
AcDbLine
 10
262.248223230852
 20
-359.826800753105
 11
255.486742446852
 21
-361.638534068906
  0
LINE
  5
236
100
AcDbEntity
  8
0
  6
CONTINUOUS
 62
           7
100
AcDbLine
 10
255.422037685652
 20
-361.397052612306
 11
262.183518469652
 21
-359.585319296506
  0
LINE
  5
235
100
AcDbEntity
  8
0
  6
CONTINUOUS
 62
           7
100
AcDbLine
 10
248.660556901452
 20
-363.208785928105
 11
255.422037685652
 21
-361.397052612306
  0
LINE
  5
234
100
AcDbEntity
  8
0
  6
CONTINUOUS
 62
           7
100
AcDbLine
 10
255.680856730652
 20
-362.362978438506
 11
261.717893145052
 21
-360.745359406706
  0
LINE
  5
233
100
AcDbEntity
  8
0
  6
CONTINUOUS
 62
           7
100
AcDbLine
 10
249.643820316452
 20
-363.980597470506
 11
255.680856730652
 21
-362.362978438506
  0
LINE
  5
232
100
AcDbEntity
  8
0
  6
CONTINUOUS
 62
           7
100
AcDbLine
 10
250.567024562852
 20
-368.391968450106
 11
263.124060304452
 21
-365.027320863706
  0
LINE
  5
231
100
AcDbEntity
  8
0
  6
CONTINUOUS
 62
           7
100
AcDbLine
 10
262.770506913852
 20
-365.639693299506
 11
251.179396998452
 21
-368.745521840706
  0
LINE
  5
230
100
AcDbEntity
  8
0
  6
CONTINUOUS
 62
           7
100
AcDbLine
 10
256.716132911052
 20
-366.226681743706
 11
262.994650782052
 21
-364.544357950506
  0
LINE
  5
22F
100
AcDbEntity
  8
0
  6
CONTINUOUS
 62
           7
100
AcDbLine
 10
250.437615040252
 20
-367.909005536906
 11
256.716132911052
 21
-366.226681743706
  0
LINE
  5
22E
100
AcDbEntity
  8
0
  6
CONTINUOUS
 62
           7
100
AcDbLine
 10
252.344082701452
 20
-373.092188058906
 11
263.935192616852
 21
-369.986359517706
  0
LINE
  5
22D
100
AcDbEntity
  8
0
  6
CONTINUOUS
 62
           7
100
AcDbLine
 10
258.269047181652
 20
-372.022236701506
 11
252.956455137052
 21
-373.445741449506
  0
LINE
  5
22C
100
AcDbEntity
  8
0
  6
CONTINUOUS
 62
           7
100
AcDbLine
 10
263.581639226252
 20
-370.598731953506
 11
258.269047181652
 21
-372.022236701506
  0
LINE
  5
22B
100
AcDbEntity
  8
0
  6
CONTINUOUS
 62
           7
100
AcDbLine
 10
269.689082267252
 20
-337.580327124506
 11
268.450464564452
 21
-338.235848723706
  0
LINE
  5
22A
100
AcDbEntity
  8
0
  6
CONTINUOUS
 62
           7
100
AcDbLine
 10
265.141294500652
 20
-331.163963712506
 11
267.130938115141
 21
-338.589414770156
  0
LINE
  5
229
100
AcDbEntity
  8
0
  6
CONTINUOUS
 62
           7
100
AcDbLine
 10
267.780347399252
 20
-330.456831619506
 11
269.689082267252
 21
-337.580327124506
  0
LINE
  5
228
100
AcDbEntity
  8
0
  6
CONTINUOUS
 62
           7
100
AcDbLine
 10
265.225587132852
 20
-339.099952027106
 11
268.450464564452
 21
-338.235848723706
  0
LINE
  5
227
100
AcDbEntity
  8
0
  6
CONTINUOUS
 62
           7
100
AcDbLine
 10
265.225587132852
 20
-339.099952027106
 11
262.734411617852
 21
-339.767460494706
  0
LINE
  5
226
100
AcDbEntity
  8
0
  6
CONTINUOUS
 62
           7
100
AcDbLine
 10
260.385995113652
 20
-332.280545132706
 11
260.158943470452
 21
-332.498980647506
  0
LINE
  5
225
100
AcDbEntity
  8
0
  6
CONTINUOUS
 62
           7
100
AcDbLine
 10
262.067678338452
 20
-339.622476152506
 11
262.734411617852
 21
-339.767460494706
  0
LINE
  5
224
100
AcDbEntity
  8
0
  6
CONTINUOUS
 62
           7
100
AcDbLine
 10
260.158943470452
 20
-332.498980647506
 11
262.067678338452
 21
-339.622476152506
  0
LINE
  5
223
100
AcDbEntity
  8
0
  6
CONTINUOUS
 62
           7
100
AcDbLine
 10
270.216080626052
 20
-346.303781814106
 11
270.267879280452
 21
-346.289902406505
  0
LINE
  5
222
100
AcDbEntity
  8
0
  6
CONTINUOUS
 62
           7
100
AcDbLine
 10
265.921213062252
 20
-347.454588109506
 11
270.216080626052
 21
-346.303781814106
  0
LINE
  5
221
100
AcDbEntity
  8
0
  6
CONTINUOUS
 62
           7
100
AcDbLine
 10
270.091102585252
 20
-346.596088624506
 11
266.227399280052
 21
-347.631364804906
  0
LINE
  5
220
100
AcDbEntity
  8
0
  6
CONTINUOUS
 62
           7
100
AcDbLine
 10
270.203174519253
 20
-346.048420950105
 11
265.856508300852
 21
-347.213106652905
  0
LINE
  5
21F
100
AcDbEntity
  8
0
  6
CONTINUOUS
 62
           7
100
AcDbLine
 10
271.109041177052
 20
-349.429161342106
 11
266.762374958852
 21
-350.593847044906
  0
LINE
  5
21E
100
AcDbEntity
  8
0
  6
CONTINUOUS
 62
           7
100
AcDbLine
 10
271.121947284052
 20
-349.684522206305
 11
271.173745938452
 21
-349.670642798506
  0
LINE
  5
21D
100
AcDbEntity
  8
0
  6
CONTINUOUS
 62
           7
100
AcDbLine
 10
266.827079720052
 20
-350.835328501506
 11
271.121947284052
 21
-349.684522206305
  0
LINE
  5
21C
100
AcDbEntity
  8
0
  6
CONTINUOUS
 62
           7
100
AcDbLine
 10
270.996969243052
 20
-349.976829016506
 11
267.133265937852
 21
-351.012105196906
  0
LINE
  5
21B
100
AcDbEntity
  8
0
  6
CONTINUOUS
 62
           7
100
AcDbLine
 10
269.310213968252
 20
-342.923041422105
 11
269.362012622652
 21
-342.909162014506
  0
LINE
  5
21A
100
AcDbEntity
  8
0
  6
CONTINUOUS
 62
           7
100
AcDbLine
 10
265.015346404252
 20
-344.073847717506
 11
269.310213968252
 21
-342.923041422105
  0
LINE
  5
219
100
AcDbEntity
  8
0
  6
CONTINUOUS
 62
           7
100
AcDbLine
 10
269.185235927252
 20
-343.215348232506
 11
265.321532622252
 21
-344.250624412906
  0
LINE
  5
218
100
AcDbEntity
  8
0
  6
CONTINUOUS
 62
           7
100
AcDbLine
 10
267.780347399252
 20
-330.456831619506
 11
267.477333552252
 21
-330.390939808505
  0
LINE
  5
217
100
AcDbEntity
  8
0
  6
CONTINUOUS
 62
           7
100
AcDbLine
 10
267.780313550652
 20
-353.426919762506
 11
271.644016855852
 21
-352.391643582106
  0
LINE
  5
216
100
AcDbEntity
  8
0
  6
CONTINUOUS
 62
           7
100
AcDbLine
 10
271.290463465252
 20
-353.004016017905
 11
268.392685986452
 21
-353.780473153106
  0
LINE
  5
215
100
AcDbEntity
  8
0
  6
CONTINUOUS
 62
           7
100
AcDbLine
 10
285.914577241452
 20
-136.419153860706
 11
283.483502754052
 21
-122.631845318506
  0
LINE
  5
214
100
AcDbEntity
  8
0
  6
CONTINUOUS
 62
           7
100
AcDbLine
 10
287.414577241452
 20
-136.287920865506
 11
284.960714383656
 21
-122.371373052138
  0
LINE
  5
213
100
AcDbEntity
  8
0
  6
CONTINUOUS
 62
           7
100
AcDbLine
 10
285.914577241452
 20
-139.153624072906
 11
285.914577241452
 21
-136.419153860706
  0
LINE
  5
212
100
AcDbEntity
  8
0
  6
CONTINUOUS
 62
           7
100
AcDbLine
 10
287.414577241452
 20
-139.170691557306
 11
287.414577241452
 21
-136.287920865506
  0
LINE
  5
211
100
AcDbEntity
  8
0
  6
CONTINUOUS
 62
           7
100
AcDbLine
 10
267.773570578252
 20
-127.091337541306
 11
269.267862625452
 21
-127.222071155306
  0
LINE
  5
210
100
AcDbEntity
  8
0
  6
CONTINUOUS
 62
           7
100
AcDbLine
 10
268.122193549272
 20
-123.10655874895
 11
267.773570578252
 21
-127.091337541306
  0
LINE
  5
20F
100
AcDbEntity
  8
0
  6
CONTINUOUS
 62
           7
100
AcDbLine
 10
269.267862625452
 20
-127.222071155306
 11
269.61648559641
 21
-123.237292363072
  0
LINE
  5
20E
100
AcDbEntity
  8
0
  6
CONTINUOUS
 62
           7
100
AcDbLine
 10
288.424577241452
 20
-158.419153860706
 11
288.424577241452
 21
-159.419153860706
  0
LINE
  5
20D
100
AcDbEntity
  8
0
  6
CONTINUOUS
 62
           7
100
AcDbLine
 10
288.424577241452
 20
-159.419153860706
 11
288.414577241452
 21
-159.419153860706
  0
LINE
  5
20C
100
AcDbEntity
  8
0
  6
CONTINUOUS
 62
           7
100
AcDbLine
 10
288.414577241452
 20
-179.419153860706
 11
288.414577241452
 21
-159.419153860706
  0
LINE
  5
20B
100
AcDbEntity
  8
0
  6
CONTINUOUS
 62
           7
100
AcDbLine
 10
288.424577241452
 20
-158.419153860706
 11
288.414577241452
 21
-158.419153860706
  0
LINE
  5
20A
100
AcDbEntity
  8
0
  6
CONTINUOUS
 62
           7
100
AcDbLine
 10
288.414577241452
 20
-158.419153860706
 11
288.414577241452
 21
-145.419153860706
  0
LINE
  5
209
100
AcDbEntity
  8
0
  6
CONTINUOUS
 62
           7
100
AcDbLine
 10
287.914577241452
 20
-183.419153860706
 11
288.414577241452
 21
-183.419153860706
  0
LINE
  5
208
100
AcDbEntity
  8
0
  6
CONTINUOUS
 62
           7
100
AcDbLine
 10
288.414577241452
 20
-183.419153860706
 11
288.414577241452
 21
-179.419153860706
  0
LINE
  5
207
100
AcDbEntity
  8
0
  6
CONTINUOUS
 62
           7
100
AcDbLine
 10
288.414577241452
 20
-141.419153860706
 11
288.414577241452
 21
-145.419153860706
  0
LINE
  5
206
100
AcDbEntity
  8
0
  6
CONTINUOUS
 62
           7
100
AcDbLine
 10
288.424577241452
 20
-163.319153860706
 11
288.414577241452
 21
-163.319153860706
  0
LINE
  5
205
100
AcDbEntity
  8
0
  6
CONTINUOUS
 62
           7
100
AcDbLine
 10
288.424577241452
 20
-163.319153860706
 11
288.424577241452
 21
-163.419153860706
  0
LINE
  5
204
100
AcDbEntity
  8
0
  6
CONTINUOUS
 62
           7
100
AcDbLine
 10
288.424577241452
 20
-163.419153860706
 11
288.414577241452
 21
-163.419153860706
  0
LINE
  5
203
100
AcDbEntity
  8
0
  6
CONTINUOUS
 62
           7
100
AcDbLine
 10
288.424577241452
 20
-161.991288603306
 11
288.414577241452
 21
-161.991288603306
  0
LINE
  5
202
100
AcDbEntity
  8
0
  6
CONTINUOUS
 62
           7
100
AcDbLine
 10
288.424577241452
 20
-162.915159601706
 11
288.424577241452
 21
-161.991288603306
  0
LINE
  5
201
100
AcDbEntity
  8
0
  6
CONTINUOUS
 62
           7
100
AcDbLine
 10
288.424577241452
 20
-162.915159601706
 11
288.414577241452
 21
-162.915159601706
  0
LINE
  5
200
100
AcDbEntity
  8
0
  6
CONTINUOUS
 62
           7
100
AcDbLine
 10
288.424577241452
 20
-161.599949143506
 11
288.414577241452
 21
-161.599949143506
  0
LINE
  5
1FF
100
AcDbEntity
  8
0
  6
CONTINUOUS
 62
           7
100
AcDbLine
 10
288.424577241452
 20
-161.970415396306
 11
288.424577241452
 21
-161.599949143506
  0
LINE
  5
1FE
100
AcDbEntity
  8
0
  6
CONTINUOUS
 62
           7
100
AcDbLine
 10
288.424577241452
 20
-169.319153860706
 11
288.414577241452
 21
-169.319153860706
  0
LINE
  5
1FD
100
AcDbEntity
  8
0
  6
CONTINUOUS
 62
           7
100
AcDbLine
 10
288.424577241452
 20
-169.419153860706
 11
288.414577241452
 21
-169.419153860706
  0
LINE
  5
1FC
100
AcDbEntity
  8
0
  6
CONTINUOUS
 62
           7
100
AcDbLine
 10
288.424577241452
 20
-169.319153860706
 11
288.424577241452
 21
-169.419153860706
  0
LINE
  5
1FB
100
AcDbEntity
  8
0
  6
CONTINUOUS
 62
           7
100
AcDbLine
 10
288.424577241452
 20
-166.319153860706
 11
288.414577241452
 21
-166.319153860706
  0
LINE
  5
1FA
100
AcDbEntity
  8
0
  6
CONTINUOUS
 62
           7
100
AcDbLine
 10
288.424577241452
 20
-166.419153860706
 11
288.414577241452
 21
-166.419153860706
  0
LINE
  5
1F9
100
AcDbEntity
  8
0
  6
CONTINUOUS
 62
           7
100
AcDbLine
 10
288.424577241452
 20
-166.319153860706
 11
288.424577241452
 21
-166.419153860706
  0
LINE
  5
1F8
100
AcDbEntity
  8
0
  6
CONTINUOUS
 62
           7
100
AcDbLine
 10
288.424577241452
 20
-165.011234031906
 11
288.414577241452
 21
-165.011234031906
  0
LINE
  5
1F7
100
AcDbEntity
  8
0
  6
CONTINUOUS
 62
           7
100
AcDbLine
 10
288.424577241452
 20
-165.915457215306
 11
288.424577241452
 21
-165.011234031906
  0
LINE
  5
1F6
100
AcDbEntity
  8
0
  6
CONTINUOUS
 62
           7
100
AcDbLine
 10
288.424577241452
 20
-165.915457215306
 11
288.414577241452
 21
-165.915457215306
  0
LINE
  5
1F5
100
AcDbEntity
  8
0
  6
CONTINUOUS
 62
           7
100
AcDbLine
 10
288.424577241452
 20
-167.983983691306
 11
288.414577241452
 21
-167.983983691306
  0
LINE
  5
1F4
100
AcDbEntity
  8
0
  6
CONTINUOUS
 62
           7
100
AcDbLine
 10
288.424577241452
 20
-168.915050602106
 11
288.424577241452
 21
-167.983983691306
  0
LINE
  5
1F3
100
AcDbEntity
  8
0
  6
CONTINUOUS
 62
           7
100
AcDbLine
 10
288.424577241452
 20
-168.915050602106
 11
288.414577241452
 21
-168.915050602106
  0
LINE
  5
1F2
100
AcDbEntity
  8
0
  6
CONTINUOUS
 62
           7
100
AcDbLine
 10
288.424577241452
 20
-160.387970315506
 11
288.414577241452
 21
-160.387970315506
  0
LINE
  5
1F1
100
AcDbEntity
  8
0
  6
CONTINUOUS
 62
           7
100
AcDbLine
 10
288.424577241452
 20
-161.599949143506
 11
288.424577241452
 21
-160.387970315506
  0
LINE
  5
1F0
100
AcDbEntity
  8
0
  6
CONTINUOUS
 62
           7
100
AcDbLine
 10
288.424577241452
 20
-162.922188965306
 11
288.414577241452
 21
-162.922188965306
  0
LINE
  5
1EF
100
AcDbEntity
  8
0
  6
CONTINUOUS
 62
           7
100
AcDbLine
 10
288.424577241452
 20
-167.589596138706
 11
288.414577241452
 21
-167.589596138706
  0
LINE
  5
1EE
100
AcDbEntity
  8
0
  6
CONTINUOUS
 62
           7
100
AcDbLine
 10
288.424577241452
 20
-167.966107457106
 11
288.424577241452
 21
-167.589596138706
  0
LINE
  5
1ED
100
AcDbEntity
  8
0
  6
CONTINUOUS
 62
           7
100
AcDbLine
 10
288.424577241452
 20
-168.926887265705
 11
288.414577241452
 21
-168.926887265705
  0
LINE
  5
1EC
100
AcDbEntity
  8
0
  6
CONTINUOUS
 62
           7
100
AcDbLine
 10
288.424577241452
 20
-165.915946381106
 11
288.414577241452
 21
-165.915946381106
  0
LINE
  5
1EB
100
AcDbEntity
  8
0
  6
CONTINUOUS
 62
           7
100
AcDbLine
 10
288.424577241452
 20
-164.720669481706
 11
288.414577241452
 21
-164.720669481706
  0
LINE
  5
1EA
100
AcDbEntity
  8
0
  6
CONTINUOUS
 62
           7
100
AcDbLine
 10
288.424577241452
 20
-165.011234031906
 11
288.424577241452
 21
-164.720669481706
  0
LINE
  5
1E9
100
AcDbEntity
  8
0
  6
CONTINUOUS
 62
           7
100
AcDbLine
 10
288.424577241452
 20
-166.146588107505
 11
288.424577241452
 21
-165.938968075106
  0
LINE
  5
1E8
100
AcDbEntity
  8
0
  6
CONTINUOUS
 62
           7
100
AcDbLine
 10
288.424577241452
 20
-166.146588107505
 11
288.414577241452
 21
-166.146588107505
  0
LINE
  5
1E7
100
AcDbEntity
  8
0
  6
CONTINUOUS
 62
           7
100
AcDbLine
 10
288.424577241452
 20
-164.720669481706
 11
288.424577241452
 21
-164.607181419506
  0
LINE
  5
1E6
100
AcDbEntity
  8
0
  6
CONTINUOUS
 62
           7
100
AcDbLine
 10
288.424577241452
 20
-164.607181419506
 11
288.414577241452
 21
-164.607181419506
  0
LINE
  5
1E5
100
AcDbEntity
  8
0
  6
CONTINUOUS
 62
           7
100
AcDbLine
 10
288.424577241452
 20
-150.089339953106
 11
288.424577241452
 21
-155.419153860706
  0
LINE
  5
1E4
100
AcDbEntity
  8
0
  6
CONTINUOUS
 62
           7
100
AcDbLine
 10
288.424577241452
 20
-155.419153860706
 11
288.414577241452
 21
-155.419153860706
  0
LINE
  5
1E3
100
AcDbEntity
  8
0
  6
CONTINUOUS
 62
           7
100
AcDbLine
 10
288.424577241452
 20
-149.119153860706
 11
288.414577241452
 21
-149.119153860706
  0
LINE
  5
1E2
100
AcDbEntity
  8
0
  6
CONTINUOUS
 62
           7
100
AcDbLine
 10
-21.501675744148
 20
-183.919153860706
 11
-21.501675744148
 21
-184.144153860706
  0
LINE
  5
1E1
100
AcDbEntity
  8
0
  6
CONTINUOUS
 62
           7
100
AcDbLine
 10
-21.501675744148
 20
-183.694153860706
 11
-21.501675744148
 21
-183.919153860706
  0
LINE
  5
1E0
100
AcDbEntity
  8
0
  6
CONTINUOUS
 62
           7
100
AcDbLine
 39
0.15
 10
-100.954964577551
 20
-342.781246325105
 11
-100.632917511351
 21
-342.481186628505
  0
LINE
  5
1DF
100
AcDbEntity
  8
0
  6
CONTINUOUS
 62
           7
100
AcDbLine
 39
0.15
 10
-100.632917511351
 20
-342.481186628505
 11
-100.433954315751
 21
-342.052320184306
  0
LINE
  5
1DE
100
AcDbEntity
  8
0
  6
CONTINUOUS
 62
           7
100
AcDbLine
 39
0.15
 10
-101.323682165151
 20
-342.957552786106
 11
-101.586116667151
 21
-343.142078714306
  0
LINE
  5
1DD
100
AcDbEntity
  8
0
  6
CONTINUOUS
 62
           7
100
AcDbLine
 39
0.15
 10
-101.586116667151
 20
-343.142078714306
 11
-102.464010909151
 21
-343.567169482506
  0
LINE
  5
1DC
100
AcDbEntity
  8
0
  6
CONTINUOUS
 62
           7
100
AcDbLine
 39
0.15
 10
-102.464010909151
 20
-343.567169482506
 11
-103.645457804751
 21
-343.939764657106
  0
LINE
  5
1DB
100
AcDbEntity
  8
0
  6
CONTINUOUS
 62
           7
100
AcDbLine
 39
0.15
 10
-103.645457804751
 20
-343.939764657106
 11
-105.085055012351
 21
-344.245545614506
  0
LINE
  5
1DA
100
AcDbEntity
  8
0
  6
CONTINUOUS
 62
           7
100
AcDbLine
 39
0.15
 10
-105.085055012351
 20
-344.245545614506
 11
-106.727479618551
 21
-344.472761363906
  0
LINE
  5
1D9
100
AcDbEntity
  8
0
  6
CONTINUOUS
 62
           7
100
AcDbLine
 39
0.15
 10
-106.727479618551
 20
-344.472761363906
 11
-108.509614166951
 21
-344.612680131506
  0
LINE
  5
1D8
100
AcDbEntity
  8
0
  6
CONTINUOUS
 62
           7
100
AcDbLine
 39
0.15
 10
-108.509614166951
 20
-344.612680131506
 11
-110.362972225951
 21
-344.659924917506
  0
LINE
  5
1D7
100
AcDbEntity
  8
0
  6
CONTINUOUS
 62
           7
100
AcDbLine
 39
0.15
 10
-110.362972225951
 20
-344.659924917506
 11
-112.216330285151
 21
-344.612680131506
  0
LINE
  5
1D6
100
AcDbEntity
  8
0
  6
CONTINUOUS
 62
           7
100
AcDbLine
 39
0.15
 10
-112.216330285151
 20
-344.612680131506
 11
-113.998464833551
 21
-344.472761363906
  0
LINE
  5
1D5
100
AcDbEntity
  8
0
  6
CONTINUOUS
 62
           7
100
AcDbLine
 39
0.15
 10
-113.998464833551
 20
-344.472761363906
 11
-115.640889439751
 21
-344.245545614506
  0
LINE
  5
1D4
100
AcDbEntity
  8
0
  6
CONTINUOUS
 62
           7
100
AcDbLine
 39
0.15
 10
-115.640889439751
 20
-344.245545614506
 11
-117.080486647351
 21
-343.939764657106
  0
LINE
  5
1D3
100
AcDbEntity
  8
0
  6
CONTINUOUS
 62
           7
100
AcDbLine
 39
0.15
 10
-117.080486647351
 20
-343.939764657106
 11
-118.261933542951
 21
-343.567169482506
  0
LINE
  5
1D2
100
AcDbEntity
  8
0
  6
CONTINUOUS
 62
           7
100
AcDbLine
 39
0.15
 10
-118.261933542951
 20
-343.567169482506
 11
-118.932725529151
 21
-343.262280873506
  0
LINE
  5
1D1
100
AcDbEntity
  8
0
  6
CONTINUOUS
 62
           7
100
AcDbLine
 39
0.15
 10
-118.112972225951
 20
-345.098921467906
 11
-117.931781532751
 21
-345.530119409506
  0
LINE
  5
1D0
100
AcDbEntity
  8
0
  6
CONTINUOUS
 62
           7
100
AcDbLine
 39
0.15
 10
-117.931781532751
 20
-345.530119409506
 11
-117.396681728552
 21
-345.941155014306
  0
LINE
  5
1CF
100
AcDbEntity
  8
0
  6
CONTINUOUS
 62
           7
100
AcDbLine
 39
0.15
 10
-117.396681728552
 20
-345.941155014306
 11
-116.532693485151
 21
-346.312808714905
  0
LINE
  5
1CE
100
AcDbEntity
  8
0
  6
CONTINUOUS
 62
           7
100
AcDbLine
 39
0.15
 10
-116.532693485151
 20
-346.312808714905
 11
-115.380215933151
 21
-346.627702396706
  0
LINE
  5
1CD
100
AcDbEntity
  8
0
  6
CONTINUOUS
 62
           7
100
AcDbLine
 39
0.15
 10
-115.380215933151
 20
-346.627702396706
 11
-113.993137641551
 21
-346.871111981505
  0
LINE
  5
1CC
100
AcDbEntity
  8
0
  6
CONTINUOUS
 62
           7
100
AcDbLine
 39
0.15
 10
-113.993137641551
 20
-346.871111981505
 11
-112.436316849552
 21
-347.031655907506
  0
LINE
  5
1CB
100
AcDbEntity
  8
0
  6
CONTINUOUS
 62
           7
100
AcDbLine
 39
0.15
 10
-112.436316849552
 20
-347.031655907506
 11
-110.782548767551
 21
-347.101827319106
  0
LINE
  5
1CA
100
AcDbEntity
  8
0
  6
CONTINUOUS
 62
           7
100
AcDbLine
 39
0.15
 10
-110.782548767551
 20
-347.101827319106
 11
-109.109161752751
 21
-347.078345079306
  0
LINE
  5
1C9
100
AcDbEntity
  8
0
  6
CONTINUOUS
 62
           7
100
AcDbLine
 39
0.15
 10
-109.109161752751
 20
-347.078345079306
 11
-107.494401522151
 21
-346.962307191506
  0
LINE
  5
1C8
100
AcDbEntity
  8
0
  6
CONTINUOUS
 62
           7
100
AcDbLine
 39
0.15
 10
-107.494401522151
 20
-346.962307191506
 11
-106.013772469551
 21
-346.759139458106
  0
LINE
  5
1C7
100
AcDbEntity
  8
0
  6
CONTINUOUS
 62
           7
100
AcDbLine
 39
0.15
 10
-106.013772469551
 20
-346.759139458106
 11
-104.736507163551
 21
-346.478341776706
  0
LINE
  5
1C6
100
AcDbEntity
  8
0
  6
CONTINUOUS
 62
           7
100
AcDbLine
 39
0.15
 10
-104.736507163551
 20
-346.478341776706
 11
-103.722329110751
 21
-346.133043934906
  0
LINE
  5
1C5
100
AcDbEntity
  8
0
  6
CONTINUOUS
 62
           7
100
AcDbLine
 39
0.15
 10
-103.722329110751
 20
-346.133043934906
 11
-103.018660149352
 21
-345.739391675706
  0
LINE
  5
1C4
100
AcDbEntity
  8
0
  6
CONTINUOUS
 62
           7
100
AcDbLine
 39
0.15
 10
-103.018660149352
 20
-345.739391675706
 11
-102.658403058151
 21
-345.315791741506
  0
LINE
  5
1C3
100
AcDbEntity
  8
0
  6
CONTINUOUS
 62
           7
100
AcDbLine
 39
0.15
 10
-102.658403058151
 20
-345.315791741506
 11
-102.612972225951
 21
-345.098921467906
  0
LINE
  5
1C2
100
AcDbEntity
  8
0
  6
CONTINUOUS
 62
           7
100
AcDbLine
 39
0.15
 10
-103.612972225951
 20
-349.928550599506
 11
-103.658613311351
 21
-350.131368235305
  0
LINE
  5
1C1
100
AcDbEntity
  8
0
  6
CONTINUOUS
 62
           7
100
AcDbLine
 39
0.15
 10
-103.658613311351
 20
-350.131368235305
 11
-104.020047035752
 21
-350.526069555906
  0
LINE
  5
1C0
100
AcDbEntity
  8
0
  6
CONTINUOUS
 62
           7
100
AcDbLine
 39
0.15
 10
-104.020047035752
 20
-350.526069555906
 11
-104.723429498951
 21
-350.888558475106
  0
LINE
  5
1BF
100
AcDbEntity
  8
0
  6
CONTINUOUS
 62
           7
100
AcDbLine
 39
0.15
 10
-104.723429498951
 20
-350.888558475106
 11
-105.730841170352
 21
-351.199293120906
  0
LINE
  5
1BE
100
AcDbEntity
  8
0
  6
CONTINUOUS
 62
           7
100
AcDbLine
 39
0.15
 10
-105.730841170352
 20
-351.199293120906
 11
-106.987972225951
 21
-351.441521708706
  0
LINE
  5
1BD
100
AcDbEntity
  8
0
  6
CONTINUOUS
 62
           7
100
AcDbLine
 39
0.15
 10
-106.987972225951
 20
-351.441521708706
 11
-108.427050405152
 21
-351.602185632306
  0
LINE
  5
1BC
100
AcDbEntity
  8
0
  6
CONTINUOUS
 62
           7
100
AcDbLine
 39
0.15
 10
-108.427050405152
 20
-351.602185632306
 11
-109.970494630951
 21
-351.672623458106
  0
LINE
  5
1BB
100
AcDbEntity
  8
0
  6
CONTINUOUS
 62
           7
100
AcDbLine
 39
0.15
 10
-109.970494630951
 20
-351.672623458106
 11
-111.535097425351
 21
-351.649037864506
  0
LINE
  5
1BA
100
AcDbEntity
  8
0
  6
CONTINUOUS
 62
           7
100
AcDbLine
 39
0.15
 10
-111.535097425351
 20
-351.649037864506
 11
-113.036510646751
 21
-351.532700357306
  0
LINE
  5
1B9
100
AcDbEntity
  8
0
  6
CONTINUOUS
 62
           7
100
AcDbLine
 39
0.15
 10
-113.036510646751
 20
-351.532700357306
 11
-114.393792719951
 21
-351.329882721305
  0
LINE
  5
1B8
100
AcDbEntity
  8
0
  6
CONTINUOUS
 62
           7
100
AcDbLine
 39
0.15
 10
-114.393792719951
 20
-351.329882721305
 11
-115.533772217151
 21
-351.051518907906
  0
LINE
  5
1B7
100
AcDbEntity
  8
0
  6
CONTINUOUS
 62
           7
100
AcDbLine
 39
0.15
 10
-115.533772217151
 20
-351.051518907906
 11
-116.394992548151
 21
-350.712615582506
  0
LINE
  5
1B6
100
AcDbEntity
  8
0
  6
CONTINUOUS
 62
           7
100
AcDbLine
 39
0.15
 10
-116.394992548151
 20
-350.712615582506
 11
-116.931025102351
 21
-350.331443110706
  0
LINE
  5
1B5
100
AcDbEntity
  8
0
  6
CONTINUOUS
 62
           7
100
AcDbLine
 39
0.15
 10
-116.931025102351
 20
-350.331443110706
 11
-117.112972225951
 21
-349.928550599506
  0
LINE
  5
1B4
100
AcDbEntity
  8
0
  6
CONTINUOUS
 62
           7
100
AcDbLine
 39
0.15
 10
-98.600005110551
 20
-200.516751506106
 11
-99.033165404551
 21
-201.342666646906
  0
LINE
  5
1B3
100
AcDbEntity
  8
0
  6
CONTINUOUS
 62
           7
100
AcDbLine
 39
0.15
 10
-99.033165404551
 20
-201.342666646906
 11
-99.362972225951
 21
-203.128526573105
  0
LINE
  5
1B2
100
AcDbEntity
  8
0
  6
CONTINUOUS
 62
           7
100
AcDbLine
 39
0.15
 10
-122.134411644951
 20
-200.500597200506
 11
-121.692779047551
 21
-201.342666646906
  0
LINE
  5
1B1
100
AcDbEntity
  8
0
  6
CONTINUOUS
 62
           7
100
AcDbLine
 39
0.15
 10
-121.692779047551
 20
-201.342666646906
 11
-121.362972225951
 21
-203.128526573105
  0
LINE
  5
1B0
100
AcDbEntity
  8
0
  6
CONTINUOUS
 62
           7
100
AcDbLine
 39
0.15
 10
-97.361514419319
 20
-327.42464909298
 11
-97.361856092551
 21
-327.560829922906
  0
LINE
  5
1AF
100
AcDbEntity
  8
0
  6
CONTINUOUS
 62
           7
100
AcDbLine
 39
0.15
 10
-97.361856092551
 20
-327.560829922906
 11
-97.362152209551
 21
-327.697010852106
  0
LINE
  5
1AE
100
AcDbEntity
  8
0
  6
CONTINUOUS
 62
           7
100
AcDbLine
 39
0.15
 10
-97.362152209551
 20
-327.697010852106
 11
-97.362402770151
 21
-327.833191866706
  0
LINE
  5
1AD
100
AcDbEntity
  8
0
  6
CONTINUOUS
 62
           7
100
AcDbLine
 39
0.15
 10
-97.362402770151
 20
-327.833191866706
 11
-97.362607774151
 21
-327.969372952306
  0
LINE
  5
1AC
100
AcDbEntity
  8
0
  6
CONTINUOUS
 62
           7
100
AcDbLine
 39
0.15
 10
-97.362607774151
 20
-327.969372952306
 11
-97.362767221951
 21
-328.105554094905
  0
LINE
  5
1AB
100
AcDbEntity
  8
0
  6
CONTINUOUS
 62
           7
100
AcDbLine
 39
0.15
 10
-97.362767221951
 20
-328.105554094905
 11
-97.362881113151
 21
-328.241735279906
  0
LINE
  5
1AA
100
AcDbEntity
  8
0
  6
CONTINUOUS
 62
           7
100
AcDbLine
 39
0.15
 10
-97.362881113151
 20
-328.241735279906
 11
-97.362949447751
 21
-328.377916493506
  0
LINE
  5
1A9
100
AcDbEntity
  8
0
  6
CONTINUOUS
 62
           7
100
AcDbLine
 39
0.15
 10
-97.362949447751
 20
-328.377916493506
 11
-97.362972225951
 21
-328.514097721506
  0
LINE
  5
1A8
100
AcDbEntity
  8
0
  6
CONTINUOUS
 62
           7
100
AcDbLine
 39
0.15
 10
-97.362972225951
 20
-328.514097721506
 11
-97.560471436951
 21
-329.098362643306
  0
LINE
  5
1A7
100
AcDbEntity
  8
0
  6
CONTINUOUS
 62
           7
100
AcDbLine
 39
0.15
 10
-97.560471436951
 20
-329.098362643306
 11
-98.146968155751
 21
-329.664874971106
  0
LINE
  5
1A6
100
AcDbEntity
  8
0
  6
CONTINUOUS
 62
           7
100
AcDbLine
 39
0.15
 10
-98.146968155751
 20
-329.664874971106
 11
-99.104641976751
 21
-330.196421514505
  0
LINE
  5
1A5
100
AcDbEntity
  8
0
  6
CONTINUOUS
 62
           7
100
AcDbLine
 39
0.15
 10
-99.104641976751
 20
-330.196421514505
 11
-100.404394465551
 21
-330.676851500906
  0
LINE
  5
1A4
100
AcDbEntity
  8
0
  6
CONTINUOUS
 62
           7
100
AcDbLine
 39
0.15
 10
-100.404394465551
 20
-330.676851500906
 11
-102.006733300151
 21
-331.091567307906
  0
LINE
  5
1A3
100
AcDbEntity
  8
0
  6
CONTINUOUS
 62
           7
100
AcDbLine
 39
0.15
 10
-102.006733300151
 20
-331.091567307906
 11
-103.862972225951
 21
-331.427968005906
  0
LINE
  5
1A2
100
AcDbEntity
  8
0
  6
CONTINUOUS
 62
           7
100
AcDbLine
 39
0.15
 10
-103.862972225951
 20
-331.427968005906
 11
-105.916710362752
 21
-331.675832229906
  0
LINE
  5
1A1
100
AcDbEntity
  8
0
  6
CONTINUOUS
 62
           7
100
AcDbLine
 39
0.15
 10
-105.916710362752
 20
-331.675832229906
 11
-108.105545916351
 21
-331.827628750706
  0
LINE
  5
1A0
100
AcDbEntity
  8
0
  6
CONTINUOUS
 62
           7
100
AcDbLine
 39
0.15
 10
-108.105545916351
 20
-331.827628750706
 11
-110.362972225951
 21
-331.878745307706
  0
LINE
  5
19F
100
AcDbEntity
  8
0
  6
CONTINUOUS
 62
           7
100
AcDbLine
 39
0.15
 10
-123.364430032784
 20
-327.424649092966
 11
-123.364088359551
 21
-327.560829922906
  0
LINE
  5
19E
100
AcDbEntity
  8
0
  6
CONTINUOUS
 62
           7
100
AcDbLine
 39
0.15
 10
-123.364088359551
 20
-327.560829922906
 11
-123.363792242551
 21
-327.697010852106
  0
LINE
  5
19D
100
AcDbEntity
  8
0
  6
CONTINUOUS
 62
           7
100
AcDbLine
 39
0.15
 10
-123.363792242551
 20
-327.697010852106
 11
-123.363541681951
 21
-327.833191866706
  0
LINE
  5
19C
100
AcDbEntity
  8
0
  6
CONTINUOUS
 62
           7
100
AcDbLine
 39
0.15
 10
-123.363541681951
 20
-327.833191866706
 11
-123.363336677951
 21
-327.969372952306
  0
LINE
  5
19B
100
AcDbEntity
  8
0
  6
CONTINUOUS
 62
           7
100
AcDbLine
 39
0.15
 10
-123.363336677951
 20
-327.969372952306
 11
-123.363177230151
 21
-328.105554094905
  0
LINE
  5
19A
100
AcDbEntity
  8
0
  6
CONTINUOUS
 62
           7
100
AcDbLine
 39
0.15
 10
-123.363177230151
 20
-328.105554094905
 11
-123.363063338951
 21
-328.241735279906
  0
LINE
  5
199
100
AcDbEntity
  8
0
  6
CONTINUOUS
 62
           7
100
AcDbLine
 39
0.15
 10
-123.363063338951
 20
-328.241735279906
 11
-123.362995004351
 21
-328.377916493506
  0
LINE
  5
198
100
AcDbEntity
  8
0
  6
CONTINUOUS
 62
           7
100
AcDbLine
 39
0.15
 10
-123.362995004351
 20
-328.377916493506
 11
-123.362972225951
 21
-328.514097721506
  0
LINE
  5
197
100
AcDbEntity
  8
0
  6
CONTINUOUS
 62
           7
100
AcDbLine
 39
0.15
 10
-123.362972225951
 20
-328.514097721506
 11
-123.165473015151
 21
-329.098362643306
  0
LINE
  5
196
100
AcDbEntity
  8
0
  6
CONTINUOUS
 62
           7
100
AcDbLine
 39
0.15
 10
-123.165473015151
 20
-329.098362643306
 11
-122.578976296151
 21
-329.664874971106
  0
LINE
  5
195
100
AcDbEntity
  8
0
  6
CONTINUOUS
 62
           7
100
AcDbLine
 39
0.15
 10
-122.578976296151
 20
-329.664874971106
 11
-121.621302475151
 21
-330.196421514505
  0
LINE
  5
194
100
AcDbEntity
  8
0
  6
CONTINUOUS
 62
           7
100
AcDbLine
 39
0.15
 10
-121.621302475151
 20
-330.196421514505
 11
-120.321549986551
 21
-330.676851500906
  0
LINE
  5
193
100
AcDbEntity
  8
0
  6
CONTINUOUS
 62
           7
100
AcDbLine
 39
0.15
 10
-120.321549986551
 20
-330.676851500906
 11
-118.719211151951
 21
-331.091567307906
  0
LINE
  5
192
100
AcDbEntity
  8
0
  6
CONTINUOUS
 62
           7
100
AcDbLine
 39
0.15
 10
-118.719211151951
 20
-331.091567307906
 11
-116.862972225951
 21
-331.427968005906
  0
LINE
  5
191
100
AcDbEntity
  8
0
  6
CONTINUOUS
 62
           7
100
AcDbLine
 39
0.15
 10
-116.862972225951
 20
-331.427968005906
 11
-114.809234089351
 21
-331.675832229906
  0
LINE
  5
190
100
AcDbEntity
  8
0
  6
CONTINUOUS
 62
           7
100
AcDbLine
 39
0.15
 10
-114.809234089351
 20
-331.675832229906
 11
-112.620398535752
 21
-331.827628750706
  0
LINE
  5
18F
100
AcDbEntity
  8
0
  6
CONTINUOUS
 62
           7
100
AcDbLine
 39
0.15
 10
-112.620398535752
 20
-331.827628750706
 11
-110.362972225951
 21
-331.878745307706
  0
LINE
  5
18E
100
AcDbEntity
  8
0
  6
CONTINUOUS
 62
           7
100
AcDbLine
 39
0.15
 10
-123.362972225951
 20
-328.514097721506
 11
-123.185669170352
 21
-329.067900512306
  0
LINE
  5
18D
100
AcDbEntity
  8
0
  6
CONTINUOUS
 62
           7
100
AcDbLine
 39
0.15
 10
-123.185669170352
 20
-329.067900512306
 11
-122.658596368151
 21
-329.606597006706
  0
LINE
  5
18C
100
AcDbEntity
  8
0
  6
CONTINUOUS
 62
           7
100
AcDbLine
 39
0.15
 10
-122.658596368151
 20
-329.606597006706
 11
-121.796130991752
 21
-330.115492968706
  0
LINE
  5
18B
100
AcDbEntity
  8
0
  6
CONTINUOUS
 62
           7
100
AcDbLine
 39
0.15
 10
-121.796130991752
 20
-330.115492968706
 11
-120.621798848151
 21
-330.580707042706
  0
LINE
  5
18A
100
AcDbEntity
  8
0
  6
CONTINUOUS
 62
           7
100
AcDbLine
 39
0.15
 10
-120.621798848151
 20
-330.580707042706
 11
-119.167632657151
 21
-330.989549401706
  0
LINE
  5
189
100
AcDbEntity
  8
0
  6
CONTINUOUS
 62
           7
100
AcDbLine
 39
0.15
 10
-119.167632657151
 20
-330.989549401706
 11
-117.473298281551
 21
-331.330867891906
  0
LINE
  5
188
100
AcDbEntity
  8
0
  6
CONTINUOUS
 62
           7
100
AcDbLine
 39
0.15
 10
-117.473298281551
 20
-331.330867891906
 11
-115.585012746551
 21
-331.595352234506
  0
LINE
  5
187
100
AcDbEntity
  8
0
  6
CONTINUOUS
 62
           7
100
AcDbLine
 39
0.15
 10
-115.585012746551
 20
-331.595352234506
 11
-113.554283558951
 21
-331.775787986506
  0
LINE
  5
186
100
AcDbEntity
  8
0
  6
CONTINUOUS
 62
           7
100
AcDbLine
 39
0.15
 10
-113.554283558951
 20
-331.775787986506
 11
-111.436503717151
 21
-331.867253330506
  0
LINE
  5
185
100
AcDbEntity
  8
0
  6
CONTINUOUS
 62
           7
100
AcDbLine
 39
0.15
 10
-111.436503717151
 20
-331.867253330506
 11
-109.289440734951
 21
-331.867253330506
  0
LINE
  5
184
100
AcDbEntity
  8
0
  6
CONTINUOUS
 62
           7
100
AcDbLine
 39
0.15
 10
-109.289440734951
 20
-331.867253330506
 11
-107.171660893152
 21
-331.775787986506
  0
LINE
  5
183
100
AcDbEntity
  8
0
  6
CONTINUOUS
 62
           7
100
AcDbLine
 39
0.15
 10
-107.171660893152
 20
-331.775787986506
 11
-105.140931705551
 21
-331.595352234506
  0
LINE
  5
182
100
AcDbEntity
  8
0
  6
CONTINUOUS
 62
           7
100
AcDbLine
 39
0.15
 10
-105.140931705551
 20
-331.595352234506
 11
-103.252646170351
 21
-331.330867891906
  0
LINE
  5
181
100
AcDbEntity
  8
0
  6
CONTINUOUS
 62
           7
100
AcDbLine
 39
0.15
 10
-103.252646170351
 20
-331.330867891906
 11
-101.558311794951
 21
-330.989549401706
  0
LINE
  5
180
100
AcDbEntity
  8
0
  6
CONTINUOUS
 62
           7
100
AcDbLine
 39
0.15
 10
-101.558311794951
 20
-330.989549401706
 11
-100.104145603951
 21
-330.580707042706
  0
LINE
  5
17F
100
AcDbEntity
  8
0
  6
CONTINUOUS
 62
           7
100
AcDbLine
 39
0.15
 10
-100.104145603951
 20
-330.580707042706
 11
-98.929813460351
 21
-330.115492968706
  0
LINE
  5
17E
100
AcDbEntity
  8
0
  6
CONTINUOUS
 62
           7
100
AcDbLine
 39
0.15
 10
-98.929813460351
 20
-330.115492968706
 11
-98.067348083951
 21
-329.606597006706
  0
LINE
  5
17D
100
AcDbEntity
  8
0
  6
CONTINUOUS
 62
           7
100
AcDbLine
 39
0.15
 10
-98.067348083951
 20
-329.606597006706
 11
-97.540275281751
 21
-329.067900512306
  0
LINE
  5
17C
100
AcDbEntity
  8
0
  6
CONTINUOUS
 62
           7
100
AcDbLine
 39
0.15
 10
-97.540275281751
 20
-329.067900512306
 11
-97.362972225951
 21
-328.514097721506
  0
LINE
  5
17B
100
AcDbEntity
  8
0
  6
CONTINUOUS
 62
           7
100
AcDbLine
 39
0.15
 10
-123.362972225951
 20
-339.622244723706
 11
-123.185669170352
 21
-340.176047514706
  0
LINE
  5
17A
100
AcDbEntity
  8
0
  6
CONTINUOUS
 62
           7
100
AcDbLine
 39
0.15
 10
-123.185669170352
 20
-340.176047514706
 11
-122.658596368151
 21
-340.714744009106
  0
LINE
  5
179
100
AcDbEntity
  8
0
  6
CONTINUOUS
 62
           7
100
AcDbLine
 39
0.15
 10
-122.658596368151
 20
-340.714744009106
 11
-121.796130991752
 21
-341.223639970906
  0
LINE
  5
178
100
AcDbEntity
  8
0
  6
CONTINUOUS
 62
           7
100
AcDbLine
 39
0.15
 10
-121.796130991752
 20
-341.223639970906
 11
-120.621798848151
 21
-341.688854044906
  0
LINE
  5
177
100
AcDbEntity
  8
0
  6
CONTINUOUS
 62
           7
100
AcDbLine
 39
0.15
 10
-120.621798848151
 20
-341.688854044906
 11
-119.167632657151
 21
-342.097696404106
  0
LINE
  5
176
100
AcDbEntity
  8
0
  6
CONTINUOUS
 62
           7
100
AcDbLine
 39
0.15
 10
-119.167632657151
 20
-342.097696404106
 11
-117.473298281551
 21
-342.439014894106
  0
LINE
  5
175
100
AcDbEntity
  8
0
  6
CONTINUOUS
 62
           7
100
AcDbLine
 39
0.15
 10
-117.473298281551
 20
-342.439014894106
 11
-115.585012746551
 21
-342.703499236905
  0
LINE
  5
174
100
AcDbEntity
  8
0
  6
CONTINUOUS
 62
           7
100
AcDbLine
 39
0.15
 10
-115.585012746551
 20
-342.703499236905
 11
-113.554283558951
 21
-342.883934988706
  0
LINE
  5
173
100
AcDbEntity
  8
0
  6
CONTINUOUS
 62
           7
100
AcDbLine
 39
0.15
 10
-113.554283558951
 20
-342.883934988706
 11
-111.436503717151
 21
-342.975400332706
  0
LINE
  5
172
100
AcDbEntity
  8
0
  6
CONTINUOUS
 62
           7
100
AcDbLine
 39
0.15
 10
-111.436503717151
 20
-342.975400332706
 11
-109.289440734951
 21
-342.975400332706
  0
LINE
  5
171
100
AcDbEntity
  8
0
  6
CONTINUOUS
 62
           7
100
AcDbLine
 39
0.15
 10
-109.289440734951
 20
-342.975400332706
 11
-107.171660893152
 21
-342.883934988706
  0
LINE
  5
170
100
AcDbEntity
  8
0
  6
CONTINUOUS
 62
           7
100
AcDbLine
 39
0.15
 10
-107.171660893152
 20
-342.883934988706
 11
-105.140931705551
 21
-342.703499236905
  0
LINE
  5
16F
100
AcDbEntity
  8
0
  6
CONTINUOUS
 62
           7
100
AcDbLine
 39
0.15
 10
-105.140931705551
 20
-342.703499236905
 11
-103.252646170351
 21
-342.439014894106
  0
LINE
  5
16E
100
AcDbEntity
  8
0
  6
CONTINUOUS
 62
           7
100
AcDbLine
 39
0.15
 10
-103.252646170351
 20
-342.439014894106
 11
-101.558311794951
 21
-342.097696404106
  0
LINE
  5
16D
100
AcDbEntity
  8
0
  6
CONTINUOUS
 62
           7
100
AcDbLine
 39
0.15
 10
-101.558311794951
 20
-342.097696404106
 11
-100.104145603951
 21
-341.688854044906
  0
LINE
  5
16C
100
AcDbEntity
  8
0
  6
CONTINUOUS
 62
           7
100
AcDbLine
 39
0.15
 10
-100.104145603951
 20
-341.688854044906
 11
-98.929813460351
 21
-341.223639970906
  0
LINE
  5
16B
100
AcDbEntity
  8
0
  6
CONTINUOUS
 62
           7
100
AcDbLine
 39
0.15
 10
-98.929813460351
 20
-341.223639970906
 11
-98.067348083951
 21
-340.714744009106
  0
LINE
  5
16A
100
AcDbEntity
  8
0
  6
CONTINUOUS
 62
           7
100
AcDbLine
 39
0.15
 10
-98.067348083951
 20
-340.714744009106
 11
-97.540275281751
 21
-340.176047514706
  0
LINE
  5
169
100
AcDbEntity
  8
0
  6
CONTINUOUS
 62
           7
100
AcDbLine
 39
0.15
 10
-97.540275281751
 20
-340.176047514706
 11
-97.362972225951
 21
-339.622244723706
  0
LINE
  5
168
100
AcDbEntity
  8
0
  6
CONTINUOUS
 62
           7
100
AcDbLine
 39
0.15
 10
-98.320059175951
 20
-340.972087063506
 11
-98.616814466151
 21
-341.211724223106
  0
LINE
  5
167
100
AcDbEntity
  8
0
  6
CONTINUOUS
 62
           7
100
AcDbLine
 39
0.15
 10
-98.616814466151
 20
-341.211724223106
 11
-99.537654678751
 21
-341.722826668706
  0
LINE
  5
166
100
AcDbEntity
  8
0
  6
CONTINUOUS
 62
           7
100
AcDbLine
 39
0.15
 10
-99.537654678751
 20
-341.722826668706
 11
-100.787416686952
 21
-342.184778578706
  0
LINE
  5
165
100
AcDbEntity
  8
0
  6
CONTINUOUS
 62
           7
100
AcDbLine
 39
0.15
 10
-100.787416686952
 20
-342.184778578706
 11
-102.328127104951
 21
-342.583543777906
  0
LINE
  5
164
100
AcDbEntity
  8
0
  6
CONTINUOUS
 62
           7
100
AcDbLine
 39
0.15
 10
-102.328127104951
 20
-342.583543777906
 11
-104.112972225951
 21
-342.907005987506
  0
LINE
  5
163
100
AcDbEntity
  8
0
  6
CONTINUOUS
 62
           7
100
AcDbLine
 39
0.15
 10
-104.112972225951
 20
-342.907005987506
 11
-106.087720434551
 21
-343.145336971906
  0
LINE
  5
162
100
AcDbEntity
  8
0
  6
CONTINUOUS
 62
           7
100
AcDbLine
 39
0.15
 10
-106.087720434551
 20
-343.145336971906
 11
-108.192370005151
 21
-343.291295164905
  0
LINE
  5
161
100
AcDbEntity
  8
0
  6
CONTINUOUS
 62
           7
100
AcDbLine
 39
0.15
 10
-108.192370005151
 20
-343.291295164905
 11
-110.362972225951
 21
-343.340445700706
  0
LINE
  5
160
100
AcDbEntity
  8
0
  6
CONTINUOUS
 62
           7
100
AcDbLine
 39
0.15
 10
-110.362972225951
 20
-343.340445700706
 11
-112.533574446951
 21
-343.291295164905
  0
LINE
  5
15F
100
AcDbEntity
  8
0
  6
CONTINUOUS
 62
           7
100
AcDbLine
 39
0.15
 10
-112.533574446951
 20
-343.291295164905
 11
-114.638224017551
 21
-343.145336971906
  0
LINE
  5
15E
100
AcDbEntity
  8
0
  6
CONTINUOUS
 62
           7
100
AcDbLine
 39
0.15
 10
-114.638224017551
 20
-343.145336971906
 11
-116.612972225951
 21
-342.907005987506
  0
LINE
  5
15D
100
AcDbEntity
  8
0
  6
CONTINUOUS
 62
           7
100
AcDbLine
 39
0.15
 10
-116.612972225951
 20
-342.907005987506
 11
-118.397817347151
 21
-342.583543777906
  0
LINE
  5
15C
100
AcDbEntity
  8
0
  6
CONTINUOUS
 62
           7
100
AcDbLine
 39
0.15
 10
-118.397817347151
 20
-342.583543777906
 11
-119.938527764951
 21
-342.184778578706
  0
LINE
  5
15B
100
AcDbEntity
  8
0
  6
CONTINUOUS
 62
           7
100
AcDbLine
 39
0.15
 10
-119.938527764951
 20
-342.184778578706
 11
-121.188289773351
 21
-341.722826668706
  0
LINE
  5
15A
100
AcDbEntity
  8
0
  6
CONTINUOUS
 62
           7
100
AcDbLine
 39
0.15
 10
-121.188289773351
 20
-341.722826668706
 11
-122.109129985951
 21
-341.211724223106
  0
LINE
  5
159
100
AcDbEntity
  8
0
  6
CONTINUOUS
 62
           7
100
AcDbLine
 39
0.15
 10
-122.109129985951
 20
-341.211724223106
 11
-122.405885276151
 21
-340.972087063506
  0
LINE
  5
158
100
AcDbEntity
  8
0
  6
CONTINUOUS
 62
           7
100
AcDbLine
 39
0.15
 10
-102.362972225951
 20
-351.731400999106
 11
-102.617210405951
 21
-351.821535619506
  0
LINE
  5
157
100
AcDbEntity
  8
0
  6
CONTINUOUS
 62
           7
100
AcDbLine
 39
0.15
 10
-102.617210405951
 20
-351.821535619506
 11
-102.886597279551
 21
-351.908672814506
  0
LINE
  5
156
100
AcDbEntity
  8
0
  6
CONTINUOUS
 62
           7
100
AcDbLine
 39
0.15
 10
-102.886597279551
 20
-351.908672814506
 11
-103.170605996551
 21
-351.992642166506
  0
LINE
  5
155
100
AcDbEntity
  8
0
  6
CONTINUOUS
 62
           7
100
AcDbLine
 39
0.15
 10
-103.170605996551
 20
-351.992642166506
 11
-103.468681109552
 21
-352.073279453506
  0
LINE
  5
154
100
AcDbEntity
  8
0
  6
CONTINUOUS
 62
           7
100
AcDbLine
 39
0.15
 10
-103.468681109552
 20
-352.073279453506
 11
-103.780239661151
 21
-352.150426969506
  0
LINE
  5
153
100
AcDbEntity
  8
0
  6
CONTINUOUS
 62
           7
100
AcDbLine
 39
0.15
 10
-103.780239661151
 20
-352.150426969506
 11
-104.104672324351
 21
-352.223933834506
  0
LINE
  5
152
100
AcDbEntity
  8
0
  6
CONTINUOUS
 62
           7
100
AcDbLine
 39
0.15
 10
-104.104672324351
 20
-352.223933834506
 11
-104.441344592951
 21
-352.293656287906
  0
LINE
  5
151
100
AcDbEntity
  8
0
  6
CONTINUOUS
 62
           7
100
AcDbLine
 39
0.15
 10
-104.441344592951
 20
-352.293656287906
 11
-104.789598023551
 21
-352.359457970906
  0
LINE
  5
150
100
AcDbEntity
  8
0
  6
CONTINUOUS
 62
           7
100
AcDbLine
 39
0.15
 10
-118.362972225951
 20
-351.731400999106
 11
-118.108734046151
 21
-351.821535619506
  0
LINE
  5
14F
100
AcDbEntity
  8
0
  6
CONTINUOUS
 62
           7
100
AcDbLine
 39
0.15
 10
-118.108734046151
 20
-351.821535619506
 11
-117.839347172551
 21
-351.908672814506
  0
LINE
  5
14E
100
AcDbEntity
  8
0
  6
CONTINUOUS
 62
           7
100
AcDbLine
 39
0.15
 10
-117.839347172551
 20
-351.908672814506
 11
-117.555338455551
 21
-351.992642166506
  0
LINE
  5
14D
100
AcDbEntity
  8
0
  6
CONTINUOUS
 62
           7
100
AcDbLine
 39
0.15
 10
-117.555338455551
 20
-351.992642166506
 11
-117.257263342552
 21
-352.073279453506
  0
LINE
  5
14C
100
AcDbEntity
  8
0
  6
CONTINUOUS
 62
           7
100
AcDbLine
 39
0.15
 10
-117.257263342552
 20
-352.073279453506
 11
-116.945704790952
 21
-352.150426969506
  0
LINE
  5
14B
100
AcDbEntity
  8
0
  6
CONTINUOUS
 62
           7
100
AcDbLine
 39
0.15
 10
-116.945704790952
 20
-352.150426969506
 11
-116.621272127751
 21
-352.223933834506
  0
LINE
  5
14A
100
AcDbEntity
  8
0
  6
CONTINUOUS
 62
           7
100
AcDbLine
 39
0.15
 10
-116.621272127751
 20
-352.223933834506
 11
-116.284599859151
 21
-352.293656287906
  0
LINE
  5
149
100
AcDbEntity
  8
0
  6
CONTINUOUS
 62
           7
100
AcDbLine
 39
0.15
 10
-116.284599859151
 20
-352.293656287906
 11
-115.936346428351
 21
-352.359457970906
  0
LINE
  5
148
100
AcDbEntity
  8
0
  6
CONTINUOUS
 62
           7
100
AcDbLine
 39
0.15
 10
-115.006516131351
 20
-352.842420883906
 11
-115.515351046751
 21
-352.760156326306
  0
LINE
  5
147
100
AcDbEntity
  8
0
  6
CONTINUOUS
 62
           7
100
AcDbLine
 39
0.15
 10
-115.515351046751
 20
-352.760156326306
 11
-116.002511258351
 21
-352.669527564506
  0
LINE
  5
146
100
AcDbEntity
  8
0
  6
CONTINUOUS
 62
           7
100
AcDbLine
 39
0.15
 10
-116.002511258351
 20
-352.669527564506
 11
-116.465947411551
 21
-352.570915849706
  0
LINE
  5
145
100
AcDbEntity
  8
0
  6
CONTINUOUS
 62
           7
100
AcDbLine
 39
0.15
 10
-116.465947411551
 20
-352.570915849706
 11
-116.903709951951
 21
-352.464736015706
  0
LINE
  5
144
100
AcDbEntity
  8
0
  6
CONTINUOUS
 62
           7
100
AcDbLine
 39
0.15
 10
-116.903709951951
 20
-352.464736015706
 11
-117.313957327751
 21
-352.351434732906
  0
LINE
  5
143
100
AcDbEntity
  8
0
  6
CONTINUOUS
 62
           7
100
AcDbLine
 39
0.15
 10
-117.313957327751
 20
-352.351434732906
 11
-117.694963735951
 21
-352.231488630306
  0
LINE
  5
142
100
AcDbEntity
  8
0
  6
CONTINUOUS
 62
           7
100
AcDbLine
 39
0.15
 10
-117.694963735951
 20
-352.231488630306
 11
-118.045126382751
 21
-352.105402289506
  0
LINE
  5
141
100
AcDbEntity
  8
0
  6
CONTINUOUS
 62
           7
100
AcDbLine
 39
0.15
 10
-118.045126382751
 20
-352.105402289506
 11
-118.362972225951
 21
-351.973706122506
  0
LINE
  5
140
100
AcDbEntity
  8
0
  6
CONTINUOUS
 62
           7
100
AcDbLine
 39
0.15
 10
-105.719428320751
 20
-352.842420883906
 11
-105.210593405351
 21
-352.760156326306
  0
LINE
  5
13F
100
AcDbEntity
  8
0
  6
CONTINUOUS
 62
           7
100
AcDbLine
 39
0.15
 10
-105.210593405351
 20
-352.760156326306
 11
-104.723433193551
 21
-352.669527564506
  0
LINE
  5
13E
100
AcDbEntity
  8
0
  6
CONTINUOUS
 62
           7
100
AcDbLine
 39
0.15
 10
-104.723433193551
 20
-352.669527564506
 11
-104.259997040551
 21
-352.570915849706
  0
LINE
  5
13D
100
AcDbEntity
  8
0
  6
CONTINUOUS
 62
           7
100
AcDbLine
 39
0.15
 10
-104.259997040551
 20
-352.570915849706
 11
-103.822234500151
 21
-352.464736015706
  0
LINE
  5
13C
100
AcDbEntity
  8
0
  6
CONTINUOUS
 62
           7
100
AcDbLine
 39
0.15
 10
-103.822234500151
 20
-352.464736015706
 11
-103.411987124352
 21
-352.351434732906
  0
LINE
  5
13B
100
AcDbEntity
  8
0
  6
CONTINUOUS
 62
           7
100
AcDbLine
 39
0.15
 10
-103.411987124352
 20
-352.351434732906
 11
-103.030980716151
 21
-352.231488630306
  0
LINE
  5
13A
100
AcDbEntity
  8
0
  6
CONTINUOUS
 62
           7
100
AcDbLine
 39
0.15
 10
-103.030980716151
 20
-352.231488630306
 11
-102.680818069151
 21
-352.105402289506
  0
LINE
  5
139
100
AcDbEntity
  8
0
  6
CONTINUOUS
 62
           7
100
AcDbLine
 39
0.15
 10
-102.680818069151
 20
-352.105402289506
 11
-102.362972225951
 21
-351.973706122506
  0
LINE
  5
138
100
AcDbEntity
  8
0
  6
CONTINUOUS
 62
           7
100
AcDbLine
 39
0.15
 10
-116.387282538151
 20
-352.588589907306
 11
-116.031250473951
 21
-352.714549188905
  0
LINE
  5
137
100
AcDbEntity
  8
0
  6
CONTINUOUS
 62
           7
100
AcDbLine
 39
0.15
 10
-116.031250473951
 20
-352.714549188905
 11
-114.883273289551
 21
-353.011667547706
  0
LINE
  5
136
100
AcDbEntity
  8
0
  6
CONTINUOUS
 62
           7
100
AcDbLine
 39
0.15
 10
-114.883273289551
 20
-353.011667547706
 11
-113.508629334551
 21
-353.235221474106
  0
LINE
  5
135
100
AcDbEntity
  8
0
  6
CONTINUOUS
 62
           7
100
AcDbLine
 39
0.15
 10
-113.508629334551
 20
-353.235221474106
 11
-111.976248997151
 21
-353.374001040906
  0
LINE
  5
134
100
AcDbEntity
  8
0
  6
CONTINUOUS
 62
           7
100
AcDbLine
 39
0.15
 10
-111.976248997151
 20
-353.374001040906
 11
-110.362972225951
 21
-353.421047261106
  0
LINE
  5
133
100
AcDbEntity
  8
0
  6
CONTINUOUS
 62
           7
100
AcDbLine
 39
0.15
 10
-110.362972225951
 20
-353.421047261106
 11
-108.749695454751
 21
-353.374001040906
  0
LINE
  5
132
100
AcDbEntity
  8
0
  6
CONTINUOUS
 62
           7
100
AcDbLine
 39
0.15
 10
-108.749695454751
 20
-353.374001040906
 11
-107.217315117351
 21
-353.235221474106
  0
LINE
  5
131
100
AcDbEntity
  8
0
  6
CONTINUOUS
 62
           7
100
AcDbLine
 39
0.15
 10
-107.217315117351
 20
-353.235221474106
 11
-105.842671162551
 21
-353.011667547706
  0
LINE
  5
130
100
AcDbEntity
  8
0
  6
CONTINUOUS
 62
           7
100
AcDbLine
 39
0.15
 10
-105.842671162551
 20
-353.011667547706
 11
-104.694693978151
 21
-352.714549188905
  0
LINE
  5
12F
100
AcDbEntity
  8
0
  6
CONTINUOUS
 62
           7
100
AcDbLine
 39
0.15
 10
-104.694693978151
 20
-352.714549188905
 11
-104.338661913951
 21
-352.588589907306
  0
LINE
  5
12E
100
AcDbEntity
  8
0
  6
CONTINUOUS
 62
           7
100
AcDbLine
 39
0.15
 10
-117.612972225951
 20
-356.567423480906
 11
-117.431199589351
 21
-356.984970234306
  0
LINE
  5
12D
100
AcDbEntity
  8
0
  6
CONTINUOUS
 62
           7
100
AcDbLine
 39
0.15
 10
-117.431199589351
 20
-356.984970234306
 11
-116.894996518351
 21
-357.381579449906
  0
LINE
  5
12C
100
AcDbEntity
  8
0
  6
CONTINUOUS
 62
           7
100
AcDbLine
 39
0.15
 10
-116.894996518351
 20
-357.381579449906
 11
-116.031250473951
 21
-357.737363485706
  0
LINE
  5
12B
100
AcDbEntity
  8
0
  6
CONTINUOUS
 62
           7
100
AcDbLine
 39
0.15
 10
-116.031250473951
 20
-357.737363485706
 11
-114.883273289551
 21
-358.034481844306
  0
LINE
  5
12A
100
AcDbEntity
  8
0
  6
CONTINUOUS
 62
           7
100
AcDbLine
 39
0.15
 10
-114.883273289551
 20
-358.034481844306
 11
-113.508629334551
 21
-358.258035770706
  0
LINE
  5
129
100
AcDbEntity
  8
0
  6
CONTINUOUS
 62
           7
100
AcDbLine
 39
0.15
 10
-113.508629334551
 20
-358.258035770706
 11
-111.976248997151
 21
-358.396815337706
  0
LINE
  5
128
100
AcDbEntity
  8
0
  6
CONTINUOUS
 62
           7
100
AcDbLine
 39
0.15
 10
-111.976248997151
 20
-358.396815337706
 11
-110.362972225951
 21
-358.443861557906
  0
LINE
  5
127
100
AcDbEntity
  8
0
  6
CONTINUOUS
 62
           7
100
AcDbLine
 39
0.15
 10
-110.362972225951
 20
-358.443861557906
 11
-108.749695454751
 21
-358.396815337706
  0
LINE
  5
126
100
AcDbEntity
  8
0
  6
CONTINUOUS
 62
           7
100
AcDbLine
 39
0.15
 10
-108.749695454751
 20
-358.396815337706
 11
-107.217315117351
 21
-358.258035770706
  0
LINE
  5
125
100
AcDbEntity
  8
0
  6
CONTINUOUS
 62
           7
100
AcDbLine
 39
0.15
 10
-107.217315117351
 20
-358.258035770706
 11
-105.842671162551
 21
-358.034481844306
  0
LINE
  5
124
100
AcDbEntity
  8
0
  6
CONTINUOUS
 62
           7
100
AcDbLine
 39
0.15
 10
-105.842671162551
 20
-358.034481844306
 11
-104.694693978151
 21
-357.737363485706
  0
LINE
  5
123
100
AcDbEntity
  8
0
  6
CONTINUOUS
 62
           7
100
AcDbLine
 39
0.15
 10
-104.694693978151
 20
-357.737363485706
 11
-103.830947933751
 21
-357.381579449906
  0
LINE
  5
122
100
AcDbEntity
  8
0
  6
CONTINUOUS
 62
           7
100
AcDbLine
 39
0.15
 10
-103.830947933751
 20
-357.381579449906
 11
-103.294744862751
 21
-356.984970234306
  0
LINE
  5
121
100
AcDbEntity
  8
0
  6
CONTINUOUS
 62
           7
100
AcDbLine
 39
0.15
 10
-103.294744862751
 20
-356.984970234306
 11
-103.112972225951
 21
-356.567423480906
  0
LINE
  5
120
100
AcDbEntity
  8
0
  6
CONTINUOUS
 62
           7
100
AcDbLine
 39
0.15
 10
-102.862972225951
 20
-356.567423480906
 11
-103.038318058151
 21
-356.150135150506
  0
LINE
  5
11F
100
AcDbEntity
  8
0
  6
CONTINUOUS
 62
           7
100
AcDbLine
 39
0.15
 10
-103.038318058151
 20
-356.150135150506
 11
-103.112972225951
 21
-356.070416778906
  0
LINE
  5
11E
100
AcDbEntity
  8
0
  6
CONTINUOUS
 62
           7
100
AcDbLine
 10
-117.612972225951
 20
-356.070416778906
 11
-117.819006904751
 21
-356.357549022506
  0
LINE
  5
11D
100
AcDbEntity
  8
0
  6
CONTINUOUS
 62
           7
100
AcDbLine
 10
-117.819006904751
 20
-356.357549022506
 11
-117.819006904751
 21
-356.777297939105
  0
LINE
  5
11C
100
AcDbEntity
  8
0
  6
CONTINUOUS
 62
           7
100
AcDbLine
 10
-117.819006904751
 20
-356.777297939105
 11
-117.470371009951
 21
-357.187233359306
  0
LINE
  5
11B
100
AcDbEntity
  8
0
  6
CONTINUOUS
 62
           7
100
AcDbLine
 10
-117.470371009951
 20
-357.187233359306
 11
-116.789401047351
 21
-357.568187158506
  0
LINE
  5
11A
100
AcDbEntity
  8
0
  6
CONTINUOUS
 62
           7
100
AcDbLine
 10
-116.789401047351
 20
-357.568187158506
 11
-115.807938415551
 21
-357.902346360306
  0
LINE
  5
119
100
AcDbEntity
  8
0
  6
CONTINUOUS
 62
           7
100
AcDbLine
 10
-115.807938415551
 20
-357.902346360306
 11
-114.571875216151
 21
-358.174086051906
  0
LINE
  5
118
100
AcDbEntity
  8
0
  6
CONTINUOUS
 62
           7
100
AcDbLine
 10
-114.571875216151
 20
-358.174086051906
 11
-113.139008391151
 21
-358.370699987506
  0
LINE
  5
117
100
AcDbEntity
  8
0
  6
CONTINUOUS
 62
           7
100
AcDbLine
 10
-113.139008391151
 20
-358.370699987506
 11
-111.576337200151
 21
-358.482994717706
  0
LINE
  5
116
100
AcDbEntity
  8
0
  6
CONTINUOUS
 62
           7
100
AcDbLine
 10
-111.576337200151
 20
-358.482994717706
 11
-109.956930411551
 21
-358.505719465906
  0
LINE
  5
115
100
AcDbEntity
  8
0
  6
CONTINUOUS
 62
           7
100
AcDbLine
 10
-109.956930411551
 20
-358.505719465906
 11
-108.356509687151
 21
-358.437811648106
  0
LINE
  5
114
100
AcDbEntity
  8
0
  6
CONTINUOUS
 62
           7
100
AcDbLine
 10
-108.356509687151
 20
-358.437811648106
 11
-106.849908920751
 21
-358.282446558506
  0
LINE
  5
113
100
AcDbEntity
  8
0
  6
CONTINUOUS
 62
           7
100
AcDbLine
 10
-106.849908920751
 20
-358.282446558506
 11
-105.507575090152
 21
-358.046888895706
  0
LINE
  5
112
100
AcDbEntity
  8
0
  6
CONTINUOUS
 62
           7
100
AcDbLine
 10
-105.507575090152
 20
-358.046888895706
 11
-104.392274233151
 21
-357.742153074506
  0
LINE
  5
111
100
AcDbEntity
  8
0
  6
CONTINUOUS
 62
           7
100
AcDbLine
 10
-104.392274233151
 20
-357.742153074506
 11
-103.556156578551
 21
-357.382488203306
  0
LINE
  5
110
100
AcDbEntity
  8
0
  6
CONTINUOUS
 62
           7
100
AcDbLine
 10
-103.556156578551
 20
-357.382488203306
 11
-103.038318058151
 21
-356.984711811306
  0
LINE
  5
10F
100
AcDbEntity
  8
0
  6
CONTINUOUS
 62
           7
100
AcDbLine
 10
-103.038318058151
 20
-356.984711811306
 11
-102.862972225951
 21
-356.567423480906
  0
LINE
  5
10E
100
AcDbEntity
  8
0
  6
CONTINUOUS
 62
           7
100
AcDbLine
 10
-102.862972225951
 20
-356.567423480906
 11
-102.862972225951
 21
-356.567423480906
  0
LINE
  5
10D
100
AcDbEntity
  8
0
  6
CONTINUOUS
 62
           7
100
AcDbLine
 39
0.15
 10
-102.862972225951
 20
-356.808904937505
 11
-103.038318058151
 21
-357.226193267906
  0
LINE
  5
10C
100
AcDbEntity
  8
0
  6
CONTINUOUS
 62
           7
100
AcDbLine
 39
0.15
 10
-103.038318058151
 20
-357.226193267906
 11
-103.556156578551
 21
-357.623969659706
  0
LINE
  5
10B
100
AcDbEntity
  8
0
  6
CONTINUOUS
 62
           7
100
AcDbLine
 39
0.15
 10
-103.556156578551
 20
-357.623969659706
 11
-104.392274233151
 21
-357.983634531106
  0
LINE
  5
10A
100
AcDbEntity
  8
0
  6
CONTINUOUS
 62
           7
100
AcDbLine
 39
0.15
 10
-104.392274233151
 20
-357.983634531106
 11
-105.507575090152
 21
-358.288370352306
  0
LINE
  5
109
100
AcDbEntity
  8
0
  6
CONTINUOUS
 62
           7
100
AcDbLine
 39
0.15
 10
-105.507575090152
 20
-358.288370352306
 11
-106.849908920751
 21
-358.523928015105
  0
LINE
  5
108
100
AcDbEntity
  8
0
  6
CONTINUOUS
 62
           7
100
AcDbLine
 39
0.15
 10
-106.849908920751
 20
-358.523928015105
 11
-108.356509687151
 21
-358.679293104706
  0
LINE
  5
107
100
AcDbEntity
  8
0
  6
CONTINUOUS
 62
           7
100
AcDbLine
 39
0.15
 10
-108.356509687151
 20
-358.679293104706
 11
-109.956930411551
 21
-358.747200922506
  0
LINE
  5
106
100
AcDbEntity
  8
0
  6
CONTINUOUS
 62
           7
100
AcDbLine
 39
0.15
 10
-109.956930411551
 20
-358.747200922506
 11
-111.576337200151
 21
-358.724476174306
  0
LINE
  5
105
100
AcDbEntity
  8
0
  6
CONTINUOUS
 62
           7
100
AcDbLine
 39
0.15
 10
-111.576337200151
 20
-358.724476174306
 11
-113.139008391151
 21
-358.612181444106
  0
LINE
  5
104
100
AcDbEntity
  8
0
  6
CONTINUOUS
 62
           7
100
AcDbLine
 39
0.15
 10
-113.139008391151
 20
-358.612181444106
 11
-114.571875216151
 21
-358.415567508506
  0
LINE
  5
103
100
AcDbEntity
  8
0
  6
CONTINUOUS
 62
           7
100
AcDbLine
 39
0.15
 10
-114.571875216151
 20
-358.415567508506
 11
-115.807938415551
 21
-358.143827816906
  0
LINE
  5
102
100
AcDbEntity
  8
0
  6
CONTINUOUS
 62
           7
100
AcDbLine
 39
0.15
 10
-115.807938415551
 20
-358.143827816906
 11
-116.789401047351
 21
-357.809668615106
  0
LINE
  5
101
100
AcDbEntity
  8
0
  6
CONTINUOUS
 62
           7
100
AcDbLine
 39
0.15
 10
-116.789401047351
 20
-357.809668615106
 11
-117.470371009951
 21
-357.428714815905
  0
LINE
  5
100
100
AcDbEntity
  8
0
  6
CONTINUOUS
 62
           7
100
AcDbLine
 39
0.15
 10
-117.470371009951
 20
-357.428714815905
 11
-117.819006904751
 21
-357.018779395706
  0
LINE
  5
FF
100
AcDbEntity
  8
0
  6
CONTINUOUS
 62
           7
100
AcDbLine
 39
0.15
 10
-117.819006904751
 20
-357.018779395706
 11
-117.862972225951
 21
-356.808904937505
  0
LINE
  5
FE
100
AcDbEntity
  8
0
  6
CONTINUOUS
 62
           7
100
AcDbLine
 39
0.15
 10
-116.866145272951
 20
-358.001464197505
 11
-116.705897416351
 21
-358.130868263706
  0
LINE
  5
FD
100
AcDbEntity
  8
0
  6
CONTINUOUS
 62
           7
100
AcDbLine
 39
0.15
 10
-116.705897416351
 20
-358.130868263706
 11
-116.002514953151
 21
-358.493357182706
  0
LINE
  5
FC
100
AcDbEntity
  8
0
  6
CONTINUOUS
 62
           7
100
AcDbLine
 39
0.15
 10
-116.002514953151
 20
-358.493357182706
 11
-114.995103281551
 21
-358.804091828706
  0
LINE
  5
FB
100
AcDbEntity
  8
0
  6
CONTINUOUS
 62
           7
100
AcDbLine
 39
0.15
 10
-114.995103281551
 20
-358.804091828706
 11
-113.737972225951
 21
-359.046320416506
  0
LINE
  5
FA
100
AcDbEntity
  8
0
  6
CONTINUOUS
 62
           7
100
AcDbLine
 39
0.15
 10
-113.737972225951
 20
-359.046320416506
 11
-112.298894046751
 21
-359.206984340106
  0
LINE
  5
F9
100
AcDbEntity
  8
0
  6
CONTINUOUS
 62
           7
100
AcDbLine
 39
0.15
 10
-112.298894046751
 20
-359.206984340106
 11
-110.755449821151
 21
-359.277422165706
  0
LINE
  5
F8
100
AcDbEntity
  8
0
  6
CONTINUOUS
 62
           7
100
AcDbLine
 39
0.15
 10
-110.755449821151
 20
-359.277422165706
 11
-109.190847026751
 21
-359.253836572305
  0
LINE
  5
F7
100
AcDbEntity
  8
0
  6
CONTINUOUS
 62
           7
100
AcDbLine
 39
0.15
 10
-109.190847026751
 20
-359.253836572305
 11
-107.689433805351
 21
-359.137499065106
  0
LINE
  5
F6
100
AcDbEntity
  8
0
  6
CONTINUOUS
 62
           7
100
AcDbLine
 39
0.15
 10
-107.689433805351
 20
-359.137499065106
 11
-106.332151731951
 21
-358.934681429106
  0
LINE
  5
F5
100
AcDbEntity
  8
0
  6
CONTINUOUS
 62
           7
100
AcDbLine
 39
0.15
 10
-106.332151731951
 20
-358.934681429106
 11
-105.192172234951
 21
-358.656317615706
  0
LINE
  5
F4
100
AcDbEntity
  8
0
  6
CONTINUOUS
 62
           7
100
AcDbLine
 39
0.15
 10
-105.192172234951
 20
-358.656317615706
 11
-104.330951903751
 21
-358.317414290106
  0
LINE
  5
F3
100
AcDbEntity
  8
0
  6
CONTINUOUS
 62
           7
100
AcDbLine
 39
0.15
 10
-104.330951903751
 20
-358.317414290106
 11
-103.859799178951
 21
-358.001464197505
  0
LINE
  5
F2
100
AcDbEntity
  8
0
  6
CONTINUOUS
 62
           7
100
AcDbLine
 39
0.15
 10
-117.112972225951
 20
-361.397052612306
 11
-117.067331140751
 21
-361.599870248306
  0
LINE
  5
F1
100
AcDbEntity
  8
0
  6
CONTINUOUS
 62
           7
100
AcDbLine
 39
0.15
 10
-117.067331140751
 20
-361.599870248306
 11
-116.705897416351
 21
-361.994571568905
  0
LINE
  5
F0
100
AcDbEntity
  8
0
  6
CONTINUOUS
 62
           7
100
AcDbLine
 39
0.15
 10
-116.705897416351
 20
-361.994571568905
 11
-116.002514953151
 21
-362.357060487906
  0
LINE
  5
EF
100
AcDbEntity
  8
0
  6
CONTINUOUS
 62
           7
100
AcDbLine
 39
0.15
 10
-116.002514953151
 20
-362.357060487906
 11
-114.995103281551
 21
-362.667795133906
  0
LINE
  5
EE
100
AcDbEntity
  8
0
  6
CONTINUOUS
 62
           7
100
AcDbLine
 39
0.15
 10
-114.995103281551
 20
-362.667795133906
 11
-113.737972225951
 21
-362.910023721506
  0
LINE
  5
ED
100
AcDbEntity
  8
0
  6
CONTINUOUS
 62
           7
100
AcDbLine
 39
0.15
 10
-113.737972225951
 20
-362.910023721506
 11
-112.298894046751
 21
-363.070687645105
  0
LINE
  5
EC
100
AcDbEntity
  8
0
  6
CONTINUOUS
 62
           7
100
AcDbLine
 39
0.15
 10
-112.298894046751
 20
-363.070687645105
 11
-110.755449821151
 21
-363.141125470905
  0
LINE
  5
EB
100
AcDbEntity
  8
0
  6
CONTINUOUS
 62
           7
100
AcDbLine
 39
0.15
 10
-110.755449821151
 20
-363.141125470905
 11
-109.190847026751
 21
-363.117539877506
  0
LINE
  5
EA
100
AcDbEntity
  8
0
  6
CONTINUOUS
 62
           7
100
AcDbLine
 39
0.15
 10
-109.190847026751
 20
-363.117539877506
 11
-107.689433805351
 21
-363.001202370106
  0
LINE
  5
E9
100
AcDbEntity
  8
0
  6
CONTINUOUS
 62
           7
100
AcDbLine
 39
0.15
 10
-107.689433805351
 20
-363.001202370106
 11
-106.332151731951
 21
-362.798384734306
  0
LINE
  5
E8
100
AcDbEntity
  8
0
  6
CONTINUOUS
 62
           7
100
AcDbLine
 39
0.15
 10
-106.332151731951
 20
-362.798384734306
 11
-105.192172234951
 21
-362.520020920906
  0
LINE
  5
E7
100
AcDbEntity
  8
0
  6
CONTINUOUS
 62
           7
100
AcDbLine
 39
0.15
 10
-105.192172234951
 20
-362.520020920906
 11
-104.330951903751
 21
-362.181117595306
  0
LINE
  5
E6
100
AcDbEntity
  8
0
  6
CONTINUOUS
 62
           7
100
AcDbLine
 39
0.15
 10
-104.330951903751
 20
-362.181117595306
 11
-103.794919349551
 21
-361.799945123706
  0
LINE
  5
E5
100
AcDbEntity
  8
0
  6
CONTINUOUS
 62
           7
100
AcDbLine
 39
0.15
 10
-103.794919349551
 20
-361.799945123706
 11
-103.612972225951
 21
-361.397052612306
  0
LINE
  5
E4
100
AcDbEntity
  8
0
  6
CONTINUOUS
 62
           7
100
AcDbLine
 39
0.15
 10
-103.362972225951
 20
-361.397052612306
 11
-103.538476840751
 21
-360.993904022906
  0
LINE
  5
E3
100
AcDbEntity
  8
0
  6
CONTINUOUS
 62
           7
100
AcDbLine
 39
0.15
 10
-103.538476840751
 20
-360.993904022906
 11
-103.612972225951
 21
-360.917189259705
  0
LINE
  5
E2
100
AcDbEntity
  8
0
  6
CONTINUOUS
 62
           7
100
AcDbLine
 10
-117.112972225951
 20
-360.917189259705
 11
-117.187467611351
 21
-360.993904022906
  0
LINE
  5
E1
100
AcDbEntity
  8
0
  6
CONTINUOUS
 62
           7
100
AcDbLine
 10
-117.187467611351
 20
-360.993904022906
 11
-117.362972225951
 21
-361.397052612306
  0
LINE
  5
E0
100
AcDbEntity
  8
0
  6
CONTINUOUS
 62
           7
100
AcDbLine
 10
-117.362972225951
 20
-361.397052612306
 11
-117.187467611351
 21
-361.800201201705
  0
LINE
  5
DF
100
AcDbEntity
  8
0
  6
CONTINUOUS
 62
           7
100
AcDbLine
 10
-117.187467611351
 20
-361.800201201705
 11
-116.669754301351
 21
-362.183134237706
  0
LINE
  5
DE
100
AcDbEntity
  8
0
  6
CONTINUOUS
 62
           7
100
AcDbLine
 10
-116.669754301351
 20
-362.183134237706
 11
-115.835792603351
 21
-362.526649858306
  0
LINE
  5
DD
100
AcDbEntity
  8
0
  6
CONTINUOUS
 62
           7
100
AcDbLine
 10
-115.835792603351
 20
-362.526649858306
 11
-114.727400838951
 21
-362.813522756305
  0
LINE
  5
DC
100
AcDbEntity
  8
0
  6
CONTINUOUS
 62
           7
100
AcDbLine
 10
-114.727400838951
 20
-362.813522756305
 11
-113.400158399951
 21
-363.029367926706
  0
LINE
  5
DB
100
AcDbEntity
  8
0
  6
CONTINUOUS
 62
           7
100
AcDbLine
 10
-113.400158399951
 20
-363.029367926706
 11
-111.920618763751
 21
-363.163361991305
  0
LINE
  5
DA
100
AcDbEntity
  8
0
  6
CONTINUOUS
 62
           7
100
AcDbLine
 10
-111.920618763751
 20
-363.163361991305
 11
-110.362972225951
 21
-363.208785928105
  0
LINE
  5
D9
100
AcDbEntity
  8
0
  6
CONTINUOUS
 62
           7
100
AcDbLine
 10
-110.362972225951
 20
-363.208785928105
 11
-108.805325688351
 21
-363.163361991305
  0
LINE
  5
D8
100
AcDbEntity
  8
0
  6
CONTINUOUS
 62
           7
100
AcDbLine
 10
-108.805325688351
 20
-363.163361991305
 11
-107.325786052151
 21
-363.029367926706
  0
LINE
  5
D7
100
AcDbEntity
  8
0
  6
CONTINUOUS
 62
           7
100
AcDbLine
 10
-107.325786052151
 20
-363.029367926706
 11
-105.998543612951
 21
-362.813522756305
  0
LINE
  5
D6
100
AcDbEntity
  8
0
  6
CONTINUOUS
 62
           7
100
AcDbLine
 10
-105.998543612951
 20
-362.813522756305
 11
-104.890151848751
 21
-362.526649858306
  0
LINE
  5
D5
100
AcDbEntity
  8
0
  6
CONTINUOUS
 62
           7
100
AcDbLine
 10
-104.890151848751
 20
-362.526649858306
 11
-104.056190150751
 21
-362.183134237706
  0
LINE
  5
D4
100
AcDbEntity
  8
0
  6
CONTINUOUS
 62
           7
100
AcDbLine
 10
-104.056190150751
 20
-362.183134237706
 11
-103.538476840751
 21
-361.800201201705
  0
LINE
  5
D3
100
AcDbEntity
  8
0
  6
CONTINUOUS
 62
           7
100
AcDbLine
 10
-103.538476840751
 20
-361.800201201705
 11
-103.362972225951
 21
-361.397052612306
  0
LINE
  5
D2
100
AcDbEntity
  8
0
  6
CONTINUOUS
 62
           7
100
AcDbLine
 10
-103.362972225951
 20
-361.397052612306
 11
-103.362972225951
 21
-361.397052612306
  0
LINE
  5
D1
100
AcDbEntity
  8
0
  6
CONTINUOUS
 62
           7
100
AcDbLine
 10
-103.362972225951
 20
-361.638534068906
 11
-103.538476840751
 21
-362.041682658306
  0
LINE
  5
D0
100
AcDbEntity
  8
0
  6
CONTINUOUS
 62
           7
100
AcDbLine
 10
-103.538476840751
 20
-362.041682658306
 11
-104.056190150751
 21
-362.424615694106
  0
LINE
  5
CF
100
AcDbEntity
  8
0
  6
CONTINUOUS
 62
           7
100
AcDbLine
 10
-104.056190150751
 20
-362.424615694106
 11
-104.890151848751
 21
-362.768131314906
  0
LINE
  5
CE
100
AcDbEntity
  8
0
  6
CONTINUOUS
 62
           7
100
AcDbLine
 10
-104.890151848751
 20
-362.768131314906
 11
-105.998543612951
 21
-363.055004212905
  0
LINE
  5
CD
100
AcDbEntity
  8
0
  6
CONTINUOUS
 62
           7
100
AcDbLine
 10
-105.998543612951
 20
-363.055004212905
 11
-107.325786052151
 21
-363.270849383306
  0
LINE
  5
CC
100
AcDbEntity
  8
0
  6
CONTINUOUS
 62
           7
100
AcDbLine
 10
-107.325786052151
 20
-363.270849383306
 11
-108.805325688351
 21
-363.404843447906
  0
LINE
  5
CB
100
AcDbEntity
  8
0
  6
CONTINUOUS
 62
           7
100
AcDbLine
 10
-108.805325688351
 20
-363.404843447906
 11
-110.362972225951
 21
-363.450267384506
  0
LINE
  5
CA
100
AcDbEntity
  8
0
  6
CONTINUOUS
 62
           7
100
AcDbLine
 10
-110.362972225951
 20
-363.450267384506
 11
-111.920618763751
 21
-363.404843447906
  0
LINE
  5
C9
100
AcDbEntity
  8
0
  6
CONTINUOUS
 62
           7
100
AcDbLine
 10
-111.920618763751
 20
-363.404843447906
 11
-113.400158399951
 21
-363.270849383306
  0
LINE
  5
C8
100
AcDbEntity
  8
0
  6
CONTINUOUS
 62
           7
100
AcDbLine
 10
-113.400158399951
 20
-363.270849383306
 11
-114.727400838951
 21
-363.055004212905
  0
LINE
  5
C7
100
AcDbEntity
  8
0
  6
CONTINUOUS
 62
           7
100
AcDbLine
 10
-114.727400838951
 20
-363.055004212905
 11
-115.835792603351
 21
-362.768131314906
  0
LINE
  5
C6
100
AcDbEntity
  8
0
  6
CONTINUOUS
 62
           7
100
AcDbLine
 10
-115.835792603351
 20
-362.768131314906
 11
-116.669754301351
 21
-362.424615694106
  0
LINE
  5
C5
100
AcDbEntity
  8
0
  6
CONTINUOUS
 62
           7
100
AcDbLine
 10
-116.669754301351
 20
-362.424615694106
 11
-117.187467611351
 21
-362.041682658306
  0
LINE
  5
C4
100
AcDbEntity
  8
0
  6
CONTINUOUS
 62
           7
100
AcDbLine
 10
-117.187467611351
 20
-362.041682658306
 11
-117.362972225951
 21
-361.638534068906
  0
LINE
  5
C3
100
AcDbEntity
  8
0
  6
CONTINUOUS
 62
           7
100
AcDbLine
 10
-117.362972225951
 20
-361.638534068906
 11
-117.362972225951
 21
-361.638534068906
  0
LINE
  5
C2
100
AcDbEntity
  8
0
  6
CONTINUOUS
 62
           7
100
AcDbLine
 39
0.15
 10
-116.384428750951
 20
-362.796418151906
 11
-115.897072386352
 21
-363.114723486305
  0
LINE
  5
C1
100
AcDbEntity
  8
0
  6
CONTINUOUS
 62
           7
100
AcDbLine
 39
0.15
 10
-115.897072386352
 20
-363.114723486305
 11
-115.041164402151
 21
-363.435658271105
  0
LINE
  5
C0
100
AcDbEntity
  8
0
  6
CONTINUOUS
 62
           7
100
AcDbLine
 39
0.15
 10
-115.041164402151
 20
-363.435658271105
 11
-113.913376893151
 21
-363.694252803106
  0
LINE
  5
BF
100
AcDbEntity
  8
0
  6
CONTINUOUS
 62
           7
100
AcDbLine
 39
0.15
 10
-113.913376893151
 20
-363.694252803106
 11
-112.579252769951
 21
-363.875478507905
  0
LINE
  5
BE
100
AcDbEntity
  8
0
  6
CONTINUOUS
 62
           7
100
AcDbLine
 39
0.15
 10
-112.579252769951
 20
-363.875478507905
 11
-111.116326477551
 21
-363.968803206506
  0
LINE
  5
BD
100
AcDbEntity
  8
0
  6
CONTINUOUS
 62
           7
100
AcDbLine
 39
0.15
 10
-111.116326477551
 20
-363.968803206506
 11
-109.609617974351
 21
-363.968803206506
  0
LINE
  5
BC
100
AcDbEntity
  8
0
  6
CONTINUOUS
 62
           7
100
AcDbLine
 39
0.15
 10
-109.609617974351
 20
-363.968803206506
 11
-108.146691681951
 21
-363.875478507905
  0
LINE
  5
BB
100
AcDbEntity
  8
0
  6
CONTINUOUS
 62
           7
100
AcDbLine
 39
0.15
 10
-108.146691681951
 20
-363.875478507905
 11
-106.812567558951
 21
-363.694252803106
  0
LINE
  5
BA
100
AcDbEntity
  8
0
  6
CONTINUOUS
 62
           7
100
AcDbLine
 39
0.15
 10
-106.812567558951
 20
-363.694252803106
 11
-105.684780049951
 21
-363.435658271105
  0
LINE
  5
B9
100
AcDbEntity
  8
0
  6
CONTINUOUS
 62
           7
100
AcDbLine
 39
0.15
 10
-105.684780049951
 20
-363.435658271105
 11
-104.828872065752
 21
-363.114723486305
  0
LINE
  5
B8
100
AcDbEntity
  8
0
  6
CONTINUOUS
 62
           7
100
AcDbLine
 39
0.15
 10
-104.828872065752
 20
-363.114723486305
 11
-104.341515700951
 21
-362.796418151906
  0
LINE
  5
B7
100
AcDbEntity
  8
0
  6
CONTINUOUS
 62
           7
100
AcDbLine
 39
0.15
 10
-116.612972225951
 20
-366.226681743706
 11
-116.431358584952
 21
-366.613803316906
  0
LINE
  5
B6
100
AcDbEntity
  8
0
  6
CONTINUOUS
 62
           7
100
AcDbLine
 39
0.15
 10
-116.431358584952
 20
-366.613803316906
 11
-115.897072386352
 21
-366.978426791506
  0
LINE
  5
B5
100
AcDbEntity
  8
0
  6
CONTINUOUS
 62
           7
100
AcDbLine
 39
0.15
 10
-115.897072386352
 20
-366.978426791506
 11
-115.041164402151
 21
-367.299361576306
  0
LINE
  5
B4
100
AcDbEntity
  8
0
  6
CONTINUOUS
 62
           7
100
AcDbLine
 39
0.15
 10
-115.041164402151
 20
-367.299361576306
 11
-113.913376893151
 21
-367.557956108106
  0
LINE
  5
B3
100
AcDbEntity
  8
0
  6
CONTINUOUS
 62
           7
100
AcDbLine
 39
0.15
 10
-113.913376893151
 20
-367.557956108106
 11
-112.579252769951
 21
-367.739181813106
  0
LINE
  5
B2
100
AcDbEntity
  8
0
  6
CONTINUOUS
 62
           7
100
AcDbLine
 39
0.15
 10
-112.579252769951
 20
-367.739181813106
 11
-111.116326477551
 21
-367.832506511706
  0
LINE
  5
B1
100
AcDbEntity
  8
0
  6
CONTINUOUS
 62
           7
100
AcDbLine
 39
0.15
 10
-111.116326477551
 20
-367.832506511706
 11
-109.609617974351
 21
-367.832506511706
  0
LINE
  5
B0
100
AcDbEntity
  8
0
  6
CONTINUOUS
 62
           7
100
AcDbLine
 39
0.15
 10
-109.609617974351
 20
-367.832506511706
 11
-108.146691681951
 21
-367.739181813106
  0
LINE
  5
AF
100
AcDbEntity
  8
0
  6
CONTINUOUS
 62
           7
100
AcDbLine
 39
0.15
 10
-108.146691681951
 20
-367.739181813106
 11
-106.812567558951
 21
-367.557956108106
  0
LINE
  5
AE
100
AcDbEntity
  8
0
  6
CONTINUOUS
 62
           7
100
AcDbLine
 39
0.15
 10
-106.812567558951
 20
-367.557956108106
 11
-105.684780049951
 21
-367.299361576306
  0
LINE
  5
AD
100
AcDbEntity
  8
0
  6
CONTINUOUS
 62
           7
100
AcDbLine
 39
0.15
 10
-105.684780049951
 20
-367.299361576306
 11
-104.828872065752
 21
-366.978426791506
  0
LINE
  5
AC
100
AcDbEntity
  8
0
  6
CONTINUOUS
 62
           7
100
AcDbLine
 39
0.15
 10
-104.828872065752
 20
-366.978426791506
 11
-104.294585867151
 21
-366.613803316906
  0
LINE
  5
AB
100
AcDbEntity
  8
0
  6
CONTINUOUS
 62
           7
100
AcDbLine
 39
0.15
 10
-104.294585867151
 20
-366.613803316906
 11
-104.112972225951
 21
-366.226681743706
  0
LINE
  5
AA
100
AcDbEntity
  8
0
  6
CONTINUOUS
 62
           7
100
AcDbLine
 39
0.15
 10
-103.862972225951
 20
-366.226681743706
 11
-104.038180567351
 21
-365.838711177306
  0
LINE
  5
A9
100
AcDbEntity
  8
0
  6
CONTINUOUS
 62
           7
100
AcDbLine
 39
0.15
 10
-104.038180567351
 20
-365.838711177306
 11
-104.112972225951
 21
-365.764597322106
  0
LINE
  5
A8
100
AcDbEntity
  8
0
  6
CONTINUOUS
 62
           7
100
AcDbLine
 10
-116.612972225951
 20
-365.764597322106
 11
-116.819021551351
 21
-366.031375872106
  0
LINE
  5
A7
100
AcDbEntity
  8
0
  6
CONTINUOUS
 62
           7
100
AcDbLine
 10
-116.819021551351
 20
-366.031375872106
 11
-116.819021551351
 21
-366.421987615505
  0
LINE
  5
A6
100
AcDbEntity
  8
0
  6
CONTINUOUS
 62
           7
100
AcDbLine
 10
-116.819021551351
 20
-366.421987615505
 11
-116.470974261151
 21
-366.802070368706
  0
LINE
  5
A5
100
AcDbEntity
  8
0
  6
CONTINUOUS
 62
           7
100
AcDbLine
 10
-116.470974261151
 20
-366.802070368706
 11
-115.793643000151
 21
-367.151133772106
  0
LINE
  5
A4
100
AcDbEntity
  8
0
  6
CONTINUOUS
 62
           7
100
AcDbLine
 10
-115.793643000151
 20
-367.151133772106
 11
-114.823542872151
 21
-367.450359727506
  0
LINE
  5
A3
100
AcDbEntity
  8
0
  6
CONTINUOUS
 62
           7
100
AcDbLine
 10
-114.823542872151
 20
-367.450359727506
 11
-113.612972225951
 21
-367.683616886106
  0
LINE
  5
A2
100
AcDbEntity
  8
0
  6
CONTINUOUS
 62
           7
100
AcDbLine
 10
-113.612972225951
 20
-367.683616886106
 11
-112.227193238751
 21
-367.838330293906
  0
LINE
  5
A1
100
AcDbEntity
  8
0
  6
CONTINUOUS
 62
           7
100
AcDbLine
 10
-112.227193238751
 20
-367.838330293906
 11
-110.740913613951
 21
-367.906159311305
  0
LINE
  5
A0
100
AcDbEntity
  8
0
  6
CONTINUOUS
 62
           7
100
AcDbLine
 10
-110.740913613951
 20
-367.906159311305
 11
-109.234259071151
 21
-367.883447258306
  0
LINE
  5
9F
100
AcDbEntity
  8
0
  6
CONTINUOUS
 62
           7
100
AcDbLine
 10
-109.234259071151
 20
-367.883447258306
 11
-107.788453746751
 21
-367.771418547706
  0
LINE
  5
9E
100
AcDbEntity
  8
0
  6
CONTINUOUS
 62
           7
100
AcDbLine
 10
-107.788453746751
 20
-367.771418547706
 11
-106.481441379951
 21
-367.576112675906
  0
LINE
  5
9D
100
AcDbEntity
  8
0
  6
CONTINUOUS
 62
           7
100
AcDbLine
 10
-106.481441379951
 20
-367.576112675906
 11
-105.383683345751
 21
-367.308058633505
  0
LINE
  5
9C
100
AcDbEntity
  8
0
  6
CONTINUOUS
 62
           7
100
AcDbLine
 10
-105.383683345751
 20
-367.308058633505
 11
-104.554360063951
 21
-366.981707282906
  0
LINE
  5
9B
100
AcDbEntity
  8
0
  6
CONTINUOUS
 62
           7
100
AcDbLine
 10
-104.554360063951
 20
-366.981707282906
 11
-104.038180567351
 21
-366.614652310106
  0
LINE
  5
9A
100
AcDbEntity
  8
0
  6
CONTINUOUS
 62
           7
100
AcDbLine
 10
-104.038180567351
 20
-366.614652310106
 11
-103.862972225951
 21
-366.226681743706
  0
LINE
  5
99
100
AcDbEntity
  8
0
  6
CONTINUOUS
 62
           7
100
AcDbLine
 10
-103.862972225951
 20
-366.226681743706
 11
-103.862972225951
 21
-366.226681743706
  0
LINE
  5
98
100
AcDbEntity
  8
0
  6
CONTINUOUS
 62
           7
100
AcDbLine
 39
0.15
 10
-110.362972225951
 20
-368.391968450106
 11
-108.863969066151
 21
-368.346621194506
  0
LINE
  5
97
100
AcDbEntity
  8
0
  6
CONTINUOUS
 62
           7
100
AcDbLine
 39
0.15
 10
-108.863969066151
 20
-368.346621194506
 11
-107.445777554751
 21
-368.213024110106
  0
LINE
  5
96
100
AcDbEntity
  8
0
  6
CONTINUOUS
 62
           7
100
AcDbLine
 39
0.15
 10
-107.445777554751
 20
-368.213024110106
 11
-106.184852763151
 21
-367.998379450106
  0
LINE
  5
95
100
AcDbEntity
  8
0
  6
CONTINUOUS
 62
           7
100
AcDbLine
 39
0.15
 10
-106.184852763151
 20
-367.998379450106
 11
-105.149171473151
 21
-367.714258764105
  0
LINE
  5
94
100
AcDbEntity
  8
0
  6
CONTINUOUS
 62
           7
100
AcDbLine
 39
0.15
 10
-105.149171473151
 20
-367.714258764105
 11
-104.394567531351
 21
-367.375979071306
  0
LINE
  5
93
100
AcDbEntity
  8
0
  6
CONTINUOUS
 62
           7
100
AcDbLine
 39
0.15
 10
-104.394567531351
 20
-367.375979071306
 11
-103.961721831551
 21
-367.001777117905
  0
LINE
  5
92
100
AcDbEntity
  8
0
  6
CONTINUOUS
 62
           7
100
AcDbLine
 39
0.15
 10
-103.961721831551
 20
-367.001777117905
 11
-103.862972225951
 21
-366.709644656905
  0
LINE
  5
91
100
AcDbEntity
  8
0
  6
CONTINUOUS
 62
           7
100
AcDbLine
 39
0.15
 10
-116.862972225951
 20
-366.709644656905
 11
-116.764222620551
 21
-367.001777117905
  0
LINE
  5
90
100
AcDbEntity
  8
0
  6
CONTINUOUS
 62
           7
100
AcDbLine
 39
0.15
 10
-116.764222620551
 20
-367.001777117905
 11
-116.331376920751
 21
-367.375979071306
  0
LINE
  5
8F
100
AcDbEntity
  8
0
  6
CONTINUOUS
 62
           7
100
AcDbLine
 39
0.15
 10
-116.331376920751
 20
-367.375979071306
 11
-115.576772978951
 21
-367.714258764105
  0
LINE
  5
8E
100
AcDbEntity
  8
0
  6
CONTINUOUS
 62
           7
100
AcDbLine
 39
0.15
 10
-115.576772978951
 20
-367.714258764105
 11
-114.541091688951
 21
-367.998379450106
  0
LINE
  5
8D
100
AcDbEntity
  8
0
  6
CONTINUOUS
 62
           7
100
AcDbLine
 39
0.15
 10
-114.541091688951
 20
-367.998379450106
 11
-113.280166897351
 21
-368.213024110106
  0
LINE
  5
8C
100
AcDbEntity
  8
0
  6
CONTINUOUS
 62
           7
100
AcDbLine
 39
0.15
 10
-113.280166897351
 20
-368.213024110106
 11
-111.861975385951
 21
-368.346621194506
  0
LINE
  5
8B
100
AcDbEntity
  8
0
  6
CONTINUOUS
 62
           7
100
AcDbLine
 39
0.15
 10
-111.861975385951
 20
-368.346621194506
 11
-110.362972225951
 21
-368.391968450106
  0
LINE
  5
8A
100
AcDbEntity
  8
0
  6
CONTINUOUS
 62
           7
100
AcDbLine
 39
0.15
 10
-104.582373961951
 20
-367.608709694705
 11
-104.934009911151
 21
-367.853806308106
  0
LINE
  5
89
100
AcDbEntity
  8
0
  6
CONTINUOUS
 62
           7
100
AcDbLine
 39
0.15
 10
-104.934009911151
 20
-367.853806308106
 11
-105.739892769351
 21
-368.182472380106
  0
LINE
  5
88
100
AcDbEntity
  8
0
  6
CONTINUOUS
 62
           7
100
AcDbLine
 39
0.15
 10
-105.739892769351
 20
-368.182472380106
 11
-106.836260712351
 21
-368.448941605706
  0
LINE
  5
87
100
AcDbEntity
  8
0
  6
CONTINUOUS
 62
           7
100
AcDbLine
 39
0.15
 10
-106.836260712351
 20
-368.448941605706
 11
-108.154224909951
 21
-368.636470743505
  0
LINE
  5
86
100
AcDbEntity
  8
0
  6
CONTINUOUS
 62
           7
100
AcDbLine
 39
0.15
 10
-108.154224909951
 20
-368.636470743505
 11
-109.610972824551
 21
-368.733276647706
  0
LINE
  5
85
100
AcDbEntity
  8
0
  6
CONTINUOUS
 62
           7
100
AcDbLine
 39
0.15
 10
-109.610972824551
 20
-368.733276647706
 11
-111.114971627351
 21
-368.733276647706
  0
LINE
  5
84
100
AcDbEntity
  8
0
  6
CONTINUOUS
 62
           7
100
AcDbLine
 39
0.15
 10
-111.114971627351
 20
-368.733276647706
 11
-112.571719542151
 21
-368.636470743505
  0
LINE
  5
83
100
AcDbEntity
  8
0
  6
CONTINUOUS
 62
           7
100
AcDbLine
 39
0.15
 10
-112.571719542151
 20
-368.636470743505
 11
-113.889683739751
 21
-368.448941605706
  0
LINE
  5
82
100
AcDbEntity
  8
0
  6
CONTINUOUS
 62
           7
100
AcDbLine
 39
0.15
 10
-113.889683739751
 20
-368.448941605706
 11
-114.986051682751
 21
-368.182472380106
  0
LINE
  5
81
100
AcDbEntity
  8
0
  6
CONTINUOUS
 62
           7
100
AcDbLine
 39
0.15
 10
-114.986051682751
 20
-368.182472380106
 11
-115.791934540751
 21
-367.853806308106
  0
LINE
  5
80
100
AcDbEntity
  8
0
  6
CONTINUOUS
 62
           7
100
AcDbLine
 39
0.15
 10
-115.791934540751
 20
-367.853806308106
 11
-116.143570489951
 21
-367.608709694705
  0
LINE
  5
7F
100
AcDbEntity
  8
0
  6
CONTINUOUS
 62
           7
100
AcDbLine
 39
0.15
 10
-110.362972225951
 20
-373.092188058906
 11
-108.870832902951
 21
-373.043400401506
  0
LINE
  5
7E
100
AcDbEntity
  8
0
  6
CONTINUOUS
 62
           7
100
AcDbLine
 39
0.15
 10
-108.870832902951
 20
-373.043400401506
 11
-107.472450181351
 21
-372.900102937306
  0
LINE
  5
7D
100
AcDbEntity
  8
0
  6
CONTINUOUS
 62
           7
100
AcDbLine
 39
0.15
 10
-107.472450181351
 20
-372.900102937306
 11
-106.255689590551
 21
-372.671299572706
  0
LINE
  5
7C
100
AcDbEntity
  8
0
  6
CONTINUOUS
 62
           7
100
AcDbLine
 39
0.15
 10
-106.255689590551
 20
-372.671299572706
 11
-105.297004672951
 21
-372.371366864906
  0
LINE
  5
7B
100
AcDbEntity
  8
0
  6
CONTINUOUS
 62
           7
100
AcDbLine
 39
0.15
 10
-105.297004672951
 20
-372.371366864906
 11
-104.656633128351
 21
-372.019150688706
  0
LINE
  5
7A
100
AcDbEntity
  8
0
  6
CONTINUOUS
 62
           7
100
AcDbLine
 39
0.15
 10
-104.656633128351
 20
-372.019150688706
 11
-104.374811855551
 21
-371.636782082106
  0
LINE
  5
79
100
AcDbEntity
  8
0
  6
CONTINUOUS
 62
           7
100
AcDbLine
 39
0.15
 10
-104.374811855551
 20
-371.636782082106
 11
-104.362972225951
 21
-371.539273788305
  0
LINE
  5
78
100
AcDbEntity
  8
0
  6
CONTINUOUS
 62
           7
100
AcDbLine
 39
0.15
 10
-116.362972225951
 20
-371.539273788305
 11
-116.351132596551
 21
-371.636782082106
  0
LINE
  5
77
100
AcDbEntity
  8
0
  6
CONTINUOUS
 62
           7
100
AcDbLine
 39
0.15
 10
-116.351132596551
 20
-371.636782082106
 11
-116.069311323751
 21
-372.019150688706
  0
LINE
  5
76
100
AcDbEntity
  8
0
  6
CONTINUOUS
 62
           7
100
AcDbLine
 39
0.15
 10
-116.069311323751
 20
-372.019150688706
 11
-115.428939778951
 21
-372.371366864906
  0
LINE
  5
75
100
AcDbEntity
  8
0
  6
CONTINUOUS
 62
           7
100
AcDbLine
 39
0.15
 10
-115.428939778951
 20
-372.371366864906
 11
-114.470254861551
 21
-372.671299572706
  0
LINE
  5
74
100
AcDbEntity
  8
0
  6
CONTINUOUS
 62
           7
100
AcDbLine
 39
0.15
 10
-114.470254861551
 20
-372.671299572706
 11
-113.253494270552
 21
-372.900102937306
  0
LINE
  5
73
100
AcDbEntity
  8
0
  6
CONTINUOUS
 62
           7
100
AcDbLine
 39
0.15
 10
-113.253494270552
 20
-372.900102937306
 11
-111.855111548951
 21
-373.043400401506
  0
LINE
  5
72
100
AcDbEntity
  8
0
  6
CONTINUOUS
 62
           7
100
AcDbLine
 39
0.15
 10
-111.855111548951
 20
-373.043400401506
 11
-110.362972225951
 21
-373.092188058906
  0
LINE
  5
71
100
AcDbEntity
  8
0
  6
CONTINUOUS
 62
           7
100
AcDbLine
 39
0.15
 10
-105.064090483952
 20
-372.403663649106
 11
-105.599832505151
 21
-372.733989075506
  0
LINE
  5
70
100
AcDbEntity
  8
0
  6
CONTINUOUS
 62
           7
100
AcDbLine
 39
0.15
 10
-105.599832505151
 20
-372.733989075506
 11
-106.473884929552
 21
-373.028806561906
  0
LINE
  5
6F
100
AcDbEntity
  8
0
  6
CONTINUOUS
 62
           7
100
AcDbLine
 39
0.15
 10
-106.473884929552
 20
-373.028806561906
 11
-107.612972225951
 21
-373.255027975706
  0
LINE
  5
6E
100
AcDbEntity
  8
0
  6
CONTINUOUS
 62
           7
100
AcDbLine
 39
0.15
 10
-107.612972225951
 20
-373.255027975706
 11
-108.939467477951
 21
-373.397236701506
  0
LINE
  5
6D
100
AcDbEntity
  8
0
  6
CONTINUOUS
 62
           7
100
AcDbLine
 39
0.15
 10
-108.939467477951
 20
-373.397236701506
 11
-110.362972225951
 21
-373.445741449506
  0
LINE
  5
6C
100
AcDbEntity
  8
0
  6
CONTINUOUS
 62
           7
100
AcDbLine
 39
0.15
 10
-110.362972225951
 20
-373.445741449506
 11
-111.786476974151
 21
-373.397236701506
  0
LINE
  5
6B
100
AcDbEntity
  8
0
  6
CONTINUOUS
 62
           7
100
AcDbLine
 39
0.15
 10
-111.786476974151
 20
-373.397236701506
 11
-113.112972225951
 21
-373.255027975706
  0
LINE
  5
6A
100
AcDbEntity
  8
0
  6
CONTINUOUS
 62
           7
100
AcDbLine
 39
0.15
 10
-113.112972225951
 20
-373.255027975706
 11
-114.252059522551
 21
-373.028806561906
  0
LINE
  5
69
100
AcDbEntity
  8
0
  6
CONTINUOUS
 62
           7
100
AcDbLine
 39
0.15
 10
-114.252059522551
 20
-373.028806561906
 11
-115.126111946751
 21
-372.733989075506
  0
LINE
  5
68
100
AcDbEntity
  8
0
  6
CONTINUOUS
 62
           7
100
AcDbLine
 39
0.15
 10
-115.126111946751
 20
-372.733989075506
 11
-115.661853967951
 21
-372.403663649106
  0
LINE
  5
67
100
AcDbEntity
  8
0
  6
CONTINUOUS
 62
           7
100
AcDbLine
 10
176.609146785852
 20
-202.622018230506
 11
159.414577241452
 21
-202.622018230506
  0
LINE
  5
66
100
AcDbEntity
  8
1
  6
CONTINUOUS
 62
           7
100
AcDbLine
 10
176.609146785852
 20
-202.622018230506
 11
176.609146785852
 21
-201.771816914306
  0
LINE
  5
65
100
AcDbEntity
  8
1
  6
CONTINUOUS
 62
           7
100
AcDbLine
 10
192.793094978352
 20
-204.053234457296
 11
191.159505422252
 21
-201.771816914306
  0
LINE
  5
64
100
AcDbEntity
  8
1
  6
CONTINUOUS
 62
           7
100
AcDbLine
 10
237.914577241452
 20
-140.919153860706
 11
257.475731099252
 21
-138.960505360505
  0
LINE
  5
63
100
AcDbEntity
  8
1
  6
CONTINUOUS
 62
           7
100
AcDbLine
 10
290.38125597019
 20
-143.624578980534
 11
290.381462812752
 21
-146.635781917492
  0
LINE
  5
62
100
AcDbEntity
  8
0
  6
CONTINUOUS
 62
           7
100
AcDbLine
 10
287.914577241452
 20
-141.419153860706
 11
288.414577241452
 21
-141.419153860706
  0
LINE
  5
61
100
AcDbEntity
  8
1
  6
CONTINUOUS
 62
           7
100
AcDbLine
 10
290.414577241452
 20
-178.669153860706
 11
290.414577241452
 21
-181.169153860706
  0
LINE
  5
60
100
AcDbEntity
  8
1
  6
CONTINUOUS
 62
           7
100
AcDbLine
 10
284.208672466852
 20
-200.446980275106
 11
284.91656378187
 21
-200.13007085776
  0
LINE
  5
5F
100
AcDbEntity
  8
1
  6
CONTINUOUS
 62
           7
100
AcDbLine
 10
216.913128773016
 20
-256.95853416832
 11
211.766756613452
 21
-252.634335922106
  0
LINE
  5
5E
100
AcDbEntity
  8
1
  6
CONTINUOUS
 62
           7
100
AcDbLine
 10
206.530901083452
 20
-251.622707407505
 11
206.088159867652
 21
-251.645608190706
  0
LINE
  5
5D
100
AcDbEntity
  8
0
  6
CONTINUOUS
 62
           7
100
AcDbLine
 10
185.338319138106
 20
-244.919153860706
 11
200.153910931852
 21
-244.919153860706
  0
LINE
  5
5C
100
AcDbEntity
  8
0
  6
CONTINUOUS
 62
           7
100
AcDbLine
 10
199.348243085652
 20
-245.919153860706
 11
197.067932550452
 21
-245.919153860706
  0
LINE
  5
5B
100
AcDbEntity
  8
0
  6
CONTINUOUS
 62
           7
100
AcDbLine
 10
261.330592536252
 20
-332.185038226506
 11
263.320236150746
 21
-339.610489284174
  0
LINE
  5
5A
100
AcDbEntity
  8
1
  6
CONTINUOUS
 62
           7
100
AcDbLine
 10
226.720000531412
 20
-294.939187533492
 11
226.968379507326
 21
-292.038530937555
  0
LINE
  5
59
100
AcDbEntity
  8
0
  6
CONTINUOUS
 62
           7
100
AcDbLine
 10
226.968379507326
 20
-292.038530937555
 11
218.520731080652
 21
-260.511477804906
  0
LINE
  5
58
100
AcDbEntity
  8
0
  6
CONTINUOUS
 62
           7
100
AcDbLine
 10
158.414577241452
 20
-204.997406432906
 11
158.414577241452
 21
-204.122018230506
  0
LINE
  5
57
100
AcDbEntity
  8
0
  6
CONTINUOUS
 62
           7
100
AcDbLine
 10
158.414577241452
 20
-204.476195408306
 11
158.414577241452
 21
-203.622018230506
  0
LINE
  5
56
100
AcDbEntity
  8
0
  6
CONTINUOUS
 62
           7
100
AcDbLine
 10
158.414577241452
 20
-204.476195408306
 11
158.414577241452
 21
-204.997406432906
  0
LINE
  5
55
100
AcDbEntity
  8
0
  6
CONTINUOUS
 62
           7
100
AcDbLine
 10
-16.781575181348
 20
-186.400620493505
 11
-16.781575181348
 21
-193.919153860706
  0
LINE
  5
54
100
AcDbEntity
  8
0
  6
CONTINUOUS
 62
           7
100
AcDbLine
 10
-16.635650340348
 20
-186.378362020222
 11
-16.635650340348
 21
-181.45994570119
  0
LINE
  5
53
100
AcDbEntity
  8
0
  6
CONTINUOUS
 62
           7
100
AcDbLine
 10
-16.001675744148
 20
-186.172039212601
 11
-16.001675744148
 21
-181.666268508811
  0
LINE
  5
52
100
AcDbEntity
  8
0
  6
CONTINUOUS
 62
           7
100
AcDbLine
 10
-15.540358212148
 20
-181.953759358968
 11
-15.540358212148
 21
-185.889765332306
  0
LINE
  5
51
100
AcDbEntity
  8
1
  6
CONTINUOUS
 62
           7
100
AcDbLine
 10
-102.379310580151
 20
-139.298241596906
 11
-102.141693383478
 21
-139.321589668309
  0
LINE
  5
50
100
AcDbEntity
  8
0
  6
CONTINUOUS
 62
           7
100
AcDbLine
 39
0.15
 10
-117.286113347551
 20
-124.014684140706
 11
-117.362972225951
 21
-123.237292363106
  0
LINE
  5
4F
100
AcDbEntity
  8
0
  6
CONTINUOUS
 62
           7
100
AcDbLine
 39
0.15
 10
-117.058490356151
 20
-124.762201188506
 11
-117.286113347551
 21
-124.014684140706
  0
LINE
  5
4E
100
AcDbEntity
  8
0
  6
CONTINUOUS
 62
           7
100
AcDbLine
 39
0.15
 10
-116.688850675151
 20
-125.451116845306
 11
-117.058490356151
 21
-124.762201188506
  0
LINE
  5
4D
100
AcDbEntity
  8
0
  6
CONTINUOUS
 62
           7
100
AcDbLine
 39
0.15
 10
-116.191399350751
 20
-126.054956468706
 11
-116.688850675151
 21
-125.451116845306
  0
LINE
  5
4C
100
AcDbEntity
  8
0
  6
CONTINUOUS
 62
           7
100
AcDbLine
 39
0.15
 10
-115.585253158151
 20
-126.550514840706
 11
-116.191399350751
 21
-126.054956468706
  0
LINE
  5
4B
100
AcDbEntity
  8
0
  6
CONTINUOUS
 62
           7
100
AcDbLine
 39
0.15
 10
-114.893705955551
 20
-126.918747930906
 11
-115.585253158151
 21
-126.550514840706
  0
LINE
  5
4A
100
AcDbEntity
  8
0
  6
CONTINUOUS
 62
           7
100
AcDbLine
 39
0.15
 10
-114.143333514151
 20
-127.145504748306
 11
-114.893705955551
 21
-126.918747930906
  0
LINE
  5
49
100
AcDbEntity
  8
0
  6
CONTINUOUS
 62
           7
100
AcDbLine
 39
0.15
 10
-113.362972225951
 20
-127.222071155306
 11
-114.143333514151
 21
-127.145504748306
  0
LINE
  5
48
100
AcDbEntity
  8
0
  6
CONTINUOUS
 62
           7
100
AcDbLine
 39
0.15
 10
-114.143333514151
 20
-127.014771134106
 11
-113.362972225951
 21
-127.091337541306
  0
LINE
  5
47
100
AcDbEntity
  8
0
  6
CONTINUOUS
 62
           7
100
AcDbLine
 39
0.15
 10
-114.893705955551
 20
-126.788014316706
 11
-114.143333514151
 21
-127.014771134106
  0
LINE
  5
46
100
AcDbEntity
  8
0
  6
CONTINUOUS
 62
           7
100
AcDbLine
 39
0.15
 10
-115.585253158151
 20
-126.419781226506
 11
-114.893705955551
 21
-126.788014316706
  0
LINE
  5
45
100
AcDbEntity
  8
0
  6
CONTINUOUS
 62
           7
100
AcDbLine
 39
0.15
 10
-116.191399350751
 20
-125.924222854506
 11
-115.585253158151
 21
-126.419781226506
  0
LINE
  5
44
100
AcDbEntity
  8
0
  6
CONTINUOUS
 62
           7
100
AcDbLine
 39
0.15
 10
-116.688850675151
 20
-125.320383231106
 11
-116.191399350751
 21
-125.924222854506
  0
LINE
  5
43
100
AcDbEntity
  8
0
  6
CONTINUOUS
 62
           7
100
AcDbLine
 39
0.15
 10
-117.058490356151
 20
-124.631467574306
 11
-116.688850675151
 21
-125.320383231106
  0
LINE
  5
42
100
AcDbEntity
  8
0
  6
CONTINUOUS
 62
           7
100
AcDbLine
 39
0.15
 10
-117.286113347551
 20
-123.883950526706
 11
-117.058490356151
 21
-124.631467574306
  0
LINE
  5
41
100
AcDbEntity
  8
0
  6
CONTINUOUS
 62
           7
100
AcDbLine
 39
0.15
 10
-117.362972225951
 20
-123.106558748906
 11
-117.286113347551
 21
-123.883950526706
  0
LINE
  5
40
100
AcDbEntity
  8
0
  6
CONTINUOUS
 62
           7
100
AcDbLine
 10
-117.362972225951
 20
-123.237292363106
 11
-117.362972225951
 21
-123.106558748906
  0
LINE
  5
3F
100
AcDbEntity
  8
0
  6
CONTINUOUS
 62
           7
100
AcDbLine
 39
0.15
 10
-103.667454095951
 20
-124.762201188506
 11
-103.439831104351
 21
-124.014684140706
  0
LINE
  5
3E
100
AcDbEntity
  8
0
  6
CONTINUOUS
 62
           7
100
AcDbLine
 39
0.15
 10
-107.362972225951
 20
-127.222071155306
 11
-106.582610937951
 21
-127.145504748306
  0
LINE
  5
3D
100
AcDbEntity
  8
0
  6
CONTINUOUS
 62
           7
100
AcDbLine
 39
0.15
 10
-106.582610937951
 20
-127.014771134106
 11
-107.362972225951
 21
-127.091337541306
  0
LINE
  5
3C
100
AcDbEntity
  8
0
  6
CONTINUOUS
 62
           7
100
AcDbLine
 39
0.15
 10
-105.832238496551
 20
-126.788014316706
 11
-106.582610937951
 21
-127.014771134106
  0
LINE
  5
3B
100
AcDbEntity
  8
0
  6
CONTINUOUS
 62
           7
100
AcDbLine
 39
0.15
 10
-105.140691293951
 20
-126.419781226506
 11
-105.832238496551
 21
-126.788014316706
  0
LINE
  5
3A
100
AcDbEntity
  8
0
  6
CONTINUOUS
 62
           7
100
AcDbLine
 39
0.15
 10
-104.534545101351
 20
-125.924222854506
 11
-105.140691293951
 21
-126.419781226506
  0
LINE
  5
39
100
AcDbEntity
  8
0
  6
CONTINUOUS
 62
           7
100
AcDbLine
 39
0.15
 10
-104.037093776752
 20
-125.320383231106
 11
-104.534545101351
 21
-125.924222854506
  0
LINE
  5
38
100
AcDbEntity
  8
0
  6
CONTINUOUS
 62
           7
100
AcDbLine
 39
0.15
 10
-103.667454095951
 20
-124.631467574306
 11
-104.037093776752
 21
-125.320383231106
  0
LINE
  5
37
100
AcDbEntity
  8
0
  6
CONTINUOUS
 62
           7
100
AcDbLine
 39
0.15
 10
-103.439831104351
 20
-123.883950526706
 11
-103.667454095951
 21
-124.631467574306
  0
LINE
  5
36
100
AcDbEntity
  8
0
  6
CONTINUOUS
 62
           7
100
AcDbLine
 39
0.15
 10
-103.362972225951
 20
-123.106558748906
 11
-103.439831104351
 21
-123.883950526706
  0
LINE
  5
35
100
AcDbEntity
  8
0
  6
CONTINUOUS
 62
           7
100
AcDbLine
 10
-103.362972225951
 20
-123.237292363106
 11
-103.362972225951
 21
-123.106558748906
  0
LINE
  5
34
100
AcDbEntity
  8
0
  6
CONTINUOUS
 62
           7
100
AcDbLine
 39
0.15
 10
-103.439831104351
 20
-124.014684140706
 11
-103.362972225951
 21
-123.237292363106
  0
LINE
  5
33
100
AcDbEntity
  8
0
  6
CONTINUOUS
 62
           7
100
AcDbLine
 10
-103.362972225951
 20
-136.419153860706
 11
-103.362972225951
 21
-123.237292363106
  0
LINE
  5
32
100
AcDbEntity
  8
0
  6
CONTINUOUS
 62
           7
100
AcDbLine
 39
0.15
 10
-104.037093776752
 20
-125.451116845306
 11
-103.667454095951
 21
-124.762201188506
  0
LINE
  5
31
100
AcDbEntity
  8
0
  6
CONTINUOUS
 62
           7
100
AcDbLine
 10
-121.362972225951
 20
-223.126436218665
 11
-122.557419734951
 21
-232.667430970306
  0
LINE
  5
30
100
AcDbEntity
  8
1
  6
CONTINUOUS
 62
           7
100
AcDbLine
 10
-98.781098024792
 20
-235.702887660034
 11
-99.362972225951
 21
-227.857728870906
  0
LINE
  5
2F
100
AcDbEntity
  8
1
  6
CONTINUOUS
 62
           7
100
AcDbLine
 10
-121.362972226012
 20
-227.857728870906
 11
-121.944846427171
 21
-235.702887660034
  0
LINE
  5
2E
100
AcDbEntity
  8
0
  6
CONTINUOUS
 62
           7
100
AcDbLine
 10
-110.362972225981
 20
-251.642889501126
 11
-106.789673613951
 21
-251.581938110706
  0
LINE
  5
2D
100
AcDbEntity
  8
0
  6
CONTINUOUS
 62
           7
100
AcDbLine
 10
-113.936270838012
 20
-251.581938110706
 11
-110.362972225981
 21
-251.642889501126
  0
LINE
  5
2C
100
AcDbEntity
  8
1
  6
DOT_CENTER
 62
           2
100
AcDbLine
 10
-28.379561001166
 20
-183.919153860706
 11
305.871639139822
 21
-183.919153860706
  0
LINE
  5
2B
100
AcDbEntity
  8
1
  6
DOT_CENTER
 62
           2
100
AcDbLine
 10
-136.48254015632
 20
-183.919153860706
 11
-81.682711889438
 21
-183.919153860706
  0
LINE
  5
2A
100
AcDbEntity
  8
1
  6
DOT_CENTER
 62
           2
100
AcDbLine
 10
-110.362972225951
 20
-97.022481628755
 11
-110.362972225951
 21
-386.480054621456
  0
POINT
  5
29
100
AcDbEntity
  8
0
 62
           7
100
AcDbPoint
 10
-130.862972225951
 20
-183.919153860706
  0
POINT
  5
28
100
AcDbEntity
  8
0
 62
           7
100
AcDbPoint
 10
-89.862972225951
 20
-183.919153860706
  0
ENDSEC
  0
SECTION
  2
OBJECTS
  0
DICTIONARY
  5
19
100
AcDbDictionary
  3
ACAD_GROUP
350
1A
  3
ACAD_MLINESTYLE
350
1B
  0
DICTIONARY
  5
1A
102
{ACAD_REACTORS
330
19
102
}
100
AcDbDictionary
  0
DICTIONARY
  5
1B
102
{ACAD_REACTORS
330
19
102
}
100
AcDbDictionary
  3
STANDARD
350
1C
  0
MLINESTYLE
  5
1C
102
{ACAD_REACTORS
330
1B
102
}
100
AcDbMlineStyle
  2
STANDARD
 70
           0
  3

 62
           0
 51
90.0
 52
90.0
 71
           2
 49
0.5
 62
         256
  6
BYLAYER
 49
-0.5
 62
         256
  6
BYLAYER
  0
ENDSEC
  0
EOF
